999
Converted by 3D Exploration 
999
XDimension Software, LLC
999
http://www.xdsoft.com/explorer/
0
SECTION
2
HEADER
9
$ACADVER
1
AC1008
9
$UCSORG
10
0.0
20
0.0
30
0.0
9
$UCSXDIR
10
1.0
20
0.0
30
0.0
9
$TILEMODE
70
1
9
$UCSYDIR
10
0.0
20
1.0
30
0.0
9
$EXTMIN
10
0.000000
20
-94.250000
30
-94.250000
9
$EXTMAX
10
72.103996
20
94.250000
30
103.250000
0
ENDSEC
0
SECTION
2
TABLES
0
TABLE
2
LTYPE
70
1
0
LTYPE
2
CONTINUOUS
70
64
3
Solid line
72
65
73
0
40
0.0
0
ENDTAB
0
TABLE
2
LAYER
70
30
0
LAYER
2
OBJECT__0
70
0
62
253
6
CONTINUOUS
0
LAYER
2
OBJECT__1
70
0
62
253
6
CONTINUOUS
0
LAYER
2
OBJECT__3
70
0
62
253
6
CONTINUOUS
0
LAYER
2
OBJECT__4
70
0
62
253
6
CONTINUOUS
0
LAYER
2
OBJECT__5
70
0
62
253
6
CONTINUOUS
0
LAYER
2
OBJECT__6
70
0
62
253
6
CONTINUOUS
0
LAYER
2
OBJECT__8
70
0
62
253
6
CONTINUOUS
0
LAYER
2
OBJECT__9
70
0
62
253
6
CONTINUOUS
0
LAYER
2
OBJECT__11
70
0
62
253
6
CONTINUOUS
0
LAYER
2
OBJECT__12
70
0
62
253
6
CONTINUOUS
0
LAYER
2
OBJECT__13
70
0
62
253
6
CONTINUOUS
0
LAYER
2
OBJECT__14
70
0
62
253
6
CONTINUOUS
0
LAYER
2
OBJECT__16
70
0
62
253
6
CONTINUOUS
0
LAYER
2
OBJECT__17
70
0
62
253
6
CONTINUOUS
0
LAYER
2
OBJECT__18
70
0
62
253
6
CONTINUOUS
0
LAYER
2
OBJECT__19
70
0
62
253
6
CONTINUOUS
0
LAYER
2
OBJECT__20
70
0
62
253
6
CONTINUOUS
0
LAYER
2
OBJECT__22
70
0
62
253
6
CONTINUOUS
0
LAYER
2
OBJECT__24
70
0
62
253
6
CONTINUOUS
0
LAYER
2
OBJECT__25
70
0
62
253
6
CONTINUOUS
0
LAYER
2
OBJECT__27
70
0
62
253
6
CONTINUOUS
0
LAYER
2
OBJECT__28
70
0
62
253
6
CONTINUOUS
0
LAYER
2
OBJECT__29
70
0
62
253
6
CONTINUOUS
0
ENDTAB
0
TABLE
2
STYLE
70
1
0
STYLE
2
STANDARD
70
0
40
0.0
41
1.0
50
0.0
71
0
42
0.2
3
txt
4
1
0
ENDTAB
0
TABLE
2
UCS
70
0
0
ENDTAB
0
ENDSEC
0
SECTION
2
ENTITIES
0
POLYLINE
8
OBJECT__0
66
1
70
64
71
17
72
17
62
253
0
VERTEX
8
OBJECT__0
10
14.938000
20
4.500000
30
64.000000
70
192
0
VERTEX
8
OBJECT__0
10
30.969999
20
4.500000
30
64.000000
70
192
0
VERTEX
8
OBJECT__0
10
30.969999
20
3.182000
30
60.818001
70
192
0
VERTEX
8
OBJECT__0
10
14.938000
20
1.391000
30
59.720001
70
192
0
VERTEX
8
OBJECT__0
10
14.938000
20
-3.641000
30
61.355000
70
192
0
VERTEX
8
OBJECT__0
10
30.969999
20
0.000000
30
59.500000
70
192
0
VERTEX
8
OBJECT__0
10
30.969999
20
-3.182000
30
60.818001
70
192
0
VERTEX
8
OBJECT__0
10
30.969999
20
1.265000
30
60.023998
70
192
0
VERTEX
8
OBJECT__0
10
14.938000
20
-3.641000
30
66.644997
70
192
0
VERTEX
8
OBJECT__0
10
30.969999
20
-4.500000
30
64.000000
70
192
0
VERTEX
8
OBJECT__0
10
30.969999
20
-3.439000
30
61.438000
70
192
0
VERTEX
8
OBJECT__0
10
30.969999
20
-3.182000
30
67.181999
70
192
0
VERTEX
8
OBJECT__0
10
30.969999
20
0.000000
30
68.500000
70
192
0
VERTEX
8
OBJECT__0
10
14.938000
20
1.391000
30
68.279999
70
192
0
VERTEX
8
OBJECT__0
10
30.969999
20
-3.439000
30
66.561996
70
192
0
VERTEX
8
OBJECT__0
10
30.969999
20
3.182000
30
67.181999
70
192
0
VERTEX
8
OBJECT__0
10
30.969999
20
1.265000
30
67.975998
70
192
0
VERTEX
8
OBJECT__0
10
0
20
0
30
0
70
128
71
1
72
2
73
3
0
VERTEX
8
OBJECT__0
10
0
20
0
30
0
70
128
71
3
72
4
73
1
0
VERTEX
8
OBJECT__0
10
0
20
0
30
0
70
128
71
5
72
4
73
6
0
VERTEX
8
OBJECT__0
10
0
20
0
30
0
70
128
71
6
72
7
73
5
0
VERTEX
8
OBJECT__0
10
0
20
0
30
0
70
128
71
4
72
8
73
6
0
VERTEX
8
OBJECT__0
10
0
20
0
30
0
70
128
71
9
72
5
73
10
0
VERTEX
8
OBJECT__0
10
0
20
0
30
0
70
128
71
5
72
11
73
10
0
VERTEX
8
OBJECT__0
10
0
20
0
30
0
70
128
71
9
72
12
73
13
0
VERTEX
8
OBJECT__0
10
0
20
0
30
0
70
128
71
13
72
14
73
9
0
VERTEX
8
OBJECT__0
10
0
20
0
30
0
70
128
71
9
72
15
73
12
0
VERTEX
8
OBJECT__0
10
0
20
0
30
0
70
128
71
1
72
14
73
16
0
VERTEX
8
OBJECT__0
10
0
20
0
30
0
70
128
71
14
72
17
73
16
0
VERTEX
8
OBJECT__0
10
0
20
0
30
0
70
128
71
16
72
2
73
1
0
VERTEX
8
OBJECT__0
10
0
20
0
30
0
70
128
71
13
72
17
73
14
0
VERTEX
8
OBJECT__0
10
0
20
0
30
0
70
128
71
10
72
15
73
9
0
VERTEX
8
OBJECT__0
10
0
20
0
30
0
70
128
71
7
72
11
73
5
0
VERTEX
8
OBJECT__0
10
0
20
0
30
0
70
128
71
3
72
8
73
4
0
SEQEND
8
OBJECT__0
0
POLYLINE
8
OBJECT__1
66
1
70
64
71
32
72
40
62
253
0
VERTEX
8
OBJECT__1
10
31.836000
20
4.243000
30
59.757000
70
192
0
VERTEX
8
OBJECT__1
10
31.836000
20
3.536000
30
60.464001
70
192
0
VERTEX
8
OBJECT__1
10
31.836000
20
5.000000
30
64.000000
70
192
0
VERTEX
8
OBJECT__1
10
31.836000
20
0.000000
30
59.000000
70
192
0
VERTEX
8
OBJECT__1
10
31.836000
20
2.845000
30
59.178001
70
192
0
VERTEX
8
OBJECT__1
10
31.836000
20
0.000000
30
58.000000
70
192
0
VERTEX
8
OBJECT__1
10
31.836000
20
-2.845000
30
59.178001
70
192
0
VERTEX
8
OBJECT__1
10
31.836000
20
-3.536000
30
60.464001
70
192
0
VERTEX
8
OBJECT__1
10
31.836000
20
-4.243000
30
59.757000
70
192
0
VERTEX
8
OBJECT__1
10
31.836000
20
-6.000000
30
64.000000
70
192
0
VERTEX
8
OBJECT__1
10
31.836000
20
-5.000000
30
64.000000
70
192
0
VERTEX
8
OBJECT__1
10
31.836000
20
-4.243000
30
68.242996
70
192
0
VERTEX
8
OBJECT__1
10
31.836000
20
-3.536000
30
67.536003
70
192
0
VERTEX
8
OBJECT__1
10
31.836000
20
0.000000
30
69.000000
70
192
0
VERTEX
8
OBJECT__1
10
31.836000
20
-2.845000
30
68.821999
70
192
0
VERTEX
8
OBJECT__1
10
31.836000
20
0.000000
30
70.000000
70
192
0
VERTEX
8
OBJECT__1
10
31.836000
20
2.845000
30
68.821999
70
192
0
VERTEX
8
OBJECT__1
10
31.836000
20
3.536000
30
67.536003
70
192
0
VERTEX
8
OBJECT__1
10
31.836000
20
4.243000
30
68.242996
70
192
0
VERTEX
8
OBJECT__1
10
31.836000
20
6.000000
30
64.000000
70
192
0
VERTEX
8
OBJECT__1
10
30.969999
20
3.182000
30
60.818001
70
192
0
VERTEX
8
OBJECT__1
10
30.969999
20
4.500000
30
64.000000
70
192
0
VERTEX
8
OBJECT__1
10
30.969999
20
1.265000
30
60.023998
70
192
0
VERTEX
8
OBJECT__1
10
30.969999
20
0.000000
30
59.500000
70
192
0
VERTEX
8
OBJECT__1
10
30.969999
20
-3.182000
30
60.818001
70
192
0
VERTEX
8
OBJECT__1
10
30.969999
20
-4.500000
30
64.000000
70
192
0
VERTEX
8
OBJECT__1
10
30.969999
20
-3.439000
30
61.438000
70
192
0
VERTEX
8
OBJECT__1
10
30.969999
20
-3.439000
30
66.561996
70
192
0
VERTEX
8
OBJECT__1
10
30.969999
20
-3.182000
30
67.181999
70
192
0
VERTEX
8
OBJECT__1
10
30.969999
20
0.000000
30
68.500000
70
192
0
VERTEX
8
OBJECT__1
10
30.969999
20
3.182000
30
67.181999
70
192
0
VERTEX
8
OBJECT__1
10
30.969999
20
1.265000
30
67.975998
70
192
0
VERTEX
8
OBJECT__1
10
0
20
0
30
0
70
128
71
1
72
2
73
3
0
VERTEX
8
OBJECT__1
10
0
20
0
30
0
70
128
71
4
72
2
73
5
0
VERTEX
8
OBJECT__1
10
0
20
0
30
0
70
128
71
2
72
1
73
5
0
VERTEX
8
OBJECT__1
10
0
20
0
30
0
70
128
71
4
72
6
73
7
0
VERTEX
8
OBJECT__1
10
0
20
0
30
0
70
128
71
7
72
8
73
4
0
VERTEX
8
OBJECT__1
10
0
20
0
30
0
70
128
71
9
72
10
73
11
0
VERTEX
8
OBJECT__1
10
0
20
0
30
0
70
128
71
10
72
12
73
13
0
VERTEX
8
OBJECT__1
10
0
20
0
30
0
70
128
71
14
72
13
73
15
0
VERTEX
8
OBJECT__1
10
0
20
0
30
0
70
128
71
13
72
12
73
15
0
VERTEX
8
OBJECT__1
10
0
20
0
30
0
70
128
71
14
72
16
73
17
0
VERTEX
8
OBJECT__1
10
0
20
0
30
0
70
128
71
17
72
18
73
14
0
VERTEX
8
OBJECT__1
10
0
20
0
30
0
70
128
71
19
72
20
73
3
0
VERTEX
8
OBJECT__1
10
0
20
0
30
0
70
128
71
2
72
21
73
22
0
VERTEX
8
OBJECT__1
10
0
20
0
30
0
70
128
71
2
72
4
73
23
0
VERTEX
8
OBJECT__1
10
0
20
0
30
0
70
128
71
4
72
24
73
23
0
VERTEX
8
OBJECT__1
10
0
20
0
30
0
70
128
71
4
72
8
73
25
0
VERTEX
8
OBJECT__1
10
0
20
0
30
0
70
128
71
11
72
26
73
27
0
VERTEX
8
OBJECT__1
10
0
20
0
30
0
70
128
71
27
72
8
73
11
0
VERTEX
8
OBJECT__1
10
0
20
0
30
0
70
128
71
11
72
13
73
28
0
VERTEX
8
OBJECT__1
10
0
20
0
30
0
70
128
71
13
72
29
73
28
0
VERTEX
8
OBJECT__1
10
0
20
0
30
0
70
128
71
14
72
30
73
29
0
VERTEX
8
OBJECT__1
10
0
20
0
30
0
70
128
71
18
72
31
73
32
0
VERTEX
8
OBJECT__1
10
0
20
0
30
0
70
128
71
32
72
14
73
18
0
VERTEX
8
OBJECT__1
10
0
20
0
30
0
70
128
71
3
72
22
73
31
0
VERTEX
8
OBJECT__1
10
0
20
0
30
0
70
128
71
31
72
18
73
3
0
VERTEX
8
OBJECT__1
10
0
20
0
30
0
70
128
71
32
72
30
73
14
0
VERTEX
8
OBJECT__1
10
0
20
0
30
0
70
128
71
29
72
13
73
14
0
VERTEX
8
OBJECT__1
10
0
20
0
30
0
70
128
71
28
72
26
73
11
0
VERTEX
8
OBJECT__1
10
0
20
0
30
0
70
128
71
27
72
25
73
8
0
VERTEX
8
OBJECT__1
10
0
20
0
30
0
70
128
71
25
72
24
73
4
0
VERTEX
8
OBJECT__1
10
0
20
0
30
0
70
128
71
23
72
21
73
2
0
VERTEX
8
OBJECT__1
10
0
20
0
30
0
70
128
71
22
72
3
73
2
0
VERTEX
8
OBJECT__1
10
0
20
0
30
0
70
128
71
3
72
18
73
19
0
VERTEX
8
OBJECT__1
10
0
20
0
30
0
70
128
71
17
72
19
73
18
0
VERTEX
8
OBJECT__1
10
0
20
0
30
0
70
128
71
15
72
16
73
14
0
VERTEX
8
OBJECT__1
10
0
20
0
30
0
70
128
71
13
72
11
73
10
0
VERTEX
8
OBJECT__1
10
0
20
0
30
0
70
128
71
11
72
8
73
9
0
VERTEX
8
OBJECT__1
10
0
20
0
30
0
70
128
71
7
72
9
73
8
0
VERTEX
8
OBJECT__1
10
0
20
0
30
0
70
128
71
5
72
6
73
4
0
VERTEX
8
OBJECT__1
10
0
20
0
30
0
70
128
71
3
72
20
73
1
0
SEQEND
8
OBJECT__1
0
POLYLINE
8
OBJECT__3
66
1
70
64
71
24
72
24
62
253
0
VERTEX
8
OBJECT__3
10
36.577000
20
6.000000
30
64.000000
70
192
0
VERTEX
8
OBJECT__3
10
36.577000
20
4.243000
30
59.757000
70
192
0
VERTEX
8
OBJECT__3
10
31.836000
20
4.243000
30
59.757000
70
192
0
VERTEX
8
OBJECT__3
10
31.836000
20
2.845000
30
59.178001
70
192
0
VERTEX
8
OBJECT__3
10
36.577000
20
2.845000
30
59.178001
70
192
0
VERTEX
8
OBJECT__3
10
36.577000
20
0.000000
30
58.000000
70
192
0
VERTEX
8
OBJECT__3
10
31.836000
20
0.000000
30
58.000000
70
192
0
VERTEX
8
OBJECT__3
10
36.577000
20
-2.845000
30
59.178001
70
192
0
VERTEX
8
OBJECT__3
10
31.836000
20
-2.845000
30
59.178001
70
192
0
VERTEX
8
OBJECT__3
10
36.577000
20
-4.243000
30
59.757000
70
192
0
VERTEX
8
OBJECT__3
10
36.577000
20
-6.000000
30
64.000000
70
192
0
VERTEX
8
OBJECT__3
10
31.836000
20
-6.000000
30
64.000000
70
192
0
VERTEX
8
OBJECT__3
10
31.836000
20
-4.243000
30
59.757000
70
192
0
VERTEX
8
OBJECT__3
10
36.577000
20
-4.243000
30
68.242996
70
192
0
VERTEX
8
OBJECT__3
10
36.577000
20
-2.845000
30
68.821999
70
192
0
VERTEX
8
OBJECT__3
10
31.836000
20
-2.845000
30
68.821999
70
192
0
VERTEX
8
OBJECT__3
10
31.836000
20
-4.243000
30
68.242996
70
192
0
VERTEX
8
OBJECT__3
10
31.836000
20
2.845000
30
68.821999
70
192
0
VERTEX
8
OBJECT__3
10
31.836000
20
0.000000
30
70.000000
70
192
0
VERTEX
8
OBJECT__3
10
36.577000
20
0.000000
30
70.000000
70
192
0
VERTEX
8
OBJECT__3
10
36.577000
20
2.845000
30
68.821999
70
192
0
VERTEX
8
OBJECT__3
10
36.577000
20
4.243000
30
68.242996
70
192
0
VERTEX
8
OBJECT__3
10
31.836000
20
4.243000
30
68.242996
70
192
0
VERTEX
8
OBJECT__3
10
31.836000
20
6.000000
30
64.000000
70
192
0
VERTEX
8
OBJECT__3
10
0
20
0
30
0
70
128
71
1
72
2
73
3
0
VERTEX
8
OBJECT__3
10
0
20
0
30
0
70
128
71
4
72
3
73
2
0
VERTEX
8
OBJECT__3
10
0
20
0
30
0
70
128
71
2
72
5
73
4
0
VERTEX
8
OBJECT__3
10
0
20
0
30
0
70
128
71
5
72
6
73
7
0
VERTEX
8
OBJECT__3
10
0
20
0
30
0
70
128
71
7
72
6
73
8
0
VERTEX
8
OBJECT__3
10
0
20
0
30
0
70
128
71
8
72
9
73
7
0
VERTEX
8
OBJECT__3
10
0
20
0
30
0
70
128
71
9
72
8
73
10
0
VERTEX
8
OBJECT__3
10
0
20
0
30
0
70
128
71
11
72
12
73
13
0
VERTEX
8
OBJECT__3
10
0
20
0
30
0
70
128
71
13
72
10
73
11
0
VERTEX
8
OBJECT__3
10
0
20
0
30
0
70
128
71
12
72
11
73
14
0
VERTEX
8
OBJECT__3
10
0
20
0
30
0
70
128
71
15
72
16
73
17
0
VERTEX
8
OBJECT__3
10
0
20
0
30
0
70
128
71
17
72
14
73
15
0
VERTEX
8
OBJECT__3
10
0
20
0
30
0
70
128
71
18
72
19
73
20
0
VERTEX
8
OBJECT__3
10
0
20
0
30
0
70
128
71
16
72
15
73
20
0
VERTEX
8
OBJECT__3
10
0
20
0
30
0
70
128
71
20
72
19
73
16
0
VERTEX
8
OBJECT__3
10
0
20
0
30
0
70
128
71
21
72
22
73
23
0
VERTEX
8
OBJECT__3
10
0
20
0
30
0
70
128
71
24
72
23
73
22
0
VERTEX
8
OBJECT__3
10
0
20
0
30
0
70
128
71
22
72
1
73
24
0
VERTEX
8
OBJECT__3
10
0
20
0
30
0
70
128
71
23
72
18
73
21
0
VERTEX
8
OBJECT__3
10
0
20
0
30
0
70
128
71
20
72
21
73
18
0
VERTEX
8
OBJECT__3
10
0
20
0
30
0
70
128
71
14
72
17
73
12
0
VERTEX
8
OBJECT__3
10
0
20
0
30
0
70
128
71
10
72
13
73
9
0
VERTEX
8
OBJECT__3
10
0
20
0
30
0
70
128
71
7
72
4
73
5
0
VERTEX
8
OBJECT__3
10
0
20
0
30
0
70
128
71
3
72
24
73
1
0
SEQEND
8
OBJECT__3
0
POLYLINE
8
OBJECT__4
66
1
70
64
71
13
72
12
62
253
0
VERTEX
8
OBJECT__4
10
36.938000
20
0.000000
30
64.000000
70
192
0
VERTEX
8
OBJECT__4
10
36.577000
20
0.000000
30
58.000000
70
192
0
VERTEX
8
OBJECT__4
10
36.577000
20
2.845000
30
59.178001
70
192
0
VERTEX
8
OBJECT__4
10
36.577000
20
-4.243000
30
59.757000
70
192
0
VERTEX
8
OBJECT__4
10
36.577000
20
-2.845000
30
59.178001
70
192
0
VERTEX
8
OBJECT__4
10
36.577000
20
0.000000
30
70.000000
70
192
0
VERTEX
8
OBJECT__4
10
36.577000
20
-2.845000
30
68.821999
70
192
0
VERTEX
8
OBJECT__4
10
36.577000
20
4.243000
30
68.242996
70
192
0
VERTEX
8
OBJECT__4
10
36.577000
20
2.845000
30
68.821999
70
192
0
VERTEX
8
OBJECT__4
10
36.577000
20
6.000000
30
64.000000
70
192
0
VERTEX
8
OBJECT__4
10
36.577000
20
-4.243000
30
68.242996
70
192
0
VERTEX
8
OBJECT__4
10
36.577000
20
-6.000000
30
64.000000
70
192
0
VERTEX
8
OBJECT__4
10
36.577000
20
4.243000
30
59.757000
70
192
0
VERTEX
8
OBJECT__4
10
0
20
0
30
0
70
128
71
1
72
2
73
3
0
VERTEX
8
OBJECT__4
10
0
20
0
30
0
70
128
71
1
72
4
73
5
0
VERTEX
8
OBJECT__4
10
0
20
0
30
0
70
128
71
1
72
6
73
7
0
VERTEX
8
OBJECT__4
10
0
20
0
30
0
70
128
71
1
72
8
73
9
0
VERTEX
8
OBJECT__4
10
0
20
0
30
0
70
128
71
10
72
8
73
1
0
VERTEX
8
OBJECT__4
10
0
20
0
30
0
70
128
71
9
72
6
73
1
0
VERTEX
8
OBJECT__4
10
0
20
0
30
0
70
128
71
7
72
11
73
1
0
VERTEX
8
OBJECT__4
10
0
20
0
30
0
70
128
71
11
72
12
73
1
0
VERTEX
8
OBJECT__4
10
0
20
0
30
0
70
128
71
12
72
4
73
1
0
VERTEX
8
OBJECT__4
10
0
20
0
30
0
70
128
71
5
72
2
73
1
0
VERTEX
8
OBJECT__4
10
0
20
0
30
0
70
128
71
3
72
13
73
1
0
VERTEX
8
OBJECT__4
10
0
20
0
30
0
70
128
71
13
72
10
73
1
0
SEQEND
8
OBJECT__4
0
POLYLINE
8
OBJECT__5
66
1
70
64
71
24
72
24
62
253
0
VERTEX
8
OBJECT__5
10
61.209999
20
-19.486000
30
20.270000
70
192
0
VERTEX
8
OBJECT__5
10
61.209999
20
-22.500000
30
9.020000
70
192
0
VERTEX
8
OBJECT__5
10
72.103996
20
-22.500000
30
9.020000
70
192
0
VERTEX
8
OBJECT__5
10
72.103996
20
-19.486000
30
20.270000
70
192
0
VERTEX
8
OBJECT__5
10
72.103996
20
-11.250000
30
28.506001
70
192
0
VERTEX
8
OBJECT__5
10
61.209999
20
0.000000
30
31.520000
70
192
0
VERTEX
8
OBJECT__5
10
61.209999
20
-11.250000
30
28.506001
70
192
0
VERTEX
8
OBJECT__5
10
72.103996
20
0.000000
30
31.520000
70
192
0
VERTEX
8
OBJECT__5
10
72.103996
20
11.250000
30
28.506001
70
192
0
VERTEX
8
OBJECT__5
10
61.209999
20
11.250000
30
28.506001
70
192
0
VERTEX
8
OBJECT__5
10
72.103996
20
19.486000
30
20.270000
70
192
0
VERTEX
8
OBJECT__5
10
72.103996
20
22.500000
30
9.020000
70
192
0
VERTEX
8
OBJECT__5
10
61.209999
20
22.500000
30
9.020000
70
192
0
VERTEX
8
OBJECT__5
10
72.103996
20
19.486000
30
-2.230000
70
192
0
VERTEX
8
OBJECT__5
10
61.209999
20
19.486000
30
-2.230000
70
192
0
VERTEX
8
OBJECT__5
10
61.209999
20
11.250000
30
-10.465000
70
192
0
VERTEX
8
OBJECT__5
10
72.103996
20
0.000000
30
-13.480000
70
192
0
VERTEX
8
OBJECT__5
10
61.209999
20
0.000000
30
-13.480000
70
192
0
VERTEX
8
OBJECT__5
10
72.103996
20
-11.250000
30
-10.465000
70
192
0
VERTEX
8
OBJECT__5
10
61.209999
20
-11.250000
30
-10.465000
70
192
0
VERTEX
8
OBJECT__5
10
61.209999
20
-19.486000
30
-2.230000
70
192
0
VERTEX
8
OBJECT__5
10
72.103996
20
-19.486000
30
-2.230000
70
192
0
VERTEX
8
OBJECT__5
10
72.103996
20
11.250000
30
-10.465000
70
192
0
VERTEX
8
OBJECT__5
10
61.209999
20
19.486000
30
20.270000
70
192
0
VERTEX
8
OBJECT__5
10
0
20
0
30
0
70
128
71
1
72
2
73
3
0
VERTEX
8
OBJECT__5
10
0
20
0
30
0
70
128
71
1
72
4
73
5
0
VERTEX
8
OBJECT__5
10
0
20
0
30
0
70
128
71
6
72
7
73
5
0
VERTEX
8
OBJECT__5
10
0
20
0
30
0
70
128
71
8
72
9
73
10
0
VERTEX
8
OBJECT__5
10
0
20
0
30
0
70
128
71
10
72
9
73
11
0
VERTEX
8
OBJECT__5
10
0
20
0
30
0
70
128
71
11
72
12
73
13
0
VERTEX
8
OBJECT__5
10
0
20
0
30
0
70
128
71
14
72
15
73
13
0
VERTEX
8
OBJECT__5
10
0
20
0
30
0
70
128
71
16
72
15
73
14
0
VERTEX
8
OBJECT__5
10
0
20
0
30
0
70
128
71
17
72
18
73
16
0
VERTEX
8
OBJECT__5
10
0
20
0
30
0
70
128
71
19
72
20
73
18
0
VERTEX
8
OBJECT__5
10
0
20
0
30
0
70
128
71
21
72
20
73
19
0
VERTEX
8
OBJECT__5
10
0
20
0
30
0
70
128
71
3
72
2
73
21
0
VERTEX
8
OBJECT__5
10
0
20
0
30
0
70
128
71
21
72
22
73
3
0
VERTEX
8
OBJECT__5
10
0
20
0
30
0
70
128
71
19
72
22
73
21
0
VERTEX
8
OBJECT__5
10
0
20
0
30
0
70
128
71
18
72
17
73
19
0
VERTEX
8
OBJECT__5
10
0
20
0
30
0
70
128
71
16
72
23
73
17
0
VERTEX
8
OBJECT__5
10
0
20
0
30
0
70
128
71
14
72
23
73
16
0
VERTEX
8
OBJECT__5
10
0
20
0
30
0
70
128
71
13
72
12
73
14
0
VERTEX
8
OBJECT__5
10
0
20
0
30
0
70
128
71
13
72
24
73
11
0
VERTEX
8
OBJECT__5
10
0
20
0
30
0
70
128
71
11
72
24
73
10
0
VERTEX
8
OBJECT__5
10
0
20
0
30
0
70
128
71
10
72
6
73
8
0
VERTEX
8
OBJECT__5
10
0
20
0
30
0
70
128
71
5
72
8
73
6
0
VERTEX
8
OBJECT__5
10
0
20
0
30
0
70
128
71
5
72
7
73
1
0
VERTEX
8
OBJECT__5
10
0
20
0
30
0
70
128
71
3
72
4
73
1
0
SEQEND
8
OBJECT__5
0
POLYLINE
8
OBJECT__6
66
1
70
64
71
12
72
10
62
253
0
VERTEX
8
OBJECT__6
10
72.103996
20
11.250000
30
28.506001
70
192
0
VERTEX
8
OBJECT__6
10
72.103996
20
19.486000
30
-2.230000
70
192
0
VERTEX
8
OBJECT__6
10
72.103996
20
22.500000
30
9.020000
70
192
0
VERTEX
8
OBJECT__6
10
72.103996
20
-22.500000
30
9.020000
70
192
0
VERTEX
8
OBJECT__6
10
72.103996
20
-19.486000
30
-2.230000
70
192
0
VERTEX
8
OBJECT__6
10
72.103996
20
-11.250000
30
-10.465000
70
192
0
VERTEX
8
OBJECT__6
10
72.103996
20
11.250000
30
-10.465000
70
192
0
VERTEX
8
OBJECT__6
10
72.103996
20
0.000000
30
-13.480000
70
192
0
VERTEX
8
OBJECT__6
10
72.103996
20
-19.486000
30
20.270000
70
192
0
VERTEX
8
OBJECT__6
10
72.103996
20
-11.250000
30
28.506001
70
192
0
VERTEX
8
OBJECT__6
10
72.103996
20
19.486000
30
20.270000
70
192
0
VERTEX
8
OBJECT__6
10
72.103996
20
0.000000
30
31.520000
70
192
0
VERTEX
8
OBJECT__6
10
0
20
0
30
0
70
128
71
1
72
2
73
3
0
VERTEX
8
OBJECT__6
10
0
20
0
30
0
70
128
71
4
72
5
73
6
0
VERTEX
8
OBJECT__6
10
0
20
0
30
0
70
128
71
1
72
7
73
2
0
VERTEX
8
OBJECT__6
10
0
20
0
30
0
70
128
71
8
72
9
73
4
0
VERTEX
8
OBJECT__6
10
0
20
0
30
0
70
128
71
1
72
8
73
7
0
VERTEX
8
OBJECT__6
10
0
20
0
30
0
70
128
71
8
72
10
73
9
0
VERTEX
8
OBJECT__6
10
0
20
0
30
0
70
128
71
3
72
11
73
1
0
VERTEX
8
OBJECT__6
10
0
20
0
30
0
70
128
71
8
72
12
73
10
0
VERTEX
8
OBJECT__6
10
0
20
0
30
0
70
128
71
6
72
8
73
4
0
VERTEX
8
OBJECT__6
10
0
20
0
30
0
70
128
71
1
72
12
73
8
0
SEQEND
8
OBJECT__6
0
POLYLINE
8
OBJECT__8
66
1
70
64
71
24
72
22
62
253
0
VERTEX
8
OBJECT__8
10
8.420000
20
-26.013000
30
9.000000
70
192
0
VERTEX
8
OBJECT__8
10
24.320000
20
-25.874001
30
9.000000
70
192
0
VERTEX
8
OBJECT__8
10
24.320000
20
-24.313999
30
17.849001
70
192
0
VERTEX
8
OBJECT__8
10
8.420000
20
-23.437000
30
20.287001
70
192
0
VERTEX
8
OBJECT__8
10
24.320000
20
-23.034000
30
20.066000
70
192
0
VERTEX
8
OBJECT__8
10
24.320000
20
-19.820999
30
25.631001
70
192
0
VERTEX
8
OBJECT__8
10
8.420000
20
-16.219000
30
29.337999
70
192
0
VERTEX
8
OBJECT__8
10
8.420000
20
-5.788000
30
34.361000
70
192
0
VERTEX
8
OBJECT__8
10
24.320000
20
-12.937000
30
31.408001
70
192
0
VERTEX
8
OBJECT__8
10
24.320000
20
-15.885000
30
28.934000
70
192
0
VERTEX
8
OBJECT__8
10
8.420000
20
5.788000
30
34.361000
70
192
0
VERTEX
8
OBJECT__8
10
24.320000
20
-4.493000
30
34.480999
70
192
0
VERTEX
8
OBJECT__8
10
24.320000
20
4.493000
30
34.480999
70
192
0
VERTEX
8
OBJECT__8
10
24.320000
20
-5.692000
30
34.044998
70
192
0
VERTEX
8
OBJECT__8
10
24.320000
20
5.692000
30
34.044998
70
192
0
VERTEX
8
OBJECT__8
10
24.320000
20
12.937000
30
31.408001
70
192
0
VERTEX
8
OBJECT__8
10
8.420000
20
16.219000
30
29.337999
70
192
0
VERTEX
8
OBJECT__8
10
8.420000
20
23.437000
30
20.287001
70
192
0
VERTEX
8
OBJECT__8
10
24.320000
20
19.820999
30
25.631001
70
192
0
VERTEX
8
OBJECT__8
10
24.320000
20
15.885000
30
28.934000
70
192
0
VERTEX
8
OBJECT__8
10
8.420000
20
26.013000
30
9.000000
70
192
0
VERTEX
8
OBJECT__8
10
24.320000
20
24.313999
30
17.849001
70
192
0
VERTEX
8
OBJECT__8
10
24.320000
20
23.034000
30
20.066000
70
192
0
VERTEX
8
OBJECT__8
10
24.320000
20
25.874001
30
9.000000
70
192
0
VERTEX
8
OBJECT__8
10
0
20
0
30
0
70
128
71
1
72
2
73
3
0
VERTEX
8
OBJECT__8
10
0
20
0
30
0
70
128
71
3
72
4
73
1
0
VERTEX
8
OBJECT__8
10
0
20
0
30
0
70
128
71
4
72
5
73
6
0
VERTEX
8
OBJECT__8
10
0
20
0
30
0
70
128
71
6
72
7
73
4
0
VERTEX
8
OBJECT__8
10
0
20
0
30
0
70
128
71
8
72
7
73
9
0
VERTEX
8
OBJECT__8
10
0
20
0
30
0
70
128
71
7
72
10
73
9
0
VERTEX
8
OBJECT__8
10
0
20
0
30
0
70
128
71
11
72
8
73
12
0
VERTEX
8
OBJECT__8
10
0
20
0
30
0
70
128
71
12
72
13
73
11
0
VERTEX
8
OBJECT__8
10
0
20
0
30
0
70
128
71
8
72
14
73
12
0
VERTEX
8
OBJECT__8
10
0
20
0
30
0
70
128
71
11
72
15
73
16
0
VERTEX
8
OBJECT__8
10
0
20
0
30
0
70
128
71
16
72
17
73
11
0
VERTEX
8
OBJECT__8
10
0
20
0
30
0
70
128
71
18
72
17
73
19
0
VERTEX
8
OBJECT__8
10
0
20
0
30
0
70
128
71
17
72
20
73
19
0
VERTEX
8
OBJECT__8
10
0
20
0
30
0
70
128
71
21
72
18
73
22
0
VERTEX
8
OBJECT__8
10
0
20
0
30
0
70
128
71
18
72
23
73
22
0
VERTEX
8
OBJECT__8
10
0
20
0
30
0
70
128
71
22
72
24
73
21
0
VERTEX
8
OBJECT__8
10
0
20
0
30
0
70
128
71
19
72
23
73
18
0
VERTEX
8
OBJECT__8
10
0
20
0
30
0
70
128
71
16
72
20
73
17
0
VERTEX
8
OBJECT__8
10
0
20
0
30
0
70
128
71
13
72
15
73
11
0
VERTEX
8
OBJECT__8
10
0
20
0
30
0
70
128
71
9
72
14
73
8
0
VERTEX
8
OBJECT__8
10
0
20
0
30
0
70
128
71
6
72
10
73
7
0
VERTEX
8
OBJECT__8
10
0
20
0
30
0
70
128
71
3
72
5
73
4
0
SEQEND
8
OBJECT__8
0
POLYLINE
8
OBJECT__9
66
1
70
64
71
24
72
22
62
253
0
VERTEX
8
OBJECT__9
10
8.420000
20
26.013000
30
9.000000
70
192
0
VERTEX
8
OBJECT__9
10
24.320000
20
25.874001
30
9.000000
70
192
0
VERTEX
8
OBJECT__9
10
24.320000
20
24.313999
30
0.151000
70
192
0
VERTEX
8
OBJECT__9
10
8.420000
20
23.437000
30
-2.287000
70
192
0
VERTEX
8
OBJECT__9
10
24.320000
20
23.034000
30
-2.066000
70
192
0
VERTEX
8
OBJECT__9
10
24.320000
20
19.820999
30
-7.631000
70
192
0
VERTEX
8
OBJECT__9
10
8.420000
20
16.219000
30
-11.338000
70
192
0
VERTEX
8
OBJECT__9
10
8.420000
20
5.788000
30
-16.361000
70
192
0
VERTEX
8
OBJECT__9
10
24.320000
20
12.937000
30
-13.408000
70
192
0
VERTEX
8
OBJECT__9
10
24.320000
20
15.885000
30
-10.934000
70
192
0
VERTEX
8
OBJECT__9
10
8.420000
20
-5.788000
30
-16.361000
70
192
0
VERTEX
8
OBJECT__9
10
24.320000
20
4.493000
30
-16.481001
70
192
0
VERTEX
8
OBJECT__9
10
24.320000
20
-4.493000
30
-16.481001
70
192
0
VERTEX
8
OBJECT__9
10
24.320000
20
5.692000
30
-16.045000
70
192
0
VERTEX
8
OBJECT__9
10
24.320000
20
-5.692000
30
-16.045000
70
192
0
VERTEX
8
OBJECT__9
10
24.320000
20
-12.937000
30
-13.408000
70
192
0
VERTEX
8
OBJECT__9
10
8.420000
20
-16.219000
30
-11.338000
70
192
0
VERTEX
8
OBJECT__9
10
8.420000
20
-23.437000
30
-2.287000
70
192
0
VERTEX
8
OBJECT__9
10
24.320000
20
-19.820999
30
-7.631000
70
192
0
VERTEX
8
OBJECT__9
10
24.320000
20
-15.885000
30
-10.934000
70
192
0
VERTEX
8
OBJECT__9
10
8.420000
20
-26.013000
30
9.000000
70
192
0
VERTEX
8
OBJECT__9
10
24.320000
20
-24.313999
30
0.151000
70
192
0
VERTEX
8
OBJECT__9
10
24.320000
20
-23.034000
30
-2.066000
70
192
0
VERTEX
8
OBJECT__9
10
24.320000
20
-25.874001
30
9.000000
70
192
0
VERTEX
8
OBJECT__9
10
0
20
0
30
0
70
128
71
1
72
2
73
3
0
VERTEX
8
OBJECT__9
10
0
20
0
30
0
70
128
71
3
72
4
73
1
0
VERTEX
8
OBJECT__9
10
0
20
0
30
0
70
128
71
4
72
5
73
6
0
VERTEX
8
OBJECT__9
10
0
20
0
30
0
70
128
71
6
72
7
73
4
0
VERTEX
8
OBJECT__9
10
0
20
0
30
0
70
128
71
8
72
7
73
9
0
VERTEX
8
OBJECT__9
10
0
20
0
30
0
70
128
71
7
72
10
73
9
0
VERTEX
8
OBJECT__9
10
0
20
0
30
0
70
128
71
11
72
8
73
12
0
VERTEX
8
OBJECT__9
10
0
20
0
30
0
70
128
71
12
72
13
73
11
0
VERTEX
8
OBJECT__9
10
0
20
0
30
0
70
128
71
8
72
14
73
12
0
VERTEX
8
OBJECT__9
10
0
20
0
30
0
70
128
71
11
72
15
73
16
0
VERTEX
8
OBJECT__9
10
0
20
0
30
0
70
128
71
16
72
17
73
11
0
VERTEX
8
OBJECT__9
10
0
20
0
30
0
70
128
71
18
72
17
73
19
0
VERTEX
8
OBJECT__9
10
0
20
0
30
0
70
128
71
17
72
20
73
19
0
VERTEX
8
OBJECT__9
10
0
20
0
30
0
70
128
71
21
72
18
73
22
0
VERTEX
8
OBJECT__9
10
0
20
0
30
0
70
128
71
18
72
23
73
22
0
VERTEX
8
OBJECT__9
10
0
20
0
30
0
70
128
71
22
72
24
73
21
0
VERTEX
8
OBJECT__9
10
0
20
0
30
0
70
128
71
19
72
23
73
18
0
VERTEX
8
OBJECT__9
10
0
20
0
30
0
70
128
71
16
72
20
73
17
0
VERTEX
8
OBJECT__9
10
0
20
0
30
0
70
128
71
13
72
15
73
11
0
VERTEX
8
OBJECT__9
10
0
20
0
30
0
70
128
71
9
72
14
73
8
0
VERTEX
8
OBJECT__9
10
0
20
0
30
0
70
128
71
6
72
10
73
7
0
VERTEX
8
OBJECT__9
10
0
20
0
30
0
70
128
71
3
72
5
73
4
0
SEQEND
8
OBJECT__9
0
POLYLINE
8
OBJECT__11
66
1
70
64
71
46
72
60
62
253
0
VERTEX
8
OBJECT__11
10
24.320000
20
-24.313999
30
0.151000
70
192
0
VERTEX
8
OBJECT__11
10
31.714001
20
-23.236000
30
0.543000
70
192
0
VERTEX
8
OBJECT__11
10
31.714001
20
-24.728001
30
9.000000
70
192
0
VERTEX
8
OBJECT__11
10
31.714001
20
-18.941999
30
-6.895000
70
192
0
VERTEX
8
OBJECT__11
10
24.320000
20
-23.034000
30
-2.066000
70
192
0
VERTEX
8
OBJECT__11
10
24.320000
20
-19.820999
30
-7.631000
70
192
0
VERTEX
8
OBJECT__11
10
24.320000
20
-15.885000
30
-10.934000
70
192
0
VERTEX
8
OBJECT__11
10
31.714001
20
-12.364000
30
-12.415000
70
192
0
VERTEX
8
OBJECT__11
10
24.320000
20
-12.937000
30
-13.408000
70
192
0
VERTEX
8
OBJECT__11
10
24.320000
20
-5.692000
30
-16.045000
70
192
0
VERTEX
8
OBJECT__11
10
31.714001
20
-4.294000
30
-15.352000
70
192
0
VERTEX
8
OBJECT__11
10
24.320000
20
-4.493000
30
-16.481001
70
192
0
VERTEX
8
OBJECT__11
10
24.320000
20
4.493000
30
-16.481001
70
192
0
VERTEX
8
OBJECT__11
10
31.714001
20
4.294000
30
-15.352000
70
192
0
VERTEX
8
OBJECT__11
10
31.714001
20
12.364000
30
-12.415000
70
192
0
VERTEX
8
OBJECT__11
10
24.320000
20
5.692000
30
-16.045000
70
192
0
VERTEX
8
OBJECT__11
10
31.714001
20
18.941999
30
-6.895000
70
192
0
VERTEX
8
OBJECT__11
10
24.320000
20
15.885000
30
-10.934000
70
192
0
VERTEX
8
OBJECT__11
10
24.320000
20
12.937000
30
-13.408000
70
192
0
VERTEX
8
OBJECT__11
10
24.320000
20
19.820999
30
-7.631000
70
192
0
VERTEX
8
OBJECT__11
10
24.320000
20
23.034000
30
-2.066000
70
192
0
VERTEX
8
OBJECT__11
10
31.714001
20
23.236000
30
0.543000
70
192
0
VERTEX
8
OBJECT__11
10
24.320000
20
24.313999
30
0.151000
70
192
0
VERTEX
8
OBJECT__11
10
24.320000
20
25.874001
30
9.000000
70
192
0
VERTEX
8
OBJECT__11
10
31.714001
20
24.728001
30
9.000000
70
192
0
VERTEX
8
OBJECT__11
10
38.471001
20
-20.216000
30
1.642000
70
192
0
VERTEX
8
OBJECT__11
10
38.471001
20
-21.513000
30
9.000000
70
192
0
VERTEX
8
OBJECT__11
10
38.471001
20
-16.480000
30
-4.828000
70
192
0
VERTEX
8
OBJECT__11
10
38.471001
20
-10.757000
30
-9.631000
70
192
0
VERTEX
8
OBJECT__11
10
38.471001
20
-3.736000
30
-12.186000
70
192
0
VERTEX
8
OBJECT__11
10
38.471001
20
3.736000
30
-12.186000
70
192
0
VERTEX
8
OBJECT__11
10
38.471001
20
10.757000
30
-9.631000
70
192
0
VERTEX
8
OBJECT__11
10
38.471001
20
16.480000
30
-4.828000
70
192
0
VERTEX
8
OBJECT__11
10
38.471001
20
20.216000
30
1.642000
70
192
0
VERTEX
8
OBJECT__11
10
38.471001
20
21.513000
30
9.000000
70
192
0
VERTEX
8
OBJECT__11
10
44.025002
20
-15.505000
30
3.357000
70
192
0
VERTEX
8
OBJECT__11
10
44.025002
20
-12.640000
30
-1.606000
70
192
0
VERTEX
8
OBJECT__11
10
44.025002
20
-8.250000
30
-5.289000
70
192
0
VERTEX
8
OBJECT__11
10
44.025002
20
-2.865000
30
-7.249000
70
192
0
VERTEX
8
OBJECT__11
10
44.025002
20
2.865000
30
-7.249000
70
192
0
VERTEX
8
OBJECT__11
10
44.025002
20
8.250000
30
-5.289000
70
192
0
VERTEX
8
OBJECT__11
10
44.025002
20
12.640000
30
-1.606000
70
192
0
VERTEX
8
OBJECT__11
10
44.025002
20
15.505000
30
3.357000
70
192
0
VERTEX
8
OBJECT__11
10
44.025002
20
16.500000
30
9.000000
70
192
0
VERTEX
8
OBJECT__11
10
44.025002
20
-16.500000
30
9.000000
70
192
0
VERTEX
8
OBJECT__11
10
24.320000
20
-25.874001
30
9.000000
70
192
0
VERTEX
8
OBJECT__11
10
0
20
0
30
0
70
128
71
1
72
2
73
3
0
VERTEX
8
OBJECT__11
10
0
20
0
30
0
70
128
71
4
72
2
73
5
0
VERTEX
8
OBJECT__11
10
0
20
0
30
0
70
128
71
2
72
1
73
5
0
VERTEX
8
OBJECT__11
10
0
20
0
30
0
70
128
71
4
72
6
73
7
0
VERTEX
8
OBJECT__11
10
0
20
0
30
0
70
128
71
7
72
8
73
4
0
VERTEX
8
OBJECT__11
10
0
20
0
30
0
70
128
71
8
72
9
73
10
0
VERTEX
8
OBJECT__11
10
0
20
0
30
0
70
128
71
10
72
11
73
8
0
VERTEX
8
OBJECT__11
10
0
20
0
30
0
70
128
71
12
72
13
73
14
0
VERTEX
8
OBJECT__11
10
0
20
0
30
0
70
128
71
15
72
14
73
16
0
VERTEX
8
OBJECT__11
10
0
20
0
30
0
70
128
71
14
72
13
73
16
0
VERTEX
8
OBJECT__11
10
0
20
0
30
0
70
128
71
17
72
15
73
18
0
VERTEX
8
OBJECT__11
10
0
20
0
30
0
70
128
71
15
72
19
73
18
0
VERTEX
8
OBJECT__11
10
0
20
0
30
0
70
128
71
17
72
20
73
21
0
VERTEX
8
OBJECT__11
10
0
20
0
30
0
70
128
71
21
72
22
73
17
0
VERTEX
8
OBJECT__11
10
0
20
0
30
0
70
128
71
23
72
24
73
25
0
VERTEX
8
OBJECT__11
10
0
20
0
30
0
70
128
71
2
72
26
73
27
0
VERTEX
8
OBJECT__11
10
0
20
0
30
0
70
128
71
2
72
4
73
28
0
VERTEX
8
OBJECT__11
10
0
20
0
30
0
70
128
71
4
72
8
73
29
0
VERTEX
8
OBJECT__11
10
0
20
0
30
0
70
128
71
8
72
11
73
30
0
VERTEX
8
OBJECT__11
10
0
20
0
30
0
70
128
71
11
72
14
73
31
0
VERTEX
8
OBJECT__11
10
0
20
0
30
0
70
128
71
14
72
15
73
32
0
VERTEX
8
OBJECT__11
10
0
20
0
30
0
70
128
71
15
72
17
73
33
0
VERTEX
8
OBJECT__11
10
0
20
0
30
0
70
128
71
17
72
22
73
34
0
VERTEX
8
OBJECT__11
10
0
20
0
30
0
70
128
71
22
72
25
73
35
0
VERTEX
8
OBJECT__11
10
0
20
0
30
0
70
128
71
27
72
26
73
36
0
VERTEX
8
OBJECT__11
10
0
20
0
30
0
70
128
71
26
72
28
73
37
0
VERTEX
8
OBJECT__11
10
0
20
0
30
0
70
128
71
28
72
29
73
38
0
VERTEX
8
OBJECT__11
10
0
20
0
30
0
70
128
71
29
72
30
73
39
0
VERTEX
8
OBJECT__11
10
0
20
0
30
0
70
128
71
31
72
40
73
39
0
VERTEX
8
OBJECT__11
10
0
20
0
30
0
70
128
71
31
72
32
73
41
0
VERTEX
8
OBJECT__11
10
0
20
0
30
0
70
128
71
32
72
33
73
42
0
VERTEX
8
OBJECT__11
10
0
20
0
30
0
70
128
71
33
72
34
73
43
0
VERTEX
8
OBJECT__11
10
0
20
0
30
0
70
128
71
35
72
44
73
43
0
VERTEX
8
OBJECT__11
10
0
20
0
30
0
70
128
71
43
72
34
73
35
0
VERTEX
8
OBJECT__11
10
0
20
0
30
0
70
128
71
43
72
42
73
33
0
VERTEX
8
OBJECT__11
10
0
20
0
30
0
70
128
71
42
72
41
73
32
0
VERTEX
8
OBJECT__11
10
0
20
0
30
0
70
128
71
41
72
40
73
31
0
VERTEX
8
OBJECT__11
10
0
20
0
30
0
70
128
71
39
72
30
73
31
0
VERTEX
8
OBJECT__11
10
0
20
0
30
0
70
128
71
39
72
38
73
29
0
VERTEX
8
OBJECT__11
10
0
20
0
30
0
70
128
71
38
72
37
73
28
0
VERTEX
8
OBJECT__11
10
0
20
0
30
0
70
128
71
37
72
36
73
26
0
VERTEX
8
OBJECT__11
10
0
20
0
30
0
70
128
71
36
72
45
73
27
0
VERTEX
8
OBJECT__11
10
0
20
0
30
0
70
128
71
35
72
34
73
22
0
VERTEX
8
OBJECT__11
10
0
20
0
30
0
70
128
71
34
72
33
73
17
0
VERTEX
8
OBJECT__11
10
0
20
0
30
0
70
128
71
33
72
32
73
15
0
VERTEX
8
OBJECT__11
10
0
20
0
30
0
70
128
71
32
72
31
73
14
0
VERTEX
8
OBJECT__11
10
0
20
0
30
0
70
128
71
31
72
30
73
11
0
VERTEX
8
OBJECT__11
10
0
20
0
30
0
70
128
71
30
72
29
73
8
0
VERTEX
8
OBJECT__11
10
0
20
0
30
0
70
128
71
29
72
28
73
4
0
VERTEX
8
OBJECT__11
10
0
20
0
30
0
70
128
71
28
72
26
73
2
0
VERTEX
8
OBJECT__11
10
0
20
0
30
0
70
128
71
27
72
3
73
2
0
VERTEX
8
OBJECT__11
10
0
20
0
30
0
70
128
71
25
72
22
73
23
0
VERTEX
8
OBJECT__11
10
0
20
0
30
0
70
128
71
21
72
23
73
22
0
VERTEX
8
OBJECT__11
10
0
20
0
30
0
70
128
71
18
72
20
73
17
0
VERTEX
8
OBJECT__11
10
0
20
0
30
0
70
128
71
16
72
19
73
15
0
VERTEX
8
OBJECT__11
10
0
20
0
30
0
70
128
71
14
72
11
73
12
0
VERTEX
8
OBJECT__11
10
0
20
0
30
0
70
128
71
10
72
12
73
11
0
VERTEX
8
OBJECT__11
10
0
20
0
30
0
70
128
71
7
72
9
73
8
0
VERTEX
8
OBJECT__11
10
0
20
0
30
0
70
128
71
5
72
6
73
4
0
VERTEX
8
OBJECT__11
10
0
20
0
30
0
70
128
71
3
72
46
73
1
0
SEQEND
8
OBJECT__11
0
POLYLINE
8
OBJECT__12
66
1
70
64
71
46
72
60
62
253
0
VERTEX
8
OBJECT__12
10
24.320000
20
24.313999
30
17.849001
70
192
0
VERTEX
8
OBJECT__12
10
31.714001
20
23.236000
30
17.457001
70
192
0
VERTEX
8
OBJECT__12
10
31.714001
20
24.728001
30
9.000000
70
192
0
VERTEX
8
OBJECT__12
10
31.714001
20
18.941999
30
24.895000
70
192
0
VERTEX
8
OBJECT__12
10
24.320000
20
23.034000
30
20.066000
70
192
0
VERTEX
8
OBJECT__12
10
24.320000
20
19.820999
30
25.631001
70
192
0
VERTEX
8
OBJECT__12
10
24.320000
20
15.885000
30
28.934000
70
192
0
VERTEX
8
OBJECT__12
10
31.714001
20
12.364000
30
30.415001
70
192
0
VERTEX
8
OBJECT__12
10
24.320000
20
12.937000
30
31.408001
70
192
0
VERTEX
8
OBJECT__12
10
24.320000
20
5.692000
30
34.044998
70
192
0
VERTEX
8
OBJECT__12
10
31.714001
20
4.294000
30
33.352001
70
192
0
VERTEX
8
OBJECT__12
10
24.320000
20
4.493000
30
34.480999
70
192
0
VERTEX
8
OBJECT__12
10
24.320000
20
-4.493000
30
34.480999
70
192
0
VERTEX
8
OBJECT__12
10
31.714001
20
-4.294000
30
33.352001
70
192
0
VERTEX
8
OBJECT__12
10
31.714001
20
-12.364000
30
30.415001
70
192
0
VERTEX
8
OBJECT__12
10
24.320000
20
-5.692000
30
34.044998
70
192
0
VERTEX
8
OBJECT__12
10
31.714001
20
-18.941999
30
24.895000
70
192
0
VERTEX
8
OBJECT__12
10
24.320000
20
-15.885000
30
28.934000
70
192
0
VERTEX
8
OBJECT__12
10
24.320000
20
-12.937000
30
31.408001
70
192
0
VERTEX
8
OBJECT__12
10
24.320000
20
-19.820999
30
25.631001
70
192
0
VERTEX
8
OBJECT__12
10
24.320000
20
-23.034000
30
20.066000
70
192
0
VERTEX
8
OBJECT__12
10
31.714001
20
-23.236000
30
17.457001
70
192
0
VERTEX
8
OBJECT__12
10
24.320000
20
-24.313999
30
17.849001
70
192
0
VERTEX
8
OBJECT__12
10
24.320000
20
-25.874001
30
9.000000
70
192
0
VERTEX
8
OBJECT__12
10
31.714001
20
-24.728001
30
9.000000
70
192
0
VERTEX
8
OBJECT__12
10
38.471001
20
20.216000
30
16.358000
70
192
0
VERTEX
8
OBJECT__12
10
38.471001
20
16.480000
30
22.827999
70
192
0
VERTEX
8
OBJECT__12
10
38.471001
20
10.757000
30
27.631001
70
192
0
VERTEX
8
OBJECT__12
10
38.471001
20
3.736000
30
30.186001
70
192
0
VERTEX
8
OBJECT__12
10
38.471001
20
-3.736000
30
30.186001
70
192
0
VERTEX
8
OBJECT__12
10
38.471001
20
-10.757000
30
27.631001
70
192
0
VERTEX
8
OBJECT__12
10
38.471001
20
-16.480000
30
22.827999
70
192
0
VERTEX
8
OBJECT__12
10
38.471001
20
-20.216000
30
16.358000
70
192
0
VERTEX
8
OBJECT__12
10
38.471001
20
-21.513000
30
9.000000
70
192
0
VERTEX
8
OBJECT__12
10
38.471001
20
21.513000
30
9.000000
70
192
0
VERTEX
8
OBJECT__12
10
44.025002
20
15.505000
30
14.643000
70
192
0
VERTEX
8
OBJECT__12
10
44.025002
20
12.640000
30
19.606001
70
192
0
VERTEX
8
OBJECT__12
10
44.025002
20
8.250000
30
23.289000
70
192
0
VERTEX
8
OBJECT__12
10
44.025002
20
2.865000
30
25.249001
70
192
0
VERTEX
8
OBJECT__12
10
44.025002
20
-2.865000
30
25.249001
70
192
0
VERTEX
8
OBJECT__12
10
44.025002
20
-8.250000
30
23.289000
70
192
0
VERTEX
8
OBJECT__12
10
44.025002
20
-12.640000
30
19.606001
70
192
0
VERTEX
8
OBJECT__12
10
44.025002
20
-15.505000
30
14.643000
70
192
0
VERTEX
8
OBJECT__12
10
44.025002
20
-16.500000
30
9.000000
70
192
0
VERTEX
8
OBJECT__12
10
44.025002
20
16.500000
30
9.000000
70
192
0
VERTEX
8
OBJECT__12
10
24.320000
20
25.874001
30
9.000000
70
192
0
VERTEX
8
OBJECT__12
10
0
20
0
30
0
70
128
71
1
72
2
73
3
0
VERTEX
8
OBJECT__12
10
0
20
0
30
0
70
128
71
4
72
2
73
5
0
VERTEX
8
OBJECT__12
10
0
20
0
30
0
70
128
71
2
72
1
73
5
0
VERTEX
8
OBJECT__12
10
0
20
0
30
0
70
128
71
4
72
6
73
7
0
VERTEX
8
OBJECT__12
10
0
20
0
30
0
70
128
71
7
72
8
73
4
0
VERTEX
8
OBJECT__12
10
0
20
0
30
0
70
128
71
8
72
9
73
10
0
VERTEX
8
OBJECT__12
10
0
20
0
30
0
70
128
71
10
72
11
73
8
0
VERTEX
8
OBJECT__12
10
0
20
0
30
0
70
128
71
12
72
13
73
14
0
VERTEX
8
OBJECT__12
10
0
20
0
30
0
70
128
71
15
72
14
73
16
0
VERTEX
8
OBJECT__12
10
0
20
0
30
0
70
128
71
14
72
13
73
16
0
VERTEX
8
OBJECT__12
10
0
20
0
30
0
70
128
71
17
72
15
73
18
0
VERTEX
8
OBJECT__12
10
0
20
0
30
0
70
128
71
15
72
19
73
18
0
VERTEX
8
OBJECT__12
10
0
20
0
30
0
70
128
71
17
72
20
73
21
0
VERTEX
8
OBJECT__12
10
0
20
0
30
0
70
128
71
21
72
22
73
17
0
VERTEX
8
OBJECT__12
10
0
20
0
30
0
70
128
71
23
72
24
73
25
0
VERTEX
8
OBJECT__12
10
0
20
0
30
0
70
128
71
3
72
2
73
26
0
VERTEX
8
OBJECT__12
10
0
20
0
30
0
70
128
71
2
72
4
73
27
0
VERTEX
8
OBJECT__12
10
0
20
0
30
0
70
128
71
4
72
8
73
28
0
VERTEX
8
OBJECT__12
10
0
20
0
30
0
70
128
71
8
72
11
73
29
0
VERTEX
8
OBJECT__12
10
0
20
0
30
0
70
128
71
11
72
14
73
30
0
VERTEX
8
OBJECT__12
10
0
20
0
30
0
70
128
71
14
72
15
73
31
0
VERTEX
8
OBJECT__12
10
0
20
0
30
0
70
128
71
15
72
17
73
32
0
VERTEX
8
OBJECT__12
10
0
20
0
30
0
70
128
71
17
72
22
73
33
0
VERTEX
8
OBJECT__12
10
0
20
0
30
0
70
128
71
25
72
34
73
33
0
VERTEX
8
OBJECT__12
10
0
20
0
30
0
70
128
71
35
72
26
73
36
0
VERTEX
8
OBJECT__12
10
0
20
0
30
0
70
128
71
26
72
27
73
37
0
VERTEX
8
OBJECT__12
10
0
20
0
30
0
70
128
71
27
72
28
73
38
0
VERTEX
8
OBJECT__12
10
0
20
0
30
0
70
128
71
28
72
29
73
39
0
VERTEX
8
OBJECT__12
10
0
20
0
30
0
70
128
71
29
72
30
73
40
0
VERTEX
8
OBJECT__12
10
0
20
0
30
0
70
128
71
30
72
31
73
41
0
VERTEX
8
OBJECT__12
10
0
20
0
30
0
70
128
71
31
72
32
73
42
0
VERTEX
8
OBJECT__12
10
0
20
0
30
0
70
128
71
32
72
33
73
43
0
VERTEX
8
OBJECT__12
10
0
20
0
30
0
70
128
71
34
72
44
73
43
0
VERTEX
8
OBJECT__12
10
0
20
0
30
0
70
128
71
43
72
33
73
34
0
VERTEX
8
OBJECT__12
10
0
20
0
30
0
70
128
71
43
72
42
73
32
0
VERTEX
8
OBJECT__12
10
0
20
0
30
0
70
128
71
42
72
41
73
31
0
VERTEX
8
OBJECT__12
10
0
20
0
30
0
70
128
71
41
72
40
73
30
0
VERTEX
8
OBJECT__12
10
0
20
0
30
0
70
128
71
40
72
39
73
29
0
VERTEX
8
OBJECT__12
10
0
20
0
30
0
70
128
71
39
72
38
73
28
0
VERTEX
8
OBJECT__12
10
0
20
0
30
0
70
128
71
38
72
37
73
27
0
VERTEX
8
OBJECT__12
10
0
20
0
30
0
70
128
71
37
72
36
73
26
0
VERTEX
8
OBJECT__12
10
0
20
0
30
0
70
128
71
36
72
45
73
35
0
VERTEX
8
OBJECT__12
10
0
20
0
30
0
70
128
71
33
72
22
73
25
0
VERTEX
8
OBJECT__12
10
0
20
0
30
0
70
128
71
33
72
32
73
17
0
VERTEX
8
OBJECT__12
10
0
20
0
30
0
70
128
71
32
72
31
73
15
0
VERTEX
8
OBJECT__12
10
0
20
0
30
0
70
128
71
31
72
30
73
14
0
VERTEX
8
OBJECT__12
10
0
20
0
30
0
70
128
71
30
72
29
73
11
0
VERTEX
8
OBJECT__12
10
0
20
0
30
0
70
128
71
29
72
28
73
8
0
VERTEX
8
OBJECT__12
10
0
20
0
30
0
70
128
71
28
72
27
73
4
0
VERTEX
8
OBJECT__12
10
0
20
0
30
0
70
128
71
27
72
26
73
2
0
VERTEX
8
OBJECT__12
10
0
20
0
30
0
70
128
71
26
72
35
73
3
0
VERTEX
8
OBJECT__12
10
0
20
0
30
0
70
128
71
25
72
22
73
23
0
VERTEX
8
OBJECT__12
10
0
20
0
30
0
70
128
71
21
72
23
73
22
0
VERTEX
8
OBJECT__12
10
0
20
0
30
0
70
128
71
18
72
20
73
17
0
VERTEX
8
OBJECT__12
10
0
20
0
30
0
70
128
71
16
72
19
73
15
0
VERTEX
8
OBJECT__12
10
0
20
0
30
0
70
128
71
14
72
11
73
12
0
VERTEX
8
OBJECT__12
10
0
20
0
30
0
70
128
71
10
72
12
73
11
0
VERTEX
8
OBJECT__12
10
0
20
0
30
0
70
128
71
7
72
9
73
8
0
VERTEX
8
OBJECT__12
10
0
20
0
30
0
70
128
71
5
72
6
73
4
0
VERTEX
8
OBJECT__12
10
0
20
0
30
0
70
128
71
3
72
46
73
1
0
SEQEND
8
OBJECT__12
0
POLYLINE
8
OBJECT__13
66
1
70
64
71
66
72
84
62
253
0
VERTEX
8
OBJECT__13
10
36.409000
20
0.000000
30
35.535000
70
192
0
VERTEX
8
OBJECT__13
10
36.409000
20
9.069000
30
33.936001
70
192
0
VERTEX
8
OBJECT__13
10
36.193001
20
9.039000
30
33.855999
70
192
0
VERTEX
8
OBJECT__13
10
36.193001
20
16.988001
30
29.266001
70
192
0
VERTEX
8
OBJECT__13
10
36.409000
20
12.131000
30
32.167999
70
192
0
VERTEX
8
OBJECT__13
10
36.409000
20
17.042999
30
29.332001
70
192
0
VERTEX
8
OBJECT__13
10
36.409000
20
21.601999
30
23.899000
70
192
0
VERTEX
8
OBJECT__13
10
36.193001
20
22.888000
30
22.235001
70
192
0
VERTEX
8
OBJECT__13
10
36.409000
20
22.962999
30
22.278000
70
192
0
VERTEX
8
OBJECT__13
10
36.409000
20
26.112000
30
13.625000
70
192
0
VERTEX
8
OBJECT__13
10
36.193001
20
26.027000
30
13.610000
70
192
0
VERTEX
8
OBJECT__13
10
36.193001
20
26.027000
30
4.431000
70
192
0
VERTEX
8
OBJECT__13
10
36.409000
20
26.112000
30
12.217000
70
192
0
VERTEX
8
OBJECT__13
10
36.409000
20
26.112000
30
4.416000
70
192
0
VERTEX
8
OBJECT__13
10
36.409000
20
24.416000
30
-0.245000
70
192
0
VERTEX
8
OBJECT__13
10
36.193001
20
22.888000
30
-4.194000
70
192
0
VERTEX
8
OBJECT__13
10
36.409000
20
22.962999
30
-4.237000
70
192
0
VERTEX
8
OBJECT__13
10
36.409000
20
17.495001
30
-10.753000
70
192
0
VERTEX
8
OBJECT__13
10
36.193001
20
16.988001
30
-11.225000
70
192
0
VERTEX
8
OBJECT__13
10
36.409000
20
17.042999
30
-11.291000
70
192
0
VERTEX
8
OBJECT__13
10
36.409000
20
9.069000
30
-15.895000
70
192
0
VERTEX
8
OBJECT__13
10
36.193001
20
9.039000
30
-15.815000
70
192
0
VERTEX
8
OBJECT__13
10
36.193001
20
0.000000
30
-17.408001
70
192
0
VERTEX
8
OBJECT__13
10
36.409000
20
6.286000
30
-16.386000
70
192
0
VERTEX
8
OBJECT__13
10
36.409000
20
0.000000
30
-17.493999
70
192
0
VERTEX
8
OBJECT__13
10
36.409000
20
-6.286000
30
-16.386000
70
192
0
VERTEX
8
OBJECT__13
10
36.193001
20
-9.039000
30
-15.815000
70
192
0
VERTEX
8
OBJECT__13
10
36.409000
20
-9.069000
30
-15.895000
70
192
0
VERTEX
8
OBJECT__13
10
36.409000
20
-17.042999
30
-11.291000
70
192
0
VERTEX
8
OBJECT__13
10
36.193001
20
-16.988001
30
-11.225000
70
192
0
VERTEX
8
OBJECT__13
10
36.193001
20
-22.888000
30
-4.194000
70
192
0
VERTEX
8
OBJECT__13
10
36.409000
20
-17.495001
30
-10.753000
70
192
0
VERTEX
8
OBJECT__13
10
36.193001
20
-26.027000
30
4.431000
70
192
0
VERTEX
8
OBJECT__13
10
36.409000
20
-24.416000
30
-0.245000
70
192
0
VERTEX
8
OBJECT__13
10
36.409000
20
-22.962999
30
-4.237000
70
192
0
VERTEX
8
OBJECT__13
10
36.409000
20
-26.112000
30
4.416000
70
192
0
VERTEX
8
OBJECT__13
10
36.409000
20
-26.112000
30
12.217000
70
192
0
VERTEX
8
OBJECT__13
10
36.193001
20
-26.027000
30
13.610000
70
192
0
VERTEX
8
OBJECT__13
10
36.409000
20
-22.962999
30
22.278000
70
192
0
VERTEX
8
OBJECT__13
10
36.193001
20
-22.888000
30
22.235001
70
192
0
VERTEX
8
OBJECT__13
10
36.193001
20
-16.988001
30
29.266001
70
192
0
VERTEX
8
OBJECT__13
10
36.409000
20
-21.601999
30
23.899000
70
192
0
VERTEX
8
OBJECT__13
10
36.409000
20
-17.042999
30
29.332001
70
192
0
VERTEX
8
OBJECT__13
10
36.409000
20
-12.131000
30
32.167999
70
192
0
VERTEX
8
OBJECT__13
10
36.193001
20
-9.039000
30
33.855999
70
192
0
VERTEX
8
OBJECT__13
10
36.193001
20
0.000000
30
35.449001
70
192
0
VERTEX
8
OBJECT__13
10
36.104000
20
8.966000
30
33.653999
70
192
0
VERTEX
8
OBJECT__13
10
36.104000
20
0.000000
30
35.235001
70
192
0
VERTEX
8
OBJECT__13
10
36.104000
20
16.851000
30
29.101999
70
192
0
VERTEX
8
OBJECT__13
10
36.104000
20
22.702999
30
22.128000
70
192
0
VERTEX
8
OBJECT__13
10
36.104000
20
25.816999
30
13.573000
70
192
0
VERTEX
8
OBJECT__13
10
36.104000
20
25.816999
30
4.468000
70
192
0
VERTEX
8
OBJECT__13
10
36.104000
20
22.702999
30
-4.087000
70
192
0
VERTEX
8
OBJECT__13
10
36.104000
20
16.851000
30
-11.061000
70
192
0
VERTEX
8
OBJECT__13
10
36.104000
20
8.966000
30
-15.613000
70
192
0
VERTEX
8
OBJECT__13
10
36.104000
20
0.000000
30
-17.194000
70
192
0
VERTEX
8
OBJECT__13
10
36.104000
20
-8.966000
30
-15.613000
70
192
0
VERTEX
8
OBJECT__13
10
36.104000
20
-16.851000
30
-11.061000
70
192
0
VERTEX
8
OBJECT__13
10
36.104000
20
-22.702999
30
-4.087000
70
192
0
VERTEX
8
OBJECT__13
10
36.104000
20
-25.816999
30
4.468000
70
192
0
VERTEX
8
OBJECT__13
10
36.104000
20
-25.816999
30
13.573000
70
192
0
VERTEX
8
OBJECT__13
10
36.104000
20
-22.702999
30
22.128000
70
192
0
VERTEX
8
OBJECT__13
10
36.104000
20
-16.851000
30
29.101999
70
192
0
VERTEX
8
OBJECT__13
10
36.104000
20
-8.966000
30
33.653999
70
192
0
VERTEX
8
OBJECT__13
10
36.409000
20
-9.069000
30
33.936001
70
192
0
VERTEX
8
OBJECT__13
10
36.409000
20
-26.112000
30
13.625000
70
192
0
VERTEX
8
OBJECT__13
10
0
20
0
30
0
70
128
71
1
72
2
73
3
0
VERTEX
8
OBJECT__13
10
0
20
0
30
0
70
128
71
4
72
3
73
5
0
VERTEX
8
OBJECT__13
10
0
20
0
30
0
70
128
71
3
72
2
73
5
0
VERTEX
8
OBJECT__13
10
0
20
0
30
0
70
128
71
4
72
6
73
7
0
VERTEX
8
OBJECT__13
10
0
20
0
30
0
70
128
71
7
72
8
73
4
0
VERTEX
8
OBJECT__13
10
0
20
0
30
0
70
128
71
9
72
10
73
11
0
VERTEX
8
OBJECT__13
10
0
20
0
30
0
70
128
71
12
72
11
73
13
0
VERTEX
8
OBJECT__13
10
0
20
0
30
0
70
128
71
11
72
10
73
13
0
VERTEX
8
OBJECT__13
10
0
20
0
30
0
70
128
71
12
72
14
73
15
0
VERTEX
8
OBJECT__13
10
0
20
0
30
0
70
128
71
15
72
16
73
12
0
VERTEX
8
OBJECT__13
10
0
20
0
30
0
70
128
71
16
72
17
73
18
0
VERTEX
8
OBJECT__13
10
0
20
0
30
0
70
128
71
18
72
19
73
16
0
VERTEX
8
OBJECT__13
10
0
20
0
30
0
70
128
71
20
72
21
73
22
0
VERTEX
8
OBJECT__13
10
0
20
0
30
0
70
128
71
23
72
22
73
24
0
VERTEX
8
OBJECT__13
10
0
20
0
30
0
70
128
71
22
72
21
73
24
0
VERTEX
8
OBJECT__13
10
0
20
0
30
0
70
128
71
23
72
25
73
26
0
VERTEX
8
OBJECT__13
10
0
20
0
30
0
70
128
71
26
72
27
73
23
0
VERTEX
8
OBJECT__13
10
0
20
0
30
0
70
128
71
28
72
29
73
30
0
VERTEX
8
OBJECT__13
10
0
20
0
30
0
70
128
71
31
72
30
73
32
0
VERTEX
8
OBJECT__13
10
0
20
0
30
0
70
128
71
30
72
29
73
32
0
VERTEX
8
OBJECT__13
10
0
20
0
30
0
70
128
71
33
72
31
73
34
0
VERTEX
8
OBJECT__13
10
0
20
0
30
0
70
128
71
31
72
35
73
34
0
VERTEX
8
OBJECT__13
10
0
20
0
30
0
70
128
71
33
72
36
73
37
0
VERTEX
8
OBJECT__13
10
0
20
0
30
0
70
128
71
37
72
38
73
33
0
VERTEX
8
OBJECT__13
10
0
20
0
30
0
70
128
71
39
72
40
73
38
0
VERTEX
8
OBJECT__13
10
0
20
0
30
0
70
128
71
41
72
40
73
42
0
VERTEX
8
OBJECT__13
10
0
20
0
30
0
70
128
71
40
72
39
73
42
0
VERTEX
8
OBJECT__13
10
0
20
0
30
0
70
128
71
41
72
43
73
44
0
VERTEX
8
OBJECT__13
10
0
20
0
30
0
70
128
71
44
72
45
73
41
0
VERTEX
8
OBJECT__13
10
0
20
0
30
0
70
128
71
1
72
46
73
45
0
VERTEX
8
OBJECT__13
10
0
20
0
30
0
70
128
71
3
72
47
73
48
0
VERTEX
8
OBJECT__13
10
0
20
0
30
0
70
128
71
4
72
49
73
47
0
VERTEX
8
OBJECT__13
10
0
20
0
30
0
70
128
71
4
72
8
73
50
0
VERTEX
8
OBJECT__13
10
0
20
0
30
0
70
128
71
8
72
11
73
51
0
VERTEX
8
OBJECT__13
10
0
20
0
30
0
70
128
71
11
72
12
73
52
0
VERTEX
8
OBJECT__13
10
0
20
0
30
0
70
128
71
16
72
53
73
52
0
VERTEX
8
OBJECT__13
10
0
20
0
30
0
70
128
71
16
72
19
73
54
0
VERTEX
8
OBJECT__13
10
0
20
0
30
0
70
128
71
22
72
55
73
54
0
VERTEX
8
OBJECT__13
10
0
20
0
30
0
70
128
71
23
72
56
73
55
0
VERTEX
8
OBJECT__13
10
0
20
0
30
0
70
128
71
27
72
57
73
56
0
VERTEX
8
OBJECT__13
10
0
20
0
30
0
70
128
71
27
72
30
73
58
0
VERTEX
8
OBJECT__13
10
0
20
0
30
0
70
128
71
30
72
31
73
59
0
VERTEX
8
OBJECT__13
10
0
20
0
30
0
70
128
71
33
72
60
73
59
0
VERTEX
8
OBJECT__13
10
0
20
0
30
0
70
128
71
33
72
38
73
61
0
VERTEX
8
OBJECT__13
10
0
20
0
30
0
70
128
71
40
72
62
73
61
0
VERTEX
8
OBJECT__13
10
0
20
0
30
0
70
128
71
40
72
41
73
63
0
VERTEX
8
OBJECT__13
10
0
20
0
30
0
70
128
71
41
72
45
73
64
0
VERTEX
8
OBJECT__13
10
0
20
0
30
0
70
128
71
45
72
46
73
48
0
VERTEX
8
OBJECT__13
10
0
20
0
30
0
70
128
71
48
72
64
73
45
0
VERTEX
8
OBJECT__13
10
0
20
0
30
0
70
128
71
64
72
63
73
41
0
VERTEX
8
OBJECT__13
10
0
20
0
30
0
70
128
71
63
72
62
73
40
0
VERTEX
8
OBJECT__13
10
0
20
0
30
0
70
128
71
61
72
38
73
40
0
VERTEX
8
OBJECT__13
10
0
20
0
30
0
70
128
71
61
72
60
73
33
0
VERTEX
8
OBJECT__13
10
0
20
0
30
0
70
128
71
59
72
31
73
33
0
VERTEX
8
OBJECT__13
10
0
20
0
30
0
70
128
71
59
72
58
73
30
0
VERTEX
8
OBJECT__13
10
0
20
0
30
0
70
128
71
58
72
57
73
27
0
VERTEX
8
OBJECT__13
10
0
20
0
30
0
70
128
71
56
72
23
73
27
0
VERTEX
8
OBJECT__13
10
0
20
0
30
0
70
128
71
55
72
22
73
23
0
VERTEX
8
OBJECT__13
10
0
20
0
30
0
70
128
71
54
72
19
73
22
0
VERTEX
8
OBJECT__13
10
0
20
0
30
0
70
128
71
54
72
53
73
16
0
VERTEX
8
OBJECT__13
10
0
20
0
30
0
70
128
71
52
72
12
73
16
0
VERTEX
8
OBJECT__13
10
0
20
0
30
0
70
128
71
52
72
51
73
11
0
VERTEX
8
OBJECT__13
10
0
20
0
30
0
70
128
71
51
72
50
73
8
0
VERTEX
8
OBJECT__13
10
0
20
0
30
0
70
128
71
50
72
49
73
4
0
VERTEX
8
OBJECT__13
10
0
20
0
30
0
70
128
71
47
72
3
73
4
0
VERTEX
8
OBJECT__13
10
0
20
0
30
0
70
128
71
48
72
46
73
3
0
VERTEX
8
OBJECT__13
10
0
20
0
30
0
70
128
71
45
72
65
73
1
0
VERTEX
8
OBJECT__13
10
0
20
0
30
0
70
128
71
44
72
65
73
45
0
VERTEX
8
OBJECT__13
10
0
20
0
30
0
70
128
71
42
72
43
73
41
0
VERTEX
8
OBJECT__13
10
0
20
0
30
0
70
128
71
38
72
66
73
39
0
VERTEX
8
OBJECT__13
10
0
20
0
30
0
70
128
71
37
72
66
73
38
0
VERTEX
8
OBJECT__13
10
0
20
0
30
0
70
128
71
34
72
36
73
33
0
VERTEX
8
OBJECT__13
10
0
20
0
30
0
70
128
71
32
72
35
73
31
0
VERTEX
8
OBJECT__13
10
0
20
0
30
0
70
128
71
30
72
27
73
28
0
VERTEX
8
OBJECT__13
10
0
20
0
30
0
70
128
71
26
72
28
73
27
0
VERTEX
8
OBJECT__13
10
0
20
0
30
0
70
128
71
24
72
25
73
23
0
VERTEX
8
OBJECT__13
10
0
20
0
30
0
70
128
71
22
72
19
73
20
0
VERTEX
8
OBJECT__13
10
0
20
0
30
0
70
128
71
18
72
20
73
19
0
VERTEX
8
OBJECT__13
10
0
20
0
30
0
70
128
71
15
72
17
73
16
0
VERTEX
8
OBJECT__13
10
0
20
0
30
0
70
128
71
13
72
14
73
12
0
VERTEX
8
OBJECT__13
10
0
20
0
30
0
70
128
71
11
72
8
73
9
0
VERTEX
8
OBJECT__13
10
0
20
0
30
0
70
128
71
7
72
9
73
8
0
VERTEX
8
OBJECT__13
10
0
20
0
30
0
70
128
71
5
72
6
73
4
0
VERTEX
8
OBJECT__13
10
0
20
0
30
0
70
128
71
3
72
46
73
1
0
SEQEND
8
OBJECT__13
0
POLYLINE
8
OBJECT__14
66
1
70
64
71
69
72
71
62
253
0
VERTEX
8
OBJECT__14
10
66.103996
20
0.000000
30
35.016998
70
192
0
VERTEX
8
OBJECT__14
10
66.103996
20
12.081000
30
32.039001
70
192
0
VERTEX
8
OBJECT__14
10
36.409000
20
9.069000
30
33.936001
70
192
0
VERTEX
8
OBJECT__14
10
36.409000
20
12.131000
30
32.167999
70
192
0
VERTEX
8
OBJECT__14
10
66.103996
20
21.395000
30
23.788000
70
192
0
VERTEX
8
OBJECT__14
10
36.409000
20
21.601999
30
23.899000
70
192
0
VERTEX
8
OBJECT__14
10
36.409000
20
17.042999
30
29.332001
70
192
0
VERTEX
8
OBJECT__14
10
66.103996
20
25.806999
30
12.154000
70
192
0
VERTEX
8
OBJECT__14
10
36.409000
20
26.112000
30
13.625000
70
192
0
VERTEX
8
OBJECT__14
10
36.409000
20
22.962999
30
22.278000
70
192
0
VERTEX
8
OBJECT__14
10
36.409000
20
26.112000
30
12.217000
70
192
0
VERTEX
8
OBJECT__14
10
66.103996
20
24.306999
30
-0.198000
70
192
0
VERTEX
8
OBJECT__14
10
36.409000
20
26.112000
30
4.416000
70
192
0
VERTEX
8
OBJECT__14
10
36.409000
20
24.416000
30
-0.245000
70
192
0
VERTEX
8
OBJECT__14
10
66.103996
20
17.239000
30
-10.438000
70
192
0
VERTEX
8
OBJECT__14
10
36.409000
20
17.495001
30
-10.753000
70
192
0
VERTEX
8
OBJECT__14
10
36.409000
20
22.962999
30
-4.237000
70
192
0
VERTEX
8
OBJECT__14
10
66.103996
20
6.221000
30
-16.221001
70
192
0
VERTEX
8
OBJECT__14
10
36.409000
20
9.069000
30
-15.895000
70
192
0
VERTEX
8
OBJECT__14
10
36.409000
20
17.042999
30
-11.291000
70
192
0
VERTEX
8
OBJECT__14
10
36.409000
20
6.286000
30
-16.386000
70
192
0
VERTEX
8
OBJECT__14
10
36.409000
20
0.000000
30
-17.493999
70
192
0
VERTEX
8
OBJECT__14
10
46.259998
20
1.242000
30
-17.292999
70
192
0
VERTEX
8
OBJECT__14
10
46.157001
20
-0.004000
30
-17.313999
70
192
0
VERTEX
8
OBJECT__14
10
46.949001
20
2.782000
30
-17.163000
70
192
0
VERTEX
8
OBJECT__14
10
49.178001
20
4.614000
30
-16.863001
70
192
0
VERTEX
8
OBJECT__14
10
48.623001
20
4.297000
30
-16.926001
70
192
0
VERTEX
8
OBJECT__14
10
50.782001
20
4.990000
30
-16.764999
70
192
0
VERTEX
8
OBJECT__14
10
48.106998
20
4.002000
30
-16.983999
70
192
0
VERTEX
8
OBJECT__14
10
52.445000
20
4.817000
30
-16.768000
70
192
0
VERTEX
8
OBJECT__14
10
53.970001
20
4.097000
30
-16.865999
70
192
0
VERTEX
8
OBJECT__14
10
53.580002
20
4.281000
30
-16.841000
70
192
0
VERTEX
8
OBJECT__14
10
66.103996
20
0.000000
30
-16.976000
70
192
0
VERTEX
8
OBJECT__14
10
56.074001
20
-0.004000
30
-17.145000
70
192
0
VERTEX
8
OBJECT__14
10
55.891998
20
1.440000
30
-17.115000
70
192
0
VERTEX
8
OBJECT__14
10
56.098999
20
-0.209000
30
-17.150000
70
192
0
VERTEX
8
OBJECT__14
10
66.103996
20
-6.221000
30
-16.221001
70
192
0
VERTEX
8
OBJECT__14
10
55.747002
20
-1.854000
30
-17.091000
70
192
0
VERTEX
8
OBJECT__14
10
53.587002
20
-4.340000
30
-16.833000
70
192
0
VERTEX
8
OBJECT__14
10
53.602001
20
-4.328000
30
-16.834000
70
192
0
VERTEX
8
OBJECT__14
10
54.868999
20
-3.289000
30
-16.965000
70
192
0
VERTEX
8
OBJECT__14
10
52.041000
20
-4.911000
30
-16.757999
70
192
0
VERTEX
8
OBJECT__14
10
55.160999
20
2.923000
30
-17.003000
70
192
0
VERTEX
8
OBJECT__14
10
36.409000
20
-6.286000
30
-16.386000
70
192
0
VERTEX
8
OBJECT__14
10
50.370998
20
-4.946000
30
-16.781000
70
192
0
VERTEX
8
OBJECT__14
10
47.433998
20
-3.396000
30
-17.082001
70
192
0
VERTEX
8
OBJECT__14
10
48.619999
20
-4.308000
30
-16.924000
70
192
0
VERTEX
8
OBJECT__14
10
46.122002
20
-0.425000
30
-17.320999
70
192
0
VERTEX
8
OBJECT__14
10
46.528999
20
-2.018000
30
-17.240000
70
192
0
VERTEX
8
OBJECT__14
10
48.763000
20
-4.418000
30
-16.905001
70
192
0
VERTEX
8
OBJECT__14
10
66.103996
20
-17.239000
30
-10.438000
70
192
0
VERTEX
8
OBJECT__14
10
36.409000
20
-17.042999
30
-11.291000
70
192
0
VERTEX
8
OBJECT__14
10
36.409000
20
-9.069000
30
-15.895000
70
192
0
VERTEX
8
OBJECT__14
10
36.409000
20
-17.495001
30
-10.753000
70
192
0
VERTEX
8
OBJECT__14
10
66.103996
20
-24.306999
30
-0.198000
70
192
0
VERTEX
8
OBJECT__14
10
36.409000
20
-22.962999
30
-4.237000
70
192
0
VERTEX
8
OBJECT__14
10
36.409000
20
-24.416000
30
-0.245000
70
192
0
VERTEX
8
OBJECT__14
10
66.103996
20
-25.806999
30
12.154000
70
192
0
VERTEX
8
OBJECT__14
10
36.409000
20
-26.112000
30
12.217000
70
192
0
VERTEX
8
OBJECT__14
10
36.409000
20
-26.112000
30
4.416000
70
192
0
VERTEX
8
OBJECT__14
10
66.103996
20
-21.395000
30
23.788000
70
192
0
VERTEX
8
OBJECT__14
10
36.409000
20
-22.962999
30
22.278000
70
192
0
VERTEX
8
OBJECT__14
10
36.409000
20
-26.112000
30
13.625000
70
192
0
VERTEX
8
OBJECT__14
10
36.409000
20
-21.601999
30
23.899000
70
192
0
VERTEX
8
OBJECT__14
10
66.103996
20
-12.081000
30
32.039001
70
192
0
VERTEX
8
OBJECT__14
10
36.409000
20
-17.042999
30
29.332001
70
192
0
VERTEX
8
OBJECT__14
10
36.409000
20
-12.131000
30
32.167999
70
192
0
VERTEX
8
OBJECT__14
10
36.409000
20
0.000000
30
35.535000
70
192
0
VERTEX
8
OBJECT__14
10
36.409000
20
-9.069000
30
33.936001
70
192
0
VERTEX
8
OBJECT__14
10
0
20
0
30
0
70
128
71
1
72
2
73
3
0
VERTEX
8
OBJECT__14
10
0
20
0
30
0
70
128
71
2
72
4
73
3
0
VERTEX
8
OBJECT__14
10
0
20
0
30
0
70
128
71
5
72
6
73
7
0
VERTEX
8
OBJECT__14
10
0
20
0
30
0
70
128
71
7
72
2
73
5
0
VERTEX
8
OBJECT__14
10
0
20
0
30
0
70
128
71
8
72
9
73
10
0
VERTEX
8
OBJECT__14
10
0
20
0
30
0
70
128
71
8
72
11
73
9
0
VERTEX
8
OBJECT__14
10
0
20
0
30
0
70
128
71
10
72
5
73
8
0
VERTEX
8
OBJECT__14
10
0
20
0
30
0
70
128
71
8
72
12
73
13
0
VERTEX
8
OBJECT__14
10
0
20
0
30
0
70
128
71
12
72
14
73
13
0
VERTEX
8
OBJECT__14
10
0
20
0
30
0
70
128
71
15
72
16
73
17
0
VERTEX
8
OBJECT__14
10
0
20
0
30
0
70
128
71
17
72
12
73
15
0
VERTEX
8
OBJECT__14
10
0
20
0
30
0
70
128
71
15
72
18
73
19
0
VERTEX
8
OBJECT__14
10
0
20
0
30
0
70
128
71
19
72
20
73
15
0
VERTEX
8
OBJECT__14
10
0
20
0
30
0
70
128
71
18
72
21
73
19
0
VERTEX
8
OBJECT__14
10
0
20
0
30
0
70
128
71
22
72
21
73
23
0
VERTEX
8
OBJECT__14
10
0
20
0
30
0
70
128
71
23
72
24
73
22
0
VERTEX
8
OBJECT__14
10
0
20
0
30
0
70
128
71
21
72
25
73
23
0
VERTEX
8
OBJECT__14
10
0
20
0
30
0
70
128
71
21
72
26
73
27
0
VERTEX
8
OBJECT__14
10
0
20
0
30
0
70
128
71
21
72
28
73
26
0
VERTEX
8
OBJECT__14
10
0
20
0
30
0
70
128
71
27
72
29
73
21
0
VERTEX
8
OBJECT__14
10
0
20
0
30
0
70
128
71
18
72
30
73
28
0
VERTEX
8
OBJECT__14
10
0
20
0
30
0
70
128
71
28
72
21
73
18
0
VERTEX
8
OBJECT__14
10
0
20
0
30
0
70
128
71
18
72
31
73
32
0
VERTEX
8
OBJECT__14
10
0
20
0
30
0
70
128
71
32
72
30
73
18
0
VERTEX
8
OBJECT__14
10
0
20
0
30
0
70
128
71
33
72
34
73
35
0
VERTEX
8
OBJECT__14
10
0
20
0
30
0
70
128
71
33
72
36
73
34
0
VERTEX
8
OBJECT__14
10
0
20
0
30
0
70
128
71
35
72
18
73
33
0
VERTEX
8
OBJECT__14
10
0
20
0
30
0
70
128
71
37
72
38
73
36
0
VERTEX
8
OBJECT__14
10
0
20
0
30
0
70
128
71
36
72
33
73
37
0
VERTEX
8
OBJECT__14
10
0
20
0
30
0
70
128
71
37
72
39
73
40
0
VERTEX
8
OBJECT__14
10
0
20
0
30
0
70
128
71
40
72
41
73
37
0
VERTEX
8
OBJECT__14
10
0
20
0
30
0
70
128
71
37
72
42
73
39
0
VERTEX
8
OBJECT__14
10
0
20
0
30
0
70
128
71
41
72
38
73
37
0
VERTEX
8
OBJECT__14
10
0
20
0
30
0
70
128
71
35
72
43
73
18
0
VERTEX
8
OBJECT__14
10
0
20
0
30
0
70
128
71
37
72
44
73
45
0
VERTEX
8
OBJECT__14
10
0
20
0
30
0
70
128
71
45
72
42
73
37
0
VERTEX
8
OBJECT__14
10
0
20
0
30
0
70
128
71
44
72
46
73
47
0
VERTEX
8
OBJECT__14
10
0
20
0
30
0
70
128
71
44
72
22
73
48
0
VERTEX
8
OBJECT__14
10
0
20
0
30
0
70
128
71
48
72
49
73
44
0
VERTEX
8
OBJECT__14
10
0
20
0
30
0
70
128
71
49
72
46
73
44
0
VERTEX
8
OBJECT__14
10
0
20
0
30
0
70
128
71
47
72
50
73
44
0
VERTEX
8
OBJECT__14
10
0
20
0
30
0
70
128
71
50
72
45
73
44
0
VERTEX
8
OBJECT__14
10
0
20
0
30
0
70
128
71
43
72
31
73
18
0
VERTEX
8
OBJECT__14
10
0
20
0
30
0
70
128
71
29
72
25
73
21
0
VERTEX
8
OBJECT__14
10
0
20
0
30
0
70
128
71
51
72
52
73
53
0
VERTEX
8
OBJECT__14
10
0
20
0
30
0
70
128
71
51
72
54
73
52
0
VERTEX
8
OBJECT__14
10
0
20
0
30
0
70
128
71
53
72
37
73
51
0
VERTEX
8
OBJECT__14
10
0
20
0
30
0
70
128
71
51
72
55
73
56
0
VERTEX
8
OBJECT__14
10
0
20
0
30
0
70
128
71
55
72
57
73
56
0
VERTEX
8
OBJECT__14
10
0
20
0
30
0
70
128
71
58
72
59
73
60
0
VERTEX
8
OBJECT__14
10
0
20
0
30
0
70
128
71
60
72
55
73
58
0
VERTEX
8
OBJECT__14
10
0
20
0
30
0
70
128
71
58
72
61
73
62
0
VERTEX
8
OBJECT__14
10
0
20
0
30
0
70
128
71
62
72
63
73
58
0
VERTEX
8
OBJECT__14
10
0
20
0
30
0
70
128
71
61
72
64
73
62
0
VERTEX
8
OBJECT__14
10
0
20
0
30
0
70
128
71
61
72
65
73
66
0
VERTEX
8
OBJECT__14
10
0
20
0
30
0
70
128
71
65
72
67
73
66
0
VERTEX
8
OBJECT__14
10
0
20
0
30
0
70
128
71
1
72
68
73
69
0
VERTEX
8
OBJECT__14
10
0
20
0
30
0
70
128
71
69
72
65
73
1
0
VERTEX
8
OBJECT__14
10
0
20
0
30
0
70
128
71
69
72
67
73
65
0
VERTEX
8
OBJECT__14
10
0
20
0
30
0
70
128
71
66
72
64
73
61
0
VERTEX
8
OBJECT__14
10
0
20
0
30
0
70
128
71
63
72
59
73
58
0
VERTEX
8
OBJECT__14
10
0
20
0
30
0
70
128
71
60
72
57
73
55
0
VERTEX
8
OBJECT__14
10
0
20
0
30
0
70
128
71
56
72
54
73
51
0
VERTEX
8
OBJECT__14
10
0
20
0
30
0
70
128
71
53
72
44
73
37
0
VERTEX
8
OBJECT__14
10
0
20
0
30
0
70
128
71
24
72
48
73
22
0
VERTEX
8
OBJECT__14
10
0
20
0
30
0
70
128
71
20
72
16
73
15
0
VERTEX
8
OBJECT__14
10
0
20
0
30
0
70
128
71
17
72
14
73
12
0
VERTEX
8
OBJECT__14
10
0
20
0
30
0
70
128
71
13
72
11
73
8
0
VERTEX
8
OBJECT__14
10
0
20
0
30
0
70
128
71
10
72
6
73
5
0
VERTEX
8
OBJECT__14
10
0
20
0
30
0
70
128
71
7
72
4
73
2
0
VERTEX
8
OBJECT__14
10
0
20
0
30
0
70
128
71
3
72
68
73
1
0
SEQEND
8
OBJECT__14
0
POLYLINE
8
OBJECT__16
66
1
70
64
71
14
72
12
62
253
0
VERTEX
8
OBJECT__16
10
66.103996
20
12.081000
30
32.039001
70
192
0
VERTEX
8
OBJECT__16
10
66.103996
20
24.306999
30
-0.198000
70
192
0
VERTEX
8
OBJECT__16
10
66.103996
20
25.806999
30
12.154000
70
192
0
VERTEX
8
OBJECT__16
10
66.103996
20
-25.806999
30
12.154000
70
192
0
VERTEX
8
OBJECT__16
10
66.103996
20
-24.306999
30
-0.198000
70
192
0
VERTEX
8
OBJECT__16
10
66.103996
20
-17.239000
30
-10.438000
70
192
0
VERTEX
8
OBJECT__16
10
66.103996
20
21.395000
30
23.788000
70
192
0
VERTEX
8
OBJECT__16
10
66.103996
20
0.000000
30
35.016998
70
192
0
VERTEX
8
OBJECT__16
10
66.103996
20
6.221000
30
-16.221001
70
192
0
VERTEX
8
OBJECT__16
10
66.103996
20
17.239000
30
-10.438000
70
192
0
VERTEX
8
OBJECT__16
10
66.103996
20
-6.221000
30
-16.221001
70
192
0
VERTEX
8
OBJECT__16
10
66.103996
20
-21.395000
30
23.788000
70
192
0
VERTEX
8
OBJECT__16
10
66.103996
20
-12.081000
30
32.039001
70
192
0
VERTEX
8
OBJECT__16
10
66.103996
20
0.000000
30
-16.976000
70
192
0
VERTEX
8
OBJECT__16
10
0
20
0
30
0
70
128
71
1
72
2
73
3
0
VERTEX
8
OBJECT__16
10
0
20
0
30
0
70
128
71
4
72
5
73
6
0
VERTEX
8
OBJECT__16
10
0
20
0
30
0
70
128
71
3
72
7
73
1
0
VERTEX
8
OBJECT__16
10
0
20
0
30
0
70
128
71
8
72
9
73
10
0
VERTEX
8
OBJECT__16
10
0
20
0
30
0
70
128
71
11
72
12
73
4
0
VERTEX
8
OBJECT__16
10
0
20
0
30
0
70
128
71
11
72
8
73
13
0
VERTEX
8
OBJECT__16
10
0
20
0
30
0
70
128
71
10
72
2
73
8
0
VERTEX
8
OBJECT__16
10
0
20
0
30
0
70
128
71
13
72
12
73
11
0
VERTEX
8
OBJECT__16
10
0
20
0
30
0
70
128
71
8
72
14
73
9
0
VERTEX
8
OBJECT__16
10
0
20
0
30
0
70
128
71
6
72
11
73
4
0
VERTEX
8
OBJECT__16
10
0
20
0
30
0
70
128
71
11
72
14
73
8
0
VERTEX
8
OBJECT__16
10
0
20
0
30
0
70
128
71
1
72
8
73
2
0
SEQEND
8
OBJECT__16
0
POLYLINE
8
OBJECT__17
66
1
70
64
71
31
72
31
62
253
0
VERTEX
8
OBJECT__17
10
53.604000
20
4.330000
30
-86.067001
70
192
0
VERTEX
8
OBJECT__17
10
49.178001
20
4.614000
30
-16.863001
70
192
0
VERTEX
8
OBJECT__17
10
50.782001
20
4.990000
30
-16.764999
70
192
0
VERTEX
8
OBJECT__17
10
52.445000
20
4.817000
30
-16.768000
70
192
0
VERTEX
8
OBJECT__17
10
48.604000
20
4.330000
30
-86.067001
70
192
0
VERTEX
8
OBJECT__17
10
48.623001
20
4.297000
30
-16.926001
70
192
0
VERTEX
8
OBJECT__17
10
56.104000
20
0.000000
30
-86.067001
70
192
0
VERTEX
8
OBJECT__17
10
55.891998
20
1.440000
30
-17.115000
70
192
0
VERTEX
8
OBJECT__17
10
53.580002
20
4.281000
30
-16.841000
70
192
0
VERTEX
8
OBJECT__17
10
53.970001
20
4.097000
30
-16.865999
70
192
0
VERTEX
8
OBJECT__17
10
55.160999
20
2.923000
30
-17.003000
70
192
0
VERTEX
8
OBJECT__17
10
53.604000
20
-4.330000
30
-86.067001
70
192
0
VERTEX
8
OBJECT__17
10
55.747002
20
-1.854000
30
-17.091000
70
192
0
VERTEX
8
OBJECT__17
10
54.868999
20
-3.289000
30
-16.965000
70
192
0
VERTEX
8
OBJECT__17
10
56.098999
20
-0.209000
30
-17.150000
70
192
0
VERTEX
8
OBJECT__17
10
56.074001
20
-0.004000
30
-17.145000
70
192
0
VERTEX
8
OBJECT__17
10
53.602001
20
-4.328000
30
-16.834000
70
192
0
VERTEX
8
OBJECT__17
10
48.604000
20
-4.330000
30
-86.067001
70
192
0
VERTEX
8
OBJECT__17
10
53.587002
20
-4.340000
30
-16.833000
70
192
0
VERTEX
8
OBJECT__17
10
52.041000
20
-4.911000
30
-16.757999
70
192
0
VERTEX
8
OBJECT__17
10
50.370998
20
-4.946000
30
-16.781000
70
192
0
VERTEX
8
OBJECT__17
10
48.763000
20
-4.418000
30
-16.905001
70
192
0
VERTEX
8
OBJECT__17
10
46.528999
20
-2.018000
30
-17.240000
70
192
0
VERTEX
8
OBJECT__17
10
46.122002
20
-0.425000
30
-17.320999
70
192
0
VERTEX
8
OBJECT__17
10
48.619999
20
-4.308000
30
-16.924000
70
192
0
VERTEX
8
OBJECT__17
10
47.433998
20
-3.396000
30
-17.082001
70
192
0
VERTEX
8
OBJECT__17
10
46.104000
20
0.000000
30
-86.067001
70
192
0
VERTEX
8
OBJECT__17
10
46.949001
20
2.782000
30
-17.163000
70
192
0
VERTEX
8
OBJECT__17
10
48.106998
20
4.002000
30
-16.983999
70
192
0
VERTEX
8
OBJECT__17
10
46.259998
20
1.242000
30
-17.292999
70
192
0
VERTEX
8
OBJECT__17
10
46.157001
20
-0.004000
30
-17.313999
70
192
0
VERTEX
8
OBJECT__17
10
0
20
0
30
0
70
128
71
1
72
2
73
3
0
VERTEX
8
OBJECT__17
10
0
20
0
30
0
70
128
71
3
72
4
73
1
0
VERTEX
8
OBJECT__17
10
0
20
0
30
0
70
128
71
1
72
5
73
6
0
VERTEX
8
OBJECT__17
10
0
20
0
30
0
70
128
71
6
72
2
73
1
0
VERTEX
8
OBJECT__17
10
0
20
0
30
0
70
128
71
7
72
1
73
8
0
VERTEX
8
OBJECT__17
10
0
20
0
30
0
70
128
71
1
72
9
73
10
0
VERTEX
8
OBJECT__17
10
0
20
0
30
0
70
128
71
10
72
11
73
1
0
VERTEX
8
OBJECT__17
10
0
20
0
30
0
70
128
71
11
72
8
73
1
0
VERTEX
8
OBJECT__17
10
0
20
0
30
0
70
128
71
12
72
13
73
14
0
VERTEX
8
OBJECT__17
10
0
20
0
30
0
70
128
71
12
72
15
73
13
0
VERTEX
8
OBJECT__17
10
0
20
0
30
0
70
128
71
7
72
16
73
15
0
VERTEX
8
OBJECT__17
10
0
20
0
30
0
70
128
71
15
72
12
73
7
0
VERTEX
8
OBJECT__17
10
0
20
0
30
0
70
128
71
14
72
17
73
12
0
VERTEX
8
OBJECT__17
10
0
20
0
30
0
70
128
71
18
72
19
73
20
0
VERTEX
8
OBJECT__17
10
0
20
0
30
0
70
128
71
20
72
21
73
18
0
VERTEX
8
OBJECT__17
10
0
20
0
30
0
70
128
71
21
72
22
73
18
0
VERTEX
8
OBJECT__17
10
0
20
0
30
0
70
128
71
18
72
12
73
17
0
VERTEX
8
OBJECT__17
10
0
20
0
30
0
70
128
71
17
72
19
73
18
0
VERTEX
8
OBJECT__17
10
0
20
0
30
0
70
128
71
18
72
23
73
24
0
VERTEX
8
OBJECT__17
10
0
20
0
30
0
70
128
71
18
72
25
73
26
0
VERTEX
8
OBJECT__17
10
0
20
0
30
0
70
128
71
26
72
23
73
18
0
VERTEX
8
OBJECT__17
10
0
20
0
30
0
70
128
71
24
72
27
73
18
0
VERTEX
8
OBJECT__17
10
0
20
0
30
0
70
128
71
5
72
28
73
29
0
VERTEX
8
OBJECT__17
10
0
20
0
30
0
70
128
71
5
72
30
73
28
0
VERTEX
8
OBJECT__17
10
0
20
0
30
0
70
128
71
27
72
31
73
30
0
VERTEX
8
OBJECT__17
10
0
20
0
30
0
70
128
71
30
72
5
73
27
0
VERTEX
8
OBJECT__17
10
0
20
0
30
0
70
128
71
29
72
6
73
5
0
VERTEX
8
OBJECT__17
10
0
20
0
30
0
70
128
71
24
72
31
73
27
0
VERTEX
8
OBJECT__17
10
0
20
0
30
0
70
128
71
22
72
25
73
18
0
VERTEX
8
OBJECT__17
10
0
20
0
30
0
70
128
71
8
72
16
73
7
0
VERTEX
8
OBJECT__17
10
0
20
0
30
0
70
128
71
4
72
9
73
1
0
SEQEND
8
OBJECT__17
0
POLYLINE
8
OBJECT__18
66
1
70
64
71
6
72
4
62
253
0
VERTEX
8
OBJECT__18
10
46.104000
20
0.000000
30
-86.067001
70
192
0
VERTEX
8
OBJECT__18
10
56.104000
20
0.000000
30
-86.067001
70
192
0
VERTEX
8
OBJECT__18
10
53.604000
20
-4.330000
30
-86.067001
70
192
0
VERTEX
8
OBJECT__18
10
48.604000
20
4.330000
30
-86.067001
70
192
0
VERTEX
8
OBJECT__18
10
53.604000
20
4.330000
30
-86.067001
70
192
0
VERTEX
8
OBJECT__18
10
48.604000
20
-4.330000
30
-86.067001
70
192
0
VERTEX
8
OBJECT__18
10
0
20
0
30
0
70
128
71
1
72
2
73
3
0
VERTEX
8
OBJECT__18
10
0
20
0
30
0
70
128
71
2
72
1
73
4
0
VERTEX
8
OBJECT__18
10
0
20
0
30
0
70
128
71
4
72
5
73
2
0
VERTEX
8
OBJECT__18
10
0
20
0
30
0
70
128
71
3
72
6
73
1
0
SEQEND
8
OBJECT__18
0
POLYLINE
8
OBJECT__19
66
1
70
64
71
12
72
12
62
253
0
VERTEX
8
OBJECT__19
10
15.491000
20
3.000000
30
58.804001
70
192
0
VERTEX
8
OBJECT__19
10
6.218000
20
3.000000
30
58.804001
70
192
0
VERTEX
8
OBJECT__19
10
6.218000
20
6.000000
30
64.000000
70
192
0
VERTEX
8
OBJECT__19
10
6.218000
20
-3.000000
30
58.804001
70
192
0
VERTEX
8
OBJECT__19
10
6.218000
20
-6.000000
30
64.000000
70
192
0
VERTEX
8
OBJECT__19
10
15.491000
20
-3.000000
30
58.804001
70
192
0
VERTEX
8
OBJECT__19
10
6.218000
20
-3.000000
30
69.195999
70
192
0
VERTEX
8
OBJECT__19
10
15.491000
20
-6.000000
30
64.000000
70
192
0
VERTEX
8
OBJECT__19
10
15.491000
20
3.000000
30
69.195999
70
192
0
VERTEX
8
OBJECT__19
10
6.218000
20
3.000000
30
69.195999
70
192
0
VERTEX
8
OBJECT__19
10
15.491000
20
6.000000
30
64.000000
70
192
0
VERTEX
8
OBJECT__19
10
15.491000
20
-3.000000
30
69.195999
70
192
0
VERTEX
8
OBJECT__19
10
0
20
0
30
0
70
128
71
1
72
2
73
3
0
VERTEX
8
OBJECT__19
10
0
20
0
30
0
70
128
71
4
72
2
73
1
0
VERTEX
8
OBJECT__19
10
0
20
0
30
0
70
128
71
5
72
4
73
6
0
VERTEX
8
OBJECT__19
10
0
20
0
30
0
70
128
71
7
72
5
73
8
0
VERTEX
8
OBJECT__19
10
0
20
0
30
0
70
128
71
9
72
10
73
7
0
VERTEX
8
OBJECT__19
10
0
20
0
30
0
70
128
71
11
72
3
73
10
0
VERTEX
8
OBJECT__19
10
0
20
0
30
0
70
128
71
10
72
9
73
11
0
VERTEX
8
OBJECT__19
10
0
20
0
30
0
70
128
71
7
72
12
73
9
0
VERTEX
8
OBJECT__19
10
0
20
0
30
0
70
128
71
8
72
12
73
7
0
VERTEX
8
OBJECT__19
10
0
20
0
30
0
70
128
71
6
72
8
73
5
0
VERTEX
8
OBJECT__19
10
0
20
0
30
0
70
128
71
1
72
6
73
4
0
VERTEX
8
OBJECT__19
10
0
20
0
30
0
70
128
71
3
72
11
73
1
0
SEQEND
8
OBJECT__19
0
POLYLINE
8
OBJECT__20
66
1
70
64
71
6
72
4
62
253
0
VERTEX
8
OBJECT__20
10
15.491000
20
3.000000
30
69.195999
70
192
0
VERTEX
8
OBJECT__20
10
15.491000
20
-3.000000
30
69.195999
70
192
0
VERTEX
8
OBJECT__20
10
15.491000
20
-6.000000
30
64.000000
70
192
0
VERTEX
8
OBJECT__20
10
15.491000
20
-3.000000
30
58.804001
70
192
0
VERTEX
8
OBJECT__20
10
15.491000
20
3.000000
30
58.804001
70
192
0
VERTEX
8
OBJECT__20
10
15.491000
20
6.000000
30
64.000000
70
192
0
VERTEX
8
OBJECT__20
10
0
20
0
30
0
70
128
71
1
72
2
73
3
0
VERTEX
8
OBJECT__20
10
0
20
0
30
0
70
128
71
1
72
4
73
5
0
VERTEX
8
OBJECT__20
10
0
20
0
30
0
70
128
71
5
72
6
73
1
0
VERTEX
8
OBJECT__20
10
0
20
0
30
0
70
128
71
3
72
4
73
1
0
SEQEND
8
OBJECT__20
0
POLYLINE
8
OBJECT__22
66
1
70
64
71
30
72
28
62
253
0
VERTEX
8
OBJECT__22
10
1.163000
20
0.000000
30
102.449997
70
192
0
VERTEX
8
OBJECT__22
10
1.163000
20
-92.938004
30
-0.768000
70
192
0
VERTEX
8
OBJECT__22
10
1.163000
20
-88.875999
30
-19.878000
70
192
0
VERTEX
8
OBJECT__22
10
1.163000
20
92.938004
30
18.768000
70
192
0
VERTEX
8
OBJECT__22
10
1.163000
20
80.930000
30
55.724998
70
192
0
VERTEX
8
OBJECT__22
10
1.163000
20
69.446999
30
71.529999
70
192
0
VERTEX
8
OBJECT__22
10
1.163000
20
-80.930000
30
-37.724998
70
192
0
VERTEX
8
OBJECT__22
10
1.163000
20
-54.929001
30
84.602997
70
192
0
VERTEX
8
OBJECT__22
10
1.163000
20
-69.446999
30
71.529999
70
192
0
VERTEX
8
OBJECT__22
10
1.163000
20
54.929001
30
84.602997
70
192
0
VERTEX
8
OBJECT__22
10
1.163000
20
38.009998
30
94.371002
70
192
0
VERTEX
8
OBJECT__22
10
1.163000
20
88.875999
30
37.877998
70
192
0
VERTEX
8
OBJECT__22
10
1.163000
20
88.875999
30
-19.878000
70
192
0
VERTEX
8
OBJECT__22
10
1.163000
20
92.938004
30
-0.768000
70
192
0
VERTEX
8
OBJECT__22
10
1.163000
20
38.009998
30
-76.371002
70
192
0
VERTEX
8
OBJECT__22
10
1.163000
20
54.929001
30
-66.602997
70
192
0
VERTEX
8
OBJECT__22
10
1.163000
20
-69.446999
30
-53.529999
70
192
0
VERTEX
8
OBJECT__22
10
1.163000
20
-54.929001
30
-66.602997
70
192
0
VERTEX
8
OBJECT__22
10
1.163000
20
-92.938004
30
18.768000
70
192
0
VERTEX
8
OBJECT__22
10
1.163000
20
-80.930000
30
55.724998
70
192
0
VERTEX
8
OBJECT__22
10
1.163000
20
-19.429001
30
100.407997
70
192
0
VERTEX
8
OBJECT__22
10
1.163000
20
-38.009998
30
94.371002
70
192
0
VERTEX
8
OBJECT__22
10
1.163000
20
80.930000
30
-37.724998
70
192
0
VERTEX
8
OBJECT__22
10
1.163000
20
69.446999
30
-53.529999
70
192
0
VERTEX
8
OBJECT__22
10
1.163000
20
-38.009998
30
-76.371002
70
192
0
VERTEX
8
OBJECT__22
10
1.163000
20
-88.875999
30
37.877998
70
192
0
VERTEX
8
OBJECT__22
10
1.163000
20
19.429001
30
100.407997
70
192
0
VERTEX
8
OBJECT__22
10
1.163000
20
-19.429001
30
-82.407997
70
192
0
VERTEX
8
OBJECT__22
10
1.163000
20
0.000000
30
-84.449997
70
192
0
VERTEX
8
OBJECT__22
10
1.163000
20
19.429001
30
-82.407997
70
192
0
VERTEX
8
OBJECT__22
10
0
20
0
30
0
70
128
71
1
72
2
73
3
0
VERTEX
8
OBJECT__22
10
0
20
0
30
0
70
128
71
4
72
5
73
6
0
VERTEX
8
OBJECT__22
10
0
20
0
30
0
70
128
71
3
72
7
73
1
0
VERTEX
8
OBJECT__22
10
0
20
0
30
0
70
128
71
1
72
8
73
9
0
VERTEX
8
OBJECT__22
10
0
20
0
30
0
70
128
71
4
72
10
73
11
0
VERTEX
8
OBJECT__22
10
0
20
0
30
0
70
128
71
4
72
12
73
5
0
VERTEX
8
OBJECT__22
10
0
20
0
30
0
70
128
71
1
72
13
73
14
0
VERTEX
8
OBJECT__22
10
0
20
0
30
0
70
128
71
1
72
15
73
16
0
VERTEX
8
OBJECT__22
10
0
20
0
30
0
70
128
71
1
72
17
73
18
0
VERTEX
8
OBJECT__22
10
0
20
0
30
0
70
128
71
1
72
19
73
2
0
VERTEX
8
OBJECT__22
10
0
20
0
30
0
70
128
71
9
72
20
73
1
0
VERTEX
8
OBJECT__22
10
0
20
0
30
0
70
128
71
1
72
21
73
22
0
VERTEX
8
OBJECT__22
10
0
20
0
30
0
70
128
71
6
72
10
73
4
0
VERTEX
8
OBJECT__22
10
0
20
0
30
0
70
128
71
1
72
23
73
13
0
VERTEX
8
OBJECT__22
10
0
20
0
30
0
70
128
71
16
72
24
73
1
0
VERTEX
8
OBJECT__22
10
0
20
0
30
0
70
128
71
18
72
25
73
1
0
VERTEX
8
OBJECT__22
10
0
20
0
30
0
70
128
71
1
72
26
73
19
0
VERTEX
8
OBJECT__22
10
0
20
0
30
0
70
128
71
22
72
8
73
1
0
VERTEX
8
OBJECT__22
10
0
20
0
30
0
70
128
71
11
72
27
73
4
0
VERTEX
8
OBJECT__22
10
0
20
0
30
0
70
128
71
24
72
23
73
1
0
VERTEX
8
OBJECT__22
10
0
20
0
30
0
70
128
71
25
72
28
73
1
0
VERTEX
8
OBJECT__22
10
0
20
0
30
0
70
128
71
20
72
26
73
1
0
VERTEX
8
OBJECT__22
10
0
20
0
30
0
70
128
71
14
72
4
73
1
0
VERTEX
8
OBJECT__22
10
0
20
0
30
0
70
128
71
1
72
29
73
30
0
VERTEX
8
OBJECT__22
10
0
20
0
30
0
70
128
71
7
72
17
73
1
0
VERTEX
8
OBJECT__22
10
0
20
0
30
0
70
128
71
30
72
15
73
1
0
VERTEX
8
OBJECT__22
10
0
20
0
30
0
70
128
71
27
72
1
73
4
0
VERTEX
8
OBJECT__22
10
0
20
0
30
0
70
128
71
28
72
29
73
1
0
SEQEND
8
OBJECT__22
0
POLYLINE
8
OBJECT__24
66
1
70
64
71
24
72
22
62
253
0
VERTEX
8
OBJECT__24
10
0.000000
20
-66.644997
30
-57.645000
70
192
0
VERTEX
8
OBJECT__24
10
0.000000
20
24.393999
30
-82.039001
70
192
0
VERTEX
8
OBJECT__24
10
0.000000
20
0.000000
30
-85.250000
70
192
0
VERTEX
8
OBJECT__24
10
0.000000
20
94.250000
30
9.000000
70
192
0
VERTEX
8
OBJECT__24
10
0.000000
20
47.125000
30
90.623001
70
192
0
VERTEX
8
OBJECT__24
10
0.000000
20
66.644997
30
75.644997
70
192
0
VERTEX
8
OBJECT__24
10
0.000000
20
91.039001
30
-15.394000
70
192
0
VERTEX
8
OBJECT__24
10
0.000000
20
0.000000
30
103.250000
70
192
0
VERTEX
8
OBJECT__24
10
0.000000
20
24.393999
30
100.039001
70
192
0
VERTEX
8
OBJECT__24
10
0.000000
20
-24.393999
30
-82.039001
70
192
0
VERTEX
8
OBJECT__24
10
0.000000
20
66.644997
30
-57.645000
70
192
0
VERTEX
8
OBJECT__24
10
0.000000
20
47.125000
30
-72.623001
70
192
0
VERTEX
8
OBJECT__24
10
0.000000
20
81.623001
30
56.125000
70
192
0
VERTEX
8
OBJECT__24
10
0.000000
20
-24.393999
30
100.039001
70
192
0
VERTEX
8
OBJECT__24
10
0.000000
20
81.623001
30
-38.125000
70
192
0
VERTEX
8
OBJECT__24
10
0.000000
20
91.039001
30
33.394001
70
192
0
VERTEX
8
OBJECT__24
10
0.000000
20
-47.125000
30
90.623001
70
192
0
VERTEX
8
OBJECT__24
10
0.000000
20
-81.623001
30
56.125000
70
192
0
VERTEX
8
OBJECT__24
10
0.000000
20
-66.644997
30
75.644997
70
192
0
VERTEX
8
OBJECT__24
10
0.000000
20
-91.039001
30
-15.394000
70
192
0
VERTEX
8
OBJECT__24
10
0.000000
20
-94.250000
30
9.000000
70
192
0
VERTEX
8
OBJECT__24
10
0.000000
20
-91.039001
30
33.394001
70
192
0
VERTEX
8
OBJECT__24
10
0.000000
20
-81.623001
30
-38.125000
70
192
0
VERTEX
8
OBJECT__24
10
0.000000
20
-47.125000
30
-72.623001
70
192
0
VERTEX
8
OBJECT__24
10
0
20
0
30
0
70
128
71
1
72
2
73
3
0
VERTEX
8
OBJECT__24
10
0
20
0
30
0
70
128
71
4
72
5
73
6
0
VERTEX
8
OBJECT__24
10
0
20
0
30
0
70
128
71
7
72
8
73
9
0
VERTEX
8
OBJECT__24
10
0
20
0
30
0
70
128
71
3
72
10
73
1
0
VERTEX
8
OBJECT__24
10
0
20
0
30
0
70
128
71
1
72
11
73
12
0
VERTEX
8
OBJECT__24
10
0
20
0
30
0
70
128
71
6
72
13
73
4
0
VERTEX
8
OBJECT__24
10
0
20
0
30
0
70
128
71
7
72
14
73
8
0
VERTEX
8
OBJECT__24
10
0
20
0
30
0
70
128
71
12
72
2
73
1
0
VERTEX
8
OBJECT__24
10
0
20
0
30
0
70
128
71
1
72
7
73
15
0
VERTEX
8
OBJECT__24
10
0
20
0
30
0
70
128
71
13
72
16
73
4
0
VERTEX
8
OBJECT__24
10
0
20
0
30
0
70
128
71
7
72
17
73
14
0
VERTEX
8
OBJECT__24
10
0
20
0
30
0
70
128
71
7
72
18
73
19
0
VERTEX
8
OBJECT__24
10
0
20
0
30
0
70
128
71
7
72
20
73
21
0
VERTEX
8
OBJECT__24
10
0
20
0
30
0
70
128
71
15
72
11
73
1
0
VERTEX
8
OBJECT__24
10
0
20
0
30
0
70
128
71
9
72
5
73
7
0
VERTEX
8
OBJECT__24
10
0
20
0
30
0
70
128
71
7
72
22
73
18
0
VERTEX
8
OBJECT__24
10
0
20
0
30
0
70
128
71
7
72
23
73
20
0
VERTEX
8
OBJECT__24
10
0
20
0
30
0
70
128
71
10
72
24
73
1
0
VERTEX
8
OBJECT__24
10
0
20
0
30
0
70
128
71
19
72
17
73
7
0
VERTEX
8
OBJECT__24
10
0
20
0
30
0
70
128
71
1
72
23
73
7
0
VERTEX
8
OBJECT__24
10
0
20
0
30
0
70
128
71
21
72
22
73
7
0
VERTEX
8
OBJECT__24
10
0
20
0
30
0
70
128
71
4
72
7
73
5
0
SEQEND
8
OBJECT__24
0
POLYLINE
8
OBJECT__25
66
1
70
64
71
80
72
80
62
253
0
VERTEX
8
OBJECT__25
10
0.000000
20
24.393999
30
100.039001
70
192
0
VERTEX
8
OBJECT__25
10
0.000000
20
0.000000
30
103.250000
70
192
0
VERTEX
8
OBJECT__25
10
13.054000
20
8.696000
30
102.848000
70
192
0
VERTEX
8
OBJECT__25
10
13.054000
20
0.000000
30
103.250000
70
192
0
VERTEX
8
OBJECT__25
10
13.054000
20
25.792999
30
99.652000
70
192
0
VERTEX
8
OBJECT__25
10
13.054000
20
42.011002
30
93.369003
70
192
0
VERTEX
8
OBJECT__25
10
0.000000
20
47.125000
30
90.623001
70
192
0
VERTEX
8
OBJECT__25
10
13.054000
20
24.371000
30
99.917999
70
192
0
VERTEX
8
OBJECT__25
10
0.000000
20
66.644997
30
75.644997
70
192
0
VERTEX
8
OBJECT__25
10
13.054000
20
56.798000
30
84.212997
70
192
0
VERTEX
8
OBJECT__25
10
13.054000
20
46.937000
30
90.319000
70
192
0
VERTEX
8
OBJECT__25
10
0.000000
20
81.623001
30
56.125000
70
192
0
VERTEX
8
OBJECT__25
10
13.054000
20
69.652000
30
72.496002
70
192
0
VERTEX
8
OBJECT__25
10
13.054000
20
80.133003
30
58.616001
70
192
0
VERTEX
8
OBJECT__25
10
13.054000
20
66.442001
30
75.421997
70
192
0
VERTEX
8
OBJECT__25
10
13.054000
20
81.422997
30
56.025002
70
192
0
VERTEX
8
OBJECT__25
10
13.054000
20
87.886002
30
43.047001
70
192
0
VERTEX
8
OBJECT__25
10
0.000000
20
91.039001
30
33.394001
70
192
0
VERTEX
8
OBJECT__25
10
0.000000
20
94.250000
30
9.000000
70
192
0
VERTEX
8
OBJECT__25
10
13.054000
20
92.644997
30
26.318001
70
192
0
VERTEX
8
OBJECT__25
10
13.054000
20
90.663002
30
33.286999
70
192
0
VERTEX
8
OBJECT__25
10
13.054000
20
94.250000
30
9.000000
70
192
0
VERTEX
8
OBJECT__25
10
13.054000
20
92.644997
30
-8.318000
70
192
0
VERTEX
8
OBJECT__25
10
0.000000
20
91.039001
30
-15.394000
70
192
0
VERTEX
8
OBJECT__25
10
0.000000
20
81.623001
30
-38.125000
70
192
0
VERTEX
8
OBJECT__25
10
13.054000
20
87.886002
30
-25.047001
70
192
0
VERTEX
8
OBJECT__25
10
13.054000
20
90.663002
30
-15.287000
70
192
0
VERTEX
8
OBJECT__25
10
13.054000
20
80.133003
30
-40.616001
70
192
0
VERTEX
8
OBJECT__25
10
13.054000
20
69.652000
30
-54.495998
70
192
0
VERTEX
8
OBJECT__25
10
0.000000
20
66.644997
30
-57.645000
70
192
0
VERTEX
8
OBJECT__25
10
13.054000
20
81.422997
30
-38.025002
70
192
0
VERTEX
8
OBJECT__25
10
13.054000
20
66.442001
30
-57.422001
70
192
0
VERTEX
8
OBJECT__25
10
13.054000
20
56.798000
30
-66.212997
70
192
0
VERTEX
8
OBJECT__25
10
0.000000
20
47.125000
30
-72.623001
70
192
0
VERTEX
8
OBJECT__25
10
0.000000
20
24.393999
30
-82.039001
70
192
0
VERTEX
8
OBJECT__25
10
13.054000
20
42.011002
30
-75.369003
70
192
0
VERTEX
8
OBJECT__25
10
13.054000
20
25.792999
30
-81.652000
70
192
0
VERTEX
8
OBJECT__25
10
13.054000
20
46.937000
30
-72.319000
70
192
0
VERTEX
8
OBJECT__25
10
13.054000
20
24.371000
30
-81.917999
70
192
0
VERTEX
8
OBJECT__25
10
13.054000
20
8.696000
30
-84.848000
70
192
0
VERTEX
8
OBJECT__25
10
0.000000
20
0.000000
30
-85.250000
70
192
0
VERTEX
8
OBJECT__25
10
0.000000
20
-24.393999
30
-82.039001
70
192
0
VERTEX
8
OBJECT__25
10
13.054000
20
-8.696000
30
-84.848000
70
192
0
VERTEX
8
OBJECT__25
10
13.054000
20
0.000000
30
-84.848000
70
192
0
VERTEX
8
OBJECT__25
10
13.054000
20
-25.792999
30
-81.652000
70
192
0
VERTEX
8
OBJECT__25
10
13.054000
20
-42.011002
30
-75.369003
70
192
0
VERTEX
8
OBJECT__25
10
0.000000
20
-47.125000
30
-72.623001
70
192
0
VERTEX
8
OBJECT__25
10
13.054000
20
-24.371000
30
-81.917999
70
192
0
VERTEX
8
OBJECT__25
10
0.000000
20
-66.644997
30
-57.645000
70
192
0
VERTEX
8
OBJECT__25
10
13.054000
20
-56.798000
30
-66.212997
70
192
0
VERTEX
8
OBJECT__25
10
13.054000
20
-46.937000
30
-72.319000
70
192
0
VERTEX
8
OBJECT__25
10
0.000000
20
-81.623001
30
-38.125000
70
192
0
VERTEX
8
OBJECT__25
10
13.054000
20
-69.652000
30
-54.495998
70
192
0
VERTEX
8
OBJECT__25
10
13.054000
20
-80.133003
30
-40.616001
70
192
0
VERTEX
8
OBJECT__25
10
13.054000
20
-66.442001
30
-57.422001
70
192
0
VERTEX
8
OBJECT__25
10
13.054000
20
-81.422997
30
-38.025002
70
192
0
VERTEX
8
OBJECT__25
10
13.054000
20
-87.886002
30
-25.047001
70
192
0
VERTEX
8
OBJECT__25
10
0.000000
20
-91.039001
30
-15.394000
70
192
0
VERTEX
8
OBJECT__25
10
0.000000
20
-94.250000
30
9.000000
70
192
0
VERTEX
8
OBJECT__25
10
13.054000
20
-92.644997
30
-8.318000
70
192
0
VERTEX
8
OBJECT__25
10
13.054000
20
-90.663002
30
-15.287000
70
192
0
VERTEX
8
OBJECT__25
10
13.054000
20
-94.250000
30
9.000000
70
192
0
VERTEX
8
OBJECT__25
10
13.054000
20
-92.644997
30
26.318001
70
192
0
VERTEX
8
OBJECT__25
10
0.000000
20
-91.039001
30
33.394001
70
192
0
VERTEX
8
OBJECT__25
10
0.000000
20
-81.623001
30
56.125000
70
192
0
VERTEX
8
OBJECT__25
10
13.054000
20
-87.886002
30
43.047001
70
192
0
VERTEX
8
OBJECT__25
10
13.054000
20
-90.663002
30
33.286999
70
192
0
VERTEX
8
OBJECT__25
10
13.054000
20
-80.133003
30
58.616001
70
192
0
VERTEX
8
OBJECT__25
10
13.054000
20
-69.652000
30
72.496002
70
192
0
VERTEX
8
OBJECT__25
10
0.000000
20
-66.644997
30
75.644997
70
192
0
VERTEX
8
OBJECT__25
10
13.054000
20
-81.422997
30
56.025002
70
192
0
VERTEX
8
OBJECT__25
10
13.054000
20
-66.442001
30
75.421997
70
192
0
VERTEX
8
OBJECT__25
10
13.054000
20
-56.798000
30
84.212997
70
192
0
VERTEX
8
OBJECT__25
10
0.000000
20
-47.125000
30
90.623001
70
192
0
VERTEX
8
OBJECT__25
10
0.000000
20
-24.393999
30
100.039001
70
192
0
VERTEX
8
OBJECT__25
10
13.054000
20
-42.011002
30
93.369003
70
192
0
VERTEX
8
OBJECT__25
10
13.054000
20
-25.792999
30
99.652000
70
192
0
VERTEX
8
OBJECT__25
10
13.054000
20
-46.937000
30
90.319000
70
192
0
VERTEX
8
OBJECT__25
10
13.054000
20
-24.371000
30
99.917999
70
192
0
VERTEX
8
OBJECT__25
10
13.054000
20
-8.696000
30
102.848000
70
192
0
VERTEX
8
OBJECT__25
10
0
20
0
30
0
70
128
71
1
72
2
73
3
0
VERTEX
8
OBJECT__25
10
0
20
0
30
0
70
128
71
2
72
4
73
3
0
VERTEX
8
OBJECT__25
10
0
20
0
30
0
70
128
71
1
72
5
73
6
0
VERTEX
8
OBJECT__25
10
0
20
0
30
0
70
128
71
6
72
7
73
1
0
VERTEX
8
OBJECT__25
10
0
20
0
30
0
70
128
71
1
72
8
73
5
0
VERTEX
8
OBJECT__25
10
0
20
0
30
0
70
128
71
9
72
7
73
10
0
VERTEX
8
OBJECT__25
10
0
20
0
30
0
70
128
71
7
72
11
73
10
0
VERTEX
8
OBJECT__25
10
0
20
0
30
0
70
128
71
12
72
9
73
13
0
VERTEX
8
OBJECT__25
10
0
20
0
30
0
70
128
71
13
72
14
73
12
0
VERTEX
8
OBJECT__25
10
0
20
0
30
0
70
128
71
9
72
15
73
13
0
VERTEX
8
OBJECT__25
10
0
20
0
30
0
70
128
71
12
72
16
73
17
0
VERTEX
8
OBJECT__25
10
0
20
0
30
0
70
128
71
17
72
18
73
12
0
VERTEX
8
OBJECT__25
10
0
20
0
30
0
70
128
71
19
72
18
73
20
0
VERTEX
8
OBJECT__25
10
0
20
0
30
0
70
128
71
18
72
21
73
20
0
VERTEX
8
OBJECT__25
10
0
20
0
30
0
70
128
71
19
72
22
73
23
0
VERTEX
8
OBJECT__25
10
0
20
0
30
0
70
128
71
23
72
24
73
19
0
VERTEX
8
OBJECT__25
10
0
20
0
30
0
70
128
71
25
72
24
73
26
0
VERTEX
8
OBJECT__25
10
0
20
0
30
0
70
128
71
24
72
27
73
26
0
VERTEX
8
OBJECT__25
10
0
20
0
30
0
70
128
71
25
72
28
73
29
0
VERTEX
8
OBJECT__25
10
0
20
0
30
0
70
128
71
29
72
30
73
25
0
VERTEX
8
OBJECT__25
10
0
20
0
30
0
70
128
71
25
72
31
73
28
0
VERTEX
8
OBJECT__25
10
0
20
0
30
0
70
128
71
30
72
32
73
33
0
VERTEX
8
OBJECT__25
10
0
20
0
30
0
70
128
71
33
72
34
73
30
0
VERTEX
8
OBJECT__25
10
0
20
0
30
0
70
128
71
35
72
34
73
36
0
VERTEX
8
OBJECT__25
10
0
20
0
30
0
70
128
71
36
72
37
73
35
0
VERTEX
8
OBJECT__25
10
0
20
0
30
0
70
128
71
34
72
38
73
36
0
VERTEX
8
OBJECT__25
10
0
20
0
30
0
70
128
71
35
72
39
73
40
0
VERTEX
8
OBJECT__25
10
0
20
0
30
0
70
128
71
40
72
41
73
35
0
VERTEX
8
OBJECT__25
10
0
20
0
30
0
70
128
71
42
72
41
73
43
0
VERTEX
8
OBJECT__25
10
0
20
0
30
0
70
128
71
41
72
44
73
43
0
VERTEX
8
OBJECT__25
10
0
20
0
30
0
70
128
71
42
72
45
73
46
0
VERTEX
8
OBJECT__25
10
0
20
0
30
0
70
128
71
46
72
47
73
42
0
VERTEX
8
OBJECT__25
10
0
20
0
30
0
70
128
71
42
72
48
73
45
0
VERTEX
8
OBJECT__25
10
0
20
0
30
0
70
128
71
49
72
47
73
50
0
VERTEX
8
OBJECT__25
10
0
20
0
30
0
70
128
71
47
72
51
73
50
0
VERTEX
8
OBJECT__25
10
0
20
0
30
0
70
128
71
52
72
49
73
53
0
VERTEX
8
OBJECT__25
10
0
20
0
30
0
70
128
71
53
72
54
73
52
0
VERTEX
8
OBJECT__25
10
0
20
0
30
0
70
128
71
49
72
55
73
53
0
VERTEX
8
OBJECT__25
10
0
20
0
30
0
70
128
71
52
72
56
73
57
0
VERTEX
8
OBJECT__25
10
0
20
0
30
0
70
128
71
57
72
58
73
52
0
VERTEX
8
OBJECT__25
10
0
20
0
30
0
70
128
71
59
72
58
73
60
0
VERTEX
8
OBJECT__25
10
0
20
0
30
0
70
128
71
58
72
61
73
60
0
VERTEX
8
OBJECT__25
10
0
20
0
30
0
70
128
71
59
72
62
73
63
0
VERTEX
8
OBJECT__25
10
0
20
0
30
0
70
128
71
63
72
64
73
59
0
VERTEX
8
OBJECT__25
10
0
20
0
30
0
70
128
71
65
72
64
73
66
0
VERTEX
8
OBJECT__25
10
0
20
0
30
0
70
128
71
64
72
67
73
66
0
VERTEX
8
OBJECT__25
10
0
20
0
30
0
70
128
71
65
72
68
73
69
0
VERTEX
8
OBJECT__25
10
0
20
0
30
0
70
128
71
69
72
70
73
65
0
VERTEX
8
OBJECT__25
10
0
20
0
30
0
70
128
71
65
72
71
73
68
0
VERTEX
8
OBJECT__25
10
0
20
0
30
0
70
128
71
70
72
72
73
73
0
VERTEX
8
OBJECT__25
10
0
20
0
30
0
70
128
71
73
72
74
73
70
0
VERTEX
8
OBJECT__25
10
0
20
0
30
0
70
128
71
75
72
74
73
76
0
VERTEX
8
OBJECT__25
10
0
20
0
30
0
70
128
71
76
72
77
73
75
0
VERTEX
8
OBJECT__25
10
0
20
0
30
0
70
128
71
74
72
78
73
76
0
VERTEX
8
OBJECT__25
10
0
20
0
30
0
70
128
71
75
72
79
73
80
0
VERTEX
8
OBJECT__25
10
0
20
0
30
0
70
128
71
80
72
2
73
75
0
VERTEX
8
OBJECT__25
10
0
20
0
30
0
70
128
71
80
72
4
73
2
0
VERTEX
8
OBJECT__25
10
0
20
0
30
0
70
128
71
77
72
79
73
75
0
VERTEX
8
OBJECT__25
10
0
20
0
30
0
70
128
71
73
72
78
73
74
0
VERTEX
8
OBJECT__25
10
0
20
0
30
0
70
128
71
69
72
72
73
70
0
VERTEX
8
OBJECT__25
10
0
20
0
30
0
70
128
71
66
72
71
73
65
0
VERTEX
8
OBJECT__25
10
0
20
0
30
0
70
128
71
63
72
67
73
64
0
VERTEX
8
OBJECT__25
10
0
20
0
30
0
70
128
71
60
72
62
73
59
0
VERTEX
8
OBJECT__25
10
0
20
0
30
0
70
128
71
57
72
61
73
58
0
VERTEX
8
OBJECT__25
10
0
20
0
30
0
70
128
71
54
72
56
73
52
0
VERTEX
8
OBJECT__25
10
0
20
0
30
0
70
128
71
50
72
55
73
49
0
VERTEX
8
OBJECT__25
10
0
20
0
30
0
70
128
71
46
72
51
73
47
0
VERTEX
8
OBJECT__25
10
0
20
0
30
0
70
128
71
43
72
48
73
42
0
VERTEX
8
OBJECT__25
10
0
20
0
30
0
70
128
71
40
72
44
73
41
0
VERTEX
8
OBJECT__25
10
0
20
0
30
0
70
128
71
37
72
39
73
35
0
VERTEX
8
OBJECT__25
10
0
20
0
30
0
70
128
71
33
72
38
73
34
0
VERTEX
8
OBJECT__25
10
0
20
0
30
0
70
128
71
29
72
32
73
30
0
VERTEX
8
OBJECT__25
10
0
20
0
30
0
70
128
71
26
72
31
73
25
0
VERTEX
8
OBJECT__25
10
0
20
0
30
0
70
128
71
23
72
27
73
24
0
VERTEX
8
OBJECT__25
10
0
20
0
30
0
70
128
71
20
72
22
73
19
0
VERTEX
8
OBJECT__25
10
0
20
0
30
0
70
128
71
17
72
21
73
18
0
VERTEX
8
OBJECT__25
10
0
20
0
30
0
70
128
71
14
72
16
73
12
0
VERTEX
8
OBJECT__25
10
0
20
0
30
0
70
128
71
10
72
15
73
9
0
VERTEX
8
OBJECT__25
10
0
20
0
30
0
70
128
71
6
72
11
73
7
0
VERTEX
8
OBJECT__25
10
0
20
0
30
0
70
128
71
3
72
8
73
1
0
SEQEND
8
OBJECT__25
0
POLYLINE
8
OBJECT__27
66
1
70
64
71
123
72
125
62
253
0
VERTEX
8
OBJECT__27
10
13.054000
20
94.250000
30
9.000000
70
192
0
VERTEX
8
OBJECT__27
10
13.735000
20
26.549999
30
9.000000
70
192
0
VERTEX
8
OBJECT__27
10
13.735000
20
26.098000
30
4.121000
70
192
0
VERTEX
8
OBJECT__27
10
13.054000
20
90.663002
30
-15.287000
70
192
0
VERTEX
8
OBJECT__27
10
13.735000
20
24.809000
30
-0.410000
70
192
0
VERTEX
8
OBJECT__27
10
13.735000
20
24.757000
30
-0.591000
70
192
0
VERTEX
8
OBJECT__27
10
13.054000
20
92.644997
30
-8.318000
70
192
0
VERTEX
8
OBJECT__27
10
13.054000
20
81.422997
30
-38.025002
70
192
0
VERTEX
8
OBJECT__27
10
13.054000
20
87.886002
30
-25.047001
70
192
0
VERTEX
8
OBJECT__27
10
13.735000
20
22.573000
30
-4.977000
70
192
0
VERTEX
8
OBJECT__27
10
13.054000
20
80.133003
30
-40.616001
70
192
0
VERTEX
8
OBJECT__27
10
13.735000
20
19.621000
30
-8.887000
70
192
0
VERTEX
8
OBJECT__27
10
13.054000
20
66.442001
30
-57.422001
70
192
0
VERTEX
8
OBJECT__27
10
13.735000
20
17.531000
30
-10.791000
70
192
0
VERTEX
8
OBJECT__27
10
13.735000
20
16.000000
30
-12.187000
70
192
0
VERTEX
8
OBJECT__27
10
13.054000
20
69.652000
30
-54.495998
70
192
0
VERTEX
8
OBJECT__27
10
13.054000
20
46.937000
30
-72.319000
70
192
0
VERTEX
8
OBJECT__27
10
13.054000
20
56.798000
30
-66.212997
70
192
0
VERTEX
8
OBJECT__27
10
13.735000
20
11.834000
30
-14.767000
70
192
0
VERTEX
8
OBJECT__27
10
13.054000
20
42.011002
30
-75.369003
70
192
0
VERTEX
8
OBJECT__27
10
13.054000
20
25.792999
30
-81.652000
70
192
0
VERTEX
8
OBJECT__27
10
13.054000
20
24.371000
30
-81.917999
70
192
0
VERTEX
8
OBJECT__27
10
13.735000
20
6.341000
30
-16.709000
70
192
0
VERTEX
8
OBJECT__27
10
13.735000
20
2.450000
30
-17.437000
70
192
0
VERTEX
8
OBJECT__27
10
13.735000
20
7.266000
30
-16.535999
70
192
0
VERTEX
8
OBJECT__27
10
13.054000
20
0.000000
30
-84.848000
70
192
0
VERTEX
8
OBJECT__27
10
13.735000
20
-2.450000
30
-17.437000
70
192
0
VERTEX
8
OBJECT__27
10
13.054000
20
-8.696000
30
-84.848000
70
192
0
VERTEX
8
OBJECT__27
10
13.054000
20
-24.371000
30
-81.917999
70
192
0
VERTEX
8
OBJECT__27
10
13.735000
20
-6.341000
30
-16.709000
70
192
0
VERTEX
8
OBJECT__27
10
13.735000
20
-7.266000
30
-16.535999
70
192
0
VERTEX
8
OBJECT__27
10
13.054000
20
-42.011002
30
-75.369003
70
192
0
VERTEX
8
OBJECT__27
10
13.054000
20
-25.792999
30
-81.652000
70
192
0
VERTEX
8
OBJECT__27
10
13.054000
20
-46.937000
30
-72.319000
70
192
0
VERTEX
8
OBJECT__27
10
13.735000
20
-11.834000
30
-14.767000
70
192
0
VERTEX
8
OBJECT__27
10
13.735000
20
-16.000000
30
-12.187000
70
192
0
VERTEX
8
OBJECT__27
10
13.054000
20
-56.798000
30
-66.212997
70
192
0
VERTEX
8
OBJECT__27
10
13.054000
20
-66.442001
30
-57.422001
70
192
0
VERTEX
8
OBJECT__27
10
13.735000
20
-17.531000
30
-10.791000
70
192
0
VERTEX
8
OBJECT__27
10
13.735000
20
-19.621000
30
-8.887000
70
192
0
VERTEX
8
OBJECT__27
10
13.054000
20
-69.652000
30
-54.495998
70
192
0
VERTEX
8
OBJECT__27
10
13.735000
20
-22.573000
30
-4.977000
70
192
0
VERTEX
8
OBJECT__27
10
13.054000
20
-81.422997
30
-38.025002
70
192
0
VERTEX
8
OBJECT__27
10
13.735000
20
-24.757000
30
-0.591000
70
192
0
VERTEX
8
OBJECT__27
10
13.054000
20
-87.886002
30
-25.047001
70
192
0
VERTEX
8
OBJECT__27
10
13.054000
20
-90.663002
30
-15.287000
70
192
0
VERTEX
8
OBJECT__27
10
13.735000
20
-24.809000
30
-0.410000
70
192
0
VERTEX
8
OBJECT__27
10
13.735000
20
-26.098000
30
4.121000
70
192
0
VERTEX
8
OBJECT__27
10
13.054000
20
-92.644997
30
-8.318000
70
192
0
VERTEX
8
OBJECT__27
10
13.735000
20
-26.549999
30
9.000000
70
192
0
VERTEX
8
OBJECT__27
10
13.054000
20
-94.250000
30
9.000000
70
192
0
VERTEX
8
OBJECT__27
10
13.735000
20
-26.254000
30
12.191000
70
192
0
VERTEX
8
OBJECT__27
10
13.054000
20
-92.644997
30
26.318001
70
192
0
VERTEX
8
OBJECT__27
10
13.054000
20
-90.663002
30
33.286999
70
192
0
VERTEX
8
OBJECT__27
10
13.735000
20
-26.098000
30
13.879000
70
192
0
VERTEX
8
OBJECT__27
10
13.735000
20
-24.757000
30
18.591000
70
192
0
VERTEX
8
OBJECT__27
10
13.054000
20
-87.886002
30
43.047001
70
192
0
VERTEX
8
OBJECT__27
10
13.054000
20
-81.422997
30
56.025002
70
192
0
VERTEX
8
OBJECT__27
10
13.735000
20
-22.573000
30
22.976999
70
192
0
VERTEX
8
OBJECT__27
10
13.054000
20
-80.133003
30
58.616001
70
192
0
VERTEX
8
OBJECT__27
10
13.054000
20
-69.652000
30
72.496002
70
192
0
VERTEX
8
OBJECT__27
10
13.735000
20
-21.778999
30
24.028000
70
192
0
VERTEX
8
OBJECT__27
10
13.054000
20
-66.442001
30
75.421997
70
192
0
VERTEX
8
OBJECT__27
10
13.735000
20
-19.621000
30
26.886999
70
192
0
VERTEX
8
OBJECT__27
10
13.735000
20
-16.000000
30
30.187000
70
192
0
VERTEX
8
OBJECT__27
10
13.054000
20
-56.798000
30
84.212997
70
192
0
VERTEX
8
OBJECT__27
10
13.054000
20
-46.937000
30
90.319000
70
192
0
VERTEX
8
OBJECT__27
10
13.735000
20
-12.314000
30
32.470001
70
192
0
VERTEX
8
OBJECT__27
10
13.735000
20
-11.834000
30
32.766998
70
192
0
VERTEX
8
OBJECT__27
10
13.054000
20
-42.011002
30
93.369003
70
192
0
VERTEX
8
OBJECT__27
10
13.735000
20
-7.266000
30
34.535999
70
192
0
VERTEX
8
OBJECT__27
10
13.054000
20
25.792999
30
99.652000
70
192
0
VERTEX
8
OBJECT__27
10
13.735000
20
7.266000
30
34.535999
70
192
0
VERTEX
8
OBJECT__27
10
13.735000
20
11.834000
30
32.766998
70
192
0
VERTEX
8
OBJECT__27
10
13.054000
20
46.937000
30
90.319000
70
192
0
VERTEX
8
OBJECT__27
10
13.735000
20
12.314000
30
32.470001
70
192
0
VERTEX
8
OBJECT__27
10
13.735000
20
16.000000
30
30.187000
70
192
0
VERTEX
8
OBJECT__27
10
13.054000
20
42.011002
30
93.369003
70
192
0
VERTEX
8
OBJECT__27
10
13.054000
20
66.442001
30
75.421997
70
192
0
VERTEX
8
OBJECT__27
10
13.054000
20
56.798000
30
84.212997
70
192
0
VERTEX
8
OBJECT__27
10
13.735000
20
19.621000
30
26.886999
70
192
0
VERTEX
8
OBJECT__27
10
13.054000
20
69.652000
30
72.496002
70
192
0
VERTEX
8
OBJECT__27
10
13.735000
20
21.778999
30
24.028000
70
192
0
VERTEX
8
OBJECT__27
10
13.054000
20
80.133003
30
58.616001
70
192
0
VERTEX
8
OBJECT__27
10
13.054000
20
81.422997
30
56.025002
70
192
0
VERTEX
8
OBJECT__27
10
13.735000
20
22.573000
30
22.976999
70
192
0
VERTEX
8
OBJECT__27
10
13.735000
20
24.757000
30
18.591000
70
192
0
VERTEX
8
OBJECT__27
10
13.054000
20
87.886002
30
43.047001
70
192
0
VERTEX
8
OBJECT__27
10
13.054000
20
90.663002
30
33.286999
70
192
0
VERTEX
8
OBJECT__27
10
13.735000
20
26.098000
30
13.879000
70
192
0
VERTEX
8
OBJECT__27
10
13.054000
20
92.644997
30
26.318001
70
192
0
VERTEX
8
OBJECT__27
10
13.735000
20
26.254000
30
12.191000
70
192
0
VERTEX
8
OBJECT__27
10
13.054000
20
-24.371000
30
99.917999
70
192
0
VERTEX
8
OBJECT__27
10
13.516000
20
-5.865000
30
66.434998
70
192
0
VERTEX
8
OBJECT__27
10
13.510000
20
-5.380000
30
67.158997
70
192
0
VERTEX
8
OBJECT__27
10
13.054000
20
-8.696000
30
102.848000
70
192
0
VERTEX
8
OBJECT__27
10
13.054000
20
-25.792999
30
99.652000
70
192
0
VERTEX
8
OBJECT__27
10
13.561000
20
-5.870000
30
61.577000
70
192
0
VERTEX
8
OBJECT__27
10
13.539000
20
-6.350000
30
64.005997
70
192
0
VERTEX
8
OBJECT__27
10
13.735000
20
-2.450000
30
35.437000
70
192
0
VERTEX
8
OBJECT__27
10
13.577000
20
-4.718000
30
59.851002
70
192
0
VERTEX
8
OBJECT__27
10
13.054000
20
8.696000
30
102.848000
70
192
0
VERTEX
8
OBJECT__27
10
13.054000
20
0.000000
30
103.250000
70
192
0
VERTEX
8
OBJECT__27
10
13.480000
20
0.007000
30
70.349998
70
192
0
VERTEX
8
OBJECT__27
10
13.485000
20
2.435000
30
69.864998
70
192
0
VERTEX
8
OBJECT__27
10
13.485000
20
-2.422000
30
69.870003
70
192
0
VERTEX
8
OBJECT__27
10
13.498000
20
4.492000
30
68.487999
70
192
0
VERTEX
8
OBJECT__27
10
13.497000
20
-4.485000
30
68.495003
70
192
0
VERTEX
8
OBJECT__27
10
13.561000
20
5.865000
30
61.564999
70
192
0
VERTEX
8
OBJECT__27
10
13.577000
20
4.718000
30
59.852001
70
192
0
VERTEX
8
OBJECT__27
10
13.539000
20
6.350000
30
63.995998
70
192
0
VERTEX
8
OBJECT__27
10
13.054000
20
24.371000
30
99.917999
70
192
0
VERTEX
8
OBJECT__27
10
13.510000
20
5.380000
30
67.158997
70
192
0
VERTEX
8
OBJECT__27
10
13.516000
20
5.868000
30
66.428001
70
192
0
VERTEX
8
OBJECT__27
10
13.735000
20
0.000000
30
35.549999
70
192
0
VERTEX
8
OBJECT__27
10
13.597000
20
0.000000
30
57.650002
70
192
0
VERTEX
8
OBJECT__27
10
13.735000
20
2.450000
30
35.437000
70
192
0
VERTEX
8
OBJECT__27
10
13.592000
20
2.428000
30
58.132000
70
192
0
VERTEX
8
OBJECT__27
10
13.580000
20
4.487000
30
59.507000
70
192
0
VERTEX
8
OBJECT__27
10
13.592000
20
-2.420000
30
58.129002
70
192
0
VERTEX
8
OBJECT__27
10
13.580000
20
-4.491000
30
59.511002
70
192
0
VERTEX
8
OBJECT__27
10
13.054000
20
-80.133003
30
-40.616001
70
192
0
VERTEX
8
OBJECT__27
10
13.054000
20
8.696000
30
-84.848000
70
192
0
VERTEX
8
OBJECT__27
10
0
20
0
30
0
70
128
71
1
72
2
73
3
0
VERTEX
8
OBJECT__27
10
0
20
0
30
0
70
128
71
4
72
5
73
6
0
VERTEX
8
OBJECT__27
10
0
20
0
30
0
70
128
71
4
72
7
73
3
0
VERTEX
8
OBJECT__27
10
0
20
0
30
0
70
128
71
3
72
5
73
4
0
VERTEX
8
OBJECT__27
10
0
20
0
30
0
70
128
71
8
72
9
73
6
0
VERTEX
8
OBJECT__27
10
0
20
0
30
0
70
128
71
10
72
11
73
8
0
VERTEX
8
OBJECT__27
10
0
20
0
30
0
70
128
71
11
72
10
73
12
0
VERTEX
8
OBJECT__27
10
0
20
0
30
0
70
128
71
13
72
14
73
15
0
VERTEX
8
OBJECT__27
10
0
20
0
30
0
70
128
71
13
72
16
73
12
0
VERTEX
8
OBJECT__27
10
0
20
0
30
0
70
128
71
12
72
14
73
13
0
VERTEX
8
OBJECT__27
10
0
20
0
30
0
70
128
71
17
72
18
73
15
0
VERTEX
8
OBJECT__27
10
0
20
0
30
0
70
128
71
19
72
20
73
17
0
VERTEX
8
OBJECT__27
10
0
20
0
30
0
70
128
71
21
72
20
73
19
0
VERTEX
8
OBJECT__27
10
0
20
0
30
0
70
128
71
22
72
23
73
24
0
VERTEX
8
OBJECT__27
10
0
20
0
30
0
70
128
71
22
72
21
73
25
0
VERTEX
8
OBJECT__27
10
0
20
0
30
0
70
128
71
25
72
23
73
22
0
VERTEX
8
OBJECT__27
10
0
20
0
30
0
70
128
71
26
72
24
73
27
0
VERTEX
8
OBJECT__27
10
0
20
0
30
0
70
128
71
27
72
28
73
26
0
VERTEX
8
OBJECT__27
10
0
20
0
30
0
70
128
71
29
72
30
73
31
0
VERTEX
8
OBJECT__27
10
0
20
0
30
0
70
128
71
29
72
28
73
27
0
VERTEX
8
OBJECT__27
10
0
20
0
30
0
70
128
71
27
72
30
73
29
0
VERTEX
8
OBJECT__27
10
0
20
0
30
0
70
128
71
32
72
33
73
31
0
VERTEX
8
OBJECT__27
10
0
20
0
30
0
70
128
71
34
72
35
73
36
0
VERTEX
8
OBJECT__27
10
0
20
0
30
0
70
128
71
36
72
37
73
34
0
VERTEX
8
OBJECT__27
10
0
20
0
30
0
70
128
71
38
72
39
73
40
0
VERTEX
8
OBJECT__27
10
0
20
0
30
0
70
128
71
38
72
37
73
36
0
VERTEX
8
OBJECT__27
10
0
20
0
30
0
70
128
71
36
72
39
73
38
0
VERTEX
8
OBJECT__27
10
0
20
0
30
0
70
128
71
41
72
40
73
42
0
VERTEX
8
OBJECT__27
10
0
20
0
30
0
70
128
71
43
72
42
73
44
0
VERTEX
8
OBJECT__27
10
0
20
0
30
0
70
128
71
44
72
45
73
43
0
VERTEX
8
OBJECT__27
10
0
20
0
30
0
70
128
71
46
72
47
73
48
0
VERTEX
8
OBJECT__27
10
0
20
0
30
0
70
128
71
46
72
45
73
44
0
VERTEX
8
OBJECT__27
10
0
20
0
30
0
70
128
71
44
72
47
73
46
0
VERTEX
8
OBJECT__27
10
0
20
0
30
0
70
128
71
49
72
48
73
50
0
VERTEX
8
OBJECT__27
10
0
20
0
30
0
70
128
71
51
72
50
73
52
0
VERTEX
8
OBJECT__27
10
0
20
0
30
0
70
128
71
52
72
53
73
51
0
VERTEX
8
OBJECT__27
10
0
20
0
30
0
70
128
71
54
72
55
73
56
0
VERTEX
8
OBJECT__27
10
0
20
0
30
0
70
128
71
56
72
57
73
54
0
VERTEX
8
OBJECT__27
10
0
20
0
30
0
70
128
71
58
72
57
73
56
0
VERTEX
8
OBJECT__27
10
0
20
0
30
0
70
128
71
59
72
60
73
58
0
VERTEX
8
OBJECT__27
10
0
20
0
30
0
70
128
71
61
72
60
73
62
0
VERTEX
8
OBJECT__27
10
0
20
0
30
0
70
128
71
60
72
59
73
62
0
VERTEX
8
OBJECT__27
10
0
20
0
30
0
70
128
71
63
72
64
73
65
0
VERTEX
8
OBJECT__27
10
0
20
0
30
0
70
128
71
65
72
66
73
63
0
VERTEX
8
OBJECT__27
10
0
20
0
30
0
70
128
71
67
72
68
73
69
0
VERTEX
8
OBJECT__27
10
0
20
0
30
0
70
128
71
67
72
66
73
65
0
VERTEX
8
OBJECT__27
10
0
20
0
30
0
70
128
71
65
72
68
73
67
0
VERTEX
8
OBJECT__27
10
0
20
0
30
0
70
128
71
70
72
69
73
71
0
VERTEX
8
OBJECT__27
10
0
20
0
30
0
70
128
71
72
72
73
73
74
0
VERTEX
8
OBJECT__27
10
0
20
0
30
0
70
128
71
75
72
76
73
77
0
VERTEX
8
OBJECT__27
10
0
20
0
30
0
70
128
71
75
72
78
73
74
0
VERTEX
8
OBJECT__27
10
0
20
0
30
0
70
128
71
74
72
76
73
75
0
VERTEX
8
OBJECT__27
10
0
20
0
30
0
70
128
71
79
72
80
73
77
0
VERTEX
8
OBJECT__27
10
0
20
0
30
0
70
128
71
81
72
82
73
79
0
VERTEX
8
OBJECT__27
10
0
20
0
30
0
70
128
71
82
72
81
73
83
0
VERTEX
8
OBJECT__27
10
0
20
0
30
0
70
128
71
83
72
84
73
82
0
VERTEX
8
OBJECT__27
10
0
20
0
30
0
70
128
71
85
72
86
73
87
0
VERTEX
8
OBJECT__27
10
0
20
0
30
0
70
128
71
87
72
88
73
85
0
VERTEX
8
OBJECT__27
10
0
20
0
30
0
70
128
71
89
72
88
73
87
0
VERTEX
8
OBJECT__27
10
0
20
0
30
0
70
128
71
90
72
91
73
89
0
VERTEX
8
OBJECT__27
10
0
20
0
30
0
70
128
71
1
72
91
73
92
0
VERTEX
8
OBJECT__27
10
0
20
0
30
0
70
128
71
91
72
90
73
92
0
VERTEX
8
OBJECT__27
10
0
20
0
30
0
70
128
71
93
72
94
73
95
0
VERTEX
8
OBJECT__27
10
0
20
0
30
0
70
128
71
95
72
96
73
93
0
VERTEX
8
OBJECT__27
10
0
20
0
30
0
70
128
71
97
72
71
73
98
0
VERTEX
8
OBJECT__27
10
0
20
0
30
0
70
128
71
98
72
99
73
97
0
VERTEX
8
OBJECT__27
10
0
20
0
30
0
70
128
71
99
72
94
73
97
0
VERTEX
8
OBJECT__27
10
0
20
0
30
0
70
128
71
71
72
100
73
101
0
VERTEX
8
OBJECT__27
10
0
20
0
30
0
70
128
71
101
72
98
73
71
0
VERTEX
8
OBJECT__27
10
0
20
0
30
0
70
128
71
102
72
103
73
104
0
VERTEX
8
OBJECT__27
10
0
20
0
30
0
70
128
71
104
72
105
73
102
0
VERTEX
8
OBJECT__27
10
0
20
0
30
0
70
128
71
96
72
106
73
104
0
VERTEX
8
OBJECT__27
10
0
20
0
30
0
70
128
71
104
72
103
73
96
0
VERTEX
8
OBJECT__27
10
0
20
0
30
0
70
128
71
105
72
107
73
102
0
VERTEX
8
OBJECT__27
10
0
20
0
30
0
70
128
71
96
72
108
73
106
0
VERTEX
8
OBJECT__27
10
0
20
0
30
0
70
128
71
96
72
95
73
108
0
VERTEX
8
OBJECT__27
10
0
20
0
30
0
70
128
71
73
72
109
73
110
0
VERTEX
8
OBJECT__27
10
0
20
0
30
0
70
128
71
72
72
111
73
109
0
VERTEX
8
OBJECT__27
10
0
20
0
30
0
70
128
71
109
72
73
73
72
0
VERTEX
8
OBJECT__27
10
0
20
0
30
0
70
128
71
112
72
102
73
113
0
VERTEX
8
OBJECT__27
10
0
20
0
30
0
70
128
71
114
72
72
73
112
0
VERTEX
8
OBJECT__27
10
0
20
0
30
0
70
128
71
113
72
114
73
112
0
VERTEX
8
OBJECT__27
10
0
20
0
30
0
70
128
71
114
72
111
73
72
0
VERTEX
8
OBJECT__27
10
0
20
0
30
0
70
128
71
100
72
115
73
116
0
VERTEX
8
OBJECT__27
10
0
20
0
30
0
70
128
71
117
72
118
73
116
0
VERTEX
8
OBJECT__27
10
0
20
0
30
0
70
128
71
116
72
115
73
117
0
VERTEX
8
OBJECT__27
10
0
20
0
30
0
70
128
71
117
72
119
73
118
0
VERTEX
8
OBJECT__27
10
0
20
0
30
0
70
128
71
117
72
110
73
119
0
VERTEX
8
OBJECT__27
10
0
20
0
30
0
70
128
71
116
72
120
73
100
0
VERTEX
8
OBJECT__27
10
0
20
0
30
0
70
128
71
120
72
121
73
100
0
VERTEX
8
OBJECT__27
10
0
20
0
30
0
70
128
71
121
72
101
73
100
0
VERTEX
8
OBJECT__27
10
0
20
0
30
0
70
128
71
110
72
117
73
73
0
VERTEX
8
OBJECT__27
10
0
20
0
30
0
70
128
71
107
72
113
73
102
0
VERTEX
8
OBJECT__27
10
0
20
0
30
0
70
128
71
93
72
97
73
94
0
VERTEX
8
OBJECT__27
10
0
20
0
30
0
70
128
71
92
72
2
73
1
0
VERTEX
8
OBJECT__27
10
0
20
0
30
0
70
128
71
87
72
90
73
89
0
VERTEX
8
OBJECT__27
10
0
20
0
30
0
70
128
71
85
72
84
73
86
0
VERTEX
8
OBJECT__27
10
0
20
0
30
0
70
128
71
83
72
86
73
84
0
VERTEX
8
OBJECT__27
10
0
20
0
30
0
70
128
71
77
72
81
73
79
0
VERTEX
8
OBJECT__27
10
0
20
0
30
0
70
128
71
77
72
80
73
75
0
VERTEX
8
OBJECT__27
10
0
20
0
30
0
70
128
71
74
72
78
73
72
0
VERTEX
8
OBJECT__27
10
0
20
0
30
0
70
128
71
71
72
97
73
70
0
VERTEX
8
OBJECT__27
10
0
20
0
30
0
70
128
71
69
72
70
73
67
0
VERTEX
8
OBJECT__27
10
0
20
0
30
0
70
128
71
63
72
61
73
64
0
VERTEX
8
OBJECT__27
10
0
20
0
30
0
70
128
71
62
72
64
73
61
0
VERTEX
8
OBJECT__27
10
0
20
0
30
0
70
128
71
56
72
59
73
58
0
VERTEX
8
OBJECT__27
10
0
20
0
30
0
70
128
71
54
72
53
73
55
0
VERTEX
8
OBJECT__27
10
0
20
0
30
0
70
128
71
52
72
55
73
53
0
VERTEX
8
OBJECT__27
10
0
20
0
30
0
70
128
71
50
72
51
73
49
0
VERTEX
8
OBJECT__27
10
0
20
0
30
0
70
128
71
48
72
49
73
46
0
VERTEX
8
OBJECT__27
10
0
20
0
30
0
70
128
71
43
72
122
73
42
0
VERTEX
8
OBJECT__27
10
0
20
0
30
0
70
128
71
42
72
122
73
41
0
VERTEX
8
OBJECT__27
10
0
20
0
30
0
70
128
71
40
72
41
73
38
0
VERTEX
8
OBJECT__27
10
0
20
0
30
0
70
128
71
34
72
32
73
35
0
VERTEX
8
OBJECT__27
10
0
20
0
30
0
70
128
71
31
72
35
73
32
0
VERTEX
8
OBJECT__27
10
0
20
0
30
0
70
128
71
31
72
33
73
29
0
VERTEX
8
OBJECT__27
10
0
20
0
30
0
70
128
71
26
72
123
73
24
0
VERTEX
8
OBJECT__27
10
0
20
0
30
0
70
128
71
24
72
123
73
22
0
VERTEX
8
OBJECT__27
10
0
20
0
30
0
70
128
71
19
72
25
73
21
0
VERTEX
8
OBJECT__27
10
0
20
0
30
0
70
128
71
15
72
19
73
17
0
VERTEX
8
OBJECT__27
10
0
20
0
30
0
70
128
71
15
72
18
73
13
0
VERTEX
8
OBJECT__27
10
0
20
0
30
0
70
128
71
12
72
16
73
11
0
VERTEX
8
OBJECT__27
10
0
20
0
30
0
70
128
71
6
72
10
73
8
0
VERTEX
8
OBJECT__27
10
0
20
0
30
0
70
128
71
6
72
9
73
4
0
VERTEX
8
OBJECT__27
10
0
20
0
30
0
70
128
71
3
72
7
73
1
0
SEQEND
8
OBJECT__27
0
POLYLINE
8
OBJECT__28
66
1
70
64
71
60
72
60
62
253
0
VERTEX
8
OBJECT__28
10
12.935000
20
-12.338000
30
32.508999
70
192
0
VERTEX
8
OBJECT__28
10
13.735000
20
-7.266000
30
34.535999
70
192
0
VERTEX
8
OBJECT__28
10
13.735000
20
-11.834000
30
32.766998
70
192
0
VERTEX
8
OBJECT__28
10
12.935000
20
0.000000
30
35.549999
70
192
0
VERTEX
8
OBJECT__28
10
13.735000
20
-2.450000
30
35.437000
70
192
0
VERTEX
8
OBJECT__28
10
13.735000
20
0.000000
30
35.549999
70
192
0
VERTEX
8
OBJECT__28
10
12.935000
20
-21.850000
30
24.082001
70
192
0
VERTEX
8
OBJECT__28
10
13.735000
20
-16.000000
30
30.187000
70
192
0
VERTEX
8
OBJECT__28
10
13.735000
20
-19.621000
30
26.886999
70
192
0
VERTEX
8
OBJECT__28
10
13.735000
20
-12.314000
30
32.470001
70
192
0
VERTEX
8
OBJECT__28
10
12.935000
20
-26.356001
30
12.200000
70
192
0
VERTEX
8
OBJECT__28
10
13.735000
20
-24.757000
30
18.591000
70
192
0
VERTEX
8
OBJECT__28
10
13.735000
20
-26.098000
30
13.879000
70
192
0
VERTEX
8
OBJECT__28
10
13.735000
20
-22.573000
30
22.976999
70
192
0
VERTEX
8
OBJECT__28
10
13.735000
20
-21.778999
30
24.028000
70
192
0
VERTEX
8
OBJECT__28
10
13.735000
20
-26.549999
30
9.000000
70
192
0
VERTEX
8
OBJECT__28
10
13.735000
20
-26.098000
30
4.121000
70
192
0
VERTEX
8
OBJECT__28
10
12.935000
20
-24.825001
30
-0.415000
70
192
0
VERTEX
8
OBJECT__28
10
13.735000
20
-26.254000
30
12.191000
70
192
0
VERTEX
8
OBJECT__28
10
12.935000
20
-17.606001
30
-10.873000
70
192
0
VERTEX
8
OBJECT__28
10
13.735000
20
-22.573000
30
-4.977000
70
192
0
VERTEX
8
OBJECT__28
10
13.735000
20
-19.621000
30
-8.887000
70
192
0
VERTEX
8
OBJECT__28
10
13.735000
20
-24.757000
30
-0.591000
70
192
0
VERTEX
8
OBJECT__28
10
13.735000
20
-24.809000
30
-0.410000
70
192
0
VERTEX
8
OBJECT__28
10
12.935000
20
-6.354000
30
-16.778999
70
192
0
VERTEX
8
OBJECT__28
10
13.735000
20
-11.834000
30
-14.767000
70
192
0
VERTEX
8
OBJECT__28
10
13.735000
20
-7.266000
30
-16.535999
70
192
0
VERTEX
8
OBJECT__28
10
13.735000
20
-16.000000
30
-12.187000
70
192
0
VERTEX
8
OBJECT__28
10
13.735000
20
-17.531000
30
-10.791000
70
192
0
VERTEX
8
OBJECT__28
10
12.935000
20
6.354000
30
-16.778999
70
192
0
VERTEX
8
OBJECT__28
10
13.735000
20
-2.450000
30
-17.437000
70
192
0
VERTEX
8
OBJECT__28
10
13.735000
20
2.450000
30
-17.437000
70
192
0
VERTEX
8
OBJECT__28
10
13.735000
20
-6.341000
30
-16.709000
70
192
0
VERTEX
8
OBJECT__28
10
12.935000
20
17.606001
30
-10.873000
70
192
0
VERTEX
8
OBJECT__28
10
13.735000
20
11.834000
30
-14.767000
70
192
0
VERTEX
8
OBJECT__28
10
13.735000
20
16.000000
30
-12.187000
70
192
0
VERTEX
8
OBJECT__28
10
13.735000
20
7.266000
30
-16.535999
70
192
0
VERTEX
8
OBJECT__28
10
13.735000
20
6.341000
30
-16.709000
70
192
0
VERTEX
8
OBJECT__28
10
12.935000
20
24.825001
30
-0.415000
70
192
0
VERTEX
8
OBJECT__28
10
13.735000
20
22.573000
30
-4.977000
70
192
0
VERTEX
8
OBJECT__28
10
13.735000
20
24.757000
30
-0.591000
70
192
0
VERTEX
8
OBJECT__28
10
13.735000
20
19.621000
30
-8.887000
70
192
0
VERTEX
8
OBJECT__28
10
13.735000
20
17.531000
30
-10.791000
70
192
0
VERTEX
8
OBJECT__28
10
12.935000
20
26.356001
30
12.200000
70
192
0
VERTEX
8
OBJECT__28
10
13.735000
20
26.098000
30
4.121000
70
192
0
VERTEX
8
OBJECT__28
10
13.735000
20
26.549999
30
9.000000
70
192
0
VERTEX
8
OBJECT__28
10
13.735000
20
24.809000
30
-0.410000
70
192
0
VERTEX
8
OBJECT__28
10
12.935000
20
21.850000
30
24.082001
70
192
0
VERTEX
8
OBJECT__28
10
13.735000
20
24.757000
30
18.591000
70
192
0
VERTEX
8
OBJECT__28
10
13.735000
20
22.573000
30
22.976999
70
192
0
VERTEX
8
OBJECT__28
10
13.735000
20
26.098000
30
13.879000
70
192
0
VERTEX
8
OBJECT__28
10
13.735000
20
26.254000
30
12.191000
70
192
0
VERTEX
8
OBJECT__28
10
13.735000
20
19.621000
30
26.886999
70
192
0
VERTEX
8
OBJECT__28
10
13.735000
20
16.000000
30
30.187000
70
192
0
VERTEX
8
OBJECT__28
10
12.935000
20
12.338000
30
32.508999
70
192
0
VERTEX
8
OBJECT__28
10
13.735000
20
21.778999
30
24.028000
70
192
0
VERTEX
8
OBJECT__28
10
13.735000
20
7.266000
30
34.535999
70
192
0
VERTEX
8
OBJECT__28
10
13.735000
20
11.834000
30
32.766998
70
192
0
VERTEX
8
OBJECT__28
10
13.735000
20
12.314000
30
32.470001
70
192
0
VERTEX
8
OBJECT__28
10
13.735000
20
2.450000
30
35.437000
70
192
0
VERTEX
8
OBJECT__28
10
0
20
0
30
0
70
128
71
1
72
2
73
3
0
VERTEX
8
OBJECT__28
10
0
20
0
30
0
70
128
71
4
72
5
73
2
0
VERTEX
8
OBJECT__28
10
0
20
0
30
0
70
128
71
2
72
1
73
4
0
VERTEX
8
OBJECT__28
10
0
20
0
30
0
70
128
71
4
72
6
73
5
0
VERTEX
8
OBJECT__28
10
0
20
0
30
0
70
128
71
7
72
1
73
8
0
VERTEX
8
OBJECT__28
10
0
20
0
30
0
70
128
71
8
72
9
73
7
0
VERTEX
8
OBJECT__28
10
0
20
0
30
0
70
128
71
1
72
10
73
8
0
VERTEX
8
OBJECT__28
10
0
20
0
30
0
70
128
71
11
72
7
73
12
0
VERTEX
8
OBJECT__28
10
0
20
0
30
0
70
128
71
12
72
13
73
11
0
VERTEX
8
OBJECT__28
10
0
20
0
30
0
70
128
71
7
72
14
73
12
0
VERTEX
8
OBJECT__28
10
0
20
0
30
0
70
128
71
7
72
15
73
14
0
VERTEX
8
OBJECT__28
10
0
20
0
30
0
70
128
71
11
72
16
73
17
0
VERTEX
8
OBJECT__28
10
0
20
0
30
0
70
128
71
17
72
18
73
11
0
VERTEX
8
OBJECT__28
10
0
20
0
30
0
70
128
71
11
72
19
73
16
0
VERTEX
8
OBJECT__28
10
0
20
0
30
0
70
128
71
20
72
18
73
21
0
VERTEX
8
OBJECT__28
10
0
20
0
30
0
70
128
71
21
72
22
73
20
0
VERTEX
8
OBJECT__28
10
0
20
0
30
0
70
128
71
18
72
23
73
21
0
VERTEX
8
OBJECT__28
10
0
20
0
30
0
70
128
71
18
72
24
73
23
0
VERTEX
8
OBJECT__28
10
0
20
0
30
0
70
128
71
25
72
26
73
27
0
VERTEX
8
OBJECT__28
10
0
20
0
30
0
70
128
71
20
72
28
73
26
0
VERTEX
8
OBJECT__28
10
0
20
0
30
0
70
128
71
26
72
25
73
20
0
VERTEX
8
OBJECT__28
10
0
20
0
30
0
70
128
71
20
72
29
73
28
0
VERTEX
8
OBJECT__28
10
0
20
0
30
0
70
128
71
30
72
25
73
31
0
VERTEX
8
OBJECT__28
10
0
20
0
30
0
70
128
71
31
72
32
73
30
0
VERTEX
8
OBJECT__28
10
0
20
0
30
0
70
128
71
25
72
33
73
31
0
VERTEX
8
OBJECT__28
10
0
20
0
30
0
70
128
71
34
72
30
73
35
0
VERTEX
8
OBJECT__28
10
0
20
0
30
0
70
128
71
35
72
36
73
34
0
VERTEX
8
OBJECT__28
10
0
20
0
30
0
70
128
71
30
72
37
73
35
0
VERTEX
8
OBJECT__28
10
0
20
0
30
0
70
128
71
30
72
38
73
37
0
VERTEX
8
OBJECT__28
10
0
20
0
30
0
70
128
71
39
72
40
73
41
0
VERTEX
8
OBJECT__28
10
0
20
0
30
0
70
128
71
34
72
42
73
40
0
VERTEX
8
OBJECT__28
10
0
20
0
30
0
70
128
71
40
72
39
73
34
0
VERTEX
8
OBJECT__28
10
0
20
0
30
0
70
128
71
34
72
43
73
42
0
VERTEX
8
OBJECT__28
10
0
20
0
30
0
70
128
71
44
72
39
73
45
0
VERTEX
8
OBJECT__28
10
0
20
0
30
0
70
128
71
45
72
46
73
44
0
VERTEX
8
OBJECT__28
10
0
20
0
30
0
70
128
71
39
72
47
73
45
0
VERTEX
8
OBJECT__28
10
0
20
0
30
0
70
128
71
48
72
49
73
50
0
VERTEX
8
OBJECT__28
10
0
20
0
30
0
70
128
71
44
72
51
73
49
0
VERTEX
8
OBJECT__28
10
0
20
0
30
0
70
128
71
49
72
48
73
44
0
VERTEX
8
OBJECT__28
10
0
20
0
30
0
70
128
71
44
72
52
73
51
0
VERTEX
8
OBJECT__28
10
0
20
0
30
0
70
128
71
48
72
53
73
54
0
VERTEX
8
OBJECT__28
10
0
20
0
30
0
70
128
71
54
72
55
73
48
0
VERTEX
8
OBJECT__28
10
0
20
0
30
0
70
128
71
48
72
56
73
53
0
VERTEX
8
OBJECT__28
10
0
20
0
30
0
70
128
71
4
72
55
73
57
0
VERTEX
8
OBJECT__28
10
0
20
0
30
0
70
128
71
55
72
58
73
57
0
VERTEX
8
OBJECT__28
10
0
20
0
30
0
70
128
71
55
72
59
73
58
0
VERTEX
8
OBJECT__28
10
0
20
0
30
0
70
128
71
57
72
60
73
4
0
VERTEX
8
OBJECT__28
10
0
20
0
30
0
70
128
71
60
72
6
73
4
0
VERTEX
8
OBJECT__28
10
0
20
0
30
0
70
128
71
54
72
59
73
55
0
VERTEX
8
OBJECT__28
10
0
20
0
30
0
70
128
71
50
72
56
73
48
0
VERTEX
8
OBJECT__28
10
0
20
0
30
0
70
128
71
46
72
52
73
44
0
VERTEX
8
OBJECT__28
10
0
20
0
30
0
70
128
71
41
72
47
73
39
0
VERTEX
8
OBJECT__28
10
0
20
0
30
0
70
128
71
36
72
43
73
34
0
VERTEX
8
OBJECT__28
10
0
20
0
30
0
70
128
71
32
72
38
73
30
0
VERTEX
8
OBJECT__28
10
0
20
0
30
0
70
128
71
27
72
33
73
25
0
VERTEX
8
OBJECT__28
10
0
20
0
30
0
70
128
71
22
72
29
73
20
0
VERTEX
8
OBJECT__28
10
0
20
0
30
0
70
128
71
17
72
24
73
18
0
VERTEX
8
OBJECT__28
10
0
20
0
30
0
70
128
71
13
72
19
73
11
0
VERTEX
8
OBJECT__28
10
0
20
0
30
0
70
128
71
9
72
15
73
7
0
VERTEX
8
OBJECT__28
10
0
20
0
30
0
70
128
71
3
72
10
73
1
0
SEQEND
8
OBJECT__28
0
POLYLINE
8
OBJECT__29
66
1
70
64
71
20
72
18
62
253
0
VERTEX
8
OBJECT__29
10
13.510000
20
-5.380000
30
67.158997
70
192
0
VERTEX
8
OBJECT__29
10
13.480000
20
0.007000
30
70.349998
70
192
0
VERTEX
8
OBJECT__29
10
13.485000
20
-2.422000
30
69.870003
70
192
0
VERTEX
8
OBJECT__29
10
13.577000
20
-4.718000
30
59.851002
70
192
0
VERTEX
8
OBJECT__29
10
13.592000
20
2.428000
30
58.132000
70
192
0
VERTEX
8
OBJECT__29
10
13.580000
20
4.487000
30
59.507000
70
192
0
VERTEX
8
OBJECT__29
10
13.510000
20
5.380000
30
67.158997
70
192
0
VERTEX
8
OBJECT__29
10
13.539000
20
-6.350000
30
64.005997
70
192
0
VERTEX
8
OBJECT__29
10
13.561000
20
-5.870000
30
61.577000
70
192
0
VERTEX
8
OBJECT__29
10
13.516000
20
-5.865000
30
66.434998
70
192
0
VERTEX
8
OBJECT__29
10
13.485000
20
2.435000
30
69.864998
70
192
0
VERTEX
8
OBJECT__29
10
13.498000
20
4.492000
30
68.487999
70
192
0
VERTEX
8
OBJECT__29
10
13.561000
20
5.865000
30
61.564999
70
192
0
VERTEX
8
OBJECT__29
10
13.539000
20
6.350000
30
63.995998
70
192
0
VERTEX
8
OBJECT__29
10
13.597000
20
0.000000
30
57.650002
70
192
0
VERTEX
8
OBJECT__29
10
13.580000
20
-4.491000
30
59.511002
70
192
0
VERTEX
8
OBJECT__29
10
13.592000
20
-2.420000
30
58.129002
70
192
0
VERTEX
8
OBJECT__29
10
13.577000
20
4.718000
30
59.852001
70
192
0
VERTEX
8
OBJECT__29
10
13.497000
20
-4.485000
30
68.495003
70
192
0
VERTEX
8
OBJECT__29
10
13.516000
20
5.868000
30
66.428001
70
192
0
VERTEX
8
OBJECT__29
10
0
20
0
30
0
70
128
71
1
72
2
73
3
0
VERTEX
8
OBJECT__29
10
0
20
0
30
0
70
128
71
4
72
5
73
6
0
VERTEX
8
OBJECT__29
10
0
20
0
30
0
70
128
71
7
72
8
73
9
0
VERTEX
8
OBJECT__29
10
0
20
0
30
0
70
128
71
7
72
1
73
10
0
VERTEX
8
OBJECT__29
10
0
20
0
30
0
70
128
71
1
72
11
73
2
0
VERTEX
8
OBJECT__29
10
0
20
0
30
0
70
128
71
1
72
7
73
12
0
VERTEX
8
OBJECT__29
10
0
20
0
30
0
70
128
71
4
72
13
73
14
0
VERTEX
8
OBJECT__29
10
0
20
0
30
0
70
128
71
4
72
15
73
5
0
VERTEX
8
OBJECT__29
10
0
20
0
30
0
70
128
71
4
72
16
73
17
0
VERTEX
8
OBJECT__29
10
0
20
0
30
0
70
128
71
10
72
8
73
7
0
VERTEX
8
OBJECT__29
10
0
20
0
30
0
70
128
71
12
72
11
73
1
0
VERTEX
8
OBJECT__29
10
0
20
0
30
0
70
128
71
4
72
18
73
13
0
VERTEX
8
OBJECT__29
10
0
20
0
30
0
70
128
71
17
72
15
73
4
0
VERTEX
8
OBJECT__29
10
0
20
0
30
0
70
128
71
3
72
19
73
1
0
VERTEX
8
OBJECT__29
10
0
20
0
30
0
70
128
71
6
72
18
73
4
0
VERTEX
8
OBJECT__29
10
0
20
0
30
0
70
128
71
4
72
20
73
7
0
VERTEX
8
OBJECT__29
10
0
20
0
30
0
70
128
71
9
72
4
73
7
0
VERTEX
8
OBJECT__29
10
0
20
0
30
0
70
128
71
14
72
20
73
4
0
SEQEND
8
OBJECT__29
0
ENDSEC
0
EOF
