999
Converted by 3D Exploration 
999
XDimension Software, LLC
999
http://www.xdsoft.com/explorer/
0
SECTION
2
HEADER
9
$ACADVER
1
AC1008
9
$UCSORG
10
0.0
20
0.0
30
0.0
9
$UCSXDIR
10
1.0
20
0.0
30
0.0
9
$TILEMODE
70
1
9
$UCSYDIR
10
0.0
20
1.0
30
0.0
9
$EXTMIN
10
-10.000000
20
-32.008999
30
-32.008999
9
$EXTMAX
10
162.000000
20
143.990997
30
33.000000
0
ENDSEC
0
SECTION
2
TABLES
0
TABLE
2
LTYPE
70
1
0
LTYPE
2
CONTINUOUS
70
64
3
Solid line
72
65
73
0
40
0.0
0
ENDTAB
0
TABLE
2
LAYER
70
57
0
LAYER
2
OBJECT__0
70
0
62
253
6
CONTINUOUS
0
LAYER
2
OBJECT__1
70
0
62
253
6
CONTINUOUS
0
LAYER
2
OBJECT__3
70
0
62
253
6
CONTINUOUS
0
LAYER
2
OBJECT__4
70
0
62
253
6
CONTINUOUS
0
LAYER
2
OBJECT__5
70
0
62
253
6
CONTINUOUS
0
LAYER
2
OBJECT__6
70
0
62
253
6
CONTINUOUS
0
LAYER
2
OBJECT__7
70
0
62
253
6
CONTINUOUS
0
LAYER
2
OBJECT__8
70
0
62
253
6
CONTINUOUS
0
LAYER
2
OBJECT__10
70
0
62
253
6
CONTINUOUS
0
LAYER
2
OBJECT__11
70
0
62
253
6
CONTINUOUS
0
LAYER
2
OBJECT__12
70
0
62
253
6
CONTINUOUS
0
LAYER
2
OBJECT__13
70
0
62
253
6
CONTINUOUS
0
LAYER
2
OBJECT__14
70
0
62
253
6
CONTINUOUS
0
LAYER
2
OBJECT__15
70
0
62
253
6
CONTINUOUS
0
LAYER
2
OBJECT__16
70
0
62
253
6
CONTINUOUS
0
LAYER
2
OBJECT__17
70
0
62
253
6
CONTINUOUS
0
LAYER
2
OBJECT__18
70
0
62
253
6
CONTINUOUS
0
LAYER
2
OBJECT__19
70
0
62
253
6
CONTINUOUS
0
LAYER
2
OBJECT__20
70
0
62
253
6
CONTINUOUS
0
LAYER
2
OBJECT__21
70
0
62
253
6
CONTINUOUS
0
LAYER
2
OBJECT__22
70
0
62
253
6
CONTINUOUS
0
LAYER
2
OBJECT__23
70
0
62
253
6
CONTINUOUS
0
LAYER
2
OBJECT__24
70
0
62
253
6
CONTINUOUS
0
LAYER
2
OBJECT__25
70
0
62
253
6
CONTINUOUS
0
LAYER
2
OBJECT__26
70
0
62
253
6
CONTINUOUS
0
LAYER
2
OBJECT__27
70
0
62
253
6
CONTINUOUS
0
LAYER
2
OBJECT__28
70
0
62
253
6
CONTINUOUS
0
LAYER
2
OBJECT__29
70
0
62
253
6
CONTINUOUS
0
LAYER
2
OBJECT__30
70
0
62
253
6
CONTINUOUS
0
LAYER
2
OBJECT__31
70
0
62
253
6
CONTINUOUS
0
LAYER
2
OBJECT__32
70
0
62
253
6
CONTINUOUS
0
LAYER
2
OBJECT__33
70
0
62
253
6
CONTINUOUS
0
LAYER
2
OBJECT__34
70
0
62
253
6
CONTINUOUS
0
LAYER
2
OBJECT__35
70
0
62
253
6
CONTINUOUS
0
LAYER
2
OBJECT__36
70
0
62
253
6
CONTINUOUS
0
LAYER
2
OBJECT__37
70
0
62
253
6
CONTINUOUS
0
LAYER
2
OBJECT__38
70
0
62
253
6
CONTINUOUS
0
LAYER
2
OBJECT__39
70
0
62
253
6
CONTINUOUS
0
LAYER
2
OBJECT__40
70
0
62
253
6
CONTINUOUS
0
LAYER
2
OBJECT__41
70
0
62
253
6
CONTINUOUS
0
LAYER
2
OBJECT__42
70
0
62
253
6
CONTINUOUS
0
LAYER
2
OBJECT__43
70
0
62
253
6
CONTINUOUS
0
LAYER
2
OBJECT__44
70
0
62
253
6
CONTINUOUS
0
LAYER
2
OBJECT__45
70
0
62
253
6
CONTINUOUS
0
LAYER
2
OBJECT__46
70
0
62
253
6
CONTINUOUS
0
LAYER
2
OBJECT__47
70
0
62
253
6
CONTINUOUS
0
LAYER
2
OBJECT__48
70
0
62
253
6
CONTINUOUS
0
LAYER
2
OBJECT__50
70
0
62
253
6
CONTINUOUS
0
LAYER
2
OBJECT__51
70
0
62
253
6
CONTINUOUS
0
LAYER
2
OBJECT__53
70
0
62
253
6
CONTINUOUS
0
LAYER
2
OBJECT__54
70
0
62
253
6
CONTINUOUS
0
LAYER
2
OBJECT__55
70
0
62
253
6
CONTINUOUS
0
LAYER
2
OBJECT__56
70
0
62
253
6
CONTINUOUS
0
ENDTAB
0
TABLE
2
STYLE
70
1
0
STYLE
2
STANDARD
70
0
40
0.0
41
1.0
50
0.0
71
0
42
0.2
3
txt
4
1
0
ENDTAB
0
TABLE
2
UCS
70
0
0
ENDTAB
0
ENDSEC
0
SECTION
2
ENTITIES
0
POLYLINE
8
OBJECT__0
66
1
70
64
71
4
72
2
62
253
0
VERTEX
8
OBJECT__0
10
154.000000
20
-15.500000
30
11.000000
70
192
0
VERTEX
8
OBJECT__0
10
0.000000
20
-15.500000
30
11.000000
70
192
0
VERTEX
8
OBJECT__0
10
0.000000
20
-15.500000
30
-11.000000
70
192
0
VERTEX
8
OBJECT__0
10
154.000000
20
-15.500000
30
-11.000000
70
192
0
VERTEX
8
OBJECT__0
10
0
20
0
30
0
70
128
71
1
72
2
73
3
0
VERTEX
8
OBJECT__0
10
0
20
0
30
0
70
128
71
3
72
4
73
1
0
SEQEND
8
OBJECT__0
0
POLYLINE
8
OBJECT__1
66
1
70
64
71
6
72
4
62
253
0
VERTEX
8
OBJECT__1
10
159.656998
20
-13.157000
30
11.000000
70
192
0
VERTEX
8
OBJECT__1
10
159.656998
20
-13.157000
30
-11.000000
70
192
0
VERTEX
8
OBJECT__1
10
162.000000
20
-7.500000
30
-11.000000
70
192
0
VERTEX
8
OBJECT__1
10
154.000000
20
-15.500000
30
11.000000
70
192
0
VERTEX
8
OBJECT__1
10
154.000000
20
-15.500000
30
-11.000000
70
192
0
VERTEX
8
OBJECT__1
10
162.000000
20
-7.500000
30
11.000000
70
192
0
VERTEX
8
OBJECT__1
10
0
20
0
30
0
70
128
71
1
72
2
73
3
0
VERTEX
8
OBJECT__1
10
0
20
0
30
0
70
128
71
4
72
5
73
2
0
VERTEX
8
OBJECT__1
10
0
20
0
30
0
70
128
71
2
72
1
73
4
0
VERTEX
8
OBJECT__1
10
0
20
0
30
0
70
128
71
3
72
6
73
1
0
SEQEND
8
OBJECT__1
0
POLYLINE
8
OBJECT__3
66
1
70
64
71
4
72
2
62
253
0
VERTEX
8
OBJECT__3
10
162.000000
20
7.500000
30
11.000000
70
192
0
VERTEX
8
OBJECT__3
10
162.000000
20
-7.500000
30
11.000000
70
192
0
VERTEX
8
OBJECT__3
10
162.000000
20
-7.500000
30
-11.000000
70
192
0
VERTEX
8
OBJECT__3
10
162.000000
20
7.500000
30
-11.000000
70
192
0
VERTEX
8
OBJECT__3
10
0
20
0
30
0
70
128
71
1
72
2
73
3
0
VERTEX
8
OBJECT__3
10
0
20
0
30
0
70
128
71
3
72
4
73
1
0
SEQEND
8
OBJECT__3
0
POLYLINE
8
OBJECT__4
66
1
70
64
71
8
72
6
62
253
0
VERTEX
8
OBJECT__4
10
154.000000
20
15.500000
30
11.000000
70
192
0
VERTEX
8
OBJECT__4
10
154.000000
20
-15.500000
30
11.000000
70
192
0
VERTEX
8
OBJECT__4
10
162.000000
20
-7.500000
30
11.000000
70
192
0
VERTEX
8
OBJECT__4
10
162.000000
20
7.500000
30
11.000000
70
192
0
VERTEX
8
OBJECT__4
10
0.000000
20
-15.500000
30
11.000000
70
192
0
VERTEX
8
OBJECT__4
10
159.656998
20
-13.157000
30
11.000000
70
192
0
VERTEX
8
OBJECT__4
10
159.656998
20
13.157000
30
11.000000
70
192
0
VERTEX
8
OBJECT__4
10
0.000000
20
15.500000
30
11.000000
70
192
0
VERTEX
8
OBJECT__4
10
0
20
0
30
0
70
128
71
1
72
2
73
3
0
VERTEX
8
OBJECT__4
10
0
20
0
30
0
70
128
71
3
72
4
73
1
0
VERTEX
8
OBJECT__4
10
0
20
0
30
0
70
128
71
5
72
2
73
1
0
VERTEX
8
OBJECT__4
10
0
20
0
30
0
70
128
71
2
72
6
73
3
0
VERTEX
8
OBJECT__4
10
0
20
0
30
0
70
128
71
4
72
7
73
1
0
VERTEX
8
OBJECT__4
10
0
20
0
30
0
70
128
71
1
72
8
73
5
0
SEQEND
8
OBJECT__4
0
POLYLINE
8
OBJECT__5
66
1
70
64
71
6
72
4
62
253
0
VERTEX
8
OBJECT__5
10
159.656998
20
13.157000
30
-11.000000
70
192
0
VERTEX
8
OBJECT__5
10
159.656998
20
13.157000
30
11.000000
70
192
0
VERTEX
8
OBJECT__5
10
162.000000
20
7.500000
30
11.000000
70
192
0
VERTEX
8
OBJECT__5
10
154.000000
20
15.500000
30
-11.000000
70
192
0
VERTEX
8
OBJECT__5
10
154.000000
20
15.500000
30
11.000000
70
192
0
VERTEX
8
OBJECT__5
10
162.000000
20
7.500000
30
-11.000000
70
192
0
VERTEX
8
OBJECT__5
10
0
20
0
30
0
70
128
71
1
72
2
73
3
0
VERTEX
8
OBJECT__5
10
0
20
0
30
0
70
128
71
4
72
5
73
2
0
VERTEX
8
OBJECT__5
10
0
20
0
30
0
70
128
71
2
72
1
73
4
0
VERTEX
8
OBJECT__5
10
0
20
0
30
0
70
128
71
3
72
6
73
1
0
SEQEND
8
OBJECT__5
0
POLYLINE
8
OBJECT__6
66
1
70
64
71
4
72
2
62
253
0
VERTEX
8
OBJECT__6
10
0.000000
20
15.500000
30
11.000000
70
192
0
VERTEX
8
OBJECT__6
10
154.000000
20
15.500000
30
11.000000
70
192
0
VERTEX
8
OBJECT__6
10
154.000000
20
15.500000
30
-11.000000
70
192
0
VERTEX
8
OBJECT__6
10
0.000000
20
15.500000
30
-11.000000
70
192
0
VERTEX
8
OBJECT__6
10
0
20
0
30
0
70
128
71
1
72
2
73
3
0
VERTEX
8
OBJECT__6
10
0
20
0
30
0
70
128
71
3
72
4
73
1
0
SEQEND
8
OBJECT__6
0
POLYLINE
8
OBJECT__7
66
1
70
64
71
10
72
8
62
253
0
VERTEX
8
OBJECT__7
10
2.032000
20
131.358994
30
-1.246000
70
192
0
VERTEX
8
OBJECT__7
10
1.571000
20
120.375000
30
-18.846001
70
192
0
VERTEX
8
OBJECT__7
10
1.509000
20
113.594002
30
-21.226000
70
192
0
VERTEX
8
OBJECT__7
10
1.849000
20
129.789993
30
-8.258000
70
192
0
VERTEX
8
OBJECT__7
10
1.689000
20
125.985001
30
-14.354000
70
192
0
VERTEX
8
OBJECT__7
10
1.509000
20
106.405998
30
-21.226000
70
192
0
VERTEX
8
OBJECT__7
10
1.571000
20
99.625000
30
-18.846001
70
192
0
VERTEX
8
OBJECT__7
10
1.689000
20
94.014999
30
-14.354000
70
192
0
VERTEX
8
OBJECT__7
10
1.849000
20
90.209999
30
-8.258000
70
192
0
VERTEX
8
OBJECT__7
10
2.032000
20
88.640999
30
-1.246000
70
192
0
VERTEX
8
OBJECT__7
10
0
20
0
30
0
70
128
71
1
72
2
73
3
0
VERTEX
8
OBJECT__7
10
0
20
0
30
0
70
128
71
1
72
4
73
5
0
VERTEX
8
OBJECT__7
10
0
20
0
30
0
70
128
71
1
72
6
73
7
0
VERTEX
8
OBJECT__7
10
0
20
0
30
0
70
128
71
5
72
2
73
1
0
VERTEX
8
OBJECT__7
10
0
20
0
30
0
70
128
71
3
72
6
73
1
0
VERTEX
8
OBJECT__7
10
0
20
0
30
0
70
128
71
7
72
8
73
1
0
VERTEX
8
OBJECT__7
10
0
20
0
30
0
70
128
71
8
72
9
73
1
0
VERTEX
8
OBJECT__7
10
0
20
0
30
0
70
128
71
9
72
10
73
1
0
SEQEND
8
OBJECT__7
0
POLYLINE
8
OBJECT__8
66
1
70
64
71
25
72
23
62
253
0
VERTEX
8
OBJECT__8
10
2.348000
20
131.378006
30
-0.769000
70
192
0
VERTEX
8
OBJECT__8
10
12.908000
20
94.041000
30
15.185000
70
192
0
VERTEX
8
OBJECT__8
10
15.709000
20
100.302002
30
19.417000
70
192
0
VERTEX
8
OBJECT__8
10
17.027000
20
107.623001
30
21.408001
70
192
0
VERTEX
8
OBJECT__8
10
2.349000
20
131.554993
30
-0.768000
70
192
0
VERTEX
8
OBJECT__8
10
12.427000
20
93.496002
30
14.459000
70
192
0
VERTEX
8
OBJECT__8
10
7.298000
20
131.542999
30
6.710000
70
192
0
VERTEX
8
OBJECT__8
10
7.216000
20
131.613998
30
6.586000
70
192
0
VERTEX
8
OBJECT__8
10
12.363000
20
126.452003
30
14.362000
70
192
0
VERTEX
8
OBJECT__8
10
11.529000
20
127.891998
30
13.103000
70
192
0
VERTEX
8
OBJECT__8
10
15.839000
20
101.024002
30
19.613001
70
192
0
VERTEX
8
OBJECT__8
10
2.314000
20
88.623001
30
-0.820000
70
192
0
VERTEX
8
OBJECT__8
10
8.930000
20
89.525002
30
9.175000
70
192
0
VERTEX
8
OBJECT__8
10
15.720000
20
118.884003
30
19.434000
70
192
0
VERTEX
8
OBJECT__8
10
14.816000
20
122.216003
30
18.069000
70
192
0
VERTEX
8
OBJECT__8
10
2.032000
20
88.640999
30
-1.246000
70
192
0
VERTEX
8
OBJECT__8
10
2.349000
20
132.972000
30
-0.768000
70
192
0
VERTEX
8
OBJECT__8
10
2.349000
20
132.242004
30
-0.768000
70
192
0
VERTEX
8
OBJECT__8
10
16.931000
20
109.982002
30
21.263000
70
192
0
VERTEX
8
OBJECT__8
10
16.718000
20
115.204002
30
20.941999
70
192
0
VERTEX
8
OBJECT__8
10
2.032000
20
87.026001
30
-1.246000
70
192
0
VERTEX
8
OBJECT__8
10
4.211000
20
87.246002
30
2.045000
70
192
0
VERTEX
8
OBJECT__8
10
2.032000
20
131.358994
30
-1.246000
70
192
0
VERTEX
8
OBJECT__8
10
2.032000
20
88.453003
30
-1.248000
70
192
0
VERTEX
8
OBJECT__8
10
7.247000
20
88.711998
30
6.632000
70
192
0
VERTEX
8
OBJECT__8
10
0
20
0
30
0
70
128
71
1
72
2
73
3
0
VERTEX
8
OBJECT__8
10
0
20
0
30
0
70
128
71
4
72
5
73
1
0
VERTEX
8
OBJECT__8
10
0
20
0
30
0
70
128
71
1
72
6
73
2
0
VERTEX
8
OBJECT__8
10
0
20
0
30
0
70
128
71
5
72
7
73
8
0
VERTEX
8
OBJECT__8
10
0
20
0
30
0
70
128
71
5
72
9
73
10
0
VERTEX
8
OBJECT__8
10
0
20
0
30
0
70
128
71
3
72
11
73
1
0
VERTEX
8
OBJECT__8
10
0
20
0
30
0
70
128
71
1
72
12
73
13
0
VERTEX
8
OBJECT__8
10
0
20
0
30
0
70
128
71
10
72
7
73
5
0
VERTEX
8
OBJECT__8
10
0
20
0
30
0
70
128
71
5
72
14
73
15
0
VERTEX
8
OBJECT__8
10
0
20
0
30
0
70
128
71
13
72
6
73
1
0
VERTEX
8
OBJECT__8
10
0
20
0
30
0
70
128
71
15
72
9
73
5
0
VERTEX
8
OBJECT__8
10
0
20
0
30
0
70
128
71
1
72
11
73
4
0
VERTEX
8
OBJECT__8
10
0
20
0
30
0
70
128
71
1
72
16
73
12
0
VERTEX
8
OBJECT__8
10
0
20
0
30
0
70
128
71
8
72
17
73
18
0
VERTEX
8
OBJECT__8
10
0
20
0
30
0
70
128
71
5
72
19
73
20
0
VERTEX
8
OBJECT__8
10
0
20
0
30
0
70
128
71
21
72
22
73
12
0
VERTEX
8
OBJECT__8
10
0
20
0
30
0
70
128
71
1
72
23
73
16
0
VERTEX
8
OBJECT__8
10
0
20
0
30
0
70
128
71
20
72
14
73
5
0
VERTEX
8
OBJECT__8
10
0
20
0
30
0
70
128
71
12
72
24
73
21
0
VERTEX
8
OBJECT__8
10
0
20
0
30
0
70
128
71
5
72
4
73
19
0
VERTEX
8
OBJECT__8
10
0
20
0
30
0
70
128
71
22
72
25
73
12
0
VERTEX
8
OBJECT__8
10
0
20
0
30
0
70
128
71
8
72
18
73
5
0
VERTEX
8
OBJECT__8
10
0
20
0
30
0
70
128
71
25
72
13
73
12
0
SEQEND
8
OBJECT__8
0
POLYLINE
8
OBJECT__10
66
1
70
64
71
11
72
9
62
253
0
VERTEX
8
OBJECT__10
10
2.017000
20
132.242004
30
-1.819000
70
192
0
VERTEX
8
OBJECT__10
10
2.349000
20
132.242004
30
-0.768000
70
192
0
VERTEX
8
OBJECT__10
10
2.109000
20
132.968002
30
-1.271000
70
192
0
VERTEX
8
OBJECT__10
10
2.349000
20
132.972000
30
-0.768000
70
192
0
VERTEX
8
OBJECT__10
10
2.115000
20
131.546997
30
-1.252000
70
192
0
VERTEX
8
OBJECT__10
10
2.348000
20
131.554993
30
-0.769000
70
192
0
VERTEX
8
OBJECT__10
10
2.017000
20
131.509995
30
-1.819000
70
192
0
VERTEX
8
OBJECT__10
10
2.080000
20
131.535995
30
-1.373000
70
192
0
VERTEX
8
OBJECT__10
10
2.115000
20
131.539993
30
-1.253000
70
192
0
VERTEX
8
OBJECT__10
10
2.121000
20
131.539993
30
-1.234000
70
192
0
VERTEX
8
OBJECT__10
10
2.017000
20
132.938995
30
-1.819000
70
192
0
VERTEX
8
OBJECT__10
10
0
20
0
30
0
70
128
71
1
72
2
73
3
0
VERTEX
8
OBJECT__10
10
0
20
0
30
0
70
128
71
2
72
4
73
3
0
VERTEX
8
OBJECT__10
10
0
20
0
30
0
70
128
71
2
72
1
73
5
0
VERTEX
8
OBJECT__10
10
0
20
0
30
0
70
128
71
5
72
6
73
2
0
VERTEX
8
OBJECT__10
10
0
20
0
30
0
70
128
71
1
72
7
73
5
0
VERTEX
8
OBJECT__10
10
0
20
0
30
0
70
128
71
5
72
8
73
9
0
VERTEX
8
OBJECT__10
10
0
20
0
30
0
70
128
71
5
72
7
73
8
0
VERTEX
8
OBJECT__10
10
0
20
0
30
0
70
128
71
9
72
10
73
5
0
VERTEX
8
OBJECT__10
10
0
20
0
30
0
70
128
71
3
72
11
73
1
0
SEQEND
8
OBJECT__10
0
POLYLINE
8
OBJECT__11
66
1
70
64
71
21
72
19
62
253
0
VERTEX
8
OBJECT__11
10
2.017000
20
132.242004
30
-1.819000
70
192
0
VERTEX
8
OBJECT__11
10
2.017000
20
132.938995
30
-1.819000
70
192
0
VERTEX
8
OBJECT__11
10
1.998000
20
132.873993
30
-2.554000
70
192
0
VERTEX
8
OBJECT__11
10
1.760000
20
129.919006
30
-11.646000
70
192
0
VERTEX
8
OBJECT__11
10
1.835000
20
129.766998
30
-8.792000
70
192
0
VERTEX
8
OBJECT__11
10
1.472000
20
105.218002
30
-22.639999
70
192
0
VERTEX
8
OBJECT__11
10
1.574000
20
96.481003
30
-18.750999
70
192
0
VERTEX
8
OBJECT__11
10
1.570000
20
99.364998
30
-18.915001
70
192
0
VERTEX
8
OBJECT__11
10
1.760000
20
90.081001
30
-11.646000
70
192
0
VERTEX
8
OBJECT__11
10
1.688000
20
93.787003
30
-14.380000
70
192
0
VERTEX
8
OBJECT__11
10
2.017000
20
131.509995
30
-1.819000
70
192
0
VERTEX
8
OBJECT__11
10
1.574000
20
123.518997
30
-18.750999
70
192
0
VERTEX
8
OBJECT__11
10
1.677000
20
125.829002
30
-14.805000
70
192
0
VERTEX
8
OBJECT__11
10
1.472000
20
114.781998
30
-22.639999
70
192
0
VERTEX
8
OBJECT__11
10
1.503000
20
113.311996
30
-21.462000
70
192
0
VERTEX
8
OBJECT__11
10
1.562000
20
120.133003
30
-19.191000
70
192
0
VERTEX
8
OBJECT__11
10
1.505000
20
106.123001
30
-21.367001
70
192
0
VERTEX
8
OBJECT__11
10
1.849000
20
90.010002
30
-8.265000
70
192
0
VERTEX
8
OBJECT__11
10
2.032000
20
88.453003
30
-1.248000
70
192
0
VERTEX
8
OBJECT__11
10
1.998000
20
87.125999
30
-2.554000
70
192
0
VERTEX
8
OBJECT__11
10
2.032000
20
87.026001
30
-1.246000
70
192
0
VERTEX
8
OBJECT__11
10
0
20
0
30
0
70
128
71
1
72
2
73
3
0
VERTEX
8
OBJECT__11
10
0
20
0
30
0
70
128
71
1
72
4
73
5
0
VERTEX
8
OBJECT__11
10
0
20
0
30
0
70
128
71
6
72
7
73
8
0
VERTEX
8
OBJECT__11
10
0
20
0
30
0
70
128
71
7
72
9
73
10
0
VERTEX
8
OBJECT__11
10
0
20
0
30
0
70
128
71
5
72
11
73
1
0
VERTEX
8
OBJECT__11
10
0
20
0
30
0
70
128
71
4
72
12
73
13
0
VERTEX
8
OBJECT__11
10
0
20
0
30
0
70
128
71
14
72
15
73
16
0
VERTEX
8
OBJECT__11
10
0
20
0
30
0
70
128
71
6
72
17
73
15
0
VERTEX
8
OBJECT__11
10
0
20
0
30
0
70
128
71
10
72
8
73
7
0
VERTEX
8
OBJECT__11
10
0
20
0
30
0
70
128
71
13
72
5
73
4
0
VERTEX
8
OBJECT__11
10
0
20
0
30
0
70
128
71
15
72
14
73
6
0
VERTEX
8
OBJECT__11
10
0
20
0
30
0
70
128
71
9
72
18
73
10
0
VERTEX
8
OBJECT__11
10
0
20
0
30
0
70
128
71
12
72
16
73
13
0
VERTEX
8
OBJECT__11
10
0
20
0
30
0
70
128
71
8
72
17
73
6
0
VERTEX
8
OBJECT__11
10
0
20
0
30
0
70
128
71
19
72
18
73
20
0
VERTEX
8
OBJECT__11
10
0
20
0
30
0
70
128
71
16
72
12
73
14
0
VERTEX
8
OBJECT__11
10
0
20
0
30
0
70
128
71
20
72
21
73
19
0
VERTEX
8
OBJECT__11
10
0
20
0
30
0
70
128
71
18
72
9
73
20
0
VERTEX
8
OBJECT__11
10
0
20
0
30
0
70
128
71
3
72
4
73
1
0
SEQEND
8
OBJECT__11
0
POLYLINE
8
OBJECT__12
66
1
70
64
71
63
72
63
62
253
0
VERTEX
8
OBJECT__12
10
1.760000
20
129.919006
30
-11.646000
70
192
0
VERTEX
8
OBJECT__12
10
1.998000
20
132.873993
30
-2.554000
70
192
0
VERTEX
8
OBJECT__12
10
26.947001
20
131.001007
30
-4.848000
70
192
0
VERTEX
8
OBJECT__12
10
31.066000
20
131.001007
30
-3.119000
70
192
0
VERTEX
8
OBJECT__12
10
29.205000
20
131.001007
30
-4.057000
70
192
0
VERTEX
8
OBJECT__12
10
27.653000
20
131.001007
30
-4.620000
70
192
0
VERTEX
8
OBJECT__12
10
26.773001
20
128.522003
30
-11.495000
70
192
0
VERTEX
8
OBJECT__12
10
26.600000
20
122.570999
30
-18.101000
70
192
0
VERTEX
8
OBJECT__12
10
1.472000
20
114.781998
30
-22.639999
70
192
0
VERTEX
8
OBJECT__12
10
1.574000
20
123.518997
30
-18.750999
70
192
0
VERTEX
8
OBJECT__12
10
1.472000
20
105.218002
30
-22.639999
70
192
0
VERTEX
8
OBJECT__12
10
26.504999
20
114.446999
30
-21.716999
70
192
0
VERTEX
8
OBJECT__12
10
26.504999
20
105.553001
30
-21.716999
70
192
0
VERTEX
8
OBJECT__12
10
26.600000
20
97.429001
30
-18.101000
70
192
0
VERTEX
8
OBJECT__12
10
1.760000
20
90.081001
30
-11.646000
70
192
0
VERTEX
8
OBJECT__12
10
1.574000
20
96.481003
30
-18.750999
70
192
0
VERTEX
8
OBJECT__12
10
1.998000
20
87.125999
30
-2.554000
70
192
0
VERTEX
8
OBJECT__12
10
27.652000
20
89.000999
30
-4.633000
70
192
0
VERTEX
8
OBJECT__12
10
29.853001
20
89.000999
30
-3.803000
70
192
0
VERTEX
8
OBJECT__12
10
26.945999
20
89.000999
30
-4.860000
70
192
0
VERTEX
8
OBJECT__12
10
26.773001
20
91.477997
30
-11.495000
70
192
0
VERTEX
8
OBJECT__12
10
32.719002
20
127.024002
30
11.420000
70
192
0
VERTEX
8
OBJECT__12
10
11.529000
20
127.891998
30
13.103000
70
192
0
VERTEX
8
OBJECT__12
10
12.363000
20
126.452003
30
14.362000
70
192
0
VERTEX
8
OBJECT__12
10
32.759998
20
125.474998
30
12.968000
70
192
0
VERTEX
8
OBJECT__12
10
32.566002
20
130.011993
30
5.556000
70
192
0
VERTEX
8
OBJECT__12
10
7.298000
20
131.542999
30
6.710000
70
192
0
VERTEX
8
OBJECT__12
10
32.841000
20
122.367996
30
16.073000
70
192
0
VERTEX
8
OBJECT__12
10
14.816000
20
122.216003
30
18.069000
70
192
0
VERTEX
8
OBJECT__12
10
15.720000
20
118.884003
30
19.434000
70
192
0
VERTEX
8
OBJECT__12
10
32.894001
20
118.454002
30
18.066999
70
192
0
VERTEX
8
OBJECT__12
10
32.946999
20
110.000000
30
20.091000
70
192
0
VERTEX
8
OBJECT__12
10
32.919998
20
116.501999
30
19.061001
70
192
0
VERTEX
8
OBJECT__12
10
16.718000
20
115.204002
30
20.941999
70
192
0
VERTEX
8
OBJECT__12
10
15.839000
20
101.024002
30
19.613001
70
192
0
VERTEX
8
OBJECT__12
10
32.894001
20
101.545998
30
18.066999
70
192
0
VERTEX
8
OBJECT__12
10
32.919998
20
103.498001
30
19.061001
70
192
0
VERTEX
8
OBJECT__12
10
16.931000
20
109.982002
30
21.263000
70
192
0
VERTEX
8
OBJECT__12
10
17.027000
20
107.623001
30
21.408001
70
192
0
VERTEX
8
OBJECT__12
10
12.908000
20
94.041000
30
15.185000
70
192
0
VERTEX
8
OBJECT__12
10
32.759998
20
94.525002
30
12.968000
70
192
0
VERTEX
8
OBJECT__12
10
32.841000
20
97.632004
30
16.073000
70
192
0
VERTEX
8
OBJECT__12
10
15.709000
20
100.302002
30
19.417000
70
192
0
VERTEX
8
OBJECT__12
10
32.566002
20
89.987999
30
5.556000
70
192
0
VERTEX
8
OBJECT__12
10
32.719002
20
92.975998
30
11.420000
70
192
0
VERTEX
8
OBJECT__12
10
12.427000
20
93.496002
30
14.459000
70
192
0
VERTEX
8
OBJECT__12
10
8.930000
20
89.525002
30
9.175000
70
192
0
VERTEX
8
OBJECT__12
10
32.396000
20
88.958000
30
-0.945000
70
192
0
VERTEX
8
OBJECT__12
10
7.247000
20
88.711998
30
6.632000
70
192
0
VERTEX
8
OBJECT__12
10
4.211000
20
87.246002
30
2.045000
70
192
0
VERTEX
8
OBJECT__12
10
2.032000
20
87.026001
30
-1.246000
70
192
0
VERTEX
8
OBJECT__12
10
32.362000
20
88.999001
30
-2.259000
70
192
0
VERTEX
8
OBJECT__12
10
31.773001
20
89.000999
30
-2.769000
70
192
0
VERTEX
8
OBJECT__12
10
31.121000
20
89.000999
30
-3.120000
70
192
0
VERTEX
8
OBJECT__12
10
32.375000
20
89.000999
30
-2.280000
70
192
0
VERTEX
8
OBJECT__12
10
32.362999
20
131.003998
30
-2.220000
70
192
0
VERTEX
8
OBJECT__12
10
32.376999
20
131.001007
30
-2.243000
70
192
0
VERTEX
8
OBJECT__12
10
31.671000
20
131.001007
30
-2.814000
70
192
0
VERTEX
8
OBJECT__12
10
2.109000
20
132.968002
30
-1.271000
70
192
0
VERTEX
8
OBJECT__12
10
2.349000
20
132.972000
30
-0.768000
70
192
0
VERTEX
8
OBJECT__12
10
2.017000
20
132.938995
30
-1.819000
70
192
0
VERTEX
8
OBJECT__12
10
32.396000
20
131.042007
30
-0.945000
70
192
0
VERTEX
8
OBJECT__12
10
7.216000
20
131.613998
30
6.586000
70
192
0
VERTEX
8
OBJECT__12
10
0
20
0
30
0
70
128
71
1
72
2
73
3
0
VERTEX
8
OBJECT__12
10
0
20
0
30
0
70
128
71
2
72
4
73
5
0
VERTEX
8
OBJECT__12
10
0
20
0
30
0
70
128
71
5
72
6
73
2
0
VERTEX
8
OBJECT__12
10
0
20
0
30
0
70
128
71
6
72
3
73
2
0
VERTEX
8
OBJECT__12
10
0
20
0
30
0
70
128
71
1
72
7
73
8
0
VERTEX
8
OBJECT__12
10
0
20
0
30
0
70
128
71
9
72
10
73
8
0
VERTEX
8
OBJECT__12
10
0
20
0
30
0
70
128
71
11
72
9
73
12
0
VERTEX
8
OBJECT__12
10
0
20
0
30
0
70
128
71
11
72
13
73
14
0
VERTEX
8
OBJECT__12
10
0
20
0
30
0
70
128
71
15
72
16
73
14
0
VERTEX
8
OBJECT__12
10
0
20
0
30
0
70
128
71
17
72
18
73
19
0
VERTEX
8
OBJECT__12
10
0
20
0
30
0
70
128
71
17
72
20
73
18
0
VERTEX
8
OBJECT__12
10
0
20
0
30
0
70
128
71
15
72
21
73
20
0
VERTEX
8
OBJECT__12
10
0
20
0
30
0
70
128
71
20
72
17
73
15
0
VERTEX
8
OBJECT__12
10
0
20
0
30
0
70
128
71
22
72
23
73
24
0
VERTEX
8
OBJECT__12
10
0
20
0
30
0
70
128
71
24
72
25
73
22
0
VERTEX
8
OBJECT__12
10
0
20
0
30
0
70
128
71
26
72
27
73
23
0
VERTEX
8
OBJECT__12
10
0
20
0
30
0
70
128
71
28
72
29
73
30
0
VERTEX
8
OBJECT__12
10
0
20
0
30
0
70
128
71
30
72
31
73
28
0
VERTEX
8
OBJECT__12
10
0
20
0
30
0
70
128
71
25
72
24
73
29
0
VERTEX
8
OBJECT__12
10
0
20
0
30
0
70
128
71
32
72
33
73
34
0
VERTEX
8
OBJECT__12
10
0
20
0
30
0
70
128
71
31
72
30
73
34
0
VERTEX
8
OBJECT__12
10
0
20
0
30
0
70
128
71
34
72
33
73
31
0
VERTEX
8
OBJECT__12
10
0
20
0
30
0
70
128
71
35
72
36
73
37
0
VERTEX
8
OBJECT__12
10
0
20
0
30
0
70
128
71
32
72
38
73
39
0
VERTEX
8
OBJECT__12
10
0
20
0
30
0
70
128
71
39
72
37
73
32
0
VERTEX
8
OBJECT__12
10
0
20
0
30
0
70
128
71
40
72
41
73
42
0
VERTEX
8
OBJECT__12
10
0
20
0
30
0
70
128
71
42
72
43
73
40
0
VERTEX
8
OBJECT__12
10
0
20
0
30
0
70
128
71
42
72
36
73
35
0
VERTEX
8
OBJECT__12
10
0
20
0
30
0
70
128
71
35
72
43
73
42
0
VERTEX
8
OBJECT__12
10
0
20
0
30
0
70
128
71
44
72
45
73
46
0
VERTEX
8
OBJECT__12
10
0
20
0
30
0
70
128
71
46
72
47
73
44
0
VERTEX
8
OBJECT__12
10
0
20
0
30
0
70
128
71
45
72
41
73
46
0
VERTEX
8
OBJECT__12
10
0
20
0
30
0
70
128
71
48
72
44
73
49
0
VERTEX
8
OBJECT__12
10
0
20
0
30
0
70
128
71
49
72
50
73
48
0
VERTEX
8
OBJECT__12
10
0
20
0
30
0
70
128
71
51
72
17
73
52
0
VERTEX
8
OBJECT__12
10
0
20
0
30
0
70
128
71
52
72
48
73
51
0
VERTEX
8
OBJECT__12
10
0
20
0
30
0
70
128
71
52
72
17
73
53
0
VERTEX
8
OBJECT__12
10
0
20
0
30
0
70
128
71
17
72
54
73
53
0
VERTEX
8
OBJECT__12
10
0
20
0
30
0
70
128
71
53
72
55
73
52
0
VERTEX
8
OBJECT__12
10
0
20
0
30
0
70
128
71
56
72
57
73
58
0
VERTEX
8
OBJECT__12
10
0
20
0
30
0
70
128
71
58
72
2
73
56
0
VERTEX
8
OBJECT__12
10
0
20
0
30
0
70
128
71
56
72
59
73
60
0
VERTEX
8
OBJECT__12
10
0
20
0
30
0
70
128
71
56
72
61
73
59
0
VERTEX
8
OBJECT__12
10
0
20
0
30
0
70
128
71
56
72
2
73
61
0
VERTEX
8
OBJECT__12
10
0
20
0
30
0
70
128
71
62
72
63
73
27
0
VERTEX
8
OBJECT__12
10
0
20
0
30
0
70
128
71
62
72
60
73
63
0
VERTEX
8
OBJECT__12
10
0
20
0
30
0
70
128
71
27
72
26
73
62
0
VERTEX
8
OBJECT__12
10
0
20
0
30
0
70
128
71
60
72
62
73
56
0
VERTEX
8
OBJECT__12
10
0
20
0
30
0
70
128
71
58
72
4
73
2
0
VERTEX
8
OBJECT__12
10
0
20
0
30
0
70
128
71
50
72
51
73
48
0
VERTEX
8
OBJECT__12
10
0
20
0
30
0
70
128
71
47
72
49
73
44
0
VERTEX
8
OBJECT__12
10
0
20
0
30
0
70
128
71
40
72
46
73
41
0
VERTEX
8
OBJECT__12
10
0
20
0
30
0
70
128
71
37
72
39
73
35
0
VERTEX
8
OBJECT__12
10
0
20
0
30
0
70
128
71
34
72
38
73
32
0
VERTEX
8
OBJECT__12
10
0
20
0
30
0
70
128
71
28
72
25
73
29
0
VERTEX
8
OBJECT__12
10
0
20
0
30
0
70
128
71
22
72
26
73
23
0
VERTEX
8
OBJECT__12
10
0
20
0
30
0
70
128
71
19
72
54
73
17
0
VERTEX
8
OBJECT__12
10
0
20
0
30
0
70
128
71
14
72
21
73
15
0
VERTEX
8
OBJECT__12
10
0
20
0
30
0
70
128
71
14
72
16
73
11
0
VERTEX
8
OBJECT__12
10
0
20
0
30
0
70
128
71
12
72
13
73
11
0
VERTEX
8
OBJECT__12
10
0
20
0
30
0
70
128
71
8
72
12
73
9
0
VERTEX
8
OBJECT__12
10
0
20
0
30
0
70
128
71
8
72
10
73
1
0
VERTEX
8
OBJECT__12
10
0
20
0
30
0
70
128
71
3
72
7
73
1
0
SEQEND
8
OBJECT__12
0
POLYLINE
8
OBJECT__13
66
1
70
64
71
44
72
53
62
253
0
VERTEX
8
OBJECT__13
10
32.827000
20
89.218002
30
-2.257000
70
192
0
VERTEX
8
OBJECT__13
10
33.016998
20
89.695999
30
-2.232000
70
192
0
VERTEX
8
OBJECT__13
10
33.049999
20
89.655998
30
-0.962000
70
192
0
VERTEX
8
OBJECT__13
10
32.861000
20
89.178001
30
-0.957000
70
192
0
VERTEX
8
OBJECT__13
10
33.215000
20
90.652000
30
5.323000
70
192
0
VERTEX
8
OBJECT__13
10
33.029999
20
90.196999
30
5.476000
70
192
0
VERTEX
8
OBJECT__13
10
33.362999
20
93.542000
30
10.992000
70
192
0
VERTEX
8
OBJECT__13
10
33.181999
20
93.153999
30
11.278000
70
192
0
VERTEX
8
OBJECT__13
10
33.480999
20
98.042000
30
15.491000
70
192
0
VERTEX
8
OBJECT__13
10
33.380001
20
103.565002
30
18.840000
70
192
0
VERTEX
8
OBJECT__13
10
33.301998
20
97.761002
30
15.883000
70
192
0
VERTEX
8
OBJECT__13
10
33.556999
20
103.712997
30
18.379999
70
192
0
VERTEX
8
OBJECT__13
10
33.583000
20
110.000000
30
19.375000
70
192
0
VERTEX
8
OBJECT__13
10
33.405998
20
110.000000
30
19.858999
70
192
0
VERTEX
8
OBJECT__13
10
33.556999
20
116.287003
30
18.379999
70
192
0
VERTEX
8
OBJECT__13
10
33.380001
20
116.434998
30
18.840000
70
192
0
VERTEX
8
OBJECT__13
10
33.480999
20
121.958000
30
15.491000
70
192
0
VERTEX
8
OBJECT__13
10
33.301998
20
122.238998
30
15.883000
70
192
0
VERTEX
8
OBJECT__13
10
33.362999
20
126.458000
30
10.992000
70
192
0
VERTEX
8
OBJECT__13
10
33.181999
20
126.846001
30
11.278000
70
192
0
VERTEX
8
OBJECT__13
10
33.215000
20
129.348007
30
5.323000
70
192
0
VERTEX
8
OBJECT__13
10
33.029999
20
129.802994
30
5.476000
70
192
0
VERTEX
8
OBJECT__13
10
33.049999
20
130.343994
30
-0.962000
70
192
0
VERTEX
8
OBJECT__13
10
32.771999
20
130.753006
30
-2.215000
70
192
0
VERTEX
8
OBJECT__13
10
32.861000
20
130.822006
30
-0.957000
70
192
0
VERTEX
8
OBJECT__13
10
32.396000
20
131.042007
30
-0.945000
70
192
0
VERTEX
8
OBJECT__13
10
32.693001
20
130.895996
30
-2.222000
70
192
0
VERTEX
8
OBJECT__13
10
32.566002
20
130.011993
30
5.556000
70
192
0
VERTEX
8
OBJECT__13
10
32.719002
20
127.024002
30
11.420000
70
192
0
VERTEX
8
OBJECT__13
10
32.759998
20
125.474998
30
12.968000
70
192
0
VERTEX
8
OBJECT__13
10
32.841000
20
122.367996
30
16.073000
70
192
0
VERTEX
8
OBJECT__13
10
32.894001
20
118.454002
30
18.066999
70
192
0
VERTEX
8
OBJECT__13
10
32.919998
20
116.501999
30
19.061001
70
192
0
VERTEX
8
OBJECT__13
10
32.946999
20
110.000000
30
20.091000
70
192
0
VERTEX
8
OBJECT__13
10
32.919998
20
103.498001
30
19.061001
70
192
0
VERTEX
8
OBJECT__13
10
32.894001
20
101.545998
30
18.066999
70
192
0
VERTEX
8
OBJECT__13
10
32.841000
20
97.632004
30
16.073000
70
192
0
VERTEX
8
OBJECT__13
10
32.759998
20
94.525002
30
12.968000
70
192
0
VERTEX
8
OBJECT__13
10
32.719002
20
92.975998
30
11.420000
70
192
0
VERTEX
8
OBJECT__13
10
32.566002
20
89.987999
30
5.556000
70
192
0
VERTEX
8
OBJECT__13
10
32.396000
20
88.958000
30
-0.945000
70
192
0
VERTEX
8
OBJECT__13
10
32.362000
20
88.999001
30
-2.259000
70
192
0
VERTEX
8
OBJECT__13
10
32.362999
20
131.003998
30
-2.220000
70
192
0
VERTEX
8
OBJECT__13
10
33.018002
20
130.306000
30
-2.194000
70
192
0
VERTEX
8
OBJECT__13
10
0
20
0
30
0
70
128
71
1
72
2
73
3
0
VERTEX
8
OBJECT__13
10
0
20
0
30
0
70
128
71
4
72
3
73
5
0
VERTEX
8
OBJECT__13
10
0
20
0
30
0
70
128
71
6
72
5
73
7
0
VERTEX
8
OBJECT__13
10
0
20
0
30
0
70
128
71
8
72
7
73
9
0
VERTEX
8
OBJECT__13
10
0
20
0
30
0
70
128
71
10
72
11
73
9
0
VERTEX
8
OBJECT__13
10
0
20
0
30
0
70
128
71
10
72
12
73
13
0
VERTEX
8
OBJECT__13
10
0
20
0
30
0
70
128
71
14
72
13
73
15
0
VERTEX
8
OBJECT__13
10
0
20
0
30
0
70
128
71
16
72
15
73
17
0
VERTEX
8
OBJECT__13
10
0
20
0
30
0
70
128
71
18
72
17
73
19
0
VERTEX
8
OBJECT__13
10
0
20
0
30
0
70
128
71
20
72
19
73
21
0
VERTEX
8
OBJECT__13
10
0
20
0
30
0
70
128
71
22
72
21
73
23
0
VERTEX
8
OBJECT__13
10
0
20
0
30
0
70
128
71
24
72
25
73
23
0
VERTEX
8
OBJECT__13
10
0
20
0
30
0
70
128
71
26
72
25
73
27
0
VERTEX
8
OBJECT__13
10
0
20
0
30
0
70
128
71
25
72
24
73
27
0
VERTEX
8
OBJECT__13
10
0
20
0
30
0
70
128
71
26
72
28
73
22
0
VERTEX
8
OBJECT__13
10
0
20
0
30
0
70
128
71
28
72
29
73
20
0
VERTEX
8
OBJECT__13
10
0
20
0
30
0
70
128
71
18
72
20
73
30
0
VERTEX
8
OBJECT__13
10
0
20
0
30
0
70
128
71
20
72
29
73
30
0
VERTEX
8
OBJECT__13
10
0
20
0
30
0
70
128
71
18
72
31
73
32
0
VERTEX
8
OBJECT__13
10
0
20
0
30
0
70
128
71
32
72
16
73
18
0
VERTEX
8
OBJECT__13
10
0
20
0
30
0
70
128
71
33
72
34
73
14
0
VERTEX
8
OBJECT__13
10
0
20
0
30
0
70
128
71
34
72
35
73
10
0
VERTEX
8
OBJECT__13
10
0
20
0
30
0
70
128
71
11
72
10
73
36
0
VERTEX
8
OBJECT__13
10
0
20
0
30
0
70
128
71
10
72
35
73
36
0
VERTEX
8
OBJECT__13
10
0
20
0
30
0
70
128
71
11
72
37
73
38
0
VERTEX
8
OBJECT__13
10
0
20
0
30
0
70
128
71
38
72
8
73
11
0
VERTEX
8
OBJECT__13
10
0
20
0
30
0
70
128
71
39
72
40
73
6
0
VERTEX
8
OBJECT__13
10
0
20
0
30
0
70
128
71
40
72
41
73
4
0
VERTEX
8
OBJECT__13
10
0
20
0
30
0
70
128
71
41
72
42
73
1
0
VERTEX
8
OBJECT__13
10
0
20
0
30
0
70
128
71
1
72
4
73
41
0
VERTEX
8
OBJECT__13
10
0
20
0
30
0
70
128
71
4
72
6
73
40
0
VERTEX
8
OBJECT__13
10
0
20
0
30
0
70
128
71
6
72
8
73
39
0
VERTEX
8
OBJECT__13
10
0
20
0
30
0
70
128
71
38
72
39
73
8
0
VERTEX
8
OBJECT__13
10
0
20
0
30
0
70
128
71
36
72
37
73
11
0
VERTEX
8
OBJECT__13
10
0
20
0
30
0
70
128
71
10
72
14
73
34
0
VERTEX
8
OBJECT__13
10
0
20
0
30
0
70
128
71
14
72
16
73
33
0
VERTEX
8
OBJECT__13
10
0
20
0
30
0
70
128
71
32
72
33
73
16
0
VERTEX
8
OBJECT__13
10
0
20
0
30
0
70
128
71
30
72
31
73
18
0
VERTEX
8
OBJECT__13
10
0
20
0
30
0
70
128
71
20
72
22
73
28
0
VERTEX
8
OBJECT__13
10
0
20
0
30
0
70
128
71
22
72
25
73
26
0
VERTEX
8
OBJECT__13
10
0
20
0
30
0
70
128
71
27
72
43
73
26
0
VERTEX
8
OBJECT__13
10
0
20
0
30
0
70
128
71
23
72
44
73
24
0
VERTEX
8
OBJECT__13
10
0
20
0
30
0
70
128
71
23
72
25
73
22
0
VERTEX
8
OBJECT__13
10
0
20
0
30
0
70
128
71
21
72
22
73
20
0
VERTEX
8
OBJECT__13
10
0
20
0
30
0
70
128
71
19
72
20
73
18
0
VERTEX
8
OBJECT__13
10
0
20
0
30
0
70
128
71
17
72
18
73
16
0
VERTEX
8
OBJECT__13
10
0
20
0
30
0
70
128
71
15
72
16
73
14
0
VERTEX
8
OBJECT__13
10
0
20
0
30
0
70
128
71
13
72
14
73
10
0
VERTEX
8
OBJECT__13
10
0
20
0
30
0
70
128
71
9
72
12
73
10
0
VERTEX
8
OBJECT__13
10
0
20
0
30
0
70
128
71
9
72
11
73
8
0
VERTEX
8
OBJECT__13
10
0
20
0
30
0
70
128
71
7
72
8
73
6
0
VERTEX
8
OBJECT__13
10
0
20
0
30
0
70
128
71
5
72
6
73
4
0
VERTEX
8
OBJECT__13
10
0
20
0
30
0
70
128
71
3
72
4
73
1
0
SEQEND
8
OBJECT__13
0
POLYLINE
8
OBJECT__14
66
1
70
64
71
10
72
8
62
253
0
VERTEX
8
OBJECT__14
10
30.250999
20
131.001007
30
-81.115997
70
192
0
VERTEX
8
OBJECT__14
10
24.952999
20
131.001007
30
-80.976997
70
192
0
VERTEX
8
OBJECT__14
10
26.947001
20
131.001007
30
-4.848000
70
192
0
VERTEX
8
OBJECT__14
10
29.205000
20
131.001007
30
-4.057000
70
192
0
VERTEX
8
OBJECT__14
10
31.066000
20
131.001007
30
-3.119000
70
192
0
VERTEX
8
OBJECT__14
10
27.653000
20
131.001007
30
-4.620000
70
192
0
VERTEX
8
OBJECT__14
10
31.671000
20
131.001007
30
-2.814000
70
192
0
VERTEX
8
OBJECT__14
10
32.376999
20
131.001007
30
-2.243000
70
192
0
VERTEX
8
OBJECT__14
10
32.319000
20
131.001007
30
-2.339000
70
192
0
VERTEX
8
OBJECT__14
10
32.313999
20
131.001007
30
-2.347000
70
192
0
VERTEX
8
OBJECT__14
10
0
20
0
30
0
70
128
71
1
72
2
73
3
0
VERTEX
8
OBJECT__14
10
0
20
0
30
0
70
128
71
1
72
4
73
5
0
VERTEX
8
OBJECT__14
10
0
20
0
30
0
70
128
71
3
72
6
73
1
0
VERTEX
8
OBJECT__14
10
0
20
0
30
0
70
128
71
6
72
4
73
1
0
VERTEX
8
OBJECT__14
10
0
20
0
30
0
70
128
71
5
72
7
73
1
0
VERTEX
8
OBJECT__14
10
0
20
0
30
0
70
128
71
7
72
8
73
9
0
VERTEX
8
OBJECT__14
10
0
20
0
30
0
70
128
71
9
72
10
73
7
0
VERTEX
8
OBJECT__14
10
0
20
0
30
0
70
128
71
7
72
10
73
1
0
SEQEND
8
OBJECT__14
0
POLYLINE
8
OBJECT__15
66
1
70
64
71
6
72
4
62
253
0
VERTEX
8
OBJECT__15
10
30.746000
20
130.796005
30
-81.128998
70
192
0
VERTEX
8
OBJECT__15
10
32.808998
20
130.796005
30
-2.360000
70
192
0
VERTEX
8
OBJECT__15
10
33.014000
20
130.300995
30
-2.365000
70
192
0
VERTEX
8
OBJECT__15
10
30.250999
20
131.001007
30
-81.115997
70
192
0
VERTEX
8
OBJECT__15
10
32.313999
20
131.001007
30
-2.347000
70
192
0
VERTEX
8
OBJECT__15
10
30.951000
20
130.300995
30
-81.134003
70
192
0
VERTEX
8
OBJECT__15
10
0
20
0
30
0
70
128
71
1
72
2
73
3
0
VERTEX
8
OBJECT__15
10
0
20
0
30
0
70
128
71
1
72
4
73
5
0
VERTEX
8
OBJECT__15
10
0
20
0
30
0
70
128
71
5
72
2
73
1
0
VERTEX
8
OBJECT__15
10
0
20
0
30
0
70
128
71
3
72
6
73
1
0
SEQEND
8
OBJECT__15
0
POLYLINE
8
OBJECT__16
66
1
70
64
71
12
72
12
62
253
0
VERTEX
8
OBJECT__16
10
30.042000
20
123.000999
30
-89.112999
70
192
0
VERTEX
8
OBJECT__16
10
30.070000
20
127.000999
30
-88.042000
70
192
0
VERTEX
8
OBJECT__16
10
30.569000
20
126.899002
30
-87.876999
70
192
0
VERTEX
8
OBJECT__16
10
30.146999
20
129.929001
30
-85.114998
70
192
0
VERTEX
8
OBJECT__16
10
30.643999
20
129.751999
30
-85.025002
70
192
0
VERTEX
8
OBJECT__16
10
30.250999
20
131.001007
30
-81.115997
70
192
0
VERTEX
8
OBJECT__16
10
30.746000
20
130.796005
30
-81.128998
70
192
0
VERTEX
8
OBJECT__16
10
30.785999
20
126.651001
30
-87.454002
70
192
0
VERTEX
8
OBJECT__16
10
30.760000
20
123.000999
30
-88.431999
70
192
0
VERTEX
8
OBJECT__16
10
30.855000
20
129.322998
30
-84.782997
70
192
0
VERTEX
8
OBJECT__16
10
30.951000
20
130.300995
30
-81.134003
70
192
0
VERTEX
8
OBJECT__16
10
30.542000
20
123.000999
30
-88.920998
70
192
0
VERTEX
8
OBJECT__16
10
0
20
0
30
0
70
128
71
1
72
2
73
3
0
VERTEX
8
OBJECT__16
10
0
20
0
30
0
70
128
71
2
72
4
73
5
0
VERTEX
8
OBJECT__16
10
0
20
0
30
0
70
128
71
4
72
6
73
7
0
VERTEX
8
OBJECT__16
10
0
20
0
30
0
70
128
71
3
72
8
73
9
0
VERTEX
8
OBJECT__16
10
0
20
0
30
0
70
128
71
5
72
10
73
8
0
VERTEX
8
OBJECT__16
10
0
20
0
30
0
70
128
71
7
72
11
73
10
0
VERTEX
8
OBJECT__16
10
0
20
0
30
0
70
128
71
10
72
5
73
7
0
VERTEX
8
OBJECT__16
10
0
20
0
30
0
70
128
71
8
72
3
73
5
0
VERTEX
8
OBJECT__16
10
0
20
0
30
0
70
128
71
9
72
12
73
3
0
VERTEX
8
OBJECT__16
10
0
20
0
30
0
70
128
71
7
72
5
73
4
0
VERTEX
8
OBJECT__16
10
0
20
0
30
0
70
128
71
5
72
3
73
2
0
VERTEX
8
OBJECT__16
10
0
20
0
30
0
70
128
71
3
72
12
73
1
0
SEQEND
8
OBJECT__16
0
POLYLINE
8
OBJECT__17
66
1
70
64
71
8
72
6
62
253
0
VERTEX
8
OBJECT__17
10
30.250999
20
131.001007
30
-81.115997
70
192
0
VERTEX
8
OBJECT__17
10
30.146999
20
129.929001
30
-85.114998
70
192
0
VERTEX
8
OBJECT__17
10
24.848000
20
129.929001
30
-84.975998
70
192
0
VERTEX
8
OBJECT__17
10
30.070000
20
127.000999
30
-88.042000
70
192
0
VERTEX
8
OBJECT__17
10
24.771999
20
127.000999
30
-87.903000
70
192
0
VERTEX
8
OBJECT__17
10
24.743999
20
123.000999
30
-88.973999
70
192
0
VERTEX
8
OBJECT__17
10
30.042000
20
123.000999
30
-89.112999
70
192
0
VERTEX
8
OBJECT__17
10
24.952999
20
131.001007
30
-80.976997
70
192
0
VERTEX
8
OBJECT__17
10
0
20
0
30
0
70
128
71
1
72
2
73
3
0
VERTEX
8
OBJECT__17
10
0
20
0
30
0
70
128
71
4
72
5
73
3
0
VERTEX
8
OBJECT__17
10
0
20
0
30
0
70
128
71
6
72
5
73
4
0
VERTEX
8
OBJECT__17
10
0
20
0
30
0
70
128
71
4
72
7
73
6
0
VERTEX
8
OBJECT__17
10
0
20
0
30
0
70
128
71
3
72
2
73
4
0
VERTEX
8
OBJECT__17
10
0
20
0
30
0
70
128
71
3
72
8
73
1
0
SEQEND
8
OBJECT__17
0
POLYLINE
8
OBJECT__18
66
1
70
64
71
6
72
4
62
253
0
VERTEX
8
OBJECT__18
10
30.760000
20
97.000999
30
-88.431999
70
192
0
VERTEX
8
OBJECT__18
10
30.542000
20
97.000999
30
-88.920998
70
192
0
VERTEX
8
OBJECT__18
10
30.542000
20
123.000999
30
-88.920998
70
192
0
VERTEX
8
OBJECT__18
10
30.042000
20
123.000999
30
-89.112999
70
192
0
VERTEX
8
OBJECT__18
10
30.042000
20
97.000999
30
-89.112999
70
192
0
VERTEX
8
OBJECT__18
10
30.760000
20
123.000999
30
-88.431999
70
192
0
VERTEX
8
OBJECT__18
10
0
20
0
30
0
70
128
71
1
72
2
73
3
0
VERTEX
8
OBJECT__18
10
0
20
0
30
0
70
128
71
4
72
3
73
2
0
VERTEX
8
OBJECT__18
10
0
20
0
30
0
70
128
71
2
72
5
73
4
0
VERTEX
8
OBJECT__18
10
0
20
0
30
0
70
128
71
3
72
6
73
1
0
SEQEND
8
OBJECT__18
0
POLYLINE
8
OBJECT__19
66
1
70
64
71
4
72
2
62
253
0
VERTEX
8
OBJECT__19
10
30.042000
20
97.000999
30
-89.112999
70
192
0
VERTEX
8
OBJECT__19
10
24.743999
20
97.000999
30
-88.973999
70
192
0
VERTEX
8
OBJECT__19
10
24.743999
20
123.000999
30
-88.973999
70
192
0
VERTEX
8
OBJECT__19
10
30.042000
20
123.000999
30
-89.112999
70
192
0
VERTEX
8
OBJECT__19
10
0
20
0
30
0
70
128
71
1
72
2
73
3
0
VERTEX
8
OBJECT__19
10
0
20
0
30
0
70
128
71
3
72
4
73
1
0
SEQEND
8
OBJECT__19
0
POLYLINE
8
OBJECT__20
66
1
70
64
71
8
72
6
62
253
0
VERTEX
8
OBJECT__20
10
30.070000
20
93.000999
30
-88.042000
70
192
0
VERTEX
8
OBJECT__20
10
24.771999
20
93.000999
30
-87.903000
70
192
0
VERTEX
8
OBJECT__20
10
24.743999
20
97.000999
30
-88.973999
70
192
0
VERTEX
8
OBJECT__20
10
24.848000
20
90.072998
30
-84.975998
70
192
0
VERTEX
8
OBJECT__20
10
30.146999
20
90.072998
30
-85.114998
70
192
0
VERTEX
8
OBJECT__20
10
30.250999
20
89.000999
30
-81.115997
70
192
0
VERTEX
8
OBJECT__20
10
24.952999
20
89.000999
30
-80.976997
70
192
0
VERTEX
8
OBJECT__20
10
30.042000
20
97.000999
30
-89.112999
70
192
0
VERTEX
8
OBJECT__20
10
0
20
0
30
0
70
128
71
1
72
2
73
3
0
VERTEX
8
OBJECT__20
10
0
20
0
30
0
70
128
71
4
72
2
73
1
0
VERTEX
8
OBJECT__20
10
0
20
0
30
0
70
128
71
4
72
5
73
6
0
VERTEX
8
OBJECT__20
10
0
20
0
30
0
70
128
71
6
72
7
73
4
0
VERTEX
8
OBJECT__20
10
0
20
0
30
0
70
128
71
1
72
5
73
4
0
VERTEX
8
OBJECT__20
10
0
20
0
30
0
70
128
71
3
72
8
73
1
0
SEQEND
8
OBJECT__20
0
POLYLINE
8
OBJECT__21
66
1
70
64
71
12
72
12
62
253
0
VERTEX
8
OBJECT__21
10
30.146999
20
90.072998
30
-85.114998
70
192
0
VERTEX
8
OBJECT__21
10
30.643999
20
90.250000
30
-85.025002
70
192
0
VERTEX
8
OBJECT__21
10
30.746000
20
89.206001
30
-81.128998
70
192
0
VERTEX
8
OBJECT__21
10
30.070000
20
93.000999
30
-88.042000
70
192
0
VERTEX
8
OBJECT__21
10
30.569000
20
93.103996
30
-87.876999
70
192
0
VERTEX
8
OBJECT__21
10
30.042000
20
97.000999
30
-89.112999
70
192
0
VERTEX
8
OBJECT__21
10
30.542000
20
97.000999
30
-88.920998
70
192
0
VERTEX
8
OBJECT__21
10
30.855000
20
90.679001
30
-84.782997
70
192
0
VERTEX
8
OBJECT__21
10
30.785999
20
93.350998
30
-87.454002
70
192
0
VERTEX
8
OBJECT__21
10
30.760000
20
97.000999
30
-88.431999
70
192
0
VERTEX
8
OBJECT__21
10
30.951000
20
89.700996
30
-81.134003
70
192
0
VERTEX
8
OBJECT__21
10
30.250999
20
89.000999
30
-81.115997
70
192
0
VERTEX
8
OBJECT__21
10
0
20
0
30
0
70
128
71
1
72
2
73
3
0
VERTEX
8
OBJECT__21
10
0
20
0
30
0
70
128
71
4
72
5
73
2
0
VERTEX
8
OBJECT__21
10
0
20
0
30
0
70
128
71
6
72
7
73
5
0
VERTEX
8
OBJECT__21
10
0
20
0
30
0
70
128
71
3
72
2
73
8
0
VERTEX
8
OBJECT__21
10
0
20
0
30
0
70
128
71
2
72
5
73
9
0
VERTEX
8
OBJECT__21
10
0
20
0
30
0
70
128
71
7
72
10
73
9
0
VERTEX
8
OBJECT__21
10
0
20
0
30
0
70
128
71
9
72
5
73
7
0
VERTEX
8
OBJECT__21
10
0
20
0
30
0
70
128
71
9
72
8
73
2
0
VERTEX
8
OBJECT__21
10
0
20
0
30
0
70
128
71
8
72
11
73
3
0
VERTEX
8
OBJECT__21
10
0
20
0
30
0
70
128
71
5
72
4
73
6
0
VERTEX
8
OBJECT__21
10
0
20
0
30
0
70
128
71
2
72
1
73
4
0
VERTEX
8
OBJECT__21
10
0
20
0
30
0
70
128
71
3
72
12
73
1
0
SEQEND
8
OBJECT__21
0
POLYLINE
8
OBJECT__22
66
1
70
64
71
10
72
8
62
253
0
VERTEX
8
OBJECT__22
10
24.952999
20
89.000999
30
-80.976997
70
192
0
VERTEX
8
OBJECT__22
10
31.773001
20
89.000999
30
-2.769000
70
192
0
VERTEX
8
OBJECT__22
10
31.121000
20
89.000999
30
-3.120000
70
192
0
VERTEX
8
OBJECT__22
10
29.853001
20
89.000999
30
-3.803000
70
192
0
VERTEX
8
OBJECT__22
10
27.652000
20
89.000999
30
-4.633000
70
192
0
VERTEX
8
OBJECT__22
10
32.313000
20
89.000999
30
-2.378000
70
192
0
VERTEX
8
OBJECT__22
10
26.945999
20
89.000999
30
-4.860000
70
192
0
VERTEX
8
OBJECT__22
10
32.375000
20
89.000999
30
-2.280000
70
192
0
VERTEX
8
OBJECT__22
10
30.250999
20
89.000999
30
-81.115997
70
192
0
VERTEX
8
OBJECT__22
10
32.318001
20
89.000999
30
-2.371000
70
192
0
VERTEX
8
OBJECT__22
10
0
20
0
30
0
70
128
71
1
72
2
73
3
0
VERTEX
8
OBJECT__22
10
0
20
0
30
0
70
128
71
1
72
4
73
5
0
VERTEX
8
OBJECT__22
10
0
20
0
30
0
70
128
71
1
72
6
73
2
0
VERTEX
8
OBJECT__22
10
0
20
0
30
0
70
128
71
3
72
4
73
1
0
VERTEX
8
OBJECT__22
10
0
20
0
30
0
70
128
71
5
72
7
73
1
0
VERTEX
8
OBJECT__22
10
0
20
0
30
0
70
128
71
6
72
8
73
2
0
VERTEX
8
OBJECT__22
10
0
20
0
30
0
70
128
71
1
72
9
73
6
0
VERTEX
8
OBJECT__22
10
0
20
0
30
0
70
128
71
6
72
10
73
8
0
SEQEND
8
OBJECT__22
0
POLYLINE
8
OBJECT__23
66
1
70
64
71
6
72
4
62
253
0
VERTEX
8
OBJECT__23
10
30.951000
20
89.700996
30
-81.134003
70
192
0
VERTEX
8
OBJECT__23
10
33.013000
20
89.700996
30
-2.396000
70
192
0
VERTEX
8
OBJECT__23
10
32.807999
20
89.206001
30
-2.392000
70
192
0
VERTEX
8
OBJECT__23
10
30.250999
20
89.000999
30
-81.115997
70
192
0
VERTEX
8
OBJECT__23
10
30.746000
20
89.206001
30
-81.128998
70
192
0
VERTEX
8
OBJECT__23
10
32.313000
20
89.000999
30
-2.378000
70
192
0
VERTEX
8
OBJECT__23
10
0
20
0
30
0
70
128
71
1
72
2
73
3
0
VERTEX
8
OBJECT__23
10
0
20
0
30
0
70
128
71
4
72
5
73
3
0
VERTEX
8
OBJECT__23
10
0
20
0
30
0
70
128
71
3
72
6
73
4
0
VERTEX
8
OBJECT__23
10
0
20
0
30
0
70
128
71
3
72
5
73
1
0
SEQEND
8
OBJECT__23
0
POLYLINE
8
OBJECT__24
66
1
70
64
71
28
72
28
62
253
0
VERTEX
8
OBJECT__24
10
24.952999
20
131.001007
30
-80.976997
70
192
0
VERTEX
8
OBJECT__24
10
25.271000
20
119.692001
30
-68.832001
70
192
0
VERTEX
8
OBJECT__24
10
26.291000
20
119.692001
30
-29.888000
70
192
0
VERTEX
8
OBJECT__24
10
25.197001
20
101.481003
30
-71.661003
70
192
0
VERTEX
8
OBJECT__24
10
25.166000
20
104.307999
30
-72.831001
70
192
0
VERTEX
8
OBJECT__24
10
24.743999
20
97.000999
30
-88.973999
70
192
0
VERTEX
8
OBJECT__24
10
26.773001
20
128.522003
30
-11.495000
70
192
0
VERTEX
8
OBJECT__24
10
25.197001
20
118.521004
30
-71.658997
70
192
0
VERTEX
8
OBJECT__24
10
24.771999
20
127.000999
30
-87.903000
70
192
0
VERTEX
8
OBJECT__24
10
24.743999
20
123.000999
30
-88.973999
70
192
0
VERTEX
8
OBJECT__24
10
25.166000
20
115.692001
30
-72.831001
70
192
0
VERTEX
8
OBJECT__24
10
24.771999
20
93.000999
30
-87.903000
70
192
0
VERTEX
8
OBJECT__24
10
24.952999
20
89.000999
30
-80.976997
70
192
0
VERTEX
8
OBJECT__24
10
26.773001
20
91.477997
30
-11.495000
70
192
0
VERTEX
8
OBJECT__24
10
26.291000
20
100.307999
30
-29.888000
70
192
0
VERTEX
8
OBJECT__24
10
26.947001
20
131.001007
30
-4.848000
70
192
0
VERTEX
8
OBJECT__24
10
24.848000
20
129.929001
30
-84.975998
70
192
0
VERTEX
8
OBJECT__24
10
24.848000
20
90.072998
30
-84.975998
70
192
0
VERTEX
8
OBJECT__24
10
26.945999
20
89.000999
30
-4.860000
70
192
0
VERTEX
8
OBJECT__24
10
26.600000
20
122.570999
30
-18.101000
70
192
0
VERTEX
8
OBJECT__24
10
26.344999
20
118.898003
30
-27.829000
70
192
0
VERTEX
8
OBJECT__24
10
26.365999
20
116.842003
30
-27.035000
70
192
0
VERTEX
8
OBJECT__24
10
26.600000
20
97.429001
30
-18.101000
70
192
0
VERTEX
8
OBJECT__24
10
26.504999
20
105.553001
30
-21.716999
70
192
0
VERTEX
8
OBJECT__24
10
26.344999
20
101.098999
30
-27.832001
70
192
0
VERTEX
8
OBJECT__24
10
26.504999
20
114.446999
30
-21.716999
70
192
0
VERTEX
8
OBJECT__24
10
25.271000
20
100.307999
30
-68.832001
70
192
0
VERTEX
8
OBJECT__24
10
26.365999
20
103.157997
30
-27.035000
70
192
0
VERTEX
8
OBJECT__24
10
0
20
0
30
0
70
128
71
1
72
2
73
3
0
VERTEX
8
OBJECT__24
10
0
20
0
30
0
70
128
71
4
72
5
73
6
0
VERTEX
8
OBJECT__24
10
0
20
0
30
0
70
128
71
3
72
7
73
1
0
VERTEX
8
OBJECT__24
10
0
20
0
30
0
70
128
71
8
72
9
73
10
0
VERTEX
8
OBJECT__24
10
0
20
0
30
0
70
128
71
6
72
5
73
11
0
VERTEX
8
OBJECT__24
10
0
20
0
30
0
70
128
71
6
72
12
73
4
0
VERTEX
8
OBJECT__24
10
0
20
0
30
0
70
128
71
13
72
14
73
15
0
VERTEX
8
OBJECT__24
10
0
20
0
30
0
70
128
71
7
72
16
73
1
0
VERTEX
8
OBJECT__24
10
0
20
0
30
0
70
128
71
8
72
2
73
1
0
VERTEX
8
OBJECT__24
10
0
20
0
30
0
70
128
71
8
72
17
73
9
0
VERTEX
8
OBJECT__24
10
0
20
0
30
0
70
128
71
12
72
18
73
4
0
VERTEX
8
OBJECT__24
10
0
20
0
30
0
70
128
71
13
72
19
73
14
0
VERTEX
8
OBJECT__24
10
0
20
0
30
0
70
128
71
20
72
21
73
22
0
VERTEX
8
OBJECT__24
10
0
20
0
30
0
70
128
71
22
72
23
73
24
0
VERTEX
8
OBJECT__24
10
0
20
0
30
0
70
128
71
1
72
17
73
8
0
VERTEX
8
OBJECT__24
10
0
20
0
30
0
70
128
71
11
72
10
73
6
0
VERTEX
8
OBJECT__24
10
0
20
0
30
0
70
128
71
4
72
18
73
13
0
VERTEX
8
OBJECT__24
10
0
20
0
30
0
70
128
71
14
72
25
73
15
0
VERTEX
8
OBJECT__24
10
0
20
0
30
0
70
128
71
24
72
26
73
22
0
VERTEX
8
OBJECT__24
10
0
20
0
30
0
70
128
71
10
72
11
73
8
0
VERTEX
8
OBJECT__24
10
0
20
0
30
0
70
128
71
15
72
27
73
13
0
VERTEX
8
OBJECT__24
10
0
20
0
30
0
70
128
71
22
72
26
73
20
0
VERTEX
8
OBJECT__24
10
0
20
0
30
0
70
128
71
13
72
27
73
4
0
VERTEX
8
OBJECT__24
10
0
20
0
30
0
70
128
71
23
72
22
73
28
0
VERTEX
8
OBJECT__24
10
0
20
0
30
0
70
128
71
3
72
21
73
7
0
VERTEX
8
OBJECT__24
10
0
20
0
30
0
70
128
71
25
72
14
73
23
0
VERTEX
8
OBJECT__24
10
0
20
0
30
0
70
128
71
28
72
25
73
23
0
VERTEX
8
OBJECT__24
10
0
20
0
30
0
70
128
71
20
72
7
73
21
0
SEQEND
8
OBJECT__24
0
POLYLINE
8
OBJECT__25
66
1
70
64
71
4
72
2
62
253
0
VERTEX
8
OBJECT__25
10
26.271000
20
119.692001
30
-68.858002
70
192
0
VERTEX
8
OBJECT__25
10
27.291000
20
119.692001
30
-29.914000
70
192
0
VERTEX
8
OBJECT__25
10
26.291000
20
119.692001
30
-29.888000
70
192
0
VERTEX
8
OBJECT__25
10
25.271000
20
119.692001
30
-68.832001
70
192
0
VERTEX
8
OBJECT__25
10
0
20
0
30
0
70
128
71
1
72
2
73
3
0
VERTEX
8
OBJECT__25
10
0
20
0
30
0
70
128
71
3
72
4
73
1
0
SEQEND
8
OBJECT__25
0
POLYLINE
8
OBJECT__26
66
1
70
64
71
4
72
2
62
253
0
VERTEX
8
OBJECT__26
10
26.365999
20
116.842003
30
-27.035000
70
192
0
VERTEX
8
OBJECT__26
10
27.365000
20
116.842003
30
-27.062000
70
192
0
VERTEX
8
OBJECT__26
10
27.365000
20
103.157997
30
-27.062000
70
192
0
VERTEX
8
OBJECT__26
10
26.365999
20
103.157997
30
-27.035000
70
192
0
VERTEX
8
OBJECT__26
10
0
20
0
30
0
70
128
71
1
72
2
73
3
0
VERTEX
8
OBJECT__26
10
0
20
0
30
0
70
128
71
3
72
4
73
1
0
SEQEND
8
OBJECT__26
0
POLYLINE
8
OBJECT__27
66
1
70
64
71
4
72
2
62
253
0
VERTEX
8
OBJECT__27
10
27.291000
20
100.307999
30
-29.914000
70
192
0
VERTEX
8
OBJECT__27
10
26.271000
20
100.307999
30
-68.858002
70
192
0
VERTEX
8
OBJECT__27
10
25.271000
20
100.307999
30
-68.832001
70
192
0
VERTEX
8
OBJECT__27
10
26.291000
20
100.307999
30
-29.888000
70
192
0
VERTEX
8
OBJECT__27
10
0
20
0
30
0
70
128
71
1
72
2
73
3
0
VERTEX
8
OBJECT__27
10
0
20
0
30
0
70
128
71
3
72
4
73
1
0
SEQEND
8
OBJECT__27
0
POLYLINE
8
OBJECT__28
66
1
70
64
71
4
72
2
62
253
0
VERTEX
8
OBJECT__28
10
25.166000
20
104.307999
30
-72.831001
70
192
0
VERTEX
8
OBJECT__28
10
26.166000
20
104.307999
30
-72.857002
70
192
0
VERTEX
8
OBJECT__28
10
26.166000
20
115.692001
30
-72.857002
70
192
0
VERTEX
8
OBJECT__28
10
25.166000
20
115.692001
30
-72.831001
70
192
0
VERTEX
8
OBJECT__28
10
0
20
0
30
0
70
128
71
1
72
2
73
3
0
VERTEX
8
OBJECT__28
10
0
20
0
30
0
70
128
71
3
72
4
73
1
0
SEQEND
8
OBJECT__28
0
POLYLINE
8
OBJECT__29
66
1
70
64
71
11
72
9
62
253
0
VERTEX
8
OBJECT__29
10
25.197001
20
118.521004
30
-71.658997
70
192
0
VERTEX
8
OBJECT__29
10
25.166000
20
115.692001
30
-72.831001
70
192
0
VERTEX
8
OBJECT__29
10
26.172001
20
117.014000
30
-72.636002
70
192
0
VERTEX
8
OBJECT__29
10
26.188999
20
118.188004
30
-71.985001
70
192
0
VERTEX
8
OBJECT__29
10
26.198000
20
118.485001
30
-71.654999
70
192
0
VERTEX
8
OBJECT__29
10
26.166000
20
115.692001
30
-72.857002
70
192
0
VERTEX
8
OBJECT__29
10
25.271000
20
119.692001
30
-68.832001
70
192
0
VERTEX
8
OBJECT__29
10
26.214001
20
119.063004
30
-71.013000
70
192
0
VERTEX
8
OBJECT__29
10
26.198000
20
118.486000
30
-71.653000
70
192
0
VERTEX
8
OBJECT__29
10
26.247000
20
119.593002
30
-69.749001
70
192
0
VERTEX
8
OBJECT__29
10
26.271000
20
119.692001
30
-68.858002
70
192
0
VERTEX
8
OBJECT__29
10
0
20
0
30
0
70
128
71
1
72
2
73
3
0
VERTEX
8
OBJECT__29
10
0
20
0
30
0
70
128
71
3
72
4
73
1
0
VERTEX
8
OBJECT__29
10
0
20
0
30
0
70
128
71
4
72
5
73
1
0
VERTEX
8
OBJECT__29
10
0
20
0
30
0
70
128
71
2
72
6
73
3
0
VERTEX
8
OBJECT__29
10
0
20
0
30
0
70
128
71
7
72
1
73
8
0
VERTEX
8
OBJECT__29
10
0
20
0
30
0
70
128
71
1
72
9
73
8
0
VERTEX
8
OBJECT__29
10
0
20
0
30
0
70
128
71
8
72
10
73
7
0
VERTEX
8
OBJECT__29
10
0
20
0
30
0
70
128
71
10
72
11
73
7
0
VERTEX
8
OBJECT__29
10
0
20
0
30
0
70
128
71
5
72
9
73
1
0
SEQEND
8
OBJECT__29
0
POLYLINE
8
OBJECT__30
66
1
70
64
71
17
72
15
62
253
0
VERTEX
8
OBJECT__30
10
26.198000
20
118.486000
30
-71.653000
70
192
0
VERTEX
8
OBJECT__30
10
26.198000
20
118.485001
30
-71.654999
70
192
0
VERTEX
8
OBJECT__30
10
31.120001
20
121.373001
30
-74.667999
70
192
0
VERTEX
8
OBJECT__30
10
31.128000
20
121.703003
30
-74.372002
70
192
0
VERTEX
8
OBJECT__30
10
31.159000
20
122.355003
30
-73.197998
70
192
0
VERTEX
8
OBJECT__30
10
26.214001
20
119.063004
30
-71.013000
70
192
0
VERTEX
8
OBJECT__30
10
31.193001
20
122.579002
30
-71.875000
70
192
0
VERTEX
8
OBJECT__30
10
26.247000
20
119.593002
30
-69.749001
70
192
0
VERTEX
8
OBJECT__30
10
26.763000
20
119.981003
30
-69.160004
70
192
0
VERTEX
8
OBJECT__30
10
26.271000
20
119.692001
30
-68.858002
70
192
0
VERTEX
8
OBJECT__30
10
26.172001
20
117.014000
30
-72.636002
70
192
0
VERTEX
8
OBJECT__30
10
26.166000
20
115.692001
30
-72.857002
70
192
0
VERTEX
8
OBJECT__30
10
26.658001
20
115.981003
30
-73.157997
70
192
0
VERTEX
8
OBJECT__30
10
26.188999
20
118.188004
30
-71.985001
70
192
0
VERTEX
8
OBJECT__30
10
31.089001
20
118.579002
30
-75.873001
70
192
0
VERTEX
8
OBJECT__30
10
31.091000
20
119.440002
30
-75.780998
70
192
0
VERTEX
8
OBJECT__30
10
31.105000
20
120.707001
30
-75.264999
70
192
0
VERTEX
8
OBJECT__30
10
0
20
0
30
0
70
128
71
1
72
2
73
3
0
VERTEX
8
OBJECT__30
10
0
20
0
30
0
70
128
71
4
72
5
73
6
0
VERTEX
8
OBJECT__30
10
0
20
0
30
0
70
128
71
6
72
1
73
4
0
VERTEX
8
OBJECT__30
10
0
20
0
30
0
70
128
71
6
72
5
73
7
0
VERTEX
8
OBJECT__30
10
0
20
0
30
0
70
128
71
8
72
7
73
9
0
VERTEX
8
OBJECT__30
10
0
20
0
30
0
70
128
71
9
72
10
73
8
0
VERTEX
8
OBJECT__30
10
0
20
0
30
0
70
128
71
7
72
8
73
6
0
VERTEX
8
OBJECT__30
10
0
20
0
30
0
70
128
71
11
72
12
73
13
0
VERTEX
8
OBJECT__30
10
0
20
0
30
0
70
128
71
14
72
11
73
15
0
VERTEX
8
OBJECT__30
10
0
20
0
30
0
70
128
71
15
72
16
73
14
0
VERTEX
8
OBJECT__30
10
0
20
0
30
0
70
128
71
16
72
17
73
14
0
VERTEX
8
OBJECT__30
10
0
20
0
30
0
70
128
71
3
72
2
73
14
0
VERTEX
8
OBJECT__30
10
0
20
0
30
0
70
128
71
14
72
17
73
3
0
VERTEX
8
OBJECT__30
10
0
20
0
30
0
70
128
71
13
72
15
73
11
0
VERTEX
8
OBJECT__30
10
0
20
0
30
0
70
128
71
3
72
4
73
1
0
SEQEND
8
OBJECT__30
0
POLYLINE
8
OBJECT__31
66
1
70
64
71
9
72
7
62
253
0
VERTEX
8
OBJECT__31
10
26.291000
20
119.692001
30
-29.888000
70
192
0
VERTEX
8
OBJECT__31
10
27.291000
20
119.692001
30
-29.914000
70
192
0
VERTEX
8
OBJECT__31
10
27.337999
20
119.117996
30
-28.105000
70
192
0
VERTEX
8
OBJECT__31
10
26.344999
20
118.898003
30
-27.829000
70
192
0
VERTEX
8
OBJECT__31
10
27.341999
20
118.850998
30
-27.931999
70
192
0
VERTEX
8
OBJECT__31
10
27.341999
20
118.848999
30
-27.930000
70
192
0
VERTEX
8
OBJECT__31
10
27.363001
20
117.664001
30
-27.162001
70
192
0
VERTEX
8
OBJECT__31
10
26.365999
20
116.842003
30
-27.035000
70
192
0
VERTEX
8
OBJECT__31
10
27.365000
20
116.842003
30
-27.062000
70
192
0
VERTEX
8
OBJECT__31
10
0
20
0
30
0
70
128
71
1
72
2
73
3
0
VERTEX
8
OBJECT__31
10
0
20
0
30
0
70
128
71
3
72
4
73
1
0
VERTEX
8
OBJECT__31
10
0
20
0
30
0
70
128
71
3
72
5
73
4
0
VERTEX
8
OBJECT__31
10
0
20
0
30
0
70
128
71
4
72
6
73
7
0
VERTEX
8
OBJECT__31
10
0
20
0
30
0
70
128
71
7
72
8
73
4
0
VERTEX
8
OBJECT__31
10
0
20
0
30
0
70
128
71
7
72
9
73
8
0
VERTEX
8
OBJECT__31
10
0
20
0
30
0
70
128
71
5
72
6
73
4
0
SEQEND
8
OBJECT__31
0
POLYLINE
8
OBJECT__32
66
1
70
64
71
11
72
9
62
253
0
VERTEX
8
OBJECT__32
10
27.985001
20
118.758003
30
-27.125999
70
192
0
VERTEX
8
OBJECT__32
10
27.872999
20
117.130997
30
-26.785999
70
192
0
VERTEX
8
OBJECT__32
10
27.363001
20
117.664001
30
-27.162001
70
192
0
VERTEX
8
OBJECT__32
10
27.341999
20
118.848999
30
-27.930000
70
192
0
VERTEX
8
OBJECT__32
10
27.962999
20
119.146004
30
-27.606001
70
192
0
VERTEX
8
OBJECT__32
10
27.365000
20
116.842003
30
-27.062000
70
192
0
VERTEX
8
OBJECT__32
10
27.337999
20
119.117996
30
-28.105000
70
192
0
VERTEX
8
OBJECT__32
10
27.291000
20
119.692001
30
-29.914000
70
192
0
VERTEX
8
OBJECT__32
10
27.798000
20
119.981003
30
-29.638000
70
192
0
VERTEX
8
OBJECT__32
10
27.923000
20
119.848999
30
-28.478001
70
192
0
VERTEX
8
OBJECT__32
10
27.341999
20
118.850998
30
-27.931999
70
192
0
VERTEX
8
OBJECT__32
10
0
20
0
30
0
70
128
71
1
72
2
73
3
0
VERTEX
8
OBJECT__32
10
0
20
0
30
0
70
128
71
4
72
5
73
1
0
VERTEX
8
OBJECT__32
10
0
20
0
30
0
70
128
71
3
72
4
73
1
0
VERTEX
8
OBJECT__32
10
0
20
0
30
0
70
128
71
2
72
6
73
3
0
VERTEX
8
OBJECT__32
10
0
20
0
30
0
70
128
71
7
72
8
73
9
0
VERTEX
8
OBJECT__32
10
0
20
0
30
0
70
128
71
9
72
10
73
7
0
VERTEX
8
OBJECT__32
10
0
20
0
30
0
70
128
71
5
72
11
73
7
0
VERTEX
8
OBJECT__32
10
0
20
0
30
0
70
128
71
10
72
5
73
7
0
VERTEX
8
OBJECT__32
10
0
20
0
30
0
70
128
71
4
72
11
73
5
0
SEQEND
8
OBJECT__32
0
POLYLINE
8
OBJECT__33
66
1
70
64
71
10
72
8
62
253
0
VERTEX
8
OBJECT__33
10
27.798000
20
119.981003
30
-29.638000
70
192
0
VERTEX
8
OBJECT__33
10
27.291000
20
119.692001
30
-29.914000
70
192
0
VERTEX
8
OBJECT__33
10
26.271000
20
119.692001
30
-68.858002
70
192
0
VERTEX
8
OBJECT__33
10
31.193001
20
122.579002
30
-71.875000
70
192
0
VERTEX
8
OBJECT__33
10
32.269001
20
122.513000
30
-26.423000
70
192
0
VERTEX
8
OBJECT__33
10
32.221001
20
122.488998
30
-26.709999
70
192
0
VERTEX
8
OBJECT__33
10
26.763000
20
119.981003
30
-69.160004
70
192
0
VERTEX
8
OBJECT__33
10
32.404999
20
122.579002
30
-25.618999
70
192
0
VERTEX
8
OBJECT__33
10
32.014000
20
122.378998
30
-27.339001
70
192
0
VERTEX
8
OBJECT__33
10
32.008999
20
122.376999
30
-27.351999
70
192
0
VERTEX
8
OBJECT__33
10
0
20
0
30
0
70
128
71
1
72
2
73
3
0
VERTEX
8
OBJECT__33
10
0
20
0
30
0
70
128
71
4
72
5
73
6
0
VERTEX
8
OBJECT__33
10
0
20
0
30
0
70
128
71
3
72
7
73
1
0
VERTEX
8
OBJECT__33
10
0
20
0
30
0
70
128
71
4
72
8
73
5
0
VERTEX
8
OBJECT__33
10
0
20
0
30
0
70
128
71
6
72
9
73
4
0
VERTEX
8
OBJECT__33
10
0
20
0
30
0
70
128
71
4
72
10
73
1
0
VERTEX
8
OBJECT__33
10
0
20
0
30
0
70
128
71
9
72
10
73
4
0
VERTEX
8
OBJECT__33
10
0
20
0
30
0
70
128
71
7
72
4
73
1
0
SEQEND
8
OBJECT__33
0
POLYLINE
8
OBJECT__34
66
1
70
64
71
12
72
10
62
253
0
VERTEX
8
OBJECT__34
10
32.160999
20
121.371002
30
-25.013000
70
192
0
VERTEX
8
OBJECT__34
10
32.143002
20
120.563004
30
-24.618000
70
192
0
VERTEX
8
OBJECT__34
10
27.985001
20
118.758003
30
-27.125999
70
192
0
VERTEX
8
OBJECT__34
10
27.962999
20
119.146004
30
-27.606001
70
192
0
VERTEX
8
OBJECT__34
10
32.153000
20
121.609001
30
-25.270000
70
192
0
VERTEX
8
OBJECT__34
10
32.084000
20
119.527000
30
-24.499001
70
192
0
VERTEX
8
OBJECT__34
10
27.872999
20
117.130997
30
-26.785999
70
192
0
VERTEX
8
OBJECT__34
10
32.084999
20
122.306000
30
-26.487000
70
192
0
VERTEX
8
OBJECT__34
10
32.140999
20
121.980003
30
-25.672001
70
192
0
VERTEX
8
OBJECT__34
10
27.923000
20
119.848999
30
-28.478001
70
192
0
VERTEX
8
OBJECT__34
10
32.008999
20
122.376999
30
-27.351999
70
192
0
VERTEX
8
OBJECT__34
10
27.798000
20
119.981003
30
-29.638000
70
192
0
VERTEX
8
OBJECT__34
10
0
20
0
30
0
70
128
71
1
72
2
73
3
0
VERTEX
8
OBJECT__34
10
0
20
0
30
0
70
128
71
4
72
5
73
1
0
VERTEX
8
OBJECT__34
10
0
20
0
30
0
70
128
71
3
72
2
73
6
0
VERTEX
8
OBJECT__34
10
0
20
0
30
0
70
128
71
6
72
7
73
3
0
VERTEX
8
OBJECT__34
10
0
20
0
30
0
70
128
71
4
72
8
73
9
0
VERTEX
8
OBJECT__34
10
0
20
0
30
0
70
128
71
4
72
10
73
11
0
VERTEX
8
OBJECT__34
10
0
20
0
30
0
70
128
71
11
72
8
73
4
0
VERTEX
8
OBJECT__34
10
0
20
0
30
0
70
128
71
9
72
5
73
4
0
VERTEX
8
OBJECT__34
10
0
20
0
30
0
70
128
71
10
72
12
73
11
0
VERTEX
8
OBJECT__34
10
0
20
0
30
0
70
128
71
3
72
4
73
1
0
SEQEND
8
OBJECT__34
0
POLYLINE
8
OBJECT__35
66
1
70
64
71
10
72
8
62
253
0
VERTEX
8
OBJECT__35
10
26.344999
20
101.098999
30
-27.832001
70
192
0
VERTEX
8
OBJECT__35
10
26.365999
20
103.157997
30
-27.035000
70
192
0
VERTEX
8
OBJECT__35
10
27.361000
20
102.128998
30
-27.224001
70
192
0
VERTEX
8
OBJECT__35
10
27.347000
20
101.219002
30
-27.746000
70
192
0
VERTEX
8
OBJECT__35
10
27.344000
20
101.142998
30
-27.881001
70
192
0
VERTEX
8
OBJECT__35
10
27.365000
20
103.157997
30
-27.062000
70
192
0
VERTEX
8
OBJECT__35
10
27.344000
20
101.141998
30
-27.882999
70
192
0
VERTEX
8
OBJECT__35
10
27.306999
20
100.367996
30
-29.266001
70
192
0
VERTEX
8
OBJECT__35
10
26.291000
20
100.307999
30
-29.888000
70
192
0
VERTEX
8
OBJECT__35
10
27.291000
20
100.307999
30
-29.914000
70
192
0
VERTEX
8
OBJECT__35
10
0
20
0
30
0
70
128
71
1
72
2
73
3
0
VERTEX
8
OBJECT__35
10
0
20
0
30
0
70
128
71
3
72
4
73
1
0
VERTEX
8
OBJECT__35
10
0
20
0
30
0
70
128
71
4
72
5
73
1
0
VERTEX
8
OBJECT__35
10
0
20
0
30
0
70
128
71
2
72
6
73
3
0
VERTEX
8
OBJECT__35
10
0
20
0
30
0
70
128
71
1
72
7
73
8
0
VERTEX
8
OBJECT__35
10
0
20
0
30
0
70
128
71
8
72
9
73
1
0
VERTEX
8
OBJECT__35
10
0
20
0
30
0
70
128
71
8
72
10
73
9
0
VERTEX
8
OBJECT__35
10
0
20
0
30
0
70
128
71
5
72
7
73
1
0
SEQEND
8
OBJECT__35
0
POLYLINE
8
OBJECT__36
66
1
70
64
71
12
72
10
62
253
0
VERTEX
8
OBJECT__36
10
27.961000
20
100.350998
30
-28.017000
70
192
0
VERTEX
8
OBJECT__36
10
27.798000
20
100.018997
30
-29.638000
70
192
0
VERTEX
8
OBJECT__36
10
27.306999
20
100.367996
30
-29.266001
70
192
0
VERTEX
8
OBJECT__36
10
27.344000
20
101.141998
30
-27.882999
70
192
0
VERTEX
8
OBJECT__36
10
27.962000
20
100.834999
30
-27.629000
70
192
0
VERTEX
8
OBJECT__36
10
27.291000
20
100.307999
30
-29.914000
70
192
0
VERTEX
8
OBJECT__36
10
27.361000
20
102.128998
30
-27.224001
70
192
0
VERTEX
8
OBJECT__36
10
27.365000
20
103.157997
30
-27.062000
70
192
0
VERTEX
8
OBJECT__36
10
27.872999
20
102.869003
30
-26.785999
70
192
0
VERTEX
8
OBJECT__36
10
27.964001
20
101.722000
30
-26.919001
70
192
0
VERTEX
8
OBJECT__36
10
27.347000
20
101.219002
30
-27.746000
70
192
0
VERTEX
8
OBJECT__36
10
27.344000
20
101.142998
30
-27.881001
70
192
0
VERTEX
8
OBJECT__36
10
0
20
0
30
0
70
128
71
1
72
2
73
3
0
VERTEX
8
OBJECT__36
10
0
20
0
30
0
70
128
71
4
72
5
73
1
0
VERTEX
8
OBJECT__36
10
0
20
0
30
0
70
128
71
3
72
4
73
1
0
VERTEX
8
OBJECT__36
10
0
20
0
30
0
70
128
71
2
72
6
73
3
0
VERTEX
8
OBJECT__36
10
0
20
0
30
0
70
128
71
7
72
8
73
9
0
VERTEX
8
OBJECT__36
10
0
20
0
30
0
70
128
71
10
72
5
73
11
0
VERTEX
8
OBJECT__36
10
0
20
0
30
0
70
128
71
11
72
7
73
10
0
VERTEX
8
OBJECT__36
10
0
20
0
30
0
70
128
71
5
72
12
73
11
0
VERTEX
8
OBJECT__36
10
0
20
0
30
0
70
128
71
9
72
10
73
7
0
VERTEX
8
OBJECT__36
10
0
20
0
30
0
70
128
71
4
72
12
73
5
0
SEQEND
8
OBJECT__36
0
POLYLINE
8
OBJECT__37
66
1
70
64
71
6
72
4
62
253
0
VERTEX
8
OBJECT__37
10
27.872999
20
102.869003
30
-26.785999
70
192
0
VERTEX
8
OBJECT__37
10
27.365000
20
103.157997
30
-27.062000
70
192
0
VERTEX
8
OBJECT__37
10
27.365000
20
116.842003
30
-27.062000
70
192
0
VERTEX
8
OBJECT__37
10
27.872999
20
117.130997
30
-26.785999
70
192
0
VERTEX
8
OBJECT__37
10
32.084000
20
119.527000
30
-24.499001
70
192
0
VERTEX
8
OBJECT__37
10
32.084000
20
100.473000
30
-24.499001
70
192
0
VERTEX
8
OBJECT__37
10
0
20
0
30
0
70
128
71
1
72
2
73
3
0
VERTEX
8
OBJECT__37
10
0
20
0
30
0
70
128
71
3
72
4
73
1
0
VERTEX
8
OBJECT__37
10
0
20
0
30
0
70
128
71
5
72
6
73
1
0
VERTEX
8
OBJECT__37
10
0
20
0
30
0
70
128
71
4
72
5
73
1
0
SEQEND
8
OBJECT__37
0
POLYLINE
8
OBJECT__38
66
1
70
64
71
15
72
13
62
253
0
VERTEX
8
OBJECT__38
10
32.450001
20
119.527000
30
-23.903000
70
192
0
VERTEX
8
OBJECT__38
10
32.084000
20
119.527000
30
-24.499001
70
192
0
VERTEX
8
OBJECT__38
10
32.143002
20
120.563004
30
-24.618000
70
192
0
VERTEX
8
OBJECT__38
10
32.445000
20
120.737999
30
-24.087000
70
192
0
VERTEX
8
OBJECT__38
10
32.160999
20
121.371002
30
-25.013000
70
192
0
VERTEX
8
OBJECT__38
10
32.410999
20
122.439003
30
-25.382000
70
192
0
VERTEX
8
OBJECT__38
10
32.431999
20
121.699997
30
-24.587000
70
192
0
VERTEX
8
OBJECT__38
10
32.153000
20
121.609001
30
-25.270000
70
192
0
VERTEX
8
OBJECT__38
10
32.084999
20
122.306000
30
-26.487000
70
192
0
VERTEX
8
OBJECT__38
10
32.014000
20
122.378998
30
-27.339001
70
192
0
VERTEX
8
OBJECT__38
10
32.221001
20
122.488998
30
-26.709999
70
192
0
VERTEX
8
OBJECT__38
10
32.008999
20
122.376999
30
-27.351999
70
192
0
VERTEX
8
OBJECT__38
10
32.140999
20
121.980003
30
-25.672001
70
192
0
VERTEX
8
OBJECT__38
10
32.269001
20
122.513000
30
-26.423000
70
192
0
VERTEX
8
OBJECT__38
10
32.404999
20
122.579002
30
-25.618999
70
192
0
VERTEX
8
OBJECT__38
10
0
20
0
30
0
70
128
71
1
72
2
73
3
0
VERTEX
8
OBJECT__38
10
0
20
0
30
0
70
128
71
4
72
3
73
5
0
VERTEX
8
OBJECT__38
10
0
20
0
30
0
70
128
71
6
72
7
73
8
0
VERTEX
8
OBJECT__38
10
0
20
0
30
0
70
128
71
7
72
5
73
8
0
VERTEX
8
OBJECT__38
10
0
20
0
30
0
70
128
71
9
72
10
73
11
0
VERTEX
8
OBJECT__38
10
0
20
0
30
0
70
128
71
9
72
12
73
10
0
VERTEX
8
OBJECT__38
10
0
20
0
30
0
70
128
71
13
72
9
73
14
0
VERTEX
8
OBJECT__38
10
0
20
0
30
0
70
128
71
14
72
15
73
13
0
VERTEX
8
OBJECT__38
10
0
20
0
30
0
70
128
71
15
72
6
73
13
0
VERTEX
8
OBJECT__38
10
0
20
0
30
0
70
128
71
11
72
14
73
9
0
VERTEX
8
OBJECT__38
10
0
20
0
30
0
70
128
71
8
72
13
73
6
0
VERTEX
8
OBJECT__38
10
0
20
0
30
0
70
128
71
5
72
7
73
4
0
VERTEX
8
OBJECT__38
10
0
20
0
30
0
70
128
71
3
72
4
73
1
0
SEQEND
8
OBJECT__38
0
POLYLINE
8
OBJECT__39
66
1
70
64
71
10
72
8
62
253
0
VERTEX
8
OBJECT__39
10
25.197001
20
101.481003
30
-71.661003
70
192
0
VERTEX
8
OBJECT__39
10
25.271000
20
100.307999
30
-68.832001
70
192
0
VERTEX
8
OBJECT__39
10
26.236000
20
100.531998
30
-70.182999
70
192
0
VERTEX
8
OBJECT__39
10
26.205000
20
101.184998
30
-71.357002
70
192
0
VERTEX
8
OBJECT__39
10
26.198000
20
101.513000
30
-71.652000
70
192
0
VERTEX
8
OBJECT__39
10
26.271000
20
100.307999
30
-68.858002
70
192
0
VERTEX
8
OBJECT__39
10
25.166000
20
104.307999
30
-72.831001
70
192
0
VERTEX
8
OBJECT__39
10
26.181999
20
102.181000
30
-72.249001
70
192
0
VERTEX
8
OBJECT__39
10
26.167999
20
103.447998
30
-72.764999
70
192
0
VERTEX
8
OBJECT__39
10
26.166000
20
104.307999
30
-72.857002
70
192
0
VERTEX
8
OBJECT__39
10
0
20
0
30
0
70
128
71
1
72
2
73
3
0
VERTEX
8
OBJECT__39
10
0
20
0
30
0
70
128
71
3
72
4
73
1
0
VERTEX
8
OBJECT__39
10
0
20
0
30
0
70
128
71
4
72
5
73
1
0
VERTEX
8
OBJECT__39
10
0
20
0
30
0
70
128
71
2
72
6
73
3
0
VERTEX
8
OBJECT__39
10
0
20
0
30
0
70
128
71
7
72
1
73
8
0
VERTEX
8
OBJECT__39
10
0
20
0
30
0
70
128
71
1
72
5
73
8
0
VERTEX
8
OBJECT__39
10
0
20
0
30
0
70
128
71
8
72
9
73
7
0
VERTEX
8
OBJECT__39
10
0
20
0
30
0
70
128
71
9
72
10
73
7
0
SEQEND
8
OBJECT__39
0
POLYLINE
8
OBJECT__40
66
1
70
64
71
16
72
14
62
253
0
VERTEX
8
OBJECT__40
10
26.236000
20
100.531998
30
-70.182999
70
192
0
VERTEX
8
OBJECT__40
10
26.271000
20
100.307999
30
-68.858002
70
192
0
VERTEX
8
OBJECT__40
10
26.763000
20
100.018997
30
-69.160004
70
192
0
VERTEX
8
OBJECT__40
10
26.205000
20
101.184998
30
-71.357002
70
192
0
VERTEX
8
OBJECT__40
10
31.193001
20
97.420998
30
-71.875000
70
192
0
VERTEX
8
OBJECT__40
10
31.159000
20
97.644997
30
-73.197998
70
192
0
VERTEX
8
OBJECT__40
10
31.128000
20
98.296997
30
-74.372002
70
192
0
VERTEX
8
OBJECT__40
10
31.120001
20
98.626999
30
-74.667999
70
192
0
VERTEX
8
OBJECT__40
10
26.198000
20
101.513000
30
-71.652000
70
192
0
VERTEX
8
OBJECT__40
10
31.105000
20
99.292999
30
-75.264999
70
192
0
VERTEX
8
OBJECT__40
10
31.091000
20
100.559998
30
-75.780998
70
192
0
VERTEX
8
OBJECT__40
10
26.181999
20
102.181000
30
-72.249001
70
192
0
VERTEX
8
OBJECT__40
10
31.089001
20
101.420998
30
-75.873001
70
192
0
VERTEX
8
OBJECT__40
10
26.167999
20
103.447998
30
-72.764999
70
192
0
VERTEX
8
OBJECT__40
10
26.658001
20
104.018997
30
-73.157997
70
192
0
VERTEX
8
OBJECT__40
10
26.166000
20
104.307999
30
-72.857002
70
192
0
VERTEX
8
OBJECT__40
10
0
20
0
30
0
70
128
71
1
72
2
73
3
0
VERTEX
8
OBJECT__40
10
0
20
0
30
0
70
128
71
4
72
1
73
5
0
VERTEX
8
OBJECT__40
10
0
20
0
30
0
70
128
71
5
72
6
73
4
0
VERTEX
8
OBJECT__40
10
0
20
0
30
0
70
128
71
6
72
7
73
4
0
VERTEX
8
OBJECT__40
10
0
20
0
30
0
70
128
71
8
72
9
73
4
0
VERTEX
8
OBJECT__40
10
0
20
0
30
0
70
128
71
4
72
7
73
8
0
VERTEX
8
OBJECT__40
10
0
20
0
30
0
70
128
71
10
72
11
73
12
0
VERTEX
8
OBJECT__40
10
0
20
0
30
0
70
128
71
9
72
8
73
10
0
VERTEX
8
OBJECT__40
10
0
20
0
30
0
70
128
71
12
72
9
73
10
0
VERTEX
8
OBJECT__40
10
0
20
0
30
0
70
128
71
12
72
11
73
13
0
VERTEX
8
OBJECT__40
10
0
20
0
30
0
70
128
71
14
72
13
73
15
0
VERTEX
8
OBJECT__40
10
0
20
0
30
0
70
128
71
15
72
16
73
14
0
VERTEX
8
OBJECT__40
10
0
20
0
30
0
70
128
71
13
72
14
73
12
0
VERTEX
8
OBJECT__40
10
0
20
0
30
0
70
128
71
3
72
5
73
1
0
SEQEND
8
OBJECT__40
0
POLYLINE
8
OBJECT__41
66
1
70
64
71
6
72
4
62
253
0
VERTEX
8
OBJECT__41
10
26.658001
20
104.018997
30
-73.157997
70
192
0
VERTEX
8
OBJECT__41
10
26.658001
20
115.981003
30
-73.157997
70
192
0
VERTEX
8
OBJECT__41
10
26.166000
20
115.692001
30
-72.857002
70
192
0
VERTEX
8
OBJECT__41
10
31.089001
20
118.579002
30
-75.873001
70
192
0
VERTEX
8
OBJECT__41
10
26.166000
20
104.307999
30
-72.857002
70
192
0
VERTEX
8
OBJECT__41
10
31.089001
20
101.420998
30
-75.873001
70
192
0
VERTEX
8
OBJECT__41
10
0
20
0
30
0
70
128
71
1
72
2
73
3
0
VERTEX
8
OBJECT__41
10
0
20
0
30
0
70
128
71
1
72
4
73
2
0
VERTEX
8
OBJECT__41
10
0
20
0
30
0
70
128
71
3
72
5
73
1
0
VERTEX
8
OBJECT__41
10
0
20
0
30
0
70
128
71
1
72
6
73
4
0
SEQEND
8
OBJECT__41
0
POLYLINE
8
OBJECT__42
66
1
70
64
71
49
72
49
62
253
0
VERTEX
8
OBJECT__42
10
32.450001
20
100.473000
30
-23.903000
70
192
0
VERTEX
8
OBJECT__42
10
33.556999
20
116.287003
30
18.379999
70
192
0
VERTEX
8
OBJECT__42
10
33.583000
20
110.000000
30
19.375000
70
192
0
VERTEX
8
OBJECT__42
10
33.556999
20
103.712997
30
18.379999
70
192
0
VERTEX
8
OBJECT__42
10
32.450001
20
119.527000
30
-23.903000
70
192
0
VERTEX
8
OBJECT__42
10
33.480999
20
121.958000
30
15.491000
70
192
0
VERTEX
8
OBJECT__42
10
33.362999
20
93.542000
30
10.992000
70
192
0
VERTEX
8
OBJECT__42
10
33.215000
20
90.652000
30
5.323000
70
192
0
VERTEX
8
OBJECT__42
10
32.445000
20
120.737999
30
-24.087000
70
192
0
VERTEX
8
OBJECT__42
10
33.215000
20
129.348007
30
5.323000
70
192
0
VERTEX
8
OBJECT__42
10
33.480999
20
98.042000
30
15.491000
70
192
0
VERTEX
8
OBJECT__42
10
32.445999
20
99.436996
30
-24.035000
70
192
0
VERTEX
8
OBJECT__42
10
33.049999
20
89.655998
30
-0.962000
70
192
0
VERTEX
8
OBJECT__42
10
33.018002
20
130.306000
30
-2.194000
70
192
0
VERTEX
8
OBJECT__42
10
33.049999
20
130.343994
30
-0.962000
70
192
0
VERTEX
8
OBJECT__42
10
33.362999
20
126.458000
30
10.992000
70
192
0
VERTEX
8
OBJECT__42
10
33.014000
20
89.700996
30
-2.341000
70
192
0
VERTEX
8
OBJECT__42
10
33.013000
20
89.700996
30
-2.396000
70
192
0
VERTEX
8
OBJECT__42
10
33.016998
20
89.695999
30
-2.232000
70
192
0
VERTEX
8
OBJECT__42
10
30.855000
20
129.322998
30
-84.782997
70
192
0
VERTEX
8
OBJECT__42
10
31.120001
20
121.373001
30
-74.667999
70
192
0
VERTEX
8
OBJECT__42
10
31.105000
20
120.707001
30
-75.264999
70
192
0
VERTEX
8
OBJECT__42
10
30.951000
20
130.300995
30
-81.134003
70
192
0
VERTEX
8
OBJECT__42
10
33.016998
20
130.302994
30
-2.250000
70
192
0
VERTEX
8
OBJECT__42
10
32.431999
20
121.699997
30
-24.587000
70
192
0
VERTEX
8
OBJECT__42
10
33.014000
20
130.300995
30
-2.365000
70
192
0
VERTEX
8
OBJECT__42
10
31.128000
20
121.703003
30
-74.372002
70
192
0
VERTEX
8
OBJECT__42
10
32.404999
20
122.579002
30
-25.618999
70
192
0
VERTEX
8
OBJECT__42
10
32.435001
20
98.469002
30
-24.466999
70
192
0
VERTEX
8
OBJECT__42
10
31.120001
20
98.626999
30
-74.667999
70
192
0
VERTEX
8
OBJECT__42
10
31.128000
20
98.296997
30
-74.372002
70
192
0
VERTEX
8
OBJECT__42
10
30.951000
20
89.700996
30
-81.134003
70
192
0
VERTEX
8
OBJECT__42
10
30.855000
20
90.679001
30
-84.782997
70
192
0
VERTEX
8
OBJECT__42
10
30.785999
20
93.350998
30
-87.454002
70
192
0
VERTEX
8
OBJECT__42
10
31.105000
20
99.292999
30
-75.264999
70
192
0
VERTEX
8
OBJECT__42
10
30.785999
20
126.651001
30
-87.454002
70
192
0
VERTEX
8
OBJECT__42
10
31.091000
20
119.440002
30
-75.780998
70
192
0
VERTEX
8
OBJECT__42
10
31.159000
20
122.355003
30
-73.197998
70
192
0
VERTEX
8
OBJECT__42
10
31.193001
20
122.579002
30
-71.875000
70
192
0
VERTEX
8
OBJECT__42
10
32.404999
20
97.420998
30
-25.618999
70
192
0
VERTEX
8
OBJECT__42
10
32.416000
20
97.686996
30
-25.202000
70
192
0
VERTEX
8
OBJECT__42
10
31.193001
20
97.420998
30
-71.875000
70
192
0
VERTEX
8
OBJECT__42
10
30.760000
20
97.000999
30
-88.431999
70
192
0
VERTEX
8
OBJECT__42
10
30.760000
20
123.000999
30
-88.431999
70
192
0
VERTEX
8
OBJECT__42
10
31.089001
20
118.579002
30
-75.873001
70
192
0
VERTEX
8
OBJECT__42
10
32.410999
20
122.439003
30
-25.382000
70
192
0
VERTEX
8
OBJECT__42
10
31.159000
20
97.644997
30
-73.197998
70
192
0
VERTEX
8
OBJECT__42
10
31.091000
20
100.559998
30
-75.780998
70
192
0
VERTEX
8
OBJECT__42
10
31.089001
20
101.420998
30
-75.873001
70
192
0
VERTEX
8
OBJECT__42
10
0
20
0
30
0
70
128
71
1
72
2
73
3
0
VERTEX
8
OBJECT__42
10
0
20
0
30
0
70
128
71
3
72
4
73
1
0
VERTEX
8
OBJECT__42
10
0
20
0
30
0
70
128
71
1
72
5
73
6
0
VERTEX
8
OBJECT__42
10
0
20
0
30
0
70
128
71
1
72
7
73
8
0
VERTEX
8
OBJECT__42
10
0
20
0
30
0
70
128
71
5
72
9
73
10
0
VERTEX
8
OBJECT__42
10
0
20
0
30
0
70
128
71
6
72
2
73
1
0
VERTEX
8
OBJECT__42
10
0
20
0
30
0
70
128
71
1
72
11
73
7
0
VERTEX
8
OBJECT__42
10
0
20
0
30
0
70
128
71
12
72
8
73
13
0
VERTEX
8
OBJECT__42
10
0
20
0
30
0
70
128
71
9
72
14
73
15
0
VERTEX
8
OBJECT__42
10
0
20
0
30
0
70
128
71
10
72
16
73
5
0
VERTEX
8
OBJECT__42
10
0
20
0
30
0
70
128
71
8
72
12
73
1
0
VERTEX
8
OBJECT__42
10
0
20
0
30
0
70
128
71
12
72
17
73
18
0
VERTEX
8
OBJECT__42
10
0
20
0
30
0
70
128
71
13
72
19
73
12
0
VERTEX
8
OBJECT__42
10
0
20
0
30
0
70
128
71
20
72
21
73
22
0
VERTEX
8
OBJECT__42
10
0
20
0
30
0
70
128
71
21
72
20
73
23
0
VERTEX
8
OBJECT__42
10
0
20
0
30
0
70
128
71
9
72
24
73
14
0
VERTEX
8
OBJECT__42
10
0
20
0
30
0
70
128
71
9
72
25
73
26
0
VERTEX
8
OBJECT__42
10
0
20
0
30
0
70
128
71
4
72
11
73
1
0
VERTEX
8
OBJECT__42
10
0
20
0
30
0
70
128
71
19
72
17
73
12
0
VERTEX
8
OBJECT__42
10
0
20
0
30
0
70
128
71
23
72
27
73
21
0
VERTEX
8
OBJECT__42
10
0
20
0
30
0
70
128
71
23
72
26
73
28
0
VERTEX
8
OBJECT__42
10
0
20
0
30
0
70
128
71
26
72
24
73
9
0
VERTEX
8
OBJECT__42
10
0
20
0
30
0
70
128
71
18
72
29
73
12
0
VERTEX
8
OBJECT__42
10
0
20
0
30
0
70
128
71
30
72
31
73
32
0
VERTEX
8
OBJECT__42
10
0
20
0
30
0
70
128
71
33
72
34
73
35
0
VERTEX
8
OBJECT__42
10
0
20
0
30
0
70
128
71
36
72
22
73
37
0
VERTEX
8
OBJECT__42
10
0
20
0
30
0
70
128
71
23
72
38
73
27
0
VERTEX
8
OBJECT__42
10
0
20
0
30
0
70
128
71
28
72
39
73
23
0
VERTEX
8
OBJECT__42
10
0
20
0
30
0
70
128
71
16
72
6
73
5
0
VERTEX
8
OBJECT__42
10
0
20
0
30
0
70
128
71
18
72
40
73
41
0
VERTEX
8
OBJECT__42
10
0
20
0
30
0
70
128
71
32
72
42
73
40
0
VERTEX
8
OBJECT__42
10
0
20
0
30
0
70
128
71
35
72
30
73
33
0
VERTEX
8
OBJECT__42
10
0
20
0
30
0
70
128
71
43
72
44
73
45
0
VERTEX
8
OBJECT__42
10
0
20
0
30
0
70
128
71
37
72
44
73
36
0
VERTEX
8
OBJECT__42
10
0
20
0
30
0
70
128
71
39
72
38
73
23
0
VERTEX
8
OBJECT__42
10
0
20
0
30
0
70
128
71
26
72
25
73
46
0
VERTEX
8
OBJECT__42
10
0
20
0
30
0
70
128
71
41
72
29
73
18
0
VERTEX
8
OBJECT__42
10
0
20
0
30
0
70
128
71
32
72
47
73
42
0
VERTEX
8
OBJECT__42
10
0
20
0
30
0
70
128
71
32
72
33
73
30
0
VERTEX
8
OBJECT__42
10
0
20
0
30
0
70
128
71
34
72
43
73
48
0
VERTEX
8
OBJECT__42
10
0
20
0
30
0
70
128
71
45
72
49
73
43
0
VERTEX
8
OBJECT__42
10
0
20
0
30
0
70
128
71
22
72
36
73
20
0
VERTEX
8
OBJECT__42
10
0
20
0
30
0
70
128
71
15
72
10
73
9
0
VERTEX
8
OBJECT__42
10
0
20
0
30
0
70
128
71
31
72
47
73
32
0
VERTEX
8
OBJECT__42
10
0
20
0
30
0
70
128
71
49
72
48
73
43
0
VERTEX
8
OBJECT__42
10
0
20
0
30
0
70
128
71
46
72
28
73
26
0
VERTEX
8
OBJECT__42
10
0
20
0
30
0
70
128
71
48
72
35
73
34
0
VERTEX
8
OBJECT__42
10
0
20
0
30
0
70
128
71
40
72
18
73
32
0
VERTEX
8
OBJECT__42
10
0
20
0
30
0
70
128
71
37
72
45
73
44
0
SEQEND
8
OBJECT__42
0
POLYLINE
8
OBJECT__43
66
1
70
64
71
10
72
8
62
253
0
VERTEX
8
OBJECT__43
10
31.193001
20
97.420998
30
-71.875000
70
192
0
VERTEX
8
OBJECT__43
10
32.014000
20
97.621002
30
-27.339001
70
192
0
VERTEX
8
OBJECT__43
10
32.212002
20
97.515999
30
-26.740999
70
192
0
VERTEX
8
OBJECT__43
10
26.763000
20
100.018997
30
-69.160004
70
192
0
VERTEX
8
OBJECT__43
10
26.271000
20
100.307999
30
-68.858002
70
192
0
VERTEX
8
OBJECT__43
10
27.291000
20
100.307999
30
-29.914000
70
192
0
VERTEX
8
OBJECT__43
10
32.008999
20
97.623001
30
-27.351999
70
192
0
VERTEX
8
OBJECT__43
10
32.301998
20
97.471001
30
-26.215000
70
192
0
VERTEX
8
OBJECT__43
10
27.798000
20
100.018997
30
-29.638000
70
192
0
VERTEX
8
OBJECT__43
10
32.404999
20
97.420998
30
-25.618999
70
192
0
VERTEX
8
OBJECT__43
10
0
20
0
30
0
70
128
71
1
72
2
73
3
0
VERTEX
8
OBJECT__43
10
0
20
0
30
0
70
128
71
4
72
5
73
6
0
VERTEX
8
OBJECT__43
10
0
20
0
30
0
70
128
71
1
72
7
73
2
0
VERTEX
8
OBJECT__43
10
0
20
0
30
0
70
128
71
3
72
8
73
1
0
VERTEX
8
OBJECT__43
10
0
20
0
30
0
70
128
71
9
72
1
73
4
0
VERTEX
8
OBJECT__43
10
0
20
0
30
0
70
128
71
8
72
10
73
1
0
VERTEX
8
OBJECT__43
10
0
20
0
30
0
70
128
71
6
72
9
73
4
0
VERTEX
8
OBJECT__43
10
0
20
0
30
0
70
128
71
9
72
7
73
1
0
SEQEND
8
OBJECT__43
0
POLYLINE
8
OBJECT__44
66
1
70
64
71
4
72
2
62
253
0
VERTEX
8
OBJECT__44
10
32.450001
20
100.473000
30
-23.903000
70
192
0
VERTEX
8
OBJECT__44
10
32.084000
20
100.473000
30
-24.499001
70
192
0
VERTEX
8
OBJECT__44
10
32.084000
20
119.527000
30
-24.499001
70
192
0
VERTEX
8
OBJECT__44
10
32.450001
20
119.527000
30
-23.903000
70
192
0
VERTEX
8
OBJECT__44
10
0
20
0
30
0
70
128
71
1
72
2
73
3
0
VERTEX
8
OBJECT__44
10
0
20
0
30
0
70
128
71
3
72
4
73
1
0
SEQEND
8
OBJECT__44
0
POLYLINE
8
OBJECT__45
66
1
70
64
71
15
72
13
62
253
0
VERTEX
8
OBJECT__45
10
32.435001
20
98.469002
30
-24.466999
70
192
0
VERTEX
8
OBJECT__45
10
32.416000
20
97.686996
30
-25.202000
70
192
0
VERTEX
8
OBJECT__45
10
32.153000
20
98.389000
30
-25.271999
70
192
0
VERTEX
8
OBJECT__45
10
32.147999
20
98.122002
30
-25.521999
70
192
0
VERTEX
8
OBJECT__45
10
32.445999
20
99.436996
30
-24.035000
70
192
0
VERTEX
8
OBJECT__45
10
32.160999
20
98.771004
30
-24.915001
70
192
0
VERTEX
8
OBJECT__45
10
32.450001
20
100.473000
30
-23.903000
70
192
0
VERTEX
8
OBJECT__45
10
32.136002
20
99.584999
30
-24.579000
70
192
0
VERTEX
8
OBJECT__45
10
32.404999
20
97.420998
30
-25.618999
70
192
0
VERTEX
8
OBJECT__45
10
32.301998
20
97.471001
30
-26.215000
70
192
0
VERTEX
8
OBJECT__45
10
32.098000
20
97.735001
30
-26.320000
70
192
0
VERTEX
8
OBJECT__45
10
32.212002
20
97.515999
30
-26.740999
70
192
0
VERTEX
8
OBJECT__45
10
32.014000
20
97.621002
30
-27.339001
70
192
0
VERTEX
8
OBJECT__45
10
32.008999
20
97.623001
30
-27.351999
70
192
0
VERTEX
8
OBJECT__45
10
32.084000
20
100.473000
30
-24.499001
70
192
0
VERTEX
8
OBJECT__45
10
0
20
0
30
0
70
128
71
1
72
2
73
3
0
VERTEX
8
OBJECT__45
10
0
20
0
30
0
70
128
71
2
72
4
73
3
0
VERTEX
8
OBJECT__45
10
0
20
0
30
0
70
128
71
5
72
1
73
6
0
VERTEX
8
OBJECT__45
10
0
20
0
30
0
70
128
71
7
72
5
73
8
0
VERTEX
8
OBJECT__45
10
0
20
0
30
0
70
128
71
4
72
9
73
10
0
VERTEX
8
OBJECT__45
10
0
20
0
30
0
70
128
71
4
72
2
73
9
0
VERTEX
8
OBJECT__45
10
0
20
0
30
0
70
128
71
11
72
10
73
12
0
VERTEX
8
OBJECT__45
10
0
20
0
30
0
70
128
71
12
72
13
73
11
0
VERTEX
8
OBJECT__45
10
0
20
0
30
0
70
128
71
13
72
14
73
11
0
VERTEX
8
OBJECT__45
10
0
20
0
30
0
70
128
71
10
72
11
73
4
0
VERTEX
8
OBJECT__45
10
0
20
0
30
0
70
128
71
8
72
15
73
7
0
VERTEX
8
OBJECT__45
10
0
20
0
30
0
70
128
71
6
72
8
73
5
0
VERTEX
8
OBJECT__45
10
0
20
0
30
0
70
128
71
3
72
6
73
1
0
SEQEND
8
OBJECT__45
0
POLYLINE
8
OBJECT__46
66
1
70
64
71
12
72
10
62
253
0
VERTEX
8
OBJECT__46
10
27.962000
20
100.834999
30
-27.629000
70
192
0
VERTEX
8
OBJECT__46
10
32.136002
20
99.584999
30
-24.579000
70
192
0
VERTEX
8
OBJECT__46
10
32.160999
20
98.771004
30
-24.915001
70
192
0
VERTEX
8
OBJECT__46
10
27.964001
20
101.722000
30
-26.919001
70
192
0
VERTEX
8
OBJECT__46
10
32.084000
20
100.473000
30
-24.499001
70
192
0
VERTEX
8
OBJECT__46
10
32.153000
20
98.389000
30
-25.271999
70
192
0
VERTEX
8
OBJECT__46
10
32.147999
20
98.122002
30
-25.521999
70
192
0
VERTEX
8
OBJECT__46
10
32.098000
20
97.735001
30
-26.320000
70
192
0
VERTEX
8
OBJECT__46
10
27.961000
20
100.350998
30
-28.017000
70
192
0
VERTEX
8
OBJECT__46
10
32.008999
20
97.623001
30
-27.351999
70
192
0
VERTEX
8
OBJECT__46
10
27.798000
20
100.018997
30
-29.638000
70
192
0
VERTEX
8
OBJECT__46
10
27.872999
20
102.869003
30
-26.785999
70
192
0
VERTEX
8
OBJECT__46
10
0
20
0
30
0
70
128
71
1
72
2
73
3
0
VERTEX
8
OBJECT__46
10
0
20
0
30
0
70
128
71
1
72
4
73
5
0
VERTEX
8
OBJECT__46
10
0
20
0
30
0
70
128
71
5
72
2
73
1
0
VERTEX
8
OBJECT__46
10
0
20
0
30
0
70
128
71
3
72
6
73
1
0
VERTEX
8
OBJECT__46
10
0
20
0
30
0
70
128
71
7
72
8
73
9
0
VERTEX
8
OBJECT__46
10
0
20
0
30
0
70
128
71
1
72
6
73
7
0
VERTEX
8
OBJECT__46
10
0
20
0
30
0
70
128
71
9
72
8
73
10
0
VERTEX
8
OBJECT__46
10
0
20
0
30
0
70
128
71
10
72
11
73
9
0
VERTEX
8
OBJECT__46
10
0
20
0
30
0
70
128
71
9
72
1
73
7
0
VERTEX
8
OBJECT__46
10
0
20
0
30
0
70
128
71
4
72
12
73
5
0
SEQEND
8
OBJECT__46
0
POLYLINE
8
OBJECT__47
66
1
70
64
71
38
72
38
62
253
0
VERTEX
8
OBJECT__47
10
0.000000
20
106.097000
30
22.135000
70
192
0
VERTEX
8
OBJECT__47
10
0.000000
20
103.585999
30
19.740999
70
192
0
VERTEX
8
OBJECT__47
10
0.000000
20
110.000000
30
20.757000
70
192
0
VERTEX
8
OBJECT__47
10
0.000000
20
87.524002
30
0.000000
70
192
0
VERTEX
8
OBJECT__47
10
0.000000
20
88.878998
30
-7.687000
70
192
0
VERTEX
8
OBJECT__47
10
0.000000
20
90.259003
30
-6.414000
70
192
0
VERTEX
8
OBJECT__47
10
0.000000
20
92.781998
30
-14.448000
70
192
0
VERTEX
8
OBJECT__47
10
0.000000
20
93.207001
30
-12.201000
70
192
0
VERTEX
8
OBJECT__47
10
0.000000
20
98.762001
30
-19.465000
70
192
0
VERTEX
8
OBJECT__47
10
0.000000
20
106.097000
30
-22.135000
70
192
0
VERTEX
8
OBJECT__47
10
0.000000
20
103.585999
30
-19.740999
70
192
0
VERTEX
8
OBJECT__47
10
0.000000
20
127.218002
30
14.448000
70
192
0
VERTEX
8
OBJECT__47
10
0.000000
20
121.237999
30
19.465000
70
192
0
VERTEX
8
OBJECT__47
10
0.000000
20
122.200996
30
16.792999
70
192
0
VERTEX
8
OBJECT__47
10
0.000000
20
113.903000
30
22.135000
70
192
0
VERTEX
8
OBJECT__47
10
0.000000
20
116.414001
30
19.740999
70
192
0
VERTEX
8
OBJECT__47
10
0.000000
20
98.762001
30
19.465000
70
192
0
VERTEX
8
OBJECT__47
10
0.000000
20
97.799004
30
16.792999
70
192
0
VERTEX
8
OBJECT__47
10
0.000000
20
92.781998
30
14.448000
70
192
0
VERTEX
8
OBJECT__47
10
0.000000
20
93.207001
30
12.201000
70
192
0
VERTEX
8
OBJECT__47
10
0.000000
20
88.878998
30
7.687000
70
192
0
VERTEX
8
OBJECT__47
10
0.000000
20
90.259003
30
6.414000
70
192
0
VERTEX
8
OBJECT__47
10
0.000000
20
89.242996
30
0.000000
70
192
0
VERTEX
8
OBJECT__47
10
0.000000
20
97.799004
30
-16.792999
70
192
0
VERTEX
8
OBJECT__47
10
0.000000
20
110.000000
30
-20.757000
70
192
0
VERTEX
8
OBJECT__47
10
0.000000
20
113.903000
30
-22.135000
70
192
0
VERTEX
8
OBJECT__47
10
0.000000
20
116.414001
30
-19.740999
70
192
0
VERTEX
8
OBJECT__47
10
0.000000
20
121.237999
30
-19.465000
70
192
0
VERTEX
8
OBJECT__47
10
0.000000
20
122.200996
30
-16.792999
70
192
0
VERTEX
8
OBJECT__47
10
0.000000
20
131.121002
30
7.687000
70
192
0
VERTEX
8
OBJECT__47
10
0.000000
20
126.792999
30
12.201000
70
192
0
VERTEX
8
OBJECT__47
10
0.000000
20
127.218002
30
-14.448000
70
192
0
VERTEX
8
OBJECT__47
10
0.000000
20
126.792999
30
-12.201000
70
192
0
VERTEX
8
OBJECT__47
10
0.000000
20
132.475998
30
0.000000
70
192
0
VERTEX
8
OBJECT__47
10
0.000000
20
129.740997
30
6.414000
70
192
0
VERTEX
8
OBJECT__47
10
0.000000
20
131.121002
30
-7.687000
70
192
0
VERTEX
8
OBJECT__47
10
0.000000
20
129.740997
30
-6.414000
70
192
0
VERTEX
8
OBJECT__47
10
0.000000
20
130.757004
30
0.000000
70
192
0
VERTEX
8
OBJECT__47
10
0
20
0
30
0
70
128
71
1
72
2
73
3
0
VERTEX
8
OBJECT__47
10
0
20
0
30
0
70
128
71
4
72
5
73
6
0
VERTEX
8
OBJECT__47
10
0
20
0
30
0
70
128
71
5
72
7
73
8
0
VERTEX
8
OBJECT__47
10
0
20
0
30
0
70
128
71
9
72
10
73
11
0
VERTEX
8
OBJECT__47
10
0
20
0
30
0
70
128
71
12
72
13
73
14
0
VERTEX
8
OBJECT__47
10
0
20
0
30
0
70
128
71
13
72
15
73
16
0
VERTEX
8
OBJECT__47
10
0
20
0
30
0
70
128
71
3
72
15
73
1
0
VERTEX
8
OBJECT__47
10
0
20
0
30
0
70
128
71
17
72
18
73
2
0
VERTEX
8
OBJECT__47
10
0
20
0
30
0
70
128
71
19
72
20
73
18
0
VERTEX
8
OBJECT__47
10
0
20
0
30
0
70
128
71
21
72
22
73
20
0
VERTEX
8
OBJECT__47
10
0
20
0
30
0
70
128
71
4
72
23
73
22
0
VERTEX
8
OBJECT__47
10
0
20
0
30
0
70
128
71
8
72
6
73
5
0
VERTEX
8
OBJECT__47
10
0
20
0
30
0
70
128
71
7
72
9
73
24
0
VERTEX
8
OBJECT__47
10
0
20
0
30
0
70
128
71
10
72
25
73
11
0
VERTEX
8
OBJECT__47
10
0
20
0
30
0
70
128
71
26
72
27
73
25
0
VERTEX
8
OBJECT__47
10
0
20
0
30
0
70
128
71
28
72
29
73
27
0
VERTEX
8
OBJECT__47
10
0
20
0
30
0
70
128
71
30
72
12
73
31
0
VERTEX
8
OBJECT__47
10
0
20
0
30
0
70
128
71
16
72
14
73
13
0
VERTEX
8
OBJECT__47
10
0
20
0
30
0
70
128
71
2
72
1
73
17
0
VERTEX
8
OBJECT__47
10
0
20
0
30
0
70
128
71
20
72
19
73
21
0
VERTEX
8
OBJECT__47
10
0
20
0
30
0
70
128
71
6
72
23
73
4
0
VERTEX
8
OBJECT__47
10
0
20
0
30
0
70
128
71
11
72
24
73
9
0
VERTEX
8
OBJECT__47
10
0
20
0
30
0
70
128
71
27
72
26
73
28
0
VERTEX
8
OBJECT__47
10
0
20
0
30
0
70
128
71
32
72
33
73
29
0
VERTEX
8
OBJECT__47
10
0
20
0
30
0
70
128
71
14
72
31
73
12
0
VERTEX
8
OBJECT__47
10
0
20
0
30
0
70
128
71
18
72
17
73
19
0
VERTEX
8
OBJECT__47
10
0
20
0
30
0
70
128
71
24
72
8
73
7
0
VERTEX
8
OBJECT__47
10
0
20
0
30
0
70
128
71
29
72
28
73
32
0
VERTEX
8
OBJECT__47
10
0
20
0
30
0
70
128
71
34
72
30
73
35
0
VERTEX
8
OBJECT__47
10
0
20
0
30
0
70
128
71
3
72
16
73
15
0
VERTEX
8
OBJECT__47
10
0
20
0
30
0
70
128
71
25
72
10
73
26
0
VERTEX
8
OBJECT__47
10
0
20
0
30
0
70
128
71
36
72
37
73
33
0
VERTEX
8
OBJECT__47
10
0
20
0
30
0
70
128
71
31
72
35
73
30
0
VERTEX
8
OBJECT__47
10
0
20
0
30
0
70
128
71
33
72
32
73
36
0
VERTEX
8
OBJECT__47
10
0
20
0
30
0
70
128
71
22
72
21
73
4
0
VERTEX
8
OBJECT__47
10
0
20
0
30
0
70
128
71
34
72
38
73
37
0
VERTEX
8
OBJECT__47
10
0
20
0
30
0
70
128
71
37
72
36
73
34
0
VERTEX
8
OBJECT__47
10
0
20
0
30
0
70
128
71
35
72
38
73
34
0
SEQEND
8
OBJECT__47
0
POLYLINE
8
OBJECT__48
66
1
70
64
71
60
72
80
62
253
0
VERTEX
8
OBJECT__48
10
6.026000
20
128.173004
30
0.000000
70
192
0
VERTEX
8
OBJECT__48
10
11.000000
20
123.900002
30
0.000000
70
192
0
VERTEX
8
OBJECT__48
10
11.000000
20
123.220001
30
-4.295000
70
192
0
VERTEX
8
OBJECT__48
10
6.026000
20
124.702003
30
-10.682000
70
192
0
VERTEX
8
OBJECT__48
10
6.026000
20
127.283997
30
-5.616000
70
192
0
VERTEX
8
OBJECT__48
10
6.026000
20
120.681999
30
-14.702000
70
192
0
VERTEX
8
OBJECT__48
10
11.000000
20
121.245003
30
-8.170000
70
192
0
VERTEX
8
OBJECT__48
10
6.026000
20
115.615997
30
-17.284000
70
192
0
VERTEX
8
OBJECT__48
10
11.000000
20
118.169998
30
-11.245000
70
192
0
VERTEX
8
OBJECT__48
10
6.026000
20
110.000000
30
-18.173000
70
192
0
VERTEX
8
OBJECT__48
10
11.000000
20
114.294998
30
-13.220000
70
192
0
VERTEX
8
OBJECT__48
10
6.026000
20
104.384003
30
-17.284000
70
192
0
VERTEX
8
OBJECT__48
10
11.000000
20
110.000000
30
-13.900000
70
192
0
VERTEX
8
OBJECT__48
10
6.026000
20
99.318001
30
-14.702000
70
192
0
VERTEX
8
OBJECT__48
10
11.000000
20
105.705002
30
-13.220000
70
192
0
VERTEX
8
OBJECT__48
10
6.026000
20
95.297997
30
-10.682000
70
192
0
VERTEX
8
OBJECT__48
10
11.000000
20
101.830002
30
-11.245000
70
192
0
VERTEX
8
OBJECT__48
10
11.000000
20
98.754997
30
-8.170000
70
192
0
VERTEX
8
OBJECT__48
10
11.000000
20
96.779999
30
-4.295000
70
192
0
VERTEX
8
OBJECT__48
10
6.026000
20
92.716003
30
-5.616000
70
192
0
VERTEX
8
OBJECT__48
10
11.000000
20
96.099998
30
0.000000
70
192
0
VERTEX
8
OBJECT__48
10
6.026000
20
92.716003
30
5.616000
70
192
0
VERTEX
8
OBJECT__48
10
6.026000
20
91.827003
30
0.000000
70
192
0
VERTEX
8
OBJECT__48
10
11.000000
20
96.779999
30
4.295000
70
192
0
VERTEX
8
OBJECT__48
10
11.000000
20
98.754997
30
8.170000
70
192
0
VERTEX
8
OBJECT__48
10
6.026000
20
99.318001
30
14.702000
70
192
0
VERTEX
8
OBJECT__48
10
6.026000
20
95.297997
30
10.682000
70
192
0
VERTEX
8
OBJECT__48
10
6.026000
20
104.384003
30
17.284000
70
192
0
VERTEX
8
OBJECT__48
10
11.000000
20
101.830002
30
11.245000
70
192
0
VERTEX
8
OBJECT__48
10
6.026000
20
110.000000
30
18.173000
70
192
0
VERTEX
8
OBJECT__48
10
11.000000
20
105.705002
30
13.220000
70
192
0
VERTEX
8
OBJECT__48
10
6.026000
20
115.615997
30
17.284000
70
192
0
VERTEX
8
OBJECT__48
10
11.000000
20
110.000000
30
13.900000
70
192
0
VERTEX
8
OBJECT__48
10
6.026000
20
120.681999
30
14.702000
70
192
0
VERTEX
8
OBJECT__48
10
11.000000
20
114.294998
30
13.220000
70
192
0
VERTEX
8
OBJECT__48
10
6.026000
20
124.702003
30
10.682000
70
192
0
VERTEX
8
OBJECT__48
10
11.000000
20
118.169998
30
11.245000
70
192
0
VERTEX
8
OBJECT__48
10
11.000000
20
121.245003
30
8.170000
70
192
0
VERTEX
8
OBJECT__48
10
11.000000
20
123.220001
30
4.295000
70
192
0
VERTEX
8
OBJECT__48
10
6.026000
20
127.283997
30
5.616000
70
192
0
VERTEX
8
OBJECT__48
10
0.000000
20
130.757004
30
0.000000
70
192
0
VERTEX
8
OBJECT__48
10
0.000000
20
126.792999
30
-12.201000
70
192
0
VERTEX
8
OBJECT__48
10
0.000000
20
129.740997
30
-6.414000
70
192
0
VERTEX
8
OBJECT__48
10
0.000000
20
122.200996
30
-16.792999
70
192
0
VERTEX
8
OBJECT__48
10
0.000000
20
116.414001
30
-19.740999
70
192
0
VERTEX
8
OBJECT__48
10
0.000000
20
110.000000
30
-20.757000
70
192
0
VERTEX
8
OBJECT__48
10
0.000000
20
103.585999
30
-19.740999
70
192
0
VERTEX
8
OBJECT__48
10
0.000000
20
97.799004
30
-16.792999
70
192
0
VERTEX
8
OBJECT__48
10
0.000000
20
90.259003
30
-6.414000
70
192
0
VERTEX
8
OBJECT__48
10
0.000000
20
93.207001
30
-12.201000
70
192
0
VERTEX
8
OBJECT__48
10
0.000000
20
89.242996
30
0.000000
70
192
0
VERTEX
8
OBJECT__48
10
0.000000
20
93.207001
30
12.201000
70
192
0
VERTEX
8
OBJECT__48
10
0.000000
20
90.259003
30
6.414000
70
192
0
VERTEX
8
OBJECT__48
10
0.000000
20
97.799004
30
16.792999
70
192
0
VERTEX
8
OBJECT__48
10
0.000000
20
103.585999
30
19.740999
70
192
0
VERTEX
8
OBJECT__48
10
0.000000
20
110.000000
30
20.757000
70
192
0
VERTEX
8
OBJECT__48
10
0.000000
20
122.200996
30
16.792999
70
192
0
VERTEX
8
OBJECT__48
10
0.000000
20
116.414001
30
19.740999
70
192
0
VERTEX
8
OBJECT__48
10
0.000000
20
126.792999
30
12.201000
70
192
0
VERTEX
8
OBJECT__48
10
0.000000
20
129.740997
30
6.414000
70
192
0
VERTEX
8
OBJECT__48
10
0
20
0
30
0
70
128
71
1
72
2
73
3
0
VERTEX
8
OBJECT__48
10
0
20
0
30
0
70
128
71
4
72
5
73
3
0
VERTEX
8
OBJECT__48
10
0
20
0
30
0
70
128
71
6
72
4
73
7
0
VERTEX
8
OBJECT__48
10
0
20
0
30
0
70
128
71
8
72
6
73
9
0
VERTEX
8
OBJECT__48
10
0
20
0
30
0
70
128
71
10
72
8
73
11
0
VERTEX
8
OBJECT__48
10
0
20
0
30
0
70
128
71
12
72
10
73
13
0
VERTEX
8
OBJECT__48
10
0
20
0
30
0
70
128
71
14
72
12
73
15
0
VERTEX
8
OBJECT__48
10
0
20
0
30
0
70
128
71
16
72
14
73
17
0
VERTEX
8
OBJECT__48
10
0
20
0
30
0
70
128
71
16
72
18
73
19
0
VERTEX
8
OBJECT__48
10
0
20
0
30
0
70
128
71
20
72
19
73
21
0
VERTEX
8
OBJECT__48
10
0
20
0
30
0
70
128
71
22
72
23
73
21
0
VERTEX
8
OBJECT__48
10
0
20
0
30
0
70
128
71
22
72
24
73
25
0
VERTEX
8
OBJECT__48
10
0
20
0
30
0
70
128
71
26
72
27
73
25
0
VERTEX
8
OBJECT__48
10
0
20
0
30
0
70
128
71
28
72
26
73
29
0
VERTEX
8
OBJECT__48
10
0
20
0
30
0
70
128
71
30
72
28
73
31
0
VERTEX
8
OBJECT__48
10
0
20
0
30
0
70
128
71
32
72
30
73
33
0
VERTEX
8
OBJECT__48
10
0
20
0
30
0
70
128
71
34
72
32
73
35
0
VERTEX
8
OBJECT__48
10
0
20
0
30
0
70
128
71
36
72
34
73
37
0
VERTEX
8
OBJECT__48
10
0
20
0
30
0
70
128
71
36
72
38
73
39
0
VERTEX
8
OBJECT__48
10
0
20
0
30
0
70
128
71
40
72
39
73
2
0
VERTEX
8
OBJECT__48
10
0
20
0
30
0
70
128
71
41
72
1
73
5
0
VERTEX
8
OBJECT__48
10
0
20
0
30
0
70
128
71
42
72
43
73
5
0
VERTEX
8
OBJECT__48
10
0
20
0
30
0
70
128
71
44
72
42
73
4
0
VERTEX
8
OBJECT__48
10
0
20
0
30
0
70
128
71
45
72
44
73
6
0
VERTEX
8
OBJECT__48
10
0
20
0
30
0
70
128
71
46
72
45
73
8
0
VERTEX
8
OBJECT__48
10
0
20
0
30
0
70
128
71
47
72
46
73
10
0
VERTEX
8
OBJECT__48
10
0
20
0
30
0
70
128
71
48
72
47
73
12
0
VERTEX
8
OBJECT__48
10
0
20
0
30
0
70
128
71
48
72
14
73
16
0
VERTEX
8
OBJECT__48
10
0
20
0
30
0
70
128
71
49
72
50
73
16
0
VERTEX
8
OBJECT__48
10
0
20
0
30
0
70
128
71
51
72
49
73
20
0
VERTEX
8
OBJECT__48
10
0
20
0
30
0
70
128
71
51
72
23
73
22
0
VERTEX
8
OBJECT__48
10
0
20
0
30
0
70
128
71
52
72
53
73
22
0
VERTEX
8
OBJECT__48
10
0
20
0
30
0
70
128
71
52
72
27
73
26
0
VERTEX
8
OBJECT__48
10
0
20
0
30
0
70
128
71
54
72
26
73
28
0
VERTEX
8
OBJECT__48
10
0
20
0
30
0
70
128
71
55
72
28
73
30
0
VERTEX
8
OBJECT__48
10
0
20
0
30
0
70
128
71
56
72
30
73
32
0
VERTEX
8
OBJECT__48
10
0
20
0
30
0
70
128
71
57
72
58
73
32
0
VERTEX
8
OBJECT__48
10
0
20
0
30
0
70
128
71
59
72
57
73
34
0
VERTEX
8
OBJECT__48
10
0
20
0
30
0
70
128
71
60
72
59
73
36
0
VERTEX
8
OBJECT__48
10
0
20
0
30
0
70
128
71
60
72
40
73
1
0
VERTEX
8
OBJECT__48
10
0
20
0
30
0
70
128
71
1
72
41
73
60
0
VERTEX
8
OBJECT__48
10
0
20
0
30
0
70
128
71
36
72
40
73
60
0
VERTEX
8
OBJECT__48
10
0
20
0
30
0
70
128
71
34
72
36
73
59
0
VERTEX
8
OBJECT__48
10
0
20
0
30
0
70
128
71
32
72
34
73
57
0
VERTEX
8
OBJECT__48
10
0
20
0
30
0
70
128
71
32
72
58
73
56
0
VERTEX
8
OBJECT__48
10
0
20
0
30
0
70
128
71
30
72
56
73
55
0
VERTEX
8
OBJECT__48
10
0
20
0
30
0
70
128
71
28
72
55
73
54
0
VERTEX
8
OBJECT__48
10
0
20
0
30
0
70
128
71
26
72
54
73
52
0
VERTEX
8
OBJECT__48
10
0
20
0
30
0
70
128
71
22
72
27
73
52
0
VERTEX
8
OBJECT__48
10
0
20
0
30
0
70
128
71
22
72
53
73
51
0
VERTEX
8
OBJECT__48
10
0
20
0
30
0
70
128
71
20
72
23
73
51
0
VERTEX
8
OBJECT__48
10
0
20
0
30
0
70
128
71
16
72
20
73
49
0
VERTEX
8
OBJECT__48
10
0
20
0
30
0
70
128
71
16
72
50
73
48
0
VERTEX
8
OBJECT__48
10
0
20
0
30
0
70
128
71
12
72
14
73
48
0
VERTEX
8
OBJECT__48
10
0
20
0
30
0
70
128
71
10
72
12
73
47
0
VERTEX
8
OBJECT__48
10
0
20
0
30
0
70
128
71
8
72
10
73
46
0
VERTEX
8
OBJECT__48
10
0
20
0
30
0
70
128
71
6
72
8
73
45
0
VERTEX
8
OBJECT__48
10
0
20
0
30
0
70
128
71
4
72
6
73
44
0
VERTEX
8
OBJECT__48
10
0
20
0
30
0
70
128
71
5
72
4
73
42
0
VERTEX
8
OBJECT__48
10
0
20
0
30
0
70
128
71
5
72
43
73
41
0
VERTEX
8
OBJECT__48
10
0
20
0
30
0
70
128
71
2
72
1
73
40
0
VERTEX
8
OBJECT__48
10
0
20
0
30
0
70
128
71
39
72
40
73
36
0
VERTEX
8
OBJECT__48
10
0
20
0
30
0
70
128
71
37
72
38
73
36
0
VERTEX
8
OBJECT__48
10
0
20
0
30
0
70
128
71
35
72
37
73
34
0
VERTEX
8
OBJECT__48
10
0
20
0
30
0
70
128
71
33
72
35
73
32
0
VERTEX
8
OBJECT__48
10
0
20
0
30
0
70
128
71
31
72
33
73
30
0
VERTEX
8
OBJECT__48
10
0
20
0
30
0
70
128
71
29
72
31
73
28
0
VERTEX
8
OBJECT__48
10
0
20
0
30
0
70
128
71
25
72
29
73
26
0
VERTEX
8
OBJECT__48
10
0
20
0
30
0
70
128
71
25
72
27
73
22
0
VERTEX
8
OBJECT__48
10
0
20
0
30
0
70
128
71
21
72
24
73
22
0
VERTEX
8
OBJECT__48
10
0
20
0
30
0
70
128
71
21
72
23
73
20
0
VERTEX
8
OBJECT__48
10
0
20
0
30
0
70
128
71
19
72
20
73
16
0
VERTEX
8
OBJECT__48
10
0
20
0
30
0
70
128
71
17
72
18
73
16
0
VERTEX
8
OBJECT__48
10
0
20
0
30
0
70
128
71
15
72
17
73
14
0
VERTEX
8
OBJECT__48
10
0
20
0
30
0
70
128
71
13
72
15
73
12
0
VERTEX
8
OBJECT__48
10
0
20
0
30
0
70
128
71
11
72
13
73
10
0
VERTEX
8
OBJECT__48
10
0
20
0
30
0
70
128
71
9
72
11
73
8
0
VERTEX
8
OBJECT__48
10
0
20
0
30
0
70
128
71
7
72
9
73
6
0
VERTEX
8
OBJECT__48
10
0
20
0
30
0
70
128
71
3
72
7
73
4
0
VERTEX
8
OBJECT__48
10
0
20
0
30
0
70
128
71
3
72
5
73
1
0
SEQEND
8
OBJECT__48
0
POLYLINE
8
OBJECT__50
66
1
70
64
71
4
72
2
62
253
0
VERTEX
8
OBJECT__50
10
0.000000
20
-32.008999
30
33.000000
70
192
0
VERTEX
8
OBJECT__50
10
-10.000000
20
-32.008999
30
33.000000
70
192
0
VERTEX
8
OBJECT__50
10
-10.000000
20
-32.008999
30
-33.000000
70
192
0
VERTEX
8
OBJECT__50
10
0.000000
20
-32.008999
30
-33.000000
70
192
0
VERTEX
8
OBJECT__50
10
0
20
0
30
0
70
128
71
1
72
2
73
3
0
VERTEX
8
OBJECT__50
10
0
20
0
30
0
70
128
71
3
72
4
73
1
0
SEQEND
8
OBJECT__50
0
POLYLINE
8
OBJECT__51
66
1
70
64
71
4
72
2
62
253
0
VERTEX
8
OBJECT__51
10
-10.000000
20
-32.008999
30
33.000000
70
192
0
VERTEX
8
OBJECT__51
10
0.000000
20
-32.008999
30
33.000000
70
192
0
VERTEX
8
OBJECT__51
10
0.000000
20
143.990997
30
33.000000
70
192
0
VERTEX
8
OBJECT__51
10
-10.000000
20
143.990997
30
33.000000
70
192
0
VERTEX
8
OBJECT__51
10
0
20
0
30
0
70
128
71
1
72
2
73
3
0
VERTEX
8
OBJECT__51
10
0
20
0
30
0
70
128
71
3
72
4
73
1
0
SEQEND
8
OBJECT__51
0
POLYLINE
8
OBJECT__53
66
1
70
64
71
4
72
2
62
253
0
VERTEX
8
OBJECT__53
10
-10.000000
20
143.990997
30
33.000000
70
192
0
VERTEX
8
OBJECT__53
10
0.000000
20
143.990997
30
33.000000
70
192
0
VERTEX
8
OBJECT__53
10
0.000000
20
143.990997
30
-33.000000
70
192
0
VERTEX
8
OBJECT__53
10
-10.000000
20
143.990997
30
-33.000000
70
192
0
VERTEX
8
OBJECT__53
10
0
20
0
30
0
70
128
71
1
72
2
73
3
0
VERTEX
8
OBJECT__53
10
0
20
0
30
0
70
128
71
3
72
4
73
1
0
SEQEND
8
OBJECT__53
0
POLYLINE
8
OBJECT__54
66
1
70
64
71
4
72
2
62
253
0
VERTEX
8
OBJECT__54
10
0.000000
20
-32.008999
30
-33.000000
70
192
0
VERTEX
8
OBJECT__54
10
-10.000000
20
-32.008999
30
-33.000000
70
192
0
VERTEX
8
OBJECT__54
10
-10.000000
20
143.990997
30
-33.000000
70
192
0
VERTEX
8
OBJECT__54
10
0.000000
20
143.990997
30
-33.000000
70
192
0
VERTEX
8
OBJECT__54
10
0
20
0
30
0
70
128
71
1
72
2
73
3
0
VERTEX
8
OBJECT__54
10
0
20
0
30
0
70
128
71
3
72
4
73
1
0
SEQEND
8
OBJECT__54
0
POLYLINE
8
OBJECT__55
66
1
70
64
71
4
72
2
62
253
0
VERTEX
8
OBJECT__55
10
0.000000
20
-32.008999
30
-33.000000
70
192
0
VERTEX
8
OBJECT__55
10
0.000000
20
143.990997
30
-33.000000
70
192
0
VERTEX
8
OBJECT__55
10
0.000000
20
143.990997
30
33.000000
70
192
0
VERTEX
8
OBJECT__55
10
0.000000
20
-32.008999
30
33.000000
70
192
0
VERTEX
8
OBJECT__55
10
0
20
0
30
0
70
128
71
1
72
2
73
3
0
VERTEX
8
OBJECT__55
10
0
20
0
30
0
70
128
71
3
72
4
73
1
0
SEQEND
8
OBJECT__55
0
POLYLINE
8
OBJECT__56
66
1
70
64
71
4
72
2
62
253
0
VERTEX
8
OBJECT__56
10
-10.000000
20
-32.008999
30
33.000000
70
192
0
VERTEX
8
OBJECT__56
10
-10.000000
20
143.990997
30
33.000000
70
192
0
VERTEX
8
OBJECT__56
10
-10.000000
20
143.990997
30
-33.000000
70
192
0
VERTEX
8
OBJECT__56
10
-10.000000
20
-32.008999
30
-33.000000
70
192
0
VERTEX
8
OBJECT__56
10
0
20
0
30
0
70
128
71
1
72
2
73
3
0
VERTEX
8
OBJECT__56
10
0
20
0
30
0
70
128
71
3
72
4
73
1
0
SEQEND
8
OBJECT__56
0
ENDSEC
0
EOF
