999
Converted by 3D Exploration 
999
XDimension Software, LLC
999
http://www.xdsoft.com/explorer/
0
SECTION
2
HEADER
9
$ACADVER
1
AC1008
9
$UCSORG
10
0.0
20
0.0
30
0.0
9
$UCSXDIR
10
1.0
20
0.0
30
0.0
9
$TILEMODE
70
1
9
$UCSYDIR
10
0.0
20
1.0
30
0.0
9
$EXTMIN
10
0.000000
20
-77.800003
30
-77.800003
9
$EXTMAX
10
258.622009
20
77.800003
30
98.300003
0
ENDSEC
0
SECTION
2
TABLES
0
TABLE
2
LTYPE
70
1
0
LTYPE
2
CONTINUOUS
70
64
3
Solid line
72
65
73
0
40
0.0
0
ENDTAB
0
TABLE
2
LAYER
70
40
0
LAYER
2
OBJECT__0
70
0
62
253
6
CONTINUOUS
0
LAYER
2
OBJECT__1
70
0
62
253
6
CONTINUOUS
0
LAYER
2
OBJECT__3
70
0
62
253
6
CONTINUOUS
0
LAYER
2
OBJECT__4
70
0
62
253
6
CONTINUOUS
0
LAYER
2
OBJECT__6
70
0
62
253
6
CONTINUOUS
0
LAYER
2
OBJECT__7
70
0
62
253
6
CONTINUOUS
0
LAYER
2
OBJECT__8
70
0
62
253
6
CONTINUOUS
0
LAYER
2
OBJECT__9
70
0
62
253
6
CONTINUOUS
0
LAYER
2
OBJECT__10
70
0
62
253
6
CONTINUOUS
0
LAYER
2
OBJECT__11
70
0
62
253
6
CONTINUOUS
0
LAYER
2
OBJECT__12
70
0
62
253
6
CONTINUOUS
0
LAYER
2
OBJECT__13
70
0
62
253
6
CONTINUOUS
0
LAYER
2
OBJECT__14
70
0
62
253
6
CONTINUOUS
0
LAYER
2
OBJECT__15
70
0
62
253
6
CONTINUOUS
0
LAYER
2
OBJECT__16
70
0
62
253
6
CONTINUOUS
0
LAYER
2
OBJECT__17
70
0
62
253
6
CONTINUOUS
0
LAYER
2
OBJECT__18
70
0
62
253
6
CONTINUOUS
0
LAYER
2
OBJECT__19
70
0
62
253
6
CONTINUOUS
0
LAYER
2
OBJECT__20
70
0
62
253
6
CONTINUOUS
0
LAYER
2
OBJECT__21
70
0
62
253
6
CONTINUOUS
0
LAYER
2
OBJECT__22
70
0
62
253
6
CONTINUOUS
0
LAYER
2
OBJECT__23
70
0
62
253
6
CONTINUOUS
0
LAYER
2
OBJECT__24
70
0
62
253
6
CONTINUOUS
0
LAYER
2
OBJECT__25
70
0
62
253
6
CONTINUOUS
0
LAYER
2
OBJECT__27
70
0
62
253
6
CONTINUOUS
0
LAYER
2
OBJECT__28
70
0
62
253
6
CONTINUOUS
0
LAYER
2
OBJECT__29
70
0
62
253
6
CONTINUOUS
0
LAYER
2
OBJECT__30
70
0
62
253
6
CONTINUOUS
0
LAYER
2
OBJECT__32
70
0
62
253
6
CONTINUOUS
0
LAYER
2
OBJECT__33
70
0
62
253
6
CONTINUOUS
0
LAYER
2
OBJECT__34
70
0
62
253
6
CONTINUOUS
0
LAYER
2
OBJECT__35
70
0
62
253
6
CONTINUOUS
0
LAYER
2
OBJECT__36
70
0
62
253
6
CONTINUOUS
0
LAYER
2
OBJECT__37
70
0
62
253
6
CONTINUOUS
0
LAYER
2
OBJECT__39
70
0
62
253
6
CONTINUOUS
0
ENDTAB
0
TABLE
2
STYLE
70
1
0
STYLE
2
STANDARD
70
0
40
0.0
41
1.0
50
0.0
71
0
42
0.2
3
txt
4
1
0
ENDTAB
0
TABLE
2
UCS
70
0
0
ENDTAB
0
ENDSEC
0
SECTION
2
ENTITIES
0
POLYLINE
8
OBJECT__0
66
1
70
64
71
18
72
18
62
253
0
VERTEX
8
OBJECT__0
10
86.000000
20
-9.976000
30
22.073999
70
192
0
VERTEX
8
OBJECT__0
10
86.000000
20
-7.051000
30
18.587999
70
192
0
VERTEX
8
OBJECT__0
10
86.000000
20
-0.013000
30
21.150000
70
192
0
VERTEX
8
OBJECT__0
10
86.000000
20
-15.277000
30
12.892000
70
192
0
VERTEX
8
OBJECT__0
10
86.000000
20
-10.796000
30
12.101000
70
192
0
VERTEX
8
OBJECT__0
10
86.000000
20
5.289000
30
-4.365000
70
192
0
VERTEX
8
OBJECT__0
10
86.000000
20
13.411000
30
2.450000
70
192
0
VERTEX
8
OBJECT__0
10
86.000000
20
9.470000
30
4.725000
70
192
0
VERTEX
8
OBJECT__0
10
86.000000
20
15.252000
30
12.892000
70
192
0
VERTEX
8
OBJECT__0
10
86.000000
20
10.771000
30
12.101000
70
192
0
VERTEX
8
OBJECT__0
10
86.000000
20
9.951000
30
22.073999
70
192
0
VERTEX
8
OBJECT__0
10
86.000000
20
7.026000
30
18.587999
70
192
0
VERTEX
8
OBJECT__0
10
86.000000
20
-0.013000
30
25.700001
70
192
0
VERTEX
8
OBJECT__0
10
86.000000
20
-13.436000
30
2.450000
70
192
0
VERTEX
8
OBJECT__0
10
86.000000
20
-9.495000
30
4.725000
70
192
0
VERTEX
8
OBJECT__0
10
86.000000
20
-5.314000
30
-4.365000
70
192
0
VERTEX
8
OBJECT__0
10
86.000000
20
-3.758000
30
-0.090000
70
192
0
VERTEX
8
OBJECT__0
10
86.000000
20
3.733000
30
-0.090000
70
192
0
VERTEX
8
OBJECT__0
10
0
20
0
30
0
70
128
71
1
72
2
73
3
0
VERTEX
8
OBJECT__0
10
0
20
0
30
0
70
128
71
1
72
4
73
5
0
VERTEX
8
OBJECT__0
10
0
20
0
30
0
70
128
71
6
72
7
73
8
0
VERTEX
8
OBJECT__0
10
0
20
0
30
0
70
128
71
7
72
9
73
10
0
VERTEX
8
OBJECT__0
10
0
20
0
30
0
70
128
71
11
72
12
73
10
0
VERTEX
8
OBJECT__0
10
0
20
0
30
0
70
128
71
11
72
13
73
3
0
VERTEX
8
OBJECT__0
10
0
20
0
30
0
70
128
71
5
72
2
73
1
0
VERTEX
8
OBJECT__0
10
0
20
0
30
0
70
128
71
4
72
14
73
15
0
VERTEX
8
OBJECT__0
10
0
20
0
30
0
70
128
71
14
72
16
73
17
0
VERTEX
8
OBJECT__0
10
0
20
0
30
0
70
128
71
16
72
6
73
18
0
VERTEX
8
OBJECT__0
10
0
20
0
30
0
70
128
71
10
72
8
73
7
0
VERTEX
8
OBJECT__0
10
0
20
0
30
0
70
128
71
3
72
12
73
11
0
VERTEX
8
OBJECT__0
10
0
20
0
30
0
70
128
71
15
72
5
73
4
0
VERTEX
8
OBJECT__0
10
0
20
0
30
0
70
128
71
18
72
17
73
16
0
VERTEX
8
OBJECT__0
10
0
20
0
30
0
70
128
71
10
72
9
73
11
0
VERTEX
8
OBJECT__0
10
0
20
0
30
0
70
128
71
17
72
15
73
14
0
VERTEX
8
OBJECT__0
10
0
20
0
30
0
70
128
71
3
72
13
73
1
0
VERTEX
8
OBJECT__0
10
0
20
0
30
0
70
128
71
8
72
18
73
6
0
SEQEND
8
OBJECT__0
0
POLYLINE
8
OBJECT__1
66
1
70
64
71
18
72
18
62
253
0
VERTEX
8
OBJECT__1
10
86.000000
20
9.951000
30
22.073999
70
192
0
VERTEX
8
OBJECT__1
10
11.000000
20
9.951000
30
22.073999
70
192
0
VERTEX
8
OBJECT__1
10
11.000000
20
-0.013000
30
25.700001
70
192
0
VERTEX
8
OBJECT__1
10
86.000000
20
15.252000
30
12.892000
70
192
0
VERTEX
8
OBJECT__1
10
11.000000
20
15.252000
30
12.892000
70
192
0
VERTEX
8
OBJECT__1
10
86.000000
20
13.411000
30
2.450000
70
192
0
VERTEX
8
OBJECT__1
10
11.000000
20
13.411000
30
2.450000
70
192
0
VERTEX
8
OBJECT__1
10
86.000000
20
5.289000
30
-4.365000
70
192
0
VERTEX
8
OBJECT__1
10
11.000000
20
5.289000
30
-4.365000
70
192
0
VERTEX
8
OBJECT__1
10
86.000000
20
-5.314000
30
-4.365000
70
192
0
VERTEX
8
OBJECT__1
10
11.000000
20
-5.314000
30
-4.365000
70
192
0
VERTEX
8
OBJECT__1
10
86.000000
20
-13.436000
30
2.450000
70
192
0
VERTEX
8
OBJECT__1
10
11.000000
20
-13.436000
30
2.450000
70
192
0
VERTEX
8
OBJECT__1
10
86.000000
20
-15.277000
30
12.892000
70
192
0
VERTEX
8
OBJECT__1
10
11.000000
20
-15.277000
30
12.892000
70
192
0
VERTEX
8
OBJECT__1
10
86.000000
20
-9.976000
30
22.073999
70
192
0
VERTEX
8
OBJECT__1
10
11.000000
20
-9.976000
30
22.073999
70
192
0
VERTEX
8
OBJECT__1
10
86.000000
20
-0.013000
30
25.700001
70
192
0
VERTEX
8
OBJECT__1
10
0
20
0
30
0
70
128
71
1
72
2
73
3
0
VERTEX
8
OBJECT__1
10
0
20
0
30
0
70
128
71
4
72
5
73
2
0
VERTEX
8
OBJECT__1
10
0
20
0
30
0
70
128
71
6
72
7
73
5
0
VERTEX
8
OBJECT__1
10
0
20
0
30
0
70
128
71
8
72
9
73
7
0
VERTEX
8
OBJECT__1
10
0
20
0
30
0
70
128
71
10
72
11
73
9
0
VERTEX
8
OBJECT__1
10
0
20
0
30
0
70
128
71
12
72
13
73
11
0
VERTEX
8
OBJECT__1
10
0
20
0
30
0
70
128
71
14
72
15
73
13
0
VERTEX
8
OBJECT__1
10
0
20
0
30
0
70
128
71
16
72
17
73
15
0
VERTEX
8
OBJECT__1
10
0
20
0
30
0
70
128
71
18
72
3
73
17
0
VERTEX
8
OBJECT__1
10
0
20
0
30
0
70
128
71
17
72
16
73
18
0
VERTEX
8
OBJECT__1
10
0
20
0
30
0
70
128
71
15
72
14
73
16
0
VERTEX
8
OBJECT__1
10
0
20
0
30
0
70
128
71
13
72
12
73
14
0
VERTEX
8
OBJECT__1
10
0
20
0
30
0
70
128
71
11
72
10
73
12
0
VERTEX
8
OBJECT__1
10
0
20
0
30
0
70
128
71
9
72
8
73
10
0
VERTEX
8
OBJECT__1
10
0
20
0
30
0
70
128
71
7
72
6
73
8
0
VERTEX
8
OBJECT__1
10
0
20
0
30
0
70
128
71
5
72
4
73
6
0
VERTEX
8
OBJECT__1
10
0
20
0
30
0
70
128
71
2
72
1
73
4
0
VERTEX
8
OBJECT__1
10
0
20
0
30
0
70
128
71
3
72
18
73
1
0
SEQEND
8
OBJECT__1
0
POLYLINE
8
OBJECT__3
66
1
70
64
71
31
72
31
62
253
0
VERTEX
8
OBJECT__3
10
5.875000
20
-0.013000
30
-64.818001
70
192
0
VERTEX
8
OBJECT__3
10
10.637000
20
1.141000
30
-64.695999
70
192
0
VERTEX
8
OBJECT__3
10
10.645000
20
2.862000
30
-64.010002
70
192
0
VERTEX
8
OBJECT__3
10
10.636000
20
-0.013000
30
-64.818001
70
192
0
VERTEX
8
OBJECT__3
10
5.875000
20
4.766000
30
-62.058998
70
192
0
VERTEX
8
OBJECT__3
10
10.657000
20
4.259000
30
-62.792999
70
192
0
VERTEX
8
OBJECT__3
10
5.875000
20
5.505000
30
-59.299999
70
192
0
VERTEX
8
OBJECT__3
10
10.673000
20
5.174000
30
-61.181999
70
192
0
VERTEX
8
OBJECT__3
10
10.665000
20
4.698000
30
-62.020000
70
192
0
VERTEX
8
OBJECT__3
10
10.691000
20
5.505000
30
-59.359001
70
192
0
VERTEX
8
OBJECT__3
10
10.708000
20
5.213000
30
-57.529999
70
192
0
VERTEX
8
OBJECT__3
10
5.875000
20
4.766000
30
-56.541000
70
192
0
VERTEX
8
OBJECT__3
10
10.717000
20
4.699000
30
-56.577000
70
192
0
VERTEX
8
OBJECT__3
10
5.875000
20
-0.013000
30
-53.782001
70
192
0
VERTEX
8
OBJECT__3
10
10.734000
20
2.962000
30
-54.653000
70
192
0
VERTEX
8
OBJECT__3
10
10.741000
20
1.257000
30
-53.930000
70
192
0
VERTEX
8
OBJECT__3
10
10.723000
20
4.333000
30
-55.900002
70
192
0
VERTEX
8
OBJECT__3
10
5.875000
20
-4.791000
30
-56.541000
70
192
0
VERTEX
8
OBJECT__3
10
10.737000
20
-2.376000
30
-54.313999
70
192
0
VERTEX
8
OBJECT__3
10
10.728000
20
-3.893000
30
-55.377998
70
192
0
VERTEX
8
OBJECT__3
10
10.741000
20
-0.017000
30
-53.849998
70
192
0
VERTEX
8
OBJECT__3
10
10.742000
20
-0.592000
30
-53.813000
70
192
0
VERTEX
8
OBJECT__3
10
5.875000
20
-4.791000
30
-62.058998
70
192
0
VERTEX
8
OBJECT__3
10
10.698000
20
-5.493000
30
-58.660999
70
192
0
VERTEX
8
OBJECT__3
10
10.680000
20
-5.395000
30
-60.511002
70
192
0
VERTEX
8
OBJECT__3
10
10.714000
20
-4.973000
30
-56.882999
70
192
0
VERTEX
8
OBJECT__3
10
10.717000
20
-4.749000
30
-56.570999
70
192
0
VERTEX
8
OBJECT__3
10
10.649000
20
-3.459000
30
-63.609001
70
192
0
VERTEX
8
OBJECT__3
10
10.663000
20
-4.691000
30
-62.224998
70
192
0
VERTEX
8
OBJECT__3
10
10.639000
20
-1.839000
30
-64.507004
70
192
0
VERTEX
8
OBJECT__3
10
10.665000
20
-4.764000
30
-62.048000
70
192
0
VERTEX
8
OBJECT__3
10
0
20
0
30
0
70
128
71
1
72
2
73
3
0
VERTEX
8
OBJECT__3
10
0
20
0
30
0
70
128
71
1
72
4
73
2
0
VERTEX
8
OBJECT__3
10
0
20
0
30
0
70
128
71
3
72
5
73
1
0
VERTEX
8
OBJECT__3
10
0
20
0
30
0
70
128
71
3
72
6
73
5
0
VERTEX
8
OBJECT__3
10
0
20
0
30
0
70
128
71
7
72
5
73
8
0
VERTEX
8
OBJECT__3
10
0
20
0
30
0
70
128
71
5
72
9
73
8
0
VERTEX
8
OBJECT__3
10
0
20
0
30
0
70
128
71
7
72
10
73
11
0
VERTEX
8
OBJECT__3
10
0
20
0
30
0
70
128
71
11
72
12
73
7
0
VERTEX
8
OBJECT__3
10
0
20
0
30
0
70
128
71
11
72
13
73
12
0
VERTEX
8
OBJECT__3
10
0
20
0
30
0
70
128
71
14
72
12
73
15
0
VERTEX
8
OBJECT__3
10
0
20
0
30
0
70
128
71
15
72
16
73
14
0
VERTEX
8
OBJECT__3
10
0
20
0
30
0
70
128
71
12
72
13
73
17
0
VERTEX
8
OBJECT__3
10
0
20
0
30
0
70
128
71
17
72
15
73
12
0
VERTEX
8
OBJECT__3
10
0
20
0
30
0
70
128
71
18
72
14
73
19
0
VERTEX
8
OBJECT__3
10
0
20
0
30
0
70
128
71
19
72
20
73
18
0
VERTEX
8
OBJECT__3
10
0
20
0
30
0
70
128
71
14
72
21
73
22
0
VERTEX
8
OBJECT__3
10
0
20
0
30
0
70
128
71
22
72
19
73
14
0
VERTEX
8
OBJECT__3
10
0
20
0
30
0
70
128
71
23
72
18
73
24
0
VERTEX
8
OBJECT__3
10
0
20
0
30
0
70
128
71
24
72
25
73
23
0
VERTEX
8
OBJECT__3
10
0
20
0
30
0
70
128
71
18
72
26
73
24
0
VERTEX
8
OBJECT__3
10
0
20
0
30
0
70
128
71
18
72
27
73
26
0
VERTEX
8
OBJECT__3
10
0
20
0
30
0
70
128
71
1
72
23
73
28
0
VERTEX
8
OBJECT__3
10
0
20
0
30
0
70
128
71
23
72
29
73
28
0
VERTEX
8
OBJECT__3
10
0
20
0
30
0
70
128
71
28
72
30
73
1
0
VERTEX
8
OBJECT__3
10
0
20
0
30
0
70
128
71
23
72
31
73
29
0
VERTEX
8
OBJECT__3
10
0
20
0
30
0
70
128
71
30
72
4
73
1
0
VERTEX
8
OBJECT__3
10
0
20
0
30
0
70
128
71
25
72
31
73
23
0
VERTEX
8
OBJECT__3
10
0
20
0
30
0
70
128
71
20
72
27
73
18
0
VERTEX
8
OBJECT__3
10
0
20
0
30
0
70
128
71
16
72
21
73
14
0
VERTEX
8
OBJECT__3
10
0
20
0
30
0
70
128
71
8
72
10
73
7
0
VERTEX
8
OBJECT__3
10
0
20
0
30
0
70
128
71
6
72
9
73
5
0
SEQEND
8
OBJECT__3
0
POLYLINE
8
OBJECT__4
66
1
70
64
71
97
72
101
62
253
0
VERTEX
8
OBJECT__4
10
10.270000
20
70.800003
30
-93.375999
70
192
0
VERTEX
8
OBJECT__4
10
10.637000
20
1.141000
30
-64.695999
70
192
0
VERTEX
8
OBJECT__4
10
10.636000
20
-0.013000
30
-64.818001
70
192
0
VERTEX
8
OBJECT__4
10
10.645000
20
2.862000
30
-64.010002
70
192
0
VERTEX
8
OBJECT__4
10
10.795000
20
-0.013000
30
-47.318001
70
192
0
VERTEX
8
OBJECT__4
10
10.797000
20
-1.839000
30
-47.007000
70
192
0
VERTEX
8
OBJECT__4
10
10.742000
20
-0.592000
30
-53.813000
70
192
0
VERTEX
8
OBJECT__4
10
10.737000
20
-2.376000
30
-54.313999
70
192
0
VERTEX
8
OBJECT__4
10
10.814000
20
-4.691000
30
-44.724998
70
192
0
VERTEX
8
OBJECT__4
10
10.816000
20
-4.764000
30
-44.548000
70
192
0
VERTEX
8
OBJECT__4
10
10.804000
20
-3.459000
30
-46.109001
70
192
0
VERTEX
8
OBJECT__4
10
10.826000
20
-5.395000
30
-43.011002
70
192
0
VERTEX
8
OBJECT__4
10
10.801000
20
2.862000
30
-46.509998
70
192
0
VERTEX
8
OBJECT__4
10
10.723000
20
4.333000
30
-55.900002
70
192
0
VERTEX
8
OBJECT__4
10
10.717000
20
4.699000
30
-56.577000
70
192
0
VERTEX
8
OBJECT__4
10
10.734000
20
2.962000
30
-54.653000
70
192
0
VERTEX
8
OBJECT__4
10
10.741000
20
1.257000
30
-53.930000
70
192
0
VERTEX
8
OBJECT__4
10
10.796000
20
1.141000
30
-47.195999
70
192
0
VERTEX
8
OBJECT__4
10
10.741000
20
-0.017000
30
-53.849998
70
192
0
VERTEX
8
OBJECT__4
10
10.673000
20
5.174000
30
-61.181999
70
192
0
VERTEX
8
OBJECT__4
10
10.665000
20
4.698000
30
-62.020000
70
192
0
VERTEX
8
OBJECT__4
10
10.810000
20
4.259000
30
-45.292999
70
192
0
VERTEX
8
OBJECT__4
10
10.708000
20
5.213000
30
-57.529999
70
192
0
VERTEX
8
OBJECT__4
10
10.691000
20
5.505000
30
-59.359001
70
192
0
VERTEX
8
OBJECT__4
10
10.294000
20
72.750999
30
-91.814003
70
192
0
VERTEX
8
OBJECT__4
10
10.300000
20
72.800003
30
-91.374001
70
192
0
VERTEX
8
OBJECT__4
10
10.272000
20
71.461998
30
-93.263000
70
192
0
VERTEX
8
OBJECT__4
10
10.277000
20
72.049004
30
-92.936996
70
192
0
VERTEX
8
OBJECT__4
10
10.285000
20
72.496002
30
-92.434998
70
192
0
VERTEX
8
OBJECT__4
10
10.822000
20
5.174000
30
-43.681999
70
192
0
VERTEX
8
OBJECT__4
10
10.816000
20
4.698000
30
-44.520000
70
192
0
VERTEX
8
OBJECT__4
10
10.845000
20
72.800003
30
-40.345001
70
192
0
VERTEX
8
OBJECT__4
10
10.834000
20
5.505000
30
-41.859001
70
192
0
VERTEX
8
OBJECT__4
10
10.942000
20
72.800003
30
-0.037000
70
192
0
VERTEX
8
OBJECT__4
10
10.847000
20
5.213000
30
-40.029999
70
192
0
VERTEX
8
OBJECT__4
10
10.857000
20
4.333000
30
-38.400002
70
192
0
VERTEX
8
OBJECT__4
10
10.853000
20
4.699000
30
-39.077000
70
192
0
VERTEX
8
OBJECT__4
10
10.865000
20
2.962000
30
-37.153000
70
192
0
VERTEX
8
OBJECT__4
10
10.869000
20
1.257000
30
-36.430000
70
192
0
VERTEX
8
OBJECT__4
10
10.942000
20
-72.800003
30
-0.037000
70
192
0
VERTEX
8
OBJECT__4
10
10.870000
20
-0.592000
30
-36.313000
70
192
0
VERTEX
8
OBJECT__4
10
10.869000
20
-0.017000
30
-36.349998
70
192
0
VERTEX
8
OBJECT__4
10
10.867000
20
-2.376000
30
-36.813999
70
192
0
VERTEX
8
OBJECT__4
10
10.860000
20
-3.893000
30
-37.877998
70
192
0
VERTEX
8
OBJECT__4
10
10.851000
20
-4.973000
30
-39.382999
70
192
0
VERTEX
8
OBJECT__4
10
10.853000
20
-4.749000
30
-39.070999
70
192
0
VERTEX
8
OBJECT__4
10
10.728000
20
-3.893000
30
-55.377998
70
192
0
VERTEX
8
OBJECT__4
10
10.839000
20
-5.493000
30
-41.160999
70
192
0
VERTEX
8
OBJECT__4
10
10.657000
20
4.259000
30
-62.792999
70
192
0
VERTEX
8
OBJECT__4
10
10.845000
20
-72.800003
30
-40.345001
70
192
0
VERTEX
8
OBJECT__4
10
10.714000
20
-4.973000
30
-56.882999
70
192
0
VERTEX
8
OBJECT__4
10
10.717000
20
-4.749000
30
-56.570999
70
192
0
VERTEX
8
OBJECT__4
10
10.300000
20
-72.800003
30
-91.374001
70
192
0
VERTEX
8
OBJECT__4
10
10.680000
20
-5.395000
30
-60.511002
70
192
0
VERTEX
8
OBJECT__4
10
10.665000
20
-4.764000
30
-62.048000
70
192
0
VERTEX
8
OBJECT__4
10
10.271000
20
-71.238998
30
-93.327003
70
192
0
VERTEX
8
OBJECT__4
10
10.270000
20
-70.800003
30
-93.375999
70
192
0
VERTEX
8
OBJECT__4
10
10.282000
20
-72.362000
30
-92.624001
70
192
0
VERTEX
8
OBJECT__4
10
10.275000
20
-71.860001
30
-93.070999
70
192
0
VERTEX
8
OBJECT__4
10
10.291000
20
-72.686996
30
-92.037003
70
192
0
VERTEX
8
OBJECT__4
10
10.663000
20
-4.691000
30
-62.224998
70
192
0
VERTEX
8
OBJECT__4
10
10.649000
20
-3.459000
30
-63.609001
70
192
0
VERTEX
8
OBJECT__4
10
10.639000
20
-1.839000
30
-64.507004
70
192
0
VERTEX
8
OBJECT__4
10
10.698000
20
-5.493000
30
-58.660999
70
192
0
VERTEX
8
OBJECT__4
10
10.976000
20
6.435000
30
4.263000
70
192
0
VERTEX
8
OBJECT__4
10
10.977000
20
4.106000
30
2.463000
70
192
0
VERTEX
8
OBJECT__4
10
10.973000
20
8.037000
30
6.732000
70
192
0
VERTEX
8
OBJECT__4
10
10.970000
20
8.731000
30
9.592000
70
192
0
VERTEX
8
OBJECT__4
10
10.968000
20
72.800003
30
10.687000
70
192
0
VERTEX
8
OBJECT__4
10
10.965000
20
8.440000
30
12.520000
70
192
0
VERTEX
8
OBJECT__4
10
10.306000
20
72.800003
30
91.373001
70
192
0
VERTEX
8
OBJECT__4
10
10.959000
20
7.195000
30
15.187000
70
192
0
VERTEX
8
OBJECT__4
10
10.953000
20
5.138000
30
17.292000
70
192
0
VERTEX
8
OBJECT__4
10
10.277000
20
71.238998
30
93.325996
70
192
0
VERTEX
8
OBJECT__4
10
10.277000
20
70.800003
30
93.375000
70
192
0
VERTEX
8
OBJECT__4
10
10.288000
20
72.362000
30
92.624001
70
192
0
VERTEX
8
OBJECT__4
10
10.281000
20
71.860001
30
93.070999
70
192
0
VERTEX
8
OBJECT__4
10
10.296000
20
72.686996
30
92.036003
70
192
0
VERTEX
8
OBJECT__4
10
10.943000
20
0.982000
30
20.694000
70
192
0
VERTEX
8
OBJECT__4
10
10.942000
20
0.500000
30
20.962000
70
192
0
VERTEX
8
OBJECT__4
10
10.277000
20
-70.800003
30
93.375000
70
192
0
VERTEX
8
OBJECT__4
10
10.943000
20
-0.979000
30
20.697001
70
192
0
VERTEX
8
OBJECT__4
10
10.953000
20
-5.144000
30
17.306000
70
192
0
VERTEX
8
OBJECT__4
10
10.278000
20
-71.461998
30
93.262001
70
192
0
VERTEX
8
OBJECT__4
10
10.283000
20
-72.049004
30
92.936996
70
192
0
VERTEX
8
OBJECT__4
10
10.300000
20
-72.750999
30
91.813004
70
192
0
VERTEX
8
OBJECT__4
10
10.306000
20
-72.800003
30
91.373001
70
192
0
VERTEX
8
OBJECT__4
10
10.291000
20
-72.496002
30
92.434998
70
192
0
VERTEX
8
OBJECT__4
10
10.958000
20
-7.048000
30
15.427000
70
192
0
VERTEX
8
OBJECT__4
10
10.968000
20
-72.800003
30
10.687000
70
192
0
VERTEX
8
OBJECT__4
10
10.964000
20
-8.382000
30
12.803000
70
192
0
VERTEX
8
OBJECT__4
10
10.969000
20
-8.772000
30
9.886000
70
192
0
VERTEX
8
OBJECT__4
10
10.973000
20
-8.174000
30
7.005000
70
192
0
VERTEX
8
OBJECT__4
10
10.976000
20
-4.390000
30
2.606000
70
192
0
VERTEX
8
OBJECT__4
10
10.975000
20
-6.656000
30
4.483000
70
192
0
VERTEX
8
OBJECT__4
10
10.977000
20
1.313000
30
1.536000
70
192
0
VERTEX
8
OBJECT__4
10
10.977000
20
-1.629000
30
1.586000
70
192
0
VERTEX
8
OBJECT__4
10
0
20
0
30
0
70
128
71
1
72
2
73
3
0
VERTEX
8
OBJECT__4
10
0
20
0
30
0
70
128
71
1
72
4
73
2
0
VERTEX
8
OBJECT__4
10
0
20
0
30
0
70
128
71
5
72
6
73
7
0
VERTEX
8
OBJECT__4
10
0
20
0
30
0
70
128
71
8
72
9
73
10
0
VERTEX
8
OBJECT__4
10
0
20
0
30
0
70
128
71
8
72
11
73
9
0
VERTEX
8
OBJECT__4
10
0
20
0
30
0
70
128
71
8
72
7
73
6
0
VERTEX
8
OBJECT__4
10
0
20
0
30
0
70
128
71
6
72
11
73
8
0
VERTEX
8
OBJECT__4
10
0
20
0
30
0
70
128
71
10
72
12
73
8
0
VERTEX
8
OBJECT__4
10
0
20
0
30
0
70
128
71
13
72
14
73
15
0
VERTEX
8
OBJECT__4
10
0
20
0
30
0
70
128
71
13
72
16
73
14
0
VERTEX
8
OBJECT__4
10
0
20
0
30
0
70
128
71
13
72
17
73
16
0
VERTEX
8
OBJECT__4
10
0
20
0
30
0
70
128
71
17
72
18
73
5
0
VERTEX
8
OBJECT__4
10
0
20
0
30
0
70
128
71
17
72
13
73
18
0
VERTEX
8
OBJECT__4
10
0
20
0
30
0
70
128
71
5
72
19
73
17
0
VERTEX
8
OBJECT__4
10
0
20
0
30
0
70
128
71
1
72
20
73
21
0
VERTEX
8
OBJECT__4
10
0
20
0
30
0
70
128
71
22
72
13
73
23
0
VERTEX
8
OBJECT__4
10
0
20
0
30
0
70
128
71
23
72
1
73
22
0
VERTEX
8
OBJECT__4
10
0
20
0
30
0
70
128
71
23
72
24
73
1
0
VERTEX
8
OBJECT__4
10
0
20
0
30
0
70
128
71
24
72
20
73
1
0
VERTEX
8
OBJECT__4
10
0
20
0
30
0
70
128
71
22
72
25
73
26
0
VERTEX
8
OBJECT__4
10
0
20
0
30
0
70
128
71
22
72
1
73
27
0
VERTEX
8
OBJECT__4
10
0
20
0
30
0
70
128
71
27
72
28
73
22
0
VERTEX
8
OBJECT__4
10
0
20
0
30
0
70
128
71
28
72
29
73
22
0
VERTEX
8
OBJECT__4
10
0
20
0
30
0
70
128
71
29
72
25
73
22
0
VERTEX
8
OBJECT__4
10
0
20
0
30
0
70
128
71
26
72
30
73
31
0
VERTEX
8
OBJECT__4
10
0
20
0
30
0
70
128
71
32
72
33
73
30
0
VERTEX
8
OBJECT__4
10
0
20
0
30
0
70
128
71
32
72
34
73
35
0
VERTEX
8
OBJECT__4
10
0
20
0
30
0
70
128
71
34
72
36
73
37
0
VERTEX
8
OBJECT__4
10
0
20
0
30
0
70
128
71
37
72
35
73
34
0
VERTEX
8
OBJECT__4
10
0
20
0
30
0
70
128
71
34
72
38
73
36
0
VERTEX
8
OBJECT__4
10
0
20
0
30
0
70
128
71
35
72
33
73
32
0
VERTEX
8
OBJECT__4
10
0
20
0
30
0
70
128
71
34
72
39
73
38
0
VERTEX
8
OBJECT__4
10
0
20
0
30
0
70
128
71
34
72
40
73
41
0
VERTEX
8
OBJECT__4
10
0
20
0
30
0
70
128
71
41
72
42
73
34
0
VERTEX
8
OBJECT__4
10
0
20
0
30
0
70
128
71
42
72
39
73
34
0
VERTEX
8
OBJECT__4
10
0
20
0
30
0
70
128
71
30
72
26
73
32
0
VERTEX
8
OBJECT__4
10
0
20
0
30
0
70
128
71
40
72
43
73
41
0
VERTEX
8
OBJECT__4
10
0
20
0
30
0
70
128
71
40
72
44
73
43
0
VERTEX
8
OBJECT__4
10
0
20
0
30
0
70
128
71
26
72
31
73
22
0
VERTEX
8
OBJECT__4
10
0
20
0
30
0
70
128
71
40
72
45
73
46
0
VERTEX
8
OBJECT__4
10
0
20
0
30
0
70
128
71
47
72
8
73
12
0
VERTEX
8
OBJECT__4
10
0
20
0
30
0
70
128
71
12
72
40
73
47
0
VERTEX
8
OBJECT__4
10
0
20
0
30
0
70
128
71
12
72
48
73
40
0
VERTEX
8
OBJECT__4
10
0
20
0
30
0
70
128
71
48
72
45
73
40
0
VERTEX
8
OBJECT__4
10
0
20
0
30
0
70
128
71
46
72
44
73
40
0
VERTEX
8
OBJECT__4
10
0
20
0
30
0
70
128
71
21
72
49
73
1
0
VERTEX
8
OBJECT__4
10
0
20
0
30
0
70
128
71
15
72
23
73
13
0
VERTEX
8
OBJECT__4
10
0
20
0
30
0
70
128
71
7
72
19
73
5
0
VERTEX
8
OBJECT__4
10
0
20
0
30
0
70
128
71
40
72
50
73
51
0
VERTEX
8
OBJECT__4
10
0
20
0
30
0
70
128
71
51
72
52
73
40
0
VERTEX
8
OBJECT__4
10
0
20
0
30
0
70
128
71
50
72
53
73
54
0
VERTEX
8
OBJECT__4
10
0
20
0
30
0
70
128
71
55
72
56
73
57
0
VERTEX
8
OBJECT__4
10
0
20
0
30
0
70
128
71
55
72
58
73
59
0
VERTEX
8
OBJECT__4
10
0
20
0
30
0
70
128
71
55
72
60
73
58
0
VERTEX
8
OBJECT__4
10
0
20
0
30
0
70
128
71
55
72
53
73
60
0
VERTEX
8
OBJECT__4
10
0
20
0
30
0
70
128
71
59
72
56
73
55
0
VERTEX
8
OBJECT__4
10
0
20
0
30
0
70
128
71
57
72
61
73
55
0
VERTEX
8
OBJECT__4
10
0
20
0
30
0
70
128
71
57
72
62
73
61
0
VERTEX
8
OBJECT__4
10
0
20
0
30
0
70
128
71
57
72
63
73
62
0
VERTEX
8
OBJECT__4
10
0
20
0
30
0
70
128
71
55
72
54
73
53
0
VERTEX
8
OBJECT__4
10
0
20
0
30
0
70
128
71
57
72
3
73
63
0
VERTEX
8
OBJECT__4
10
0
20
0
30
0
70
128
71
54
72
64
73
50
0
VERTEX
8
OBJECT__4
10
0
20
0
30
0
70
128
71
64
72
51
73
50
0
VERTEX
8
OBJECT__4
10
0
20
0
30
0
70
128
71
52
72
47
73
40
0
VERTEX
8
OBJECT__4
10
0
20
0
30
0
70
128
71
49
72
4
73
1
0
VERTEX
8
OBJECT__4
10
0
20
0
30
0
70
128
71
34
72
65
73
66
0
VERTEX
8
OBJECT__4
10
0
20
0
30
0
70
128
71
34
72
67
73
65
0
VERTEX
8
OBJECT__4
10
0
20
0
30
0
70
128
71
34
72
68
73
67
0
VERTEX
8
OBJECT__4
10
0
20
0
30
0
70
128
71
69
72
70
73
68
0
VERTEX
8
OBJECT__4
10
0
20
0
30
0
70
128
71
71
72
72
73
70
0
VERTEX
8
OBJECT__4
10
0
20
0
30
0
70
128
71
73
72
74
73
75
0
VERTEX
8
OBJECT__4
10
0
20
0
30
0
70
128
71
73
72
76
73
77
0
VERTEX
8
OBJECT__4
10
0
20
0
30
0
70
128
71
73
72
78
73
76
0
VERTEX
8
OBJECT__4
10
0
20
0
30
0
70
128
71
73
72
71
73
78
0
VERTEX
8
OBJECT__4
10
0
20
0
30
0
70
128
71
77
72
74
73
73
0
VERTEX
8
OBJECT__4
10
0
20
0
30
0
70
128
71
75
72
79
73
73
0
VERTEX
8
OBJECT__4
10
0
20
0
30
0
70
128
71
75
72
80
73
79
0
VERTEX
8
OBJECT__4
10
0
20
0
30
0
70
128
71
73
72
72
73
71
0
VERTEX
8
OBJECT__4
10
0
20
0
30
0
70
128
71
70
72
69
73
71
0
VERTEX
8
OBJECT__4
10
0
20
0
30
0
70
128
71
68
72
34
73
69
0
VERTEX
8
OBJECT__4
10
0
20
0
30
0
70
128
71
81
72
82
73
80
0
VERTEX
8
OBJECT__4
10
0
20
0
30
0
70
128
71
83
72
82
73
81
0
VERTEX
8
OBJECT__4
10
0
20
0
30
0
70
128
71
81
72
84
73
83
0
VERTEX
8
OBJECT__4
10
0
20
0
30
0
70
128
71
84
72
85
73
83
0
VERTEX
8
OBJECT__4
10
0
20
0
30
0
70
128
71
83
72
86
73
87
0
VERTEX
8
OBJECT__4
10
0
20
0
30
0
70
128
71
83
72
88
73
86
0
VERTEX
8
OBJECT__4
10
0
20
0
30
0
70
128
71
87
72
89
73
83
0
VERTEX
8
OBJECT__4
10
0
20
0
30
0
70
128
71
87
72
90
73
91
0
VERTEX
8
OBJECT__4
10
0
20
0
30
0
70
128
71
91
72
89
73
87
0
VERTEX
8
OBJECT__4
10
0
20
0
30
0
70
128
71
90
72
92
73
91
0
VERTEX
8
OBJECT__4
10
0
20
0
30
0
70
128
71
40
72
93
73
92
0
VERTEX
8
OBJECT__4
10
0
20
0
30
0
70
128
71
92
72
90
73
40
0
VERTEX
8
OBJECT__4
10
0
20
0
30
0
70
128
71
40
72
94
73
95
0
VERTEX
8
OBJECT__4
10
0
20
0
30
0
70
128
71
40
72
34
73
96
0
VERTEX
8
OBJECT__4
10
0
20
0
30
0
70
128
71
96
72
97
73
40
0
VERTEX
8
OBJECT__4
10
0
20
0
30
0
70
128
71
97
72
94
73
40
0
VERTEX
8
OBJECT__4
10
0
20
0
30
0
70
128
71
95
72
93
73
40
0
VERTEX
8
OBJECT__4
10
0
20
0
30
0
70
128
71
85
72
88
73
83
0
VERTEX
8
OBJECT__4
10
0
20
0
30
0
70
128
71
80
72
75
73
81
0
VERTEX
8
OBJECT__4
10
0
20
0
30
0
70
128
71
66
72
96
73
34
0
VERTEX
8
OBJECT__4
10
0
20
0
30
0
70
128
71
3
72
57
73
1
0
SEQEND
8
OBJECT__4
0
POLYLINE
8
OBJECT__6
66
1
70
64
71
31
72
31
62
253
0
VERTEX
8
OBJECT__6
10
5.875000
20
-0.013000
30
-47.318001
70
192
0
VERTEX
8
OBJECT__6
10
10.796000
20
1.141000
30
-47.195999
70
192
0
VERTEX
8
OBJECT__6
10
10.801000
20
2.862000
30
-46.509998
70
192
0
VERTEX
8
OBJECT__6
10
10.795000
20
-0.013000
30
-47.318001
70
192
0
VERTEX
8
OBJECT__6
10
5.875000
20
4.766000
30
-44.558998
70
192
0
VERTEX
8
OBJECT__6
10
10.810000
20
4.259000
30
-45.292999
70
192
0
VERTEX
8
OBJECT__6
10
5.875000
20
5.505000
30
-41.799999
70
192
0
VERTEX
8
OBJECT__6
10
10.822000
20
5.174000
30
-43.681999
70
192
0
VERTEX
8
OBJECT__6
10
10.816000
20
4.698000
30
-44.520000
70
192
0
VERTEX
8
OBJECT__6
10
10.834000
20
5.505000
30
-41.859001
70
192
0
VERTEX
8
OBJECT__6
10
10.847000
20
5.213000
30
-40.029999
70
192
0
VERTEX
8
OBJECT__6
10
5.875000
20
4.766000
30
-39.041000
70
192
0
VERTEX
8
OBJECT__6
10
10.853000
20
4.699000
30
-39.077000
70
192
0
VERTEX
8
OBJECT__6
10
5.875000
20
-0.013000
30
-36.282001
70
192
0
VERTEX
8
OBJECT__6
10
10.865000
20
2.962000
30
-37.153000
70
192
0
VERTEX
8
OBJECT__6
10
10.869000
20
1.257000
30
-36.430000
70
192
0
VERTEX
8
OBJECT__6
10
10.857000
20
4.333000
30
-38.400002
70
192
0
VERTEX
8
OBJECT__6
10
5.875000
20
-4.791000
30
-39.041000
70
192
0
VERTEX
8
OBJECT__6
10
10.867000
20
-2.376000
30
-36.813999
70
192
0
VERTEX
8
OBJECT__6
10
10.860000
20
-3.893000
30
-37.877998
70
192
0
VERTEX
8
OBJECT__6
10
10.869000
20
-0.017000
30
-36.349998
70
192
0
VERTEX
8
OBJECT__6
10
10.870000
20
-0.592000
30
-36.313000
70
192
0
VERTEX
8
OBJECT__6
10
5.875000
20
-4.791000
30
-44.558998
70
192
0
VERTEX
8
OBJECT__6
10
10.839000
20
-5.493000
30
-41.160999
70
192
0
VERTEX
8
OBJECT__6
10
10.826000
20
-5.395000
30
-43.011002
70
192
0
VERTEX
8
OBJECT__6
10
10.851000
20
-4.973000
30
-39.382999
70
192
0
VERTEX
8
OBJECT__6
10
10.853000
20
-4.749000
30
-39.070999
70
192
0
VERTEX
8
OBJECT__6
10
10.804000
20
-3.459000
30
-46.109001
70
192
0
VERTEX
8
OBJECT__6
10
10.814000
20
-4.691000
30
-44.724998
70
192
0
VERTEX
8
OBJECT__6
10
10.816000
20
-4.764000
30
-44.548000
70
192
0
VERTEX
8
OBJECT__6
10
10.797000
20
-1.839000
30
-47.007000
70
192
0
VERTEX
8
OBJECT__6
10
0
20
0
30
0
70
128
71
1
72
2
73
3
0
VERTEX
8
OBJECT__6
10
0
20
0
30
0
70
128
71
1
72
4
73
2
0
VERTEX
8
OBJECT__6
10
0
20
0
30
0
70
128
71
3
72
5
73
1
0
VERTEX
8
OBJECT__6
10
0
20
0
30
0
70
128
71
3
72
6
73
5
0
VERTEX
8
OBJECT__6
10
0
20
0
30
0
70
128
71
7
72
5
73
8
0
VERTEX
8
OBJECT__6
10
0
20
0
30
0
70
128
71
5
72
9
73
8
0
VERTEX
8
OBJECT__6
10
0
20
0
30
0
70
128
71
7
72
10
73
11
0
VERTEX
8
OBJECT__6
10
0
20
0
30
0
70
128
71
11
72
12
73
7
0
VERTEX
8
OBJECT__6
10
0
20
0
30
0
70
128
71
11
72
13
73
12
0
VERTEX
8
OBJECT__6
10
0
20
0
30
0
70
128
71
14
72
12
73
15
0
VERTEX
8
OBJECT__6
10
0
20
0
30
0
70
128
71
15
72
16
73
14
0
VERTEX
8
OBJECT__6
10
0
20
0
30
0
70
128
71
12
72
13
73
17
0
VERTEX
8
OBJECT__6
10
0
20
0
30
0
70
128
71
17
72
15
73
12
0
VERTEX
8
OBJECT__6
10
0
20
0
30
0
70
128
71
18
72
14
73
19
0
VERTEX
8
OBJECT__6
10
0
20
0
30
0
70
128
71
19
72
20
73
18
0
VERTEX
8
OBJECT__6
10
0
20
0
30
0
70
128
71
14
72
21
73
22
0
VERTEX
8
OBJECT__6
10
0
20
0
30
0
70
128
71
22
72
19
73
14
0
VERTEX
8
OBJECT__6
10
0
20
0
30
0
70
128
71
23
72
18
73
24
0
VERTEX
8
OBJECT__6
10
0
20
0
30
0
70
128
71
24
72
25
73
23
0
VERTEX
8
OBJECT__6
10
0
20
0
30
0
70
128
71
18
72
26
73
24
0
VERTEX
8
OBJECT__6
10
0
20
0
30
0
70
128
71
18
72
27
73
26
0
VERTEX
8
OBJECT__6
10
0
20
0
30
0
70
128
71
1
72
23
73
28
0
VERTEX
8
OBJECT__6
10
0
20
0
30
0
70
128
71
23
72
29
73
28
0
VERTEX
8
OBJECT__6
10
0
20
0
30
0
70
128
71
23
72
30
73
29
0
VERTEX
8
OBJECT__6
10
0
20
0
30
0
70
128
71
28
72
31
73
1
0
VERTEX
8
OBJECT__6
10
0
20
0
30
0
70
128
71
31
72
4
73
1
0
VERTEX
8
OBJECT__6
10
0
20
0
30
0
70
128
71
25
72
30
73
23
0
VERTEX
8
OBJECT__6
10
0
20
0
30
0
70
128
71
20
72
27
73
18
0
VERTEX
8
OBJECT__6
10
0
20
0
30
0
70
128
71
16
72
21
73
14
0
VERTEX
8
OBJECT__6
10
0
20
0
30
0
70
128
71
8
72
10
73
7
0
VERTEX
8
OBJECT__6
10
0
20
0
30
0
70
128
71
6
72
9
73
5
0
SEQEND
8
OBJECT__6
0
POLYLINE
8
OBJECT__7
66
1
70
64
71
6
72
4
62
253
0
VERTEX
8
OBJECT__7
10
8.780000
20
-70.800003
30
-96.862000
70
192
0
VERTEX
8
OBJECT__7
10
8.780000
20
70.800003
30
-96.862000
70
192
0
VERTEX
8
OBJECT__7
10
10.270000
20
70.800003
30
-93.375999
70
192
0
VERTEX
8
OBJECT__7
10
5.271000
20
-70.800003
30
-98.300003
70
192
0
VERTEX
8
OBJECT__7
10
5.271000
20
70.800003
30
-98.300003
70
192
0
VERTEX
8
OBJECT__7
10
10.270000
20
-70.800003
30
-93.375999
70
192
0
VERTEX
8
OBJECT__7
10
0
20
0
30
0
70
128
71
1
72
2
73
3
0
VERTEX
8
OBJECT__7
10
0
20
0
30
0
70
128
71
4
72
5
73
2
0
VERTEX
8
OBJECT__7
10
0
20
0
30
0
70
128
71
2
72
1
73
4
0
VERTEX
8
OBJECT__7
10
0
20
0
30
0
70
128
71
3
72
6
73
1
0
SEQEND
8
OBJECT__7
0
POLYLINE
8
OBJECT__8
66
1
70
64
71
19
72
21
62
253
0
VERTEX
8
OBJECT__8
10
5.271000
20
70.800003
30
-98.300003
70
192
0
VERTEX
8
OBJECT__8
10
5.273000
20
73.116997
30
-97.904999
70
192
0
VERTEX
8
OBJECT__8
10
8.783000
20
72.624001
30
-96.553001
70
192
0
VERTEX
8
OBJECT__8
10
10.272000
20
71.461998
30
-93.263000
70
192
0
VERTEX
8
OBJECT__8
10
10.270000
20
70.800003
30
-93.375999
70
192
0
VERTEX
8
OBJECT__8
10
5.278000
20
75.171997
30
-96.765999
70
192
0
VERTEX
8
OBJECT__8
10
8.792000
20
74.245003
30
-95.660004
70
192
0
VERTEX
8
OBJECT__8
10
10.277000
20
72.049004
30
-92.936996
70
192
0
VERTEX
8
OBJECT__8
10
8.806000
20
75.482002
30
-94.279999
70
192
0
VERTEX
8
OBJECT__8
10
5.280000
20
75.683998
30
-96.192001
70
192
0
VERTEX
8
OBJECT__8
10
10.285000
20
72.496002
30
-92.434998
70
192
0
VERTEX
8
OBJECT__8
10
5.285000
20
76.735001
30
-95.011002
70
192
0
VERTEX
8
OBJECT__8
10
5.294000
20
77.628998
30
-92.836998
70
192
0
VERTEX
8
OBJECT__8
10
8.824000
20
76.195000
30
-92.567001
70
192
0
VERTEX
8
OBJECT__8
10
10.294000
20
72.750999
30
-91.814003
70
192
0
VERTEX
8
OBJECT__8
10
5.301000
20
77.800003
30
-91.300003
70
192
0
VERTEX
8
OBJECT__8
10
8.836000
20
76.335999
30
-91.351997
70
192
0
VERTEX
8
OBJECT__8
10
10.300000
20
72.800003
30
-91.374001
70
192
0
VERTEX
8
OBJECT__8
10
8.780000
20
70.800003
30
-96.862000
70
192
0
VERTEX
8
OBJECT__8
10
0
20
0
30
0
70
128
71
1
72
2
73
3
0
VERTEX
8
OBJECT__8
10
0
20
0
30
0
70
128
71
3
72
4
73
5
0
VERTEX
8
OBJECT__8
10
0
20
0
30
0
70
128
71
2
72
6
73
7
0
VERTEX
8
OBJECT__8
10
0
20
0
30
0
70
128
71
7
72
8
73
4
0
VERTEX
8
OBJECT__8
10
0
20
0
30
0
70
128
71
9
72
7
73
10
0
VERTEX
8
OBJECT__8
10
0
20
0
30
0
70
128
71
7
72
6
73
10
0
VERTEX
8
OBJECT__8
10
0
20
0
30
0
70
128
71
9
72
11
73
8
0
VERTEX
8
OBJECT__8
10
0
20
0
30
0
70
128
71
12
72
13
73
14
0
VERTEX
8
OBJECT__8
10
0
20
0
30
0
70
128
71
14
72
15
73
11
0
VERTEX
8
OBJECT__8
10
0
20
0
30
0
70
128
71
13
72
16
73
17
0
VERTEX
8
OBJECT__8
10
0
20
0
30
0
70
128
71
17
72
18
73
15
0
VERTEX
8
OBJECT__8
10
0
20
0
30
0
70
128
71
15
72
14
73
17
0
VERTEX
8
OBJECT__8
10
0
20
0
30
0
70
128
71
17
72
14
73
13
0
VERTEX
8
OBJECT__8
10
0
20
0
30
0
70
128
71
11
72
9
73
14
0
VERTEX
8
OBJECT__8
10
0
20
0
30
0
70
128
71
14
72
9
73
12
0
VERTEX
8
OBJECT__8
10
0
20
0
30
0
70
128
71
8
72
7
73
9
0
VERTEX
8
OBJECT__8
10
0
20
0
30
0
70
128
71
10
72
12
73
9
0
VERTEX
8
OBJECT__8
10
0
20
0
30
0
70
128
71
4
72
3
73
7
0
VERTEX
8
OBJECT__8
10
0
20
0
30
0
70
128
71
7
72
3
73
2
0
VERTEX
8
OBJECT__8
10
0
20
0
30
0
70
128
71
5
72
19
73
3
0
VERTEX
8
OBJECT__8
10
0
20
0
30
0
70
128
71
3
72
19
73
1
0
SEQEND
8
OBJECT__8
0
POLYLINE
8
OBJECT__9
66
1
70
64
71
19
72
21
62
253
0
VERTEX
8
OBJECT__9
10
5.291000
20
-77.404999
30
-93.616997
70
192
0
VERTEX
8
OBJECT__9
10
8.818000
20
-76.014999
30
-93.181999
70
192
0
VERTEX
8
OBJECT__9
10
8.836000
20
-76.335999
30
-91.351997
70
192
0
VERTEX
8
OBJECT__9
10
10.291000
20
-72.686996
30
-92.037003
70
192
0
VERTEX
8
OBJECT__9
10
5.282000
20
-76.265999
30
-95.672997
70
192
0
VERTEX
8
OBJECT__9
10
8.801000
20
-75.109001
30
-94.801003
70
192
0
VERTEX
8
OBJECT__9
10
10.282000
20
-72.362000
30
-92.624001
70
192
0
VERTEX
8
OBJECT__9
10
8.788000
20
-73.722000
30
-96.028000
70
192
0
VERTEX
8
OBJECT__9
10
5.280000
20
-75.692001
30
-96.183998
70
192
0
VERTEX
8
OBJECT__9
10
10.275000
20
-71.860001
30
-93.070999
70
192
0
VERTEX
8
OBJECT__9
10
5.272000
20
-72.335999
30
-98.128998
70
192
0
VERTEX
8
OBJECT__9
10
8.781000
20
-72.009003
30
-96.728996
70
192
0
VERTEX
8
OBJECT__9
10
10.271000
20
-71.238998
30
-93.327003
70
192
0
VERTEX
8
OBJECT__9
10
5.271000
20
-70.800003
30
-98.300003
70
192
0
VERTEX
8
OBJECT__9
10
8.780000
20
-70.800003
30
-96.862000
70
192
0
VERTEX
8
OBJECT__9
10
10.270000
20
-70.800003
30
-93.375999
70
192
0
VERTEX
8
OBJECT__9
10
5.276000
20
-74.510002
30
-97.236000
70
192
0
VERTEX
8
OBJECT__9
10
10.300000
20
-72.800003
30
-91.374001
70
192
0
VERTEX
8
OBJECT__9
10
5.301000
20
-77.800003
30
-91.300003
70
192
0
VERTEX
8
OBJECT__9
10
0
20
0
30
0
70
128
71
1
72
2
73
3
0
VERTEX
8
OBJECT__9
10
0
20
0
30
0
70
128
71
3
72
2
73
4
0
VERTEX
8
OBJECT__9
10
0
20
0
30
0
70
128
71
5
72
6
73
2
0
VERTEX
8
OBJECT__9
10
0
20
0
30
0
70
128
71
2
72
6
73
7
0
VERTEX
8
OBJECT__9
10
0
20
0
30
0
70
128
71
8
72
6
73
9
0
VERTEX
8
OBJECT__9
10
0
20
0
30
0
70
128
71
6
72
5
73
9
0
VERTEX
8
OBJECT__9
10
0
20
0
30
0
70
128
71
6
72
8
73
10
0
VERTEX
8
OBJECT__9
10
0
20
0
30
0
70
128
71
11
72
12
73
8
0
VERTEX
8
OBJECT__9
10
0
20
0
30
0
70
128
71
8
72
12
73
13
0
VERTEX
8
OBJECT__9
10
0
20
0
30
0
70
128
71
14
72
15
73
12
0
VERTEX
8
OBJECT__9
10
0
20
0
30
0
70
128
71
12
72
15
73
16
0
VERTEX
8
OBJECT__9
10
0
20
0
30
0
70
128
71
16
72
13
73
12
0
VERTEX
8
OBJECT__9
10
0
20
0
30
0
70
128
71
12
72
11
73
14
0
VERTEX
8
OBJECT__9
10
0
20
0
30
0
70
128
71
13
72
10
73
8
0
VERTEX
8
OBJECT__9
10
0
20
0
30
0
70
128
71
8
72
17
73
11
0
VERTEX
8
OBJECT__9
10
0
20
0
30
0
70
128
71
10
72
7
73
6
0
VERTEX
8
OBJECT__9
10
0
20
0
30
0
70
128
71
9
72
17
73
8
0
VERTEX
8
OBJECT__9
10
0
20
0
30
0
70
128
71
7
72
4
73
2
0
VERTEX
8
OBJECT__9
10
0
20
0
30
0
70
128
71
2
72
1
73
5
0
VERTEX
8
OBJECT__9
10
0
20
0
30
0
70
128
71
4
72
18
73
3
0
VERTEX
8
OBJECT__9
10
0
20
0
30
0
70
128
71
3
72
19
73
1
0
SEQEND
8
OBJECT__9
0
POLYLINE
8
OBJECT__10
66
1
70
64
71
13
72
13
62
253
0
VERTEX
8
OBJECT__10
10
9.380000
20
76.335999
30
-40.334999
70
192
0
VERTEX
8
OBJECT__10
10
8.836000
20
76.335999
30
-91.351997
70
192
0
VERTEX
8
OBJECT__10
10
5.301000
20
77.800003
30
-91.300003
70
192
0
VERTEX
8
OBJECT__10
10
10.845000
20
72.800003
30
-40.345001
70
192
0
VERTEX
8
OBJECT__10
10
10.300000
20
72.800003
30
-91.374001
70
192
0
VERTEX
8
OBJECT__10
10
9.504000
20
76.335999
30
10.684000
70
192
0
VERTEX
8
OBJECT__10
10
5.845000
20
77.800003
30
-40.312000
70
192
0
VERTEX
8
OBJECT__10
10
10.942000
20
72.800003
30
-0.037000
70
192
0
VERTEX
8
OBJECT__10
10
10.968000
20
72.800003
30
10.687000
70
192
0
VERTEX
8
OBJECT__10
10
8.842000
20
76.335999
30
91.351997
70
192
0
VERTEX
8
OBJECT__10
10
5.968000
20
77.800003
30
10.678000
70
192
0
VERTEX
8
OBJECT__10
10
10.306000
20
72.800003
30
91.373001
70
192
0
VERTEX
8
OBJECT__10
10
5.307000
20
77.800003
30
91.300003
70
192
0
VERTEX
8
OBJECT__10
10
0
20
0
30
0
70
128
71
1
72
2
73
3
0
VERTEX
8
OBJECT__10
10
0
20
0
30
0
70
128
71
4
72
5
73
2
0
VERTEX
8
OBJECT__10
10
0
20
0
30
0
70
128
71
6
72
1
73
7
0
VERTEX
8
OBJECT__10
10
0
20
0
30
0
70
128
71
1
72
6
73
8
0
VERTEX
8
OBJECT__10
10
0
20
0
30
0
70
128
71
6
72
9
73
8
0
VERTEX
8
OBJECT__10
10
0
20
0
30
0
70
128
71
10
72
6
73
11
0
VERTEX
8
OBJECT__10
10
0
20
0
30
0
70
128
71
12
72
9
73
6
0
VERTEX
8
OBJECT__10
10
0
20
0
30
0
70
128
71
6
72
10
73
12
0
VERTEX
8
OBJECT__10
10
0
20
0
30
0
70
128
71
11
72
13
73
10
0
VERTEX
8
OBJECT__10
10
0
20
0
30
0
70
128
71
8
72
4
73
1
0
VERTEX
8
OBJECT__10
10
0
20
0
30
0
70
128
71
7
72
11
73
6
0
VERTEX
8
OBJECT__10
10
0
20
0
30
0
70
128
71
2
72
1
73
4
0
VERTEX
8
OBJECT__10
10
0
20
0
30
0
70
128
71
3
72
7
73
1
0
SEQEND
8
OBJECT__10
0
POLYLINE
8
OBJECT__11
66
1
70
64
71
13
72
13
62
253
0
VERTEX
8
OBJECT__11
10
10.845000
20
-72.800003
30
-40.345001
70
192
0
VERTEX
8
OBJECT__11
10
9.380000
20
-76.335999
30
-40.334999
70
192
0
VERTEX
8
OBJECT__11
10
8.836000
20
-76.335999
30
-91.351997
70
192
0
VERTEX
8
OBJECT__11
10
5.845000
20
-77.800003
30
-40.312000
70
192
0
VERTEX
8
OBJECT__11
10
5.301000
20
-77.800003
30
-91.300003
70
192
0
VERTEX
8
OBJECT__11
10
10.942000
20
-72.800003
30
-0.037000
70
192
0
VERTEX
8
OBJECT__11
10
9.504000
20
-76.335999
30
10.684000
70
192
0
VERTEX
8
OBJECT__11
10
5.968000
20
-77.800003
30
10.678000
70
192
0
VERTEX
8
OBJECT__11
10
10.306000
20
-72.800003
30
91.373001
70
192
0
VERTEX
8
OBJECT__11
10
8.842000
20
-76.335999
30
91.351997
70
192
0
VERTEX
8
OBJECT__11
10
5.307000
20
-77.800003
30
91.300003
70
192
0
VERTEX
8
OBJECT__11
10
10.968000
20
-72.800003
30
10.687000
70
192
0
VERTEX
8
OBJECT__11
10
10.300000
20
-72.800003
30
-91.374001
70
192
0
VERTEX
8
OBJECT__11
10
0
20
0
30
0
70
128
71
1
72
2
73
3
0
VERTEX
8
OBJECT__11
10
0
20
0
30
0
70
128
71
2
72
4
73
5
0
VERTEX
8
OBJECT__11
10
0
20
0
30
0
70
128
71
2
72
1
73
6
0
VERTEX
8
OBJECT__11
10
0
20
0
30
0
70
128
71
6
72
7
73
2
0
VERTEX
8
OBJECT__11
10
0
20
0
30
0
70
128
71
7
72
8
73
4
0
VERTEX
8
OBJECT__11
10
0
20
0
30
0
70
128
71
9
72
10
73
7
0
VERTEX
8
OBJECT__11
10
0
20
0
30
0
70
128
71
10
72
11
73
8
0
VERTEX
8
OBJECT__11
10
0
20
0
30
0
70
128
71
8
72
7
73
10
0
VERTEX
8
OBJECT__11
10
0
20
0
30
0
70
128
71
7
72
12
73
9
0
VERTEX
8
OBJECT__11
10
0
20
0
30
0
70
128
71
4
72
2
73
7
0
VERTEX
8
OBJECT__11
10
0
20
0
30
0
70
128
71
6
72
12
73
7
0
VERTEX
8
OBJECT__11
10
0
20
0
30
0
70
128
71
5
72
3
73
2
0
VERTEX
8
OBJECT__11
10
0
20
0
30
0
70
128
71
3
72
13
73
1
0
SEQEND
8
OBJECT__11
0
POLYLINE
8
OBJECT__12
66
1
70
64
71
19
72
21
62
253
0
VERTEX
8
OBJECT__12
10
5.297000
20
77.404999
30
93.616997
70
192
0
VERTEX
8
OBJECT__12
10
8.824000
20
76.014999
30
93.181999
70
192
0
VERTEX
8
OBJECT__12
10
8.842000
20
76.335999
30
91.351997
70
192
0
VERTEX
8
OBJECT__12
10
10.296000
20
72.686996
30
92.036003
70
192
0
VERTEX
8
OBJECT__12
10
5.288000
20
76.265999
30
95.672997
70
192
0
VERTEX
8
OBJECT__12
10
8.807000
20
75.110001
30
94.801003
70
192
0
VERTEX
8
OBJECT__12
10
10.288000
20
72.362000
30
92.624001
70
192
0
VERTEX
8
OBJECT__12
10
8.795000
20
73.722000
30
96.028000
70
192
0
VERTEX
8
OBJECT__12
10
5.286000
20
75.692001
30
96.183998
70
192
0
VERTEX
8
OBJECT__12
10
10.281000
20
71.860001
30
93.070999
70
192
0
VERTEX
8
OBJECT__12
10
5.278000
20
72.335999
30
98.128998
70
192
0
VERTEX
8
OBJECT__12
10
8.787000
20
72.009003
30
96.727997
70
192
0
VERTEX
8
OBJECT__12
10
10.277000
20
71.238998
30
93.325996
70
192
0
VERTEX
8
OBJECT__12
10
5.277000
20
70.800003
30
98.300003
70
192
0
VERTEX
8
OBJECT__12
10
8.786000
20
70.800003
30
96.862000
70
192
0
VERTEX
8
OBJECT__12
10
10.277000
20
70.800003
30
93.375000
70
192
0
VERTEX
8
OBJECT__12
10
5.282000
20
74.510002
30
97.236000
70
192
0
VERTEX
8
OBJECT__12
10
10.306000
20
72.800003
30
91.373001
70
192
0
VERTEX
8
OBJECT__12
10
5.307000
20
77.800003
30
91.300003
70
192
0
VERTEX
8
OBJECT__12
10
0
20
0
30
0
70
128
71
1
72
2
73
3
0
VERTEX
8
OBJECT__12
10
0
20
0
30
0
70
128
71
3
72
2
73
4
0
VERTEX
8
OBJECT__12
10
0
20
0
30
0
70
128
71
5
72
6
73
2
0
VERTEX
8
OBJECT__12
10
0
20
0
30
0
70
128
71
2
72
6
73
7
0
VERTEX
8
OBJECT__12
10
0
20
0
30
0
70
128
71
8
72
6
73
9
0
VERTEX
8
OBJECT__12
10
0
20
0
30
0
70
128
71
6
72
5
73
9
0
VERTEX
8
OBJECT__12
10
0
20
0
30
0
70
128
71
6
72
8
73
10
0
VERTEX
8
OBJECT__12
10
0
20
0
30
0
70
128
71
11
72
12
73
8
0
VERTEX
8
OBJECT__12
10
0
20
0
30
0
70
128
71
8
72
12
73
13
0
VERTEX
8
OBJECT__12
10
0
20
0
30
0
70
128
71
14
72
15
73
12
0
VERTEX
8
OBJECT__12
10
0
20
0
30
0
70
128
71
12
72
15
73
16
0
VERTEX
8
OBJECT__12
10
0
20
0
30
0
70
128
71
16
72
13
73
12
0
VERTEX
8
OBJECT__12
10
0
20
0
30
0
70
128
71
12
72
11
73
14
0
VERTEX
8
OBJECT__12
10
0
20
0
30
0
70
128
71
13
72
10
73
8
0
VERTEX
8
OBJECT__12
10
0
20
0
30
0
70
128
71
8
72
17
73
11
0
VERTEX
8
OBJECT__12
10
0
20
0
30
0
70
128
71
10
72
7
73
6
0
VERTEX
8
OBJECT__12
10
0
20
0
30
0
70
128
71
9
72
17
73
8
0
VERTEX
8
OBJECT__12
10
0
20
0
30
0
70
128
71
7
72
4
73
2
0
VERTEX
8
OBJECT__12
10
0
20
0
30
0
70
128
71
2
72
1
73
5
0
VERTEX
8
OBJECT__12
10
0
20
0
30
0
70
128
71
4
72
18
73
3
0
VERTEX
8
OBJECT__12
10
0
20
0
30
0
70
128
71
3
72
19
73
1
0
SEQEND
8
OBJECT__12
0
POLYLINE
8
OBJECT__13
66
1
70
64
71
19
72
21
62
253
0
VERTEX
8
OBJECT__13
10
5.277000
20
-70.800003
30
98.300003
70
192
0
VERTEX
8
OBJECT__13
10
5.279000
20
-73.116997
30
97.904999
70
192
0
VERTEX
8
OBJECT__13
10
8.789000
20
-72.624001
30
96.553001
70
192
0
VERTEX
8
OBJECT__13
10
10.278000
20
-71.461998
30
93.262001
70
192
0
VERTEX
8
OBJECT__13
10
10.277000
20
-70.800003
30
93.375000
70
192
0
VERTEX
8
OBJECT__13
10
5.284000
20
-75.171997
30
96.765999
70
192
0
VERTEX
8
OBJECT__13
10
8.798000
20
-74.245003
30
95.658997
70
192
0
VERTEX
8
OBJECT__13
10
10.283000
20
-72.049004
30
92.936996
70
192
0
VERTEX
8
OBJECT__13
10
8.812000
20
-75.482002
30
94.279999
70
192
0
VERTEX
8
OBJECT__13
10
5.286000
20
-75.683998
30
96.192001
70
192
0
VERTEX
8
OBJECT__13
10
10.291000
20
-72.496002
30
92.434998
70
192
0
VERTEX
8
OBJECT__13
10
5.291000
20
-76.735001
30
95.011002
70
192
0
VERTEX
8
OBJECT__13
10
5.300000
20
-77.628998
30
92.836998
70
192
0
VERTEX
8
OBJECT__13
10
8.830000
20
-76.195000
30
92.567001
70
192
0
VERTEX
8
OBJECT__13
10
10.300000
20
-72.750999
30
91.813004
70
192
0
VERTEX
8
OBJECT__13
10
5.307000
20
-77.800003
30
91.300003
70
192
0
VERTEX
8
OBJECT__13
10
8.842000
20
-76.335999
30
91.351997
70
192
0
VERTEX
8
OBJECT__13
10
10.306000
20
-72.800003
30
91.373001
70
192
0
VERTEX
8
OBJECT__13
10
8.786000
20
-70.800003
30
96.862000
70
192
0
VERTEX
8
OBJECT__13
10
0
20
0
30
0
70
128
71
1
72
2
73
3
0
VERTEX
8
OBJECT__13
10
0
20
0
30
0
70
128
71
3
72
4
73
5
0
VERTEX
8
OBJECT__13
10
0
20
0
30
0
70
128
71
2
72
6
73
7
0
VERTEX
8
OBJECT__13
10
0
20
0
30
0
70
128
71
7
72
8
73
4
0
VERTEX
8
OBJECT__13
10
0
20
0
30
0
70
128
71
9
72
7
73
10
0
VERTEX
8
OBJECT__13
10
0
20
0
30
0
70
128
71
7
72
6
73
10
0
VERTEX
8
OBJECT__13
10
0
20
0
30
0
70
128
71
9
72
11
73
8
0
VERTEX
8
OBJECT__13
10
0
20
0
30
0
70
128
71
12
72
13
73
14
0
VERTEX
8
OBJECT__13
10
0
20
0
30
0
70
128
71
14
72
15
73
11
0
VERTEX
8
OBJECT__13
10
0
20
0
30
0
70
128
71
13
72
16
73
17
0
VERTEX
8
OBJECT__13
10
0
20
0
30
0
70
128
71
17
72
18
73
15
0
VERTEX
8
OBJECT__13
10
0
20
0
30
0
70
128
71
15
72
14
73
17
0
VERTEX
8
OBJECT__13
10
0
20
0
30
0
70
128
71
17
72
14
73
13
0
VERTEX
8
OBJECT__13
10
0
20
0
30
0
70
128
71
11
72
9
73
14
0
VERTEX
8
OBJECT__13
10
0
20
0
30
0
70
128
71
14
72
9
73
12
0
VERTEX
8
OBJECT__13
10
0
20
0
30
0
70
128
71
8
72
7
73
9
0
VERTEX
8
OBJECT__13
10
0
20
0
30
0
70
128
71
10
72
12
73
9
0
VERTEX
8
OBJECT__13
10
0
20
0
30
0
70
128
71
4
72
3
73
7
0
VERTEX
8
OBJECT__13
10
0
20
0
30
0
70
128
71
7
72
3
73
2
0
VERTEX
8
OBJECT__13
10
0
20
0
30
0
70
128
71
5
72
19
73
3
0
VERTEX
8
OBJECT__13
10
0
20
0
30
0
70
128
71
3
72
19
73
1
0
SEQEND
8
OBJECT__13
0
POLYLINE
8
OBJECT__14
66
1
70
64
71
6
72
4
62
253
0
VERTEX
8
OBJECT__14
10
8.786000
20
-70.800003
30
96.862000
70
192
0
VERTEX
8
OBJECT__14
10
8.786000
20
70.800003
30
96.862000
70
192
0
VERTEX
8
OBJECT__14
10
5.277000
20
70.800003
30
98.300003
70
192
0
VERTEX
8
OBJECT__14
10
10.277000
20
-70.800003
30
93.375000
70
192
0
VERTEX
8
OBJECT__14
10
10.277000
20
70.800003
30
93.375000
70
192
0
VERTEX
8
OBJECT__14
10
5.277000
20
-70.800003
30
98.300003
70
192
0
VERTEX
8
OBJECT__14
10
0
20
0
30
0
70
128
71
1
72
2
73
3
0
VERTEX
8
OBJECT__14
10
0
20
0
30
0
70
128
71
4
72
5
73
2
0
VERTEX
8
OBJECT__14
10
0
20
0
30
0
70
128
71
2
72
1
73
4
0
VERTEX
8
OBJECT__14
10
0
20
0
30
0
70
128
71
3
72
6
73
1
0
SEQEND
8
OBJECT__14
0
POLYLINE
8
OBJECT__15
66
1
70
64
71
10
72
8
62
253
0
VERTEX
8
OBJECT__15
10
0.000000
20
75.750000
30
96.250000
70
192
0
VERTEX
8
OBJECT__15
10
0.000000
20
70.800003
30
98.300003
70
192
0
VERTEX
8
OBJECT__15
10
5.278000
20
72.335999
30
98.128998
70
192
0
VERTEX
8
OBJECT__15
10
5.277000
20
70.800003
30
98.300003
70
192
0
VERTEX
8
OBJECT__15
10
5.282000
20
74.510002
30
97.236000
70
192
0
VERTEX
8
OBJECT__15
10
5.288000
20
76.265999
30
95.672997
70
192
0
VERTEX
8
OBJECT__15
10
5.297000
20
77.404999
30
93.616997
70
192
0
VERTEX
8
OBJECT__15
10
0.000000
20
77.800003
30
91.300003
70
192
0
VERTEX
8
OBJECT__15
10
5.286000
20
75.692001
30
96.183998
70
192
0
VERTEX
8
OBJECT__15
10
5.307000
20
77.800003
30
91.300003
70
192
0
VERTEX
8
OBJECT__15
10
0
20
0
30
0
70
128
71
1
72
2
73
3
0
VERTEX
8
OBJECT__15
10
0
20
0
30
0
70
128
71
2
72
4
73
3
0
VERTEX
8
OBJECT__15
10
0
20
0
30
0
70
128
71
3
72
5
73
1
0
VERTEX
8
OBJECT__15
10
0
20
0
30
0
70
128
71
1
72
6
73
7
0
VERTEX
8
OBJECT__15
10
0
20
0
30
0
70
128
71
7
72
8
73
1
0
VERTEX
8
OBJECT__15
10
0
20
0
30
0
70
128
71
1
72
9
73
6
0
VERTEX
8
OBJECT__15
10
0
20
0
30
0
70
128
71
7
72
10
73
8
0
VERTEX
8
OBJECT__15
10
0
20
0
30
0
70
128
71
5
72
9
73
1
0
SEQEND
8
OBJECT__15
0
POLYLINE
8
OBJECT__16
66
1
70
64
71
12
72
10
62
253
0
VERTEX
8
OBJECT__16
10
0.000000
20
77.800003
30
91.300003
70
192
0
VERTEX
8
OBJECT__16
10
0.000000
20
-77.800003
30
91.300003
70
192
0
VERTEX
8
OBJECT__16
10
0.000000
20
-70.800003
30
98.300003
70
192
0
VERTEX
8
OBJECT__16
10
0.000000
20
-75.750000
30
96.250000
70
192
0
VERTEX
8
OBJECT__16
10
0.000000
20
-77.800003
30
-91.300003
70
192
0
VERTEX
8
OBJECT__16
10
0.000000
20
77.800003
30
-91.300003
70
192
0
VERTEX
8
OBJECT__16
10
0.000000
20
70.800003
30
-98.300003
70
192
0
VERTEX
8
OBJECT__16
10
0.000000
20
70.800003
30
98.300003
70
192
0
VERTEX
8
OBJECT__16
10
0.000000
20
-70.800003
30
-98.300003
70
192
0
VERTEX
8
OBJECT__16
10
0.000000
20
75.750000
30
96.250000
70
192
0
VERTEX
8
OBJECT__16
10
0.000000
20
75.750000
30
-96.250000
70
192
0
VERTEX
8
OBJECT__16
10
0.000000
20
-75.750000
30
-96.250000
70
192
0
VERTEX
8
OBJECT__16
10
0
20
0
30
0
70
128
71
1
72
2
73
3
0
VERTEX
8
OBJECT__16
10
0
20
0
30
0
70
128
71
2
72
4
73
3
0
VERTEX
8
OBJECT__16
10
0
20
0
30
0
70
128
71
5
72
6
73
7
0
VERTEX
8
OBJECT__16
10
0
20
0
30
0
70
128
71
5
72
2
73
1
0
VERTEX
8
OBJECT__16
10
0
20
0
30
0
70
128
71
3
72
8
73
1
0
VERTEX
8
OBJECT__16
10
0
20
0
30
0
70
128
71
7
72
9
73
5
0
VERTEX
8
OBJECT__16
10
0
20
0
30
0
70
128
71
8
72
10
73
1
0
VERTEX
8
OBJECT__16
10
0
20
0
30
0
70
128
71
6
72
11
73
7
0
VERTEX
8
OBJECT__16
10
0
20
0
30
0
70
128
71
9
72
12
73
5
0
VERTEX
8
OBJECT__16
10
0
20
0
30
0
70
128
71
1
72
6
73
5
0
SEQEND
8
OBJECT__16
0
POLYLINE
8
OBJECT__17
66
1
70
64
71
10
72
8
62
253
0
VERTEX
8
OBJECT__17
10
0.000000
20
77.800003
30
-91.300003
70
192
0
VERTEX
8
OBJECT__17
10
5.294000
20
77.628998
30
-92.836998
70
192
0
VERTEX
8
OBJECT__17
10
5.285000
20
76.735001
30
-95.011002
70
192
0
VERTEX
8
OBJECT__17
10
5.301000
20
77.800003
30
-91.300003
70
192
0
VERTEX
8
OBJECT__17
10
0.000000
20
75.750000
30
-96.250000
70
192
0
VERTEX
8
OBJECT__17
10
5.278000
20
75.171997
30
-96.765999
70
192
0
VERTEX
8
OBJECT__17
10
5.273000
20
73.116997
30
-97.904999
70
192
0
VERTEX
8
OBJECT__17
10
0.000000
20
70.800003
30
-98.300003
70
192
0
VERTEX
8
OBJECT__17
10
5.280000
20
75.683998
30
-96.192001
70
192
0
VERTEX
8
OBJECT__17
10
5.271000
20
70.800003
30
-98.300003
70
192
0
VERTEX
8
OBJECT__17
10
0
20
0
30
0
70
128
71
1
72
2
73
3
0
VERTEX
8
OBJECT__17
10
0
20
0
30
0
70
128
71
1
72
4
73
2
0
VERTEX
8
OBJECT__17
10
0
20
0
30
0
70
128
71
3
72
5
73
1
0
VERTEX
8
OBJECT__17
10
0
20
0
30
0
70
128
71
5
72
6
73
7
0
VERTEX
8
OBJECT__17
10
0
20
0
30
0
70
128
71
7
72
8
73
5
0
VERTEX
8
OBJECT__17
10
0
20
0
30
0
70
128
71
5
72
9
73
6
0
VERTEX
8
OBJECT__17
10
0
20
0
30
0
70
128
71
7
72
10
73
8
0
VERTEX
8
OBJECT__17
10
0
20
0
30
0
70
128
71
3
72
9
73
5
0
SEQEND
8
OBJECT__17
0
POLYLINE
8
OBJECT__18
66
1
70
64
71
10
72
8
62
253
0
VERTEX
8
OBJECT__18
10
0.000000
20
-75.750000
30
-96.250000
70
192
0
VERTEX
8
OBJECT__18
10
0.000000
20
-70.800003
30
-98.300003
70
192
0
VERTEX
8
OBJECT__18
10
5.272000
20
-72.335999
30
-98.128998
70
192
0
VERTEX
8
OBJECT__18
10
5.271000
20
-70.800003
30
-98.300003
70
192
0
VERTEX
8
OBJECT__18
10
5.276000
20
-74.510002
30
-97.236000
70
192
0
VERTEX
8
OBJECT__18
10
5.282000
20
-76.265999
30
-95.672997
70
192
0
VERTEX
8
OBJECT__18
10
5.291000
20
-77.404999
30
-93.616997
70
192
0
VERTEX
8
OBJECT__18
10
0.000000
20
-77.800003
30
-91.300003
70
192
0
VERTEX
8
OBJECT__18
10
5.280000
20
-75.692001
30
-96.183998
70
192
0
VERTEX
8
OBJECT__18
10
5.301000
20
-77.800003
30
-91.300003
70
192
0
VERTEX
8
OBJECT__18
10
0
20
0
30
0
70
128
71
1
72
2
73
3
0
VERTEX
8
OBJECT__18
10
0
20
0
30
0
70
128
71
2
72
4
73
3
0
VERTEX
8
OBJECT__18
10
0
20
0
30
0
70
128
71
3
72
5
73
1
0
VERTEX
8
OBJECT__18
10
0
20
0
30
0
70
128
71
1
72
6
73
7
0
VERTEX
8
OBJECT__18
10
0
20
0
30
0
70
128
71
7
72
8
73
1
0
VERTEX
8
OBJECT__18
10
0
20
0
30
0
70
128
71
1
72
9
73
6
0
VERTEX
8
OBJECT__18
10
0
20
0
30
0
70
128
71
7
72
10
73
8
0
VERTEX
8
OBJECT__18
10
0
20
0
30
0
70
128
71
5
72
9
73
1
0
SEQEND
8
OBJECT__18
0
POLYLINE
8
OBJECT__19
66
1
70
64
71
10
72
8
62
253
0
VERTEX
8
OBJECT__19
10
0.000000
20
-77.800003
30
91.300003
70
192
0
VERTEX
8
OBJECT__19
10
5.300000
20
-77.628998
30
92.836998
70
192
0
VERTEX
8
OBJECT__19
10
5.291000
20
-76.735001
30
95.011002
70
192
0
VERTEX
8
OBJECT__19
10
5.307000
20
-77.800003
30
91.300003
70
192
0
VERTEX
8
OBJECT__19
10
0.000000
20
-75.750000
30
96.250000
70
192
0
VERTEX
8
OBJECT__19
10
5.284000
20
-75.171997
30
96.765999
70
192
0
VERTEX
8
OBJECT__19
10
5.279000
20
-73.116997
30
97.904999
70
192
0
VERTEX
8
OBJECT__19
10
0.000000
20
-70.800003
30
98.300003
70
192
0
VERTEX
8
OBJECT__19
10
5.286000
20
-75.683998
30
96.192001
70
192
0
VERTEX
8
OBJECT__19
10
5.277000
20
-70.800003
30
98.300003
70
192
0
VERTEX
8
OBJECT__19
10
0
20
0
30
0
70
128
71
1
72
2
73
3
0
VERTEX
8
OBJECT__19
10
0
20
0
30
0
70
128
71
1
72
4
73
2
0
VERTEX
8
OBJECT__19
10
0
20
0
30
0
70
128
71
3
72
5
73
1
0
VERTEX
8
OBJECT__19
10
0
20
0
30
0
70
128
71
5
72
6
73
7
0
VERTEX
8
OBJECT__19
10
0
20
0
30
0
70
128
71
7
72
8
73
5
0
VERTEX
8
OBJECT__19
10
0
20
0
30
0
70
128
71
5
72
9
73
6
0
VERTEX
8
OBJECT__19
10
0
20
0
30
0
70
128
71
7
72
10
73
8
0
VERTEX
8
OBJECT__19
10
0
20
0
30
0
70
128
71
3
72
9
73
5
0
SEQEND
8
OBJECT__19
0
POLYLINE
8
OBJECT__20
66
1
70
64
71
4
72
2
62
253
0
VERTEX
8
OBJECT__20
10
5.277000
20
70.800003
30
98.300003
70
192
0
VERTEX
8
OBJECT__20
10
0.000000
20
70.800003
30
98.300003
70
192
0
VERTEX
8
OBJECT__20
10
0.000000
20
-70.800003
30
98.300003
70
192
0
VERTEX
8
OBJECT__20
10
5.277000
20
-70.800003
30
98.300003
70
192
0
VERTEX
8
OBJECT__20
10
0
20
0
30
0
70
128
71
1
72
2
73
3
0
VERTEX
8
OBJECT__20
10
0
20
0
30
0
70
128
71
3
72
4
73
1
0
SEQEND
8
OBJECT__20
0
POLYLINE
8
OBJECT__21
66
1
70
64
71
6
72
4
62
253
0
VERTEX
8
OBJECT__21
10
0.000000
20
-77.800003
30
-91.300003
70
192
0
VERTEX
8
OBJECT__21
10
5.845000
20
-77.800003
30
-40.312000
70
192
0
VERTEX
8
OBJECT__21
10
5.968000
20
-77.800003
30
10.678000
70
192
0
VERTEX
8
OBJECT__21
10
0.000000
20
-77.800003
30
91.300003
70
192
0
VERTEX
8
OBJECT__21
10
5.301000
20
-77.800003
30
-91.300003
70
192
0
VERTEX
8
OBJECT__21
10
5.307000
20
-77.800003
30
91.300003
70
192
0
VERTEX
8
OBJECT__21
10
0
20
0
30
0
70
128
71
1
72
2
73
3
0
VERTEX
8
OBJECT__21
10
0
20
0
30
0
70
128
71
3
72
4
73
1
0
VERTEX
8
OBJECT__21
10
0
20
0
30
0
70
128
71
1
72
5
73
2
0
VERTEX
8
OBJECT__21
10
0
20
0
30
0
70
128
71
3
72
6
73
4
0
SEQEND
8
OBJECT__21
0
POLYLINE
8
OBJECT__22
66
1
70
64
71
4
72
2
62
253
0
VERTEX
8
OBJECT__22
10
0.000000
20
70.800003
30
-98.300003
70
192
0
VERTEX
8
OBJECT__22
10
5.271000
20
70.800003
30
-98.300003
70
192
0
VERTEX
8
OBJECT__22
10
5.271000
20
-70.800003
30
-98.300003
70
192
0
VERTEX
8
OBJECT__22
10
0.000000
20
-70.800003
30
-98.300003
70
192
0
VERTEX
8
OBJECT__22
10
0
20
0
30
0
70
128
71
1
72
2
73
3
0
VERTEX
8
OBJECT__22
10
0
20
0
30
0
70
128
71
3
72
4
73
1
0
SEQEND
8
OBJECT__22
0
POLYLINE
8
OBJECT__23
66
1
70
64
71
6
72
4
62
253
0
VERTEX
8
OBJECT__23
10
0.000000
20
77.800003
30
-91.300003
70
192
0
VERTEX
8
OBJECT__23
10
0.000000
20
77.800003
30
91.300003
70
192
0
VERTEX
8
OBJECT__23
10
5.968000
20
77.800003
30
10.678000
70
192
0
VERTEX
8
OBJECT__23
10
5.307000
20
77.800003
30
91.300003
70
192
0
VERTEX
8
OBJECT__23
10
5.845000
20
77.800003
30
-40.312000
70
192
0
VERTEX
8
OBJECT__23
10
5.301000
20
77.800003
30
-91.300003
70
192
0
VERTEX
8
OBJECT__23
10
0
20
0
30
0
70
128
71
1
72
2
73
3
0
VERTEX
8
OBJECT__23
10
0
20
0
30
0
70
128
71
2
72
4
73
3
0
VERTEX
8
OBJECT__23
10
0
20
0
30
0
70
128
71
3
72
5
73
1
0
VERTEX
8
OBJECT__23
10
0
20
0
30
0
70
128
71
5
72
6
73
1
0
SEQEND
8
OBJECT__23
0
POLYLINE
8
OBJECT__24
66
1
70
64
71
6
72
4
62
253
0
VERTEX
8
OBJECT__24
10
224.000000
20
12.978000
30
2.700000
70
192
0
VERTEX
8
OBJECT__24
10
224.000000
20
-13.003000
30
2.700000
70
192
0
VERTEX
8
OBJECT__24
10
224.000000
20
-5.143000
30
-3.895000
70
192
0
VERTEX
8
OBJECT__24
10
224.000000
20
-13.760000
30
4.200000
70
192
0
VERTEX
8
OBJECT__24
10
224.000000
20
5.118000
30
-3.895000
70
192
0
VERTEX
8
OBJECT__24
10
224.000000
20
13.735000
30
4.200000
70
192
0
VERTEX
8
OBJECT__24
10
0
20
0
30
0
70
128
71
1
72
2
73
3
0
VERTEX
8
OBJECT__24
10
0
20
0
30
0
70
128
71
1
72
4
73
2
0
VERTEX
8
OBJECT__24
10
0
20
0
30
0
70
128
71
3
72
5
73
1
0
VERTEX
8
OBJECT__24
10
0
20
0
30
0
70
128
71
1
72
6
73
4
0
SEQEND
8
OBJECT__24
0
POLYLINE
8
OBJECT__25
66
1
70
64
71
10
72
8
62
253
0
VERTEX
8
OBJECT__25
10
254.748001
20
8.559000
30
4.200000
70
192
0
VERTEX
8
OBJECT__25
10
254.748001
20
-8.584000
30
4.200000
70
192
0
VERTEX
8
OBJECT__25
10
249.964996
20
-12.399000
30
4.200000
70
192
0
VERTEX
8
OBJECT__25
10
257.403015
20
3.047000
30
4.200000
70
192
0
VERTEX
8
OBJECT__25
10
257.403015
20
-3.072000
30
4.200000
70
192
0
VERTEX
8
OBJECT__25
10
244.000000
20
-13.760000
30
4.200000
70
192
0
VERTEX
8
OBJECT__25
10
244.000000
20
13.735000
30
4.200000
70
192
0
VERTEX
8
OBJECT__25
10
249.964996
20
12.374000
30
4.200000
70
192
0
VERTEX
8
OBJECT__25
10
224.000000
20
13.735000
30
4.200000
70
192
0
VERTEX
8
OBJECT__25
10
224.000000
20
-13.760000
30
4.200000
70
192
0
VERTEX
8
OBJECT__25
10
0
20
0
30
0
70
128
71
1
72
2
73
3
0
VERTEX
8
OBJECT__25
10
0
20
0
30
0
70
128
71
2
72
1
73
4
0
VERTEX
8
OBJECT__25
10
0
20
0
30
0
70
128
71
4
72
5
73
2
0
VERTEX
8
OBJECT__25
10
0
20
0
30
0
70
128
71
6
72
7
73
8
0
VERTEX
8
OBJECT__25
10
0
20
0
30
0
70
128
71
9
72
7
73
6
0
VERTEX
8
OBJECT__25
10
0
20
0
30
0
70
128
71
8
72
1
73
6
0
VERTEX
8
OBJECT__25
10
0
20
0
30
0
70
128
71
3
72
6
73
1
0
VERTEX
8
OBJECT__25
10
0
20
0
30
0
70
128
71
6
72
10
73
9
0
SEQEND
8
OBJECT__25
0
POLYLINE
8
OBJECT__27
66
1
70
64
71
31
72
31
62
253
0
VERTEX
8
OBJECT__27
10
86.000000
20
-0.013000
30
25.200001
70
192
0
VERTEX
8
OBJECT__27
10
244.000000
20
-0.013000
30
25.200001
70
192
0
VERTEX
8
OBJECT__27
10
244.000000
20
5.476000
30
23.202000
70
192
0
VERTEX
8
OBJECT__27
10
86.000000
20
9.629000
30
21.691000
70
192
0
VERTEX
8
OBJECT__27
10
244.000000
20
10.308000
30
20.514999
70
192
0
VERTEX
8
OBJECT__27
10
244.000000
20
13.257000
30
15.407000
70
192
0
VERTEX
8
OBJECT__27
10
86.000000
20
14.760000
30
12.805000
70
192
0
VERTEX
8
OBJECT__27
10
244.000000
20
9.629000
30
21.691000
70
192
0
VERTEX
8
OBJECT__27
10
86.000000
20
-9.654000
30
21.691000
70
192
0
VERTEX
8
OBJECT__27
10
86.000000
20
-14.785000
30
12.805000
70
192
0
VERTEX
8
OBJECT__27
10
244.000000
20
-13.282000
30
15.407000
70
192
0
VERTEX
8
OBJECT__27
10
244.000000
20
-10.333000
30
20.514999
70
192
0
VERTEX
8
OBJECT__27
10
244.000000
20
-14.785000
30
12.805000
70
192
0
VERTEX
8
OBJECT__27
10
244.000000
20
-5.501000
30
23.202000
70
192
0
VERTEX
8
OBJECT__27
10
244.000000
20
-9.654000
30
21.691000
70
192
0
VERTEX
8
OBJECT__27
10
86.000000
20
12.978000
30
2.700000
70
192
0
VERTEX
8
OBJECT__27
10
86.000000
20
14.987000
30
10.200000
70
192
0
VERTEX
8
OBJECT__27
10
224.000000
20
13.735000
30
4.200000
70
192
0
VERTEX
8
OBJECT__27
10
224.000000
20
12.978000
30
2.700000
70
192
0
VERTEX
8
OBJECT__27
10
244.000000
20
14.431000
30
10.040000
70
192
0
VERTEX
8
OBJECT__27
10
244.000000
20
13.735000
30
4.200000
70
192
0
VERTEX
8
OBJECT__27
10
244.000000
20
14.760000
30
12.805000
70
192
0
VERTEX
8
OBJECT__27
10
224.000000
20
5.118000
30
-3.895000
70
192
0
VERTEX
8
OBJECT__27
10
86.000000
20
5.118000
30
-3.895000
70
192
0
VERTEX
8
OBJECT__27
10
224.000000
20
-5.143000
30
-3.895000
70
192
0
VERTEX
8
OBJECT__27
10
86.000000
20
-5.143000
30
-3.895000
70
192
0
VERTEX
8
OBJECT__27
10
224.000000
20
-13.003000
30
2.700000
70
192
0
VERTEX
8
OBJECT__27
10
244.000000
20
-14.456000
30
10.040000
70
192
0
VERTEX
8
OBJECT__27
10
224.000000
20
-13.760000
30
4.200000
70
192
0
VERTEX
8
OBJECT__27
10
244.000000
20
-13.760000
30
4.200000
70
192
0
VERTEX
8
OBJECT__27
10
86.000000
20
-13.003000
30
2.700000
70
192
0
VERTEX
8
OBJECT__27
10
0
20
0
30
0
70
128
71
1
72
2
73
3
0
VERTEX
8
OBJECT__27
10
0
20
0
30
0
70
128
71
3
72
4
73
1
0
VERTEX
8
OBJECT__27
10
0
20
0
30
0
70
128
71
4
72
5
73
6
0
VERTEX
8
OBJECT__27
10
0
20
0
30
0
70
128
71
6
72
7
73
4
0
VERTEX
8
OBJECT__27
10
0
20
0
30
0
70
128
71
4
72
8
73
5
0
VERTEX
8
OBJECT__27
10
0
20
0
30
0
70
128
71
9
72
10
73
11
0
VERTEX
8
OBJECT__27
10
0
20
0
30
0
70
128
71
11
72
12
73
9
0
VERTEX
8
OBJECT__27
10
0
20
0
30
0
70
128
71
10
72
13
73
11
0
VERTEX
8
OBJECT__27
10
0
20
0
30
0
70
128
71
1
72
9
73
14
0
VERTEX
8
OBJECT__27
10
0
20
0
30
0
70
128
71
9
72
15
73
14
0
VERTEX
8
OBJECT__27
10
0
20
0
30
0
70
128
71
16
72
17
73
18
0
VERTEX
8
OBJECT__27
10
0
20
0
30
0
70
128
71
18
72
19
73
16
0
VERTEX
8
OBJECT__27
10
0
20
0
30
0
70
128
71
20
72
21
73
18
0
VERTEX
8
OBJECT__27
10
0
20
0
30
0
70
128
71
7
72
22
73
20
0
VERTEX
8
OBJECT__27
10
0
20
0
30
0
70
128
71
18
72
7
73
20
0
VERTEX
8
OBJECT__27
10
0
20
0
30
0
70
128
71
16
72
19
73
23
0
VERTEX
8
OBJECT__27
10
0
20
0
30
0
70
128
71
24
72
23
73
25
0
VERTEX
8
OBJECT__27
10
0
20
0
30
0
70
128
71
26
72
25
73
27
0
VERTEX
8
OBJECT__27
10
0
20
0
30
0
70
128
71
28
72
10
73
29
0
VERTEX
8
OBJECT__27
10
0
20
0
30
0
70
128
71
29
72
30
73
28
0
VERTEX
8
OBJECT__27
10
0
20
0
30
0
70
128
71
31
72
27
73
29
0
VERTEX
8
OBJECT__27
10
0
20
0
30
0
70
128
71
29
72
10
73
31
0
VERTEX
8
OBJECT__27
10
0
20
0
30
0
70
128
71
28
72
13
73
10
0
VERTEX
8
OBJECT__27
10
0
20
0
30
0
70
128
71
27
72
31
73
26
0
VERTEX
8
OBJECT__27
10
0
20
0
30
0
70
128
71
25
72
26
73
24
0
VERTEX
8
OBJECT__27
10
0
20
0
30
0
70
128
71
23
72
24
73
16
0
VERTEX
8
OBJECT__27
10
0
20
0
30
0
70
128
71
17
72
7
73
18
0
VERTEX
8
OBJECT__27
10
0
20
0
30
0
70
128
71
14
72
2
73
1
0
VERTEX
8
OBJECT__27
10
0
20
0
30
0
70
128
71
12
72
15
73
9
0
VERTEX
8
OBJECT__27
10
0
20
0
30
0
70
128
71
6
72
22
73
7
0
VERTEX
8
OBJECT__27
10
0
20
0
30
0
70
128
71
3
72
8
73
4
0
SEQEND
8
OBJECT__27
0
POLYLINE
8
OBJECT__28
66
1
70
64
71
45
72
67
62
253
0
VERTEX
8
OBJECT__28
10
244.000000
20
-14.456000
30
10.040000
70
192
0
VERTEX
8
OBJECT__28
10
244.000000
20
-13.760000
30
4.200000
70
192
0
VERTEX
8
OBJECT__28
10
249.964996
20
-12.399000
30
4.200000
70
192
0
VERTEX
8
OBJECT__28
10
250.507996
20
-13.526000
30
9.974000
70
192
0
VERTEX
8
OBJECT__28
10
254.748001
20
-8.584000
30
4.200000
70
192
0
VERTEX
8
OBJECT__28
10
255.725998
20
-9.364000
30
9.974000
70
192
0
VERTEX
8
OBJECT__28
10
257.403015
20
-3.072000
30
4.200000
70
192
0
VERTEX
8
OBJECT__28
10
258.622009
20
3.325000
30
9.974000
70
192
0
VERTEX
8
OBJECT__28
10
258.622009
20
-3.350000
30
9.974000
70
192
0
VERTEX
8
OBJECT__28
10
255.725998
20
9.339000
30
9.974000
70
192
0
VERTEX
8
OBJECT__28
10
257.403015
20
3.047000
30
4.200000
70
192
0
VERTEX
8
OBJECT__28
10
250.507996
20
13.501000
30
9.974000
70
192
0
VERTEX
8
OBJECT__28
10
254.748001
20
8.559000
30
4.200000
70
192
0
VERTEX
8
OBJECT__28
10
244.000000
20
14.431000
30
10.040000
70
192
0
VERTEX
8
OBJECT__28
10
249.964996
20
12.374000
30
4.200000
70
192
0
VERTEX
8
OBJECT__28
10
250.041000
20
-12.556000
30
15.783000
70
192
0
VERTEX
8
OBJECT__28
10
244.000000
20
-13.282000
30
15.407000
70
192
0
VERTEX
8
OBJECT__28
10
244.000000
20
-14.785000
30
12.805000
70
192
0
VERTEX
8
OBJECT__28
10
254.884995
20
-8.693000
30
15.783000
70
192
0
VERTEX
8
OBJECT__28
10
257.572998
20
-3.110000
30
15.783000
70
192
0
VERTEX
8
OBJECT__28
10
257.572998
20
3.085000
30
15.783000
70
192
0
VERTEX
8
OBJECT__28
10
254.884995
20
8.668000
30
15.783000
70
192
0
VERTEX
8
OBJECT__28
10
250.041000
20
12.531000
30
15.783000
70
192
0
VERTEX
8
OBJECT__28
10
244.000000
20
14.760000
30
12.805000
70
192
0
VERTEX
8
OBJECT__28
10
248.636993
20
-9.640000
30
20.726000
70
192
0
VERTEX
8
OBJECT__28
10
252.354996
20
-6.675000
30
20.726000
70
192
0
VERTEX
8
OBJECT__28
10
254.417999
20
-2.390000
30
20.726000
70
192
0
VERTEX
8
OBJECT__28
10
254.417999
20
2.365000
30
20.726000
70
192
0
VERTEX
8
OBJECT__28
10
252.354996
20
6.650000
30
20.726000
70
192
0
VERTEX
8
OBJECT__28
10
248.636993
20
9.615000
30
20.726000
70
192
0
VERTEX
8
OBJECT__28
10
244.000000
20
13.257000
30
15.407000
70
192
0
VERTEX
8
OBJECT__28
10
244.000000
20
10.308000
30
20.514999
70
192
0
VERTEX
8
OBJECT__28
10
246.513000
20
-5.231000
30
24.035999
70
192
0
VERTEX
8
OBJECT__28
10
244.000000
20
-5.501000
30
23.202000
70
192
0
VERTEX
8
OBJECT__28
10
244.000000
20
-9.654000
30
21.691000
70
192
0
VERTEX
8
OBJECT__28
10
248.529007
20
-3.624000
30
24.035999
70
192
0
VERTEX
8
OBJECT__28
10
249.647003
20
-1.301000
30
24.035999
70
192
0
VERTEX
8
OBJECT__28
10
249.647003
20
1.276000
30
24.035999
70
192
0
VERTEX
8
OBJECT__28
10
248.529007
20
3.599000
30
24.035999
70
192
0
VERTEX
8
OBJECT__28
10
246.513000
20
5.206000
30
24.035999
70
192
0
VERTEX
8
OBJECT__28
10
244.000000
20
9.629000
30
21.691000
70
192
0
VERTEX
8
OBJECT__28
10
244.000000
20
5.476000
30
23.202000
70
192
0
VERTEX
8
OBJECT__28
10
244.000000
20
-0.013000
30
25.200001
70
192
0
VERTEX
8
OBJECT__28
10
244.000000
20
-10.333000
30
20.514999
70
192
0
VERTEX
8
OBJECT__28
10
244.000000
20
13.735000
30
4.200000
70
192
0
VERTEX
8
OBJECT__28
10
0
20
0
30
0
70
128
71
1
72
2
73
3
0
VERTEX
8
OBJECT__28
10
0
20
0
30
0
70
128
71
4
72
3
73
5
0
VERTEX
8
OBJECT__28
10
0
20
0
30
0
70
128
71
6
72
5
73
7
0
VERTEX
8
OBJECT__28
10
0
20
0
30
0
70
128
71
8
72
9
73
7
0
VERTEX
8
OBJECT__28
10
0
20
0
30
0
70
128
71
10
72
8
73
11
0
VERTEX
8
OBJECT__28
10
0
20
0
30
0
70
128
71
12
72
10
73
13
0
VERTEX
8
OBJECT__28
10
0
20
0
30
0
70
128
71
14
72
12
73
15
0
VERTEX
8
OBJECT__28
10
0
20
0
30
0
70
128
71
16
72
17
73
18
0
VERTEX
8
OBJECT__28
10
0
20
0
30
0
70
128
71
18
72
4
73
16
0
VERTEX
8
OBJECT__28
10
0
20
0
30
0
70
128
71
4
72
6
73
19
0
VERTEX
8
OBJECT__28
10
0
20
0
30
0
70
128
71
6
72
9
73
20
0
VERTEX
8
OBJECT__28
10
0
20
0
30
0
70
128
71
9
72
8
73
21
0
VERTEX
8
OBJECT__28
10
0
20
0
30
0
70
128
71
8
72
10
73
22
0
VERTEX
8
OBJECT__28
10
0
20
0
30
0
70
128
71
10
72
12
73
23
0
VERTEX
8
OBJECT__28
10
0
20
0
30
0
70
128
71
23
72
12
73
24
0
VERTEX
8
OBJECT__28
10
0
20
0
30
0
70
128
71
12
72
14
73
24
0
VERTEX
8
OBJECT__28
10
0
20
0
30
0
70
128
71
17
72
16
73
25
0
VERTEX
8
OBJECT__28
10
0
20
0
30
0
70
128
71
16
72
19
73
26
0
VERTEX
8
OBJECT__28
10
0
20
0
30
0
70
128
71
19
72
20
73
27
0
VERTEX
8
OBJECT__28
10
0
20
0
30
0
70
128
71
20
72
21
73
28
0
VERTEX
8
OBJECT__28
10
0
20
0
30
0
70
128
71
21
72
22
73
29
0
VERTEX
8
OBJECT__28
10
0
20
0
30
0
70
128
71
22
72
23
73
30
0
VERTEX
8
OBJECT__28
10
0
20
0
30
0
70
128
71
31
72
32
73
30
0
VERTEX
8
OBJECT__28
10
0
20
0
30
0
70
128
71
25
72
33
73
34
0
VERTEX
8
OBJECT__28
10
0
20
0
30
0
70
128
71
34
72
35
73
25
0
VERTEX
8
OBJECT__28
10
0
20
0
30
0
70
128
71
25
72
26
73
36
0
VERTEX
8
OBJECT__28
10
0
20
0
30
0
70
128
71
26
72
27
73
37
0
VERTEX
8
OBJECT__28
10
0
20
0
30
0
70
128
71
27
72
28
73
38
0
VERTEX
8
OBJECT__28
10
0
20
0
30
0
70
128
71
28
72
29
73
39
0
VERTEX
8
OBJECT__28
10
0
20
0
30
0
70
128
71
29
72
30
73
40
0
VERTEX
8
OBJECT__28
10
0
20
0
30
0
70
128
71
30
72
41
73
42
0
VERTEX
8
OBJECT__28
10
0
20
0
30
0
70
128
71
30
72
32
73
41
0
VERTEX
8
OBJECT__28
10
0
20
0
30
0
70
128
71
43
72
40
73
42
0
VERTEX
8
OBJECT__28
10
0
20
0
30
0
70
128
71
43
72
39
73
40
0
VERTEX
8
OBJECT__28
10
0
20
0
30
0
70
128
71
43
72
38
73
39
0
VERTEX
8
OBJECT__28
10
0
20
0
30
0
70
128
71
43
72
37
73
38
0
VERTEX
8
OBJECT__28
10
0
20
0
30
0
70
128
71
43
72
36
73
37
0
VERTEX
8
OBJECT__28
10
0
20
0
30
0
70
128
71
43
72
33
73
36
0
VERTEX
8
OBJECT__28
10
0
20
0
30
0
70
128
71
43
72
34
73
33
0
VERTEX
8
OBJECT__28
10
0
20
0
30
0
70
128
71
42
72
40
73
30
0
VERTEX
8
OBJECT__28
10
0
20
0
30
0
70
128
71
40
72
39
73
29
0
VERTEX
8
OBJECT__28
10
0
20
0
30
0
70
128
71
39
72
38
73
28
0
VERTEX
8
OBJECT__28
10
0
20
0
30
0
70
128
71
38
72
37
73
27
0
VERTEX
8
OBJECT__28
10
0
20
0
30
0
70
128
71
37
72
36
73
26
0
VERTEX
8
OBJECT__28
10
0
20
0
30
0
70
128
71
36
72
33
73
25
0
VERTEX
8
OBJECT__28
10
0
20
0
30
0
70
128
71
35
72
44
73
25
0
VERTEX
8
OBJECT__28
10
0
20
0
30
0
70
128
71
30
72
23
73
31
0
VERTEX
8
OBJECT__28
10
0
20
0
30
0
70
128
71
30
72
29
73
22
0
VERTEX
8
OBJECT__28
10
0
20
0
30
0
70
128
71
29
72
28
73
21
0
VERTEX
8
OBJECT__28
10
0
20
0
30
0
70
128
71
28
72
27
73
20
0
VERTEX
8
OBJECT__28
10
0
20
0
30
0
70
128
71
27
72
26
73
19
0
VERTEX
8
OBJECT__28
10
0
20
0
30
0
70
128
71
26
72
25
73
16
0
VERTEX
8
OBJECT__28
10
0
20
0
30
0
70
128
71
25
72
44
73
17
0
VERTEX
8
OBJECT__28
10
0
20
0
30
0
70
128
71
24
72
31
73
23
0
VERTEX
8
OBJECT__28
10
0
20
0
30
0
70
128
71
23
72
22
73
10
0
VERTEX
8
OBJECT__28
10
0
20
0
30
0
70
128
71
22
72
21
73
8
0
VERTEX
8
OBJECT__28
10
0
20
0
30
0
70
128
71
21
72
20
73
9
0
VERTEX
8
OBJECT__28
10
0
20
0
30
0
70
128
71
20
72
19
73
6
0
VERTEX
8
OBJECT__28
10
0
20
0
30
0
70
128
71
19
72
16
73
4
0
VERTEX
8
OBJECT__28
10
0
20
0
30
0
70
128
71
18
72
1
73
4
0
VERTEX
8
OBJECT__28
10
0
20
0
30
0
70
128
71
15
72
45
73
14
0
VERTEX
8
OBJECT__28
10
0
20
0
30
0
70
128
71
13
72
15
73
12
0
VERTEX
8
OBJECT__28
10
0
20
0
30
0
70
128
71
11
72
13
73
10
0
VERTEX
8
OBJECT__28
10
0
20
0
30
0
70
128
71
7
72
11
73
8
0
VERTEX
8
OBJECT__28
10
0
20
0
30
0
70
128
71
7
72
9
73
6
0
VERTEX
8
OBJECT__28
10
0
20
0
30
0
70
128
71
5
72
6
73
4
0
VERTEX
8
OBJECT__28
10
0
20
0
30
0
70
128
71
3
72
4
73
1
0
SEQEND
8
OBJECT__28
0
POLYLINE
8
OBJECT__29
66
1
70
64
71
13
72
12
62
253
0
VERTEX
8
OBJECT__29
10
10.915000
20
-0.013000
30
-41.799999
70
192
0
VERTEX
8
OBJECT__29
10
10.858000
20
-3.794000
30
-45.582001
70
192
0
VERTEX
8
OBJECT__29
10
10.858000
20
-2.548000
30
-46.098000
70
192
0
VERTEX
8
OBJECT__29
10
10.858000
20
-0.013000
30
-36.452000
70
192
0
VERTEX
8
OBJECT__29
10
10.858000
20
-2.548000
30
-37.501999
70
192
0
VERTEX
8
OBJECT__29
10
10.858000
20
3.769000
30
-38.018002
70
192
0
VERTEX
8
OBJECT__29
10
10.858000
20
2.523000
30
-37.501999
70
192
0
VERTEX
8
OBJECT__29
10
10.858000
20
-0.013000
30
-47.147999
70
192
0
VERTEX
8
OBJECT__29
10
10.858000
20
2.523000
30
-46.098000
70
192
0
VERTEX
8
OBJECT__29
10
10.858000
20
3.769000
30
-45.582001
70
192
0
VERTEX
8
OBJECT__29
10
10.858000
20
5.335000
30
-41.799999
70
192
0
VERTEX
8
OBJECT__29
10
10.858000
20
-3.794000
30
-38.018002
70
192
0
VERTEX
8
OBJECT__29
10
10.858000
20
-5.360000
30
-41.799999
70
192
0
VERTEX
8
OBJECT__29
10
0
20
0
30
0
70
128
71
1
72
2
73
3
0
VERTEX
8
OBJECT__29
10
0
20
0
30
0
70
128
71
1
72
4
73
5
0
VERTEX
8
OBJECT__29
10
0
20
0
30
0
70
128
71
1
72
6
73
7
0
VERTEX
8
OBJECT__29
10
0
20
0
30
0
70
128
71
1
72
8
73
9
0
VERTEX
8
OBJECT__29
10
0
20
0
30
0
70
128
71
9
72
10
73
1
0
VERTEX
8
OBJECT__29
10
0
20
0
30
0
70
128
71
10
72
11
73
1
0
VERTEX
8
OBJECT__29
10
0
20
0
30
0
70
128
71
11
72
6
73
1
0
VERTEX
8
OBJECT__29
10
0
20
0
30
0
70
128
71
7
72
4
73
1
0
VERTEX
8
OBJECT__29
10
0
20
0
30
0
70
128
71
5
72
12
73
1
0
VERTEX
8
OBJECT__29
10
0
20
0
30
0
70
128
71
12
72
13
73
1
0
VERTEX
8
OBJECT__29
10
0
20
0
30
0
70
128
71
13
72
2
73
1
0
VERTEX
8
OBJECT__29
10
0
20
0
30
0
70
128
71
3
72
8
73
1
0
SEQEND
8
OBJECT__29
0
POLYLINE
8
OBJECT__30
66
1
70
64
71
18
72
18
62
253
0
VERTEX
8
OBJECT__30
10
7.875000
20
5.387000
30
-41.799999
70
192
0
VERTEX
8
OBJECT__30
10
10.858000
20
5.335000
30
-41.799999
70
192
0
VERTEX
8
OBJECT__30
10
10.858000
20
3.769000
30
-45.582001
70
192
0
VERTEX
8
OBJECT__30
10
7.875000
20
2.687000
30
-46.477001
70
192
0
VERTEX
8
OBJECT__30
10
10.858000
20
2.523000
30
-46.098000
70
192
0
VERTEX
8
OBJECT__30
10
10.858000
20
-0.013000
30
-47.147999
70
192
0
VERTEX
8
OBJECT__30
10
7.875000
20
-2.713000
30
-46.477001
70
192
0
VERTEX
8
OBJECT__30
10
7.875000
20
-5.413000
30
-41.799999
70
192
0
VERTEX
8
OBJECT__30
10
10.858000
20
-3.794000
30
-45.582001
70
192
0
VERTEX
8
OBJECT__30
10
10.858000
20
-2.548000
30
-46.098000
70
192
0
VERTEX
8
OBJECT__30
10
10.858000
20
-5.360000
30
-41.799999
70
192
0
VERTEX
8
OBJECT__30
10
10.858000
20
-3.794000
30
-38.018002
70
192
0
VERTEX
8
OBJECT__30
10
7.875000
20
-2.713000
30
-37.123001
70
192
0
VERTEX
8
OBJECT__30
10
7.875000
20
2.687000
30
-37.123001
70
192
0
VERTEX
8
OBJECT__30
10
10.858000
20
-0.013000
30
-36.452000
70
192
0
VERTEX
8
OBJECT__30
10
10.858000
20
-2.548000
30
-37.501999
70
192
0
VERTEX
8
OBJECT__30
10
10.858000
20
3.769000
30
-38.018002
70
192
0
VERTEX
8
OBJECT__30
10
10.858000
20
2.523000
30
-37.501999
70
192
0
VERTEX
8
OBJECT__30
10
0
20
0
30
0
70
128
71
1
72
2
73
3
0
VERTEX
8
OBJECT__30
10
0
20
0
30
0
70
128
71
3
72
4
73
1
0
VERTEX
8
OBJECT__30
10
0
20
0
30
0
70
128
71
4
72
5
73
6
0
VERTEX
8
OBJECT__30
10
0
20
0
30
0
70
128
71
6
72
7
73
4
0
VERTEX
8
OBJECT__30
10
0
20
0
30
0
70
128
71
8
72
7
73
9
0
VERTEX
8
OBJECT__30
10
0
20
0
30
0
70
128
71
7
72
10
73
9
0
VERTEX
8
OBJECT__30
10
0
20
0
30
0
70
128
71
8
72
11
73
12
0
VERTEX
8
OBJECT__30
10
0
20
0
30
0
70
128
71
12
72
13
73
8
0
VERTEX
8
OBJECT__30
10
0
20
0
30
0
70
128
71
14
72
13
73
15
0
VERTEX
8
OBJECT__30
10
0
20
0
30
0
70
128
71
13
72
16
73
15
0
VERTEX
8
OBJECT__30
10
0
20
0
30
0
70
128
71
1
72
14
73
17
0
VERTEX
8
OBJECT__30
10
0
20
0
30
0
70
128
71
14
72
18
73
17
0
VERTEX
8
OBJECT__30
10
0
20
0
30
0
70
128
71
17
72
2
73
1
0
VERTEX
8
OBJECT__30
10
0
20
0
30
0
70
128
71
15
72
18
73
14
0
VERTEX
8
OBJECT__30
10
0
20
0
30
0
70
128
71
12
72
16
73
13
0
VERTEX
8
OBJECT__30
10
0
20
0
30
0
70
128
71
9
72
11
73
8
0
VERTEX
8
OBJECT__30
10
0
20
0
30
0
70
128
71
6
72
10
73
7
0
VERTEX
8
OBJECT__30
10
0
20
0
30
0
70
128
71
3
72
5
73
4
0
SEQEND
8
OBJECT__30
0
POLYLINE
8
OBJECT__32
66
1
70
64
71
18
72
18
62
253
0
VERTEX
8
OBJECT__32
10
7.875000
20
-2.713000
30
-37.123001
70
192
0
VERTEX
8
OBJECT__32
10
7.875000
20
2.687000
30
-37.123001
70
192
0
VERTEX
8
OBJECT__32
10
7.875000
20
1.037000
30
-35.650002
70
192
0
VERTEX
8
OBJECT__32
10
7.875000
20
-1.063000
30
-35.650002
70
192
0
VERTEX
8
OBJECT__32
10
7.875000
20
-5.305000
30
-37.407001
70
192
0
VERTEX
8
OBJECT__32
10
7.875000
20
2.687000
30
-46.477001
70
192
0
VERTEX
8
OBJECT__32
10
7.875000
20
-2.713000
30
-46.477001
70
192
0
VERTEX
8
OBJECT__32
10
7.875000
20
-1.063000
30
-47.950001
70
192
0
VERTEX
8
OBJECT__32
10
7.875000
20
-5.413000
30
-41.799999
70
192
0
VERTEX
8
OBJECT__32
10
7.875000
20
-7.063000
30
-41.950001
70
192
0
VERTEX
8
OBJECT__32
10
7.875000
20
-5.305000
30
-46.193001
70
192
0
VERTEX
8
OBJECT__32
10
7.875000
20
1.037000
30
-47.950001
70
192
0
VERTEX
8
OBJECT__32
10
7.875000
20
5.280000
30
-46.193001
70
192
0
VERTEX
8
OBJECT__32
10
7.875000
20
5.387000
30
-41.799999
70
192
0
VERTEX
8
OBJECT__32
10
7.875000
20
-7.063000
30
-41.650002
70
192
0
VERTEX
8
OBJECT__32
10
7.875000
20
7.038000
30
-41.950001
70
192
0
VERTEX
8
OBJECT__32
10
7.875000
20
7.038000
30
-41.650002
70
192
0
VERTEX
8
OBJECT__32
10
7.875000
20
5.280000
30
-37.407001
70
192
0
VERTEX
8
OBJECT__32
10
0
20
0
30
0
70
128
71
1
72
2
73
3
0
VERTEX
8
OBJECT__32
10
0
20
0
30
0
70
128
71
4
72
5
73
1
0
VERTEX
8
OBJECT__32
10
0
20
0
30
0
70
128
71
6
72
7
73
8
0
VERTEX
8
OBJECT__32
10
0
20
0
30
0
70
128
71
3
72
4
73
1
0
VERTEX
8
OBJECT__32
10
0
20
0
30
0
70
128
71
9
72
1
73
5
0
VERTEX
8
OBJECT__32
10
0
20
0
30
0
70
128
71
9
72
10
73
11
0
VERTEX
8
OBJECT__32
10
0
20
0
30
0
70
128
71
12
72
13
73
6
0
VERTEX
8
OBJECT__32
10
0
20
0
30
0
70
128
71
14
72
6
73
13
0
VERTEX
8
OBJECT__32
10
0
20
0
30
0
70
128
71
5
72
15
73
9
0
VERTEX
8
OBJECT__32
10
0
20
0
30
0
70
128
71
9
72
15
73
10
0
VERTEX
8
OBJECT__32
10
0
20
0
30
0
70
128
71
8
72
12
73
6
0
VERTEX
8
OBJECT__32
10
0
20
0
30
0
70
128
71
13
72
16
73
14
0
VERTEX
8
OBJECT__32
10
0
20
0
30
0
70
128
71
14
72
17
73
18
0
VERTEX
8
OBJECT__32
10
0
20
0
30
0
70
128
71
11
72
7
73
9
0
VERTEX
8
OBJECT__32
10
0
20
0
30
0
70
128
71
16
72
17
73
14
0
VERTEX
8
OBJECT__32
10
0
20
0
30
0
70
128
71
2
72
18
73
3
0
VERTEX
8
OBJECT__32
10
0
20
0
30
0
70
128
71
18
72
2
73
14
0
VERTEX
8
OBJECT__32
10
0
20
0
30
0
70
128
71
7
72
11
73
8
0
SEQEND
8
OBJECT__32
0
POLYLINE
8
OBJECT__33
66
1
70
64
71
18
72
18
62
253
0
VERTEX
8
OBJECT__33
10
7.875000
20
2.687000
30
-54.623001
70
192
0
VERTEX
8
OBJECT__33
10
7.875000
20
1.037000
30
-53.150002
70
192
0
VERTEX
8
OBJECT__33
10
7.875000
20
-1.063000
30
-53.150002
70
192
0
VERTEX
8
OBJECT__33
10
7.875000
20
-5.305000
30
-54.907001
70
192
0
VERTEX
8
OBJECT__33
10
7.875000
20
-2.713000
30
-54.623001
70
192
0
VERTEX
8
OBJECT__33
10
7.875000
20
-5.413000
30
-59.299999
70
192
0
VERTEX
8
OBJECT__33
10
7.875000
20
-7.063000
30
-59.450001
70
192
0
VERTEX
8
OBJECT__33
10
7.875000
20
-5.305000
30
-63.693001
70
192
0
VERTEX
8
OBJECT__33
10
7.875000
20
2.687000
30
-63.977001
70
192
0
VERTEX
8
OBJECT__33
10
7.875000
20
-2.713000
30
-63.977001
70
192
0
VERTEX
8
OBJECT__33
10
7.875000
20
-1.063000
30
-65.449997
70
192
0
VERTEX
8
OBJECT__33
10
7.875000
20
5.387000
30
-59.299999
70
192
0
VERTEX
8
OBJECT__33
10
7.875000
20
5.280000
30
-63.693001
70
192
0
VERTEX
8
OBJECT__33
10
7.875000
20
-7.063000
30
-59.150002
70
192
0
VERTEX
8
OBJECT__33
10
7.875000
20
1.037000
30
-65.449997
70
192
0
VERTEX
8
OBJECT__33
10
7.875000
20
7.038000
30
-59.450001
70
192
0
VERTEX
8
OBJECT__33
10
7.875000
20
7.038000
30
-59.150002
70
192
0
VERTEX
8
OBJECT__33
10
7.875000
20
5.280000
30
-54.907001
70
192
0
VERTEX
8
OBJECT__33
10
0
20
0
30
0
70
128
71
1
72
2
73
3
0
VERTEX
8
OBJECT__33
10
0
20
0
30
0
70
128
71
3
72
4
73
5
0
VERTEX
8
OBJECT__33
10
0
20
0
30
0
70
128
71
3
72
5
73
1
0
VERTEX
8
OBJECT__33
10
0
20
0
30
0
70
128
71
6
72
5
73
4
0
VERTEX
8
OBJECT__33
10
0
20
0
30
0
70
128
71
6
72
7
73
8
0
VERTEX
8
OBJECT__33
10
0
20
0
30
0
70
128
71
9
72
10
73
11
0
VERTEX
8
OBJECT__33
10
0
20
0
30
0
70
128
71
12
72
9
73
13
0
VERTEX
8
OBJECT__33
10
0
20
0
30
0
70
128
71
4
72
14
73
6
0
VERTEX
8
OBJECT__33
10
0
20
0
30
0
70
128
71
6
72
14
73
7
0
VERTEX
8
OBJECT__33
10
0
20
0
30
0
70
128
71
11
72
15
73
9
0
VERTEX
8
OBJECT__33
10
0
20
0
30
0
70
128
71
13
72
16
73
12
0
VERTEX
8
OBJECT__33
10
0
20
0
30
0
70
128
71
12
72
17
73
18
0
VERTEX
8
OBJECT__33
10
0
20
0
30
0
70
128
71
8
72
10
73
6
0
VERTEX
8
OBJECT__33
10
0
20
0
30
0
70
128
71
15
72
13
73
9
0
VERTEX
8
OBJECT__33
10
0
20
0
30
0
70
128
71
18
72
1
73
12
0
VERTEX
8
OBJECT__33
10
0
20
0
30
0
70
128
71
10
72
8
73
11
0
VERTEX
8
OBJECT__33
10
0
20
0
30
0
70
128
71
1
72
18
73
2
0
VERTEX
8
OBJECT__33
10
0
20
0
30
0
70
128
71
16
72
17
73
12
0
SEQEND
8
OBJECT__33
0
POLYLINE
8
OBJECT__34
66
1
70
64
71
18
72
18
62
253
0
VERTEX
8
OBJECT__34
10
7.875000
20
5.387000
30
-59.299999
70
192
0
VERTEX
8
OBJECT__34
10
10.858000
20
5.335000
30
-59.299999
70
192
0
VERTEX
8
OBJECT__34
10
10.858000
20
3.769000
30
-63.082001
70
192
0
VERTEX
8
OBJECT__34
10
7.875000
20
2.687000
30
-63.977001
70
192
0
VERTEX
8
OBJECT__34
10
7.875000
20
-2.713000
30
-63.977001
70
192
0
VERTEX
8
OBJECT__34
10
10.858000
20
-0.013000
30
-64.648003
70
192
0
VERTEX
8
OBJECT__34
10
10.858000
20
2.523000
30
-63.598000
70
192
0
VERTEX
8
OBJECT__34
10
7.875000
20
-5.413000
30
-59.299999
70
192
0
VERTEX
8
OBJECT__34
10
10.858000
20
-3.794000
30
-63.082001
70
192
0
VERTEX
8
OBJECT__34
10
10.858000
20
-2.548000
30
-63.598000
70
192
0
VERTEX
8
OBJECT__34
10
10.858000
20
-5.360000
30
-59.299999
70
192
0
VERTEX
8
OBJECT__34
10
10.858000
20
-3.794000
30
-55.518002
70
192
0
VERTEX
8
OBJECT__34
10
7.875000
20
-2.713000
30
-54.623001
70
192
0
VERTEX
8
OBJECT__34
10
7.875000
20
2.687000
30
-54.623001
70
192
0
VERTEX
8
OBJECT__34
10
10.858000
20
-0.013000
30
-53.952000
70
192
0
VERTEX
8
OBJECT__34
10
10.858000
20
-2.548000
30
-55.001999
70
192
0
VERTEX
8
OBJECT__34
10
10.858000
20
3.769000
30
-55.518002
70
192
0
VERTEX
8
OBJECT__34
10
10.858000
20
2.523000
30
-55.001999
70
192
0
VERTEX
8
OBJECT__34
10
0
20
0
30
0
70
128
71
1
72
2
73
3
0
VERTEX
8
OBJECT__34
10
0
20
0
30
0
70
128
71
3
72
4
73
1
0
VERTEX
8
OBJECT__34
10
0
20
0
30
0
70
128
71
5
72
4
73
6
0
VERTEX
8
OBJECT__34
10
0
20
0
30
0
70
128
71
4
72
7
73
6
0
VERTEX
8
OBJECT__34
10
0
20
0
30
0
70
128
71
8
72
5
73
9
0
VERTEX
8
OBJECT__34
10
0
20
0
30
0
70
128
71
5
72
10
73
9
0
VERTEX
8
OBJECT__34
10
0
20
0
30
0
70
128
71
8
72
11
73
12
0
VERTEX
8
OBJECT__34
10
0
20
0
30
0
70
128
71
12
72
13
73
8
0
VERTEX
8
OBJECT__34
10
0
20
0
30
0
70
128
71
14
72
13
73
15
0
VERTEX
8
OBJECT__34
10
0
20
0
30
0
70
128
71
13
72
16
73
15
0
VERTEX
8
OBJECT__34
10
0
20
0
30
0
70
128
71
1
72
14
73
17
0
VERTEX
8
OBJECT__34
10
0
20
0
30
0
70
128
71
14
72
18
73
17
0
VERTEX
8
OBJECT__34
10
0
20
0
30
0
70
128
71
17
72
2
73
1
0
VERTEX
8
OBJECT__34
10
0
20
0
30
0
70
128
71
15
72
18
73
14
0
VERTEX
8
OBJECT__34
10
0
20
0
30
0
70
128
71
12
72
16
73
13
0
VERTEX
8
OBJECT__34
10
0
20
0
30
0
70
128
71
9
72
11
73
8
0
VERTEX
8
OBJECT__34
10
0
20
0
30
0
70
128
71
6
72
10
73
5
0
VERTEX
8
OBJECT__34
10
0
20
0
30
0
70
128
71
3
72
7
73
4
0
SEQEND
8
OBJECT__34
0
POLYLINE
8
OBJECT__35
66
1
70
64
71
13
72
12
62
253
0
VERTEX
8
OBJECT__35
10
10.915000
20
-0.013000
30
-59.299999
70
192
0
VERTEX
8
OBJECT__35
10
10.858000
20
-3.794000
30
-63.082001
70
192
0
VERTEX
8
OBJECT__35
10
10.858000
20
-2.548000
30
-63.598000
70
192
0
VERTEX
8
OBJECT__35
10
10.858000
20
-0.013000
30
-53.952000
70
192
0
VERTEX
8
OBJECT__35
10
10.858000
20
-2.548000
30
-55.001999
70
192
0
VERTEX
8
OBJECT__35
10
10.858000
20
3.769000
30
-55.518002
70
192
0
VERTEX
8
OBJECT__35
10
10.858000
20
2.523000
30
-55.001999
70
192
0
VERTEX
8
OBJECT__35
10
10.858000
20
-0.013000
30
-64.648003
70
192
0
VERTEX
8
OBJECT__35
10
10.858000
20
2.523000
30
-63.598000
70
192
0
VERTEX
8
OBJECT__35
10
10.858000
20
3.769000
30
-63.082001
70
192
0
VERTEX
8
OBJECT__35
10
10.858000
20
5.335000
30
-59.299999
70
192
0
VERTEX
8
OBJECT__35
10
10.858000
20
-3.794000
30
-55.518002
70
192
0
VERTEX
8
OBJECT__35
10
10.858000
20
-5.360000
30
-59.299999
70
192
0
VERTEX
8
OBJECT__35
10
0
20
0
30
0
70
128
71
1
72
2
73
3
0
VERTEX
8
OBJECT__35
10
0
20
0
30
0
70
128
71
1
72
4
73
5
0
VERTEX
8
OBJECT__35
10
0
20
0
30
0
70
128
71
1
72
6
73
7
0
VERTEX
8
OBJECT__35
10
0
20
0
30
0
70
128
71
1
72
8
73
9
0
VERTEX
8
OBJECT__35
10
0
20
0
30
0
70
128
71
9
72
10
73
1
0
VERTEX
8
OBJECT__35
10
0
20
0
30
0
70
128
71
10
72
11
73
1
0
VERTEX
8
OBJECT__35
10
0
20
0
30
0
70
128
71
11
72
6
73
1
0
VERTEX
8
OBJECT__35
10
0
20
0
30
0
70
128
71
7
72
4
73
1
0
VERTEX
8
OBJECT__35
10
0
20
0
30
0
70
128
71
5
72
12
73
1
0
VERTEX
8
OBJECT__35
10
0
20
0
30
0
70
128
71
12
72
13
73
1
0
VERTEX
8
OBJECT__35
10
0
20
0
30
0
70
128
71
13
72
2
73
1
0
VERTEX
8
OBJECT__35
10
0
20
0
30
0
70
128
71
3
72
8
73
1
0
SEQEND
8
OBJECT__35
0
POLYLINE
8
OBJECT__36
66
1
70
64
71
9
72
7
62
253
0
VERTEX
8
OBJECT__36
10
254.750000
20
-0.013000
30
-3.638000
70
192
0
VERTEX
8
OBJECT__36
10
245.867004
20
-10.599000
30
-3.638000
70
192
0
VERTEX
8
OBJECT__36
10
238.625000
20
-9.322000
30
-3.638000
70
192
0
VERTEX
8
OBJECT__36
10
233.897995
20
-3.689000
30
-3.638000
70
192
0
VERTEX
8
OBJECT__36
10
245.867004
20
10.574000
30
-3.638000
70
192
0
VERTEX
8
OBJECT__36
10
252.235001
20
6.897000
30
-3.638000
70
192
0
VERTEX
8
OBJECT__36
10
233.897995
20
3.664000
30
-3.638000
70
192
0
VERTEX
8
OBJECT__36
10
252.235001
20
-6.922000
30
-3.638000
70
192
0
VERTEX
8
OBJECT__36
10
238.625000
20
9.297000
30
-3.638000
70
192
0
VERTEX
8
OBJECT__36
10
0
20
0
30
0
70
128
71
1
72
2
73
3
0
VERTEX
8
OBJECT__36
10
0
20
0
30
0
70
128
71
4
72
5
73
6
0
VERTEX
8
OBJECT__36
10
0
20
0
30
0
70
128
71
5
72
4
73
7
0
VERTEX
8
OBJECT__36
10
0
20
0
30
0
70
128
71
1
72
8
73
2
0
VERTEX
8
OBJECT__36
10
0
20
0
30
0
70
128
71
7
72
9
73
5
0
VERTEX
8
OBJECT__36
10
0
20
0
30
0
70
128
71
6
72
1
73
4
0
VERTEX
8
OBJECT__36
10
0
20
0
30
0
70
128
71
3
72
4
73
1
0
SEQEND
8
OBJECT__36
0
POLYLINE
8
OBJECT__37
66
1
70
64
71
18
72
18
62
253
0
VERTEX
8
OBJECT__37
10
256.000000
20
-0.013000
30
-2.916000
70
192
0
VERTEX
8
OBJECT__37
10
254.750000
20
-0.013000
30
-3.638000
70
192
0
VERTEX
8
OBJECT__37
10
252.235001
20
6.897000
30
-3.638000
70
192
0
VERTEX
8
OBJECT__37
10
253.192993
20
7.701000
30
-2.916000
70
192
0
VERTEX
8
OBJECT__37
10
245.867004
20
10.574000
30
-3.638000
70
192
0
VERTEX
8
OBJECT__37
10
246.084000
20
11.805000
30
-2.916000
70
192
0
VERTEX
8
OBJECT__37
10
238.625000
20
9.297000
30
-3.638000
70
192
0
VERTEX
8
OBJECT__37
10
232.723999
20
4.092000
30
-2.916000
70
192
0
VERTEX
8
OBJECT__37
10
238.000000
20
10.380000
30
-2.916000
70
192
0
VERTEX
8
OBJECT__37
10
232.723999
20
-4.117000
30
-2.916000
70
192
0
VERTEX
8
OBJECT__37
10
233.897995
20
3.664000
30
-3.638000
70
192
0
VERTEX
8
OBJECT__37
10
238.000000
20
-10.405000
30
-2.916000
70
192
0
VERTEX
8
OBJECT__37
10
233.897995
20
-3.689000
30
-3.638000
70
192
0
VERTEX
8
OBJECT__37
10
246.084000
20
-11.830000
30
-2.916000
70
192
0
VERTEX
8
OBJECT__37
10
238.625000
20
-9.322000
30
-3.638000
70
192
0
VERTEX
8
OBJECT__37
10
253.192993
20
-7.726000
30
-2.916000
70
192
0
VERTEX
8
OBJECT__37
10
245.867004
20
-10.599000
30
-3.638000
70
192
0
VERTEX
8
OBJECT__37
10
252.235001
20
-6.922000
30
-3.638000
70
192
0
VERTEX
8
OBJECT__37
10
0
20
0
30
0
70
128
71
1
72
2
73
3
0
VERTEX
8
OBJECT__37
10
0
20
0
30
0
70
128
71
4
72
3
73
5
0
VERTEX
8
OBJECT__37
10
0
20
0
30
0
70
128
71
6
72
5
73
7
0
VERTEX
8
OBJECT__37
10
0
20
0
30
0
70
128
71
8
72
9
73
7
0
VERTEX
8
OBJECT__37
10
0
20
0
30
0
70
128
71
10
72
8
73
11
0
VERTEX
8
OBJECT__37
10
0
20
0
30
0
70
128
71
12
72
10
73
13
0
VERTEX
8
OBJECT__37
10
0
20
0
30
0
70
128
71
14
72
12
73
15
0
VERTEX
8
OBJECT__37
10
0
20
0
30
0
70
128
71
16
72
14
73
17
0
VERTEX
8
OBJECT__37
10
0
20
0
30
0
70
128
71
1
72
16
73
18
0
VERTEX
8
OBJECT__37
10
0
20
0
30
0
70
128
71
18
72
2
73
1
0
VERTEX
8
OBJECT__37
10
0
20
0
30
0
70
128
71
17
72
18
73
16
0
VERTEX
8
OBJECT__37
10
0
20
0
30
0
70
128
71
15
72
17
73
14
0
VERTEX
8
OBJECT__37
10
0
20
0
30
0
70
128
71
13
72
15
73
12
0
VERTEX
8
OBJECT__37
10
0
20
0
30
0
70
128
71
11
72
13
73
10
0
VERTEX
8
OBJECT__37
10
0
20
0
30
0
70
128
71
7
72
11
73
8
0
VERTEX
8
OBJECT__37
10
0
20
0
30
0
70
128
71
7
72
9
73
6
0
VERTEX
8
OBJECT__37
10
0
20
0
30
0
70
128
71
5
72
6
73
4
0
VERTEX
8
OBJECT__37
10
0
20
0
30
0
70
128
71
3
72
4
73
1
0
SEQEND
8
OBJECT__37
0
POLYLINE
8
OBJECT__39
66
1
70
64
71
18
72
18
62
253
0
VERTEX
8
OBJECT__39
10
253.192993
20
7.701000
30
-2.916000
70
192
0
VERTEX
8
OBJECT__39
10
253.192993
20
7.701000
30
5.700000
70
192
0
VERTEX
8
OBJECT__39
10
256.000000
20
-0.013000
30
5.700000
70
192
0
VERTEX
8
OBJECT__39
10
246.084000
20
11.805000
30
-2.916000
70
192
0
VERTEX
8
OBJECT__39
10
246.084000
20
11.805000
30
5.700000
70
192
0
VERTEX
8
OBJECT__39
10
238.000000
20
10.380000
30
-2.916000
70
192
0
VERTEX
8
OBJECT__39
10
238.000000
20
10.380000
30
5.700000
70
192
0
VERTEX
8
OBJECT__39
10
232.723999
20
4.092000
30
-2.916000
70
192
0
VERTEX
8
OBJECT__39
10
232.723999
20
4.092000
30
5.700000
70
192
0
VERTEX
8
OBJECT__39
10
232.723999
20
-4.117000
30
-2.916000
70
192
0
VERTEX
8
OBJECT__39
10
232.723999
20
-4.117000
30
5.700000
70
192
0
VERTEX
8
OBJECT__39
10
238.000000
20
-10.405000
30
-2.916000
70
192
0
VERTEX
8
OBJECT__39
10
238.000000
20
-10.405000
30
5.700000
70
192
0
VERTEX
8
OBJECT__39
10
246.084000
20
-11.830000
30
-2.916000
70
192
0
VERTEX
8
OBJECT__39
10
246.084000
20
-11.830000
30
5.700000
70
192
0
VERTEX
8
OBJECT__39
10
253.192993
20
-7.726000
30
-2.916000
70
192
0
VERTEX
8
OBJECT__39
10
253.192993
20
-7.726000
30
5.700000
70
192
0
VERTEX
8
OBJECT__39
10
256.000000
20
-0.013000
30
-2.916000
70
192
0
VERTEX
8
OBJECT__39
10
0
20
0
30
0
70
128
71
1
72
2
73
3
0
VERTEX
8
OBJECT__39
10
0
20
0
30
0
70
128
71
4
72
5
73
2
0
VERTEX
8
OBJECT__39
10
0
20
0
30
0
70
128
71
6
72
7
73
5
0
VERTEX
8
OBJECT__39
10
0
20
0
30
0
70
128
71
8
72
9
73
7
0
VERTEX
8
OBJECT__39
10
0
20
0
30
0
70
128
71
10
72
11
73
9
0
VERTEX
8
OBJECT__39
10
0
20
0
30
0
70
128
71
12
72
13
73
11
0
VERTEX
8
OBJECT__39
10
0
20
0
30
0
70
128
71
14
72
15
73
13
0
VERTEX
8
OBJECT__39
10
0
20
0
30
0
70
128
71
16
72
17
73
15
0
VERTEX
8
OBJECT__39
10
0
20
0
30
0
70
128
71
18
72
3
73
17
0
VERTEX
8
OBJECT__39
10
0
20
0
30
0
70
128
71
17
72
16
73
18
0
VERTEX
8
OBJECT__39
10
0
20
0
30
0
70
128
71
15
72
14
73
16
0
VERTEX
8
OBJECT__39
10
0
20
0
30
0
70
128
71
13
72
12
73
14
0
VERTEX
8
OBJECT__39
10
0
20
0
30
0
70
128
71
11
72
10
73
12
0
VERTEX
8
OBJECT__39
10
0
20
0
30
0
70
128
71
9
72
8
73
10
0
VERTEX
8
OBJECT__39
10
0
20
0
30
0
70
128
71
7
72
6
73
8
0
VERTEX
8
OBJECT__39
10
0
20
0
30
0
70
128
71
5
72
4
73
6
0
VERTEX
8
OBJECT__39
10
0
20
0
30
0
70
128
71
2
72
1
73
4
0
VERTEX
8
OBJECT__39
10
0
20
0
30
0
70
128
71
3
72
18
73
1
0
SEQEND
8
OBJECT__39
0
ENDSEC
0
EOF
