999
Converted by 3D Exploration 
999
XDimension Software, LLC
999
http://www.xdsoft.com/explorer/
0
SECTION
2
HEADER
9
$ACADVER
1
AC1008
9
$UCSORG
10
0.0
20
0.0
30
0.0
9
$UCSXDIR
10
1.0
20
0.0
30
0.0
9
$TILEMODE
70
1
9
$UCSYDIR
10
0.0
20
1.0
30
0.0
9
$EXTMIN
10
0.000000
20
-104.792999
30
-104.792999
9
$EXTMAX
10
74.949997
20
104.792999
30
104.171997
0
ENDSEC
0
SECTION
2
TABLES
0
TABLE
2
LTYPE
70
1
0
LTYPE
2
CONTINUOUS
70
64
3
Solid line
72
65
73
0
40
0.0
0
ENDTAB
0
TABLE
2
LAYER
70
133
0
LAYER
2
OBJECT__0
70
0
62
253
6
CONTINUOUS
0
LAYER
2
OBJECT__1
70
0
62
253
6
CONTINUOUS
0
LAYER
2
OBJECT__3
70
0
62
253
6
CONTINUOUS
0
LAYER
2
OBJECT__4
70
0
62
253
6
CONTINUOUS
0
LAYER
2
OBJECT__5
70
0
62
253
6
CONTINUOUS
0
LAYER
2
OBJECT__6
70
0
62
253
6
CONTINUOUS
0
LAYER
2
OBJECT__7
70
0
62
253
6
CONTINUOUS
0
LAYER
2
OBJECT__8
70
0
62
253
6
CONTINUOUS
0
LAYER
2
OBJECT__9
70
0
62
253
6
CONTINUOUS
0
LAYER
2
OBJECT__10
70
0
62
253
6
CONTINUOUS
0
LAYER
2
OBJECT__11
70
0
62
253
6
CONTINUOUS
0
LAYER
2
OBJECT__12
70
0
62
253
6
CONTINUOUS
0
LAYER
2
OBJECT__13
70
0
62
253
6
CONTINUOUS
0
LAYER
2
OBJECT__14
70
0
62
253
6
CONTINUOUS
0
LAYER
2
OBJECT__15
70
0
62
253
6
CONTINUOUS
0
LAYER
2
OBJECT__16
70
0
62
253
6
CONTINUOUS
0
LAYER
2
OBJECT__17
70
0
62
253
6
CONTINUOUS
0
LAYER
2
OBJECT__18
70
0
62
253
6
CONTINUOUS
0
LAYER
2
OBJECT__19
70
0
62
253
6
CONTINUOUS
0
LAYER
2
OBJECT__20
70
0
62
253
6
CONTINUOUS
0
LAYER
2
OBJECT__21
70
0
62
253
6
CONTINUOUS
0
LAYER
2
OBJECT__22
70
0
62
253
6
CONTINUOUS
0
LAYER
2
OBJECT__23
70
0
62
253
6
CONTINUOUS
0
LAYER
2
OBJECT__24
70
0
62
253
6
CONTINUOUS
0
LAYER
2
OBJECT__25
70
0
62
253
6
CONTINUOUS
0
LAYER
2
OBJECT__26
70
0
62
253
6
CONTINUOUS
0
LAYER
2
OBJECT__27
70
0
62
253
6
CONTINUOUS
0
LAYER
2
OBJECT__28
70
0
62
253
6
CONTINUOUS
0
LAYER
2
OBJECT__29
70
0
62
253
6
CONTINUOUS
0
LAYER
2
OBJECT__30
70
0
62
253
6
CONTINUOUS
0
LAYER
2
OBJECT__31
70
0
62
253
6
CONTINUOUS
0
LAYER
2
OBJECT__32
70
0
62
253
6
CONTINUOUS
0
LAYER
2
OBJECT__33
70
0
62
253
6
CONTINUOUS
0
LAYER
2
OBJECT__34
70
0
62
253
6
CONTINUOUS
0
LAYER
2
OBJECT__35
70
0
62
253
6
CONTINUOUS
0
LAYER
2
OBJECT__36
70
0
62
253
6
CONTINUOUS
0
LAYER
2
OBJECT__37
70
0
62
253
6
CONTINUOUS
0
LAYER
2
OBJECT__38
70
0
62
253
6
CONTINUOUS
0
LAYER
2
OBJECT__39
70
0
62
253
6
CONTINUOUS
0
LAYER
2
OBJECT__40
70
0
62
253
6
CONTINUOUS
0
LAYER
2
OBJECT__41
70
0
62
253
6
CONTINUOUS
0
LAYER
2
OBJECT__42
70
0
62
253
6
CONTINUOUS
0
LAYER
2
OBJECT__43
70
0
62
253
6
CONTINUOUS
0
LAYER
2
OBJECT__44
70
0
62
253
6
CONTINUOUS
0
LAYER
2
OBJECT__45
70
0
62
253
6
CONTINUOUS
0
LAYER
2
OBJECT__46
70
0
62
253
6
CONTINUOUS
0
LAYER
2
OBJECT__47
70
0
62
253
6
CONTINUOUS
0
LAYER
2
OBJECT__48
70
0
62
253
6
CONTINUOUS
0
LAYER
2
OBJECT__49
70
0
62
253
6
CONTINUOUS
0
LAYER
2
OBJECT__50
70
0
62
253
6
CONTINUOUS
0
LAYER
2
OBJECT__51
70
0
62
253
6
CONTINUOUS
0
LAYER
2
OBJECT__52
70
0
62
253
6
CONTINUOUS
0
LAYER
2
OBJECT__54
70
0
62
253
6
CONTINUOUS
0
LAYER
2
OBJECT__55
70
0
62
253
6
CONTINUOUS
0
LAYER
2
OBJECT__56
70
0
62
253
6
CONTINUOUS
0
LAYER
2
OBJECT__57
70
0
62
253
6
CONTINUOUS
0
LAYER
2
OBJECT__58
70
0
62
253
6
CONTINUOUS
0
LAYER
2
OBJECT__60
70
0
62
253
6
CONTINUOUS
0
LAYER
2
OBJECT__61
70
0
62
253
6
CONTINUOUS
0
LAYER
2
OBJECT__62
70
0
62
253
6
CONTINUOUS
0
LAYER
2
OBJECT__63
70
0
62
253
6
CONTINUOUS
0
LAYER
2
OBJECT__64
70
0
62
253
6
CONTINUOUS
0
LAYER
2
OBJECT__65
70
0
62
253
6
CONTINUOUS
0
LAYER
2
OBJECT__66
70
0
62
253
6
CONTINUOUS
0
LAYER
2
OBJECT__67
70
0
62
253
6
CONTINUOUS
0
LAYER
2
OBJECT__68
70
0
62
253
6
CONTINUOUS
0
LAYER
2
OBJECT__69
70
0
62
253
6
CONTINUOUS
0
LAYER
2
OBJECT__70
70
0
62
253
6
CONTINUOUS
0
LAYER
2
OBJECT__71
70
0
62
253
6
CONTINUOUS
0
LAYER
2
OBJECT__72
70
0
62
253
6
CONTINUOUS
0
LAYER
2
OBJECT__73
70
0
62
253
6
CONTINUOUS
0
LAYER
2
OBJECT__74
70
0
62
253
6
CONTINUOUS
0
LAYER
2
OBJECT__75
70
0
62
253
6
CONTINUOUS
0
LAYER
2
OBJECT__76
70
0
62
253
6
CONTINUOUS
0
LAYER
2
OBJECT__77
70
0
62
253
6
CONTINUOUS
0
LAYER
2
OBJECT__78
70
0
62
253
6
CONTINUOUS
0
LAYER
2
OBJECT__79
70
0
62
253
6
CONTINUOUS
0
LAYER
2
OBJECT__80
70
0
62
253
6
CONTINUOUS
0
LAYER
2
OBJECT__81
70
0
62
253
6
CONTINUOUS
0
LAYER
2
OBJECT__82
70
0
62
253
6
CONTINUOUS
0
LAYER
2
OBJECT__83
70
0
62
253
6
CONTINUOUS
0
LAYER
2
OBJECT__84
70
0
62
253
6
CONTINUOUS
0
LAYER
2
OBJECT__85
70
0
62
253
6
CONTINUOUS
0
LAYER
2
OBJECT__86
70
0
62
253
6
CONTINUOUS
0
LAYER
2
OBJECT__87
70
0
62
253
6
CONTINUOUS
0
LAYER
2
OBJECT__88
70
0
62
253
6
CONTINUOUS
0
LAYER
2
OBJECT__89
70
0
62
253
6
CONTINUOUS
0
LAYER
2
OBJECT__90
70
0
62
253
6
CONTINUOUS
0
LAYER
2
OBJECT__91
70
0
62
253
6
CONTINUOUS
0
LAYER
2
OBJECT__92
70
0
62
253
6
CONTINUOUS
0
LAYER
2
OBJECT__93
70
0
62
253
6
CONTINUOUS
0
LAYER
2
OBJECT__94
70
0
62
253
6
CONTINUOUS
0
LAYER
2
OBJECT__95
70
0
62
253
6
CONTINUOUS
0
LAYER
2
OBJECT__96
70
0
62
253
6
CONTINUOUS
0
LAYER
2
OBJECT__97
70
0
62
253
6
CONTINUOUS
0
LAYER
2
OBJECT__98
70
0
62
253
6
CONTINUOUS
0
LAYER
2
OBJECT__99
70
0
62
253
6
CONTINUOUS
0
LAYER
2
OBJECT__100
70
0
62
253
6
CONTINUOUS
0
LAYER
2
OBJECT__101
70
0
62
253
6
CONTINUOUS
0
LAYER
2
OBJECT__102
70
0
62
253
6
CONTINUOUS
0
LAYER
2
OBJECT__103
70
0
62
253
6
CONTINUOUS
0
LAYER
2
OBJECT__104
70
0
62
253
6
CONTINUOUS
0
LAYER
2
OBJECT__105
70
0
62
253
6
CONTINUOUS
0
LAYER
2
OBJECT__106
70
0
62
253
6
CONTINUOUS
0
LAYER
2
OBJECT__107
70
0
62
253
6
CONTINUOUS
0
LAYER
2
OBJECT__108
70
0
62
253
6
CONTINUOUS
0
LAYER
2
OBJECT__109
70
0
62
253
6
CONTINUOUS
0
LAYER
2
OBJECT__110
70
0
62
253
6
CONTINUOUS
0
LAYER
2
OBJECT__112
70
0
62
253
6
CONTINUOUS
0
LAYER
2
OBJECT__113
70
0
62
253
6
CONTINUOUS
0
LAYER
2
OBJECT__114
70
0
62
253
6
CONTINUOUS
0
LAYER
2
OBJECT__115
70
0
62
253
6
CONTINUOUS
0
LAYER
2
OBJECT__117
70
0
62
253
6
CONTINUOUS
0
LAYER
2
OBJECT__118
70
0
62
253
6
CONTINUOUS
0
LAYER
2
OBJECT__119
70
0
62
253
6
CONTINUOUS
0
LAYER
2
OBJECT__120
70
0
62
253
6
CONTINUOUS
0
LAYER
2
OBJECT__122
70
0
62
253
6
CONTINUOUS
0
LAYER
2
OBJECT__123
70
0
62
253
6
CONTINUOUS
0
LAYER
2
OBJECT__124
70
0
62
253
6
CONTINUOUS
0
LAYER
2
OBJECT__125
70
0
62
253
6
CONTINUOUS
0
LAYER
2
OBJECT__126
70
0
62
253
6
CONTINUOUS
0
LAYER
2
OBJECT__128
70
0
62
253
6
CONTINUOUS
0
LAYER
2
OBJECT__129
70
0
62
253
6
CONTINUOUS
0
LAYER
2
OBJECT__130
70
0
62
253
6
CONTINUOUS
0
LAYER
2
OBJECT__131
70
0
62
253
6
CONTINUOUS
0
LAYER
2
OBJECT__132
70
0
62
253
6
CONTINUOUS
0
ENDTAB
0
TABLE
2
STYLE
70
1
0
STYLE
2
STANDARD
70
0
40
0.0
41
1.0
50
0.0
71
0
42
0.2
3
txt
4
1
0
ENDTAB
0
TABLE
2
UCS
70
0
0
ENDTAB
0
ENDSEC
0
SECTION
2
ENTITIES
0
POLYLINE
8
OBJECT__0
66
1
70
64
71
29
72
29
62
253
0
VERTEX
8
OBJECT__0
10
64.579002
20
-0.188000
30
72.681000
70
192
0
VERTEX
8
OBJECT__0
10
27.847000
20
3.352000
30
72.489998
70
192
0
VERTEX
8
OBJECT__0
10
27.164000
20
0.637000
30
72.705002
70
192
0
VERTEX
8
OBJECT__0
10
30.297001
20
6.485000
30
71.847000
70
192
0
VERTEX
8
OBJECT__0
10
29.356001
20
5.729000
30
72.054001
70
192
0
VERTEX
8
OBJECT__0
10
27.224001
20
-0.125000
30
72.680000
70
192
0
VERTEX
8
OBJECT__0
10
34.514000
20
8.577000
30
71.209999
70
192
0
VERTEX
8
OBJECT__0
10
31.657000
20
7.578000
30
71.546997
70
192
0
VERTEX
8
OBJECT__0
10
35.950001
20
8.695000
30
71.166000
70
192
0
VERTEX
8
OBJECT__0
10
60.215000
20
4.324000
30
72.339996
70
192
0
VERTEX
8
OBJECT__0
10
64.403000
20
2.022000
30
72.632004
70
192
0
VERTEX
8
OBJECT__0
10
63.171001
20
4.788000
30
72.253998
70
192
0
VERTEX
8
OBJECT__0
10
61.162998
20
6.913000
30
71.747002
70
192
0
VERTEX
8
OBJECT__0
10
58.666000
20
8.233000
30
71.331001
70
192
0
VERTEX
8
OBJECT__0
10
55.849998
20
8.695000
30
71.166000
70
192
0
VERTEX
8
OBJECT__0
10
60.215000
20
-4.639000
30
72.282997
70
192
0
VERTEX
8
OBJECT__0
10
57.285999
20
-8.827000
30
71.117996
70
192
0
VERTEX
8
OBJECT__0
10
60.143002
20
-7.831000
30
71.466003
70
192
0
VERTEX
8
OBJECT__0
10
55.849998
20
-8.944000
30
71.073997
70
192
0
VERTEX
8
OBJECT__0
10
63.952999
20
-3.615000
30
72.453003
70
192
0
VERTEX
8
OBJECT__0
10
64.636002
20
-0.902000
30
72.696999
70
192
0
VERTEX
8
OBJECT__0
10
62.444000
20
-5.987000
30
71.991997
70
192
0
VERTEX
8
OBJECT__0
10
30.274000
20
-6.785000
30
71.768997
70
192
0
VERTEX
8
OBJECT__0
10
35.950001
20
-8.944000
30
71.073997
70
192
0
VERTEX
8
OBJECT__0
10
30.636999
20
-7.168000
30
71.672997
70
192
0
VERTEX
8
OBJECT__0
10
33.133999
20
-8.483000
30
71.242996
70
192
0
VERTEX
8
OBJECT__0
10
27.229000
20
-0.186000
30
72.678001
70
192
0
VERTEX
8
OBJECT__0
10
27.396999
20
-2.287000
30
72.609001
70
192
0
VERTEX
8
OBJECT__0
10
28.629000
20
-5.049000
30
72.203003
70
192
0
VERTEX
8
OBJECT__0
10
0
20
0
30
0
70
128
71
1
72
2
73
3
0
VERTEX
8
OBJECT__0
10
0
20
0
30
0
70
128
71
1
72
4
73
5
0
VERTEX
8
OBJECT__0
10
0
20
0
30
0
70
128
71
5
72
2
73
1
0
VERTEX
8
OBJECT__0
10
0
20
0
30
0
70
128
71
3
72
6
73
1
0
VERTEX
8
OBJECT__0
10
0
20
0
30
0
70
128
71
1
72
7
73
8
0
VERTEX
8
OBJECT__0
10
0
20
0
30
0
70
128
71
1
72
9
73
7
0
VERTEX
8
OBJECT__0
10
0
20
0
30
0
70
128
71
9
72
1
73
10
0
VERTEX
8
OBJECT__0
10
0
20
0
30
0
70
128
71
10
72
1
73
11
0
VERTEX
8
OBJECT__0
10
0
20
0
30
0
70
128
71
11
72
12
73
10
0
VERTEX
8
OBJECT__0
10
0
20
0
30
0
70
128
71
10
72
13
73
14
0
VERTEX
8
OBJECT__0
10
0
20
0
30
0
70
128
71
14
72
15
73
10
0
VERTEX
8
OBJECT__0
10
0
20
0
30
0
70
128
71
12
72
13
73
10
0
VERTEX
8
OBJECT__0
10
0
20
0
30
0
70
128
71
10
72
15
73
9
0
VERTEX
8
OBJECT__0
10
0
20
0
30
0
70
128
71
8
72
4
73
1
0
VERTEX
8
OBJECT__0
10
0
20
0
30
0
70
128
71
16
72
17
73
18
0
VERTEX
8
OBJECT__0
10
0
20
0
30
0
70
128
71
16
72
19
73
17
0
VERTEX
8
OBJECT__0
10
0
20
0
30
0
70
128
71
16
72
20
73
21
0
VERTEX
8
OBJECT__0
10
0
20
0
30
0
70
128
71
16
72
22
73
20
0
VERTEX
8
OBJECT__0
10
0
20
0
30
0
70
128
71
21
72
1
73
16
0
VERTEX
8
OBJECT__0
10
0
20
0
30
0
70
128
71
16
72
23
73
24
0
VERTEX
8
OBJECT__0
10
0
20
0
30
0
70
128
71
24
72
23
73
25
0
VERTEX
8
OBJECT__0
10
0
20
0
30
0
70
128
71
25
72
26
73
24
0
VERTEX
8
OBJECT__0
10
0
20
0
30
0
70
128
71
24
72
19
73
16
0
VERTEX
8
OBJECT__0
10
0
20
0
30
0
70
128
71
16
72
1
73
23
0
VERTEX
8
OBJECT__0
10
0
20
0
30
0
70
128
71
1
72
27
73
28
0
VERTEX
8
OBJECT__0
10
0
20
0
30
0
70
128
71
28
72
29
73
1
0
VERTEX
8
OBJECT__0
10
0
20
0
30
0
70
128
71
29
72
23
73
1
0
VERTEX
8
OBJECT__0
10
0
20
0
30
0
70
128
71
18
72
22
73
16
0
VERTEX
8
OBJECT__0
10
0
20
0
30
0
70
128
71
6
72
27
73
1
0
SEQEND
8
OBJECT__0
0
POLYLINE
8
OBJECT__1
66
1
70
64
71
37
72
35
62
253
0
VERTEX
8
OBJECT__1
10
30.957001
20
6.492000
30
72.271004
70
192
0
VERTEX
8
OBJECT__1
10
30.297001
20
6.485000
30
71.847000
70
192
0
VERTEX
8
OBJECT__1
10
31.657000
20
7.578000
30
71.546997
70
192
0
VERTEX
8
OBJECT__1
10
34.514000
20
8.577000
30
71.209999
70
192
0
VERTEX
8
OBJECT__1
10
33.861000
20
8.442000
30
71.671997
70
192
0
VERTEX
8
OBJECT__1
10
33.276001
20
8.049000
30
71.792999
70
192
0
VERTEX
8
OBJECT__1
10
35.950001
20
8.695000
30
71.166000
70
192
0
VERTEX
8
OBJECT__1
10
35.950001
20
8.693000
30
71.569000
70
192
0
VERTEX
8
OBJECT__1
10
35.233002
20
8.664000
30
71.582001
70
192
0
VERTEX
8
OBJECT__1
10
27.847000
20
3.352000
30
72.489998
70
192
0
VERTEX
8
OBJECT__1
10
29.356001
20
5.729000
30
72.054001
70
192
0
VERTEX
8
OBJECT__1
10
28.816999
20
5.055000
30
72.711998
70
192
0
VERTEX
8
OBJECT__1
10
30.489000
20
6.178000
30
72.366997
70
192
0
VERTEX
8
OBJECT__1
10
27.945000
20
3.569000
30
72.995003
70
192
0
VERTEX
8
OBJECT__1
10
27.164000
20
0.637000
30
72.705002
70
192
0
VERTEX
8
OBJECT__1
10
27.695999
20
2.439000
30
73.081001
70
192
0
VERTEX
8
OBJECT__1
10
27.129999
20
-0.136000
30
73.276001
70
192
0
VERTEX
8
OBJECT__1
10
27.224001
20
-0.125000
30
72.680000
70
192
0
VERTEX
8
OBJECT__1
10
27.229000
20
-0.186000
30
72.678001
70
192
0
VERTEX
8
OBJECT__1
10
27.285000
20
-1.780000
30
73.209999
70
192
0
VERTEX
8
OBJECT__1
10
27.396999
20
-2.287000
30
72.609001
70
192
0
VERTEX
8
OBJECT__1
10
28.629000
20
-5.049000
30
72.203003
70
192
0
VERTEX
8
OBJECT__1
10
27.757999
20
-2.875000
30
73.040001
70
192
0
VERTEX
8
OBJECT__1
10
30.274000
20
-6.785000
30
71.768997
70
192
0
VERTEX
8
OBJECT__1
10
28.816999
20
-5.321000
30
72.661003
70
192
0
VERTEX
8
OBJECT__1
10
30.304001
20
-6.752000
30
72.250999
70
192
0
VERTEX
8
OBJECT__1
10
35.950001
20
-8.946000
30
71.486000
70
192
0
VERTEX
8
OBJECT__1
10
33.133999
20
-8.483000
30
71.242996
70
192
0
VERTEX
8
OBJECT__1
10
34.577000
20
-8.711000
30
71.584000
70
192
0
VERTEX
8
OBJECT__1
10
33.008999
20
-8.443000
30
71.692001
70
192
0
VERTEX
8
OBJECT__1
10
35.950001
20
-8.947000
30
71.488998
70
192
0
VERTEX
8
OBJECT__1
10
35.950001
20
-8.944000
30
71.073997
70
192
0
VERTEX
8
OBJECT__1
10
31.875000
20
-7.951000
30
71.875999
70
192
0
VERTEX
8
OBJECT__1
10
31.875000
20
-7.951000
30
71.878998
70
192
0
VERTEX
8
OBJECT__1
10
30.636999
20
-7.168000
30
71.672997
70
192
0
VERTEX
8
OBJECT__1
10
31.027000
20
-7.448000
30
72.052002
70
192
0
VERTEX
8
OBJECT__1
10
30.974001
20
-7.397000
30
72.067001
70
192
0
VERTEX
8
OBJECT__1
10
0
20
0
30
0
70
128
71
1
72
2
73
3
0
VERTEX
8
OBJECT__1
10
0
20
0
30
0
70
128
71
4
72
5
73
6
0
VERTEX
8
OBJECT__1
10
0
20
0
30
0
70
128
71
6
72
3
73
4
0
VERTEX
8
OBJECT__1
10
0
20
0
30
0
70
128
71
3
72
6
73
1
0
VERTEX
8
OBJECT__1
10
0
20
0
30
0
70
128
71
7
72
8
73
9
0
VERTEX
8
OBJECT__1
10
0
20
0
30
0
70
128
71
9
72
4
73
7
0
VERTEX
8
OBJECT__1
10
0
20
0
30
0
70
128
71
9
72
5
73
4
0
VERTEX
8
OBJECT__1
10
0
20
0
30
0
70
128
71
10
72
11
73
12
0
VERTEX
8
OBJECT__1
10
0
20
0
30
0
70
128
71
11
72
13
73
12
0
VERTEX
8
OBJECT__1
10
0
20
0
30
0
70
128
71
12
72
14
73
10
0
VERTEX
8
OBJECT__1
10
0
20
0
30
0
70
128
71
15
72
10
73
16
0
VERTEX
8
OBJECT__1
10
0
20
0
30
0
70
128
71
10
72
14
73
16
0
VERTEX
8
OBJECT__1
10
0
20
0
30
0
70
128
71
16
72
17
73
15
0
VERTEX
8
OBJECT__1
10
0
20
0
30
0
70
128
71
17
72
18
73
15
0
VERTEX
8
OBJECT__1
10
0
20
0
30
0
70
128
71
17
72
19
73
18
0
VERTEX
8
OBJECT__1
10
0
20
0
30
0
70
128
71
19
72
17
73
20
0
VERTEX
8
OBJECT__1
10
0
20
0
30
0
70
128
71
20
72
21
73
19
0
VERTEX
8
OBJECT__1
10
0
20
0
30
0
70
128
71
22
72
21
73
23
0
VERTEX
8
OBJECT__1
10
0
20
0
30
0
70
128
71
21
72
20
73
23
0
VERTEX
8
OBJECT__1
10
0
20
0
30
0
70
128
71
24
72
22
73
25
0
VERTEX
8
OBJECT__1
10
0
20
0
30
0
70
128
71
25
72
26
73
24
0
VERTEX
8
OBJECT__1
10
0
20
0
30
0
70
128
71
23
72
25
73
22
0
VERTEX
8
OBJECT__1
10
0
20
0
30
0
70
128
71
27
72
28
73
29
0
VERTEX
8
OBJECT__1
10
0
20
0
30
0
70
128
71
28
72
30
73
29
0
VERTEX
8
OBJECT__1
10
0
20
0
30
0
70
128
71
29
72
31
73
27
0
VERTEX
8
OBJECT__1
10
0
20
0
30
0
70
128
71
27
72
32
73
28
0
VERTEX
8
OBJECT__1
10
0
20
0
30
0
70
128
71
33
72
34
73
30
0
VERTEX
8
OBJECT__1
10
0
20
0
30
0
70
128
71
30
72
28
73
33
0
VERTEX
8
OBJECT__1
10
0
20
0
30
0
70
128
71
35
72
36
73
33
0
VERTEX
8
OBJECT__1
10
0
20
0
30
0
70
128
71
26
72
37
73
35
0
VERTEX
8
OBJECT__1
10
0
20
0
30
0
70
128
71
35
72
24
73
26
0
VERTEX
8
OBJECT__1
10
0
20
0
30
0
70
128
71
37
72
36
73
35
0
VERTEX
8
OBJECT__1
10
0
20
0
30
0
70
128
71
33
72
28
73
35
0
VERTEX
8
OBJECT__1
10
0
20
0
30
0
70
128
71
11
72
2
73
13
0
VERTEX
8
OBJECT__1
10
0
20
0
30
0
70
128
71
1
72
13
73
2
0
SEQEND
8
OBJECT__1
0
POLYLINE
8
OBJECT__3
66
1
70
64
71
8
72
6
62
253
0
VERTEX
8
OBJECT__3
10
28.410000
20
5.449000
30
73.178001
70
192
0
VERTEX
8
OBJECT__3
10
27.049000
20
2.677000
30
73.612999
70
192
0
VERTEX
8
OBJECT__3
10
27.945000
20
3.569000
30
72.995003
70
192
0
VERTEX
8
OBJECT__3
10
27.695999
20
2.439000
30
73.081001
70
192
0
VERTEX
8
OBJECT__3
10
26.743000
20
-0.138000
30
73.642998
70
192
0
VERTEX
8
OBJECT__3
10
27.129999
20
-0.136000
30
73.276001
70
192
0
VERTEX
8
OBJECT__3
10
26.631001
20
-0.138000
30
73.750000
70
192
0
VERTEX
8
OBJECT__3
10
28.816999
20
5.055000
30
72.711998
70
192
0
VERTEX
8
OBJECT__3
10
0
20
0
30
0
70
128
71
1
72
2
73
3
0
VERTEX
8
OBJECT__3
10
0
20
0
30
0
70
128
71
2
72
4
73
3
0
VERTEX
8
OBJECT__3
10
0
20
0
30
0
70
128
71
2
72
5
73
6
0
VERTEX
8
OBJECT__3
10
0
20
0
30
0
70
128
71
2
72
7
73
5
0
VERTEX
8
OBJECT__3
10
0
20
0
30
0
70
128
71
6
72
4
73
2
0
VERTEX
8
OBJECT__3
10
0
20
0
30
0
70
128
71
3
72
8
73
1
0
SEQEND
8
OBJECT__3
0
POLYLINE
8
OBJECT__4
66
1
70
64
71
8
72
6
62
253
0
VERTEX
8
OBJECT__4
10
27.118999
20
-3.171000
30
73.557999
70
192
0
VERTEX
8
OBJECT__4
10
28.410999
20
-5.719000
30
73.119003
70
192
0
VERTEX
8
OBJECT__4
10
28.816999
20
-5.321000
30
72.661003
70
192
0
VERTEX
8
OBJECT__4
10
26.743000
20
-0.138000
30
73.642998
70
192
0
VERTEX
8
OBJECT__4
10
27.285000
20
-1.780000
30
73.209999
70
192
0
VERTEX
8
OBJECT__4
10
27.129999
20
-0.136000
30
73.276001
70
192
0
VERTEX
8
OBJECT__4
10
27.757999
20
-2.875000
30
73.040001
70
192
0
VERTEX
8
OBJECT__4
10
26.631001
20
-0.138000
30
73.750000
70
192
0
VERTEX
8
OBJECT__4
10
0
20
0
30
0
70
128
71
1
72
2
73
3
0
VERTEX
8
OBJECT__4
10
0
20
0
30
0
70
128
71
4
72
1
73
5
0
VERTEX
8
OBJECT__4
10
0
20
0
30
0
70
128
71
5
72
6
73
4
0
VERTEX
8
OBJECT__4
10
0
20
0
30
0
70
128
71
1
72
7
73
5
0
VERTEX
8
OBJECT__4
10
0
20
0
30
0
70
128
71
4
72
8
73
1
0
VERTEX
8
OBJECT__4
10
0
20
0
30
0
70
128
71
3
72
7
73
1
0
SEQEND
8
OBJECT__4
0
POLYLINE
8
OBJECT__5
66
1
70
64
71
9
72
7
62
253
0
VERTEX
8
OBJECT__5
10
28.410999
20
-5.719000
30
73.119003
70
192
0
VERTEX
8
OBJECT__5
10
30.679001
20
-7.966000
30
72.512001
70
192
0
VERTEX
8
OBJECT__5
10
30.304001
20
-6.752000
30
72.250999
70
192
0
VERTEX
8
OBJECT__5
10
30.974001
20
-7.397000
30
72.067001
70
192
0
VERTEX
8
OBJECT__5
10
31.639999
20
-8.554000
30
72.317001
70
192
0
VERTEX
8
OBJECT__5
10
31.875000
20
-7.951000
30
71.878998
70
192
0
VERTEX
8
OBJECT__5
10
31.027000
20
-7.448000
30
72.052002
70
192
0
VERTEX
8
OBJECT__5
10
31.875000
20
-7.951000
30
71.875999
70
192
0
VERTEX
8
OBJECT__5
10
28.816999
20
-5.321000
30
72.661003
70
192
0
VERTEX
8
OBJECT__5
10
0
20
0
30
0
70
128
71
1
72
2
73
3
0
VERTEX
8
OBJECT__5
10
0
20
0
30
0
70
128
71
2
72
4
73
3
0
VERTEX
8
OBJECT__5
10
0
20
0
30
0
70
128
71
5
72
6
73
7
0
VERTEX
8
OBJECT__5
10
0
20
0
30
0
70
128
71
7
72
2
73
5
0
VERTEX
8
OBJECT__5
10
0
20
0
30
0
70
128
71
6
72
8
73
7
0
VERTEX
8
OBJECT__5
10
0
20
0
30
0
70
128
71
7
72
4
73
2
0
VERTEX
8
OBJECT__5
10
0
20
0
30
0
70
128
71
3
72
9
73
1
0
SEQEND
8
OBJECT__5
0
POLYLINE
8
OBJECT__6
66
1
70
64
71
8
72
6
62
253
0
VERTEX
8
OBJECT__6
10
34.577000
20
-8.711000
30
71.584000
70
192
0
VERTEX
8
OBJECT__6
10
34.471001
20
-9.509000
30
71.967003
70
192
0
VERTEX
8
OBJECT__6
10
35.950001
20
-9.284000
30
71.702003
70
192
0
VERTEX
8
OBJECT__6
10
35.950001
20
-9.629000
30
71.919998
70
192
0
VERTEX
8
OBJECT__6
10
33.008999
20
-8.443000
30
71.692001
70
192
0
VERTEX
8
OBJECT__6
10
31.639999
20
-8.554000
30
72.317001
70
192
0
VERTEX
8
OBJECT__6
10
31.875000
20
-7.951000
30
71.878998
70
192
0
VERTEX
8
OBJECT__6
10
35.950001
20
-8.947000
30
71.488998
70
192
0
VERTEX
8
OBJECT__6
10
0
20
0
30
0
70
128
71
1
72
2
73
3
0
VERTEX
8
OBJECT__6
10
0
20
0
30
0
70
128
71
2
72
4
73
3
0
VERTEX
8
OBJECT__6
10
0
20
0
30
0
70
128
71
2
72
1
73
5
0
VERTEX
8
OBJECT__6
10
0
20
0
30
0
70
128
71
5
72
6
73
2
0
VERTEX
8
OBJECT__6
10
0
20
0
30
0
70
128
71
5
72
7
73
6
0
VERTEX
8
OBJECT__6
10
0
20
0
30
0
70
128
71
3
72
8
73
1
0
SEQEND
8
OBJECT__6
0
POLYLINE
8
OBJECT__7
66
1
70
64
71
13
72
11
62
253
0
VERTEX
8
OBJECT__7
10
28.410000
20
5.449000
30
73.178001
70
192
0
VERTEX
8
OBJECT__7
10
28.816999
20
5.055000
30
72.711998
70
192
0
VERTEX
8
OBJECT__7
10
30.489000
20
6.178000
30
72.366997
70
192
0
VERTEX
8
OBJECT__7
10
30.351000
20
7.462000
30
72.667000
70
192
0
VERTEX
8
OBJECT__7
10
30.957001
20
6.492000
30
72.271004
70
192
0
VERTEX
8
OBJECT__7
10
33.276001
20
8.049000
30
71.792999
70
192
0
VERTEX
8
OBJECT__7
10
32.981998
20
8.876000
30
72.204002
70
192
0
VERTEX
8
OBJECT__7
10
33.861000
20
8.442000
30
71.671997
70
192
0
VERTEX
8
OBJECT__7
10
35.233002
20
8.664000
30
71.582001
70
192
0
VERTEX
8
OBJECT__7
10
35.950001
20
8.917000
30
71.971001
70
192
0
VERTEX
8
OBJECT__7
10
35.950001
20
8.693000
30
71.569000
70
192
0
VERTEX
8
OBJECT__7
10
35.950001
20
8.693000
30
71.579002
70
192
0
VERTEX
8
OBJECT__7
10
35.950001
20
9.371000
30
72.019997
70
192
0
VERTEX
8
OBJECT__7
10
0
20
0
30
0
70
128
71
1
72
2
73
3
0
VERTEX
8
OBJECT__7
10
0
20
0
30
0
70
128
71
3
72
4
73
1
0
VERTEX
8
OBJECT__7
10
0
20
0
30
0
70
128
71
4
72
5
73
6
0
VERTEX
8
OBJECT__7
10
0
20
0
30
0
70
128
71
7
72
8
73
9
0
VERTEX
8
OBJECT__7
10
0
20
0
30
0
70
128
71
9
72
10
73
7
0
VERTEX
8
OBJECT__7
10
0
20
0
30
0
70
128
71
7
72
6
73
8
0
VERTEX
8
OBJECT__7
10
0
20
0
30
0
70
128
71
9
72
11
73
12
0
VERTEX
8
OBJECT__7
10
0
20
0
30
0
70
128
71
9
72
12
73
10
0
VERTEX
8
OBJECT__7
10
0
20
0
30
0
70
128
71
10
72
13
73
7
0
VERTEX
8
OBJECT__7
10
0
20
0
30
0
70
128
71
6
72
7
73
4
0
VERTEX
8
OBJECT__7
10
0
20
0
30
0
70
128
71
3
72
5
73
4
0
SEQEND
8
OBJECT__7
0
POLYLINE
8
OBJECT__8
66
1
70
64
71
9
72
7
62
253
0
VERTEX
8
OBJECT__8
10
55.849998
20
-9.629000
30
71.919998
70
192
0
VERTEX
8
OBJECT__8
10
55.849998
20
-9.284000
30
71.702003
70
192
0
VERTEX
8
OBJECT__8
10
35.950001
20
-9.284000
30
71.702003
70
192
0
VERTEX
8
OBJECT__8
10
35.950001
20
-8.947000
30
71.488998
70
192
0
VERTEX
8
OBJECT__8
10
50.695000
20
-8.946000
30
71.486000
70
192
0
VERTEX
8
OBJECT__8
10
55.849998
20
-8.947000
30
71.488998
70
192
0
VERTEX
8
OBJECT__8
10
35.950001
20
-8.946000
30
71.486000
70
192
0
VERTEX
8
OBJECT__8
10
55.849998
20
-8.946000
30
71.486000
70
192
0
VERTEX
8
OBJECT__8
10
35.950001
20
-9.629000
30
71.919998
70
192
0
VERTEX
8
OBJECT__8
10
0
20
0
30
0
70
128
71
1
72
2
73
3
0
VERTEX
8
OBJECT__8
10
0
20
0
30
0
70
128
71
4
72
2
73
5
0
VERTEX
8
OBJECT__8
10
0
20
0
30
0
70
128
71
2
72
6
73
5
0
VERTEX
8
OBJECT__8
10
0
20
0
30
0
70
128
71
5
72
7
73
4
0
VERTEX
8
OBJECT__8
10
0
20
0
30
0
70
128
71
4
72
3
73
2
0
VERTEX
8
OBJECT__8
10
0
20
0
30
0
70
128
71
6
72
8
73
5
0
VERTEX
8
OBJECT__8
10
0
20
0
30
0
70
128
71
3
72
9
73
1
0
SEQEND
8
OBJECT__8
0
POLYLINE
8
OBJECT__9
66
1
70
64
71
7
72
5
62
253
0
VERTEX
8
OBJECT__9
10
35.950001
20
8.917000
30
71.971001
70
192
0
VERTEX
8
OBJECT__9
10
35.950001
20
8.693000
30
71.579002
70
192
0
VERTEX
8
OBJECT__9
10
55.695000
20
8.693000
30
71.579002
70
192
0
VERTEX
8
OBJECT__9
10
55.849998
20
8.917000
30
71.971001
70
192
0
VERTEX
8
OBJECT__9
10
55.849998
20
9.371000
30
72.019997
70
192
0
VERTEX
8
OBJECT__9
10
35.950001
20
9.371000
30
72.019997
70
192
0
VERTEX
8
OBJECT__9
10
55.849998
20
8.693000
30
71.579002
70
192
0
VERTEX
8
OBJECT__9
10
0
20
0
30
0
70
128
71
1
72
2
73
3
0
VERTEX
8
OBJECT__9
10
0
20
0
30
0
70
128
71
3
72
4
73
1
0
VERTEX
8
OBJECT__9
10
0
20
0
30
0
70
128
71
5
72
6
73
1
0
VERTEX
8
OBJECT__9
10
0
20
0
30
0
70
128
71
1
72
4
73
5
0
VERTEX
8
OBJECT__9
10
0
20
0
30
0
70
128
71
3
72
7
73
4
0
SEQEND
8
OBJECT__9
0
POLYLINE
8
OBJECT__10
66
1
70
64
71
19
72
25
62
253
0
VERTEX
8
OBJECT__10
10
58.818001
20
8.876000
30
72.204002
70
192
0
VERTEX
8
OBJECT__10
10
58.583000
20
7.982000
30
71.838997
70
192
0
VERTEX
8
OBJECT__10
10
60.140999
20
7.577000
30
71.992996
70
192
0
VERTEX
8
OBJECT__10
10
61.449001
20
7.462000
30
72.667000
70
192
0
VERTEX
8
OBJECT__10
10
61.026001
20
6.791000
30
72.217003
70
192
0
VERTEX
8
OBJECT__10
10
62.983002
20
5.055000
30
72.711998
70
192
0
VERTEX
8
OBJECT__10
10
55.849998
20
8.760000
30
71.803001
70
192
0
VERTEX
8
OBJECT__10
10
55.849998
20
8.693000
30
71.579002
70
192
0
VERTEX
8
OBJECT__10
10
55.849998
20
8.764000
30
71.808998
70
192
0
VERTEX
8
OBJECT__10
10
55.849998
20
8.762000
30
71.806000
70
192
0
VERTEX
8
OBJECT__10
10
55.849998
20
8.775000
30
71.828003
70
192
0
VERTEX
8
OBJECT__10
10
55.849998
20
8.767000
30
71.815002
70
192
0
VERTEX
8
OBJECT__10
10
55.849998
20
8.920000
30
71.972000
70
192
0
VERTEX
8
OBJECT__10
10
55.849998
20
8.830000
30
71.897003
70
192
0
VERTEX
8
OBJECT__10
10
55.849998
20
8.792000
30
71.851997
70
192
0
VERTEX
8
OBJECT__10
10
55.849998
20
9.371000
30
72.019997
70
192
0
VERTEX
8
OBJECT__10
10
55.849998
20
8.917000
30
71.971001
70
192
0
VERTEX
8
OBJECT__10
10
55.849998
20
8.693000
30
71.569000
70
192
0
VERTEX
8
OBJECT__10
10
63.389999
20
5.449000
30
73.178001
70
192
0
VERTEX
8
OBJECT__10
10
0
20
0
30
0
70
128
71
1
72
2
73
3
0
VERTEX
8
OBJECT__10
10
0
20
0
30
0
70
128
71
3
72
4
73
1
0
VERTEX
8
OBJECT__10
10
0
20
0
30
0
70
128
71
4
72
5
73
6
0
VERTEX
8
OBJECT__10
10
0
20
0
30
0
70
128
71
7
72
8
73
2
0
VERTEX
8
OBJECT__10
10
0
20
0
30
0
70
128
71
1
72
9
73
10
0
VERTEX
8
OBJECT__10
10
0
20
0
30
0
70
128
71
1
72
11
73
12
0
VERTEX
8
OBJECT__10
10
0
20
0
30
0
70
128
71
12
72
9
73
1
0
VERTEX
8
OBJECT__10
10
0
20
0
30
0
70
128
71
10
72
7
73
1
0
VERTEX
8
OBJECT__10
10
0
20
0
30
0
70
128
71
1
72
13
73
14
0
VERTEX
8
OBJECT__10
10
0
20
0
30
0
70
128
71
14
72
15
73
1
0
VERTEX
8
OBJECT__10
10
0
20
0
30
0
70
128
71
15
72
11
73
1
0
VERTEX
8
OBJECT__10
10
0
20
0
30
0
70
128
71
2
72
1
73
7
0
VERTEX
8
OBJECT__10
10
0
20
0
30
0
70
128
71
1
72
16
73
13
0
VERTEX
8
OBJECT__10
10
0
20
0
30
0
70
128
71
17
72
8
73
14
0
VERTEX
8
OBJECT__10
10
0
20
0
30
0
70
128
71
14
72
13
73
17
0
VERTEX
8
OBJECT__10
10
0
20
0
30
0
70
128
71
8
72
10
73
9
0
VERTEX
8
OBJECT__10
10
0
20
0
30
0
70
128
71
9
72
12
73
8
0
VERTEX
8
OBJECT__10
10
0
20
0
30
0
70
128
71
12
72
11
73
8
0
VERTEX
8
OBJECT__10
10
0
20
0
30
0
70
128
71
11
72
15
73
8
0
VERTEX
8
OBJECT__10
10
0
20
0
30
0
70
128
71
15
72
14
73
8
0
VERTEX
8
OBJECT__10
10
0
20
0
30
0
70
128
71
8
72
7
73
10
0
VERTEX
8
OBJECT__10
10
0
20
0
30
0
70
128
71
16
72
17
73
13
0
VERTEX
8
OBJECT__10
10
0
20
0
30
0
70
128
71
8
72
18
73
2
0
VERTEX
8
OBJECT__10
10
0
20
0
30
0
70
128
71
6
72
19
73
4
0
VERTEX
8
OBJECT__10
10
0
20
0
30
0
70
128
71
3
72
5
73
4
0
SEQEND
8
OBJECT__10
0
POLYLINE
8
OBJECT__11
66
1
70
64
71
7
72
5
62
253
0
VERTEX
8
OBJECT__11
10
65.168999
20
-0.138000
30
73.750000
70
192
0
VERTEX
8
OBJECT__11
10
64.750999
20
2.677000
30
73.612999
70
192
0
VERTEX
8
OBJECT__11
10
64.514999
20
1.509000
30
73.224998
70
192
0
VERTEX
8
OBJECT__11
10
64.125999
20
2.410000
30
73.095001
70
192
0
VERTEX
8
OBJECT__11
10
63.389999
20
5.449000
30
73.178001
70
192
0
VERTEX
8
OBJECT__11
10
62.983002
20
5.055000
30
72.711998
70
192
0
VERTEX
8
OBJECT__11
10
64.669998
20
-0.136000
30
73.276001
70
192
0
VERTEX
8
OBJECT__11
10
0
20
0
30
0
70
128
71
1
72
2
73
3
0
VERTEX
8
OBJECT__11
10
0
20
0
30
0
70
128
71
2
72
4
73
3
0
VERTEX
8
OBJECT__11
10
0
20
0
30
0
70
128
71
2
72
5
73
6
0
VERTEX
8
OBJECT__11
10
0
20
0
30
0
70
128
71
6
72
4
73
2
0
VERTEX
8
OBJECT__11
10
0
20
0
30
0
70
128
71
3
72
7
73
1
0
SEQEND
8
OBJECT__11
0
POLYLINE
8
OBJECT__12
66
1
70
64
71
7
72
5
62
253
0
VERTEX
8
OBJECT__12
10
64.681000
20
-3.171000
30
73.557999
70
192
0
VERTEX
8
OBJECT__12
10
65.168999
20
-0.138000
30
73.750000
70
192
0
VERTEX
8
OBJECT__12
10
64.669998
20
-0.136000
30
73.276001
70
192
0
VERTEX
8
OBJECT__12
10
63.389000
20
-5.719000
30
73.119003
70
192
0
VERTEX
8
OBJECT__12
10
63.869999
20
-3.806000
30
72.964996
70
192
0
VERTEX
8
OBJECT__12
10
64.063004
20
-2.918000
30
73.040001
70
192
0
VERTEX
8
OBJECT__12
10
62.983002
20
-5.321000
30
72.660004
70
192
0
VERTEX
8
OBJECT__12
10
0
20
0
30
0
70
128
71
1
72
2
73
3
0
VERTEX
8
OBJECT__12
10
0
20
0
30
0
70
128
71
4
72
1
73
5
0
VERTEX
8
OBJECT__12
10
0
20
0
30
0
70
128
71
1
72
6
73
5
0
VERTEX
8
OBJECT__12
10
0
20
0
30
0
70
128
71
5
72
7
73
4
0
VERTEX
8
OBJECT__12
10
0
20
0
30
0
70
128
71
3
72
6
73
1
0
SEQEND
8
OBJECT__12
0
POLYLINE
8
OBJECT__13
66
1
70
64
71
7
72
5
62
253
0
VERTEX
8
OBJECT__13
10
60.716000
20
-7.271000
30
72.078003
70
192
0
VERTEX
8
OBJECT__13
10
59.924999
20
-7.951000
30
71.875999
70
192
0
VERTEX
8
OBJECT__13
10
59.924999
20
-7.951000
30
71.878998
70
192
0
VERTEX
8
OBJECT__13
10
61.120998
20
-7.966000
30
72.512001
70
192
0
VERTEX
8
OBJECT__13
10
60.160000
20
-8.554000
30
72.317001
70
192
0
VERTEX
8
OBJECT__13
10
63.389000
20
-5.719000
30
73.119003
70
192
0
VERTEX
8
OBJECT__13
10
62.983002
20
-5.321000
30
72.660004
70
192
0
VERTEX
8
OBJECT__13
10
0
20
0
30
0
70
128
71
1
72
2
73
3
0
VERTEX
8
OBJECT__13
10
0
20
0
30
0
70
128
71
3
72
4
73
1
0
VERTEX
8
OBJECT__13
10
0
20
0
30
0
70
128
71
3
72
5
73
4
0
VERTEX
8
OBJECT__13
10
0
20
0
30
0
70
128
71
4
72
6
73
7
0
VERTEX
8
OBJECT__13
10
0
20
0
30
0
70
128
71
7
72
1
73
4
0
SEQEND
8
OBJECT__13
0
POLYLINE
8
OBJECT__14
66
1
70
64
71
8
72
6
62
253
0
VERTEX
8
OBJECT__14
10
57.328999
20
-9.509000
30
71.967003
70
192
0
VERTEX
8
OBJECT__14
10
60.160000
20
-8.554000
30
72.317001
70
192
0
VERTEX
8
OBJECT__14
10
59.924999
20
-7.951000
30
71.878998
70
192
0
VERTEX
8
OBJECT__14
10
56.490002
20
-8.923000
30
71.498001
70
192
0
VERTEX
8
OBJECT__14
10
55.849998
20
-8.947000
30
71.488998
70
192
0
VERTEX
8
OBJECT__14
10
55.849998
20
-9.284000
30
71.702003
70
192
0
VERTEX
8
OBJECT__14
10
57.209999
20
-8.719000
30
71.578003
70
192
0
VERTEX
8
OBJECT__14
10
55.849998
20
-9.629000
30
71.919998
70
192
0
VERTEX
8
OBJECT__14
10
0
20
0
30
0
70
128
71
1
72
2
73
3
0
VERTEX
8
OBJECT__14
10
0
20
0
30
0
70
128
71
4
72
5
73
6
0
VERTEX
8
OBJECT__14
10
0
20
0
30
0
70
128
71
1
72
7
73
4
0
VERTEX
8
OBJECT__14
10
0
20
0
30
0
70
128
71
4
72
8
73
1
0
VERTEX
8
OBJECT__14
10
0
20
0
30
0
70
128
71
6
72
8
73
4
0
VERTEX
8
OBJECT__14
10
0
20
0
30
0
70
128
71
3
72
7
73
1
0
SEQEND
8
OBJECT__14
0
POLYLINE
8
OBJECT__15
66
1
70
64
71
86
72
90
62
253
0
VERTEX
8
OBJECT__15
10
74.949997
20
22.664000
30
60.744999
70
192
0
VERTEX
8
OBJECT__15
10
17.950001
20
22.664000
30
60.744999
70
192
0
VERTEX
8
OBJECT__15
10
17.950001
20
13.005000
30
70.302002
70
192
0
VERTEX
8
OBJECT__15
10
17.950001
20
26.250000
30
47.638000
70
192
0
VERTEX
8
OBJECT__15
10
74.949997
20
22.802000
30
34.494999
70
192
0
VERTEX
8
OBJECT__15
10
17.950001
20
22.802000
30
34.494999
70
192
0
VERTEX
8
OBJECT__15
10
74.949997
20
13.245000
30
24.836000
70
192
0
VERTEX
8
OBJECT__15
10
17.950001
20
13.245000
30
24.836000
70
192
0
VERTEX
8
OBJECT__15
10
17.950001
20
-22.664000
30
34.255001
70
192
0
VERTEX
8
OBJECT__15
10
17.950001
20
-13.005000
30
24.698000
70
192
0
VERTEX
8
OBJECT__15
10
74.949997
20
-13.005000
30
24.698000
70
192
0
VERTEX
8
OBJECT__15
10
74.949997
20
-26.250000
30
47.362000
70
192
0
VERTEX
8
OBJECT__15
10
17.950001
20
-26.250000
30
47.362000
70
192
0
VERTEX
8
OBJECT__15
10
17.950001
20
-22.802000
30
60.505001
70
192
0
VERTEX
8
OBJECT__15
10
74.949997
20
-13.245000
30
70.164001
70
192
0
VERTEX
8
OBJECT__15
10
17.950001
20
-13.245000
30
70.164001
70
192
0
VERTEX
8
OBJECT__15
10
74.949997
20
-0.138000
30
73.750000
70
192
0
VERTEX
8
OBJECT__15
10
74.949997
20
13.005000
30
70.302002
70
192
0
VERTEX
8
OBJECT__15
10
64.750999
20
2.677000
30
73.612999
70
192
0
VERTEX
8
OBJECT__15
10
61.449001
20
7.462000
30
72.667000
70
192
0
VERTEX
8
OBJECT__15
10
63.389999
20
5.449000
30
73.178001
70
192
0
VERTEX
8
OBJECT__15
10
58.818001
20
8.876000
30
72.204002
70
192
0
VERTEX
8
OBJECT__15
10
65.168999
20
-0.138000
30
73.750000
70
192
0
VERTEX
8
OBJECT__15
10
35.950001
20
9.371000
30
72.019997
70
192
0
VERTEX
8
OBJECT__15
10
55.849998
20
9.371000
30
72.019997
70
192
0
VERTEX
8
OBJECT__15
10
32.981998
20
8.876000
30
72.204002
70
192
0
VERTEX
8
OBJECT__15
10
27.049000
20
2.677000
30
73.612999
70
192
0
VERTEX
8
OBJECT__15
10
28.410000
20
5.449000
30
73.178001
70
192
0
VERTEX
8
OBJECT__15
10
26.631001
20
-0.138000
30
73.750000
70
192
0
VERTEX
8
OBJECT__15
10
30.351000
20
7.462000
30
72.667000
70
192
0
VERTEX
8
OBJECT__15
10
17.950001
20
-0.138000
30
73.750000
70
192
0
VERTEX
8
OBJECT__15
10
27.118999
20
-3.171000
30
73.557999
70
192
0
VERTEX
8
OBJECT__15
10
28.410999
20
-5.719000
30
73.119003
70
192
0
VERTEX
8
OBJECT__15
10
31.639999
20
-8.554000
30
72.317001
70
192
0
VERTEX
8
OBJECT__15
10
30.679001
20
-7.966000
30
72.512001
70
192
0
VERTEX
8
OBJECT__15
10
34.471001
20
-9.509000
30
71.967003
70
192
0
VERTEX
8
OBJECT__15
10
55.849998
20
-9.629000
30
71.919998
70
192
0
VERTEX
8
OBJECT__15
10
57.328999
20
-9.509000
30
71.967003
70
192
0
VERTEX
8
OBJECT__15
10
35.950001
20
-9.629000
30
71.919998
70
192
0
VERTEX
8
OBJECT__15
10
63.389000
20
-5.719000
30
73.119003
70
192
0
VERTEX
8
OBJECT__15
10
61.120998
20
-7.966000
30
72.512001
70
192
0
VERTEX
8
OBJECT__15
10
60.160000
20
-8.554000
30
72.317001
70
192
0
VERTEX
8
OBJECT__15
10
64.681000
20
-3.171000
30
73.557999
70
192
0
VERTEX
8
OBJECT__15
10
17.950001
20
0.138000
30
21.250000
70
192
0
VERTEX
8
OBJECT__15
10
27.128000
20
1.985000
30
21.325001
70
192
0
VERTEX
8
OBJECT__15
10
26.885000
20
1.093000
30
21.273001
70
192
0
VERTEX
8
OBJECT__15
10
28.544001
20
4.054000
30
21.565001
70
192
0
VERTEX
8
OBJECT__15
10
27.973000
20
3.464000
30
21.479000
70
192
0
VERTEX
8
OBJECT__15
10
29.184999
20
4.527000
30
21.643000
70
192
0
VERTEX
8
OBJECT__15
10
30.563000
20
5.130000
30
21.756001
70
192
0
VERTEX
8
OBJECT__15
10
29.974001
20
4.928000
30
21.716999
70
192
0
VERTEX
8
OBJECT__15
10
31.164000
20
5.263000
30
21.783001
70
192
0
VERTEX
8
OBJECT__15
10
59.950001
20
5.328000
30
21.796000
70
192
0
VERTEX
8
OBJECT__15
10
60.574001
20
5.286000
30
21.788000
70
192
0
VERTEX
8
OBJECT__15
10
31.950001
20
5.328000
30
21.796000
70
192
0
VERTEX
8
OBJECT__15
10
61.179001
20
5.172000
30
21.764000
70
192
0
VERTEX
8
OBJECT__15
10
61.925999
20
4.928000
30
21.716999
70
192
0
VERTEX
8
OBJECT__15
10
62.687000
20
4.544000
30
21.646000
70
192
0
VERTEX
8
OBJECT__15
10
63.355999
20
4.054000
30
21.565001
70
192
0
VERTEX
8
OBJECT__15
10
63.928001
20
3.463000
30
21.479000
70
192
0
VERTEX
8
OBJECT__15
10
64.774002
20
1.981000
30
21.325001
70
192
0
VERTEX
8
OBJECT__15
10
65.098999
20
0.138000
30
21.250000
70
192
0
VERTEX
8
OBJECT__15
10
65.015999
20
1.092000
30
21.273001
70
192
0
VERTEX
8
OBJECT__15
10
74.949997
20
0.138000
30
21.250000
70
192
0
VERTEX
8
OBJECT__15
10
26.801001
20
0.138000
30
21.250000
70
192
0
VERTEX
8
OBJECT__15
10
64.447998
20
-2.416000
30
21.361000
70
192
0
VERTEX
8
OBJECT__15
10
64.816002
20
-1.588000
30
21.298000
70
192
0
VERTEX
8
OBJECT__15
10
63.926998
20
-3.189000
30
21.444000
70
192
0
VERTEX
8
OBJECT__15
10
62.702000
20
-4.262000
30
21.598000
70
192
0
VERTEX
8
OBJECT__15
10
63.382000
20
-3.757000
30
21.520000
70
192
0
VERTEX
8
OBJECT__15
10
61.925999
20
-4.656000
30
21.666000
70
192
0
VERTEX
8
OBJECT__15
10
60.737000
20
-4.991000
30
21.729000
70
192
0
VERTEX
8
OBJECT__15
10
61.337002
20
-4.858000
30
21.702999
70
192
0
VERTEX
8
OBJECT__15
10
31.950001
20
-5.057000
30
21.742001
70
192
0
VERTEX
8
OBJECT__15
10
59.950001
20
-5.057000
30
21.742001
70
192
0
VERTEX
8
OBJECT__15
10
31.323000
20
-5.015000
30
21.733000
70
192
0
VERTEX
8
OBJECT__15
10
30.715000
20
-4.899000
30
21.711000
70
192
0
VERTEX
8
OBJECT__15
10
29.974001
20
-4.656000
30
21.666000
70
192
0
VERTEX
8
OBJECT__15
10
29.202000
20
-4.264000
30
21.599001
70
192
0
VERTEX
8
OBJECT__15
10
27.973000
20
-3.189000
30
21.444000
70
192
0
VERTEX
8
OBJECT__15
10
28.525000
20
-3.763000
30
21.521000
70
192
0
VERTEX
8
OBJECT__15
10
27.452999
20
-2.418000
30
21.362000
70
192
0
VERTEX
8
OBJECT__15
10
27.086000
20
-1.592000
30
21.298000
70
192
0
VERTEX
8
OBJECT__15
10
74.949997
20
-22.802000
30
60.505001
70
192
0
VERTEX
8
OBJECT__15
10
74.949997
20
-22.664000
30
34.255001
70
192
0
VERTEX
8
OBJECT__15
10
74.949997
20
26.250000
30
47.638000
70
192
0
VERTEX
8
OBJECT__15
10
0
20
0
30
0
70
128
71
1
72
2
73
3
0
VERTEX
8
OBJECT__15
10
0
20
0
30
0
70
128
71
4
72
2
73
1
0
VERTEX
8
OBJECT__15
10
0
20
0
30
0
70
128
71
5
72
6
73
4
0
VERTEX
8
OBJECT__15
10
0
20
0
30
0
70
128
71
7
72
8
73
6
0
VERTEX
8
OBJECT__15
10
0
20
0
30
0
70
128
71
9
72
10
73
11
0
VERTEX
8
OBJECT__15
10
0
20
0
30
0
70
128
71
12
72
13
73
9
0
VERTEX
8
OBJECT__15
10
0
20
0
30
0
70
128
71
14
72
13
73
12
0
VERTEX
8
OBJECT__15
10
0
20
0
30
0
70
128
71
15
72
16
73
14
0
VERTEX
8
OBJECT__15
10
0
20
0
30
0
70
128
71
17
72
18
73
19
0
VERTEX
8
OBJECT__15
10
0
20
0
30
0
70
128
71
18
72
20
73
21
0
VERTEX
8
OBJECT__15
10
0
20
0
30
0
70
128
71
21
72
19
73
18
0
VERTEX
8
OBJECT__15
10
0
20
0
30
0
70
128
71
18
72
22
73
20
0
VERTEX
8
OBJECT__15
10
0
20
0
30
0
70
128
71
19
72
23
73
17
0
VERTEX
8
OBJECT__15
10
0
20
0
30
0
70
128
71
18
72
24
73
25
0
VERTEX
8
OBJECT__15
10
0
20
0
30
0
70
128
71
25
72
22
73
18
0
VERTEX
8
OBJECT__15
10
0
20
0
30
0
70
128
71
24
72
18
73
3
0
VERTEX
8
OBJECT__15
10
0
20
0
30
0
70
128
71
3
72
26
73
24
0
VERTEX
8
OBJECT__15
10
0
20
0
30
0
70
128
71
3
72
27
73
28
0
VERTEX
8
OBJECT__15
10
0
20
0
30
0
70
128
71
3
72
29
73
27
0
VERTEX
8
OBJECT__15
10
0
20
0
30
0
70
128
71
28
72
30
73
3
0
VERTEX
8
OBJECT__15
10
0
20
0
30
0
70
128
71
29
72
3
73
31
0
VERTEX
8
OBJECT__15
10
0
20
0
30
0
70
128
71
30
72
26
73
3
0
VERTEX
8
OBJECT__15
10
0
20
0
30
0
70
128
71
31
72
16
73
32
0
VERTEX
8
OBJECT__15
10
0
20
0
30
0
70
128
71
16
72
33
73
32
0
VERTEX
8
OBJECT__15
10
0
20
0
30
0
70
128
71
16
72
34
73
35
0
VERTEX
8
OBJECT__15
10
0
20
0
30
0
70
128
71
16
72
36
73
34
0
VERTEX
8
OBJECT__15
10
0
20
0
30
0
70
128
71
16
72
15
73
37
0
VERTEX
8
OBJECT__15
10
0
20
0
30
0
70
128
71
15
72
38
73
37
0
VERTEX
8
OBJECT__15
10
0
20
0
30
0
70
128
71
37
72
39
73
16
0
VERTEX
8
OBJECT__15
10
0
20
0
30
0
70
128
71
39
72
36
73
16
0
VERTEX
8
OBJECT__15
10
0
20
0
30
0
70
128
71
15
72
40
73
41
0
VERTEX
8
OBJECT__15
10
0
20
0
30
0
70
128
71
41
72
42
73
15
0
VERTEX
8
OBJECT__15
10
0
20
0
30
0
70
128
71
42
72
38
73
15
0
VERTEX
8
OBJECT__15
10
0
20
0
30
0
70
128
71
35
72
33
73
16
0
VERTEX
8
OBJECT__15
10
0
20
0
30
0
70
128
71
17
72
23
73
43
0
VERTEX
8
OBJECT__15
10
0
20
0
30
0
70
128
71
43
72
15
73
17
0
VERTEX
8
OBJECT__15
10
0
20
0
30
0
70
128
71
43
72
40
73
15
0
VERTEX
8
OBJECT__15
10
0
20
0
30
0
70
128
71
44
72
8
73
45
0
VERTEX
8
OBJECT__15
10
0
20
0
30
0
70
128
71
45
72
46
73
44
0
VERTEX
8
OBJECT__15
10
0
20
0
30
0
70
128
71
8
72
47
73
48
0
VERTEX
8
OBJECT__15
10
0
20
0
30
0
70
128
71
8
72
49
73
47
0
VERTEX
8
OBJECT__15
10
0
20
0
30
0
70
128
71
8
72
50
73
51
0
VERTEX
8
OBJECT__15
10
0
20
0
30
0
70
128
71
8
72
52
73
50
0
VERTEX
8
OBJECT__15
10
0
20
0
30
0
70
128
71
8
72
7
73
53
0
VERTEX
8
OBJECT__15
10
0
20
0
30
0
70
128
71
7
72
54
73
53
0
VERTEX
8
OBJECT__15
10
0
20
0
30
0
70
128
71
53
72
55
73
8
0
VERTEX
8
OBJECT__15
10
0
20
0
30
0
70
128
71
7
72
56
73
54
0
VERTEX
8
OBJECT__15
10
0
20
0
30
0
70
128
71
57
72
56
73
7
0
VERTEX
8
OBJECT__15
10
0
20
0
30
0
70
128
71
55
72
52
73
8
0
VERTEX
8
OBJECT__15
10
0
20
0
30
0
70
128
71
7
72
58
73
57
0
VERTEX
8
OBJECT__15
10
0
20
0
30
0
70
128
71
7
72
59
73
58
0
VERTEX
8
OBJECT__15
10
0
20
0
30
0
70
128
71
51
72
49
73
8
0
VERTEX
8
OBJECT__15
10
0
20
0
30
0
70
128
71
60
72
59
73
7
0
VERTEX
8
OBJECT__15
10
0
20
0
30
0
70
128
71
7
72
61
73
60
0
VERTEX
8
OBJECT__15
10
0
20
0
30
0
70
128
71
48
72
45
73
8
0
VERTEX
8
OBJECT__15
10
0
20
0
30
0
70
128
71
7
72
62
73
63
0
VERTEX
8
OBJECT__15
10
0
20
0
30
0
70
128
71
63
72
61
73
7
0
VERTEX
8
OBJECT__15
10
0
20
0
30
0
70
128
71
62
72
7
73
64
0
VERTEX
8
OBJECT__15
10
0
20
0
30
0
70
128
71
46
72
65
73
44
0
VERTEX
8
OBJECT__15
10
0
20
0
30
0
70
128
71
11
72
66
73
67
0
VERTEX
8
OBJECT__15
10
0
20
0
30
0
70
128
71
11
72
69
73
70
0
VERTEX
8
OBJECT__15
10
0
20
0
30
0
70
128
71
70
72
68
73
11
0
VERTEX
8
OBJECT__15
10
0
20
0
30
0
70
128
71
11
72
72
73
73
0
VERTEX
8
OBJECT__15
10
0
20
0
30
0
70
128
71
10
72
74
73
75
0
VERTEX
8
OBJECT__15
10
0
20
0
30
0
70
128
71
10
72
76
73
74
0
VERTEX
8
OBJECT__15
10
0
20
0
30
0
70
128
71
75
72
11
73
10
0
VERTEX
8
OBJECT__15
10
0
20
0
30
0
70
128
71
10
72
77
73
76
0
VERTEX
8
OBJECT__15
10
0
20
0
30
0
70
128
71
10
72
78
73
77
0
VERTEX
8
OBJECT__15
10
0
20
0
30
0
70
128
71
75
72
72
73
11
0
VERTEX
8
OBJECT__15
10
0
20
0
30
0
70
128
71
73
72
71
73
11
0
VERTEX
8
OBJECT__15
10
0
20
0
30
0
70
128
71
10
72
79
73
78
0
VERTEX
8
OBJECT__15
10
0
20
0
30
0
70
128
71
10
72
80
73
81
0
VERTEX
8
OBJECT__15
10
0
20
0
30
0
70
128
71
81
72
79
73
10
0
VERTEX
8
OBJECT__15
10
0
20
0
30
0
70
128
71
71
72
69
73
11
0
VERTEX
8
OBJECT__15
10
0
20
0
30
0
70
128
71
10
72
82
73
80
0
VERTEX
8
OBJECT__15
10
0
20
0
30
0
70
128
71
10
72
44
73
83
0
VERTEX
8
OBJECT__15
10
0
20
0
30
0
70
128
71
83
72
82
73
10
0
VERTEX
8
OBJECT__15
10
0
20
0
30
0
70
128
71
68
72
66
73
11
0
VERTEX
8
OBJECT__15
10
0
20
0
30
0
70
128
71
67
72
64
73
11
0
VERTEX
8
OBJECT__15
10
0
20
0
30
0
70
128
71
44
72
65
73
83
0
VERTEX
8
OBJECT__15
10
0
20
0
30
0
70
128
71
67
72
62
73
64
0
VERTEX
8
OBJECT__15
10
0
20
0
30
0
70
128
71
32
72
29
73
31
0
VERTEX
8
OBJECT__15
10
0
20
0
30
0
70
128
71
14
72
84
73
15
0
VERTEX
8
OBJECT__15
10
0
20
0
30
0
70
128
71
12
72
84
73
14
0
VERTEX
8
OBJECT__15
10
0
20
0
30
0
70
128
71
9
72
85
73
12
0
VERTEX
8
OBJECT__15
10
0
20
0
30
0
70
128
71
11
72
85
73
9
0
VERTEX
8
OBJECT__15
10
0
20
0
30
0
70
128
71
6
72
5
73
7
0
VERTEX
8
OBJECT__15
10
0
20
0
30
0
70
128
71
4
72
86
73
5
0
VERTEX
8
OBJECT__15
10
0
20
0
30
0
70
128
71
1
72
86
73
4
0
VERTEX
8
OBJECT__15
10
0
20
0
30
0
70
128
71
3
72
18
73
1
0
SEQEND
8
OBJECT__15
0
POLYLINE
8
OBJECT__16
66
1
70
64
71
12
72
10
62
253
0
VERTEX
8
OBJECT__16
10
17.950001
20
-13.005000
30
24.698000
70
192
0
VERTEX
8
OBJECT__16
10
17.950001
20
22.802000
30
34.494999
70
192
0
VERTEX
8
OBJECT__16
10
17.950001
20
13.245000
30
24.836000
70
192
0
VERTEX
8
OBJECT__16
10
17.950001
20
13.005000
30
70.302002
70
192
0
VERTEX
8
OBJECT__16
10
17.950001
20
-22.664000
30
34.255001
70
192
0
VERTEX
8
OBJECT__16
10
17.950001
20
-26.250000
30
47.362000
70
192
0
VERTEX
8
OBJECT__16
10
17.950001
20
26.250000
30
47.638000
70
192
0
VERTEX
8
OBJECT__16
10
17.950001
20
22.664000
30
60.744999
70
192
0
VERTEX
8
OBJECT__16
10
17.950001
20
-22.802000
30
60.505001
70
192
0
VERTEX
8
OBJECT__16
10
17.950001
20
-13.245000
30
70.164001
70
192
0
VERTEX
8
OBJECT__16
10
17.950001
20
-0.138000
30
73.750000
70
192
0
VERTEX
8
OBJECT__16
10
17.950001
20
0.138000
30
21.250000
70
192
0
VERTEX
8
OBJECT__16
10
0
20
0
30
0
70
128
71
1
72
2
73
3
0
VERTEX
8
OBJECT__16
10
0
20
0
30
0
70
128
71
4
72
5
73
6
0
VERTEX
8
OBJECT__16
10
0
20
0
30
0
70
128
71
1
72
7
73
2
0
VERTEX
8
OBJECT__16
10
0
20
0
30
0
70
128
71
1
72
4
73
8
0
VERTEX
8
OBJECT__16
10
0
20
0
30
0
70
128
71
9
72
10
73
11
0
VERTEX
8
OBJECT__16
10
0
20
0
30
0
70
128
71
4
72
1
73
5
0
VERTEX
8
OBJECT__16
10
0
20
0
30
0
70
128
71
8
72
7
73
1
0
VERTEX
8
OBJECT__16
10
0
20
0
30
0
70
128
71
6
72
9
73
4
0
VERTEX
8
OBJECT__16
10
0
20
0
30
0
70
128
71
11
72
4
73
9
0
VERTEX
8
OBJECT__16
10
0
20
0
30
0
70
128
71
3
72
12
73
1
0
SEQEND
8
OBJECT__16
0
POLYLINE
8
OBJECT__17
66
1
70
64
71
12
72
10
62
253
0
VERTEX
8
OBJECT__17
10
74.949997
20
-22.802000
30
60.505001
70
192
0
VERTEX
8
OBJECT__17
10
74.949997
20
-26.250000
30
47.362000
70
192
0
VERTEX
8
OBJECT__17
10
74.949997
20
-22.664000
30
34.255001
70
192
0
VERTEX
8
OBJECT__17
10
74.949997
20
13.005000
30
70.302002
70
192
0
VERTEX
8
OBJECT__17
10
74.949997
20
-13.005000
30
24.698000
70
192
0
VERTEX
8
OBJECT__17
10
74.949997
20
0.138000
30
21.250000
70
192
0
VERTEX
8
OBJECT__17
10
74.949997
20
-13.245000
30
70.164001
70
192
0
VERTEX
8
OBJECT__17
10
74.949997
20
-0.138000
30
73.750000
70
192
0
VERTEX
8
OBJECT__17
10
74.949997
20
22.802000
30
34.494999
70
192
0
VERTEX
8
OBJECT__17
10
74.949997
20
26.250000
30
47.638000
70
192
0
VERTEX
8
OBJECT__17
10
74.949997
20
13.245000
30
24.836000
70
192
0
VERTEX
8
OBJECT__17
10
74.949997
20
22.664000
30
60.744999
70
192
0
VERTEX
8
OBJECT__17
10
0
20
0
30
0
70
128
71
1
72
2
73
3
0
VERTEX
8
OBJECT__17
10
0
20
0
30
0
70
128
71
4
72
5
73
6
0
VERTEX
8
OBJECT__17
10
0
20
0
30
0
70
128
71
5
72
7
73
1
0
VERTEX
8
OBJECT__17
10
0
20
0
30
0
70
128
71
5
72
4
73
8
0
VERTEX
8
OBJECT__17
10
0
20
0
30
0
70
128
71
4
72
9
73
10
0
VERTEX
8
OBJECT__17
10
0
20
0
30
0
70
128
71
6
72
11
73
4
0
VERTEX
8
OBJECT__17
10
0
20
0
30
0
70
128
71
8
72
7
73
5
0
VERTEX
8
OBJECT__17
10
0
20
0
30
0
70
128
71
11
72
9
73
4
0
VERTEX
8
OBJECT__17
10
0
20
0
30
0
70
128
71
10
72
12
73
4
0
VERTEX
8
OBJECT__17
10
0
20
0
30
0
70
128
71
3
72
5
73
1
0
SEQEND
8
OBJECT__17
0
POLYLINE
8
OBJECT__18
66
1
70
64
71
4
72
2
62
253
0
VERTEX
8
OBJECT__18
10
59.950001
20
-4.696000
30
21.808001
70
192
0
VERTEX
8
OBJECT__18
10
59.950001
20
-5.057000
30
21.742001
70
192
0
VERTEX
8
OBJECT__18
10
31.950001
20
-5.057000
30
21.742001
70
192
0
VERTEX
8
OBJECT__18
10
31.950001
20
-4.696000
30
21.808001
70
192
0
VERTEX
8
OBJECT__18
10
0
20
0
30
0
70
128
71
1
72
2
73
3
0
VERTEX
8
OBJECT__18
10
0
20
0
30
0
70
128
71
3
72
4
73
1
0
SEQEND
8
OBJECT__18
0
POLYLINE
8
OBJECT__19
66
1
70
64
71
8
72
6
62
253
0
VERTEX
8
OBJECT__19
10
29.974001
20
-4.656000
30
21.666000
70
192
0
VERTEX
8
OBJECT__19
10
30.101999
20
-4.326000
30
21.740000
70
192
0
VERTEX
8
OBJECT__19
10
30.796000
20
-4.556000
30
21.777000
70
192
0
VERTEX
8
OBJECT__19
10
31.323000
20
-5.015000
30
21.733000
70
192
0
VERTEX
8
OBJECT__19
10
30.715000
20
-4.899000
30
21.711000
70
192
0
VERTEX
8
OBJECT__19
10
31.950001
20
-5.057000
30
21.742001
70
192
0
VERTEX
8
OBJECT__19
10
31.367001
20
-4.661000
30
21.798000
70
192
0
VERTEX
8
OBJECT__19
10
31.950001
20
-4.696000
30
21.808001
70
192
0
VERTEX
8
OBJECT__19
10
0
20
0
30
0
70
128
71
1
72
2
73
3
0
VERTEX
8
OBJECT__19
10
0
20
0
30
0
70
128
71
4
72
5
73
3
0
VERTEX
8
OBJECT__19
10
0
20
0
30
0
70
128
71
6
72
4
73
7
0
VERTEX
8
OBJECT__19
10
0
20
0
30
0
70
128
71
7
72
8
73
6
0
VERTEX
8
OBJECT__19
10
0
20
0
30
0
70
128
71
3
72
7
73
4
0
VERTEX
8
OBJECT__19
10
0
20
0
30
0
70
128
71
3
72
5
73
1
0
SEQEND
8
OBJECT__19
0
POLYLINE
8
OBJECT__20
66
1
70
64
71
8
72
6
62
253
0
VERTEX
8
OBJECT__20
10
59.950001
20
-5.057000
30
21.742001
70
192
0
VERTEX
8
OBJECT__20
10
59.950001
20
-4.696000
30
21.808001
70
192
0
VERTEX
8
OBJECT__20
10
60.682999
20
-4.640000
30
21.794001
70
192
0
VERTEX
8
OBJECT__20
10
61.337002
20
-4.858000
30
21.702999
70
192
0
VERTEX
8
OBJECT__20
10
60.737000
20
-4.991000
30
21.729000
70
192
0
VERTEX
8
OBJECT__20
10
61.925999
20
-4.656000
30
21.666000
70
192
0
VERTEX
8
OBJECT__20
10
61.247002
20
-4.518000
30
21.770000
70
192
0
VERTEX
8
OBJECT__20
10
61.798000
20
-4.326000
30
21.740000
70
192
0
VERTEX
8
OBJECT__20
10
0
20
0
30
0
70
128
71
1
72
2
73
3
0
VERTEX
8
OBJECT__20
10
0
20
0
30
0
70
128
71
4
72
5
73
3
0
VERTEX
8
OBJECT__20
10
0
20
0
30
0
70
128
71
6
72
4
73
7
0
VERTEX
8
OBJECT__20
10
0
20
0
30
0
70
128
71
7
72
8
73
6
0
VERTEX
8
OBJECT__20
10
0
20
0
30
0
70
128
71
3
72
7
73
4
0
VERTEX
8
OBJECT__20
10
0
20
0
30
0
70
128
71
3
72
5
73
1
0
SEQEND
8
OBJECT__20
0
POLYLINE
8
OBJECT__21
66
1
70
64
71
8
72
6
62
253
0
VERTEX
8
OBJECT__21
10
27.973000
20
-3.189000
30
21.444000
70
192
0
VERTEX
8
OBJECT__21
10
28.243999
20
-2.947000
30
21.562000
70
192
0
VERTEX
8
OBJECT__21
10
28.756001
20
-3.481000
30
21.625999
70
192
0
VERTEX
8
OBJECT__21
10
28.525000
20
-3.763000
30
21.521000
70
192
0
VERTEX
8
OBJECT__21
10
29.381001
20
-3.953000
30
21.686001
70
192
0
VERTEX
8
OBJECT__21
10
29.202000
20
-4.264000
30
21.599001
70
192
0
VERTEX
8
OBJECT__21
10
30.101999
20
-4.326000
30
21.740000
70
192
0
VERTEX
8
OBJECT__21
10
29.974001
20
-4.656000
30
21.666000
70
192
0
VERTEX
8
OBJECT__21
10
0
20
0
30
0
70
128
71
1
72
2
73
3
0
VERTEX
8
OBJECT__21
10
0
20
0
30
0
70
128
71
4
72
3
73
5
0
VERTEX
8
OBJECT__21
10
0
20
0
30
0
70
128
71
6
72
5
73
7
0
VERTEX
8
OBJECT__21
10
0
20
0
30
0
70
128
71
7
72
8
73
6
0
VERTEX
8
OBJECT__21
10
0
20
0
30
0
70
128
71
5
72
6
73
4
0
VERTEX
8
OBJECT__21
10
0
20
0
30
0
70
128
71
3
72
4
73
1
0
SEQEND
8
OBJECT__21
0
POLYLINE
8
OBJECT__22
66
1
70
64
71
8
72
6
62
253
0
VERTEX
8
OBJECT__22
10
63.926998
20
-3.189000
30
21.444000
70
192
0
VERTEX
8
OBJECT__22
10
63.382000
20
-3.757000
30
21.520000
70
192
0
VERTEX
8
OBJECT__22
10
63.150002
20
-3.475000
30
21.625000
70
192
0
VERTEX
8
OBJECT__22
10
62.702000
20
-4.262000
30
21.598000
70
192
0
VERTEX
8
OBJECT__22
10
62.522999
20
-3.950000
30
21.686001
70
192
0
VERTEX
8
OBJECT__22
10
61.925999
20
-4.656000
30
21.666000
70
192
0
VERTEX
8
OBJECT__22
10
61.798000
20
-4.326000
30
21.740000
70
192
0
VERTEX
8
OBJECT__22
10
63.654999
20
-2.948000
30
21.562000
70
192
0
VERTEX
8
OBJECT__22
10
0
20
0
30
0
70
128
71
1
72
2
73
3
0
VERTEX
8
OBJECT__22
10
0
20
0
30
0
70
128
71
2
72
4
73
5
0
VERTEX
8
OBJECT__22
10
0
20
0
30
0
70
128
71
4
72
6
73
7
0
VERTEX
8
OBJECT__22
10
0
20
0
30
0
70
128
71
7
72
5
73
4
0
VERTEX
8
OBJECT__22
10
0
20
0
30
0
70
128
71
5
72
3
73
2
0
VERTEX
8
OBJECT__22
10
0
20
0
30
0
70
128
71
3
72
8
73
1
0
SEQEND
8
OBJECT__22
0
POLYLINE
8
OBJECT__23
66
1
70
64
71
8
72
6
62
253
0
VERTEX
8
OBJECT__23
10
26.801001
20
0.138000
30
21.250000
70
192
0
VERTEX
8
OBJECT__23
10
27.139999
20
0.138000
30
21.382999
70
192
0
VERTEX
8
OBJECT__23
10
27.412001
20
-1.470000
30
21.430000
70
192
0
VERTEX
8
OBJECT__23
10
27.086000
20
-1.592000
30
21.298000
70
192
0
VERTEX
8
OBJECT__23
10
27.756001
20
-2.236000
30
21.486000
70
192
0
VERTEX
8
OBJECT__23
10
27.452999
20
-2.418000
30
21.362000
70
192
0
VERTEX
8
OBJECT__23
10
28.243999
20
-2.947000
30
21.562000
70
192
0
VERTEX
8
OBJECT__23
10
27.973000
20
-3.189000
30
21.444000
70
192
0
VERTEX
8
OBJECT__23
10
0
20
0
30
0
70
128
71
1
72
2
73
3
0
VERTEX
8
OBJECT__23
10
0
20
0
30
0
70
128
71
3
72
4
73
1
0
VERTEX
8
OBJECT__23
10
0
20
0
30
0
70
128
71
4
72
3
73
5
0
VERTEX
8
OBJECT__23
10
0
20
0
30
0
70
128
71
6
72
5
73
7
0
VERTEX
8
OBJECT__23
10
0
20
0
30
0
70
128
71
7
72
8
73
6
0
VERTEX
8
OBJECT__23
10
0
20
0
30
0
70
128
71
5
72
6
73
4
0
SEQEND
8
OBJECT__23
0
POLYLINE
8
OBJECT__24
66
1
70
64
71
8
72
6
62
253
0
VERTEX
8
OBJECT__24
10
65.098999
20
0.138000
30
21.250000
70
192
0
VERTEX
8
OBJECT__24
10
64.816002
20
-1.588000
30
21.298000
70
192
0
VERTEX
8
OBJECT__24
10
64.488998
20
-1.466000
30
21.429001
70
192
0
VERTEX
8
OBJECT__24
10
64.760002
20
0.138000
30
21.382999
70
192
0
VERTEX
8
OBJECT__24
10
64.447998
20
-2.416000
30
21.361000
70
192
0
VERTEX
8
OBJECT__24
10
64.144997
20
-2.234000
30
21.486000
70
192
0
VERTEX
8
OBJECT__24
10
63.654999
20
-2.948000
30
21.562000
70
192
0
VERTEX
8
OBJECT__24
10
63.926998
20
-3.189000
30
21.444000
70
192
0
VERTEX
8
OBJECT__24
10
0
20
0
30
0
70
128
71
1
72
2
73
3
0
VERTEX
8
OBJECT__24
10
0
20
0
30
0
70
128
71
2
72
5
73
6
0
VERTEX
8
OBJECT__24
10
0
20
0
30
0
70
128
71
5
72
8
73
7
0
VERTEX
8
OBJECT__24
10
0
20
0
30
0
70
128
71
7
72
6
73
5
0
VERTEX
8
OBJECT__24
10
0
20
0
30
0
70
128
71
6
72
3
73
2
0
VERTEX
8
OBJECT__24
10
0
20
0
30
0
70
128
71
3
72
4
73
1
0
SEQEND
8
OBJECT__24
0
POLYLINE
8
OBJECT__25
66
1
70
64
71
8
72
6
62
253
0
VERTEX
8
OBJECT__25
10
26.885000
20
1.093000
30
21.273001
70
192
0
VERTEX
8
OBJECT__25
10
27.128000
20
1.985000
30
21.325001
70
192
0
VERTEX
8
OBJECT__25
10
27.451000
20
1.853000
30
21.454000
70
192
0
VERTEX
8
OBJECT__25
10
27.222000
20
1.026000
30
21.406000
70
192
0
VERTEX
8
OBJECT__25
10
27.139999
20
0.138000
30
21.382999
70
192
0
VERTEX
8
OBJECT__25
10
27.973000
20
3.464000
30
21.479000
70
192
0
VERTEX
8
OBJECT__25
10
28.245001
20
3.221000
30
21.594000
70
192
0
VERTEX
8
OBJECT__25
10
26.801001
20
0.138000
30
21.250000
70
192
0
VERTEX
8
OBJECT__25
10
0
20
0
30
0
70
128
71
1
72
2
73
3
0
VERTEX
8
OBJECT__25
10
0
20
0
30
0
70
128
71
1
72
4
73
5
0
VERTEX
8
OBJECT__25
10
0
20
0
30
0
70
128
71
2
72
6
73
7
0
VERTEX
8
OBJECT__25
10
0
20
0
30
0
70
128
71
7
72
3
73
2
0
VERTEX
8
OBJECT__25
10
0
20
0
30
0
70
128
71
5
72
8
73
1
0
VERTEX
8
OBJECT__25
10
0
20
0
30
0
70
128
71
3
72
4
73
1
0
SEQEND
8
OBJECT__25
0
POLYLINE
8
OBJECT__26
66
1
70
64
71
8
72
6
62
253
0
VERTEX
8
OBJECT__26
10
65.015999
20
1.092000
30
21.273001
70
192
0
VERTEX
8
OBJECT__26
10
64.678001
20
1.024000
30
21.406000
70
192
0
VERTEX
8
OBJECT__26
10
64.449997
20
1.850000
30
21.454000
70
192
0
VERTEX
8
OBJECT__26
10
65.098999
20
0.138000
30
21.250000
70
192
0
VERTEX
8
OBJECT__26
10
64.760002
20
0.138000
30
21.382999
70
192
0
VERTEX
8
OBJECT__26
10
64.774002
20
1.981000
30
21.325001
70
192
0
VERTEX
8
OBJECT__26
10
63.655998
20
3.221000
30
21.594000
70
192
0
VERTEX
8
OBJECT__26
10
63.928001
20
3.463000
30
21.479000
70
192
0
VERTEX
8
OBJECT__26
10
0
20
0
30
0
70
128
71
1
72
2
73
3
0
VERTEX
8
OBJECT__26
10
0
20
0
30
0
70
128
71
1
72
4
73
5
0
VERTEX
8
OBJECT__26
10
0
20
0
30
0
70
128
71
6
72
3
73
7
0
VERTEX
8
OBJECT__26
10
0
20
0
30
0
70
128
71
7
72
8
73
6
0
VERTEX
8
OBJECT__26
10
0
20
0
30
0
70
128
71
5
72
2
73
1
0
VERTEX
8
OBJECT__26
10
0
20
0
30
0
70
128
71
3
72
6
73
1
0
SEQEND
8
OBJECT__26
0
POLYLINE
8
OBJECT__27
66
1
70
64
71
8
72
6
62
253
0
VERTEX
8
OBJECT__27
10
28.544001
20
4.054000
30
21.565001
70
192
0
VERTEX
8
OBJECT__27
10
29.184999
20
4.527000
30
21.643000
70
192
0
VERTEX
8
OBJECT__27
10
29.365999
20
4.215000
30
21.728001
70
192
0
VERTEX
8
OBJECT__27
10
27.973000
20
3.464000
30
21.479000
70
192
0
VERTEX
8
OBJECT__27
10
28.774000
20
3.769000
30
21.666000
70
192
0
VERTEX
8
OBJECT__27
10
29.974001
20
4.928000
30
21.716999
70
192
0
VERTEX
8
OBJECT__27
10
30.101999
20
4.597000
30
21.787001
70
192
0
VERTEX
8
OBJECT__27
10
28.245001
20
3.221000
30
21.594000
70
192
0
VERTEX
8
OBJECT__27
10
0
20
0
30
0
70
128
71
1
72
2
73
3
0
VERTEX
8
OBJECT__27
10
0
20
0
30
0
70
128
71
4
72
1
73
5
0
VERTEX
8
OBJECT__27
10
0
20
0
30
0
70
128
71
2
72
6
73
7
0
VERTEX
8
OBJECT__27
10
0
20
0
30
0
70
128
71
7
72
3
73
2
0
VERTEX
8
OBJECT__27
10
0
20
0
30
0
70
128
71
5
72
8
73
4
0
VERTEX
8
OBJECT__27
10
0
20
0
30
0
70
128
71
3
72
5
73
1
0
SEQEND
8
OBJECT__27
0
POLYLINE
8
OBJECT__28
66
1
70
64
71
8
72
6
62
253
0
VERTEX
8
OBJECT__28
10
63.926998
20
3.463000
30
21.479000
70
192
0
VERTEX
8
OBJECT__28
10
63.655998
20
3.221000
30
21.594000
70
192
0
VERTEX
8
OBJECT__28
10
63.125999
20
3.769000
30
21.666000
70
192
0
VERTEX
8
OBJECT__28
10
63.355999
20
4.054000
30
21.565001
70
192
0
VERTEX
8
OBJECT__28
10
62.507999
20
4.231000
30
21.730000
70
192
0
VERTEX
8
OBJECT__28
10
62.687000
20
4.544000
30
21.646000
70
192
0
VERTEX
8
OBJECT__28
10
61.798000
20
4.597000
30
21.787001
70
192
0
VERTEX
8
OBJECT__28
10
61.925999
20
4.928000
30
21.716999
70
192
0
VERTEX
8
OBJECT__28
10
0
20
0
30
0
70
128
71
1
72
2
73
3
0
VERTEX
8
OBJECT__28
10
0
20
0
30
0
70
128
71
4
72
3
73
5
0
VERTEX
8
OBJECT__28
10
0
20
0
30
0
70
128
71
6
72
5
73
7
0
VERTEX
8
OBJECT__28
10
0
20
0
30
0
70
128
71
7
72
8
73
6
0
VERTEX
8
OBJECT__28
10
0
20
0
30
0
70
128
71
5
72
6
73
4
0
VERTEX
8
OBJECT__28
10
0
20
0
30
0
70
128
71
3
72
4
73
1
0
SEQEND
8
OBJECT__28
0
POLYLINE
8
OBJECT__29
66
1
70
64
71
8
72
6
62
253
0
VERTEX
8
OBJECT__29
10
31.950001
20
5.328000
30
21.796000
70
192
0
VERTEX
8
OBJECT__29
10
31.950001
20
4.967000
30
21.858999
70
192
0
VERTEX
8
OBJECT__29
10
31.218000
20
4.911000
30
21.844000
70
192
0
VERTEX
8
OBJECT__29
10
30.563000
20
5.130000
30
21.756001
70
192
0
VERTEX
8
OBJECT__29
10
31.164000
20
5.263000
30
21.783001
70
192
0
VERTEX
8
OBJECT__29
10
29.974001
20
4.928000
30
21.716999
70
192
0
VERTEX
8
OBJECT__29
10
30.653000
20
4.789000
30
21.819000
70
192
0
VERTEX
8
OBJECT__29
10
30.101999
20
4.597000
30
21.787001
70
192
0
VERTEX
8
OBJECT__29
10
0
20
0
30
0
70
128
71
1
72
2
73
3
0
VERTEX
8
OBJECT__29
10
0
20
0
30
0
70
128
71
4
72
5
73
3
0
VERTEX
8
OBJECT__29
10
0
20
0
30
0
70
128
71
6
72
4
73
7
0
VERTEX
8
OBJECT__29
10
0
20
0
30
0
70
128
71
7
72
8
73
6
0
VERTEX
8
OBJECT__29
10
0
20
0
30
0
70
128
71
3
72
7
73
4
0
VERTEX
8
OBJECT__29
10
0
20
0
30
0
70
128
71
3
72
5
73
1
0
SEQEND
8
OBJECT__29
0
POLYLINE
8
OBJECT__30
66
1
70
64
71
8
72
6
62
253
0
VERTEX
8
OBJECT__30
10
61.925999
20
4.928000
30
21.716999
70
192
0
VERTEX
8
OBJECT__30
10
61.798000
20
4.597000
30
21.787001
70
192
0
VERTEX
8
OBJECT__30
10
61.098000
20
4.828000
30
21.827000
70
192
0
VERTEX
8
OBJECT__30
10
60.574001
20
5.286000
30
21.788000
70
192
0
VERTEX
8
OBJECT__30
10
61.179001
20
5.172000
30
21.764000
70
192
0
VERTEX
8
OBJECT__30
10
59.950001
20
5.328000
30
21.796000
70
192
0
VERTEX
8
OBJECT__30
10
60.529999
20
4.932000
30
21.849001
70
192
0
VERTEX
8
OBJECT__30
10
59.950001
20
4.967000
30
21.858999
70
192
0
VERTEX
8
OBJECT__30
10
0
20
0
30
0
70
128
71
1
72
2
73
3
0
VERTEX
8
OBJECT__30
10
0
20
0
30
0
70
128
71
4
72
5
73
3
0
VERTEX
8
OBJECT__30
10
0
20
0
30
0
70
128
71
6
72
4
73
7
0
VERTEX
8
OBJECT__30
10
0
20
0
30
0
70
128
71
7
72
8
73
6
0
VERTEX
8
OBJECT__30
10
0
20
0
30
0
70
128
71
3
72
7
73
4
0
VERTEX
8
OBJECT__30
10
0
20
0
30
0
70
128
71
3
72
5
73
1
0
SEQEND
8
OBJECT__30
0
POLYLINE
8
OBJECT__31
66
1
70
64
71
4
72
2
62
253
0
VERTEX
8
OBJECT__31
10
31.950001
20
5.328000
30
21.796000
70
192
0
VERTEX
8
OBJECT__31
10
59.950001
20
5.328000
30
21.796000
70
192
0
VERTEX
8
OBJECT__31
10
59.950001
20
4.967000
30
21.858999
70
192
0
VERTEX
8
OBJECT__31
10
31.950001
20
4.967000
30
21.858999
70
192
0
VERTEX
8
OBJECT__31
10
0
20
0
30
0
70
128
71
1
72
2
73
3
0
VERTEX
8
OBJECT__31
10
0
20
0
30
0
70
128
71
3
72
4
73
1
0
SEQEND
8
OBJECT__31
0
POLYLINE
8
OBJECT__32
66
1
70
64
71
4
72
2
62
253
0
VERTEX
8
OBJECT__32
10
31.950001
20
3.593000
30
22.544001
70
192
0
VERTEX
8
OBJECT__32
10
31.950001
20
4.967000
30
21.858999
70
192
0
VERTEX
8
OBJECT__32
10
59.950001
20
4.967000
30
21.858999
70
192
0
VERTEX
8
OBJECT__32
10
59.950001
20
3.593000
30
22.544001
70
192
0
VERTEX
8
OBJECT__32
10
0
20
0
30
0
70
128
71
1
72
2
73
3
0
VERTEX
8
OBJECT__32
10
0
20
0
30
0
70
128
71
3
72
4
73
1
0
SEQEND
8
OBJECT__32
0
POLYLINE
8
OBJECT__33
66
1
70
64
71
4
72
2
62
253
0
VERTEX
8
OBJECT__33
10
31.950001
20
-4.696000
30
21.808001
70
192
0
VERTEX
8
OBJECT__33
10
31.950001
20
-3.330000
30
22.507999
70
192
0
VERTEX
8
OBJECT__33
10
59.950001
20
-3.330000
30
22.507999
70
192
0
VERTEX
8
OBJECT__33
10
59.950001
20
-4.696000
30
21.808001
70
192
0
VERTEX
8
OBJECT__33
10
0
20
0
30
0
70
128
71
1
72
2
73
3
0
VERTEX
8
OBJECT__33
10
0
20
0
30
0
70
128
71
3
72
4
73
1
0
SEQEND
8
OBJECT__33
0
POLYLINE
8
OBJECT__34
66
1
70
64
71
8
72
6
62
253
0
VERTEX
8
OBJECT__34
10
31.566000
20
3.566000
30
22.540001
70
192
0
VERTEX
8
OBJECT__34
10
29.504999
20
2.615000
30
22.423000
70
192
0
VERTEX
8
OBJECT__34
10
30.101999
20
4.597000
30
21.787001
70
192
0
VERTEX
8
OBJECT__34
10
30.653000
20
4.789000
30
21.819000
70
192
0
VERTEX
8
OBJECT__34
10
29.601000
20
3.044000
30
22.320999
70
192
0
VERTEX
8
OBJECT__34
10
31.950001
20
4.967000
30
21.858999
70
192
0
VERTEX
8
OBJECT__34
10
31.950001
20
3.593000
30
22.544001
70
192
0
VERTEX
8
OBJECT__34
10
31.218000
20
4.911000
30
21.844000
70
192
0
VERTEX
8
OBJECT__34
10
0
20
0
30
0
70
128
71
1
72
2
73
3
0
VERTEX
8
OBJECT__34
10
0
20
0
30
0
70
128
71
3
72
4
73
1
0
VERTEX
8
OBJECT__34
10
0
20
0
30
0
70
128
71
3
72
2
73
5
0
VERTEX
8
OBJECT__34
10
0
20
0
30
0
70
128
71
6
72
7
73
1
0
VERTEX
8
OBJECT__34
10
0
20
0
30
0
70
128
71
1
72
8
73
6
0
VERTEX
8
OBJECT__34
10
0
20
0
30
0
70
128
71
4
72
8
73
1
0
SEQEND
8
OBJECT__34
0
POLYLINE
8
OBJECT__35
66
1
70
64
71
6
72
4
62
253
0
VERTEX
8
OBJECT__35
10
28.028000
20
0.134000
30
22.056999
70
192
0
VERTEX
8
OBJECT__35
10
27.222000
20
1.026000
30
21.406000
70
192
0
VERTEX
8
OBJECT__35
10
27.451000
20
1.853000
30
21.454000
70
192
0
VERTEX
8
OBJECT__35
10
28.410000
20
2.285000
30
22.020000
70
192
0
VERTEX
8
OBJECT__35
10
27.139999
20
0.138000
30
21.382999
70
192
0
VERTEX
8
OBJECT__35
10
28.245001
20
3.221000
30
21.594000
70
192
0
VERTEX
8
OBJECT__35
10
0
20
0
30
0
70
128
71
1
72
2
73
3
0
VERTEX
8
OBJECT__35
10
0
20
0
30
0
70
128
71
3
72
4
73
1
0
VERTEX
8
OBJECT__35
10
0
20
0
30
0
70
128
71
1
72
5
73
2
0
VERTEX
8
OBJECT__35
10
0
20
0
30
0
70
128
71
3
72
6
73
4
0
SEQEND
8
OBJECT__35
0
POLYLINE
8
OBJECT__36
66
1
70
64
71
6
72
4
62
253
0
VERTEX
8
OBJECT__36
10
29.601000
20
3.044000
30
22.320999
70
192
0
VERTEX
8
OBJECT__36
10
28.774000
20
3.769000
30
21.666000
70
192
0
VERTEX
8
OBJECT__36
10
29.365999
20
4.215000
30
21.728001
70
192
0
VERTEX
8
OBJECT__36
10
28.410000
20
2.285000
30
22.020000
70
192
0
VERTEX
8
OBJECT__36
10
28.245001
20
3.221000
30
21.594000
70
192
0
VERTEX
8
OBJECT__36
10
30.101999
20
4.597000
30
21.787001
70
192
0
VERTEX
8
OBJECT__36
10
0
20
0
30
0
70
128
71
1
72
2
73
3
0
VERTEX
8
OBJECT__36
10
0
20
0
30
0
70
128
71
1
72
4
73
5
0
VERTEX
8
OBJECT__36
10
0
20
0
30
0
70
128
71
5
72
2
73
1
0
VERTEX
8
OBJECT__36
10
0
20
0
30
0
70
128
71
3
72
6
73
1
0
SEQEND
8
OBJECT__36
0
POLYLINE
8
OBJECT__37
66
1
70
64
71
6
72
4
62
253
0
VERTEX
8
OBJECT__37
10
28.028000
20
0.134000
30
22.056999
70
192
0
VERTEX
8
OBJECT__37
10
28.410000
20
2.285000
30
22.020000
70
192
0
VERTEX
8
OBJECT__37
10
28.520000
20
1.017000
30
22.306999
70
192
0
VERTEX
8
OBJECT__37
10
29.601000
20
3.044000
30
22.320999
70
192
0
VERTEX
8
OBJECT__37
10
29.504999
20
2.615000
30
22.423000
70
192
0
VERTEX
8
OBJECT__37
10
28.410000
20
0.133000
30
22.287001
70
192
0
VERTEX
8
OBJECT__37
10
0
20
0
30
0
70
128
71
1
72
2
73
3
0
VERTEX
8
OBJECT__37
10
0
20
0
30
0
70
128
71
2
72
4
73
5
0
VERTEX
8
OBJECT__37
10
0
20
0
30
0
70
128
71
5
72
3
73
2
0
VERTEX
8
OBJECT__37
10
0
20
0
30
0
70
128
71
3
72
6
73
1
0
SEQEND
8
OBJECT__37
0
POLYLINE
8
OBJECT__38
66
1
70
64
71
6
72
4
62
253
0
VERTEX
8
OBJECT__38
10
28.408001
20
-2.018000
30
21.996000
70
192
0
VERTEX
8
OBJECT__38
10
29.093000
20
-1.891000
30
22.358000
70
192
0
VERTEX
8
OBJECT__38
10
29.504999
20
-2.350000
30
22.396000
70
192
0
VERTEX
8
OBJECT__38
10
28.028000
20
0.134000
30
22.056999
70
192
0
VERTEX
8
OBJECT__38
10
28.410000
20
0.133000
30
22.287001
70
192
0
VERTEX
8
OBJECT__38
10
29.601000
20
-2.779000
30
22.290001
70
192
0
VERTEX
8
OBJECT__38
10
0
20
0
30
0
70
128
71
1
72
2
73
3
0
VERTEX
8
OBJECT__38
10
0
20
0
30
0
70
128
71
1
72
4
73
5
0
VERTEX
8
OBJECT__38
10
0
20
0
30
0
70
128
71
5
72
2
73
1
0
VERTEX
8
OBJECT__38
10
0
20
0
30
0
70
128
71
3
72
6
73
1
0
SEQEND
8
OBJECT__38
0
POLYLINE
8
OBJECT__39
66
1
70
64
71
7
72
5
62
253
0
VERTEX
8
OBJECT__39
10
31.950001
20
-3.330000
30
22.507999
70
192
0
VERTEX
8
OBJECT__39
10
30.796000
20
-4.556000
30
21.777000
70
192
0
VERTEX
8
OBJECT__39
10
30.101999
20
-4.326000
30
21.740000
70
192
0
VERTEX
8
OBJECT__39
10
31.367001
20
-4.661000
30
21.798000
70
192
0
VERTEX
8
OBJECT__39
10
31.950001
20
-4.696000
30
21.808001
70
192
0
VERTEX
8
OBJECT__39
10
29.601000
20
-2.779000
30
22.290001
70
192
0
VERTEX
8
OBJECT__39
10
29.504999
20
-2.350000
30
22.396000
70
192
0
VERTEX
8
OBJECT__39
10
0
20
0
30
0
70
128
71
1
72
2
73
3
0
VERTEX
8
OBJECT__39
10
0
20
0
30
0
70
128
71
1
72
4
73
2
0
VERTEX
8
OBJECT__39
10
0
20
0
30
0
70
128
71
1
72
5
73
4
0
VERTEX
8
OBJECT__39
10
0
20
0
30
0
70
128
71
3
72
6
73
1
0
VERTEX
8
OBJECT__39
10
0
20
0
30
0
70
128
71
6
72
7
73
1
0
SEQEND
8
OBJECT__39
0
POLYLINE
8
OBJECT__40
66
1
70
64
71
6
72
4
62
253
0
VERTEX
8
OBJECT__40
10
28.028000
20
0.134000
30
22.056999
70
192
0
VERTEX
8
OBJECT__40
10
28.408001
20
-2.018000
30
21.996000
70
192
0
VERTEX
8
OBJECT__40
10
27.412001
20
-1.470000
30
21.430000
70
192
0
VERTEX
8
OBJECT__40
10
27.756001
20
-2.236000
30
21.486000
70
192
0
VERTEX
8
OBJECT__40
10
28.243999
20
-2.947000
30
21.562000
70
192
0
VERTEX
8
OBJECT__40
10
27.139999
20
0.138000
30
21.382999
70
192
0
VERTEX
8
OBJECT__40
10
0
20
0
30
0
70
128
71
1
72
2
73
3
0
VERTEX
8
OBJECT__40
10
0
20
0
30
0
70
128
71
2
72
4
73
3
0
VERTEX
8
OBJECT__40
10
0
20
0
30
0
70
128
71
2
72
5
73
4
0
VERTEX
8
OBJECT__40
10
0
20
0
30
0
70
128
71
3
72
6
73
1
0
SEQEND
8
OBJECT__40
0
POLYLINE
8
OBJECT__41
66
1
70
64
71
6
72
4
62
253
0
VERTEX
8
OBJECT__41
10
29.601000
20
-2.779000
30
22.290001
70
192
0
VERTEX
8
OBJECT__41
10
28.756001
20
-3.481000
30
21.625999
70
192
0
VERTEX
8
OBJECT__41
10
28.243999
20
-2.947000
30
21.562000
70
192
0
VERTEX
8
OBJECT__41
10
30.101999
20
-4.326000
30
21.740000
70
192
0
VERTEX
8
OBJECT__41
10
29.381001
20
-3.953000
30
21.686001
70
192
0
VERTEX
8
OBJECT__41
10
28.408001
20
-2.018000
30
21.996000
70
192
0
VERTEX
8
OBJECT__41
10
0
20
0
30
0
70
128
71
1
72
2
73
3
0
VERTEX
8
OBJECT__41
10
0
20
0
30
0
70
128
71
1
72
4
73
5
0
VERTEX
8
OBJECT__41
10
0
20
0
30
0
70
128
71
5
72
2
73
1
0
VERTEX
8
OBJECT__41
10
0
20
0
30
0
70
128
71
3
72
6
73
1
0
SEQEND
8
OBJECT__41
0
POLYLINE
8
OBJECT__42
66
1
70
64
71
8
72
6
62
253
0
VERTEX
8
OBJECT__42
10
59.950001
20
4.967000
30
21.858999
70
192
0
VERTEX
8
OBJECT__42
10
60.529999
20
4.932000
30
21.849001
70
192
0
VERTEX
8
OBJECT__42
10
60.334999
20
3.566000
30
22.540001
70
192
0
VERTEX
8
OBJECT__42
10
61.798000
20
4.597000
30
21.787001
70
192
0
VERTEX
8
OBJECT__42
10
62.299000
20
3.044000
30
22.320999
70
192
0
VERTEX
8
OBJECT__42
10
61.098000
20
4.828000
30
21.827000
70
192
0
VERTEX
8
OBJECT__42
10
62.395000
20
2.615000
30
22.423000
70
192
0
VERTEX
8
OBJECT__42
10
59.950001
20
3.593000
30
22.544001
70
192
0
VERTEX
8
OBJECT__42
10
0
20
0
30
0
70
128
71
1
72
2
73
3
0
VERTEX
8
OBJECT__42
10
0
20
0
30
0
70
128
71
3
72
6
73
4
0
VERTEX
8
OBJECT__42
10
0
20
0
30
0
70
128
71
3
72
2
73
6
0
VERTEX
8
OBJECT__42
10
0
20
0
30
0
70
128
71
4
72
7
73
3
0
VERTEX
8
OBJECT__42
10
0
20
0
30
0
70
128
71
5
72
7
73
4
0
VERTEX
8
OBJECT__42
10
0
20
0
30
0
70
128
71
3
72
8
73
1
0
SEQEND
8
OBJECT__42
0
POLYLINE
8
OBJECT__43
66
1
70
64
71
6
72
4
62
253
0
VERTEX
8
OBJECT__43
10
63.872002
20
0.134000
30
22.056999
70
192
0
VERTEX
8
OBJECT__43
10
63.492001
20
2.287000
30
22.018999
70
192
0
VERTEX
8
OBJECT__43
10
64.449997
20
1.850000
30
21.454000
70
192
0
VERTEX
8
OBJECT__43
10
63.655998
20
3.221000
30
21.594000
70
192
0
VERTEX
8
OBJECT__43
10
64.678001
20
1.024000
30
21.406000
70
192
0
VERTEX
8
OBJECT__43
10
64.760002
20
0.138000
30
21.382999
70
192
0
VERTEX
8
OBJECT__43
10
0
20
0
30
0
70
128
71
1
72
2
73
3
0
VERTEX
8
OBJECT__43
10
0
20
0
30
0
70
128
71
2
72
4
73
3
0
VERTEX
8
OBJECT__43
10
0
20
0
30
0
70
128
71
3
72
5
73
1
0
VERTEX
8
OBJECT__43
10
0
20
0
30
0
70
128
71
5
72
6
73
1
0
SEQEND
8
OBJECT__43
0
POLYLINE
8
OBJECT__44
66
1
70
64
71
6
72
4
62
253
0
VERTEX
8
OBJECT__44
10
62.299000
20
3.044000
30
22.320999
70
192
0
VERTEX
8
OBJECT__44
10
63.125999
20
3.769000
30
21.666000
70
192
0
VERTEX
8
OBJECT__44
10
63.655998
20
3.221000
30
21.594000
70
192
0
VERTEX
8
OBJECT__44
10
61.798000
20
4.597000
30
21.787001
70
192
0
VERTEX
8
OBJECT__44
10
62.507999
20
4.231000
30
21.730000
70
192
0
VERTEX
8
OBJECT__44
10
63.492001
20
2.287000
30
22.018999
70
192
0
VERTEX
8
OBJECT__44
10
0
20
0
30
0
70
128
71
1
72
2
73
3
0
VERTEX
8
OBJECT__44
10
0
20
0
30
0
70
128
71
1
72
4
73
5
0
VERTEX
8
OBJECT__44
10
0
20
0
30
0
70
128
71
5
72
2
73
1
0
VERTEX
8
OBJECT__44
10
0
20
0
30
0
70
128
71
3
72
6
73
1
0
SEQEND
8
OBJECT__44
0
POLYLINE
8
OBJECT__45
66
1
70
64
71
15
72
13
62
253
0
VERTEX
8
OBJECT__45
10
60.334999
20
3.566000
30
22.540001
70
192
0
VERTEX
8
OBJECT__45
10
62.805000
20
-1.893000
30
22.358000
70
192
0
VERTEX
8
OBJECT__45
10
62.395000
20
-2.350000
30
22.396000
70
192
0
VERTEX
8
OBJECT__45
10
62.395000
20
2.615000
30
22.423000
70
192
0
VERTEX
8
OBJECT__45
10
63.490002
20
0.133000
30
22.287001
70
192
0
VERTEX
8
OBJECT__45
10
59.950001
20
-3.330000
30
22.507999
70
192
0
VERTEX
8
OBJECT__45
10
59.950001
20
3.593000
30
22.544001
70
192
0
VERTEX
8
OBJECT__45
10
31.950001
20
-3.330000
30
22.507999
70
192
0
VERTEX
8
OBJECT__45
10
31.950001
20
3.593000
30
22.544001
70
192
0
VERTEX
8
OBJECT__45
10
31.566000
20
3.566000
30
22.540001
70
192
0
VERTEX
8
OBJECT__45
10
29.093000
20
-1.891000
30
22.358000
70
192
0
VERTEX
8
OBJECT__45
10
28.410000
20
0.133000
30
22.287001
70
192
0
VERTEX
8
OBJECT__45
10
28.520000
20
1.017000
30
22.306999
70
192
0
VERTEX
8
OBJECT__45
10
29.504999
20
-2.350000
30
22.396000
70
192
0
VERTEX
8
OBJECT__45
10
29.504999
20
2.615000
30
22.423000
70
192
0
VERTEX
8
OBJECT__45
10
0
20
0
30
0
70
128
71
1
72
2
73
3
0
VERTEX
8
OBJECT__45
10
0
20
0
30
0
70
128
71
2
72
1
73
4
0
VERTEX
8
OBJECT__45
10
0
20
0
30
0
70
128
71
4
72
5
73
2
0
VERTEX
8
OBJECT__45
10
0
20
0
30
0
70
128
71
6
72
7
73
1
0
VERTEX
8
OBJECT__45
10
0
20
0
30
0
70
128
71
8
72
9
73
7
0
VERTEX
8
OBJECT__45
10
0
20
0
30
0
70
128
71
7
72
6
73
8
0
VERTEX
8
OBJECT__45
10
0
20
0
30
0
70
128
71
10
72
11
73
12
0
VERTEX
8
OBJECT__45
10
0
20
0
30
0
70
128
71
12
72
13
73
10
0
VERTEX
8
OBJECT__45
10
0
20
0
30
0
70
128
71
10
72
8
73
14
0
VERTEX
8
OBJECT__45
10
0
20
0
30
0
70
128
71
14
72
11
73
10
0
VERTEX
8
OBJECT__45
10
0
20
0
30
0
70
128
71
13
72
15
73
10
0
VERTEX
8
OBJECT__45
10
0
20
0
30
0
70
128
71
10
72
9
73
8
0
VERTEX
8
OBJECT__45
10
0
20
0
30
0
70
128
71
3
72
6
73
1
0
SEQEND
8
OBJECT__45
0
POLYLINE
8
OBJECT__46
66
1
70
64
71
5
72
3
62
253
0
VERTEX
8
OBJECT__46
10
63.490002
20
0.133000
30
22.287001
70
192
0
VERTEX
8
OBJECT__46
10
62.395000
20
2.615000
30
22.423000
70
192
0
VERTEX
8
OBJECT__46
10
63.492001
20
2.287000
30
22.018999
70
192
0
VERTEX
8
OBJECT__46
10
63.872002
20
0.134000
30
22.056999
70
192
0
VERTEX
8
OBJECT__46
10
62.299000
20
3.044000
30
22.320999
70
192
0
VERTEX
8
OBJECT__46
10
0
20
0
30
0
70
128
71
1
72
2
73
3
0
VERTEX
8
OBJECT__46
10
0
20
0
30
0
70
128
71
3
72
4
73
1
0
VERTEX
8
OBJECT__46
10
0
20
0
30
0
70
128
71
2
72
5
73
3
0
SEQEND
8
OBJECT__46
0
POLYLINE
8
OBJECT__47
66
1
70
64
71
6
72
4
62
253
0
VERTEX
8
OBJECT__47
10
63.490002
20
-2.017000
30
21.997000
70
192
0
VERTEX
8
OBJECT__47
10
62.805000
20
-1.893000
30
22.358000
70
192
0
VERTEX
8
OBJECT__47
10
63.490002
20
0.133000
30
22.287001
70
192
0
VERTEX
8
OBJECT__47
10
62.299000
20
-2.779000
30
22.290001
70
192
0
VERTEX
8
OBJECT__47
10
62.395000
20
-2.350000
30
22.396000
70
192
0
VERTEX
8
OBJECT__47
10
63.872002
20
0.134000
30
22.056999
70
192
0
VERTEX
8
OBJECT__47
10
0
20
0
30
0
70
128
71
1
72
2
73
3
0
VERTEX
8
OBJECT__47
10
0
20
0
30
0
70
128
71
1
72
4
73
5
0
VERTEX
8
OBJECT__47
10
0
20
0
30
0
70
128
71
5
72
2
73
1
0
VERTEX
8
OBJECT__47
10
0
20
0
30
0
70
128
71
3
72
6
73
1
0
SEQEND
8
OBJECT__47
0
POLYLINE
8
OBJECT__48
66
1
70
64
71
7
72
5
62
253
0
VERTEX
8
OBJECT__48
10
59.950001
20
-3.330000
30
22.507999
70
192
0
VERTEX
8
OBJECT__48
10
61.247002
20
-4.518000
30
21.770000
70
192
0
VERTEX
8
OBJECT__48
10
60.682999
20
-4.640000
30
21.794001
70
192
0
VERTEX
8
OBJECT__48
10
62.299000
20
-2.779000
30
22.290001
70
192
0
VERTEX
8
OBJECT__48
10
61.798000
20
-4.326000
30
21.740000
70
192
0
VERTEX
8
OBJECT__48
10
62.395000
20
-2.350000
30
22.396000
70
192
0
VERTEX
8
OBJECT__48
10
59.950001
20
-4.696000
30
21.808001
70
192
0
VERTEX
8
OBJECT__48
10
0
20
0
30
0
70
128
71
1
72
2
73
3
0
VERTEX
8
OBJECT__48
10
0
20
0
30
0
70
128
71
1
72
4
73
5
0
VERTEX
8
OBJECT__48
10
0
20
0
30
0
70
128
71
5
72
2
73
1
0
VERTEX
8
OBJECT__48
10
0
20
0
30
0
70
128
71
1
72
6
73
4
0
VERTEX
8
OBJECT__48
10
0
20
0
30
0
70
128
71
3
72
7
73
1
0
SEQEND
8
OBJECT__48
0
POLYLINE
8
OBJECT__49
66
1
70
64
71
6
72
4
62
253
0
VERTEX
8
OBJECT__49
10
63.872002
20
0.134000
30
22.056999
70
192
0
VERTEX
8
OBJECT__49
10
64.760002
20
0.138000
30
21.382999
70
192
0
VERTEX
8
OBJECT__49
10
64.488998
20
-1.466000
30
21.429001
70
192
0
VERTEX
8
OBJECT__49
10
63.490002
20
-2.017000
30
21.997000
70
192
0
VERTEX
8
OBJECT__49
10
64.144997
20
-2.234000
30
21.486000
70
192
0
VERTEX
8
OBJECT__49
10
63.654999
20
-2.948000
30
21.562000
70
192
0
VERTEX
8
OBJECT__49
10
0
20
0
30
0
70
128
71
1
72
2
73
3
0
VERTEX
8
OBJECT__49
10
0
20
0
30
0
70
128
71
3
72
4
73
1
0
VERTEX
8
OBJECT__49
10
0
20
0
30
0
70
128
71
3
72
5
73
4
0
VERTEX
8
OBJECT__49
10
0
20
0
30
0
70
128
71
5
72
6
73
4
0
SEQEND
8
OBJECT__49
0
POLYLINE
8
OBJECT__50
66
1
70
64
71
6
72
4
62
253
0
VERTEX
8
OBJECT__50
10
62.299000
20
-2.779000
30
22.290001
70
192
0
VERTEX
8
OBJECT__50
10
63.150002
20
-3.475000
30
21.625000
70
192
0
VERTEX
8
OBJECT__50
10
62.522999
20
-3.950000
30
21.686001
70
192
0
VERTEX
8
OBJECT__50
10
63.490002
20
-2.017000
30
21.997000
70
192
0
VERTEX
8
OBJECT__50
10
63.654999
20
-2.948000
30
21.562000
70
192
0
VERTEX
8
OBJECT__50
10
61.798000
20
-4.326000
30
21.740000
70
192
0
VERTEX
8
OBJECT__50
10
0
20
0
30
0
70
128
71
1
72
2
73
3
0
VERTEX
8
OBJECT__50
10
0
20
0
30
0
70
128
71
1
72
4
73
5
0
VERTEX
8
OBJECT__50
10
0
20
0
30
0
70
128
71
5
72
2
73
1
0
VERTEX
8
OBJECT__50
10
0
20
0
30
0
70
128
71
3
72
6
73
1
0
SEQEND
8
OBJECT__50
0
POLYLINE
8
OBJECT__51
66
1
70
64
71
19
72
17
62
253
0
VERTEX
8
OBJECT__51
10
55.834000
20
8.382000
30
69.944000
70
192
0
VERTEX
8
OBJECT__51
10
55.849998
20
8.377000
30
70.966003
70
192
0
VERTEX
8
OBJECT__51
10
55.849998
20
8.377000
30
70.882004
70
192
0
VERTEX
8
OBJECT__51
10
55.849998
20
8.378000
30
70.745003
70
192
0
VERTEX
8
OBJECT__51
10
55.849998
20
8.378000
30
70.667999
70
192
0
VERTEX
8
OBJECT__51
10
55.849998
20
8.377000
30
70.807999
70
192
0
VERTEX
8
OBJECT__51
10
55.849998
20
8.378000
30
70.777000
70
192
0
VERTEX
8
OBJECT__51
10
55.849998
20
8.379000
30
70.557999
70
192
0
VERTEX
8
OBJECT__51
10
55.849998
20
8.379000
30
70.531998
70
192
0
VERTEX
8
OBJECT__51
10
55.849998
20
8.378000
30
70.761002
70
192
0
VERTEX
8
OBJECT__51
10
55.849998
20
8.376000
30
71.073997
70
192
0
VERTEX
8
OBJECT__51
10
55.849998
20
8.376000
30
71.067001
70
192
0
VERTEX
8
OBJECT__51
10
55.849998
20
8.382000
30
69.944000
70
192
0
VERTEX
8
OBJECT__51
10
35.942001
20
8.369000
30
72.379997
70
192
0
VERTEX
8
OBJECT__51
10
55.849998
20
8.376000
30
71.112999
70
192
0
VERTEX
8
OBJECT__51
10
55.849998
20
8.373000
30
71.671997
70
192
0
VERTEX
8
OBJECT__51
10
35.950001
20
8.384000
30
69.543999
70
192
0
VERTEX
8
OBJECT__51
10
55.849998
20
8.369000
30
72.379997
70
192
0
VERTEX
8
OBJECT__51
10
55.834000
20
8.384000
30
69.543999
70
192
0
VERTEX
8
OBJECT__51
10
0
20
0
30
0
70
128
71
1
72
2
73
3
0
VERTEX
8
OBJECT__51
10
0
20
0
30
0
70
128
71
1
72
4
73
5
0
VERTEX
8
OBJECT__51
10
0
20
0
30
0
70
128
71
6
72
7
73
1
0
VERTEX
8
OBJECT__51
10
0
20
0
30
0
70
128
71
3
72
6
73
1
0
VERTEX
8
OBJECT__51
10
0
20
0
30
0
70
128
71
1
72
8
73
9
0
VERTEX
8
OBJECT__51
10
0
20
0
30
0
70
128
71
5
72
8
73
1
0
VERTEX
8
OBJECT__51
10
0
20
0
30
0
70
128
71
1
72
10
73
4
0
VERTEX
8
OBJECT__51
10
0
20
0
30
0
70
128
71
1
72
11
73
12
0
VERTEX
8
OBJECT__51
10
0
20
0
30
0
70
128
71
7
72
10
73
1
0
VERTEX
8
OBJECT__51
10
0
20
0
30
0
70
128
71
9
72
13
73
1
0
VERTEX
8
OBJECT__51
10
0
20
0
30
0
70
128
71
12
72
2
73
1
0
VERTEX
8
OBJECT__51
10
0
20
0
30
0
70
128
71
14
72
15
73
11
0
VERTEX
8
OBJECT__51
10
0
20
0
30
0
70
128
71
11
72
1
73
14
0
VERTEX
8
OBJECT__51
10
0
20
0
30
0
70
128
71
14
72
16
73
15
0
VERTEX
8
OBJECT__51
10
0
20
0
30
0
70
128
71
17
72
14
73
1
0
VERTEX
8
OBJECT__51
10
0
20
0
30
0
70
128
71
14
72
18
73
16
0
VERTEX
8
OBJECT__51
10
0
20
0
30
0
70
128
71
1
72
19
73
17
0
SEQEND
8
OBJECT__51
0
POLYLINE
8
OBJECT__52
66
1
70
64
71
34
72
36
62
253
0
VERTEX
8
OBJECT__52
10
64.255997
20
-0.137000
30
73.719002
70
192
0
VERTEX
8
OBJECT__52
10
28.163000
20
3.270000
30
73.545998
70
192
0
VERTEX
8
OBJECT__52
10
27.485001
20
0.637000
30
73.741997
70
192
0
VERTEX
8
OBJECT__52
10
30.472000
20
6.218000
30
72.987999
70
192
0
VERTEX
8
OBJECT__52
10
29.646000
20
5.567000
30
73.153000
70
192
0
VERTEX
8
OBJECT__52
10
35.942001
20
8.369000
30
72.379997
70
192
0
VERTEX
8
OBJECT__52
10
34.634998
20
8.267000
30
72.414001
70
192
0
VERTEX
8
OBJECT__52
10
58.570000
20
7.317000
30
72.709999
70
192
0
VERTEX
8
OBJECT__52
10
55.849998
20
8.369000
30
72.379997
70
192
0
VERTEX
8
OBJECT__52
10
61.291000
20
6.248000
30
72.980003
70
192
0
VERTEX
8
OBJECT__52
10
59.916000
20
7.332000
30
72.705002
70
192
0
VERTEX
8
OBJECT__52
10
57.165001
20
8.267000
30
72.414001
70
192
0
VERTEX
8
OBJECT__52
10
64.315002
20
0.637000
30
73.741997
70
192
0
VERTEX
8
OBJECT__52
10
63.637001
20
3.270000
30
73.545998
70
192
0
VERTEX
8
OBJECT__52
10
63.946999
20
1.577000
30
73.703003
70
192
0
VERTEX
8
OBJECT__52
10
62.153999
20
5.567000
30
73.153000
70
192
0
VERTEX
8
OBJECT__52
10
64.257004
20
-0.123000
30
73.720001
70
192
0
VERTEX
8
OBJECT__52
10
31.884001
20
7.332000
30
72.705002
70
192
0
VERTEX
8
OBJECT__52
10
27.700001
20
-2.184000
30
73.658997
70
192
0
VERTEX
8
OBJECT__52
10
28.872000
20
-4.842000
30
73.300003
70
192
0
VERTEX
8
OBJECT__52
10
28.211000
20
-2.536000
30
73.626999
70
192
0
VERTEX
8
OBJECT__52
10
30.562000
20
-6.642000
30
72.886002
70
192
0
VERTEX
8
OBJECT__52
10
62.928001
20
-4.842000
30
73.300003
70
192
0
VERTEX
8
OBJECT__52
10
64.099998
20
-2.184000
30
73.658997
70
192
0
VERTEX
8
OBJECT__52
10
61.325001
20
-6.550000
30
72.906998
70
192
0
VERTEX
8
OBJECT__52
10
55.849998
20
-8.631000
30
72.291000
70
192
0
VERTEX
8
OBJECT__52
10
58.578999
20
-8.182000
30
72.442001
70
192
0
VERTEX
8
OBJECT__52
10
60.998001
20
-6.897000
30
72.828003
70
192
0
VERTEX
8
OBJECT__52
10
33.256001
20
-7.643000
30
72.612999
70
192
0
VERTEX
8
OBJECT__52
10
35.950001
20
-8.631000
30
72.291000
70
192
0
VERTEX
8
OBJECT__52
10
30.802000
20
-6.897000
30
72.828003
70
192
0
VERTEX
8
OBJECT__52
10
33.221001
20
-8.182000
30
72.442001
70
192
0
VERTEX
8
OBJECT__52
10
27.544001
20
-0.137000
30
73.719002
70
192
0
VERTEX
8
OBJECT__52
10
27.549999
20
-0.211000
30
73.717003
70
192
0
VERTEX
8
OBJECT__52
10
0
20
0
30
0
70
128
71
1
72
2
73
3
0
VERTEX
8
OBJECT__52
10
0
20
0
30
0
70
128
71
1
72
4
73
5
0
VERTEX
8
OBJECT__52
10
0
20
0
30
0
70
128
71
5
72
2
73
1
0
VERTEX
8
OBJECT__52
10
0
20
0
30
0
70
128
71
4
72
6
73
7
0
VERTEX
8
OBJECT__52
10
0
20
0
30
0
70
128
71
4
72
8
73
9
0
VERTEX
8
OBJECT__52
10
0
20
0
30
0
70
128
71
9
72
6
73
4
0
VERTEX
8
OBJECT__52
10
0
20
0
30
0
70
128
71
4
72
10
73
8
0
VERTEX
8
OBJECT__52
10
0
20
0
30
0
70
128
71
8
72
11
73
12
0
VERTEX
8
OBJECT__52
10
0
20
0
30
0
70
128
71
12
72
9
73
8
0
VERTEX
8
OBJECT__52
10
0
20
0
30
0
70
128
71
8
72
10
73
11
0
VERTEX
8
OBJECT__52
10
0
20
0
30
0
70
128
71
13
72
14
73
15
0
VERTEX
8
OBJECT__52
10
0
20
0
30
0
70
128
71
4
72
15
73
14
0
VERTEX
8
OBJECT__52
10
0
20
0
30
0
70
128
71
14
72
16
73
4
0
VERTEX
8
OBJECT__52
10
0
20
0
30
0
70
128
71
4
72
1
73
17
0
VERTEX
8
OBJECT__52
10
0
20
0
30
0
70
128
71
17
72
15
73
4
0
VERTEX
8
OBJECT__52
10
0
20
0
30
0
70
128
71
16
72
10
73
4
0
VERTEX
8
OBJECT__52
10
0
20
0
30
0
70
128
71
15
72
17
73
13
0
VERTEX
8
OBJECT__52
10
0
20
0
30
0
70
128
71
7
72
18
73
4
0
VERTEX
8
OBJECT__52
10
0
20
0
30
0
70
128
71
19
72
20
73
21
0
VERTEX
8
OBJECT__52
10
0
20
0
30
0
70
128
71
22
72
23
73
24
0
VERTEX
8
OBJECT__52
10
0
20
0
30
0
70
128
71
22
72
25
73
23
0
VERTEX
8
OBJECT__52
10
0
20
0
30
0
70
128
71
26
72
27
73
28
0
VERTEX
8
OBJECT__52
10
0
20
0
30
0
70
128
71
25
72
29
73
30
0
VERTEX
8
OBJECT__52
10
0
20
0
30
0
70
128
71
30
72
26
73
25
0
VERTEX
8
OBJECT__52
10
0
20
0
30
0
70
128
71
25
72
22
73
29
0
VERTEX
8
OBJECT__52
10
0
20
0
30
0
70
128
71
29
72
22
73
31
0
VERTEX
8
OBJECT__52
10
0
20
0
30
0
70
128
71
32
72
30
73
29
0
VERTEX
8
OBJECT__52
10
0
20
0
30
0
70
128
71
31
72
32
73
29
0
VERTEX
8
OBJECT__52
10
0
20
0
30
0
70
128
71
28
72
25
73
26
0
VERTEX
8
OBJECT__52
10
0
20
0
30
0
70
128
71
1
72
21
73
20
0
VERTEX
8
OBJECT__52
10
0
20
0
30
0
70
128
71
20
72
22
73
1
0
VERTEX
8
OBJECT__52
10
0
20
0
30
0
70
128
71
1
72
33
73
34
0
VERTEX
8
OBJECT__52
10
0
20
0
30
0
70
128
71
34
72
21
73
1
0
VERTEX
8
OBJECT__52
10
0
20
0
30
0
70
128
71
24
72
1
73
22
0
VERTEX
8
OBJECT__52
10
0
20
0
30
0
70
128
71
21
72
34
73
19
0
VERTEX
8
OBJECT__52
10
0
20
0
30
0
70
128
71
3
72
33
73
1
0
SEQEND
8
OBJECT__52
0
POLYLINE
8
OBJECT__54
66
1
70
64
71
36
72
35
62
253
0
VERTEX
8
OBJECT__54
10
61.361000
20
6.355000
30
69.533997
70
192
0
VERTEX
8
OBJECT__54
10
55.849998
20
8.382000
30
69.944000
70
192
0
VERTEX
8
OBJECT__54
10
57.165001
20
8.267000
30
72.414001
70
192
0
VERTEX
8
OBJECT__54
10
55.849998
20
8.376000
30
71.112999
70
192
0
VERTEX
8
OBJECT__54
10
55.849998
20
8.373000
30
71.671997
70
192
0
VERTEX
8
OBJECT__54
10
55.849998
20
8.376000
30
71.073997
70
192
0
VERTEX
8
OBJECT__54
10
55.849998
20
8.377000
30
70.966003
70
192
0
VERTEX
8
OBJECT__54
10
55.849998
20
8.376000
30
71.067001
70
192
0
VERTEX
8
OBJECT__54
10
55.849998
20
8.377000
30
70.807999
70
192
0
VERTEX
8
OBJECT__54
10
55.849998
20
8.377000
30
70.882004
70
192
0
VERTEX
8
OBJECT__54
10
55.849998
20
8.378000
30
70.761002
70
192
0
VERTEX
8
OBJECT__54
10
55.849998
20
8.378000
30
70.777000
70
192
0
VERTEX
8
OBJECT__54
10
55.849998
20
8.378000
30
70.667999
70
192
0
VERTEX
8
OBJECT__54
10
55.849998
20
8.378000
30
70.745003
70
192
0
VERTEX
8
OBJECT__54
10
55.849998
20
8.379000
30
70.531998
70
192
0
VERTEX
8
OBJECT__54
10
55.849998
20
8.379000
30
70.557999
70
192
0
VERTEX
8
OBJECT__54
10
55.849998
20
8.369000
30
72.379997
70
192
0
VERTEX
8
OBJECT__54
10
59.916000
20
7.332000
30
72.705002
70
192
0
VERTEX
8
OBJECT__54
10
55.834000
20
8.384000
30
69.543999
70
192
0
VERTEX
8
OBJECT__54
10
55.834000
20
8.382000
30
69.944000
70
192
0
VERTEX
8
OBJECT__54
10
64.349998
20
-0.108000
30
69.500000
70
192
0
VERTEX
8
OBJECT__54
10
63.637001
20
3.270000
30
73.545998
70
192
0
VERTEX
8
OBJECT__54
10
64.315002
20
0.637000
30
73.741997
70
192
0
VERTEX
8
OBJECT__54
10
62.153999
20
5.567000
30
73.153000
70
192
0
VERTEX
8
OBJECT__54
10
61.291000
20
6.248000
30
72.980003
70
192
0
VERTEX
8
OBJECT__54
10
64.099998
20
-2.184000
30
73.658997
70
192
0
VERTEX
8
OBJECT__54
10
62.928001
20
-4.842000
30
73.300003
70
192
0
VERTEX
8
OBJECT__54
10
63.987000
20
-2.595000
30
73.509003
70
192
0
VERTEX
8
OBJECT__54
10
61.373001
20
-6.577000
30
69.466003
70
192
0
VERTEX
8
OBJECT__54
10
64.257004
20
-0.123000
30
73.720001
70
192
0
VERTEX
8
OBJECT__54
10
64.255997
20
-0.137000
30
73.719002
70
192
0
VERTEX
8
OBJECT__54
10
61.325001
20
-6.550000
30
72.906998
70
192
0
VERTEX
8
OBJECT__54
10
55.849998
20
-8.616000
30
69.455002
70
192
0
VERTEX
8
OBJECT__54
10
58.578999
20
-8.182000
30
72.442001
70
192
0
VERTEX
8
OBJECT__54
10
60.998001
20
-6.897000
30
72.828003
70
192
0
VERTEX
8
OBJECT__54
10
55.849998
20
-8.631000
30
72.291000
70
192
0
VERTEX
8
OBJECT__54
10
0
20
0
30
0
70
128
71
1
72
2
73
3
0
VERTEX
8
OBJECT__54
10
0
20
0
30
0
70
128
71
3
72
4
73
5
0
VERTEX
8
OBJECT__54
10
0
20
0
30
0
70
128
71
3
72
6
73
4
0
VERTEX
8
OBJECT__54
10
0
20
0
30
0
70
128
71
3
72
7
73
8
0
VERTEX
8
OBJECT__54
10
0
20
0
30
0
70
128
71
3
72
9
73
10
0
VERTEX
8
OBJECT__54
10
0
20
0
30
0
70
128
71
10
72
7
73
3
0
VERTEX
8
OBJECT__54
10
0
20
0
30
0
70
128
71
3
72
11
73
12
0
VERTEX
8
OBJECT__54
10
0
20
0
30
0
70
128
71
3
72
13
73
14
0
VERTEX
8
OBJECT__54
10
0
20
0
30
0
70
128
71
3
72
15
73
16
0
VERTEX
8
OBJECT__54
10
0
20
0
30
0
70
128
71
16
72
13
73
3
0
VERTEX
8
OBJECT__54
10
0
20
0
30
0
70
128
71
14
72
11
73
3
0
VERTEX
8
OBJECT__54
10
0
20
0
30
0
70
128
71
12
72
9
73
3
0
VERTEX
8
OBJECT__54
10
0
20
0
30
0
70
128
71
8
72
6
73
3
0
VERTEX
8
OBJECT__54
10
0
20
0
30
0
70
128
71
3
72
2
73
15
0
VERTEX
8
OBJECT__54
10
0
20
0
30
0
70
128
71
5
72
17
73
3
0
VERTEX
8
OBJECT__54
10
0
20
0
30
0
70
128
71
3
72
18
73
1
0
VERTEX
8
OBJECT__54
10
0
20
0
30
0
70
128
71
19
72
20
73
2
0
VERTEX
8
OBJECT__54
10
0
20
0
30
0
70
128
71
2
72
1
73
19
0
VERTEX
8
OBJECT__54
10
0
20
0
30
0
70
128
71
21
72
22
73
23
0
VERTEX
8
OBJECT__54
10
0
20
0
30
0
70
128
71
1
72
24
73
22
0
VERTEX
8
OBJECT__54
10
0
20
0
30
0
70
128
71
22
72
21
73
1
0
VERTEX
8
OBJECT__54
10
0
20
0
30
0
70
128
71
1
72
25
73
24
0
VERTEX
8
OBJECT__54
10
0
20
0
30
0
70
128
71
26
72
27
73
28
0
VERTEX
8
OBJECT__54
10
0
20
0
30
0
70
128
71
21
72
28
73
27
0
VERTEX
8
OBJECT__54
10
0
20
0
30
0
70
128
71
27
72
29
73
21
0
VERTEX
8
OBJECT__54
10
0
20
0
30
0
70
128
71
21
72
30
73
31
0
VERTEX
8
OBJECT__54
10
0
20
0
30
0
70
128
71
31
72
28
73
21
0
VERTEX
8
OBJECT__54
10
0
20
0
30
0
70
128
71
27
72
32
73
29
0
VERTEX
8
OBJECT__54
10
0
20
0
30
0
70
128
71
28
72
31
73
26
0
VERTEX
8
OBJECT__54
10
0
20
0
30
0
70
128
71
33
72
29
73
34
0
VERTEX
8
OBJECT__54
10
0
20
0
30
0
70
128
71
29
72
32
73
35
0
VERTEX
8
OBJECT__54
10
0
20
0
30
0
70
128
71
35
72
34
73
29
0
VERTEX
8
OBJECT__54
10
0
20
0
30
0
70
128
71
34
72
36
73
33
0
VERTEX
8
OBJECT__54
10
0
20
0
30
0
70
128
71
23
72
30
73
21
0
VERTEX
8
OBJECT__54
10
0
20
0
30
0
70
128
71
18
72
25
73
1
0
SEQEND
8
OBJECT__54
0
POLYLINE
8
OBJECT__55
66
1
70
64
71
20
72
18
62
253
0
VERTEX
8
OBJECT__55
10
30.525000
20
-6.659000
30
69.464996
70
192
0
VERTEX
8
OBJECT__55
10
33.221001
20
-8.182000
30
72.442001
70
192
0
VERTEX
8
OBJECT__55
10
30.802000
20
-6.897000
30
72.828003
70
192
0
VERTEX
8
OBJECT__55
10
35.950001
20
-8.616000
30
69.455002
70
192
0
VERTEX
8
OBJECT__55
10
35.950001
20
-8.631000
30
72.291000
70
192
0
VERTEX
8
OBJECT__55
10
27.450001
20
-0.196000
30
69.499001
70
192
0
VERTEX
8
OBJECT__55
10
28.872000
20
-4.842000
30
73.300003
70
192
0
VERTEX
8
OBJECT__55
10
27.700001
20
-2.184000
30
73.658997
70
192
0
VERTEX
8
OBJECT__55
10
30.562000
20
-6.642000
30
72.886002
70
192
0
VERTEX
8
OBJECT__55
10
30.402000
20
6.324000
30
69.533997
70
192
0
VERTEX
8
OBJECT__55
10
28.163000
20
3.270000
30
73.545998
70
192
0
VERTEX
8
OBJECT__55
10
27.544001
20
-0.137000
30
73.719002
70
192
0
VERTEX
8
OBJECT__55
10
27.485001
20
0.637000
30
73.741997
70
192
0
VERTEX
8
OBJECT__55
10
29.646000
20
5.567000
30
73.153000
70
192
0
VERTEX
8
OBJECT__55
10
27.549999
20
-0.211000
30
73.717003
70
192
0
VERTEX
8
OBJECT__55
10
31.884001
20
7.332000
30
72.705002
70
192
0
VERTEX
8
OBJECT__55
10
34.634998
20
8.267000
30
72.414001
70
192
0
VERTEX
8
OBJECT__55
10
30.472000
20
6.218000
30
72.987999
70
192
0
VERTEX
8
OBJECT__55
10
35.950001
20
8.384000
30
69.543999
70
192
0
VERTEX
8
OBJECT__55
10
35.942001
20
8.369000
30
72.379997
70
192
0
VERTEX
8
OBJECT__55
10
0
20
0
30
0
70
128
71
1
72
2
73
3
0
VERTEX
8
OBJECT__55
10
0
20
0
30
0
70
128
71
4
72
5
73
2
0
VERTEX
8
OBJECT__55
10
0
20
0
30
0
70
128
71
2
72
1
73
4
0
VERTEX
8
OBJECT__55
10
0
20
0
30
0
70
128
71
6
72
1
73
7
0
VERTEX
8
OBJECT__55
10
0
20
0
30
0
70
128
71
7
72
8
73
6
0
VERTEX
8
OBJECT__55
10
0
20
0
30
0
70
128
71
1
72
9
73
7
0
VERTEX
8
OBJECT__55
10
0
20
0
30
0
70
128
71
10
72
6
73
11
0
VERTEX
8
OBJECT__55
10
0
20
0
30
0
70
128
71
6
72
12
73
13
0
VERTEX
8
OBJECT__55
10
0
20
0
30
0
70
128
71
13
72
11
73
6
0
VERTEX
8
OBJECT__55
10
0
20
0
30
0
70
128
71
11
72
14
73
10
0
VERTEX
8
OBJECT__55
10
0
20
0
30
0
70
128
71
6
72
15
73
12
0
VERTEX
8
OBJECT__55
10
0
20
0
30
0
70
128
71
10
72
16
73
17
0
VERTEX
8
OBJECT__55
10
0
20
0
30
0
70
128
71
10
72
18
73
16
0
VERTEX
8
OBJECT__55
10
0
20
0
30
0
70
128
71
17
72
19
73
10
0
VERTEX
8
OBJECT__55
10
0
20
0
30
0
70
128
71
17
72
20
73
19
0
VERTEX
8
OBJECT__55
10
0
20
0
30
0
70
128
71
14
72
18
73
10
0
VERTEX
8
OBJECT__55
10
0
20
0
30
0
70
128
71
8
72
15
73
6
0
VERTEX
8
OBJECT__55
10
0
20
0
30
0
70
128
71
3
72
9
73
1
0
SEQEND
8
OBJECT__55
0
POLYLINE
8
OBJECT__56
66
1
70
64
71
4
72
2
62
253
0
VERTEX
8
OBJECT__56
10
55.849998
20
-8.616000
30
69.455002
70
192
0
VERTEX
8
OBJECT__56
10
55.849998
20
-8.631000
30
72.291000
70
192
0
VERTEX
8
OBJECT__56
10
35.950001
20
-8.631000
30
72.291000
70
192
0
VERTEX
8
OBJECT__56
10
35.950001
20
-8.616000
30
69.455002
70
192
0
VERTEX
8
OBJECT__56
10
0
20
0
30
0
70
128
71
1
72
2
73
3
0
VERTEX
8
OBJECT__56
10
0
20
0
30
0
70
128
71
3
72
4
73
1
0
SEQEND
8
OBJECT__56
0
POLYLINE
8
OBJECT__57
66
1
70
64
71
14
72
12
62
253
0
VERTEX
8
OBJECT__57
10
17.700001
20
-12.199000
30
-14.257000
70
192
0
VERTEX
8
OBJECT__57
10
17.700001
20
12.199000
30
-14.257000
70
192
0
VERTEX
8
OBJECT__57
10
17.700001
20
21.603001
30
-22.587999
70
192
0
VERTEX
8
OBJECT__57
10
17.700001
20
6.282000
30
-62.987000
70
192
0
VERTEX
8
OBJECT__57
10
17.700001
20
-6.282000
30
-62.987000
70
192
0
VERTEX
8
OBJECT__57
10
17.700001
20
-17.407000
30
-57.147999
70
192
0
VERTEX
8
OBJECT__57
10
17.700001
20
0.000000
30
-11.250000
70
192
0
VERTEX
8
OBJECT__57
10
17.700001
20
-24.544001
30
-46.807999
70
192
0
VERTEX
8
OBJECT__57
10
17.700001
20
-26.059000
30
-34.335999
70
192
0
VERTEX
8
OBJECT__57
10
17.700001
20
24.544001
30
-46.807999
70
192
0
VERTEX
8
OBJECT__57
10
17.700001
20
17.407000
30
-57.147999
70
192
0
VERTEX
8
OBJECT__57
10
17.700001
20
26.059000
30
-34.335999
70
192
0
VERTEX
8
OBJECT__57
10
17.700001
20
-21.603001
30
-22.587999
70
192
0
VERTEX
8
OBJECT__57
10
17.700001
20
26.250000
30
-37.500000
70
192
0
VERTEX
8
OBJECT__57
10
0
20
0
30
0
70
128
71
1
72
2
73
3
0
VERTEX
8
OBJECT__57
10
0
20
0
30
0
70
128
71
4
72
5
73
6
0
VERTEX
8
OBJECT__57
10
0
20
0
30
0
70
128
71
1
72
7
73
2
0
VERTEX
8
OBJECT__57
10
0
20
0
30
0
70
128
71
6
72
8
73
4
0
VERTEX
8
OBJECT__57
10
0
20
0
30
0
70
128
71
9
72
10
73
11
0
VERTEX
8
OBJECT__57
10
0
20
0
30
0
70
128
71
12
72
13
73
1
0
VERTEX
8
OBJECT__57
10
0
20
0
30
0
70
128
71
11
72
4
73
9
0
VERTEX
8
OBJECT__57
10
0
20
0
30
0
70
128
71
12
72
9
73
13
0
VERTEX
8
OBJECT__57
10
0
20
0
30
0
70
128
71
9
72
14
73
10
0
VERTEX
8
OBJECT__57
10
0
20
0
30
0
70
128
71
3
72
12
73
1
0
VERTEX
8
OBJECT__57
10
0
20
0
30
0
70
128
71
12
72
14
73
9
0
VERTEX
8
OBJECT__57
10
0
20
0
30
0
70
128
71
8
72
9
73
4
0
SEQEND
8
OBJECT__57
0
POLYLINE
8
OBJECT__58
66
1
70
64
71
90
72
94
62
253
0
VERTEX
8
OBJECT__58
10
74.699997
20
21.603001
30
-22.587999
70
192
0
VERTEX
8
OBJECT__58
10
17.700001
20
21.603001
30
-22.587999
70
192
0
VERTEX
8
OBJECT__58
10
17.700001
20
12.199000
30
-14.257000
70
192
0
VERTEX
8
OBJECT__58
10
74.699997
20
26.059000
30
-34.335999
70
192
0
VERTEX
8
OBJECT__58
10
17.700001
20
26.059000
30
-34.335999
70
192
0
VERTEX
8
OBJECT__58
10
17.700001
20
24.544001
30
-46.807999
70
192
0
VERTEX
8
OBJECT__58
10
17.700001
20
26.250000
30
-37.500000
70
192
0
VERTEX
8
OBJECT__58
10
74.699997
20
26.250000
30
-37.500000
70
192
0
VERTEX
8
OBJECT__58
10
74.699997
20
17.407000
30
-57.147999
70
192
0
VERTEX
8
OBJECT__58
10
17.700001
20
17.407000
30
-57.147999
70
192
0
VERTEX
8
OBJECT__58
10
17.700001
20
6.282000
30
-62.987000
70
192
0
VERTEX
8
OBJECT__58
10
74.699997
20
6.282000
30
-62.987000
70
192
0
VERTEX
8
OBJECT__58
10
59.700001
20
5.192000
30
-63.230999
70
192
0
VERTEX
8
OBJECT__58
10
60.324001
20
5.151000
30
-63.240002
70
192
0
VERTEX
8
OBJECT__58
10
60.929001
20
5.036000
30
-63.262001
70
192
0
VERTEX
8
OBJECT__58
10
61.675999
20
4.792000
30
-63.308998
70
192
0
VERTEX
8
OBJECT__58
10
62.437000
20
4.408000
30
-63.376999
70
192
0
VERTEX
8
OBJECT__58
10
63.105999
20
3.917000
30
-63.456001
70
192
0
VERTEX
8
OBJECT__58
10
63.678001
20
3.326000
30
-63.539001
70
192
0
VERTEX
8
OBJECT__58
10
64.524002
20
1.843000
30
-63.685001
70
192
0
VERTEX
8
OBJECT__58
10
74.699997
20
-6.282000
30
-62.987000
70
192
0
VERTEX
8
OBJECT__58
10
64.848999
20
0.000000
30
-63.750000
70
192
0
VERTEX
8
OBJECT__58
10
64.765999
20
0.953000
30
-63.733002
70
192
0
VERTEX
8
OBJECT__58
10
64.566002
20
-1.726000
30
-63.693001
70
192
0
VERTEX
8
OBJECT__58
10
63.676998
20
-3.326000
30
-63.537998
70
192
0
VERTEX
8
OBJECT__58
10
62.452000
20
-4.398000
30
-63.379002
70
192
0
VERTEX
8
OBJECT__58
10
63.132000
20
-3.894000
30
-63.459999
70
192
0
VERTEX
8
OBJECT__58
10
61.675999
20
-4.792000
30
-63.308998
70
192
0
VERTEX
8
OBJECT__58
10
60.487000
20
-5.127000
30
-63.244999
70
192
0
VERTEX
8
OBJECT__58
10
61.087002
20
-4.994000
30
-63.271000
70
192
0
VERTEX
8
OBJECT__58
10
17.700001
20
-6.282000
30
-62.987000
70
192
0
VERTEX
8
OBJECT__58
10
31.700001
20
-5.192000
30
-63.230999
70
192
0
VERTEX
8
OBJECT__58
10
59.700001
20
-5.192000
30
-63.230999
70
192
0
VERTEX
8
OBJECT__58
10
31.073000
20
-5.150000
30
-63.240002
70
192
0
VERTEX
8
OBJECT__58
10
30.465000
20
-5.035000
30
-63.263000
70
192
0
VERTEX
8
OBJECT__58
10
29.724001
20
-4.792000
30
-63.308998
70
192
0
VERTEX
8
OBJECT__58
10
28.952000
20
-4.401000
30
-63.379002
70
192
0
VERTEX
8
OBJECT__58
10
27.723000
20
-3.326000
30
-63.537998
70
192
0
VERTEX
8
OBJECT__58
10
28.275000
20
-3.900000
30
-63.459000
70
192
0
VERTEX
8
OBJECT__58
10
27.202999
20
-2.556000
30
-63.625000
70
192
0
VERTEX
8
OBJECT__58
10
26.836000
20
-1.730000
30
-63.693001
70
192
0
VERTEX
8
OBJECT__58
10
64.197998
20
-2.554000
30
-63.625000
70
192
0
VERTEX
8
OBJECT__58
10
26.635000
20
0.955000
30
-63.733002
70
192
0
VERTEX
8
OBJECT__58
10
26.551001
20
0.000000
30
-63.750000
70
192
0
VERTEX
8
OBJECT__58
10
26.878000
20
1.847000
30
-63.685001
70
192
0
VERTEX
8
OBJECT__58
10
28.294001
20
3.917000
30
-63.456001
70
192
0
VERTEX
8
OBJECT__58
10
27.723000
20
3.326000
30
-63.537998
70
192
0
VERTEX
8
OBJECT__58
10
28.934999
20
4.390000
30
-63.380001
70
192
0
VERTEX
8
OBJECT__58
10
30.313000
20
4.994000
30
-63.271000
70
192
0
VERTEX
8
OBJECT__58
10
29.724001
20
4.792000
30
-63.308998
70
192
0
VERTEX
8
OBJECT__58
10
30.914000
20
5.127000
30
-63.243999
70
192
0
VERTEX
8
OBJECT__58
10
31.700001
20
5.192000
30
-63.230999
70
192
0
VERTEX
8
OBJECT__58
10
17.700001
20
-17.407000
30
-57.147999
70
192
0
VERTEX
8
OBJECT__58
10
17.700001
20
-24.544001
30
-46.807999
70
192
0
VERTEX
8
OBJECT__58
10
74.699997
20
-17.407000
30
-57.147999
70
192
0
VERTEX
8
OBJECT__58
10
74.699997
20
-26.059000
30
-34.335999
70
192
0
VERTEX
8
OBJECT__58
10
17.700001
20
-26.059000
30
-34.335999
70
192
0
VERTEX
8
OBJECT__58
10
17.700001
20
-21.603001
30
-22.587999
70
192
0
VERTEX
8
OBJECT__58
10
74.699997
20
-12.199000
30
-14.257000
70
192
0
VERTEX
8
OBJECT__58
10
17.700001
20
-12.199000
30
-14.257000
70
192
0
VERTEX
8
OBJECT__58
10
74.699997
20
0.000000
30
-11.250000
70
192
0
VERTEX
8
OBJECT__58
10
74.699997
20
12.199000
30
-14.257000
70
192
0
VERTEX
8
OBJECT__58
10
64.500999
20
2.815000
30
-11.401000
70
192
0
VERTEX
8
OBJECT__58
10
61.199001
20
7.595000
30
-12.373000
70
192
0
VERTEX
8
OBJECT__58
10
63.139999
20
5.584000
30
-11.851000
70
192
0
VERTEX
8
OBJECT__58
10
58.568001
20
9.006000
30
-12.843000
70
192
0
VERTEX
8
OBJECT__58
10
64.918999
20
0.000000
30
-11.250000
70
192
0
VERTEX
8
OBJECT__58
10
55.599998
20
9.500000
30
-13.030000
70
192
0
VERTEX
8
OBJECT__58
10
32.731998
20
9.006000
30
-12.843000
70
192
0
VERTEX
8
OBJECT__58
10
35.700001
20
9.500000
30
-13.030000
70
192
0
VERTEX
8
OBJECT__58
10
26.799000
20
2.815000
30
-11.401000
70
192
0
VERTEX
8
OBJECT__58
10
28.160000
20
5.584000
30
-11.851000
70
192
0
VERTEX
8
OBJECT__58
10
26.381001
20
0.000000
30
-11.250000
70
192
0
VERTEX
8
OBJECT__58
10
30.101000
20
7.595000
30
-12.373000
70
192
0
VERTEX
8
OBJECT__58
10
17.700001
20
0.000000
30
-11.250000
70
192
0
VERTEX
8
OBJECT__58
10
26.868999
20
-3.034000
30
-11.426000
70
192
0
VERTEX
8
OBJECT__58
10
28.160999
20
-5.584000
30
-11.851000
70
192
0
VERTEX
8
OBJECT__58
10
31.389999
20
-8.423000
30
-12.638000
70
192
0
VERTEX
8
OBJECT__58
10
30.429001
20
-7.834000
30
-12.446000
70
192
0
VERTEX
8
OBJECT__58
10
34.221001
20
-9.380000
30
-12.983000
70
192
0
VERTEX
8
OBJECT__58
10
55.599998
20
-9.500000
30
-13.029000
70
192
0
VERTEX
8
OBJECT__58
10
57.078999
20
-9.380000
30
-12.983000
70
192
0
VERTEX
8
OBJECT__58
10
35.700001
20
-9.500000
30
-13.029000
70
192
0
VERTEX
8
OBJECT__58
10
63.139000
20
-5.584000
30
-11.851000
70
192
0
VERTEX
8
OBJECT__58
10
60.870998
20
-7.834000
30
-12.446000
70
192
0
VERTEX
8
OBJECT__58
10
59.910000
20
-8.423000
30
-12.638000
70
192
0
VERTEX
8
OBJECT__58
10
64.431000
20
-3.034000
30
-11.426000
70
192
0
VERTEX
8
OBJECT__58
10
74.699997
20
-21.603001
30
-22.587999
70
192
0
VERTEX
8
OBJECT__58
10
74.699997
20
-24.544001
30
-46.807999
70
192
0
VERTEX
8
OBJECT__58
10
74.699997
20
24.544001
30
-46.807999
70
192
0
VERTEX
8
OBJECT__58
10
0
20
0
30
0
70
128
71
1
72
2
73
3
0
VERTEX
8
OBJECT__58
10
0
20
0
30
0
70
128
71
4
72
5
73
2
0
VERTEX
8
OBJECT__58
10
0
20
0
30
0
70
128
71
6
72
7
73
8
0
VERTEX
8
OBJECT__58
10
0
20
0
30
0
70
128
71
4
72
8
73
7
0
VERTEX
8
OBJECT__58
10
0
20
0
30
0
70
128
71
7
72
5
73
4
0
VERTEX
8
OBJECT__58
10
0
20
0
30
0
70
128
71
9
72
10
73
6
0
VERTEX
8
OBJECT__58
10
0
20
0
30
0
70
128
71
11
72
10
73
9
0
VERTEX
8
OBJECT__58
10
0
20
0
30
0
70
128
71
11
72
12
73
13
0
VERTEX
8
OBJECT__58
10
0
20
0
30
0
70
128
71
12
72
14
73
13
0
VERTEX
8
OBJECT__58
10
0
20
0
30
0
70
128
71
12
72
15
73
14
0
VERTEX
8
OBJECT__58
10
0
20
0
30
0
70
128
71
16
72
15
73
12
0
VERTEX
8
OBJECT__58
10
0
20
0
30
0
70
128
71
12
72
17
73
16
0
VERTEX
8
OBJECT__58
10
0
20
0
30
0
70
128
71
12
72
18
73
17
0
VERTEX
8
OBJECT__58
10
0
20
0
30
0
70
128
71
19
72
18
73
12
0
VERTEX
8
OBJECT__58
10
0
20
0
30
0
70
128
71
12
72
20
73
19
0
VERTEX
8
OBJECT__58
10
0
20
0
30
0
70
128
71
12
72
21
73
22
0
VERTEX
8
OBJECT__58
10
0
20
0
30
0
70
128
71
22
72
23
73
12
0
VERTEX
8
OBJECT__58
10
0
20
0
30
0
70
128
71
21
72
24
73
22
0
VERTEX
8
OBJECT__58
10
0
20
0
30
0
70
128
71
23
72
20
73
12
0
VERTEX
8
OBJECT__58
10
0
20
0
30
0
70
128
71
21
72
26
73
27
0
VERTEX
8
OBJECT__58
10
0
20
0
30
0
70
128
71
27
72
25
73
21
0
VERTEX
8
OBJECT__58
10
0
20
0
30
0
70
128
71
21
72
29
73
30
0
VERTEX
8
OBJECT__58
10
0
20
0
30
0
70
128
71
31
72
32
73
33
0
VERTEX
8
OBJECT__58
10
0
20
0
30
0
70
128
71
31
72
34
73
32
0
VERTEX
8
OBJECT__58
10
0
20
0
30
0
70
128
71
33
72
21
73
31
0
VERTEX
8
OBJECT__58
10
0
20
0
30
0
70
128
71
31
72
35
73
34
0
VERTEX
8
OBJECT__58
10
0
20
0
30
0
70
128
71
31
72
36
73
35
0
VERTEX
8
OBJECT__58
10
0
20
0
30
0
70
128
71
33
72
29
73
21
0
VERTEX
8
OBJECT__58
10
0
20
0
30
0
70
128
71
30
72
28
73
21
0
VERTEX
8
OBJECT__58
10
0
20
0
30
0
70
128
71
31
72
37
73
36
0
VERTEX
8
OBJECT__58
10
0
20
0
30
0
70
128
71
31
72
38
73
39
0
VERTEX
8
OBJECT__58
10
0
20
0
30
0
70
128
71
39
72
37
73
31
0
VERTEX
8
OBJECT__58
10
0
20
0
30
0
70
128
71
28
72
26
73
21
0
VERTEX
8
OBJECT__58
10
0
20
0
30
0
70
128
71
31
72
40
73
38
0
VERTEX
8
OBJECT__58
10
0
20
0
30
0
70
128
71
31
72
41
73
40
0
VERTEX
8
OBJECT__58
10
0
20
0
30
0
70
128
71
25
72
42
73
21
0
VERTEX
8
OBJECT__58
10
0
20
0
30
0
70
128
71
42
72
24
73
21
0
VERTEX
8
OBJECT__58
10
0
20
0
30
0
70
128
71
11
72
43
73
44
0
VERTEX
8
OBJECT__58
10
0
20
0
30
0
70
128
71
11
72
45
73
43
0
VERTEX
8
OBJECT__58
10
0
20
0
30
0
70
128
71
11
72
46
73
47
0
VERTEX
8
OBJECT__58
10
0
20
0
30
0
70
128
71
11
72
48
73
46
0
VERTEX
8
OBJECT__58
10
0
20
0
30
0
70
128
71
11
72
49
73
50
0
VERTEX
8
OBJECT__58
10
0
20
0
30
0
70
128
71
11
72
51
73
49
0
VERTEX
8
OBJECT__58
10
0
20
0
30
0
70
128
71
11
72
52
73
51
0
VERTEX
8
OBJECT__58
10
0
20
0
30
0
70
128
71
50
72
48
73
11
0
VERTEX
8
OBJECT__58
10
0
20
0
30
0
70
128
71
47
72
45
73
11
0
VERTEX
8
OBJECT__58
10
0
20
0
30
0
70
128
71
44
72
31
73
11
0
VERTEX
8
OBJECT__58
10
0
20
0
30
0
70
128
71
44
72
41
73
31
0
VERTEX
8
OBJECT__58
10
0
20
0
30
0
70
128
71
53
72
31
73
21
0
VERTEX
8
OBJECT__58
10
0
20
0
30
0
70
128
71
54
72
53
73
55
0
VERTEX
8
OBJECT__58
10
0
20
0
30
0
70
128
71
56
72
57
73
54
0
VERTEX
8
OBJECT__58
10
0
20
0
30
0
70
128
71
58
72
57
73
56
0
VERTEX
8
OBJECT__58
10
0
20
0
30
0
70
128
71
59
72
60
73
58
0
VERTEX
8
OBJECT__58
10
0
20
0
30
0
70
128
71
61
72
62
73
63
0
VERTEX
8
OBJECT__58
10
0
20
0
30
0
70
128
71
62
72
64
73
65
0
VERTEX
8
OBJECT__58
10
0
20
0
30
0
70
128
71
65
72
63
73
62
0
VERTEX
8
OBJECT__58
10
0
20
0
30
0
70
128
71
62
72
66
73
64
0
VERTEX
8
OBJECT__58
10
0
20
0
30
0
70
128
71
63
72
67
73
61
0
VERTEX
8
OBJECT__58
10
0
20
0
30
0
70
128
71
62
72
3
73
68
0
VERTEX
8
OBJECT__58
10
0
20
0
30
0
70
128
71
68
72
66
73
62
0
VERTEX
8
OBJECT__58
10
0
20
0
30
0
70
128
71
3
72
69
73
70
0
VERTEX
8
OBJECT__58
10
0
20
0
30
0
70
128
71
70
72
68
73
3
0
VERTEX
8
OBJECT__58
10
0
20
0
30
0
70
128
71
3
72
71
73
72
0
VERTEX
8
OBJECT__58
10
0
20
0
30
0
70
128
71
3
72
73
73
71
0
VERTEX
8
OBJECT__58
10
0
20
0
30
0
70
128
71
72
72
74
73
3
0
VERTEX
8
OBJECT__58
10
0
20
0
30
0
70
128
71
73
72
3
73
75
0
VERTEX
8
OBJECT__58
10
0
20
0
30
0
70
128
71
74
72
69
73
3
0
VERTEX
8
OBJECT__58
10
0
20
0
30
0
70
128
71
75
72
60
73
76
0
VERTEX
8
OBJECT__58
10
0
20
0
30
0
70
128
71
60
72
77
73
76
0
VERTEX
8
OBJECT__58
10
0
20
0
30
0
70
128
71
60
72
78
73
79
0
VERTEX
8
OBJECT__58
10
0
20
0
30
0
70
128
71
60
72
80
73
78
0
VERTEX
8
OBJECT__58
10
0
20
0
30
0
70
128
71
60
72
59
73
81
0
VERTEX
8
OBJECT__58
10
0
20
0
30
0
70
128
71
59
72
82
73
81
0
VERTEX
8
OBJECT__58
10
0
20
0
30
0
70
128
71
81
72
83
73
60
0
VERTEX
8
OBJECT__58
10
0
20
0
30
0
70
128
71
83
72
80
73
60
0
VERTEX
8
OBJECT__58
10
0
20
0
30
0
70
128
71
59
72
84
73
85
0
VERTEX
8
OBJECT__58
10
0
20
0
30
0
70
128
71
85
72
86
73
59
0
VERTEX
8
OBJECT__58
10
0
20
0
30
0
70
128
71
86
72
82
73
59
0
VERTEX
8
OBJECT__58
10
0
20
0
30
0
70
128
71
79
72
77
73
60
0
VERTEX
8
OBJECT__58
10
0
20
0
30
0
70
128
71
61
72
67
73
87
0
VERTEX
8
OBJECT__58
10
0
20
0
30
0
70
128
71
87
72
59
73
61
0
VERTEX
8
OBJECT__58
10
0
20
0
30
0
70
128
71
87
72
84
73
59
0
VERTEX
8
OBJECT__58
10
0
20
0
30
0
70
128
71
76
72
73
73
75
0
VERTEX
8
OBJECT__58
10
0
20
0
30
0
70
128
71
58
72
88
73
59
0
VERTEX
8
OBJECT__58
10
0
20
0
30
0
70
128
71
56
72
88
73
58
0
VERTEX
8
OBJECT__58
10
0
20
0
30
0
70
128
71
54
72
89
73
56
0
VERTEX
8
OBJECT__58
10
0
20
0
30
0
70
128
71
55
72
89
73
54
0
VERTEX
8
OBJECT__58
10
0
20
0
30
0
70
128
71
21
72
55
73
53
0
VERTEX
8
OBJECT__58
10
0
20
0
30
0
70
128
71
13
72
52
73
11
0
VERTEX
8
OBJECT__58
10
0
20
0
30
0
70
128
71
9
72
12
73
11
0
VERTEX
8
OBJECT__58
10
0
20
0
30
0
70
128
71
6
72
90
73
9
0
VERTEX
8
OBJECT__58
10
0
20
0
30
0
70
128
71
8
72
90
73
6
0
VERTEX
8
OBJECT__58
10
0
20
0
30
0
70
128
71
2
72
1
73
4
0
VERTEX
8
OBJECT__58
10
0
20
0
30
0
70
128
71
3
72
62
73
1
0
SEQEND
8
OBJECT__58
0
POLYLINE
8
OBJECT__60
66
1
70
64
71
7
72
5
62
253
0
VERTEX
8
OBJECT__60
10
35.700001
20
9.046000
30
-13.077000
70
192
0
VERTEX
8
OBJECT__60
10
35.700001
20
8.820000
30
-13.467000
70
192
0
VERTEX
8
OBJECT__60
10
55.445000
20
8.820000
30
-13.467000
70
192
0
VERTEX
8
OBJECT__60
10
55.599998
20
9.046000
30
-13.077000
70
192
0
VERTEX
8
OBJECT__60
10
55.599998
20
9.500000
30
-13.030000
70
192
0
VERTEX
8
OBJECT__60
10
35.700001
20
9.500000
30
-13.030000
70
192
0
VERTEX
8
OBJECT__60
10
55.599998
20
8.820000
30
-13.467000
70
192
0
VERTEX
8
OBJECT__60
10
0
20
0
30
0
70
128
71
1
72
2
73
3
0
VERTEX
8
OBJECT__60
10
0
20
0
30
0
70
128
71
3
72
4
73
1
0
VERTEX
8
OBJECT__60
10
0
20
0
30
0
70
128
71
5
72
6
73
1
0
VERTEX
8
OBJECT__60
10
0
20
0
30
0
70
128
71
1
72
4
73
5
0
VERTEX
8
OBJECT__60
10
0
20
0
30
0
70
128
71
3
72
7
73
4
0
SEQEND
8
OBJECT__60
0
POLYLINE
8
OBJECT__61
66
1
70
64
71
14
72
12
62
253
0
VERTEX
8
OBJECT__61
10
74.699997
20
-26.059000
30
-34.335999
70
192
0
VERTEX
8
OBJECT__61
10
74.699997
20
12.199000
30
-14.257000
70
192
0
VERTEX
8
OBJECT__61
10
74.699997
20
0.000000
30
-11.250000
70
192
0
VERTEX
8
OBJECT__61
10
74.699997
20
24.544001
30
-46.807999
70
192
0
VERTEX
8
OBJECT__61
10
74.699997
20
-24.544001
30
-46.807999
70
192
0
VERTEX
8
OBJECT__61
10
74.699997
20
-17.407000
30
-57.147999
70
192
0
VERTEX
8
OBJECT__61
10
74.699997
20
-12.199000
30
-14.257000
70
192
0
VERTEX
8
OBJECT__61
10
74.699997
20
26.059000
30
-34.335999
70
192
0
VERTEX
8
OBJECT__61
10
74.699997
20
21.603001
30
-22.587999
70
192
0
VERTEX
8
OBJECT__61
10
74.699997
20
-6.282000
30
-62.987000
70
192
0
VERTEX
8
OBJECT__61
10
74.699997
20
6.282000
30
-62.987000
70
192
0
VERTEX
8
OBJECT__61
10
74.699997
20
17.407000
30
-57.147999
70
192
0
VERTEX
8
OBJECT__61
10
74.699997
20
26.250000
30
-37.500000
70
192
0
VERTEX
8
OBJECT__61
10
74.699997
20
-21.603001
30
-22.587999
70
192
0
VERTEX
8
OBJECT__61
10
0
20
0
30
0
70
128
71
1
72
2
73
3
0
VERTEX
8
OBJECT__61
10
0
20
0
30
0
70
128
71
4
72
5
73
6
0
VERTEX
8
OBJECT__61
10
0
20
0
30
0
70
128
71
3
72
7
73
1
0
VERTEX
8
OBJECT__61
10
0
20
0
30
0
70
128
71
1
72
8
73
9
0
VERTEX
8
OBJECT__61
10
0
20
0
30
0
70
128
71
10
72
11
73
12
0
VERTEX
8
OBJECT__61
10
0
20
0
30
0
70
128
71
4
72
1
73
5
0
VERTEX
8
OBJECT__61
10
0
20
0
30
0
70
128
71
9
72
2
73
1
0
VERTEX
8
OBJECT__61
10
0
20
0
30
0
70
128
71
6
72
10
73
4
0
VERTEX
8
OBJECT__61
10
0
20
0
30
0
70
128
71
1
72
13
73
8
0
VERTEX
8
OBJECT__61
10
0
20
0
30
0
70
128
71
12
72
4
73
10
0
VERTEX
8
OBJECT__61
10
0
20
0
30
0
70
128
71
4
72
13
73
1
0
VERTEX
8
OBJECT__61
10
0
20
0
30
0
70
128
71
7
72
14
73
1
0
SEQEND
8
OBJECT__61
0
POLYLINE
8
OBJECT__62
66
1
70
64
71
13
72
11
62
253
0
VERTEX
8
OBJECT__62
10
28.160000
20
5.584000
30
-11.851000
70
192
0
VERTEX
8
OBJECT__62
10
28.566999
20
5.188000
30
-12.315000
70
192
0
VERTEX
8
OBJECT__62
10
30.195999
20
6.408000
30
-12.688000
70
192
0
VERTEX
8
OBJECT__62
10
30.101000
20
7.595000
30
-12.373000
70
192
0
VERTEX
8
OBJECT__62
10
30.645000
20
6.744000
30
-12.791000
70
192
0
VERTEX
8
OBJECT__62
10
32.727001
20
8.304000
30
-13.268000
70
192
0
VERTEX
8
OBJECT__62
10
32.731998
20
9.006000
30
-12.843000
70
192
0
VERTEX
8
OBJECT__62
10
32.897999
20
8.341000
30
-13.283000
70
192
0
VERTEX
8
OBJECT__62
10
34.983002
20
8.791000
30
-13.464000
70
192
0
VERTEX
8
OBJECT__62
10
35.700001
20
9.046000
30
-13.077000
70
192
0
VERTEX
8
OBJECT__62
10
35.700001
20
8.820000
30
-13.477000
70
192
0
VERTEX
8
OBJECT__62
10
35.700001
20
8.820000
30
-13.467000
70
192
0
VERTEX
8
OBJECT__62
10
35.700001
20
9.500000
30
-13.030000
70
192
0
VERTEX
8
OBJECT__62
10
0
20
0
30
0
70
128
71
1
72
2
73
3
0
VERTEX
8
OBJECT__62
10
0
20
0
30
0
70
128
71
3
72
4
73
1
0
VERTEX
8
OBJECT__62
10
0
20
0
30
0
70
128
71
4
72
5
73
6
0
VERTEX
8
OBJECT__62
10
0
20
0
30
0
70
128
71
6
72
7
73
4
0
VERTEX
8
OBJECT__62
10
0
20
0
30
0
70
128
71
7
72
8
73
9
0
VERTEX
8
OBJECT__62
10
0
20
0
30
0
70
128
71
9
72
10
73
7
0
VERTEX
8
OBJECT__62
10
0
20
0
30
0
70
128
71
9
72
11
73
12
0
VERTEX
8
OBJECT__62
10
0
20
0
30
0
70
128
71
9
72
12
73
10
0
VERTEX
8
OBJECT__62
10
0
20
0
30
0
70
128
71
10
72
13
73
7
0
VERTEX
8
OBJECT__62
10
0
20
0
30
0
70
128
71
6
72
8
73
7
0
VERTEX
8
OBJECT__62
10
0
20
0
30
0
70
128
71
3
72
5
73
4
0
SEQEND
8
OBJECT__62
0
POLYLINE
8
OBJECT__63
66
1
70
64
71
9
72
7
62
253
0
VERTEX
8
OBJECT__63
10
28.160000
20
5.584000
30
-11.851000
70
192
0
VERTEX
8
OBJECT__63
10
26.799000
20
2.815000
30
-11.401000
70
192
0
VERTEX
8
OBJECT__63
10
27.695000
20
3.703000
30
-12.024000
70
192
0
VERTEX
8
OBJECT__63
10
27.381001
20
2.583000
30
-11.909000
70
192
0
VERTEX
8
OBJECT__63
10
26.381001
20
0.000000
30
-11.250000
70
192
0
VERTEX
8
OBJECT__63
10
26.937000
20
1.000000
30
-11.746000
70
192
0
VERTEX
8
OBJECT__63
10
26.493000
20
0.000000
30
-11.357000
70
192
0
VERTEX
8
OBJECT__63
10
26.879999
20
0.000000
30
-11.724000
70
192
0
VERTEX
8
OBJECT__63
10
28.566999
20
5.188000
30
-12.315000
70
192
0
VERTEX
8
OBJECT__63
10
0
20
0
30
0
70
128
71
1
72
2
73
3
0
VERTEX
8
OBJECT__63
10
0
20
0
30
0
70
128
71
2
72
4
73
3
0
VERTEX
8
OBJECT__63
10
0
20
0
30
0
70
128
71
2
72
5
73
6
0
VERTEX
8
OBJECT__63
10
0
20
0
30
0
70
128
71
8
72
6
73
7
0
VERTEX
8
OBJECT__63
10
0
20
0
30
0
70
128
71
6
72
5
73
7
0
VERTEX
8
OBJECT__63
10
0
20
0
30
0
70
128
71
6
72
4
73
2
0
VERTEX
8
OBJECT__63
10
0
20
0
30
0
70
128
71
3
72
9
73
1
0
SEQEND
8
OBJECT__63
0
POLYLINE
8
OBJECT__64
66
1
70
64
71
9
72
7
62
253
0
VERTEX
8
OBJECT__64
10
26.868999
20
-3.034000
30
-11.426000
70
192
0
VERTEX
8
OBJECT__64
10
28.160999
20
-5.584000
30
-11.851000
70
192
0
VERTEX
8
OBJECT__64
10
28.033001
20
-4.359000
30
-12.137000
70
192
0
VERTEX
8
OBJECT__64
10
28.566999
20
-5.188000
30
-12.312000
70
192
0
VERTEX
8
OBJECT__64
10
26.493000
20
0.000000
30
-11.357000
70
192
0
VERTEX
8
OBJECT__64
10
27.035000
20
-1.645000
30
-11.781000
70
192
0
VERTEX
8
OBJECT__64
10
26.879999
20
0.000000
30
-11.724000
70
192
0
VERTEX
8
OBJECT__64
10
27.450001
20
-2.775000
30
-11.929000
70
192
0
VERTEX
8
OBJECT__64
10
26.381001
20
0.000000
30
-11.250000
70
192
0
VERTEX
8
OBJECT__64
10
0
20
0
30
0
70
128
71
1
72
2
73
3
0
VERTEX
8
OBJECT__64
10
0
20
0
30
0
70
128
71
2
72
4
73
3
0
VERTEX
8
OBJECT__64
10
0
20
0
30
0
70
128
71
5
72
1
73
6
0
VERTEX
8
OBJECT__64
10
0
20
0
30
0
70
128
71
6
72
7
73
5
0
VERTEX
8
OBJECT__64
10
0
20
0
30
0
70
128
71
1
72
8
73
6
0
VERTEX
8
OBJECT__64
10
0
20
0
30
0
70
128
71
5
72
9
73
1
0
VERTEX
8
OBJECT__64
10
0
20
0
30
0
70
128
71
3
72
8
73
1
0
SEQEND
8
OBJECT__64
0
POLYLINE
8
OBJECT__65
66
1
70
64
71
9
72
7
62
253
0
VERTEX
8
OBJECT__65
10
28.160999
20
-5.584000
30
-11.851000
70
192
0
VERTEX
8
OBJECT__65
10
30.429001
20
-7.834000
30
-12.446000
70
192
0
VERTEX
8
OBJECT__65
10
30.054001
20
-6.621000
30
-12.714000
70
192
0
VERTEX
8
OBJECT__65
10
30.724001
20
-7.267000
30
-12.895000
70
192
0
VERTEX
8
OBJECT__65
10
31.389999
20
-8.423000
30
-12.638000
70
192
0
VERTEX
8
OBJECT__65
10
31.625000
20
-7.822000
30
-13.080000
70
192
0
VERTEX
8
OBJECT__65
10
30.777000
20
-7.318000
30
-12.909000
70
192
0
VERTEX
8
OBJECT__65
10
31.625000
20
-7.822000
30
-13.083000
70
192
0
VERTEX
8
OBJECT__65
10
28.566999
20
-5.188000
30
-12.312000
70
192
0
VERTEX
8
OBJECT__65
10
0
20
0
30
0
70
128
71
1
72
2
73
3
0
VERTEX
8
OBJECT__65
10
0
20
0
30
0
70
128
71
2
72
4
73
3
0
VERTEX
8
OBJECT__65
10
0
20
0
30
0
70
128
71
5
72
6
73
7
0
VERTEX
8
OBJECT__65
10
0
20
0
30
0
70
128
71
7
72
2
73
5
0
VERTEX
8
OBJECT__65
10
0
20
0
30
0
70
128
71
6
72
8
73
7
0
VERTEX
8
OBJECT__65
10
0
20
0
30
0
70
128
71
7
72
4
73
2
0
VERTEX
8
OBJECT__65
10
0
20
0
30
0
70
128
71
3
72
9
73
1
0
SEQEND
8
OBJECT__65
0
POLYLINE
8
OBJECT__66
66
1
70
64
71
8
72
6
62
253
0
VERTEX
8
OBJECT__66
10
34.327000
20
-8.584000
30
-13.371000
70
192
0
VERTEX
8
OBJECT__66
10
34.221001
20
-9.380000
30
-12.983000
70
192
0
VERTEX
8
OBJECT__66
10
35.700001
20
-9.156000
30
-13.249000
70
192
0
VERTEX
8
OBJECT__66
10
35.700001
20
-9.500000
30
-13.029000
70
192
0
VERTEX
8
OBJECT__66
10
32.758999
20
-8.315000
30
-13.264000
70
192
0
VERTEX
8
OBJECT__66
10
31.389999
20
-8.423000
30
-12.638000
70
192
0
VERTEX
8
OBJECT__66
10
31.625000
20
-7.822000
30
-13.080000
70
192
0
VERTEX
8
OBJECT__66
10
35.700001
20
-8.820000
30
-13.464000
70
192
0
VERTEX
8
OBJECT__66
10
0
20
0
30
0
70
128
71
1
72
2
73
3
0
VERTEX
8
OBJECT__66
10
0
20
0
30
0
70
128
71
2
72
4
73
3
0
VERTEX
8
OBJECT__66
10
0
20
0
30
0
70
128
71
2
72
1
73
5
0
VERTEX
8
OBJECT__66
10
0
20
0
30
0
70
128
71
5
72
6
73
2
0
VERTEX
8
OBJECT__66
10
0
20
0
30
0
70
128
71
5
72
7
73
6
0
VERTEX
8
OBJECT__66
10
0
20
0
30
0
70
128
71
3
72
8
73
1
0
SEQEND
8
OBJECT__66
0
POLYLINE
8
OBJECT__67
66
1
70
64
71
39
72
37
62
253
0
VERTEX
8
OBJECT__67
10
30.645000
20
6.744000
30
-12.791000
70
192
0
VERTEX
8
OBJECT__67
10
30.047001
20
6.613000
30
-13.188000
70
192
0
VERTEX
8
OBJECT__67
10
31.407000
20
7.705000
30
-13.493000
70
192
0
VERTEX
8
OBJECT__67
10
32.727001
20
8.304000
30
-13.268000
70
192
0
VERTEX
8
OBJECT__67
10
34.264000
20
8.702000
30
-13.836000
70
192
0
VERTEX
8
OBJECT__67
10
32.897999
20
8.341000
30
-13.283000
70
192
0
VERTEX
8
OBJECT__67
10
34.983002
20
8.791000
30
-13.464000
70
192
0
VERTEX
8
OBJECT__67
10
35.700001
20
8.820000
30
-13.880000
70
192
0
VERTEX
8
OBJECT__67
10
35.700001
20
8.820000
30
-13.477000
70
192
0
VERTEX
8
OBJECT__67
10
30.195999
20
6.408000
30
-12.688000
70
192
0
VERTEX
8
OBJECT__67
10
28.566999
20
5.188000
30
-12.315000
70
192
0
VERTEX
8
OBJECT__67
10
29.106001
20
5.858000
30
-12.977000
70
192
0
VERTEX
8
OBJECT__67
10
27.597000
20
3.484000
30
-12.528000
70
192
0
VERTEX
8
OBJECT__67
10
27.695000
20
3.703000
30
-12.024000
70
192
0
VERTEX
8
OBJECT__67
10
26.914000
20
0.769000
30
-12.298000
70
192
0
VERTEX
8
OBJECT__67
10
27.381001
20
2.583000
30
-11.909000
70
192
0
VERTEX
8
OBJECT__67
10
26.937000
20
1.000000
30
-11.746000
70
192
0
VERTEX
8
OBJECT__67
10
26.879999
20
0.000000
30
-11.724000
70
192
0
VERTEX
8
OBJECT__67
10
26.974001
20
0.008000
30
-12.319000
70
192
0
VERTEX
8
OBJECT__67
10
26.979000
20
-0.053000
30
-12.321000
70
192
0
VERTEX
8
OBJECT__67
10
27.035000
20
-1.645000
30
-11.781000
70
192
0
VERTEX
8
OBJECT__67
10
27.146999
20
-2.155000
30
-12.379000
70
192
0
VERTEX
8
OBJECT__67
10
27.450001
20
-2.775000
30
-11.929000
70
192
0
VERTEX
8
OBJECT__67
10
28.033001
20
-4.359000
30
-12.137000
70
192
0
VERTEX
8
OBJECT__67
10
28.379000
20
-4.919000
30
-12.771000
70
192
0
VERTEX
8
OBJECT__67
10
30.024000
20
-6.657000
30
-13.196000
70
192
0
VERTEX
8
OBJECT__67
10
28.566999
20
-5.188000
30
-12.312000
70
192
0
VERTEX
8
OBJECT__67
10
30.054001
20
-6.621000
30
-12.714000
70
192
0
VERTEX
8
OBJECT__67
10
35.700001
20
-8.820000
30
-13.467000
70
192
0
VERTEX
8
OBJECT__67
10
32.883999
20
-8.358000
30
-13.712000
70
192
0
VERTEX
8
OBJECT__67
10
34.327000
20
-8.584000
30
-13.371000
70
192
0
VERTEX
8
OBJECT__67
10
32.758999
20
-8.315000
30
-13.264000
70
192
0
VERTEX
8
OBJECT__67
10
35.700001
20
-8.820000
30
-13.464000
70
192
0
VERTEX
8
OBJECT__67
10
35.700001
20
-8.820000
30
-13.880000
70
192
0
VERTEX
8
OBJECT__67
10
31.625000
20
-7.822000
30
-13.083000
70
192
0
VERTEX
8
OBJECT__67
10
31.625000
20
-7.822000
30
-13.080000
70
192
0
VERTEX
8
OBJECT__67
10
30.386999
20
-7.040000
30
-13.289000
70
192
0
VERTEX
8
OBJECT__67
10
30.777000
20
-7.318000
30
-12.909000
70
192
0
VERTEX
8
OBJECT__67
10
30.724001
20
-7.267000
30
-12.895000
70
192
0
VERTEX
8
OBJECT__67
10
0
20
0
30
0
70
128
71
1
72
2
73
3
0
VERTEX
8
OBJECT__67
10
0
20
0
30
0
70
128
71
3
72
4
73
1
0
VERTEX
8
OBJECT__67
10
0
20
0
30
0
70
128
71
5
72
6
73
4
0
VERTEX
8
OBJECT__67
10
0
20
0
30
0
70
128
71
5
72
7
73
6
0
VERTEX
8
OBJECT__67
10
0
20
0
30
0
70
128
71
8
72
9
73
7
0
VERTEX
8
OBJECT__67
10
0
20
0
30
0
70
128
71
7
72
5
73
8
0
VERTEX
8
OBJECT__67
10
0
20
0
30
0
70
128
71
4
72
3
73
5
0
VERTEX
8
OBJECT__67
10
0
20
0
30
0
70
128
71
10
72
11
73
12
0
VERTEX
8
OBJECT__67
10
0
20
0
30
0
70
128
71
13
72
12
73
11
0
VERTEX
8
OBJECT__67
10
0
20
0
30
0
70
128
71
11
72
14
73
13
0
VERTEX
8
OBJECT__67
10
0
20
0
30
0
70
128
71
15
72
13
73
16
0
VERTEX
8
OBJECT__67
10
0
20
0
30
0
70
128
71
13
72
14
73
16
0
VERTEX
8
OBJECT__67
10
0
20
0
30
0
70
128
71
16
72
17
73
15
0
VERTEX
8
OBJECT__67
10
0
20
0
30
0
70
128
71
18
72
19
73
15
0
VERTEX
8
OBJECT__67
10
0
20
0
30
0
70
128
71
15
72
17
73
18
0
VERTEX
8
OBJECT__67
10
0
20
0
30
0
70
128
71
20
72
18
73
21
0
VERTEX
8
OBJECT__67
10
0
20
0
30
0
70
128
71
21
72
22
73
20
0
VERTEX
8
OBJECT__67
10
0
20
0
30
0
70
128
71
22
72
23
73
24
0
VERTEX
8
OBJECT__67
10
0
20
0
30
0
70
128
71
24
72
25
73
22
0
VERTEX
8
OBJECT__67
10
0
20
0
30
0
70
128
71
22
72
21
73
23
0
VERTEX
8
OBJECT__67
10
0
20
0
30
0
70
128
71
26
72
25
73
27
0
VERTEX
8
OBJECT__67
10
0
20
0
30
0
70
128
71
27
72
28
73
26
0
VERTEX
8
OBJECT__67
10
0
20
0
30
0
70
128
71
24
72
27
73
25
0
VERTEX
8
OBJECT__67
10
0
20
0
30
0
70
128
71
29
72
30
73
31
0
VERTEX
8
OBJECT__67
10
0
20
0
30
0
70
128
71
30
72
32
73
31
0
VERTEX
8
OBJECT__67
10
0
20
0
30
0
70
128
71
31
72
33
73
29
0
VERTEX
8
OBJECT__67
10
0
20
0
30
0
70
128
71
29
72
34
73
30
0
VERTEX
8
OBJECT__67
10
0
20
0
30
0
70
128
71
35
72
36
73
32
0
VERTEX
8
OBJECT__67
10
0
20
0
30
0
70
128
71
32
72
30
73
35
0
VERTEX
8
OBJECT__67
10
0
20
0
30
0
70
128
71
37
72
38
73
35
0
VERTEX
8
OBJECT__67
10
0
20
0
30
0
70
128
71
28
72
39
73
37
0
VERTEX
8
OBJECT__67
10
0
20
0
30
0
70
128
71
37
72
26
73
28
0
VERTEX
8
OBJECT__67
10
0
20
0
30
0
70
128
71
39
72
38
73
37
0
VERTEX
8
OBJECT__67
10
0
20
0
30
0
70
128
71
35
72
30
73
37
0
VERTEX
8
OBJECT__67
10
0
20
0
30
0
70
128
71
18
72
20
73
19
0
VERTEX
8
OBJECT__67
10
0
20
0
30
0
70
128
71
12
72
2
73
10
0
VERTEX
8
OBJECT__67
10
0
20
0
30
0
70
128
71
1
72
10
73
2
0
SEQEND
8
OBJECT__67
0
POLYLINE
8
OBJECT__68
66
1
70
64
71
9
72
7
62
253
0
VERTEX
8
OBJECT__68
10
55.599998
20
-9.500000
30
-13.029000
70
192
0
VERTEX
8
OBJECT__68
10
55.599998
20
-9.156000
30
-13.249000
70
192
0
VERTEX
8
OBJECT__68
10
35.700001
20
-9.156000
30
-13.249000
70
192
0
VERTEX
8
OBJECT__68
10
35.700001
20
-8.820000
30
-13.464000
70
192
0
VERTEX
8
OBJECT__68
10
50.445000
20
-8.820000
30
-13.467000
70
192
0
VERTEX
8
OBJECT__68
10
55.599998
20
-8.820000
30
-13.464000
70
192
0
VERTEX
8
OBJECT__68
10
35.700001
20
-8.820000
30
-13.467000
70
192
0
VERTEX
8
OBJECT__68
10
55.599998
20
-8.820000
30
-13.467000
70
192
0
VERTEX
8
OBJECT__68
10
35.700001
20
-9.500000
30
-13.029000
70
192
0
VERTEX
8
OBJECT__68
10
0
20
0
30
0
70
128
71
1
72
2
73
3
0
VERTEX
8
OBJECT__68
10
0
20
0
30
0
70
128
71
4
72
2
73
5
0
VERTEX
8
OBJECT__68
10
0
20
0
30
0
70
128
71
2
72
6
73
5
0
VERTEX
8
OBJECT__68
10
0
20
0
30
0
70
128
71
5
72
7
73
4
0
VERTEX
8
OBJECT__68
10
0
20
0
30
0
70
128
71
6
72
8
73
5
0
VERTEX
8
OBJECT__68
10
0
20
0
30
0
70
128
71
4
72
3
73
2
0
VERTEX
8
OBJECT__68
10
0
20
0
30
0
70
128
71
3
72
9
73
1
0
SEQEND
8
OBJECT__68
0
POLYLINE
8
OBJECT__69
66
1
70
64
71
38
72
36
62
253
0
VERTEX
8
OBJECT__69
10
59.893002
20
-7.705000
30
-13.493000
70
192
0
VERTEX
8
OBJECT__69
10
59.674999
20
-7.822000
30
-13.083000
70
192
0
VERTEX
8
OBJECT__69
10
60.466000
20
-7.141000
30
-12.884000
70
192
0
VERTEX
8
OBJECT__69
10
61.252998
20
-6.613000
30
-13.188000
70
192
0
VERTEX
8
OBJECT__69
10
57.035999
20
-8.702000
30
-13.836000
70
192
0
VERTEX
8
OBJECT__69
10
56.959999
20
-8.592000
30
-13.376000
70
192
0
VERTEX
8
OBJECT__69
10
59.674999
20
-7.822000
30
-13.080000
70
192
0
VERTEX
8
OBJECT__69
10
55.599998
20
-8.820000
30
-13.880000
70
192
0
VERTEX
8
OBJECT__69
10
56.240002
20
-8.797000
30
-13.455000
70
192
0
VERTEX
8
OBJECT__69
10
55.599998
20
-8.820000
30
-13.467000
70
192
0
VERTEX
8
OBJECT__69
10
55.599998
20
-8.820000
30
-13.464000
70
192
0
VERTEX
8
OBJECT__69
10
61.174999
20
-6.530000
30
-12.705000
70
192
0
VERTEX
8
OBJECT__69
10
62.733002
20
-5.188000
30
-12.312000
70
192
0
VERTEX
8
OBJECT__69
10
62.194000
20
-5.858000
30
-12.977000
70
192
0
VERTEX
8
OBJECT__69
10
63.702999
20
-3.484000
30
-12.528000
70
192
0
VERTEX
8
OBJECT__69
10
63.619999
20
-3.671000
30
-12.015000
70
192
0
VERTEX
8
OBJECT__69
10
64.386002
20
-0.769000
30
-12.298000
70
192
0
VERTEX
8
OBJECT__69
10
63.862999
20
-2.790000
30
-11.927000
70
192
0
VERTEX
8
OBJECT__69
10
64.366997
20
-0.966000
30
-11.742000
70
192
0
VERTEX
8
OBJECT__69
10
64.419998
20
0.000000
30
-11.724000
70
192
0
VERTEX
8
OBJECT__69
10
64.329002
20
-0.055000
30
-12.318000
70
192
0
VERTEX
8
OBJECT__69
10
64.325996
20
-0.008000
30
-12.319000
70
192
0
VERTEX
8
OBJECT__69
10
64.264999
20
1.644000
30
-11.783000
70
192
0
VERTEX
8
OBJECT__69
10
64.153000
20
2.155000
30
-12.379000
70
192
0
VERTEX
8
OBJECT__69
10
63.923000
20
2.575000
30
-11.906000
70
192
0
VERTEX
8
OBJECT__69
10
63.268002
20
4.359000
30
-12.141000
70
192
0
VERTEX
8
OBJECT__69
10
62.921001
20
4.919000
30
-12.771000
70
192
0
VERTEX
8
OBJECT__69
10
61.276001
20
6.657000
30
-13.196000
70
192
0
VERTEX
8
OBJECT__69
10
62.733002
20
5.188000
30
-12.315000
70
192
0
VERTEX
8
OBJECT__69
10
61.305000
20
6.685000
30
-12.719000
70
192
0
VERTEX
8
OBJECT__69
10
55.599998
20
8.820000
30
-13.477000
70
192
0
VERTEX
8
OBJECT__69
10
55.599998
20
8.820000
30
-13.880000
70
192
0
VERTEX
8
OBJECT__69
10
58.416000
20
8.358000
30
-13.712000
70
192
0
VERTEX
8
OBJECT__69
10
59.000999
20
8.138000
30
-13.205000
70
192
0
VERTEX
8
OBJECT__69
10
58.383999
20
8.262000
30
-13.254000
70
192
0
VERTEX
8
OBJECT__69
10
60.912998
20
7.040000
30
-13.289000
70
192
0
VERTEX
8
OBJECT__69
10
60.876999
20
7.024000
30
-12.822000
70
192
0
VERTEX
8
OBJECT__69
10
61.119999
20
6.879000
30
-12.772000
70
192
0
VERTEX
8
OBJECT__69
10
0
20
0
30
0
70
128
71
1
72
2
73
3
0
VERTEX
8
OBJECT__69
10
0
20
0
30
0
70
128
71
3
72
4
73
1
0
VERTEX
8
OBJECT__69
10
0
20
0
30
0
70
128
71
1
72
5
73
2
0
VERTEX
8
OBJECT__69
10
0
20
0
30
0
70
128
71
6
72
7
73
2
0
VERTEX
8
OBJECT__69
10
0
20
0
30
0
70
128
71
5
72
8
73
9
0
VERTEX
8
OBJECT__69
10
0
20
0
30
0
70
128
71
9
72
6
73
5
0
VERTEX
8
OBJECT__69
10
0
20
0
30
0
70
128
71
9
72
8
73
10
0
VERTEX
8
OBJECT__69
10
0
20
0
30
0
70
128
71
10
72
11
73
9
0
VERTEX
8
OBJECT__69
10
0
20
0
30
0
70
128
71
2
72
5
73
6
0
VERTEX
8
OBJECT__69
10
0
20
0
30
0
70
128
71
12
72
13
73
14
0
VERTEX
8
OBJECT__69
10
0
20
0
30
0
70
128
71
15
72
14
73
13
0
VERTEX
8
OBJECT__69
10
0
20
0
30
0
70
128
71
13
72
16
73
15
0
VERTEX
8
OBJECT__69
10
0
20
0
30
0
70
128
71
17
72
15
73
18
0
VERTEX
8
OBJECT__69
10
0
20
0
30
0
70
128
71
15
72
16
73
18
0
VERTEX
8
OBJECT__69
10
0
20
0
30
0
70
128
71
18
72
19
73
17
0
VERTEX
8
OBJECT__69
10
0
20
0
30
0
70
128
71
20
72
21
73
17
0
VERTEX
8
OBJECT__69
10
0
20
0
30
0
70
128
71
20
72
22
73
21
0
VERTEX
8
OBJECT__69
10
0
20
0
30
0
70
128
71
17
72
19
73
20
0
VERTEX
8
OBJECT__69
10
0
20
0
30
0
70
128
71
22
72
20
73
23
0
VERTEX
8
OBJECT__69
10
0
20
0
30
0
70
128
71
23
72
24
73
22
0
VERTEX
8
OBJECT__69
10
0
20
0
30
0
70
128
71
24
72
25
73
26
0
VERTEX
8
OBJECT__69
10
0
20
0
30
0
70
128
71
26
72
27
73
24
0
VERTEX
8
OBJECT__69
10
0
20
0
30
0
70
128
71
28
72
27
73
29
0
VERTEX
8
OBJECT__69
10
0
20
0
30
0
70
128
71
29
72
30
73
28
0
VERTEX
8
OBJECT__69
10
0
20
0
30
0
70
128
71
26
72
29
73
27
0
VERTEX
8
OBJECT__69
10
0
20
0
30
0
70
128
71
31
72
32
73
33
0
VERTEX
8
OBJECT__69
10
0
20
0
30
0
70
128
71
33
72
34
73
35
0
VERTEX
8
OBJECT__69
10
0
20
0
30
0
70
128
71
36
72
37
73
34
0
VERTEX
8
OBJECT__69
10
0
20
0
30
0
70
128
71
36
72
28
73
38
0
VERTEX
8
OBJECT__69
10
0
20
0
30
0
70
128
71
38
72
37
73
36
0
VERTEX
8
OBJECT__69
10
0
20
0
30
0
70
128
71
28
72
30
73
38
0
VERTEX
8
OBJECT__69
10
0
20
0
30
0
70
128
71
34
72
33
73
36
0
VERTEX
8
OBJECT__69
10
0
20
0
30
0
70
128
71
33
72
35
73
31
0
VERTEX
8
OBJECT__69
10
0
20
0
30
0
70
128
71
23
72
25
73
24
0
VERTEX
8
OBJECT__69
10
0
20
0
30
0
70
128
71
14
72
4
73
12
0
VERTEX
8
OBJECT__69
10
0
20
0
30
0
70
128
71
3
72
12
73
4
0
SEQEND
8
OBJECT__69
0
POLYLINE
8
OBJECT__70
66
1
70
64
71
21
72
27
62
253
0
VERTEX
8
OBJECT__70
10
61.199001
20
7.595000
30
-12.373000
70
192
0
VERTEX
8
OBJECT__70
10
58.568001
20
9.006000
30
-12.843000
70
192
0
VERTEX
8
OBJECT__70
10
59.000999
20
8.138000
30
-13.205000
70
192
0
VERTEX
8
OBJECT__70
10
58.383999
20
8.262000
30
-13.254000
70
192
0
VERTEX
8
OBJECT__70
10
63.139999
20
5.584000
30
-11.851000
70
192
0
VERTEX
8
OBJECT__70
10
61.305000
20
6.685000
30
-12.719000
70
192
0
VERTEX
8
OBJECT__70
10
61.119999
20
6.879000
30
-12.772000
70
192
0
VERTEX
8
OBJECT__70
10
60.876999
20
7.024000
30
-12.822000
70
192
0
VERTEX
8
OBJECT__70
10
55.599998
20
8.895000
30
-13.231000
70
192
0
VERTEX
8
OBJECT__70
10
55.599998
20
8.891000
30
-13.238000
70
192
0
VERTEX
8
OBJECT__70
10
55.599998
20
8.890000
30
-13.241000
70
192
0
VERTEX
8
OBJECT__70
10
55.599998
20
8.888000
30
-13.244000
70
192
0
VERTEX
8
OBJECT__70
10
55.599998
20
8.903000
30
-13.219000
70
192
0
VERTEX
8
OBJECT__70
10
55.599998
20
8.920000
30
-13.195000
70
192
0
VERTEX
8
OBJECT__70
10
55.599998
20
8.958000
30
-13.150000
70
192
0
VERTEX
8
OBJECT__70
10
55.599998
20
9.049000
30
-13.075000
70
192
0
VERTEX
8
OBJECT__70
10
55.599998
20
8.820000
30
-13.467000
70
192
0
VERTEX
8
OBJECT__70
10
55.599998
20
9.500000
30
-13.030000
70
192
0
VERTEX
8
OBJECT__70
10
55.599998
20
9.046000
30
-13.077000
70
192
0
VERTEX
8
OBJECT__70
10
55.599998
20
8.820000
30
-13.477000
70
192
0
VERTEX
8
OBJECT__70
10
62.733002
20
5.188000
30
-12.315000
70
192
0
VERTEX
8
OBJECT__70
10
0
20
0
30
0
70
128
71
1
72
2
73
3
0
VERTEX
8
OBJECT__70
10
0
20
0
30
0
70
128
71
2
72
4
73
3
0
VERTEX
8
OBJECT__70
10
0
20
0
30
0
70
128
71
5
72
1
73
6
0
VERTEX
8
OBJECT__70
10
0
20
0
30
0
70
128
71
1
72
7
73
6
0
VERTEX
8
OBJECT__70
10
0
20
0
30
0
70
128
71
1
72
8
73
7
0
VERTEX
8
OBJECT__70
10
0
20
0
30
0
70
128
71
4
72
9
73
10
0
VERTEX
8
OBJECT__70
10
0
20
0
30
0
70
128
71
11
72
12
73
4
0
VERTEX
8
OBJECT__70
10
0
20
0
30
0
70
128
71
10
72
11
73
4
0
VERTEX
8
OBJECT__70
10
0
20
0
30
0
70
128
71
2
72
13
73
9
0
VERTEX
8
OBJECT__70
10
0
20
0
30
0
70
128
71
9
72
4
73
2
0
VERTEX
8
OBJECT__70
10
0
20
0
30
0
70
128
71
2
72
14
73
13
0
VERTEX
8
OBJECT__70
10
0
20
0
30
0
70
128
71
2
72
15
73
14
0
VERTEX
8
OBJECT__70
10
0
20
0
30
0
70
128
71
2
72
16
73
15
0
VERTEX
8
OBJECT__70
10
0
20
0
30
0
70
128
71
12
72
17
73
4
0
VERTEX
8
OBJECT__70
10
0
20
0
30
0
70
128
71
2
72
18
73
16
0
VERTEX
8
OBJECT__70
10
0
20
0
30
0
70
128
71
19
72
17
73
15
0
VERTEX
8
OBJECT__70
10
0
20
0
30
0
70
128
71
15
72
16
73
19
0
VERTEX
8
OBJECT__70
10
0
20
0
30
0
70
128
71
17
72
11
73
10
0
VERTEX
8
OBJECT__70
10
0
20
0
30
0
70
128
71
10
72
9
73
17
0
VERTEX
8
OBJECT__70
10
0
20
0
30
0
70
128
71
9
72
13
73
17
0
VERTEX
8
OBJECT__70
10
0
20
0
30
0
70
128
71
13
72
14
73
17
0
VERTEX
8
OBJECT__70
10
0
20
0
30
0
70
128
71
14
72
15
73
17
0
VERTEX
8
OBJECT__70
10
0
20
0
30
0
70
128
71
17
72
12
73
11
0
VERTEX
8
OBJECT__70
10
0
20
0
30
0
70
128
71
18
72
19
73
16
0
VERTEX
8
OBJECT__70
10
0
20
0
30
0
70
128
71
17
72
20
73
4
0
VERTEX
8
OBJECT__70
10
0
20
0
30
0
70
128
71
6
72
21
73
5
0
VERTEX
8
OBJECT__70
10
0
20
0
30
0
70
128
71
3
72
8
73
1
0
SEQEND
8
OBJECT__70
0
POLYLINE
8
OBJECT__71
66
1
70
64
71
8
72
6
62
253
0
VERTEX
8
OBJECT__71
10
64.918999
20
0.000000
30
-11.250000
70
192
0
VERTEX
8
OBJECT__71
10
64.500999
20
2.815000
30
-11.401000
70
192
0
VERTEX
8
OBJECT__71
10
64.264999
20
1.644000
30
-11.783000
70
192
0
VERTEX
8
OBJECT__71
10
63.923000
20
2.575000
30
-11.906000
70
192
0
VERTEX
8
OBJECT__71
10
63.139999
20
5.584000
30
-11.851000
70
192
0
VERTEX
8
OBJECT__71
10
63.268002
20
4.359000
30
-12.141000
70
192
0
VERTEX
8
OBJECT__71
10
62.733002
20
5.188000
30
-12.315000
70
192
0
VERTEX
8
OBJECT__71
10
64.419998
20
0.000000
30
-11.724000
70
192
0
VERTEX
8
OBJECT__71
10
0
20
0
30
0
70
128
71
1
72
2
73
3
0
VERTEX
8
OBJECT__71
10
0
20
0
30
0
70
128
71
2
72
4
73
3
0
VERTEX
8
OBJECT__71
10
0
20
0
30
0
70
128
71
2
72
5
73
6
0
VERTEX
8
OBJECT__71
10
0
20
0
30
0
70
128
71
5
72
7
73
6
0
VERTEX
8
OBJECT__71
10
0
20
0
30
0
70
128
71
6
72
4
73
2
0
VERTEX
8
OBJECT__71
10
0
20
0
30
0
70
128
71
3
72
8
73
1
0
SEQEND
8
OBJECT__71
0
POLYLINE
8
OBJECT__72
66
1
70
64
71
8
72
6
62
253
0
VERTEX
8
OBJECT__72
10
64.431000
20
-3.034000
30
-11.426000
70
192
0
VERTEX
8
OBJECT__72
10
64.918999
20
0.000000
30
-11.250000
70
192
0
VERTEX
8
OBJECT__72
10
64.366997
20
-0.966000
30
-11.742000
70
192
0
VERTEX
8
OBJECT__72
10
64.419998
20
0.000000
30
-11.724000
70
192
0
VERTEX
8
OBJECT__72
10
63.139000
20
-5.584000
30
-11.851000
70
192
0
VERTEX
8
OBJECT__72
10
63.619999
20
-3.671000
30
-12.015000
70
192
0
VERTEX
8
OBJECT__72
10
63.862999
20
-2.790000
30
-11.927000
70
192
0
VERTEX
8
OBJECT__72
10
62.733002
20
-5.188000
30
-12.312000
70
192
0
VERTEX
8
OBJECT__72
10
0
20
0
30
0
70
128
71
1
72
2
73
3
0
VERTEX
8
OBJECT__72
10
0
20
0
30
0
70
128
71
2
72
4
73
3
0
VERTEX
8
OBJECT__72
10
0
20
0
30
0
70
128
71
5
72
1
73
6
0
VERTEX
8
OBJECT__72
10
0
20
0
30
0
70
128
71
1
72
7
73
6
0
VERTEX
8
OBJECT__72
10
0
20
0
30
0
70
128
71
6
72
8
73
5
0
VERTEX
8
OBJECT__72
10
0
20
0
30
0
70
128
71
3
72
7
73
1
0
SEQEND
8
OBJECT__72
0
POLYLINE
8
OBJECT__73
66
1
70
64
71
8
72
6
62
253
0
VERTEX
8
OBJECT__73
10
60.466000
20
-7.141000
30
-12.884000
70
192
0
VERTEX
8
OBJECT__73
10
59.674999
20
-7.822000
30
-13.083000
70
192
0
VERTEX
8
OBJECT__73
10
59.674999
20
-7.822000
30
-13.080000
70
192
0
VERTEX
8
OBJECT__73
10
60.870998
20
-7.834000
30
-12.446000
70
192
0
VERTEX
8
OBJECT__73
10
59.910000
20
-8.423000
30
-12.638000
70
192
0
VERTEX
8
OBJECT__73
10
63.139000
20
-5.584000
30
-11.851000
70
192
0
VERTEX
8
OBJECT__73
10
62.733002
20
-5.188000
30
-12.312000
70
192
0
VERTEX
8
OBJECT__73
10
61.174999
20
-6.530000
30
-12.705000
70
192
0
VERTEX
8
OBJECT__73
10
0
20
0
30
0
70
128
71
1
72
2
73
3
0
VERTEX
8
OBJECT__73
10
0
20
0
30
0
70
128
71
3
72
4
73
1
0
VERTEX
8
OBJECT__73
10
0
20
0
30
0
70
128
71
3
72
5
73
4
0
VERTEX
8
OBJECT__73
10
0
20
0
30
0
70
128
71
6
72
7
73
8
0
VERTEX
8
OBJECT__73
10
0
20
0
30
0
70
128
71
8
72
4
73
6
0
VERTEX
8
OBJECT__73
10
0
20
0
30
0
70
128
71
8
72
1
73
4
0
SEQEND
8
OBJECT__73
0
POLYLINE
8
OBJECT__74
66
1
70
64
71
8
72
6
62
253
0
VERTEX
8
OBJECT__74
10
57.078999
20
-9.380000
30
-12.983000
70
192
0
VERTEX
8
OBJECT__74
10
59.910000
20
-8.423000
30
-12.638000
70
192
0
VERTEX
8
OBJECT__74
10
59.674999
20
-7.822000
30
-13.080000
70
192
0
VERTEX
8
OBJECT__74
10
56.240002
20
-8.797000
30
-13.455000
70
192
0
VERTEX
8
OBJECT__74
10
55.599998
20
-8.820000
30
-13.464000
70
192
0
VERTEX
8
OBJECT__74
10
55.599998
20
-9.156000
30
-13.249000
70
192
0
VERTEX
8
OBJECT__74
10
56.959999
20
-8.592000
30
-13.376000
70
192
0
VERTEX
8
OBJECT__74
10
55.599998
20
-9.500000
30
-13.029000
70
192
0
VERTEX
8
OBJECT__74
10
0
20
0
30
0
70
128
71
1
72
2
73
3
0
VERTEX
8
OBJECT__74
10
0
20
0
30
0
70
128
71
4
72
5
73
6
0
VERTEX
8
OBJECT__74
10
0
20
0
30
0
70
128
71
1
72
7
73
4
0
VERTEX
8
OBJECT__74
10
0
20
0
30
0
70
128
71
4
72
8
73
1
0
VERTEX
8
OBJECT__74
10
0
20
0
30
0
70
128
71
6
72
8
73
4
0
VERTEX
8
OBJECT__74
10
0
20
0
30
0
70
128
71
3
72
7
73
1
0
SEQEND
8
OBJECT__74
0
POLYLINE
8
OBJECT__75
66
1
70
64
71
32
72
32
62
253
0
VERTEX
8
OBJECT__75
10
26.979000
20
-0.053000
30
-12.321000
70
192
0
VERTEX
8
OBJECT__75
10
64.329002
20
-0.055000
30
-12.318000
70
192
0
VERTEX
8
OBJECT__75
10
64.325996
20
-0.008000
30
-12.319000
70
192
0
VERTEX
8
OBJECT__75
10
26.974001
20
0.008000
30
-12.319000
70
192
0
VERTEX
8
OBJECT__75
10
64.153000
20
2.155000
30
-12.379000
70
192
0
VERTEX
8
OBJECT__75
10
27.597000
20
3.484000
30
-12.528000
70
192
0
VERTEX
8
OBJECT__75
10
26.914000
20
0.769000
30
-12.298000
70
192
0
VERTEX
8
OBJECT__75
10
30.047001
20
6.613000
30
-13.188000
70
192
0
VERTEX
8
OBJECT__75
10
29.106001
20
5.858000
30
-12.977000
70
192
0
VERTEX
8
OBJECT__75
10
32.874001
20
7.727000
30
-13.500000
70
192
0
VERTEX
8
OBJECT__75
10
35.700001
20
8.820000
30
-13.880000
70
192
0
VERTEX
8
OBJECT__75
10
34.264000
20
8.702000
30
-13.836000
70
192
0
VERTEX
8
OBJECT__75
10
31.407000
20
7.705000
30
-13.493000
70
192
0
VERTEX
8
OBJECT__75
10
61.276001
20
6.657000
30
-13.196000
70
192
0
VERTEX
8
OBJECT__75
10
55.599998
20
8.820000
30
-13.880000
70
192
0
VERTEX
8
OBJECT__75
10
60.912998
20
7.040000
30
-13.289000
70
192
0
VERTEX
8
OBJECT__75
10
58.416000
20
8.358000
30
-13.712000
70
192
0
VERTEX
8
OBJECT__75
10
62.921001
20
4.919000
30
-12.771000
70
192
0
VERTEX
8
OBJECT__75
10
63.702999
20
-3.484000
30
-12.528000
70
192
0
VERTEX
8
OBJECT__75
10
64.386002
20
-0.769000
30
-12.298000
70
192
0
VERTEX
8
OBJECT__75
10
61.252998
20
-6.613000
30
-13.188000
70
192
0
VERTEX
8
OBJECT__75
10
62.194000
20
-5.858000
30
-12.977000
70
192
0
VERTEX
8
OBJECT__75
10
58.425999
20
-7.727000
30
-13.500000
70
192
0
VERTEX
8
OBJECT__75
10
55.599998
20
-8.820000
30
-13.880000
70
192
0
VERTEX
8
OBJECT__75
10
57.035999
20
-8.702000
30
-13.836000
70
192
0
VERTEX
8
OBJECT__75
10
59.893002
20
-7.705000
30
-13.493000
70
192
0
VERTEX
8
OBJECT__75
10
30.024000
20
-6.657000
30
-13.196000
70
192
0
VERTEX
8
OBJECT__75
10
35.700001
20
-8.820000
30
-13.880000
70
192
0
VERTEX
8
OBJECT__75
10
30.386999
20
-7.040000
30
-13.289000
70
192
0
VERTEX
8
OBJECT__75
10
32.883999
20
-8.358000
30
-13.712000
70
192
0
VERTEX
8
OBJECT__75
10
27.146999
20
-2.155000
30
-12.379000
70
192
0
VERTEX
8
OBJECT__75
10
28.379000
20
-4.919000
30
-12.771000
70
192
0
VERTEX
8
OBJECT__75
10
0
20
0
30
0
70
128
71
1
72
2
73
3
0
VERTEX
8
OBJECT__75
10
0
20
0
30
0
70
128
71
3
72
4
73
1
0
VERTEX
8
OBJECT__75
10
0
20
0
30
0
70
128
71
3
72
5
73
4
0
VERTEX
8
OBJECT__75
10
0
20
0
30
0
70
128
71
5
72
6
73
7
0
VERTEX
8
OBJECT__75
10
0
20
0
30
0
70
128
71
5
72
8
73
9
0
VERTEX
8
OBJECT__75
10
0
20
0
30
0
70
128
71
9
72
6
73
5
0
VERTEX
8
OBJECT__75
10
0
20
0
30
0
70
128
71
10
72
11
73
12
0
VERTEX
8
OBJECT__75
10
0
20
0
30
0
70
128
71
13
72
8
73
10
0
VERTEX
8
OBJECT__75
10
0
20
0
30
0
70
128
71
10
72
14
73
15
0
VERTEX
8
OBJECT__75
10
0
20
0
30
0
70
128
71
15
72
14
73
16
0
VERTEX
8
OBJECT__75
10
0
20
0
30
0
70
128
71
16
72
17
73
15
0
VERTEX
8
OBJECT__75
10
0
20
0
30
0
70
128
71
15
72
11
73
10
0
VERTEX
8
OBJECT__75
10
0
20
0
30
0
70
128
71
10
72
8
73
14
0
VERTEX
8
OBJECT__75
10
0
20
0
30
0
70
128
71
8
72
5
73
18
0
VERTEX
8
OBJECT__75
10
0
20
0
30
0
70
128
71
18
72
14
73
8
0
VERTEX
8
OBJECT__75
10
0
20
0
30
0
70
128
71
12
72
13
73
10
0
VERTEX
8
OBJECT__75
10
0
20
0
30
0
70
128
71
7
72
4
73
5
0
VERTEX
8
OBJECT__75
10
0
20
0
30
0
70
128
71
1
72
19
73
20
0
VERTEX
8
OBJECT__75
10
0
20
0
30
0
70
128
71
1
72
21
73
22
0
VERTEX
8
OBJECT__75
10
0
20
0
30
0
70
128
71
22
72
19
73
1
0
VERTEX
8
OBJECT__75
10
0
20
0
30
0
70
128
71
23
72
24
73
25
0
VERTEX
8
OBJECT__75
10
0
20
0
30
0
70
128
71
26
72
21
73
23
0
VERTEX
8
OBJECT__75
10
0
20
0
30
0
70
128
71
23
72
27
73
28
0
VERTEX
8
OBJECT__75
10
0
20
0
30
0
70
128
71
28
72
27
73
29
0
VERTEX
8
OBJECT__75
10
0
20
0
30
0
70
128
71
29
72
30
73
28
0
VERTEX
8
OBJECT__75
10
0
20
0
30
0
70
128
71
28
72
24
73
23
0
VERTEX
8
OBJECT__75
10
0
20
0
30
0
70
128
71
23
72
21
73
27
0
VERTEX
8
OBJECT__75
10
0
20
0
30
0
70
128
71
21
72
1
73
31
0
VERTEX
8
OBJECT__75
10
0
20
0
30
0
70
128
71
31
72
32
73
21
0
VERTEX
8
OBJECT__75
10
0
20
0
30
0
70
128
71
32
72
27
73
21
0
VERTEX
8
OBJECT__75
10
0
20
0
30
0
70
128
71
25
72
26
73
23
0
VERTEX
8
OBJECT__75
10
0
20
0
30
0
70
128
71
20
72
2
73
1
0
SEQEND
8
OBJECT__75
0
POLYLINE
8
OBJECT__76
66
1
70
64
71
4
72
2
62
253
0
VERTEX
8
OBJECT__76
10
59.700001
20
-4.831000
30
-63.167000
70
192
0
VERTEX
8
OBJECT__76
10
59.700001
20
-5.192000
30
-63.230999
70
192
0
VERTEX
8
OBJECT__76
10
31.700001
20
-5.192000
30
-63.230999
70
192
0
VERTEX
8
OBJECT__76
10
31.700001
20
-4.831000
30
-63.167000
70
192
0
VERTEX
8
OBJECT__76
10
0
20
0
30
0
70
128
71
1
72
2
73
3
0
VERTEX
8
OBJECT__76
10
0
20
0
30
0
70
128
71
3
72
4
73
1
0
SEQEND
8
OBJECT__76
0
POLYLINE
8
OBJECT__77
66
1
70
64
71
8
72
6
62
253
0
VERTEX
8
OBJECT__77
10
29.724001
20
-4.792000
30
-63.308998
70
192
0
VERTEX
8
OBJECT__77
10
29.851999
20
-4.461000
30
-63.237000
70
192
0
VERTEX
8
OBJECT__77
10
30.546000
20
-4.691000
30
-63.199001
70
192
0
VERTEX
8
OBJECT__77
10
31.073000
20
-5.150000
30
-63.240002
70
192
0
VERTEX
8
OBJECT__77
10
30.465000
20
-5.035000
30
-63.263000
70
192
0
VERTEX
8
OBJECT__77
10
31.700001
20
-5.192000
30
-63.230999
70
192
0
VERTEX
8
OBJECT__77
10
31.117001
20
-4.796000
30
-63.176998
70
192
0
VERTEX
8
OBJECT__77
10
31.700001
20
-4.831000
30
-63.167000
70
192
0
VERTEX
8
OBJECT__77
10
0
20
0
30
0
70
128
71
1
72
2
73
3
0
VERTEX
8
OBJECT__77
10
0
20
0
30
0
70
128
71
4
72
5
73
3
0
VERTEX
8
OBJECT__77
10
0
20
0
30
0
70
128
71
6
72
4
73
7
0
VERTEX
8
OBJECT__77
10
0
20
0
30
0
70
128
71
7
72
8
73
6
0
VERTEX
8
OBJECT__77
10
0
20
0
30
0
70
128
71
3
72
7
73
4
0
VERTEX
8
OBJECT__77
10
0
20
0
30
0
70
128
71
3
72
5
73
1
0
SEQEND
8
OBJECT__77
0
POLYLINE
8
OBJECT__78
66
1
70
64
71
8
72
6
62
253
0
VERTEX
8
OBJECT__78
10
59.700001
20
-5.192000
30
-63.230999
70
192
0
VERTEX
8
OBJECT__78
10
59.700001
20
-4.831000
30
-63.167000
70
192
0
VERTEX
8
OBJECT__78
10
60.432999
20
-4.776000
30
-63.181999
70
192
0
VERTEX
8
OBJECT__78
10
61.087002
20
-4.994000
30
-63.271000
70
192
0
VERTEX
8
OBJECT__78
10
60.487000
20
-5.127000
30
-63.244999
70
192
0
VERTEX
8
OBJECT__78
10
61.675999
20
-4.792000
30
-63.308998
70
192
0
VERTEX
8
OBJECT__78
10
60.997002
20
-4.653000
30
-63.206001
70
192
0
VERTEX
8
OBJECT__78
10
61.548000
20
-4.461000
30
-63.237000
70
192
0
VERTEX
8
OBJECT__78
10
0
20
0
30
0
70
128
71
1
72
2
73
3
0
VERTEX
8
OBJECT__78
10
0
20
0
30
0
70
128
71
4
72
5
73
3
0
VERTEX
8
OBJECT__78
10
0
20
0
30
0
70
128
71
6
72
4
73
7
0
VERTEX
8
OBJECT__78
10
0
20
0
30
0
70
128
71
7
72
8
73
6
0
VERTEX
8
OBJECT__78
10
0
20
0
30
0
70
128
71
3
72
7
73
4
0
VERTEX
8
OBJECT__78
10
0
20
0
30
0
70
128
71
3
72
5
73
1
0
SEQEND
8
OBJECT__78
0
POLYLINE
8
OBJECT__79
66
1
70
64
71
8
72
6
62
253
0
VERTEX
8
OBJECT__79
10
27.723000
20
-3.326000
30
-63.537998
70
192
0
VERTEX
8
OBJECT__79
10
27.993999
20
-3.084000
30
-63.422001
70
192
0
VERTEX
8
OBJECT__79
10
28.506001
20
-3.617000
30
-63.355000
70
192
0
VERTEX
8
OBJECT__79
10
28.275000
20
-3.900000
30
-63.459000
70
192
0
VERTEX
8
OBJECT__79
10
29.131001
20
-4.089000
30
-63.292999
70
192
0
VERTEX
8
OBJECT__79
10
28.952000
20
-4.401000
30
-63.379002
70
192
0
VERTEX
8
OBJECT__79
10
29.851999
20
-4.461000
30
-63.237000
70
192
0
VERTEX
8
OBJECT__79
10
29.724001
20
-4.792000
30
-63.308998
70
192
0
VERTEX
8
OBJECT__79
10
0
20
0
30
0
70
128
71
1
72
2
73
3
0
VERTEX
8
OBJECT__79
10
0
20
0
30
0
70
128
71
4
72
3
73
5
0
VERTEX
8
OBJECT__79
10
0
20
0
30
0
70
128
71
6
72
5
73
7
0
VERTEX
8
OBJECT__79
10
0
20
0
30
0
70
128
71
7
72
8
73
6
0
VERTEX
8
OBJECT__79
10
0
20
0
30
0
70
128
71
5
72
6
73
4
0
VERTEX
8
OBJECT__79
10
0
20
0
30
0
70
128
71
3
72
4
73
1
0
SEQEND
8
OBJECT__79
0
POLYLINE
8
OBJECT__80
66
1
70
64
71
8
72
6
62
253
0
VERTEX
8
OBJECT__80
10
63.676998
20
-3.326000
30
-63.537998
70
192
0
VERTEX
8
OBJECT__80
10
63.132000
20
-3.894000
30
-63.459999
70
192
0
VERTEX
8
OBJECT__80
10
62.900002
20
-3.611000
30
-63.355999
70
192
0
VERTEX
8
OBJECT__80
10
62.452000
20
-4.398000
30
-63.379002
70
192
0
VERTEX
8
OBJECT__80
10
62.272999
20
-4.086000
30
-63.292999
70
192
0
VERTEX
8
OBJECT__80
10
61.675999
20
-4.792000
30
-63.308998
70
192
0
VERTEX
8
OBJECT__80
10
61.548000
20
-4.461000
30
-63.237000
70
192
0
VERTEX
8
OBJECT__80
10
63.404999
20
-3.085000
30
-63.423000
70
192
0
VERTEX
8
OBJECT__80
10
0
20
0
30
0
70
128
71
1
72
2
73
3
0
VERTEX
8
OBJECT__80
10
0
20
0
30
0
70
128
71
2
72
4
73
5
0
VERTEX
8
OBJECT__80
10
0
20
0
30
0
70
128
71
4
72
6
73
7
0
VERTEX
8
OBJECT__80
10
0
20
0
30
0
70
128
71
7
72
5
73
4
0
VERTEX
8
OBJECT__80
10
0
20
0
30
0
70
128
71
5
72
3
73
2
0
VERTEX
8
OBJECT__80
10
0
20
0
30
0
70
128
71
3
72
8
73
1
0
SEQEND
8
OBJECT__80
0
POLYLINE
8
OBJECT__81
66
1
70
64
71
8
72
6
62
253
0
VERTEX
8
OBJECT__81
10
26.551001
20
0.000000
30
-63.750000
70
192
0
VERTEX
8
OBJECT__81
10
26.889999
20
0.000000
30
-63.617001
70
192
0
VERTEX
8
OBJECT__81
10
27.162001
20
-1.607000
30
-63.562000
70
192
0
VERTEX
8
OBJECT__81
10
26.836000
20
-1.730000
30
-63.693001
70
192
0
VERTEX
8
OBJECT__81
10
27.506001
20
-2.373000
30
-63.500999
70
192
0
VERTEX
8
OBJECT__81
10
27.202999
20
-2.556000
30
-63.625000
70
192
0
VERTEX
8
OBJECT__81
10
27.993999
20
-3.084000
30
-63.422001
70
192
0
VERTEX
8
OBJECT__81
10
27.723000
20
-3.326000
30
-63.537998
70
192
0
VERTEX
8
OBJECT__81
10
0
20
0
30
0
70
128
71
1
72
2
73
3
0
VERTEX
8
OBJECT__81
10
0
20
0
30
0
70
128
71
4
72
3
73
5
0
VERTEX
8
OBJECT__81
10
0
20
0
30
0
70
128
71
6
72
5
73
7
0
VERTEX
8
OBJECT__81
10
0
20
0
30
0
70
128
71
7
72
8
73
6
0
VERTEX
8
OBJECT__81
10
0
20
0
30
0
70
128
71
5
72
6
73
4
0
VERTEX
8
OBJECT__81
10
0
20
0
30
0
70
128
71
3
72
4
73
1
0
SEQEND
8
OBJECT__81
0
POLYLINE
8
OBJECT__82
66
1
70
64
71
8
72
6
62
253
0
VERTEX
8
OBJECT__82
10
64.848999
20
0.000000
30
-63.750000
70
192
0
VERTEX
8
OBJECT__82
10
64.566002
20
-1.726000
30
-63.693001
70
192
0
VERTEX
8
OBJECT__82
10
64.238998
20
-1.603000
30
-63.563000
70
192
0
VERTEX
8
OBJECT__82
10
64.197998
20
-2.554000
30
-63.625000
70
192
0
VERTEX
8
OBJECT__82
10
63.895000
20
-2.371000
30
-63.501999
70
192
0
VERTEX
8
OBJECT__82
10
63.404999
20
-3.085000
30
-63.423000
70
192
0
VERTEX
8
OBJECT__82
10
63.676998
20
-3.326000
30
-63.537998
70
192
0
VERTEX
8
OBJECT__82
10
64.510002
20
0.000000
30
-63.617001
70
192
0
VERTEX
8
OBJECT__82
10
0
20
0
30
0
70
128
71
1
72
2
73
3
0
VERTEX
8
OBJECT__82
10
0
20
0
30
0
70
128
71
2
72
4
73
5
0
VERTEX
8
OBJECT__82
10
0
20
0
30
0
70
128
71
4
72
7
73
6
0
VERTEX
8
OBJECT__82
10
0
20
0
30
0
70
128
71
6
72
5
73
4
0
VERTEX
8
OBJECT__82
10
0
20
0
30
0
70
128
71
5
72
3
73
2
0
VERTEX
8
OBJECT__82
10
0
20
0
30
0
70
128
71
3
72
8
73
1
0
SEQEND
8
OBJECT__82
0
POLYLINE
8
OBJECT__83
66
1
70
64
71
8
72
6
62
253
0
VERTEX
8
OBJECT__83
10
26.635000
20
0.955000
30
-63.733002
70
192
0
VERTEX
8
OBJECT__83
10
26.878000
20
1.847000
30
-63.685001
70
192
0
VERTEX
8
OBJECT__83
10
27.201000
20
1.715000
30
-63.555000
70
192
0
VERTEX
8
OBJECT__83
10
26.972000
20
0.889000
30
-63.598999
70
192
0
VERTEX
8
OBJECT__83
10
26.889999
20
0.000000
30
-63.617001
70
192
0
VERTEX
8
OBJECT__83
10
27.723000
20
3.326000
30
-63.537998
70
192
0
VERTEX
8
OBJECT__83
10
27.995001
20
3.085000
30
-63.423000
70
192
0
VERTEX
8
OBJECT__83
10
26.551001
20
0.000000
30
-63.750000
70
192
0
VERTEX
8
OBJECT__83
10
0
20
0
30
0
70
128
71
1
72
2
73
3
0
VERTEX
8
OBJECT__83
10
0
20
0
30
0
70
128
71
1
72
4
73
5
0
VERTEX
8
OBJECT__83
10
0
20
0
30
0
70
128
71
2
72
6
73
7
0
VERTEX
8
OBJECT__83
10
0
20
0
30
0
70
128
71
7
72
3
73
2
0
VERTEX
8
OBJECT__83
10
0
20
0
30
0
70
128
71
5
72
8
73
1
0
VERTEX
8
OBJECT__83
10
0
20
0
30
0
70
128
71
3
72
4
73
1
0
SEQEND
8
OBJECT__83
0
POLYLINE
8
OBJECT__84
66
1
70
64
71
8
72
6
62
253
0
VERTEX
8
OBJECT__84
10
64.765999
20
0.953000
30
-63.733002
70
192
0
VERTEX
8
OBJECT__84
10
64.428001
20
0.887000
30
-63.598999
70
192
0
VERTEX
8
OBJECT__84
10
64.199997
20
1.712000
30
-63.555000
70
192
0
VERTEX
8
OBJECT__84
10
64.848999
20
0.000000
30
-63.750000
70
192
0
VERTEX
8
OBJECT__84
10
64.510002
20
0.000000
30
-63.617001
70
192
0
VERTEX
8
OBJECT__84
10
64.524002
20
1.843000
30
-63.685001
70
192
0
VERTEX
8
OBJECT__84
10
63.405998
20
3.084000
30
-63.422001
70
192
0
VERTEX
8
OBJECT__84
10
63.678001
20
3.326000
30
-63.539001
70
192
0
VERTEX
8
OBJECT__84
10
0
20
0
30
0
70
128
71
1
72
2
73
3
0
VERTEX
8
OBJECT__84
10
0
20
0
30
0
70
128
71
1
72
4
73
5
0
VERTEX
8
OBJECT__84
10
0
20
0
30
0
70
128
71
6
72
3
73
7
0
VERTEX
8
OBJECT__84
10
0
20
0
30
0
70
128
71
7
72
8
73
6
0
VERTEX
8
OBJECT__84
10
0
20
0
30
0
70
128
71
5
72
2
73
1
0
VERTEX
8
OBJECT__84
10
0
20
0
30
0
70
128
71
3
72
6
73
1
0
SEQEND
8
OBJECT__84
0
POLYLINE
8
OBJECT__85
66
1
70
64
71
8
72
6
62
253
0
VERTEX
8
OBJECT__85
10
28.294001
20
3.917000
30
-63.456001
70
192
0
VERTEX
8
OBJECT__85
10
28.934999
20
4.390000
30
-63.380001
70
192
0
VERTEX
8
OBJECT__85
10
29.115999
20
4.079000
30
-63.293999
70
192
0
VERTEX
8
OBJECT__85
10
27.723000
20
3.326000
30
-63.537998
70
192
0
VERTEX
8
OBJECT__85
10
28.524000
20
3.633000
30
-63.353001
70
192
0
VERTEX
8
OBJECT__85
10
29.724001
20
4.792000
30
-63.308998
70
192
0
VERTEX
8
OBJECT__85
10
29.851999
20
4.461000
30
-63.237000
70
192
0
VERTEX
8
OBJECT__85
10
27.995001
20
3.085000
30
-63.423000
70
192
0
VERTEX
8
OBJECT__85
10
0
20
0
30
0
70
128
71
1
72
2
73
3
0
VERTEX
8
OBJECT__85
10
0
20
0
30
0
70
128
71
4
72
1
73
5
0
VERTEX
8
OBJECT__85
10
0
20
0
30
0
70
128
71
2
72
6
73
7
0
VERTEX
8
OBJECT__85
10
0
20
0
30
0
70
128
71
7
72
3
73
2
0
VERTEX
8
OBJECT__85
10
0
20
0
30
0
70
128
71
5
72
8
73
4
0
VERTEX
8
OBJECT__85
10
0
20
0
30
0
70
128
71
3
72
5
73
1
0
SEQEND
8
OBJECT__85
0
POLYLINE
8
OBJECT__86
66
1
70
64
71
8
72
6
62
253
0
VERTEX
8
OBJECT__86
10
63.676998
20
3.326000
30
-63.537998
70
192
0
VERTEX
8
OBJECT__86
10
63.405998
20
3.084000
30
-63.422001
70
192
0
VERTEX
8
OBJECT__86
10
62.875999
20
3.633000
30
-63.353001
70
192
0
VERTEX
8
OBJECT__86
10
63.105999
20
3.917000
30
-63.456001
70
192
0
VERTEX
8
OBJECT__86
10
62.257999
20
4.095000
30
-63.292000
70
192
0
VERTEX
8
OBJECT__86
10
62.437000
20
4.408000
30
-63.376999
70
192
0
VERTEX
8
OBJECT__86
10
61.548000
20
4.461000
30
-63.237000
70
192
0
VERTEX
8
OBJECT__86
10
61.675999
20
4.792000
30
-63.308998
70
192
0
VERTEX
8
OBJECT__86
10
0
20
0
30
0
70
128
71
1
72
2
73
3
0
VERTEX
8
OBJECT__86
10
0
20
0
30
0
70
128
71
4
72
3
73
5
0
VERTEX
8
OBJECT__86
10
0
20
0
30
0
70
128
71
6
72
5
73
7
0
VERTEX
8
OBJECT__86
10
0
20
0
30
0
70
128
71
7
72
8
73
6
0
VERTEX
8
OBJECT__86
10
0
20
0
30
0
70
128
71
5
72
6
73
4
0
VERTEX
8
OBJECT__86
10
0
20
0
30
0
70
128
71
3
72
4
73
1
0
SEQEND
8
OBJECT__86
0
POLYLINE
8
OBJECT__87
66
1
70
64
71
8
72
6
62
253
0
VERTEX
8
OBJECT__87
10
31.700001
20
5.192000
30
-63.230999
70
192
0
VERTEX
8
OBJECT__87
10
31.700001
20
4.831000
30
-63.167000
70
192
0
VERTEX
8
OBJECT__87
10
30.968000
20
4.776000
30
-63.181999
70
192
0
VERTEX
8
OBJECT__87
10
30.313000
20
4.994000
30
-63.271000
70
192
0
VERTEX
8
OBJECT__87
10
30.914000
20
5.127000
30
-63.243999
70
192
0
VERTEX
8
OBJECT__87
10
29.724001
20
4.792000
30
-63.308998
70
192
0
VERTEX
8
OBJECT__87
10
30.403000
20
4.653000
30
-63.206001
70
192
0
VERTEX
8
OBJECT__87
10
29.851999
20
4.461000
30
-63.237000
70
192
0
VERTEX
8
OBJECT__87
10
0
20
0
30
0
70
128
71
1
72
2
73
3
0
VERTEX
8
OBJECT__87
10
0
20
0
30
0
70
128
71
4
72
5
73
3
0
VERTEX
8
OBJECT__87
10
0
20
0
30
0
70
128
71
6
72
4
73
7
0
VERTEX
8
OBJECT__87
10
0
20
0
30
0
70
128
71
7
72
8
73
6
0
VERTEX
8
OBJECT__87
10
0
20
0
30
0
70
128
71
3
72
7
73
4
0
VERTEX
8
OBJECT__87
10
0
20
0
30
0
70
128
71
3
72
5
73
1
0
SEQEND
8
OBJECT__87
0
POLYLINE
8
OBJECT__88
66
1
70
64
71
8
72
6
62
253
0
VERTEX
8
OBJECT__88
10
61.675999
20
4.792000
30
-63.308998
70
192
0
VERTEX
8
OBJECT__88
10
61.548000
20
4.461000
30
-63.237000
70
192
0
VERTEX
8
OBJECT__88
10
60.848000
20
4.693000
30
-63.198002
70
192
0
VERTEX
8
OBJECT__88
10
60.324001
20
5.151000
30
-63.240002
70
192
0
VERTEX
8
OBJECT__88
10
60.929001
20
5.036000
30
-63.262001
70
192
0
VERTEX
8
OBJECT__88
10
59.700001
20
5.192000
30
-63.230999
70
192
0
VERTEX
8
OBJECT__88
10
60.279999
20
4.797000
30
-63.176998
70
192
0
VERTEX
8
OBJECT__88
10
59.700001
20
4.831000
30
-63.167000
70
192
0
VERTEX
8
OBJECT__88
10
0
20
0
30
0
70
128
71
1
72
2
73
3
0
VERTEX
8
OBJECT__88
10
0
20
0
30
0
70
128
71
4
72
5
73
3
0
VERTEX
8
OBJECT__88
10
0
20
0
30
0
70
128
71
6
72
4
73
7
0
VERTEX
8
OBJECT__88
10
0
20
0
30
0
70
128
71
7
72
8
73
6
0
VERTEX
8
OBJECT__88
10
0
20
0
30
0
70
128
71
3
72
7
73
4
0
VERTEX
8
OBJECT__88
10
0
20
0
30
0
70
128
71
3
72
5
73
1
0
SEQEND
8
OBJECT__88
0
POLYLINE
8
OBJECT__89
66
1
70
64
71
4
72
2
62
253
0
VERTEX
8
OBJECT__89
10
31.700001
20
5.192000
30
-63.230999
70
192
0
VERTEX
8
OBJECT__89
10
59.700001
20
5.192000
30
-63.230999
70
192
0
VERTEX
8
OBJECT__89
10
59.700001
20
4.831000
30
-63.167000
70
192
0
VERTEX
8
OBJECT__89
10
31.700001
20
4.831000
30
-63.167000
70
192
0
VERTEX
8
OBJECT__89
10
0
20
0
30
0
70
128
71
1
72
2
73
3
0
VERTEX
8
OBJECT__89
10
0
20
0
30
0
70
128
71
3
72
4
73
1
0
SEQEND
8
OBJECT__89
0
POLYLINE
8
OBJECT__90
66
1
70
64
71
4
72
2
62
253
0
VERTEX
8
OBJECT__90
10
31.700001
20
3.462000
30
-62.474998
70
192
0
VERTEX
8
OBJECT__90
10
31.700001
20
4.831000
30
-63.167000
70
192
0
VERTEX
8
OBJECT__90
10
59.700001
20
4.831000
30
-63.167000
70
192
0
VERTEX
8
OBJECT__90
10
59.700001
20
3.462000
30
-62.474998
70
192
0
VERTEX
8
OBJECT__90
10
0
20
0
30
0
70
128
71
1
72
2
73
3
0
VERTEX
8
OBJECT__90
10
0
20
0
30
0
70
128
71
3
72
4
73
1
0
SEQEND
8
OBJECT__90
0
POLYLINE
8
OBJECT__91
66
1
70
64
71
4
72
2
62
253
0
VERTEX
8
OBJECT__91
10
31.700001
20
-4.831000
30
-63.167000
70
192
0
VERTEX
8
OBJECT__91
10
31.700001
20
-3.462000
30
-62.474998
70
192
0
VERTEX
8
OBJECT__91
10
59.700001
20
-3.462000
30
-62.474998
70
192
0
VERTEX
8
OBJECT__91
10
59.700001
20
-4.831000
30
-63.167000
70
192
0
VERTEX
8
OBJECT__91
10
0
20
0
30
0
70
128
71
1
72
2
73
3
0
VERTEX
8
OBJECT__91
10
0
20
0
30
0
70
128
71
3
72
4
73
1
0
SEQEND
8
OBJECT__91
0
POLYLINE
8
OBJECT__92
66
1
70
64
71
8
72
6
62
253
0
VERTEX
8
OBJECT__92
10
31.316000
20
3.434000
30
-62.478001
70
192
0
VERTEX
8
OBJECT__92
10
29.254999
20
2.483000
30
-62.591000
70
192
0
VERTEX
8
OBJECT__92
10
29.851999
20
4.461000
30
-63.237000
70
192
0
VERTEX
8
OBJECT__92
10
30.403000
20
4.653000
30
-63.206001
70
192
0
VERTEX
8
OBJECT__92
10
29.351000
20
2.912000
30
-62.695000
70
192
0
VERTEX
8
OBJECT__92
10
31.700001
20
4.831000
30
-63.167000
70
192
0
VERTEX
8
OBJECT__92
10
31.700001
20
3.462000
30
-62.474998
70
192
0
VERTEX
8
OBJECT__92
10
30.968000
20
4.776000
30
-63.181999
70
192
0
VERTEX
8
OBJECT__92
10
0
20
0
30
0
70
128
71
1
72
2
73
3
0
VERTEX
8
OBJECT__92
10
0
20
0
30
0
70
128
71
3
72
4
73
1
0
VERTEX
8
OBJECT__92
10
0
20
0
30
0
70
128
71
3
72
2
73
5
0
VERTEX
8
OBJECT__92
10
0
20
0
30
0
70
128
71
6
72
7
73
1
0
VERTEX
8
OBJECT__92
10
0
20
0
30
0
70
128
71
1
72
8
73
6
0
VERTEX
8
OBJECT__92
10
0
20
0
30
0
70
128
71
4
72
8
73
1
0
SEQEND
8
OBJECT__92
0
POLYLINE
8
OBJECT__93
66
1
70
64
71
6
72
4
62
253
0
VERTEX
8
OBJECT__93
10
27.778000
20
0.000000
30
-62.943001
70
192
0
VERTEX
8
OBJECT__93
10
26.972000
20
0.889000
30
-63.598999
70
192
0
VERTEX
8
OBJECT__93
10
27.201000
20
1.715000
30
-63.555000
70
192
0
VERTEX
8
OBJECT__93
10
28.160000
20
2.151000
30
-62.992001
70
192
0
VERTEX
8
OBJECT__93
10
26.889999
20
0.000000
30
-63.617001
70
192
0
VERTEX
8
OBJECT__93
10
27.995001
20
3.085000
30
-63.423000
70
192
0
VERTEX
8
OBJECT__93
10
0
20
0
30
0
70
128
71
1
72
2
73
3
0
VERTEX
8
OBJECT__93
10
0
20
0
30
0
70
128
71
3
72
4
73
1
0
VERTEX
8
OBJECT__93
10
0
20
0
30
0
70
128
71
1
72
5
73
2
0
VERTEX
8
OBJECT__93
10
0
20
0
30
0
70
128
71
3
72
6
73
4
0
SEQEND
8
OBJECT__93
0
POLYLINE
8
OBJECT__94
66
1
70
64
71
6
72
4
62
253
0
VERTEX
8
OBJECT__94
10
29.351000
20
2.912000
30
-62.695000
70
192
0
VERTEX
8
OBJECT__94
10
28.524000
20
3.633000
30
-63.353001
70
192
0
VERTEX
8
OBJECT__94
10
29.115999
20
4.079000
30
-63.293999
70
192
0
VERTEX
8
OBJECT__94
10
27.995001
20
3.085000
30
-63.423000
70
192
0
VERTEX
8
OBJECT__94
10
28.160000
20
2.151000
30
-62.992001
70
192
0
VERTEX
8
OBJECT__94
10
29.851999
20
4.461000
30
-63.237000
70
192
0
VERTEX
8
OBJECT__94
10
0
20
0
30
0
70
128
71
1
72
2
73
3
0
VERTEX
8
OBJECT__94
10
0
20
0
30
0
70
128
71
1
72
4
73
2
0
VERTEX
8
OBJECT__94
10
0
20
0
30
0
70
128
71
4
72
1
73
5
0
VERTEX
8
OBJECT__94
10
0
20
0
30
0
70
128
71
3
72
6
73
1
0
SEQEND
8
OBJECT__94
0
POLYLINE
8
OBJECT__95
66
1
70
64
71
6
72
4
62
253
0
VERTEX
8
OBJECT__95
10
27.778000
20
0.000000
30
-62.943001
70
192
0
VERTEX
8
OBJECT__95
10
28.160000
20
2.151000
30
-62.992001
70
192
0
VERTEX
8
OBJECT__95
10
28.270000
20
0.884000
30
-62.698002
70
192
0
VERTEX
8
OBJECT__95
10
29.351000
20
2.912000
30
-62.695000
70
192
0
VERTEX
8
OBJECT__95
10
29.254999
20
2.483000
30
-62.591000
70
192
0
VERTEX
8
OBJECT__95
10
28.160000
20
0.000000
30
-62.713001
70
192
0
VERTEX
8
OBJECT__95
10
0
20
0
30
0
70
128
71
1
72
2
73
3
0
VERTEX
8
OBJECT__95
10
0
20
0
30
0
70
128
71
2
72
4
73
5
0
VERTEX
8
OBJECT__95
10
0
20
0
30
0
70
128
71
5
72
3
73
2
0
VERTEX
8
OBJECT__95
10
0
20
0
30
0
70
128
71
3
72
6
73
1
0
SEQEND
8
OBJECT__95
0
POLYLINE
8
OBJECT__96
66
1
70
64
71
6
72
4
62
253
0
VERTEX
8
OBJECT__96
10
28.158001
20
-2.153000
30
-62.993000
70
192
0
VERTEX
8
OBJECT__96
10
28.843000
20
-2.024000
30
-62.632000
70
192
0
VERTEX
8
OBJECT__96
10
29.254999
20
-2.483000
30
-62.591000
70
192
0
VERTEX
8
OBJECT__96
10
27.778000
20
0.000000
30
-62.943001
70
192
0
VERTEX
8
OBJECT__96
10
28.160000
20
0.000000
30
-62.713001
70
192
0
VERTEX
8
OBJECT__96
10
29.351000
20
-2.912000
30
-62.695000
70
192
0
VERTEX
8
OBJECT__96
10
0
20
0
30
0
70
128
71
1
72
2
73
3
0
VERTEX
8
OBJECT__96
10
0
20
0
30
0
70
128
71
1
72
4
73
5
0
VERTEX
8
OBJECT__96
10
0
20
0
30
0
70
128
71
5
72
2
73
1
0
VERTEX
8
OBJECT__96
10
0
20
0
30
0
70
128
71
3
72
6
73
1
0
SEQEND
8
OBJECT__96
0
POLYLINE
8
OBJECT__97
66
1
70
64
71
7
72
5
62
253
0
VERTEX
8
OBJECT__97
10
31.700001
20
-3.462000
30
-62.474998
70
192
0
VERTEX
8
OBJECT__97
10
30.546000
20
-4.691000
30
-63.199001
70
192
0
VERTEX
8
OBJECT__97
10
29.851999
20
-4.461000
30
-63.237000
70
192
0
VERTEX
8
OBJECT__97
10
31.117001
20
-4.796000
30
-63.176998
70
192
0
VERTEX
8
OBJECT__97
10
31.700001
20
-4.831000
30
-63.167000
70
192
0
VERTEX
8
OBJECT__97
10
29.351000
20
-2.912000
30
-62.695000
70
192
0
VERTEX
8
OBJECT__97
10
29.254999
20
-2.483000
30
-62.591000
70
192
0
VERTEX
8
OBJECT__97
10
0
20
0
30
0
70
128
71
1
72
2
73
3
0
VERTEX
8
OBJECT__97
10
0
20
0
30
0
70
128
71
1
72
4
73
2
0
VERTEX
8
OBJECT__97
10
0
20
0
30
0
70
128
71
1
72
5
73
4
0
VERTEX
8
OBJECT__97
10
0
20
0
30
0
70
128
71
3
72
6
73
1
0
VERTEX
8
OBJECT__97
10
0
20
0
30
0
70
128
71
6
72
7
73
1
0
SEQEND
8
OBJECT__97
0
POLYLINE
8
OBJECT__98
66
1
70
64
71
6
72
4
62
253
0
VERTEX
8
OBJECT__98
10
27.778000
20
0.000000
30
-62.943001
70
192
0
VERTEX
8
OBJECT__98
10
28.158001
20
-2.153000
30
-62.993000
70
192
0
VERTEX
8
OBJECT__98
10
27.162001
20
-1.607000
30
-63.562000
70
192
0
VERTEX
8
OBJECT__98
10
27.506001
20
-2.373000
30
-63.500999
70
192
0
VERTEX
8
OBJECT__98
10
27.993999
20
-3.084000
30
-63.422001
70
192
0
VERTEX
8
OBJECT__98
10
26.889999
20
0.000000
30
-63.617001
70
192
0
VERTEX
8
OBJECT__98
10
0
20
0
30
0
70
128
71
1
72
2
73
3
0
VERTEX
8
OBJECT__98
10
0
20
0
30
0
70
128
71
2
72
4
73
3
0
VERTEX
8
OBJECT__98
10
0
20
0
30
0
70
128
71
2
72
5
73
4
0
VERTEX
8
OBJECT__98
10
0
20
0
30
0
70
128
71
3
72
6
73
1
0
SEQEND
8
OBJECT__98
0
POLYLINE
8
OBJECT__99
66
1
70
64
71
6
72
4
62
253
0
VERTEX
8
OBJECT__99
10
29.351000
20
-2.912000
30
-62.695000
70
192
0
VERTEX
8
OBJECT__99
10
28.506001
20
-3.617000
30
-63.355000
70
192
0
VERTEX
8
OBJECT__99
10
27.993999
20
-3.084000
30
-63.422001
70
192
0
VERTEX
8
OBJECT__99
10
29.851999
20
-4.461000
30
-63.237000
70
192
0
VERTEX
8
OBJECT__99
10
29.131001
20
-4.089000
30
-63.292999
70
192
0
VERTEX
8
OBJECT__99
10
28.158001
20
-2.153000
30
-62.993000
70
192
0
VERTEX
8
OBJECT__99
10
0
20
0
30
0
70
128
71
1
72
2
73
3
0
VERTEX
8
OBJECT__99
10
0
20
0
30
0
70
128
71
1
72
4
73
5
0
VERTEX
8
OBJECT__99
10
0
20
0
30
0
70
128
71
5
72
2
73
1
0
VERTEX
8
OBJECT__99
10
0
20
0
30
0
70
128
71
3
72
6
73
1
0
SEQEND
8
OBJECT__99
0
POLYLINE
8
OBJECT__100
66
1
70
64
71
7
72
5
62
253
0
VERTEX
8
OBJECT__100
10
61.548000
20
4.461000
30
-63.237000
70
192
0
VERTEX
8
OBJECT__100
10
62.049000
20
2.912000
30
-62.695000
70
192
0
VERTEX
8
OBJECT__100
10
59.700001
20
3.462000
30
-62.474998
70
192
0
VERTEX
8
OBJECT__100
10
60.848000
20
4.693000
30
-63.198002
70
192
0
VERTEX
8
OBJECT__100
10
60.279999
20
4.797000
30
-63.176998
70
192
0
VERTEX
8
OBJECT__100
10
59.700001
20
4.831000
30
-63.167000
70
192
0
VERTEX
8
OBJECT__100
10
62.145000
20
2.483000
30
-62.591000
70
192
0
VERTEX
8
OBJECT__100
10
0
20
0
30
0
70
128
71
3
72
4
73
1
0
VERTEX
8
OBJECT__100
10
0
20
0
30
0
70
128
71
3
72
5
73
4
0
VERTEX
8
OBJECT__100
10
0
20
0
30
0
70
128
71
3
72
6
73
5
0
VERTEX
8
OBJECT__100
10
0
20
0
30
0
70
128
71
1
72
7
73
3
0
VERTEX
8
OBJECT__100
10
0
20
0
30
0
70
128
71
2
72
7
73
1
0
SEQEND
8
OBJECT__100
0
POLYLINE
8
OBJECT__101
66
1
70
64
71
6
72
4
62
253
0
VERTEX
8
OBJECT__101
10
63.622002
20
0.000000
30
-62.943001
70
192
0
VERTEX
8
OBJECT__101
10
63.242001
20
2.153000
30
-62.993000
70
192
0
VERTEX
8
OBJECT__101
10
64.199997
20
1.712000
30
-63.555000
70
192
0
VERTEX
8
OBJECT__101
10
63.405998
20
3.084000
30
-63.422001
70
192
0
VERTEX
8
OBJECT__101
10
64.428001
20
0.887000
30
-63.598999
70
192
0
VERTEX
8
OBJECT__101
10
64.510002
20
0.000000
30
-63.617001
70
192
0
VERTEX
8
OBJECT__101
10
0
20
0
30
0
70
128
71
1
72
2
73
3
0
VERTEX
8
OBJECT__101
10
0
20
0
30
0
70
128
71
2
72
4
73
3
0
VERTEX
8
OBJECT__101
10
0
20
0
30
0
70
128
71
3
72
5
73
1
0
VERTEX
8
OBJECT__101
10
0
20
0
30
0
70
128
71
5
72
6
73
1
0
SEQEND
8
OBJECT__101
0
POLYLINE
8
OBJECT__102
66
1
70
64
71
6
72
4
62
253
0
VERTEX
8
OBJECT__102
10
62.049000
20
2.912000
30
-62.695000
70
192
0
VERTEX
8
OBJECT__102
10
62.875999
20
3.633000
30
-63.353001
70
192
0
VERTEX
8
OBJECT__102
10
63.405998
20
3.084000
30
-63.422001
70
192
0
VERTEX
8
OBJECT__102
10
61.548000
20
4.461000
30
-63.237000
70
192
0
VERTEX
8
OBJECT__102
10
62.257999
20
4.095000
30
-63.292000
70
192
0
VERTEX
8
OBJECT__102
10
63.242001
20
2.153000
30
-62.993000
70
192
0
VERTEX
8
OBJECT__102
10
0
20
0
30
0
70
128
71
1
72
2
73
3
0
VERTEX
8
OBJECT__102
10
0
20
0
30
0
70
128
71
1
72
4
73
5
0
VERTEX
8
OBJECT__102
10
0
20
0
30
0
70
128
71
5
72
2
73
1
0
VERTEX
8
OBJECT__102
10
0
20
0
30
0
70
128
71
3
72
6
73
1
0
SEQEND
8
OBJECT__102
0
POLYLINE
8
OBJECT__103
66
1
70
64
71
15
72
13
62
253
0
VERTEX
8
OBJECT__103
10
31.700001
20
-3.462000
30
-62.474998
70
192
0
VERTEX
8
OBJECT__103
10
31.700001
20
3.462000
30
-62.474998
70
192
0
VERTEX
8
OBJECT__103
10
59.700001
20
3.462000
30
-62.474998
70
192
0
VERTEX
8
OBJECT__103
10
62.555000
20
-2.026000
30
-62.632000
70
192
0
VERTEX
8
OBJECT__103
10
62.145000
20
-2.483000
30
-62.591000
70
192
0
VERTEX
8
OBJECT__103
10
63.130001
20
0.883000
30
-62.698002
70
192
0
VERTEX
8
OBJECT__103
10
63.240002
20
0.000000
30
-62.713001
70
192
0
VERTEX
8
OBJECT__103
10
62.145000
20
2.483000
30
-62.591000
70
192
0
VERTEX
8
OBJECT__103
10
59.700001
20
-3.462000
30
-62.474998
70
192
0
VERTEX
8
OBJECT__103
10
31.316000
20
3.434000
30
-62.478001
70
192
0
VERTEX
8
OBJECT__103
10
28.843000
20
-2.024000
30
-62.632000
70
192
0
VERTEX
8
OBJECT__103
10
28.160000
20
0.000000
30
-62.713001
70
192
0
VERTEX
8
OBJECT__103
10
28.270000
20
0.884000
30
-62.698002
70
192
0
VERTEX
8
OBJECT__103
10
29.254999
20
-2.483000
30
-62.591000
70
192
0
VERTEX
8
OBJECT__103
10
29.254999
20
2.483000
30
-62.591000
70
192
0
VERTEX
8
OBJECT__103
10
0
20
0
30
0
70
128
71
1
72
2
73
3
0
VERTEX
8
OBJECT__103
10
0
20
0
30
0
70
128
71
3
72
4
73
5
0
VERTEX
8
OBJECT__103
10
0
20
0
30
0
70
128
71
3
72
6
73
7
0
VERTEX
8
OBJECT__103
10
0
20
0
30
0
70
128
71
3
72
8
73
6
0
VERTEX
8
OBJECT__103
10
0
20
0
30
0
70
128
71
7
72
4
73
3
0
VERTEX
8
OBJECT__103
10
0
20
0
30
0
70
128
71
5
72
9
73
3
0
VERTEX
8
OBJECT__103
10
0
20
0
30
0
70
128
71
10
72
11
73
12
0
VERTEX
8
OBJECT__103
10
0
20
0
30
0
70
128
71
12
72
13
73
10
0
VERTEX
8
OBJECT__103
10
0
20
0
30
0
70
128
71
10
72
1
73
14
0
VERTEX
8
OBJECT__103
10
0
20
0
30
0
70
128
71
14
72
11
73
10
0
VERTEX
8
OBJECT__103
10
0
20
0
30
0
70
128
71
13
72
15
73
10
0
VERTEX
8
OBJECT__103
10
0
20
0
30
0
70
128
71
10
72
2
73
1
0
VERTEX
8
OBJECT__103
10
0
20
0
30
0
70
128
71
3
72
9
73
1
0
SEQEND
8
OBJECT__103
0
POLYLINE
8
OBJECT__104
66
1
70
64
71
6
72
4
62
253
0
VERTEX
8
OBJECT__104
10
63.242001
20
2.153000
30
-62.993000
70
192
0
VERTEX
8
OBJECT__104
10
63.130001
20
0.883000
30
-62.698002
70
192
0
VERTEX
8
OBJECT__104
10
62.145000
20
2.483000
30
-62.591000
70
192
0
VERTEX
8
OBJECT__104
10
63.622002
20
0.000000
30
-62.943001
70
192
0
VERTEX
8
OBJECT__104
10
63.240002
20
0.000000
30
-62.713001
70
192
0
VERTEX
8
OBJECT__104
10
62.049000
20
2.912000
30
-62.695000
70
192
0
VERTEX
8
OBJECT__104
10
0
20
0
30
0
70
128
71
1
72
2
73
3
0
VERTEX
8
OBJECT__104
10
0
20
0
30
0
70
128
71
4
72
5
73
2
0
VERTEX
8
OBJECT__104
10
0
20
0
30
0
70
128
71
2
72
1
73
4
0
VERTEX
8
OBJECT__104
10
0
20
0
30
0
70
128
71
3
72
6
73
1
0
SEQEND
8
OBJECT__104
0
POLYLINE
8
OBJECT__105
66
1
70
64
71
6
72
4
62
253
0
VERTEX
8
OBJECT__105
10
63.240002
20
-2.151000
30
-62.992001
70
192
0
VERTEX
8
OBJECT__105
10
62.555000
20
-2.026000
30
-62.632000
70
192
0
VERTEX
8
OBJECT__105
10
63.240002
20
0.000000
30
-62.713001
70
192
0
VERTEX
8
OBJECT__105
10
62.049000
20
-2.912000
30
-62.695000
70
192
0
VERTEX
8
OBJECT__105
10
62.145000
20
-2.483000
30
-62.591000
70
192
0
VERTEX
8
OBJECT__105
10
63.622002
20
0.000000
30
-62.943001
70
192
0
VERTEX
8
OBJECT__105
10
0
20
0
30
0
70
128
71
1
72
2
73
3
0
VERTEX
8
OBJECT__105
10
0
20
0
30
0
70
128
71
1
72
4
73
5
0
VERTEX
8
OBJECT__105
10
0
20
0
30
0
70
128
71
5
72
2
73
1
0
VERTEX
8
OBJECT__105
10
0
20
0
30
0
70
128
71
3
72
6
73
1
0
SEQEND
8
OBJECT__105
0
POLYLINE
8
OBJECT__106
66
1
70
64
71
7
72
5
62
253
0
VERTEX
8
OBJECT__106
10
59.700001
20
-3.462000
30
-62.474998
70
192
0
VERTEX
8
OBJECT__106
10
60.997002
20
-4.653000
30
-63.206001
70
192
0
VERTEX
8
OBJECT__106
10
60.432999
20
-4.776000
30
-63.181999
70
192
0
VERTEX
8
OBJECT__106
10
62.049000
20
-2.912000
30
-62.695000
70
192
0
VERTEX
8
OBJECT__106
10
61.548000
20
-4.461000
30
-63.237000
70
192
0
VERTEX
8
OBJECT__106
10
62.145000
20
-2.483000
30
-62.591000
70
192
0
VERTEX
8
OBJECT__106
10
59.700001
20
-4.831000
30
-63.167000
70
192
0
VERTEX
8
OBJECT__106
10
0
20
0
30
0
70
128
71
1
72
2
73
3
0
VERTEX
8
OBJECT__106
10
0
20
0
30
0
70
128
71
1
72
4
73
5
0
VERTEX
8
OBJECT__106
10
0
20
0
30
0
70
128
71
5
72
2
73
1
0
VERTEX
8
OBJECT__106
10
0
20
0
30
0
70
128
71
1
72
6
73
4
0
VERTEX
8
OBJECT__106
10
0
20
0
30
0
70
128
71
3
72
7
73
1
0
SEQEND
8
OBJECT__106
0
POLYLINE
8
OBJECT__107
66
1
70
64
71
6
72
4
62
253
0
VERTEX
8
OBJECT__107
10
63.622002
20
0.000000
30
-62.943001
70
192
0
VERTEX
8
OBJECT__107
10
64.510002
20
0.000000
30
-63.617001
70
192
0
VERTEX
8
OBJECT__107
10
64.238998
20
-1.603000
30
-63.563000
70
192
0
VERTEX
8
OBJECT__107
10
63.240002
20
-2.151000
30
-62.992001
70
192
0
VERTEX
8
OBJECT__107
10
63.895000
20
-2.371000
30
-63.501999
70
192
0
VERTEX
8
OBJECT__107
10
63.404999
20
-3.085000
30
-63.423000
70
192
0
VERTEX
8
OBJECT__107
10
0
20
0
30
0
70
128
71
1
72
2
73
3
0
VERTEX
8
OBJECT__107
10
0
20
0
30
0
70
128
71
3
72
4
73
1
0
VERTEX
8
OBJECT__107
10
0
20
0
30
0
70
128
71
3
72
5
73
4
0
VERTEX
8
OBJECT__107
10
0
20
0
30
0
70
128
71
5
72
6
73
4
0
SEQEND
8
OBJECT__107
0
POLYLINE
8
OBJECT__108
66
1
70
64
71
6
72
4
62
253
0
VERTEX
8
OBJECT__108
10
62.049000
20
-2.912000
30
-62.695000
70
192
0
VERTEX
8
OBJECT__108
10
62.900002
20
-3.611000
30
-63.355999
70
192
0
VERTEX
8
OBJECT__108
10
62.272999
20
-4.086000
30
-63.292999
70
192
0
VERTEX
8
OBJECT__108
10
63.240002
20
-2.151000
30
-62.992001
70
192
0
VERTEX
8
OBJECT__108
10
63.404999
20
-3.085000
30
-63.423000
70
192
0
VERTEX
8
OBJECT__108
10
61.548000
20
-4.461000
30
-63.237000
70
192
0
VERTEX
8
OBJECT__108
10
0
20
0
30
0
70
128
71
1
72
2
73
3
0
VERTEX
8
OBJECT__108
10
0
20
0
30
0
70
128
71
1
72
4
73
5
0
VERTEX
8
OBJECT__108
10
0
20
0
30
0
70
128
71
5
72
2
73
1
0
VERTEX
8
OBJECT__108
10
0
20
0
30
0
70
128
71
3
72
6
73
1
0
SEQEND
8
OBJECT__108
0
POLYLINE
8
OBJECT__109
66
1
70
64
71
24
72
24
62
253
0
VERTEX
8
OBJECT__109
10
45.375000
20
-9.923000
30
-52.941002
70
192
0
VERTEX
8
OBJECT__109
10
16.799999
20
-9.923000
30
-52.941002
70
192
0
VERTEX
8
OBJECT__109
10
16.799999
20
0.000000
30
-55.854000
70
192
0
VERTEX
8
OBJECT__109
10
45.375000
20
-16.695999
30
-45.125000
70
192
0
VERTEX
8
OBJECT__109
10
16.799999
20
-16.695999
30
-45.125000
70
192
0
VERTEX
8
OBJECT__109
10
45.375000
20
-18.167999
30
-34.888000
70
192
0
VERTEX
8
OBJECT__109
10
16.799999
20
-18.167999
30
-34.888000
70
192
0
VERTEX
8
OBJECT__109
10
45.375000
20
-13.871000
30
-25.480000
70
192
0
VERTEX
8
OBJECT__109
10
16.799999
20
-13.871000
30
-25.480000
70
192
0
VERTEX
8
OBJECT__109
10
45.375000
20
-5.171000
30
-19.889000
70
192
0
VERTEX
8
OBJECT__109
10
16.799999
20
-5.171000
30
-19.889000
70
192
0
VERTEX
8
OBJECT__109
10
45.375000
20
5.171000
30
-19.889000
70
192
0
VERTEX
8
OBJECT__109
10
16.799999
20
0.000000
30
-19.146000
70
192
0
VERTEX
8
OBJECT__109
10
16.799999
20
5.171000
30
-19.889000
70
192
0
VERTEX
8
OBJECT__109
10
16.799999
20
13.871000
30
-25.480000
70
192
0
VERTEX
8
OBJECT__109
10
16.799999
20
18.167999
30
-34.888000
70
192
0
VERTEX
8
OBJECT__109
10
45.375000
20
13.871000
30
-25.480000
70
192
0
VERTEX
8
OBJECT__109
10
16.799999
20
16.695999
30
-45.125000
70
192
0
VERTEX
8
OBJECT__109
10
45.375000
20
18.354000
30
-37.500000
70
192
0
VERTEX
8
OBJECT__109
10
45.375000
20
18.167999
30
-34.888000
70
192
0
VERTEX
8
OBJECT__109
10
16.799999
20
9.923000
30
-52.941002
70
192
0
VERTEX
8
OBJECT__109
10
45.375000
20
16.695999
30
-45.125000
70
192
0
VERTEX
8
OBJECT__109
10
45.375000
20
9.923000
30
-52.941002
70
192
0
VERTEX
8
OBJECT__109
10
45.375000
20
0.000000
30
-55.854000
70
192
0
VERTEX
8
OBJECT__109
10
0
20
0
30
0
70
128
71
1
72
2
73
3
0
VERTEX
8
OBJECT__109
10
0
20
0
30
0
70
128
71
4
72
5
73
2
0
VERTEX
8
OBJECT__109
10
0
20
0
30
0
70
128
71
6
72
7
73
5
0
VERTEX
8
OBJECT__109
10
0
20
0
30
0
70
128
71
8
72
9
73
7
0
VERTEX
8
OBJECT__109
10
0
20
0
30
0
70
128
71
10
72
11
73
9
0
VERTEX
8
OBJECT__109
10
0
20
0
30
0
70
128
71
10
72
12
73
13
0
VERTEX
8
OBJECT__109
10
0
20
0
30
0
70
128
71
12
72
14
73
13
0
VERTEX
8
OBJECT__109
10
0
20
0
30
0
70
128
71
15
72
14
73
12
0
VERTEX
8
OBJECT__109
10
0
20
0
30
0
70
128
71
16
72
15
73
17
0
VERTEX
8
OBJECT__109
10
0
20
0
30
0
70
128
71
18
72
16
73
19
0
VERTEX
8
OBJECT__109
10
0
20
0
30
0
70
128
71
16
72
20
73
19
0
VERTEX
8
OBJECT__109
10
0
20
0
30
0
70
128
71
21
72
18
73
22
0
VERTEX
8
OBJECT__109
10
0
20
0
30
0
70
128
71
3
72
21
73
23
0
VERTEX
8
OBJECT__109
10
0
20
0
30
0
70
128
71
23
72
24
73
3
0
VERTEX
8
OBJECT__109
10
0
20
0
30
0
70
128
71
22
72
23
73
21
0
VERTEX
8
OBJECT__109
10
0
20
0
30
0
70
128
71
19
72
22
73
18
0
VERTEX
8
OBJECT__109
10
0
20
0
30
0
70
128
71
17
72
20
73
16
0
VERTEX
8
OBJECT__109
10
0
20
0
30
0
70
128
71
12
72
17
73
15
0
VERTEX
8
OBJECT__109
10
0
20
0
30
0
70
128
71
13
72
11
73
10
0
VERTEX
8
OBJECT__109
10
0
20
0
30
0
70
128
71
9
72
8
73
10
0
VERTEX
8
OBJECT__109
10
0
20
0
30
0
70
128
71
7
72
6
73
8
0
VERTEX
8
OBJECT__109
10
0
20
0
30
0
70
128
71
5
72
4
73
6
0
VERTEX
8
OBJECT__109
10
0
20
0
30
0
70
128
71
2
72
1
73
4
0
VERTEX
8
OBJECT__109
10
0
20
0
30
0
70
128
71
3
72
24
73
1
0
SEQEND
8
OBJECT__109
0
POLYLINE
8
OBJECT__110
66
1
70
64
71
30
72
30
62
253
0
VERTEX
8
OBJECT__110
10
16.799999
20
0.000000
30
-13.250000
70
192
0
VERTEX
8
OBJECT__110
10
16.799999
20
0.000000
30
-19.146000
70
192
0
VERTEX
8
OBJECT__110
10
16.799999
20
5.171000
30
-19.889000
70
192
0
VERTEX
8
OBJECT__110
10
16.799999
20
-8.294000
30
-14.712000
70
192
0
VERTEX
8
OBJECT__110
10
16.799999
20
-5.171000
30
-19.889000
70
192
0
VERTEX
8
OBJECT__110
10
16.799999
20
18.167999
30
-34.888000
70
192
0
VERTEX
8
OBJECT__110
10
16.799999
20
16.695999
30
-45.125000
70
192
0
VERTEX
8
OBJECT__110
10
16.799999
20
23.882000
30
-41.710999
70
192
0
VERTEX
8
OBJECT__110
10
16.799999
20
13.871000
30
-25.480000
70
192
0
VERTEX
8
OBJECT__110
10
16.799999
20
15.588000
30
-18.923000
70
192
0
VERTEX
8
OBJECT__110
10
16.799999
20
9.923000
30
-52.941002
70
192
0
VERTEX
8
OBJECT__110
10
16.799999
20
15.588000
30
-56.077000
70
192
0
VERTEX
8
OBJECT__110
10
16.799999
20
21.000999
30
-49.625000
70
192
0
VERTEX
8
OBJECT__110
10
16.799999
20
23.882000
30
-33.289001
70
192
0
VERTEX
8
OBJECT__110
10
16.799999
20
21.000999
30
-25.375000
70
192
0
VERTEX
8
OBJECT__110
10
16.799999
20
8.294000
30
-14.712000
70
192
0
VERTEX
8
OBJECT__110
10
16.799999
20
-15.588000
30
-18.923000
70
192
0
VERTEX
8
OBJECT__110
10
16.799999
20
-18.167999
30
-34.888000
70
192
0
VERTEX
8
OBJECT__110
10
16.799999
20
-13.871000
30
-25.480000
70
192
0
VERTEX
8
OBJECT__110
10
16.799999
20
-21.000999
30
-25.375000
70
192
0
VERTEX
8
OBJECT__110
10
16.799999
20
-23.882000
30
-33.289001
70
192
0
VERTEX
8
OBJECT__110
10
16.799999
20
-23.882000
30
-41.710999
70
192
0
VERTEX
8
OBJECT__110
10
16.799999
20
0.000000
30
-55.854000
70
192
0
VERTEX
8
OBJECT__110
10
16.799999
20
-9.923000
30
-52.941002
70
192
0
VERTEX
8
OBJECT__110
10
16.799999
20
-8.294000
30
-60.287998
70
192
0
VERTEX
8
OBJECT__110
10
16.799999
20
-16.695999
30
-45.125000
70
192
0
VERTEX
8
OBJECT__110
10
16.799999
20
-21.000999
30
-49.625000
70
192
0
VERTEX
8
OBJECT__110
10
16.799999
20
-15.588000
30
-56.077000
70
192
0
VERTEX
8
OBJECT__110
10
16.799999
20
0.000000
30
-61.750000
70
192
0
VERTEX
8
OBJECT__110
10
16.799999
20
8.294000
30
-60.287998
70
192
0
VERTEX
8
OBJECT__110
10
0
20
0
30
0
70
128
71
1
72
2
73
3
0
VERTEX
8
OBJECT__110
10
0
20
0
30
0
70
128
71
1
72
4
73
5
0
VERTEX
8
OBJECT__110
10
0
20
0
30
0
70
128
71
6
72
7
73
8
0
VERTEX
8
OBJECT__110
10
0
20
0
30
0
70
128
71
3
72
9
73
10
0
VERTEX
8
OBJECT__110
10
0
20
0
30
0
70
128
71
5
72
2
73
1
0
VERTEX
8
OBJECT__110
10
0
20
0
30
0
70
128
71
7
72
11
73
12
0
VERTEX
8
OBJECT__110
10
0
20
0
30
0
70
128
71
7
72
13
73
8
0
VERTEX
8
OBJECT__110
10
0
20
0
30
0
70
128
71
6
72
14
73
15
0
VERTEX
8
OBJECT__110
10
0
20
0
30
0
70
128
71
3
72
16
73
1
0
VERTEX
8
OBJECT__110
10
0
20
0
30
0
70
128
71
5
72
4
73
17
0
VERTEX
8
OBJECT__110
10
0
20
0
30
0
70
128
71
18
72
19
73
20
0
VERTEX
8
OBJECT__110
10
0
20
0
30
0
70
128
71
8
72
14
73
6
0
VERTEX
8
OBJECT__110
10
0
20
0
30
0
70
128
71
15
72
9
73
6
0
VERTEX
8
OBJECT__110
10
0
20
0
30
0
70
128
71
17
72
19
73
5
0
VERTEX
8
OBJECT__110
10
0
20
0
30
0
70
128
71
19
72
17
73
20
0
VERTEX
8
OBJECT__110
10
0
20
0
30
0
70
128
71
15
72
10
73
9
0
VERTEX
8
OBJECT__110
10
0
20
0
30
0
70
128
71
20
72
21
73
18
0
VERTEX
8
OBJECT__110
10
0
20
0
30
0
70
128
71
18
72
21
73
22
0
VERTEX
8
OBJECT__110
10
0
20
0
30
0
70
128
71
23
72
24
73
25
0
VERTEX
8
OBJECT__110
10
0
20
0
30
0
70
128
71
10
72
16
73
3
0
VERTEX
8
OBJECT__110
10
0
20
0
30
0
70
128
71
22
72
26
73
18
0
VERTEX
8
OBJECT__110
10
0
20
0
30
0
70
128
71
26
72
27
73
28
0
VERTEX
8
OBJECT__110
10
0
20
0
30
0
70
128
71
24
72
28
73
25
0
VERTEX
8
OBJECT__110
10
0
20
0
30
0
70
128
71
23
72
29
73
30
0
VERTEX
8
OBJECT__110
10
0
20
0
30
0
70
128
71
22
72
27
73
26
0
VERTEX
8
OBJECT__110
10
0
20
0
30
0
70
128
71
25
72
29
73
23
0
VERTEX
8
OBJECT__110
10
0
20
0
30
0
70
128
71
30
72
11
73
23
0
VERTEX
8
OBJECT__110
10
0
20
0
30
0
70
128
71
28
72
24
73
26
0
VERTEX
8
OBJECT__110
10
0
20
0
30
0
70
128
71
12
72
13
73
7
0
VERTEX
8
OBJECT__110
10
0
20
0
30
0
70
128
71
30
72
12
73
11
0
SEQEND
8
OBJECT__110
0
POLYLINE
8
OBJECT__112
66
1
70
64
71
66
72
84
62
253
0
VERTEX
8
OBJECT__112
10
16.214001
20
0.000000
30
-11.836000
70
192
0
VERTEX
8
OBJECT__112
10
14.800000
20
0.000000
30
-11.250000
70
192
0
VERTEX
8
OBJECT__112
10
14.800000
20
-6.223000
30
-12.347000
70
192
0
VERTEX
8
OBJECT__112
10
16.214001
20
-8.778000
30
-13.384000
70
192
0
VERTEX
8
OBJECT__112
10
14.800000
20
-16.872999
30
-17.391001
70
192
0
VERTEX
8
OBJECT__112
10
16.214001
20
-16.497000
30
-17.840000
70
192
0
VERTEX
8
OBJECT__112
10
16.214001
20
-22.226000
30
-24.667999
70
192
0
VERTEX
8
OBJECT__112
10
14.800000
20
-17.320000
30
-17.924000
70
192
0
VERTEX
8
OBJECT__112
10
16.214001
20
-25.274000
30
-33.042999
70
192
0
VERTEX
8
OBJECT__112
10
14.800000
20
-24.172001
30
-28.327000
70
192
0
VERTEX
8
OBJECT__112
10
14.800000
20
-22.733000
30
-24.375000
70
192
0
VERTEX
8
OBJECT__112
10
14.800000
20
-25.851000
30
-32.942001
70
192
0
VERTEX
8
OBJECT__112
10
14.800000
20
-25.851000
30
-40.664001
70
192
0
VERTEX
8
OBJECT__112
10
16.214001
20
-25.274000
30
-41.957001
70
192
0
VERTEX
8
OBJECT__112
10
14.800000
20
-25.851000
30
-42.057999
70
192
0
VERTEX
8
OBJECT__112
10
14.800000
20
-22.733000
30
-50.625000
70
192
0
VERTEX
8
OBJECT__112
10
16.214001
20
-22.226000
30
-50.332001
70
192
0
VERTEX
8
OBJECT__112
10
16.214001
20
-16.497000
30
-57.160000
70
192
0
VERTEX
8
OBJECT__112
10
14.800000
20
-21.386999
30
-52.230000
70
192
0
VERTEX
8
OBJECT__112
10
14.800000
20
-16.872999
30
-57.609001
70
192
0
VERTEX
8
OBJECT__112
10
14.800000
20
-12.010000
30
-60.416000
70
192
0
VERTEX
8
OBJECT__112
10
16.214001
20
-8.778000
30
-61.616001
70
192
0
VERTEX
8
OBJECT__112
10
14.800000
20
0.000000
30
-63.750000
70
192
0
VERTEX
8
OBJECT__112
10
16.214001
20
0.000000
30
-63.164001
70
192
0
VERTEX
8
OBJECT__112
10
14.800000
20
8.978000
30
-62.167000
70
192
0
VERTEX
8
OBJECT__112
10
16.214001
20
8.778000
30
-61.616001
70
192
0
VERTEX
8
OBJECT__112
10
16.214001
20
16.497000
30
-57.160000
70
192
0
VERTEX
8
OBJECT__112
10
14.800000
20
12.010000
30
-60.416000
70
192
0
VERTEX
8
OBJECT__112
10
14.800000
20
16.872999
30
-57.609001
70
192
0
VERTEX
8
OBJECT__112
10
14.800000
20
21.386999
30
-52.230000
70
192
0
VERTEX
8
OBJECT__112
10
16.214001
20
22.226000
30
-50.332001
70
192
0
VERTEX
8
OBJECT__112
10
14.800000
20
22.733000
30
-50.625000
70
192
0
VERTEX
8
OBJECT__112
10
14.800000
20
25.851000
30
-42.057999
70
192
0
VERTEX
8
OBJECT__112
10
16.214001
20
25.274000
30
-41.957001
70
192
0
VERTEX
8
OBJECT__112
10
16.214001
20
25.274000
30
-33.042999
70
192
0
VERTEX
8
OBJECT__112
10
14.800000
20
25.851000
30
-40.664001
70
192
0
VERTEX
8
OBJECT__112
10
14.800000
20
25.851000
30
-32.942001
70
192
0
VERTEX
8
OBJECT__112
10
14.800000
20
24.172001
30
-28.327000
70
192
0
VERTEX
8
OBJECT__112
10
16.214001
20
22.226000
30
-24.667999
70
192
0
VERTEX
8
OBJECT__112
10
14.800000
20
22.733000
30
-24.375000
70
192
0
VERTEX
8
OBJECT__112
10
14.800000
20
17.320000
30
-17.924000
70
192
0
VERTEX
8
OBJECT__112
10
16.214001
20
16.497000
30
-17.840000
70
192
0
VERTEX
8
OBJECT__112
10
14.800000
20
8.978000
30
-12.833000
70
192
0
VERTEX
8
OBJECT__112
10
16.214001
20
8.778000
30
-13.384000
70
192
0
VERTEX
8
OBJECT__112
10
14.800000
20
6.223000
30
-12.347000
70
192
0
VERTEX
8
OBJECT__112
10
16.799999
20
-8.294000
30
-14.712000
70
192
0
VERTEX
8
OBJECT__112
10
16.799999
20
-15.588000
30
-18.923000
70
192
0
VERTEX
8
OBJECT__112
10
16.799999
20
-21.000999
30
-25.375000
70
192
0
VERTEX
8
OBJECT__112
10
16.799999
20
-23.882000
30
-33.289001
70
192
0
VERTEX
8
OBJECT__112
10
16.799999
20
-23.882000
30
-41.710999
70
192
0
VERTEX
8
OBJECT__112
10
16.799999
20
-21.000999
30
-49.625000
70
192
0
VERTEX
8
OBJECT__112
10
16.799999
20
-15.588000
30
-56.077000
70
192
0
VERTEX
8
OBJECT__112
10
16.799999
20
-8.294000
30
-60.287998
70
192
0
VERTEX
8
OBJECT__112
10
16.799999
20
0.000000
30
-61.750000
70
192
0
VERTEX
8
OBJECT__112
10
16.799999
20
8.294000
30
-60.287998
70
192
0
VERTEX
8
OBJECT__112
10
16.799999
20
15.588000
30
-56.077000
70
192
0
VERTEX
8
OBJECT__112
10
16.799999
20
21.000999
30
-49.625000
70
192
0
VERTEX
8
OBJECT__112
10
16.799999
20
23.882000
30
-41.710999
70
192
0
VERTEX
8
OBJECT__112
10
16.799999
20
23.882000
30
-33.289001
70
192
0
VERTEX
8
OBJECT__112
10
16.799999
20
21.000999
30
-25.375000
70
192
0
VERTEX
8
OBJECT__112
10
16.799999
20
15.588000
30
-18.923000
70
192
0
VERTEX
8
OBJECT__112
10
16.799999
20
8.294000
30
-14.712000
70
192
0
VERTEX
8
OBJECT__112
10
16.799999
20
0.000000
30
-13.250000
70
192
0
VERTEX
8
OBJECT__112
10
14.800000
20
16.872999
30
-17.391001
70
192
0
VERTEX
8
OBJECT__112
10
14.800000
20
-8.978000
30
-62.167000
70
192
0
VERTEX
8
OBJECT__112
10
14.800000
20
-8.978000
30
-12.833000
70
192
0
VERTEX
8
OBJECT__112
10
0
20
0
30
0
70
128
71
1
72
2
73
3
0
VERTEX
8
OBJECT__112
10
0
20
0
30
0
70
128
71
3
72
4
73
1
0
VERTEX
8
OBJECT__112
10
0
20
0
30
0
70
128
71
5
72
6
73
4
0
VERTEX
8
OBJECT__112
10
0
20
0
30
0
70
128
71
7
72
6
73
8
0
VERTEX
8
OBJECT__112
10
0
20
0
30
0
70
128
71
6
72
5
73
8
0
VERTEX
8
OBJECT__112
10
0
20
0
30
0
70
128
71
9
72
7
73
10
0
VERTEX
8
OBJECT__112
10
0
20
0
30
0
70
128
71
7
72
11
73
10
0
VERTEX
8
OBJECT__112
10
0
20
0
30
0
70
128
71
9
72
12
73
13
0
VERTEX
8
OBJECT__112
10
0
20
0
30
0
70
128
71
13
72
14
73
9
0
VERTEX
8
OBJECT__112
10
0
20
0
30
0
70
128
71
15
72
16
73
17
0
VERTEX
8
OBJECT__112
10
0
20
0
30
0
70
128
71
18
72
17
73
19
0
VERTEX
8
OBJECT__112
10
0
20
0
30
0
70
128
71
17
72
16
73
19
0
VERTEX
8
OBJECT__112
10
0
20
0
30
0
70
128
71
18
72
20
73
21
0
VERTEX
8
OBJECT__112
10
0
20
0
30
0
70
128
71
21
72
22
73
18
0
VERTEX
8
OBJECT__112
10
0
20
0
30
0
70
128
71
23
72
24
73
22
0
VERTEX
8
OBJECT__112
10
0
20
0
30
0
70
128
71
23
72
25
73
26
0
VERTEX
8
OBJECT__112
10
0
20
0
30
0
70
128
71
27
72
26
73
28
0
VERTEX
8
OBJECT__112
10
0
20
0
30
0
70
128
71
26
72
25
73
28
0
VERTEX
8
OBJECT__112
10
0
20
0
30
0
70
128
71
27
72
29
73
30
0
VERTEX
8
OBJECT__112
10
0
20
0
30
0
70
128
71
30
72
31
73
27
0
VERTEX
8
OBJECT__112
10
0
20
0
30
0
70
128
71
32
72
33
73
34
0
VERTEX
8
OBJECT__112
10
0
20
0
30
0
70
128
71
35
72
34
73
36
0
VERTEX
8
OBJECT__112
10
0
20
0
30
0
70
128
71
34
72
33
73
36
0
VERTEX
8
OBJECT__112
10
0
20
0
30
0
70
128
71
35
72
37
73
38
0
VERTEX
8
OBJECT__112
10
0
20
0
30
0
70
128
71
38
72
39
73
35
0
VERTEX
8
OBJECT__112
10
0
20
0
30
0
70
128
71
39
72
40
73
41
0
VERTEX
8
OBJECT__112
10
0
20
0
30
0
70
128
71
41
72
42
73
39
0
VERTEX
8
OBJECT__112
10
0
20
0
30
0
70
128
71
43
72
44
73
42
0
VERTEX
8
OBJECT__112
10
0
20
0
30
0
70
128
71
1
72
44
73
45
0
VERTEX
8
OBJECT__112
10
0
20
0
30
0
70
128
71
44
72
43
73
45
0
VERTEX
8
OBJECT__112
10
0
20
0
30
0
70
128
71
1
72
4
73
46
0
VERTEX
8
OBJECT__112
10
0
20
0
30
0
70
128
71
4
72
6
73
47
0
VERTEX
8
OBJECT__112
10
0
20
0
30
0
70
128
71
6
72
7
73
48
0
VERTEX
8
OBJECT__112
10
0
20
0
30
0
70
128
71
7
72
9
73
49
0
VERTEX
8
OBJECT__112
10
0
20
0
30
0
70
128
71
14
72
50
73
49
0
VERTEX
8
OBJECT__112
10
0
20
0
30
0
70
128
71
17
72
51
73
50
0
VERTEX
8
OBJECT__112
10
0
20
0
30
0
70
128
71
18
72
52
73
51
0
VERTEX
8
OBJECT__112
10
0
20
0
30
0
70
128
71
22
72
53
73
52
0
VERTEX
8
OBJECT__112
10
0
20
0
30
0
70
128
71
24
72
54
73
53
0
VERTEX
8
OBJECT__112
10
0
20
0
30
0
70
128
71
24
72
26
73
55
0
VERTEX
8
OBJECT__112
10
0
20
0
30
0
70
128
71
26
72
27
73
56
0
VERTEX
8
OBJECT__112
10
0
20
0
30
0
70
128
71
27
72
31
73
57
0
VERTEX
8
OBJECT__112
10
0
20
0
30
0
70
128
71
34
72
58
73
57
0
VERTEX
8
OBJECT__112
10
0
20
0
30
0
70
128
71
34
72
35
73
59
0
VERTEX
8
OBJECT__112
10
0
20
0
30
0
70
128
71
35
72
39
73
60
0
VERTEX
8
OBJECT__112
10
0
20
0
30
0
70
128
71
39
72
42
73
61
0
VERTEX
8
OBJECT__112
10
0
20
0
30
0
70
128
71
42
72
44
73
62
0
VERTEX
8
OBJECT__112
10
0
20
0
30
0
70
128
71
1
72
63
73
62
0
VERTEX
8
OBJECT__112
10
0
20
0
30
0
70
128
71
62
72
44
73
1
0
VERTEX
8
OBJECT__112
10
0
20
0
30
0
70
128
71
62
72
61
73
42
0
VERTEX
8
OBJECT__112
10
0
20
0
30
0
70
128
71
61
72
60
73
39
0
VERTEX
8
OBJECT__112
10
0
20
0
30
0
70
128
71
60
72
59
73
35
0
VERTEX
8
OBJECT__112
10
0
20
0
30
0
70
128
71
59
72
58
73
34
0
VERTEX
8
OBJECT__112
10
0
20
0
30
0
70
128
71
57
72
31
73
34
0
VERTEX
8
OBJECT__112
10
0
20
0
30
0
70
128
71
57
72
56
73
27
0
VERTEX
8
OBJECT__112
10
0
20
0
30
0
70
128
71
56
72
55
73
26
0
VERTEX
8
OBJECT__112
10
0
20
0
30
0
70
128
71
55
72
54
73
24
0
VERTEX
8
OBJECT__112
10
0
20
0
30
0
70
128
71
53
72
22
73
24
0
VERTEX
8
OBJECT__112
10
0
20
0
30
0
70
128
71
52
72
18
73
22
0
VERTEX
8
OBJECT__112
10
0
20
0
30
0
70
128
71
51
72
17
73
18
0
VERTEX
8
OBJECT__112
10
0
20
0
30
0
70
128
71
50
72
14
73
17
0
VERTEX
8
OBJECT__112
10
0
20
0
30
0
70
128
71
49
72
9
73
14
0
VERTEX
8
OBJECT__112
10
0
20
0
30
0
70
128
71
49
72
48
73
7
0
VERTEX
8
OBJECT__112
10
0
20
0
30
0
70
128
71
48
72
47
73
6
0
VERTEX
8
OBJECT__112
10
0
20
0
30
0
70
128
71
47
72
46
73
4
0
VERTEX
8
OBJECT__112
10
0
20
0
30
0
70
128
71
46
72
63
73
1
0
VERTEX
8
OBJECT__112
10
0
20
0
30
0
70
128
71
45
72
2
73
1
0
VERTEX
8
OBJECT__112
10
0
20
0
30
0
70
128
71
42
72
64
73
43
0
VERTEX
8
OBJECT__112
10
0
20
0
30
0
70
128
71
41
72
64
73
42
0
VERTEX
8
OBJECT__112
10
0
20
0
30
0
70
128
71
38
72
40
73
39
0
VERTEX
8
OBJECT__112
10
0
20
0
30
0
70
128
71
36
72
37
73
35
0
VERTEX
8
OBJECT__112
10
0
20
0
30
0
70
128
71
34
72
31
73
32
0
VERTEX
8
OBJECT__112
10
0
20
0
30
0
70
128
71
30
72
32
73
31
0
VERTEX
8
OBJECT__112
10
0
20
0
30
0
70
128
71
28
72
29
73
27
0
VERTEX
8
OBJECT__112
10
0
20
0
30
0
70
128
71
26
72
24
73
23
0
VERTEX
8
OBJECT__112
10
0
20
0
30
0
70
128
71
22
72
65
73
23
0
VERTEX
8
OBJECT__112
10
0
20
0
30
0
70
128
71
21
72
65
73
22
0
VERTEX
8
OBJECT__112
10
0
20
0
30
0
70
128
71
19
72
20
73
18
0
VERTEX
8
OBJECT__112
10
0
20
0
30
0
70
128
71
17
72
14
73
15
0
VERTEX
8
OBJECT__112
10
0
20
0
30
0
70
128
71
13
72
15
73
14
0
VERTEX
8
OBJECT__112
10
0
20
0
30
0
70
128
71
10
72
12
73
9
0
VERTEX
8
OBJECT__112
10
0
20
0
30
0
70
128
71
8
72
11
73
7
0
VERTEX
8
OBJECT__112
10
0
20
0
30
0
70
128
71
4
72
66
73
5
0
VERTEX
8
OBJECT__112
10
0
20
0
30
0
70
128
71
3
72
66
73
4
0
SEQEND
8
OBJECT__112
0
POLYLINE
8
OBJECT__113
66
1
70
64
71
44
72
44
62
253
0
VERTEX
8
OBJECT__113
10
6.151000
20
0.000000
30
-63.750000
70
192
0
VERTEX
8
OBJECT__113
10
14.800000
20
0.000000
30
-63.750000
70
192
0
VERTEX
8
OBJECT__113
10
14.800000
20
-8.978000
30
-62.167000
70
192
0
VERTEX
8
OBJECT__113
10
6.151000
20
-12.199000
30
-60.743000
70
192
0
VERTEX
8
OBJECT__113
10
6.151000
20
-21.603001
30
-52.411999
70
192
0
VERTEX
8
OBJECT__113
10
14.800000
20
-16.872999
30
-57.609001
70
192
0
VERTEX
8
OBJECT__113
10
14.800000
20
-12.010000
30
-60.416000
70
192
0
VERTEX
8
OBJECT__113
10
6.151000
20
-26.059000
30
-40.664001
70
192
0
VERTEX
8
OBJECT__113
10
14.800000
20
-22.733000
30
-50.625000
70
192
0
VERTEX
8
OBJECT__113
10
14.800000
20
-25.851000
30
-42.057999
70
192
0
VERTEX
8
OBJECT__113
10
14.800000
20
-21.386999
30
-52.230000
70
192
0
VERTEX
8
OBJECT__113
10
14.800000
20
-25.851000
30
-40.664001
70
192
0
VERTEX
8
OBJECT__113
10
14.800000
20
-25.851000
30
-32.942001
70
192
0
VERTEX
8
OBJECT__113
10
6.151000
20
-24.544001
30
-28.191999
70
192
0
VERTEX
8
OBJECT__113
10
6.151000
20
-17.407000
30
-17.851999
70
192
0
VERTEX
8
OBJECT__113
10
14.800000
20
-22.733000
30
-24.375000
70
192
0
VERTEX
8
OBJECT__113
10
14.800000
20
-24.172001
30
-28.327000
70
192
0
VERTEX
8
OBJECT__113
10
14.800000
20
-16.872999
30
-17.391001
70
192
0
VERTEX
8
OBJECT__113
10
14.800000
20
-8.978000
30
-12.833000
70
192
0
VERTEX
8
OBJECT__113
10
14.800000
20
-17.320000
30
-17.924000
70
192
0
VERTEX
8
OBJECT__113
10
6.151000
20
-6.282000
30
-12.013000
70
192
0
VERTEX
8
OBJECT__113
10
6.151000
20
0.000000
30
-11.250000
70
192
0
VERTEX
8
OBJECT__113
10
14.800000
20
0.000000
30
-11.250000
70
192
0
VERTEX
8
OBJECT__113
10
14.800000
20
6.223000
30
-12.347000
70
192
0
VERTEX
8
OBJECT__113
10
14.800000
20
-6.223000
30
-12.347000
70
192
0
VERTEX
8
OBJECT__113
10
6.151000
20
17.407000
30
-17.851999
70
192
0
VERTEX
8
OBJECT__113
10
6.151000
20
6.282000
30
-12.013000
70
192
0
VERTEX
8
OBJECT__113
10
14.800000
20
8.978000
30
-12.833000
70
192
0
VERTEX
8
OBJECT__113
10
14.800000
20
16.872999
30
-17.391001
70
192
0
VERTEX
8
OBJECT__113
10
14.800000
20
17.320000
30
-17.924000
70
192
0
VERTEX
8
OBJECT__113
10
14.800000
20
22.733000
30
-24.375000
70
192
0
VERTEX
8
OBJECT__113
10
6.151000
20
24.544001
30
-28.191999
70
192
0
VERTEX
8
OBJECT__113
10
6.151000
20
26.059000
30
-40.664001
70
192
0
VERTEX
8
OBJECT__113
10
14.800000
20
25.851000
30
-32.942001
70
192
0
VERTEX
8
OBJECT__113
10
14.800000
20
24.172001
30
-28.327000
70
192
0
VERTEX
8
OBJECT__113
10
14.800000
20
25.851000
30
-42.057999
70
192
0
VERTEX
8
OBJECT__113
10
14.800000
20
22.733000
30
-50.625000
70
192
0
VERTEX
8
OBJECT__113
10
6.151000
20
21.603001
30
-52.411999
70
192
0
VERTEX
8
OBJECT__113
10
14.800000
20
25.851000
30
-40.664001
70
192
0
VERTEX
8
OBJECT__113
10
14.800000
20
21.386999
30
-52.230000
70
192
0
VERTEX
8
OBJECT__113
10
14.800000
20
16.872999
30
-57.609001
70
192
0
VERTEX
8
OBJECT__113
10
6.151000
20
12.199000
30
-60.743000
70
192
0
VERTEX
8
OBJECT__113
10
14.800000
20
8.978000
30
-62.167000
70
192
0
VERTEX
8
OBJECT__113
10
14.800000
20
12.010000
30
-60.416000
70
192
0
VERTEX
8
OBJECT__113
10
0
20
0
30
0
70
128
71
1
72
2
73
3
0
VERTEX
8
OBJECT__113
10
0
20
0
30
0
70
128
71
3
72
4
73
1
0
VERTEX
8
OBJECT__113
10
0
20
0
30
0
70
128
71
5
72
4
73
6
0
VERTEX
8
OBJECT__113
10
0
20
0
30
0
70
128
71
4
72
7
73
6
0
VERTEX
8
OBJECT__113
10
0
20
0
30
0
70
128
71
8
72
5
73
9
0
VERTEX
8
OBJECT__113
10
0
20
0
30
0
70
128
71
9
72
10
73
8
0
VERTEX
8
OBJECT__113
10
0
20
0
30
0
70
128
71
5
72
11
73
9
0
VERTEX
8
OBJECT__113
10
0
20
0
30
0
70
128
71
8
72
12
73
13
0
VERTEX
8
OBJECT__113
10
0
20
0
30
0
70
128
71
13
72
14
73
8
0
VERTEX
8
OBJECT__113
10
0
20
0
30
0
70
128
71
15
72
14
73
16
0
VERTEX
8
OBJECT__113
10
0
20
0
30
0
70
128
71
14
72
17
73
16
0
VERTEX
8
OBJECT__113
10
0
20
0
30
0
70
128
71
15
72
18
73
19
0
VERTEX
8
OBJECT__113
10
0
20
0
30
0
70
128
71
15
72
20
73
18
0
VERTEX
8
OBJECT__113
10
0
20
0
30
0
70
128
71
19
72
21
73
15
0
VERTEX
8
OBJECT__113
10
0
20
0
30
0
70
128
71
22
72
23
73
24
0
VERTEX
8
OBJECT__113
10
0
20
0
30
0
70
128
71
22
72
21
73
25
0
VERTEX
8
OBJECT__113
10
0
20
0
30
0
70
128
71
25
72
23
73
22
0
VERTEX
8
OBJECT__113
10
0
20
0
30
0
70
128
71
26
72
27
73
28
0
VERTEX
8
OBJECT__113
10
0
20
0
30
0
70
128
71
28
72
29
73
26
0
VERTEX
8
OBJECT__113
10
0
20
0
30
0
70
128
71
27
72
24
73
28
0
VERTEX
8
OBJECT__113
10
0
20
0
30
0
70
128
71
26
72
30
73
31
0
VERTEX
8
OBJECT__113
10
0
20
0
30
0
70
128
71
31
72
32
73
26
0
VERTEX
8
OBJECT__113
10
0
20
0
30
0
70
128
71
33
72
32
73
34
0
VERTEX
8
OBJECT__113
10
0
20
0
30
0
70
128
71
32
72
35
73
34
0
VERTEX
8
OBJECT__113
10
0
20
0
30
0
70
128
71
33
72
36
73
37
0
VERTEX
8
OBJECT__113
10
0
20
0
30
0
70
128
71
37
72
38
73
33
0
VERTEX
8
OBJECT__113
10
0
20
0
30
0
70
128
71
33
72
39
73
36
0
VERTEX
8
OBJECT__113
10
0
20
0
30
0
70
128
71
38
72
40
73
41
0
VERTEX
8
OBJECT__113
10
0
20
0
30
0
70
128
71
41
72
42
73
38
0
VERTEX
8
OBJECT__113
10
0
20
0
30
0
70
128
71
1
72
42
73
43
0
VERTEX
8
OBJECT__113
10
0
20
0
30
0
70
128
71
42
72
44
73
43
0
VERTEX
8
OBJECT__113
10
0
20
0
30
0
70
128
71
43
72
2
73
1
0
VERTEX
8
OBJECT__113
10
0
20
0
30
0
70
128
71
41
72
44
73
42
0
VERTEX
8
OBJECT__113
10
0
20
0
30
0
70
128
71
37
72
40
73
38
0
VERTEX
8
OBJECT__113
10
0
20
0
30
0
70
128
71
34
72
39
73
33
0
VERTEX
8
OBJECT__113
10
0
20
0
30
0
70
128
71
31
72
35
73
32
0
VERTEX
8
OBJECT__113
10
0
20
0
30
0
70
128
71
29
72
30
73
26
0
VERTEX
8
OBJECT__113
10
0
20
0
30
0
70
128
71
24
72
27
73
22
0
VERTEX
8
OBJECT__113
10
0
20
0
30
0
70
128
71
19
72
25
73
21
0
VERTEX
8
OBJECT__113
10
0
20
0
30
0
70
128
71
16
72
20
73
15
0
VERTEX
8
OBJECT__113
10
0
20
0
30
0
70
128
71
13
72
17
73
14
0
VERTEX
8
OBJECT__113
10
0
20
0
30
0
70
128
71
10
72
12
73
8
0
VERTEX
8
OBJECT__113
10
0
20
0
30
0
70
128
71
6
72
11
73
5
0
VERTEX
8
OBJECT__113
10
0
20
0
30
0
70
128
71
3
72
7
73
4
0
SEQEND
8
OBJECT__113
0
POLYLINE
8
OBJECT__114
66
1
70
64
71
24
72
24
62
253
0
VERTEX
8
OBJECT__114
10
45.424999
20
9.923000
30
62.941002
70
192
0
VERTEX
8
OBJECT__114
10
16.850000
20
9.923000
30
62.941002
70
192
0
VERTEX
8
OBJECT__114
10
16.850000
20
0.000000
30
65.853996
70
192
0
VERTEX
8
OBJECT__114
10
45.424999
20
16.695999
30
55.125000
70
192
0
VERTEX
8
OBJECT__114
10
45.424999
20
18.167999
30
44.888000
70
192
0
VERTEX
8
OBJECT__114
10
16.850000
20
18.167999
30
44.888000
70
192
0
VERTEX
8
OBJECT__114
10
16.850000
20
16.695999
30
55.125000
70
192
0
VERTEX
8
OBJECT__114
10
16.850000
20
13.871000
30
35.480000
70
192
0
VERTEX
8
OBJECT__114
10
16.850000
20
5.171000
30
29.889000
70
192
0
VERTEX
8
OBJECT__114
10
45.424999
20
13.871000
30
35.480000
70
192
0
VERTEX
8
OBJECT__114
10
45.424999
20
-5.171000
30
29.889000
70
192
0
VERTEX
8
OBJECT__114
10
16.850000
20
-5.171000
30
29.889000
70
192
0
VERTEX
8
OBJECT__114
10
16.850000
20
0.000000
30
29.146000
70
192
0
VERTEX
8
OBJECT__114
10
45.424999
20
5.171000
30
29.889000
70
192
0
VERTEX
8
OBJECT__114
10
16.850000
20
-13.871000
30
35.480000
70
192
0
VERTEX
8
OBJECT__114
10
45.424999
20
-13.871000
30
35.480000
70
192
0
VERTEX
8
OBJECT__114
10
45.424999
20
-18.167999
30
44.888000
70
192
0
VERTEX
8
OBJECT__114
10
16.850000
20
-18.167999
30
44.888000
70
192
0
VERTEX
8
OBJECT__114
10
16.850000
20
-16.695999
30
55.125000
70
192
0
VERTEX
8
OBJECT__114
10
45.424999
20
-18.354000
30
47.500000
70
192
0
VERTEX
8
OBJECT__114
10
45.424999
20
-9.923000
30
62.941002
70
192
0
VERTEX
8
OBJECT__114
10
16.850000
20
-9.923000
30
62.941002
70
192
0
VERTEX
8
OBJECT__114
10
45.424999
20
0.000000
30
65.853996
70
192
0
VERTEX
8
OBJECT__114
10
45.424999
20
-16.695999
30
55.125000
70
192
0
VERTEX
8
OBJECT__114
10
0
20
0
30
0
70
128
71
1
72
2
73
3
0
VERTEX
8
OBJECT__114
10
0
20
0
30
0
70
128
71
2
72
1
73
4
0
VERTEX
8
OBJECT__114
10
0
20
0
30
0
70
128
71
5
72
6
73
7
0
VERTEX
8
OBJECT__114
10
0
20
0
30
0
70
128
71
8
72
6
73
5
0
VERTEX
8
OBJECT__114
10
0
20
0
30
0
70
128
71
9
72
8
73
10
0
VERTEX
8
OBJECT__114
10
0
20
0
30
0
70
128
71
11
72
12
73
13
0
VERTEX
8
OBJECT__114
10
0
20
0
30
0
70
128
71
13
72
14
73
11
0
VERTEX
8
OBJECT__114
10
0
20
0
30
0
70
128
71
15
72
12
73
11
0
VERTEX
8
OBJECT__114
10
0
20
0
30
0
70
128
71
16
72
17
73
18
0
VERTEX
8
OBJECT__114
10
0
20
0
30
0
70
128
71
19
72
18
73
20
0
VERTEX
8
OBJECT__114
10
0
20
0
30
0
70
128
71
18
72
17
73
20
0
VERTEX
8
OBJECT__114
10
0
20
0
30
0
70
128
71
21
72
22
73
19
0
VERTEX
8
OBJECT__114
10
0
20
0
30
0
70
128
71
23
72
3
73
22
0
VERTEX
8
OBJECT__114
10
0
20
0
30
0
70
128
71
22
72
21
73
23
0
VERTEX
8
OBJECT__114
10
0
20
0
30
0
70
128
71
19
72
24
73
21
0
VERTEX
8
OBJECT__114
10
0
20
0
30
0
70
128
71
20
72
24
73
19
0
VERTEX
8
OBJECT__114
10
0
20
0
30
0
70
128
71
18
72
15
73
16
0
VERTEX
8
OBJECT__114
10
0
20
0
30
0
70
128
71
11
72
16
73
15
0
VERTEX
8
OBJECT__114
10
0
20
0
30
0
70
128
71
13
72
9
73
14
0
VERTEX
8
OBJECT__114
10
0
20
0
30
0
70
128
71
10
72
14
73
9
0
VERTEX
8
OBJECT__114
10
0
20
0
30
0
70
128
71
5
72
10
73
8
0
VERTEX
8
OBJECT__114
10
0
20
0
30
0
70
128
71
7
72
4
73
5
0
VERTEX
8
OBJECT__114
10
0
20
0
30
0
70
128
71
4
72
7
73
2
0
VERTEX
8
OBJECT__114
10
0
20
0
30
0
70
128
71
3
72
23
73
1
0
SEQEND
8
OBJECT__114
0
POLYLINE
8
OBJECT__115
66
1
70
64
71
30
72
30
62
253
0
VERTEX
8
OBJECT__115
10
16.850000
20
0.000000
30
23.250000
70
192
0
VERTEX
8
OBJECT__115
10
16.850000
20
0.000000
30
29.146000
70
192
0
VERTEX
8
OBJECT__115
10
16.850000
20
-5.171000
30
29.889000
70
192
0
VERTEX
8
OBJECT__115
10
16.850000
20
8.294000
30
24.712000
70
192
0
VERTEX
8
OBJECT__115
10
16.850000
20
5.171000
30
29.889000
70
192
0
VERTEX
8
OBJECT__115
10
16.850000
20
15.588000
30
28.923000
70
192
0
VERTEX
8
OBJECT__115
10
16.850000
20
-18.167999
30
44.888000
70
192
0
VERTEX
8
OBJECT__115
10
16.850000
20
-23.882000
30
43.289001
70
192
0
VERTEX
8
OBJECT__115
10
16.850000
20
-21.000999
30
35.375000
70
192
0
VERTEX
8
OBJECT__115
10
16.850000
20
-13.871000
30
35.480000
70
192
0
VERTEX
8
OBJECT__115
10
16.850000
20
-15.588000
30
28.923000
70
192
0
VERTEX
8
OBJECT__115
10
16.850000
20
13.871000
30
35.480000
70
192
0
VERTEX
8
OBJECT__115
10
16.850000
20
0.000000
30
65.853996
70
192
0
VERTEX
8
OBJECT__115
10
16.850000
20
0.000000
30
71.750000
70
192
0
VERTEX
8
OBJECT__115
10
16.850000
20
-8.294000
30
70.288002
70
192
0
VERTEX
8
OBJECT__115
10
16.850000
20
-16.695999
30
55.125000
70
192
0
VERTEX
8
OBJECT__115
10
16.850000
20
-23.882000
30
51.710999
70
192
0
VERTEX
8
OBJECT__115
10
16.850000
20
-8.294000
30
24.712000
70
192
0
VERTEX
8
OBJECT__115
10
16.850000
20
9.923000
30
62.941002
70
192
0
VERTEX
8
OBJECT__115
10
16.850000
20
8.294000
30
70.288002
70
192
0
VERTEX
8
OBJECT__115
10
16.850000
20
-9.923000
30
62.941002
70
192
0
VERTEX
8
OBJECT__115
10
16.850000
20
-15.588000
30
66.077003
70
192
0
VERTEX
8
OBJECT__115
10
16.850000
20
-21.000999
30
59.625000
70
192
0
VERTEX
8
OBJECT__115
10
16.850000
20
18.167999
30
44.888000
70
192
0
VERTEX
8
OBJECT__115
10
16.850000
20
23.882000
30
43.289001
70
192
0
VERTEX
8
OBJECT__115
10
16.850000
20
23.882000
30
51.710999
70
192
0
VERTEX
8
OBJECT__115
10
16.850000
20
16.695999
30
55.125000
70
192
0
VERTEX
8
OBJECT__115
10
16.850000
20
21.000999
30
59.625000
70
192
0
VERTEX
8
OBJECT__115
10
16.850000
20
15.588000
30
66.077003
70
192
0
VERTEX
8
OBJECT__115
10
16.850000
20
21.000999
30
35.375000
70
192
0
VERTEX
8
OBJECT__115
10
0
20
0
30
0
70
128
71
1
72
2
73
3
0
VERTEX
8
OBJECT__115
10
0
20
0
30
0
70
128
71
1
72
4
73
5
0
VERTEX
8
OBJECT__115
10
0
20
0
30
0
70
128
71
5
72
2
73
1
0
VERTEX
8
OBJECT__115
10
0
20
0
30
0
70
128
71
5
72
4
73
6
0
VERTEX
8
OBJECT__115
10
0
20
0
30
0
70
128
71
7
72
8
73
9
0
VERTEX
8
OBJECT__115
10
0
20
0
30
0
70
128
71
3
72
10
73
11
0
VERTEX
8
OBJECT__115
10
0
20
0
30
0
70
128
71
6
72
12
73
5
0
VERTEX
8
OBJECT__115
10
0
20
0
30
0
70
128
71
13
72
14
73
15
0
VERTEX
8
OBJECT__115
10
0
20
0
30
0
70
128
71
7
72
16
73
17
0
VERTEX
8
OBJECT__115
10
0
20
0
30
0
70
128
71
9
72
10
73
7
0
VERTEX
8
OBJECT__115
10
0
20
0
30
0
70
128
71
3
72
18
73
1
0
VERTEX
8
OBJECT__115
10
0
20
0
30
0
70
128
71
13
72
19
73
20
0
VERTEX
8
OBJECT__115
10
0
20
0
30
0
70
128
71
15
72
21
73
13
0
VERTEX
8
OBJECT__115
10
0
20
0
30
0
70
128
71
16
72
21
73
22
0
VERTEX
8
OBJECT__115
10
0
20
0
30
0
70
128
71
16
72
23
73
17
0
VERTEX
8
OBJECT__115
10
0
20
0
30
0
70
128
71
11
72
18
73
3
0
VERTEX
8
OBJECT__115
10
0
20
0
30
0
70
128
71
24
72
25
73
26
0
VERTEX
8
OBJECT__115
10
0
20
0
30
0
70
128
71
27
72
28
73
29
0
VERTEX
8
OBJECT__115
10
0
20
0
30
0
70
128
71
19
72
29
73
20
0
VERTEX
8
OBJECT__115
10
0
20
0
30
0
70
128
71
22
72
23
73
16
0
VERTEX
8
OBJECT__115
10
0
20
0
30
0
70
128
71
9
72
11
73
10
0
VERTEX
8
OBJECT__115
10
0
20
0
30
0
70
128
71
24
72
12
73
30
0
VERTEX
8
OBJECT__115
10
0
20
0
30
0
70
128
71
26
72
27
73
24
0
VERTEX
8
OBJECT__115
10
0
20
0
30
0
70
128
71
20
72
14
73
13
0
VERTEX
8
OBJECT__115
10
0
20
0
30
0
70
128
71
17
72
8
73
7
0
VERTEX
8
OBJECT__115
10
0
20
0
30
0
70
128
71
12
72
6
73
30
0
VERTEX
8
OBJECT__115
10
0
20
0
30
0
70
128
71
29
72
19
73
27
0
VERTEX
8
OBJECT__115
10
0
20
0
30
0
70
128
71
30
72
25
73
24
0
VERTEX
8
OBJECT__115
10
0
20
0
30
0
70
128
71
15
72
22
73
21
0
VERTEX
8
OBJECT__115
10
0
20
0
30
0
70
128
71
26
72
28
73
27
0
SEQEND
8
OBJECT__115
0
POLYLINE
8
OBJECT__117
66
1
70
64
71
66
72
84
62
253
0
VERTEX
8
OBJECT__117
10
16.264000
20
0.000000
30
21.836000
70
192
0
VERTEX
8
OBJECT__117
10
14.850000
20
0.000000
30
21.250000
70
192
0
VERTEX
8
OBJECT__117
10
14.850000
20
6.223000
30
22.347000
70
192
0
VERTEX
8
OBJECT__117
10
16.264000
20
8.778000
30
23.384001
70
192
0
VERTEX
8
OBJECT__117
10
14.850000
20
8.978000
30
22.833000
70
192
0
VERTEX
8
OBJECT__117
10
14.850000
20
16.872999
30
27.391001
70
192
0
VERTEX
8
OBJECT__117
10
16.264000
20
16.497000
30
27.840000
70
192
0
VERTEX
8
OBJECT__117
10
16.264000
20
22.226000
30
34.667999
70
192
0
VERTEX
8
OBJECT__117
10
14.850000
20
17.320000
30
27.924000
70
192
0
VERTEX
8
OBJECT__117
10
16.264000
20
25.274000
30
43.042999
70
192
0
VERTEX
8
OBJECT__117
10
14.850000
20
24.172001
30
38.327000
70
192
0
VERTEX
8
OBJECT__117
10
14.850000
20
22.733000
30
34.375000
70
192
0
VERTEX
8
OBJECT__117
10
14.850000
20
25.851000
30
42.942001
70
192
0
VERTEX
8
OBJECT__117
10
14.850000
20
25.851000
30
50.664001
70
192
0
VERTEX
8
OBJECT__117
10
16.264000
20
25.274000
30
51.957001
70
192
0
VERTEX
8
OBJECT__117
10
14.850000
20
25.851000
30
52.057999
70
192
0
VERTEX
8
OBJECT__117
10
14.850000
20
22.733000
30
60.625000
70
192
0
VERTEX
8
OBJECT__117
10
16.264000
20
22.226000
30
60.332001
70
192
0
VERTEX
8
OBJECT__117
10
16.264000
20
16.497000
30
67.160004
70
192
0
VERTEX
8
OBJECT__117
10
14.850000
20
21.386999
30
62.230000
70
192
0
VERTEX
8
OBJECT__117
10
14.850000
20
16.872999
30
67.609001
70
192
0
VERTEX
8
OBJECT__117
10
14.850000
20
12.010000
30
70.416000
70
192
0
VERTEX
8
OBJECT__117
10
16.264000
20
8.778000
30
71.615997
70
192
0
VERTEX
8
OBJECT__117
10
14.850000
20
8.978000
30
72.167000
70
192
0
VERTEX
8
OBJECT__117
10
14.850000
20
0.000000
30
73.750000
70
192
0
VERTEX
8
OBJECT__117
10
16.264000
20
0.000000
30
73.164001
70
192
0
VERTEX
8
OBJECT__117
10
14.850000
20
-8.978000
30
72.167000
70
192
0
VERTEX
8
OBJECT__117
10
16.264000
20
-8.778000
30
71.615997
70
192
0
VERTEX
8
OBJECT__117
10
16.264000
20
-16.497000
30
67.160004
70
192
0
VERTEX
8
OBJECT__117
10
14.850000
20
-12.010000
30
70.416000
70
192
0
VERTEX
8
OBJECT__117
10
14.850000
20
-16.872999
30
67.609001
70
192
0
VERTEX
8
OBJECT__117
10
14.850000
20
-21.386999
30
62.230000
70
192
0
VERTEX
8
OBJECT__117
10
16.264000
20
-22.226000
30
60.332001
70
192
0
VERTEX
8
OBJECT__117
10
14.850000
20
-25.851000
30
52.057999
70
192
0
VERTEX
8
OBJECT__117
10
16.264000
20
-25.274000
30
51.957001
70
192
0
VERTEX
8
OBJECT__117
10
16.264000
20
-25.274000
30
43.042999
70
192
0
VERTEX
8
OBJECT__117
10
14.850000
20
-25.851000
30
50.664001
70
192
0
VERTEX
8
OBJECT__117
10
14.850000
20
-25.851000
30
42.942001
70
192
0
VERTEX
8
OBJECT__117
10
14.850000
20
-24.172001
30
38.327000
70
192
0
VERTEX
8
OBJECT__117
10
16.264000
20
-22.226000
30
34.667999
70
192
0
VERTEX
8
OBJECT__117
10
14.850000
20
-22.733000
30
34.375000
70
192
0
VERTEX
8
OBJECT__117
10
14.850000
20
-17.320000
30
27.924000
70
192
0
VERTEX
8
OBJECT__117
10
16.264000
20
-16.497000
30
27.840000
70
192
0
VERTEX
8
OBJECT__117
10
14.850000
20
-8.978000
30
22.833000
70
192
0
VERTEX
8
OBJECT__117
10
16.264000
20
-8.778000
30
23.384001
70
192
0
VERTEX
8
OBJECT__117
10
14.850000
20
-6.223000
30
22.347000
70
192
0
VERTEX
8
OBJECT__117
10
16.850000
20
8.294000
30
24.712000
70
192
0
VERTEX
8
OBJECT__117
10
16.850000
20
0.000000
30
23.250000
70
192
0
VERTEX
8
OBJECT__117
10
16.850000
20
15.588000
30
28.923000
70
192
0
VERTEX
8
OBJECT__117
10
16.850000
20
21.000999
30
35.375000
70
192
0
VERTEX
8
OBJECT__117
10
16.850000
20
23.882000
30
43.289001
70
192
0
VERTEX
8
OBJECT__117
10
16.850000
20
23.882000
30
51.710999
70
192
0
VERTEX
8
OBJECT__117
10
16.850000
20
21.000999
30
59.625000
70
192
0
VERTEX
8
OBJECT__117
10
16.850000
20
15.588000
30
66.077003
70
192
0
VERTEX
8
OBJECT__117
10
16.850000
20
8.294000
30
70.288002
70
192
0
VERTEX
8
OBJECT__117
10
16.850000
20
0.000000
30
71.750000
70
192
0
VERTEX
8
OBJECT__117
10
16.850000
20
-8.294000
30
70.288002
70
192
0
VERTEX
8
OBJECT__117
10
16.850000
20
-15.588000
30
66.077003
70
192
0
VERTEX
8
OBJECT__117
10
16.850000
20
-21.000999
30
59.625000
70
192
0
VERTEX
8
OBJECT__117
10
16.850000
20
-23.882000
30
51.710999
70
192
0
VERTEX
8
OBJECT__117
10
16.850000
20
-23.882000
30
43.289001
70
192
0
VERTEX
8
OBJECT__117
10
16.850000
20
-21.000999
30
35.375000
70
192
0
VERTEX
8
OBJECT__117
10
16.850000
20
-15.588000
30
28.923000
70
192
0
VERTEX
8
OBJECT__117
10
16.850000
20
-8.294000
30
24.712000
70
192
0
VERTEX
8
OBJECT__117
10
14.850000
20
-16.872999
30
27.391001
70
192
0
VERTEX
8
OBJECT__117
10
14.850000
20
-22.733000
30
60.625000
70
192
0
VERTEX
8
OBJECT__117
10
0
20
0
30
0
70
128
71
1
72
2
73
3
0
VERTEX
8
OBJECT__117
10
0
20
0
30
0
70
128
71
3
72
4
73
1
0
VERTEX
8
OBJECT__117
10
0
20
0
30
0
70
128
71
5
72
6
73
7
0
VERTEX
8
OBJECT__117
10
0
20
0
30
0
70
128
71
8
72
7
73
9
0
VERTEX
8
OBJECT__117
10
0
20
0
30
0
70
128
71
7
72
6
73
9
0
VERTEX
8
OBJECT__117
10
0
20
0
30
0
70
128
71
10
72
8
73
11
0
VERTEX
8
OBJECT__117
10
0
20
0
30
0
70
128
71
8
72
12
73
11
0
VERTEX
8
OBJECT__117
10
0
20
0
30
0
70
128
71
10
72
13
73
14
0
VERTEX
8
OBJECT__117
10
0
20
0
30
0
70
128
71
14
72
15
73
10
0
VERTEX
8
OBJECT__117
10
0
20
0
30
0
70
128
71
16
72
17
73
18
0
VERTEX
8
OBJECT__117
10
0
20
0
30
0
70
128
71
19
72
18
73
20
0
VERTEX
8
OBJECT__117
10
0
20
0
30
0
70
128
71
18
72
17
73
20
0
VERTEX
8
OBJECT__117
10
0
20
0
30
0
70
128
71
19
72
21
73
22
0
VERTEX
8
OBJECT__117
10
0
20
0
30
0
70
128
71
22
72
23
73
19
0
VERTEX
8
OBJECT__117
10
0
20
0
30
0
70
128
71
24
72
25
73
26
0
VERTEX
8
OBJECT__117
10
0
20
0
30
0
70
128
71
27
72
28
73
26
0
VERTEX
8
OBJECT__117
10
0
20
0
30
0
70
128
71
29
72
28
73
30
0
VERTEX
8
OBJECT__117
10
0
20
0
30
0
70
128
71
28
72
27
73
30
0
VERTEX
8
OBJECT__117
10
0
20
0
30
0
70
128
71
29
72
31
73
32
0
VERTEX
8
OBJECT__117
10
0
20
0
30
0
70
128
71
32
72
33
73
29
0
VERTEX
8
OBJECT__117
10
0
20
0
30
0
70
128
71
34
72
35
73
33
0
VERTEX
8
OBJECT__117
10
0
20
0
30
0
70
128
71
36
72
35
73
37
0
VERTEX
8
OBJECT__117
10
0
20
0
30
0
70
128
71
35
72
34
73
37
0
VERTEX
8
OBJECT__117
10
0
20
0
30
0
70
128
71
36
72
38
73
39
0
VERTEX
8
OBJECT__117
10
0
20
0
30
0
70
128
71
39
72
40
73
36
0
VERTEX
8
OBJECT__117
10
0
20
0
30
0
70
128
71
40
72
41
73
42
0
VERTEX
8
OBJECT__117
10
0
20
0
30
0
70
128
71
42
72
43
73
40
0
VERTEX
8
OBJECT__117
10
0
20
0
30
0
70
128
71
44
72
45
73
43
0
VERTEX
8
OBJECT__117
10
0
20
0
30
0
70
128
71
1
72
45
73
46
0
VERTEX
8
OBJECT__117
10
0
20
0
30
0
70
128
71
45
72
44
73
46
0
VERTEX
8
OBJECT__117
10
0
20
0
30
0
70
128
71
4
72
47
73
48
0
VERTEX
8
OBJECT__117
10
0
20
0
30
0
70
128
71
7
72
49
73
47
0
VERTEX
8
OBJECT__117
10
0
20
0
30
0
70
128
71
8
72
50
73
49
0
VERTEX
8
OBJECT__117
10
0
20
0
30
0
70
128
71
10
72
51
73
50
0
VERTEX
8
OBJECT__117
10
0
20
0
30
0
70
128
71
10
72
15
73
52
0
VERTEX
8
OBJECT__117
10
0
20
0
30
0
70
128
71
18
72
53
73
52
0
VERTEX
8
OBJECT__117
10
0
20
0
30
0
70
128
71
19
72
54
73
53
0
VERTEX
8
OBJECT__117
10
0
20
0
30
0
70
128
71
23
72
55
73
54
0
VERTEX
8
OBJECT__117
10
0
20
0
30
0
70
128
71
26
72
56
73
55
0
VERTEX
8
OBJECT__117
10
0
20
0
30
0
70
128
71
26
72
28
73
57
0
VERTEX
8
OBJECT__117
10
0
20
0
30
0
70
128
71
28
72
29
73
58
0
VERTEX
8
OBJECT__117
10
0
20
0
30
0
70
128
71
33
72
59
73
58
0
VERTEX
8
OBJECT__117
10
0
20
0
30
0
70
128
71
35
72
60
73
59
0
VERTEX
8
OBJECT__117
10
0
20
0
30
0
70
128
71
35
72
36
73
61
0
VERTEX
8
OBJECT__117
10
0
20
0
30
0
70
128
71
36
72
40
73
62
0
VERTEX
8
OBJECT__117
10
0
20
0
30
0
70
128
71
40
72
43
73
63
0
VERTEX
8
OBJECT__117
10
0
20
0
30
0
70
128
71
45
72
64
73
63
0
VERTEX
8
OBJECT__117
10
0
20
0
30
0
70
128
71
1
72
48
73
64
0
VERTEX
8
OBJECT__117
10
0
20
0
30
0
70
128
71
64
72
45
73
1
0
VERTEX
8
OBJECT__117
10
0
20
0
30
0
70
128
71
63
72
43
73
45
0
VERTEX
8
OBJECT__117
10
0
20
0
30
0
70
128
71
63
72
62
73
40
0
VERTEX
8
OBJECT__117
10
0
20
0
30
0
70
128
71
62
72
61
73
36
0
VERTEX
8
OBJECT__117
10
0
20
0
30
0
70
128
71
61
72
60
73
35
0
VERTEX
8
OBJECT__117
10
0
20
0
30
0
70
128
71
59
72
33
73
35
0
VERTEX
8
OBJECT__117
10
0
20
0
30
0
70
128
71
58
72
29
73
33
0
VERTEX
8
OBJECT__117
10
0
20
0
30
0
70
128
71
58
72
57
73
28
0
VERTEX
8
OBJECT__117
10
0
20
0
30
0
70
128
71
57
72
56
73
26
0
VERTEX
8
OBJECT__117
10
0
20
0
30
0
70
128
71
55
72
23
73
26
0
VERTEX
8
OBJECT__117
10
0
20
0
30
0
70
128
71
54
72
19
73
23
0
VERTEX
8
OBJECT__117
10
0
20
0
30
0
70
128
71
53
72
18
73
19
0
VERTEX
8
OBJECT__117
10
0
20
0
30
0
70
128
71
52
72
15
73
18
0
VERTEX
8
OBJECT__117
10
0
20
0
30
0
70
128
71
52
72
51
73
10
0
VERTEX
8
OBJECT__117
10
0
20
0
30
0
70
128
71
50
72
8
73
10
0
VERTEX
8
OBJECT__117
10
0
20
0
30
0
70
128
71
49
72
7
73
8
0
VERTEX
8
OBJECT__117
10
0
20
0
30
0
70
128
71
47
72
4
73
7
0
VERTEX
8
OBJECT__117
10
0
20
0
30
0
70
128
71
48
72
1
73
4
0
VERTEX
8
OBJECT__117
10
0
20
0
30
0
70
128
71
46
72
2
73
1
0
VERTEX
8
OBJECT__117
10
0
20
0
30
0
70
128
71
43
72
65
73
44
0
VERTEX
8
OBJECT__117
10
0
20
0
30
0
70
128
71
42
72
65
73
43
0
VERTEX
8
OBJECT__117
10
0
20
0
30
0
70
128
71
39
72
41
73
40
0
VERTEX
8
OBJECT__117
10
0
20
0
30
0
70
128
71
37
72
38
73
36
0
VERTEX
8
OBJECT__117
10
0
20
0
30
0
70
128
71
33
72
66
73
34
0
VERTEX
8
OBJECT__117
10
0
20
0
30
0
70
128
71
32
72
66
73
33
0
VERTEX
8
OBJECT__117
10
0
20
0
30
0
70
128
71
30
72
31
73
29
0
VERTEX
8
OBJECT__117
10
0
20
0
30
0
70
128
71
26
72
25
73
27
0
VERTEX
8
OBJECT__117
10
0
20
0
30
0
70
128
71
26
72
23
73
24
0
VERTEX
8
OBJECT__117
10
0
20
0
30
0
70
128
71
22
72
24
73
23
0
VERTEX
8
OBJECT__117
10
0
20
0
30
0
70
128
71
20
72
21
73
19
0
VERTEX
8
OBJECT__117
10
0
20
0
30
0
70
128
71
18
72
15
73
16
0
VERTEX
8
OBJECT__117
10
0
20
0
30
0
70
128
71
14
72
16
73
15
0
VERTEX
8
OBJECT__117
10
0
20
0
30
0
70
128
71
11
72
13
73
10
0
VERTEX
8
OBJECT__117
10
0
20
0
30
0
70
128
71
9
72
12
73
8
0
VERTEX
8
OBJECT__117
10
0
20
0
30
0
70
128
71
7
72
4
73
5
0
VERTEX
8
OBJECT__117
10
0
20
0
30
0
70
128
71
3
72
5
73
4
0
SEQEND
8
OBJECT__117
0
POLYLINE
8
OBJECT__118
66
1
70
64
71
44
72
44
62
253
0
VERTEX
8
OBJECT__118
10
6.201000
20
0.000000
30
73.750000
70
192
0
VERTEX
8
OBJECT__118
10
14.850000
20
0.000000
30
73.750000
70
192
0
VERTEX
8
OBJECT__118
10
14.850000
20
8.978000
30
72.167000
70
192
0
VERTEX
8
OBJECT__118
10
6.201000
20
12.199000
30
70.742996
70
192
0
VERTEX
8
OBJECT__118
10
6.201000
20
21.603001
30
62.411999
70
192
0
VERTEX
8
OBJECT__118
10
14.850000
20
16.872999
30
67.609001
70
192
0
VERTEX
8
OBJECT__118
10
14.850000
20
12.010000
30
70.416000
70
192
0
VERTEX
8
OBJECT__118
10
6.201000
20
26.059000
30
50.664001
70
192
0
VERTEX
8
OBJECT__118
10
14.850000
20
22.733000
30
60.625000
70
192
0
VERTEX
8
OBJECT__118
10
14.850000
20
25.851000
30
52.057999
70
192
0
VERTEX
8
OBJECT__118
10
14.850000
20
21.386999
30
62.230000
70
192
0
VERTEX
8
OBJECT__118
10
14.850000
20
25.851000
30
50.664001
70
192
0
VERTEX
8
OBJECT__118
10
14.850000
20
25.851000
30
42.942001
70
192
0
VERTEX
8
OBJECT__118
10
6.201000
20
24.544001
30
38.192001
70
192
0
VERTEX
8
OBJECT__118
10
6.201000
20
17.407000
30
27.851999
70
192
0
VERTEX
8
OBJECT__118
10
14.850000
20
22.733000
30
34.375000
70
192
0
VERTEX
8
OBJECT__118
10
14.850000
20
24.172001
30
38.327000
70
192
0
VERTEX
8
OBJECT__118
10
14.850000
20
16.872999
30
27.391001
70
192
0
VERTEX
8
OBJECT__118
10
14.850000
20
8.978000
30
22.833000
70
192
0
VERTEX
8
OBJECT__118
10
6.201000
20
6.282000
30
22.013000
70
192
0
VERTEX
8
OBJECT__118
10
14.850000
20
17.320000
30
27.924000
70
192
0
VERTEX
8
OBJECT__118
10
6.201000
20
0.000000
30
21.250000
70
192
0
VERTEX
8
OBJECT__118
10
14.850000
20
0.000000
30
21.250000
70
192
0
VERTEX
8
OBJECT__118
10
14.850000
20
-6.223000
30
22.347000
70
192
0
VERTEX
8
OBJECT__118
10
14.850000
20
6.223000
30
22.347000
70
192
0
VERTEX
8
OBJECT__118
10
6.201000
20
-17.407000
30
27.851999
70
192
0
VERTEX
8
OBJECT__118
10
6.201000
20
-6.282000
30
22.013000
70
192
0
VERTEX
8
OBJECT__118
10
14.850000
20
-8.978000
30
22.833000
70
192
0
VERTEX
8
OBJECT__118
10
14.850000
20
-16.872999
30
27.391001
70
192
0
VERTEX
8
OBJECT__118
10
14.850000
20
-17.320000
30
27.924000
70
192
0
VERTEX
8
OBJECT__118
10
14.850000
20
-22.733000
30
34.375000
70
192
0
VERTEX
8
OBJECT__118
10
6.201000
20
-24.544001
30
38.192001
70
192
0
VERTEX
8
OBJECT__118
10
6.201000
20
-26.059000
30
50.664001
70
192
0
VERTEX
8
OBJECT__118
10
14.850000
20
-25.851000
30
42.942001
70
192
0
VERTEX
8
OBJECT__118
10
14.850000
20
-24.172001
30
38.327000
70
192
0
VERTEX
8
OBJECT__118
10
14.850000
20
-25.851000
30
52.057999
70
192
0
VERTEX
8
OBJECT__118
10
14.850000
20
-22.733000
30
60.625000
70
192
0
VERTEX
8
OBJECT__118
10
6.201000
20
-21.603001
30
62.411999
70
192
0
VERTEX
8
OBJECT__118
10
14.850000
20
-25.851000
30
50.664001
70
192
0
VERTEX
8
OBJECT__118
10
14.850000
20
-21.386999
30
62.230000
70
192
0
VERTEX
8
OBJECT__118
10
14.850000
20
-16.872999
30
67.609001
70
192
0
VERTEX
8
OBJECT__118
10
6.201000
20
-12.199000
30
70.742996
70
192
0
VERTEX
8
OBJECT__118
10
14.850000
20
-8.978000
30
72.167000
70
192
0
VERTEX
8
OBJECT__118
10
14.850000
20
-12.010000
30
70.416000
70
192
0
VERTEX
8
OBJECT__118
10
0
20
0
30
0
70
128
71
1
72
2
73
3
0
VERTEX
8
OBJECT__118
10
0
20
0
30
0
70
128
71
3
72
4
73
1
0
VERTEX
8
OBJECT__118
10
0
20
0
30
0
70
128
71
5
72
4
73
6
0
VERTEX
8
OBJECT__118
10
0
20
0
30
0
70
128
71
4
72
7
73
6
0
VERTEX
8
OBJECT__118
10
0
20
0
30
0
70
128
71
8
72
5
73
9
0
VERTEX
8
OBJECT__118
10
0
20
0
30
0
70
128
71
9
72
10
73
8
0
VERTEX
8
OBJECT__118
10
0
20
0
30
0
70
128
71
5
72
11
73
9
0
VERTEX
8
OBJECT__118
10
0
20
0
30
0
70
128
71
8
72
12
73
13
0
VERTEX
8
OBJECT__118
10
0
20
0
30
0
70
128
71
13
72
14
73
8
0
VERTEX
8
OBJECT__118
10
0
20
0
30
0
70
128
71
15
72
14
73
16
0
VERTEX
8
OBJECT__118
10
0
20
0
30
0
70
128
71
14
72
17
73
16
0
VERTEX
8
OBJECT__118
10
0
20
0
30
0
70
128
71
15
72
18
73
19
0
VERTEX
8
OBJECT__118
10
0
20
0
30
0
70
128
71
19
72
20
73
15
0
VERTEX
8
OBJECT__118
10
0
20
0
30
0
70
128
71
15
72
21
73
18
0
VERTEX
8
OBJECT__118
10
0
20
0
30
0
70
128
71
22
72
23
73
24
0
VERTEX
8
OBJECT__118
10
0
20
0
30
0
70
128
71
22
72
20
73
25
0
VERTEX
8
OBJECT__118
10
0
20
0
30
0
70
128
71
25
72
23
73
22
0
VERTEX
8
OBJECT__118
10
0
20
0
30
0
70
128
71
26
72
27
73
28
0
VERTEX
8
OBJECT__118
10
0
20
0
30
0
70
128
71
28
72
29
73
26
0
VERTEX
8
OBJECT__118
10
0
20
0
30
0
70
128
71
27
72
24
73
28
0
VERTEX
8
OBJECT__118
10
0
20
0
30
0
70
128
71
26
72
30
73
31
0
VERTEX
8
OBJECT__118
10
0
20
0
30
0
70
128
71
31
72
32
73
26
0
VERTEX
8
OBJECT__118
10
0
20
0
30
0
70
128
71
33
72
32
73
34
0
VERTEX
8
OBJECT__118
10
0
20
0
30
0
70
128
71
32
72
35
73
34
0
VERTEX
8
OBJECT__118
10
0
20
0
30
0
70
128
71
33
72
36
73
37
0
VERTEX
8
OBJECT__118
10
0
20
0
30
0
70
128
71
37
72
38
73
33
0
VERTEX
8
OBJECT__118
10
0
20
0
30
0
70
128
71
33
72
39
73
36
0
VERTEX
8
OBJECT__118
10
0
20
0
30
0
70
128
71
38
72
40
73
41
0
VERTEX
8
OBJECT__118
10
0
20
0
30
0
70
128
71
41
72
42
73
38
0
VERTEX
8
OBJECT__118
10
0
20
0
30
0
70
128
71
1
72
42
73
43
0
VERTEX
8
OBJECT__118
10
0
20
0
30
0
70
128
71
42
72
44
73
43
0
VERTEX
8
OBJECT__118
10
0
20
0
30
0
70
128
71
43
72
2
73
1
0
VERTEX
8
OBJECT__118
10
0
20
0
30
0
70
128
71
41
72
44
73
42
0
VERTEX
8
OBJECT__118
10
0
20
0
30
0
70
128
71
37
72
40
73
38
0
VERTEX
8
OBJECT__118
10
0
20
0
30
0
70
128
71
34
72
39
73
33
0
VERTEX
8
OBJECT__118
10
0
20
0
30
0
70
128
71
31
72
35
73
32
0
VERTEX
8
OBJECT__118
10
0
20
0
30
0
70
128
71
29
72
30
73
26
0
VERTEX
8
OBJECT__118
10
0
20
0
30
0
70
128
71
24
72
27
73
22
0
VERTEX
8
OBJECT__118
10
0
20
0
30
0
70
128
71
19
72
25
73
20
0
VERTEX
8
OBJECT__118
10
0
20
0
30
0
70
128
71
16
72
21
73
15
0
VERTEX
8
OBJECT__118
10
0
20
0
30
0
70
128
71
13
72
17
73
14
0
VERTEX
8
OBJECT__118
10
0
20
0
30
0
70
128
71
10
72
12
73
8
0
VERTEX
8
OBJECT__118
10
0
20
0
30
0
70
128
71
6
72
11
73
5
0
VERTEX
8
OBJECT__118
10
0
20
0
30
0
70
128
71
3
72
7
73
4
0
SEQEND
8
OBJECT__118
0
POLYLINE
8
OBJECT__119
66
1
70
64
71
19
72
17
62
253
0
VERTEX
8
OBJECT__119
10
55.584000
20
8.500000
30
-15.100000
70
192
0
VERTEX
8
OBJECT__119
10
55.599998
20
8.500000
30
-14.079000
70
192
0
VERTEX
8
OBJECT__119
10
55.599998
20
8.500000
30
-14.162000
70
192
0
VERTEX
8
OBJECT__119
10
55.599998
20
8.500000
30
-14.299000
70
192
0
VERTEX
8
OBJECT__119
10
55.599998
20
8.500000
30
-14.377000
70
192
0
VERTEX
8
OBJECT__119
10
55.599998
20
8.500000
30
-14.237000
70
192
0
VERTEX
8
OBJECT__119
10
55.599998
20
8.500000
30
-14.268000
70
192
0
VERTEX
8
OBJECT__119
10
55.599998
20
8.500000
30
-14.486000
70
192
0
VERTEX
8
OBJECT__119
10
55.599998
20
8.500000
30
-14.512000
70
192
0
VERTEX
8
OBJECT__119
10
55.599998
20
8.500000
30
-14.283000
70
192
0
VERTEX
8
OBJECT__119
10
55.599998
20
8.500000
30
-13.971000
70
192
0
VERTEX
8
OBJECT__119
10
55.599998
20
8.500000
30
-13.978000
70
192
0
VERTEX
8
OBJECT__119
10
55.599998
20
8.500000
30
-15.100000
70
192
0
VERTEX
8
OBJECT__119
10
35.692001
20
8.500000
30
-12.664000
70
192
0
VERTEX
8
OBJECT__119
10
55.599998
20
8.500000
30
-13.931000
70
192
0
VERTEX
8
OBJECT__119
10
55.599998
20
8.500000
30
-13.373000
70
192
0
VERTEX
8
OBJECT__119
10
35.700001
20
8.500000
30
-15.500000
70
192
0
VERTEX
8
OBJECT__119
10
55.599998
20
8.500000
30
-12.664000
70
192
0
VERTEX
8
OBJECT__119
10
55.584000
20
8.500000
30
-15.500000
70
192
0
VERTEX
8
OBJECT__119
10
0
20
0
30
0
70
128
71
1
72
2
73
3
0
VERTEX
8
OBJECT__119
10
0
20
0
30
0
70
128
71
1
72
4
73
5
0
VERTEX
8
OBJECT__119
10
0
20
0
30
0
70
128
71
6
72
7
73
1
0
VERTEX
8
OBJECT__119
10
0
20
0
30
0
70
128
71
3
72
6
73
1
0
VERTEX
8
OBJECT__119
10
0
20
0
30
0
70
128
71
1
72
8
73
9
0
VERTEX
8
OBJECT__119
10
0
20
0
30
0
70
128
71
5
72
8
73
1
0
VERTEX
8
OBJECT__119
10
0
20
0
30
0
70
128
71
1
72
10
73
4
0
VERTEX
8
OBJECT__119
10
0
20
0
30
0
70
128
71
1
72
11
73
12
0
VERTEX
8
OBJECT__119
10
0
20
0
30
0
70
128
71
7
72
10
73
1
0
VERTEX
8
OBJECT__119
10
0
20
0
30
0
70
128
71
9
72
13
73
1
0
VERTEX
8
OBJECT__119
10
0
20
0
30
0
70
128
71
12
72
2
73
1
0
VERTEX
8
OBJECT__119
10
0
20
0
30
0
70
128
71
14
72
15
73
11
0
VERTEX
8
OBJECT__119
10
0
20
0
30
0
70
128
71
11
72
1
73
14
0
VERTEX
8
OBJECT__119
10
0
20
0
30
0
70
128
71
14
72
16
73
15
0
VERTEX
8
OBJECT__119
10
0
20
0
30
0
70
128
71
17
72
14
73
1
0
VERTEX
8
OBJECT__119
10
0
20
0
30
0
70
128
71
14
72
18
73
16
0
VERTEX
8
OBJECT__119
10
0
20
0
30
0
70
128
71
1
72
19
73
17
0
SEQEND
8
OBJECT__119
0
POLYLINE
8
OBJECT__120
66
1
70
64
71
34
72
36
62
253
0
VERTEX
8
OBJECT__120
10
61.041000
20
6.382000
30
-12.053000
70
192
0
VERTEX
8
OBJECT__120
10
27.913000
20
3.407000
30
-11.472000
70
192
0
VERTEX
8
OBJECT__120
10
27.235001
20
0.775000
30
-11.261000
70
192
0
VERTEX
8
OBJECT__120
10
30.222000
20
6.352000
30
-12.045000
70
192
0
VERTEX
8
OBJECT__120
10
29.396000
20
5.702000
30
-11.877000
70
192
0
VERTEX
8
OBJECT__120
10
35.692001
20
8.500000
30
-12.664000
70
192
0
VERTEX
8
OBJECT__120
10
34.384998
20
8.398000
30
-12.629000
70
192
0
VERTEX
8
OBJECT__120
10
58.320000
20
7.449000
30
-12.329000
70
192
0
VERTEX
8
OBJECT__120
10
55.599998
20
8.500000
30
-12.664000
70
192
0
VERTEX
8
OBJECT__120
10
59.666000
20
7.464000
30
-12.334000
70
192
0
VERTEX
8
OBJECT__120
10
56.915001
20
8.398000
30
-12.629000
70
192
0
VERTEX
8
OBJECT__120
10
31.634001
20
7.464000
30
-12.334000
70
192
0
VERTEX
8
OBJECT__120
10
64.065002
20
0.775000
30
-11.261000
70
192
0
VERTEX
8
OBJECT__120
10
63.387001
20
3.407000
30
-11.472000
70
192
0
VERTEX
8
OBJECT__120
10
63.696999
20
1.715000
30
-11.306000
70
192
0
VERTEX
8
OBJECT__120
10
27.294001
20
0.001000
30
-11.280000
70
192
0
VERTEX
8
OBJECT__120
10
61.903999
20
5.702000
30
-11.877000
70
192
0
VERTEX
8
OBJECT__120
10
64.005997
20
0.001000
30
-11.280000
70
192
0
VERTEX
8
OBJECT__120
10
64.007004
20
0.015000
30
-11.280000
70
192
0
VERTEX
8
OBJECT__120
10
27.450001
20
-2.046000
30
-11.330000
70
192
0
VERTEX
8
OBJECT__120
10
28.622000
20
-4.706000
30
-11.675000
70
192
0
VERTEX
8
OBJECT__120
10
27.961000
20
-2.399000
30
-11.360000
70
192
0
VERTEX
8
OBJECT__120
10
30.312000
20
-6.508000
30
-12.079000
70
192
0
VERTEX
8
OBJECT__120
10
62.678001
20
-4.706000
30
-11.675000
70
192
0
VERTEX
8
OBJECT__120
10
63.849998
20
-2.046000
30
-11.330000
70
192
0
VERTEX
8
OBJECT__120
10
61.075001
20
-6.416000
30
-12.058000
70
192
0
VERTEX
8
OBJECT__120
10
55.599998
20
-8.500000
30
-12.664000
70
192
0
VERTEX
8
OBJECT__120
10
58.328999
20
-8.050000
30
-12.515000
70
192
0
VERTEX
8
OBJECT__120
10
60.748001
20
-6.764000
30
-12.136000
70
192
0
VERTEX
8
OBJECT__120
10
33.006001
20
-7.511000
30
-12.348000
70
192
0
VERTEX
8
OBJECT__120
10
35.700001
20
-8.500000
30
-12.664000
70
192
0
VERTEX
8
OBJECT__120
10
30.552000
20
-6.764000
30
-12.136000
70
192
0
VERTEX
8
OBJECT__120
10
32.971001
20
-8.050000
30
-12.515000
70
192
0
VERTEX
8
OBJECT__120
10
27.299999
20
-0.073000
30
-11.282000
70
192
0
VERTEX
8
OBJECT__120
10
0
20
0
30
0
70
128
71
1
72
2
73
3
0
VERTEX
8
OBJECT__120
10
0
20
0
30
0
70
128
71
1
72
4
73
5
0
VERTEX
8
OBJECT__120
10
0
20
0
30
0
70
128
71
5
72
2
73
1
0
VERTEX
8
OBJECT__120
10
0
20
0
30
0
70
128
71
4
72
6
73
7
0
VERTEX
8
OBJECT__120
10
0
20
0
30
0
70
128
71
4
72
8
73
9
0
VERTEX
8
OBJECT__120
10
0
20
0
30
0
70
128
71
9
72
6
73
4
0
VERTEX
8
OBJECT__120
10
0
20
0
30
0
70
128
71
4
72
1
73
8
0
VERTEX
8
OBJECT__120
10
0
20
0
30
0
70
128
71
8
72
10
73
11
0
VERTEX
8
OBJECT__120
10
0
20
0
30
0
70
128
71
11
72
9
73
8
0
VERTEX
8
OBJECT__120
10
0
20
0
30
0
70
128
71
8
72
1
73
10
0
VERTEX
8
OBJECT__120
10
0
20
0
30
0
70
128
71
7
72
12
73
4
0
VERTEX
8
OBJECT__120
10
0
20
0
30
0
70
128
71
13
72
14
73
15
0
VERTEX
8
OBJECT__120
10
0
20
0
30
0
70
128
71
16
72
15
73
14
0
VERTEX
8
OBJECT__120
10
0
20
0
30
0
70
128
71
14
72
17
73
16
0
VERTEX
8
OBJECT__120
10
0
20
0
30
0
70
128
71
16
72
18
73
19
0
VERTEX
8
OBJECT__120
10
0
20
0
30
0
70
128
71
19
72
15
73
16
0
VERTEX
8
OBJECT__120
10
0
20
0
30
0
70
128
71
17
72
1
73
16
0
VERTEX
8
OBJECT__120
10
0
20
0
30
0
70
128
71
15
72
19
73
13
0
VERTEX
8
OBJECT__120
10
0
20
0
30
0
70
128
71
20
72
21
73
22
0
VERTEX
8
OBJECT__120
10
0
20
0
30
0
70
128
71
23
72
24
73
25
0
VERTEX
8
OBJECT__120
10
0
20
0
30
0
70
128
71
23
72
26
73
24
0
VERTEX
8
OBJECT__120
10
0
20
0
30
0
70
128
71
27
72
28
73
29
0
VERTEX
8
OBJECT__120
10
0
20
0
30
0
70
128
71
26
72
30
73
31
0
VERTEX
8
OBJECT__120
10
0
20
0
30
0
70
128
71
31
72
27
73
26
0
VERTEX
8
OBJECT__120
10
0
20
0
30
0
70
128
71
26
72
23
73
30
0
VERTEX
8
OBJECT__120
10
0
20
0
30
0
70
128
71
30
72
23
73
32
0
VERTEX
8
OBJECT__120
10
0
20
0
30
0
70
128
71
33
72
31
73
30
0
VERTEX
8
OBJECT__120
10
0
20
0
30
0
70
128
71
32
72
33
73
30
0
VERTEX
8
OBJECT__120
10
0
20
0
30
0
70
128
71
29
72
26
73
27
0
VERTEX
8
OBJECT__120
10
0
20
0
30
0
70
128
71
18
72
22
73
21
0
VERTEX
8
OBJECT__120
10
0
20
0
30
0
70
128
71
21
72
23
73
18
0
VERTEX
8
OBJECT__120
10
0
20
0
30
0
70
128
71
18
72
16
73
34
0
VERTEX
8
OBJECT__120
10
0
20
0
30
0
70
128
71
34
72
22
73
18
0
VERTEX
8
OBJECT__120
10
0
20
0
30
0
70
128
71
25
72
18
73
23
0
VERTEX
8
OBJECT__120
10
0
20
0
30
0
70
128
71
22
72
34
73
20
0
VERTEX
8
OBJECT__120
10
0
20
0
30
0
70
128
71
3
72
16
73
1
0
SEQEND
8
OBJECT__120
0
POLYLINE
8
OBJECT__122
66
1
70
64
71
36
72
35
62
253
0
VERTEX
8
OBJECT__122
10
61.111000
20
6.471000
30
-15.500000
70
192
0
VERTEX
8
OBJECT__122
10
55.599998
20
8.500000
30
-15.100000
70
192
0
VERTEX
8
OBJECT__122
10
56.915001
20
8.398000
30
-12.629000
70
192
0
VERTEX
8
OBJECT__122
10
55.599998
20
8.500000
30
-13.931000
70
192
0
VERTEX
8
OBJECT__122
10
55.599998
20
8.500000
30
-13.373000
70
192
0
VERTEX
8
OBJECT__122
10
55.599998
20
8.500000
30
-13.978000
70
192
0
VERTEX
8
OBJECT__122
10
55.599998
20
8.500000
30
-13.971000
70
192
0
VERTEX
8
OBJECT__122
10
55.599998
20
8.500000
30
-12.664000
70
192
0
VERTEX
8
OBJECT__122
10
55.599998
20
8.500000
30
-14.079000
70
192
0
VERTEX
8
OBJECT__122
10
55.599998
20
8.500000
30
-14.162000
70
192
0
VERTEX
8
OBJECT__122
10
55.599998
20
8.500000
30
-14.237000
70
192
0
VERTEX
8
OBJECT__122
10
55.599998
20
8.500000
30
-14.268000
70
192
0
VERTEX
8
OBJECT__122
10
55.599998
20
8.500000
30
-14.299000
70
192
0
VERTEX
8
OBJECT__122
10
55.599998
20
8.500000
30
-14.283000
70
192
0
VERTEX
8
OBJECT__122
10
55.599998
20
8.500000
30
-14.377000
70
192
0
VERTEX
8
OBJECT__122
10
55.599998
20
8.500000
30
-14.486000
70
192
0
VERTEX
8
OBJECT__122
10
55.599998
20
8.500000
30
-14.512000
70
192
0
VERTEX
8
OBJECT__122
10
59.666000
20
7.464000
30
-12.334000
70
192
0
VERTEX
8
OBJECT__122
10
55.584000
20
8.500000
30
-15.500000
70
192
0
VERTEX
8
OBJECT__122
10
55.584000
20
8.500000
30
-15.100000
70
192
0
VERTEX
8
OBJECT__122
10
64.099998
20
0.008000
30
-15.500000
70
192
0
VERTEX
8
OBJECT__122
10
63.387001
20
3.407000
30
-11.472000
70
192
0
VERTEX
8
OBJECT__122
10
64.065002
20
0.775000
30
-11.261000
70
192
0
VERTEX
8
OBJECT__122
10
61.903999
20
5.702000
30
-11.877000
70
192
0
VERTEX
8
OBJECT__122
10
61.041000
20
6.382000
30
-12.053000
70
192
0
VERTEX
8
OBJECT__122
10
63.849998
20
-2.046000
30
-11.330000
70
192
0
VERTEX
8
OBJECT__122
10
62.678001
20
-4.706000
30
-11.675000
70
192
0
VERTEX
8
OBJECT__122
10
63.737000
20
-2.458000
30
-11.478000
70
192
0
VERTEX
8
OBJECT__122
10
61.123001
20
-6.461000
30
-15.500000
70
192
0
VERTEX
8
OBJECT__122
10
64.007004
20
0.015000
30
-11.280000
70
192
0
VERTEX
8
OBJECT__122
10
64.005997
20
0.001000
30
-11.280000
70
192
0
VERTEX
8
OBJECT__122
10
61.075001
20
-6.416000
30
-12.058000
70
192
0
VERTEX
8
OBJECT__122
10
55.599998
20
-8.500000
30
-15.500000
70
192
0
VERTEX
8
OBJECT__122
10
58.328999
20
-8.050000
30
-12.515000
70
192
0
VERTEX
8
OBJECT__122
10
60.748001
20
-6.764000
30
-12.136000
70
192
0
VERTEX
8
OBJECT__122
10
55.599998
20
-8.500000
30
-12.664000
70
192
0
VERTEX
8
OBJECT__122
10
0
20
0
30
0
70
128
71
1
72
2
73
3
0
VERTEX
8
OBJECT__122
10
0
20
0
30
0
70
128
71
3
72
4
73
5
0
VERTEX
8
OBJECT__122
10
0
20
0
30
0
70
128
71
3
72
6
73
7
0
VERTEX
8
OBJECT__122
10
0
20
0
30
0
70
128
71
7
72
4
73
3
0
VERTEX
8
OBJECT__122
10
0
20
0
30
0
70
128
71
5
72
8
73
3
0
VERTEX
8
OBJECT__122
10
0
20
0
30
0
70
128
71
3
72
9
73
6
0
VERTEX
8
OBJECT__122
10
0
20
0
30
0
70
128
71
3
72
10
73
9
0
VERTEX
8
OBJECT__122
10
0
20
0
30
0
70
128
71
3
72
11
73
10
0
VERTEX
8
OBJECT__122
10
0
20
0
30
0
70
128
71
3
72
12
73
11
0
VERTEX
8
OBJECT__122
10
0
20
0
30
0
70
128
71
3
72
13
73
14
0
VERTEX
8
OBJECT__122
10
0
20
0
30
0
70
128
71
14
72
12
73
3
0
VERTEX
8
OBJECT__122
10
0
20
0
30
0
70
128
71
3
72
15
73
13
0
VERTEX
8
OBJECT__122
10
0
20
0
30
0
70
128
71
3
72
16
73
15
0
VERTEX
8
OBJECT__122
10
0
20
0
30
0
70
128
71
3
72
17
73
16
0
VERTEX
8
OBJECT__122
10
0
20
0
30
0
70
128
71
3
72
2
73
17
0
VERTEX
8
OBJECT__122
10
0
20
0
30
0
70
128
71
3
72
18
73
1
0
VERTEX
8
OBJECT__122
10
0
20
0
30
0
70
128
71
19
72
20
73
2
0
VERTEX
8
OBJECT__122
10
0
20
0
30
0
70
128
71
2
72
1
73
19
0
VERTEX
8
OBJECT__122
10
0
20
0
30
0
70
128
71
21
72
22
73
23
0
VERTEX
8
OBJECT__122
10
0
20
0
30
0
70
128
71
1
72
24
73
22
0
VERTEX
8
OBJECT__122
10
0
20
0
30
0
70
128
71
22
72
21
73
1
0
VERTEX
8
OBJECT__122
10
0
20
0
30
0
70
128
71
1
72
25
73
24
0
VERTEX
8
OBJECT__122
10
0
20
0
30
0
70
128
71
26
72
27
73
28
0
VERTEX
8
OBJECT__122
10
0
20
0
30
0
70
128
71
21
72
28
73
27
0
VERTEX
8
OBJECT__122
10
0
20
0
30
0
70
128
71
27
72
29
73
21
0
VERTEX
8
OBJECT__122
10
0
20
0
30
0
70
128
71
21
72
30
73
31
0
VERTEX
8
OBJECT__122
10
0
20
0
30
0
70
128
71
31
72
28
73
21
0
VERTEX
8
OBJECT__122
10
0
20
0
30
0
70
128
71
27
72
32
73
29
0
VERTEX
8
OBJECT__122
10
0
20
0
30
0
70
128
71
28
72
31
73
26
0
VERTEX
8
OBJECT__122
10
0
20
0
30
0
70
128
71
33
72
29
73
34
0
VERTEX
8
OBJECT__122
10
0
20
0
30
0
70
128
71
29
72
32
73
35
0
VERTEX
8
OBJECT__122
10
0
20
0
30
0
70
128
71
35
72
34
73
29
0
VERTEX
8
OBJECT__122
10
0
20
0
30
0
70
128
71
34
72
36
73
33
0
VERTEX
8
OBJECT__122
10
0
20
0
30
0
70
128
71
23
72
30
73
21
0
VERTEX
8
OBJECT__122
10
0
20
0
30
0
70
128
71
18
72
25
73
1
0
SEQEND
8
OBJECT__122
0
POLYLINE
8
OBJECT__123
66
1
70
64
71
20
72
18
62
253
0
VERTEX
8
OBJECT__123
10
30.275000
20
-6.543000
30
-15.500000
70
192
0
VERTEX
8
OBJECT__123
10
32.971001
20
-8.050000
30
-12.515000
70
192
0
VERTEX
8
OBJECT__123
10
30.552000
20
-6.764000
30
-12.136000
70
192
0
VERTEX
8
OBJECT__123
10
35.700001
20
-8.500000
30
-15.500000
70
192
0
VERTEX
8
OBJECT__123
10
35.700001
20
-8.500000
30
-12.664000
70
192
0
VERTEX
8
OBJECT__123
10
27.200001
20
-0.080000
30
-15.500000
70
192
0
VERTEX
8
OBJECT__123
10
28.622000
20
-4.706000
30
-11.675000
70
192
0
VERTEX
8
OBJECT__123
10
27.450001
20
-2.046000
30
-11.330000
70
192
0
VERTEX
8
OBJECT__123
10
30.312000
20
-6.508000
30
-12.079000
70
192
0
VERTEX
8
OBJECT__123
10
30.152000
20
6.440000
30
-15.500000
70
192
0
VERTEX
8
OBJECT__123
10
27.913000
20
3.407000
30
-11.472000
70
192
0
VERTEX
8
OBJECT__123
10
27.294001
20
0.001000
30
-11.280000
70
192
0
VERTEX
8
OBJECT__123
10
27.235001
20
0.775000
30
-11.261000
70
192
0
VERTEX
8
OBJECT__123
10
29.396000
20
5.702000
30
-11.877000
70
192
0
VERTEX
8
OBJECT__123
10
27.299999
20
-0.073000
30
-11.282000
70
192
0
VERTEX
8
OBJECT__123
10
31.634001
20
7.464000
30
-12.334000
70
192
0
VERTEX
8
OBJECT__123
10
34.384998
20
8.398000
30
-12.629000
70
192
0
VERTEX
8
OBJECT__123
10
30.222000
20
6.352000
30
-12.045000
70
192
0
VERTEX
8
OBJECT__123
10
35.700001
20
8.500000
30
-15.500000
70
192
0
VERTEX
8
OBJECT__123
10
35.692001
20
8.500000
30
-12.664000
70
192
0
VERTEX
8
OBJECT__123
10
0
20
0
30
0
70
128
71
1
72
2
73
3
0
VERTEX
8
OBJECT__123
10
0
20
0
30
0
70
128
71
4
72
5
73
2
0
VERTEX
8
OBJECT__123
10
0
20
0
30
0
70
128
71
2
72
1
73
4
0
VERTEX
8
OBJECT__123
10
0
20
0
30
0
70
128
71
6
72
1
73
7
0
VERTEX
8
OBJECT__123
10
0
20
0
30
0
70
128
71
7
72
8
73
6
0
VERTEX
8
OBJECT__123
10
0
20
0
30
0
70
128
71
1
72
9
73
7
0
VERTEX
8
OBJECT__123
10
0
20
0
30
0
70
128
71
10
72
6
73
11
0
VERTEX
8
OBJECT__123
10
0
20
0
30
0
70
128
71
6
72
12
73
13
0
VERTEX
8
OBJECT__123
10
0
20
0
30
0
70
128
71
13
72
11
73
6
0
VERTEX
8
OBJECT__123
10
0
20
0
30
0
70
128
71
11
72
14
73
10
0
VERTEX
8
OBJECT__123
10
0
20
0
30
0
70
128
71
6
72
15
73
12
0
VERTEX
8
OBJECT__123
10
0
20
0
30
0
70
128
71
10
72
16
73
17
0
VERTEX
8
OBJECT__123
10
0
20
0
30
0
70
128
71
10
72
18
73
16
0
VERTEX
8
OBJECT__123
10
0
20
0
30
0
70
128
71
17
72
19
73
10
0
VERTEX
8
OBJECT__123
10
0
20
0
30
0
70
128
71
17
72
20
73
19
0
VERTEX
8
OBJECT__123
10
0
20
0
30
0
70
128
71
14
72
18
73
10
0
VERTEX
8
OBJECT__123
10
0
20
0
30
0
70
128
71
8
72
15
73
6
0
VERTEX
8
OBJECT__123
10
0
20
0
30
0
70
128
71
3
72
9
73
1
0
SEQEND
8
OBJECT__123
0
POLYLINE
8
OBJECT__124
66
1
70
64
71
4
72
2
62
253
0
VERTEX
8
OBJECT__124
10
55.599998
20
-8.500000
30
-15.500000
70
192
0
VERTEX
8
OBJECT__124
10
55.599998
20
-8.500000
30
-12.664000
70
192
0
VERTEX
8
OBJECT__124
10
35.700001
20
-8.500000
30
-12.664000
70
192
0
VERTEX
8
OBJECT__124
10
35.700001
20
-8.500000
30
-15.500000
70
192
0
VERTEX
8
OBJECT__124
10
0
20
0
30
0
70
128
71
1
72
2
73
3
0
VERTEX
8
OBJECT__124
10
0
20
0
30
0
70
128
71
3
72
4
73
1
0
SEQEND
8
OBJECT__124
0
POLYLINE
8
OBJECT__125
66
1
70
64
71
25
72
23
62
253
0
VERTEX
8
OBJECT__125
10
0.000000
20
13.160000
30
104.171997
70
192
0
VERTEX
8
OBJECT__125
10
0.000000
20
-71.876999
30
-76.542000
70
192
0
VERTEX
8
OBJECT__125
10
0.000000
20
-88.653999
30
-56.262001
70
192
0
VERTEX
8
OBJECT__125
10
0.000000
20
-103.139999
30
19.674999
70
192
0
VERTEX
8
OBJECT__125
10
0.000000
20
-95.007004
30
44.707001
70
192
0
VERTEX
8
OBJECT__125
10
0.000000
20
-50.584000
30
-92.012001
70
192
0
VERTEX
8
OBJECT__125
10
0.000000
20
80.903999
30
66.930000
70
192
0
VERTEX
8
OBJECT__125
10
0.000000
20
71.876999
30
-76.542000
70
192
0
VERTEX
8
OBJECT__125
10
0.000000
20
50.584000
30
-92.012001
70
192
0
VERTEX
8
OBJECT__125
10
0.000000
20
88.653999
30
-56.262001
70
192
0
VERTEX
8
OBJECT__125
10
0.000000
20
103.139999
30
19.674999
70
192
0
VERTEX
8
OBJECT__125
10
0.000000
20
104.792999
30
-6.593000
70
192
0
VERTEX
8
OBJECT__125
10
0.000000
20
95.007004
30
44.707001
70
192
0
VERTEX
8
OBJECT__125
10
0.000000
20
-61.716999
30
84.946999
70
192
0
VERTEX
8
OBJECT__125
10
0.000000
20
-38.653000
30
97.626999
70
192
0
VERTEX
8
OBJECT__125
10
0.000000
20
-80.903999
30
66.930000
70
192
0
VERTEX
8
OBJECT__125
10
0.000000
20
-99.861000
30
-32.446999
70
192
0
VERTEX
8
OBJECT__125
10
0.000000
20
-104.792999
30
-6.593000
70
192
0
VERTEX
8
OBJECT__125
10
0.000000
20
-26.112000
30
-101.700996
70
192
0
VERTEX
8
OBJECT__125
10
0.000000
20
26.112000
30
-101.700996
70
192
0
VERTEX
8
OBJECT__125
10
0.000000
20
0.000000
30
-105.000000
70
192
0
VERTEX
8
OBJECT__125
10
0.000000
20
99.861000
30
-32.446999
70
192
0
VERTEX
8
OBJECT__125
10
0.000000
20
38.653000
30
97.626999
70
192
0
VERTEX
8
OBJECT__125
10
0.000000
20
61.716999
30
84.946999
70
192
0
VERTEX
8
OBJECT__125
10
0.000000
20
-13.160000
30
104.171997
70
192
0
VERTEX
8
OBJECT__125
10
0
20
0
30
0
70
128
71
1
72
2
73
3
0
VERTEX
8
OBJECT__125
10
0
20
0
30
0
70
128
71
1
72
4
73
5
0
VERTEX
8
OBJECT__125
10
0
20
0
30
0
70
128
71
1
72
6
73
2
0
VERTEX
8
OBJECT__125
10
0
20
0
30
0
70
128
71
7
72
8
73
9
0
VERTEX
8
OBJECT__125
10
0
20
0
30
0
70
128
71
10
72
11
73
12
0
VERTEX
8
OBJECT__125
10
0
20
0
30
0
70
128
71
10
72
7
73
13
0
VERTEX
8
OBJECT__125
10
0
20
0
30
0
70
128
71
1
72
14
73
15
0
VERTEX
8
OBJECT__125
10
0
20
0
30
0
70
128
71
5
72
16
73
1
0
VERTEX
8
OBJECT__125
10
0
20
0
30
0
70
128
71
1
72
17
73
18
0
VERTEX
8
OBJECT__125
10
0
20
0
30
0
70
128
71
1
72
19
73
6
0
VERTEX
8
OBJECT__125
10
0
20
0
30
0
70
128
71
7
72
10
73
8
0
VERTEX
8
OBJECT__125
10
0
20
0
30
0
70
128
71
13
72
11
73
10
0
VERTEX
8
OBJECT__125
10
0
20
0
30
0
70
128
71
16
72
14
73
1
0
VERTEX
8
OBJECT__125
10
0
20
0
30
0
70
128
71
3
72
17
73
1
0
VERTEX
8
OBJECT__125
10
0
20
0
30
0
70
128
71
7
72
20
73
21
0
VERTEX
8
OBJECT__125
10
0
20
0
30
0
70
128
71
12
72
22
73
10
0
VERTEX
8
OBJECT__125
10
0
20
0
30
0
70
128
71
18
72
4
73
1
0
VERTEX
8
OBJECT__125
10
0
20
0
30
0
70
128
71
9
72
20
73
7
0
VERTEX
8
OBJECT__125
10
0
20
0
30
0
70
128
71
19
72
23
73
24
0
VERTEX
8
OBJECT__125
10
0
20
0
30
0
70
128
71
15
72
25
73
1
0
VERTEX
8
OBJECT__125
10
0
20
0
30
0
70
128
71
24
72
7
73
19
0
VERTEX
8
OBJECT__125
10
0
20
0
30
0
70
128
71
21
72
19
73
7
0
VERTEX
8
OBJECT__125
10
0
20
0
30
0
70
128
71
1
72
23
73
19
0
SEQEND
8
OBJECT__125
0
POLYLINE
8
OBJECT__126
66
1
70
64
71
50
72
50
62
253
0
VERTEX
8
OBJECT__126
10
13.700000
20
-26.112000
30
-101.700996
70
192
0
VERTEX
8
OBJECT__126
10
0.000000
20
-26.112000
30
-101.700996
70
192
0
VERTEX
8
OBJECT__126
10
0.000000
20
0.000000
30
-105.000000
70
192
0
VERTEX
8
OBJECT__126
10
13.700000
20
-50.584000
30
-92.012001
70
192
0
VERTEX
8
OBJECT__126
10
13.700000
20
-71.876999
30
-76.542000
70
192
0
VERTEX
8
OBJECT__126
10
0.000000
20
-71.876999
30
-76.542000
70
192
0
VERTEX
8
OBJECT__126
10
0.000000
20
-50.584000
30
-92.012001
70
192
0
VERTEX
8
OBJECT__126
10
13.700000
20
-88.653999
30
-56.262001
70
192
0
VERTEX
8
OBJECT__126
10
0.000000
20
-88.653999
30
-56.262001
70
192
0
VERTEX
8
OBJECT__126
10
13.700000
20
-99.861000
30
-32.446999
70
192
0
VERTEX
8
OBJECT__126
10
0.000000
20
-99.861000
30
-32.446999
70
192
0
VERTEX
8
OBJECT__126
10
13.700000
20
-104.792999
30
-6.593000
70
192
0
VERTEX
8
OBJECT__126
10
0.000000
20
-104.792999
30
-6.593000
70
192
0
VERTEX
8
OBJECT__126
10
13.700000
20
-103.139999
30
19.674999
70
192
0
VERTEX
8
OBJECT__126
10
0.000000
20
-103.139999
30
19.674999
70
192
0
VERTEX
8
OBJECT__126
10
0.000000
20
-95.007004
30
44.707001
70
192
0
VERTEX
8
OBJECT__126
10
0.000000
20
-80.903999
30
66.930000
70
192
0
VERTEX
8
OBJECT__126
10
13.700000
20
-95.007004
30
44.707001
70
192
0
VERTEX
8
OBJECT__126
10
0.000000
20
-61.716999
30
84.946999
70
192
0
VERTEX
8
OBJECT__126
10
13.700000
20
-80.903999
30
66.930000
70
192
0
VERTEX
8
OBJECT__126
10
0.000000
20
-38.653000
30
97.626999
70
192
0
VERTEX
8
OBJECT__126
10
13.700000
20
-61.716999
30
84.946999
70
192
0
VERTEX
8
OBJECT__126
10
0.000000
20
-13.160000
30
104.171997
70
192
0
VERTEX
8
OBJECT__126
10
13.700000
20
-38.653000
30
97.626999
70
192
0
VERTEX
8
OBJECT__126
10
13.700000
20
13.160000
30
104.171997
70
192
0
VERTEX
8
OBJECT__126
10
0.000000
20
13.160000
30
104.171997
70
192
0
VERTEX
8
OBJECT__126
10
13.700000
20
38.653000
30
97.626999
70
192
0
VERTEX
8
OBJECT__126
10
0.000000
20
38.653000
30
97.626999
70
192
0
VERTEX
8
OBJECT__126
10
0.000000
20
61.716999
30
84.946999
70
192
0
VERTEX
8
OBJECT__126
10
0.000000
20
80.903999
30
66.930000
70
192
0
VERTEX
8
OBJECT__126
10
13.700000
20
61.716999
30
84.946999
70
192
0
VERTEX
8
OBJECT__126
10
0.000000
20
95.007004
30
44.707001
70
192
0
VERTEX
8
OBJECT__126
10
13.700000
20
80.903999
30
66.930000
70
192
0
VERTEX
8
OBJECT__126
10
0.000000
20
103.139999
30
19.674999
70
192
0
VERTEX
8
OBJECT__126
10
13.700000
20
95.007004
30
44.707001
70
192
0
VERTEX
8
OBJECT__126
10
0.000000
20
104.792999
30
-6.593000
70
192
0
VERTEX
8
OBJECT__126
10
13.700000
20
103.139999
30
19.674999
70
192
0
VERTEX
8
OBJECT__126
10
13.700000
20
99.861000
30
-32.446999
70
192
0
VERTEX
8
OBJECT__126
10
0.000000
20
99.861000
30
-32.446999
70
192
0
VERTEX
8
OBJECT__126
10
13.700000
20
88.653999
30
-56.262001
70
192
0
VERTEX
8
OBJECT__126
10
0.000000
20
88.653999
30
-56.262001
70
192
0
VERTEX
8
OBJECT__126
10
13.700000
20
71.876999
30
-76.542000
70
192
0
VERTEX
8
OBJECT__126
10
0.000000
20
71.876999
30
-76.542000
70
192
0
VERTEX
8
OBJECT__126
10
13.700000
20
50.584000
30
-92.012001
70
192
0
VERTEX
8
OBJECT__126
10
0.000000
20
50.584000
30
-92.012001
70
192
0
VERTEX
8
OBJECT__126
10
13.700000
20
26.112000
30
-101.700996
70
192
0
VERTEX
8
OBJECT__126
10
0.000000
20
26.112000
30
-101.700996
70
192
0
VERTEX
8
OBJECT__126
10
13.700000
20
0.000000
30
-105.000000
70
192
0
VERTEX
8
OBJECT__126
10
13.700000
20
104.792999
30
-6.593000
70
192
0
VERTEX
8
OBJECT__126
10
13.700000
20
-13.160000
30
104.171997
70
192
0
VERTEX
8
OBJECT__126
10
0
20
0
30
0
70
128
71
1
72
2
73
3
0
VERTEX
8
OBJECT__126
10
0
20
0
30
0
70
128
71
2
72
1
73
4
0
VERTEX
8
OBJECT__126
10
0
20
0
30
0
70
128
71
5
72
6
73
7
0
VERTEX
8
OBJECT__126
10
0
20
0
30
0
70
128
71
8
72
9
73
6
0
VERTEX
8
OBJECT__126
10
0
20
0
30
0
70
128
71
10
72
11
73
9
0
VERTEX
8
OBJECT__126
10
0
20
0
30
0
70
128
71
12
72
13
73
11
0
VERTEX
8
OBJECT__126
10
0
20
0
30
0
70
128
71
14
72
15
73
13
0
VERTEX
8
OBJECT__126
10
0
20
0
30
0
70
128
71
16
72
15
73
14
0
VERTEX
8
OBJECT__126
10
0
20
0
30
0
70
128
71
17
72
16
73
18
0
VERTEX
8
OBJECT__126
10
0
20
0
30
0
70
128
71
19
72
17
73
20
0
VERTEX
8
OBJECT__126
10
0
20
0
30
0
70
128
71
21
72
19
73
22
0
VERTEX
8
OBJECT__126
10
0
20
0
30
0
70
128
71
23
72
21
73
24
0
VERTEX
8
OBJECT__126
10
0
20
0
30
0
70
128
71
25
72
26
73
23
0
VERTEX
8
OBJECT__126
10
0
20
0
30
0
70
128
71
25
72
27
73
28
0
VERTEX
8
OBJECT__126
10
0
20
0
30
0
70
128
71
29
72
28
73
27
0
VERTEX
8
OBJECT__126
10
0
20
0
30
0
70
128
71
30
72
29
73
31
0
VERTEX
8
OBJECT__126
10
0
20
0
30
0
70
128
71
32
72
30
73
33
0
VERTEX
8
OBJECT__126
10
0
20
0
30
0
70
128
71
34
72
32
73
35
0
VERTEX
8
OBJECT__126
10
0
20
0
30
0
70
128
71
36
72
34
73
37
0
VERTEX
8
OBJECT__126
10
0
20
0
30
0
70
128
71
38
72
39
73
36
0
VERTEX
8
OBJECT__126
10
0
20
0
30
0
70
128
71
40
72
41
73
39
0
VERTEX
8
OBJECT__126
10
0
20
0
30
0
70
128
71
42
72
43
73
41
0
VERTEX
8
OBJECT__126
10
0
20
0
30
0
70
128
71
44
72
45
73
43
0
VERTEX
8
OBJECT__126
10
0
20
0
30
0
70
128
71
46
72
47
73
45
0
VERTEX
8
OBJECT__126
10
0
20
0
30
0
70
128
71
48
72
3
73
47
0
VERTEX
8
OBJECT__126
10
0
20
0
30
0
70
128
71
47
72
46
73
48
0
VERTEX
8
OBJECT__126
10
0
20
0
30
0
70
128
71
45
72
44
73
46
0
VERTEX
8
OBJECT__126
10
0
20
0
30
0
70
128
71
43
72
42
73
44
0
VERTEX
8
OBJECT__126
10
0
20
0
30
0
70
128
71
41
72
40
73
42
0
VERTEX
8
OBJECT__126
10
0
20
0
30
0
70
128
71
39
72
38
73
40
0
VERTEX
8
OBJECT__126
10
0
20
0
30
0
70
128
71
36
72
49
73
38
0
VERTEX
8
OBJECT__126
10
0
20
0
30
0
70
128
71
37
72
49
73
36
0
VERTEX
8
OBJECT__126
10
0
20
0
30
0
70
128
71
35
72
37
73
34
0
VERTEX
8
OBJECT__126
10
0
20
0
30
0
70
128
71
33
72
35
73
32
0
VERTEX
8
OBJECT__126
10
0
20
0
30
0
70
128
71
31
72
33
73
30
0
VERTEX
8
OBJECT__126
10
0
20
0
30
0
70
128
71
27
72
31
73
29
0
VERTEX
8
OBJECT__126
10
0
20
0
30
0
70
128
71
28
72
26
73
25
0
VERTEX
8
OBJECT__126
10
0
20
0
30
0
70
128
71
23
72
50
73
25
0
VERTEX
8
OBJECT__126
10
0
20
0
30
0
70
128
71
24
72
50
73
23
0
VERTEX
8
OBJECT__126
10
0
20
0
30
0
70
128
71
22
72
24
73
21
0
VERTEX
8
OBJECT__126
10
0
20
0
30
0
70
128
71
20
72
22
73
19
0
VERTEX
8
OBJECT__126
10
0
20
0
30
0
70
128
71
18
72
20
73
17
0
VERTEX
8
OBJECT__126
10
0
20
0
30
0
70
128
71
14
72
18
73
16
0
VERTEX
8
OBJECT__126
10
0
20
0
30
0
70
128
71
13
72
12
73
14
0
VERTEX
8
OBJECT__126
10
0
20
0
30
0
70
128
71
11
72
10
73
12
0
VERTEX
8
OBJECT__126
10
0
20
0
30
0
70
128
71
9
72
8
73
10
0
VERTEX
8
OBJECT__126
10
0
20
0
30
0
70
128
71
6
72
5
73
8
0
VERTEX
8
OBJECT__126
10
0
20
0
30
0
70
128
71
7
72
4
73
5
0
VERTEX
8
OBJECT__126
10
0
20
0
30
0
70
128
71
4
72
7
73
2
0
VERTEX
8
OBJECT__126
10
0
20
0
30
0
70
128
71
3
72
48
73
1
0
SEQEND
8
OBJECT__126
0
POLYLINE
8
OBJECT__128
66
1
70
64
71
52
72
54
62
253
0
VERTEX
8
OBJECT__128
10
13.700000
20
6.402000
30
-11.527000
70
192
0
VERTEX
8
OBJECT__128
10
13.700000
20
12.431000
30
23.813999
70
192
0
VERTEX
8
OBJECT__128
10
13.700000
20
0.000000
30
20.750000
70
192
0
VERTEX
8
OBJECT__128
10
13.700000
20
-6.402000
30
-11.527000
70
192
0
VERTEX
8
OBJECT__128
10
13.700000
20
0.000000
30
-10.750000
70
192
0
VERTEX
8
OBJECT__128
10
13.700000
20
-61.716999
30
84.946999
70
192
0
VERTEX
8
OBJECT__128
10
13.700000
20
-25.011999
30
56.986000
70
192
0
VERTEX
8
OBJECT__128
10
13.700000
20
-17.739000
30
67.523003
70
192
0
VERTEX
8
OBJECT__128
10
13.700000
20
-103.139999
30
19.674999
70
192
0
VERTEX
8
OBJECT__128
10
13.700000
20
-22.014999
30
32.304001
70
192
0
VERTEX
8
OBJECT__128
10
13.700000
20
-26.555000
30
44.276001
70
192
0
VERTEX
8
OBJECT__128
10
13.700000
20
-50.584000
30
-92.012001
70
192
0
VERTEX
8
OBJECT__128
10
13.700000
20
-26.112000
30
-101.700996
70
192
0
VERTEX
8
OBJECT__128
10
13.700000
20
-12.431000
30
-61.186001
70
192
0
VERTEX
8
OBJECT__128
10
13.700000
20
-17.739000
30
-17.476999
70
192
0
VERTEX
8
OBJECT__128
10
13.700000
20
-38.653000
30
97.626999
70
192
0
VERTEX
8
OBJECT__128
10
13.700000
20
-80.903999
30
66.930000
70
192
0
VERTEX
8
OBJECT__128
10
13.700000
20
-95.007004
30
44.707001
70
192
0
VERTEX
8
OBJECT__128
10
13.700000
20
-22.014999
30
-52.695999
70
192
0
VERTEX
8
OBJECT__128
10
13.700000
20
-71.876999
30
-76.542000
70
192
0
VERTEX
8
OBJECT__128
10
13.700000
20
0.000000
30
-105.000000
70
192
0
VERTEX
8
OBJECT__128
10
13.700000
20
0.000000
30
-64.250000
70
192
0
VERTEX
8
OBJECT__128
10
13.700000
20
61.716999
30
84.946999
70
192
0
VERTEX
8
OBJECT__128
10
13.700000
20
38.653000
30
97.626999
70
192
0
VERTEX
8
OBJECT__128
10
13.700000
20
17.739000
30
67.523003
70
192
0
VERTEX
8
OBJECT__128
10
13.700000
20
-104.792999
30
-6.593000
70
192
0
VERTEX
8
OBJECT__128
10
13.700000
20
-12.431000
30
23.813999
70
192
0
VERTEX
8
OBJECT__128
10
13.700000
20
-99.861000
30
-32.446999
70
192
0
VERTEX
8
OBJECT__128
10
13.700000
20
-25.011999
30
-28.014000
70
192
0
VERTEX
8
OBJECT__128
10
13.700000
20
99.861000
30
-32.446999
70
192
0
VERTEX
8
OBJECT__128
10
13.700000
20
25.011999
30
-28.014000
70
192
0
VERTEX
8
OBJECT__128
10
13.700000
20
26.555000
30
-40.723999
70
192
0
VERTEX
8
OBJECT__128
10
13.700000
20
103.139999
30
19.674999
70
192
0
VERTEX
8
OBJECT__128
10
13.700000
20
17.739000
30
-17.476999
70
192
0
VERTEX
8
OBJECT__128
10
13.700000
20
95.007004
30
44.707001
70
192
0
VERTEX
8
OBJECT__128
10
13.700000
20
22.014999
30
32.304001
70
192
0
VERTEX
8
OBJECT__128
10
13.700000
20
25.011999
30
56.986000
70
192
0
VERTEX
8
OBJECT__128
10
13.700000
20
80.903999
30
66.930000
70
192
0
VERTEX
8
OBJECT__128
10
13.700000
20
13.160000
30
104.171997
70
192
0
VERTEX
8
OBJECT__128
10
13.700000
20
6.402000
30
73.473000
70
192
0
VERTEX
8
OBJECT__128
10
13.700000
20
-88.653999
30
-56.262001
70
192
0
VERTEX
8
OBJECT__128
10
13.700000
20
-26.555000
30
-40.723999
70
192
0
VERTEX
8
OBJECT__128
10
13.700000
20
88.653999
30
-56.262001
70
192
0
VERTEX
8
OBJECT__128
10
13.700000
20
104.792999
30
-6.593000
70
192
0
VERTEX
8
OBJECT__128
10
13.700000
20
26.555000
30
44.276001
70
192
0
VERTEX
8
OBJECT__128
10
13.700000
20
-13.160000
30
104.171997
70
192
0
VERTEX
8
OBJECT__128
10
13.700000
20
-6.402000
30
73.473000
70
192
0
VERTEX
8
OBJECT__128
10
13.700000
20
50.584000
30
-92.012001
70
192
0
VERTEX
8
OBJECT__128
10
13.700000
20
22.014999
30
-52.695999
70
192
0
VERTEX
8
OBJECT__128
10
13.700000
20
12.431000
30
-61.186001
70
192
0
VERTEX
8
OBJECT__128
10
13.700000
20
26.112000
30
-101.700996
70
192
0
VERTEX
8
OBJECT__128
10
13.700000
20
71.876999
30
-76.542000
70
192
0
VERTEX
8
OBJECT__128
10
0
20
0
30
0
70
128
71
1
72
2
73
3
0
VERTEX
8
OBJECT__128
10
0
20
0
30
0
70
128
71
3
72
4
73
5
0
VERTEX
8
OBJECT__128
10
0
20
0
30
0
70
128
71
6
72
7
73
8
0
VERTEX
8
OBJECT__128
10
0
20
0
30
0
70
128
71
9
72
10
73
11
0
VERTEX
8
OBJECT__128
10
0
20
0
30
0
70
128
71
12
72
13
73
14
0
VERTEX
8
OBJECT__128
10
0
20
0
30
0
70
128
71
3
72
15
73
4
0
VERTEX
8
OBJECT__128
10
0
20
0
30
0
70
128
71
8
72
16
73
6
0
VERTEX
8
OBJECT__128
10
0
20
0
30
0
70
128
71
11
72
7
73
17
0
VERTEX
8
OBJECT__128
10
0
20
0
30
0
70
128
71
11
72
18
73
9
0
VERTEX
8
OBJECT__128
10
0
20
0
30
0
70
128
71
19
72
20
73
12
0
VERTEX
8
OBJECT__128
10
0
20
0
30
0
70
128
71
13
72
21
73
22
0
VERTEX
8
OBJECT__128
10
0
20
0
30
0
70
128
71
3
72
5
73
1
0
VERTEX
8
OBJECT__128
10
0
20
0
30
0
70
128
71
23
72
24
73
25
0
VERTEX
8
OBJECT__128
10
0
20
0
30
0
70
128
71
17
72
18
73
11
0
VERTEX
8
OBJECT__128
10
0
20
0
30
0
70
128
71
9
72
26
73
10
0
VERTEX
8
OBJECT__128
10
0
20
0
30
0
70
128
71
27
72
10
73
28
0
VERTEX
8
OBJECT__128
10
0
20
0
30
0
70
128
71
27
72
20
73
29
0
VERTEX
8
OBJECT__128
10
0
20
0
30
0
70
128
71
22
72
14
73
13
0
VERTEX
8
OBJECT__128
10
0
20
0
30
0
70
128
71
30
72
31
73
32
0
VERTEX
8
OBJECT__128
10
0
20
0
30
0
70
128
71
33
72
34
73
31
0
VERTEX
8
OBJECT__128
10
0
20
0
30
0
70
128
71
3
72
29
73
15
0
VERTEX
8
OBJECT__128
10
0
20
0
30
0
70
128
71
34
72
35
73
36
0
VERTEX
8
OBJECT__128
10
0
20
0
30
0
70
128
71
37
72
38
73
23
0
VERTEX
8
OBJECT__128
10
0
20
0
30
0
70
128
71
24
72
39
73
40
0
VERTEX
8
OBJECT__128
10
0
20
0
30
0
70
128
71
26
72
28
73
10
0
VERTEX
8
OBJECT__128
10
0
20
0
30
0
70
128
71
28
72
41
73
27
0
VERTEX
8
OBJECT__128
10
0
20
0
30
0
70
128
71
20
72
42
73
29
0
VERTEX
8
OBJECT__128
10
0
20
0
30
0
70
128
71
14
72
19
73
12
0
VERTEX
8
OBJECT__128
10
0
20
0
30
0
70
128
71
32
72
43
73
30
0
VERTEX
8
OBJECT__128
10
0
20
0
30
0
70
128
71
31
72
44
73
33
0
VERTEX
8
OBJECT__128
10
0
20
0
30
0
70
128
71
36
72
2
73
34
0
VERTEX
8
OBJECT__128
10
0
20
0
30
0
70
128
71
45
72
35
73
38
0
VERTEX
8
OBJECT__128
10
0
20
0
30
0
70
128
71
40
72
25
73
24
0
VERTEX
8
OBJECT__128
10
0
20
0
30
0
70
128
71
39
72
46
73
47
0
VERTEX
8
OBJECT__128
10
0
20
0
30
0
70
128
71
16
72
8
73
47
0
VERTEX
8
OBJECT__128
10
0
20
0
30
0
70
128
71
41
72
20
73
27
0
VERTEX
8
OBJECT__128
10
0
20
0
30
0
70
128
71
19
72
42
73
20
0
VERTEX
8
OBJECT__128
10
0
20
0
30
0
70
128
71
33
72
35
73
34
0
VERTEX
8
OBJECT__128
10
0
20
0
30
0
70
128
71
35
72
45
73
36
0
VERTEX
8
OBJECT__128
10
0
20
0
30
0
70
128
71
48
72
49
73
50
0
VERTEX
8
OBJECT__128
10
0
20
0
30
0
70
128
71
25
72
37
73
23
0
VERTEX
8
OBJECT__128
10
0
20
0
30
0
70
128
71
47
72
46
73
16
0
VERTEX
8
OBJECT__128
10
0
20
0
30
0
70
128
71
29
72
3
73
27
0
VERTEX
8
OBJECT__128
10
0
20
0
30
0
70
128
71
1
72
34
73
2
0
VERTEX
8
OBJECT__128
10
0
20
0
30
0
70
128
71
51
72
50
73
22
0
VERTEX
8
OBJECT__128
10
0
20
0
30
0
70
128
71
50
72
51
73
48
0
VERTEX
8
OBJECT__128
10
0
20
0
30
0
70
128
71
47
72
40
73
39
0
VERTEX
8
OBJECT__128
10
0
20
0
30
0
70
128
71
30
72
44
73
31
0
VERTEX
8
OBJECT__128
10
0
20
0
30
0
70
128
71
48
72
52
73
49
0
VERTEX
8
OBJECT__128
10
0
20
0
30
0
70
128
71
32
72
49
73
52
0
VERTEX
8
OBJECT__128
10
0
20
0
30
0
70
128
71
6
72
17
73
7
0
VERTEX
8
OBJECT__128
10
0
20
0
30
0
70
128
71
52
72
43
73
32
0
VERTEX
8
OBJECT__128
10
0
20
0
30
0
70
128
71
22
72
21
73
51
0
VERTEX
8
OBJECT__128
10
0
20
0
30
0
70
128
71
38
72
37
73
45
0
SEQEND
8
OBJECT__128
0
POLYLINE
8
OBJECT__129
66
1
70
64
71
27
72
27
62
253
0
VERTEX
8
OBJECT__129
10
8.000000
20
12.431000
30
23.813999
70
192
0
VERTEX
8
OBJECT__129
10
8.000000
20
0.000000
30
20.750000
70
192
0
VERTEX
8
OBJECT__129
10
13.700000
20
0.000000
30
20.750000
70
192
0
VERTEX
8
OBJECT__129
10
13.700000
20
12.431000
30
23.813999
70
192
0
VERTEX
8
OBJECT__129
10
13.700000
20
22.014999
30
32.304001
70
192
0
VERTEX
8
OBJECT__129
10
8.000000
20
22.014999
30
32.304001
70
192
0
VERTEX
8
OBJECT__129
10
8.000000
20
26.555000
30
44.276001
70
192
0
VERTEX
8
OBJECT__129
10
8.000000
20
25.011999
30
56.986000
70
192
0
VERTEX
8
OBJECT__129
10
13.700000
20
26.555000
30
44.276001
70
192
0
VERTEX
8
OBJECT__129
10
8.000000
20
17.739000
30
67.523003
70
192
0
VERTEX
8
OBJECT__129
10
13.700000
20
25.011999
30
56.986000
70
192
0
VERTEX
8
OBJECT__129
10
13.700000
20
6.402000
30
73.473000
70
192
0
VERTEX
8
OBJECT__129
10
8.000000
20
6.402000
30
73.473000
70
192
0
VERTEX
8
OBJECT__129
10
13.700000
20
-6.402000
30
73.473000
70
192
0
VERTEX
8
OBJECT__129
10
8.000000
20
-6.402000
30
73.473000
70
192
0
VERTEX
8
OBJECT__129
10
8.000000
20
0.000000
30
74.250000
70
192
0
VERTEX
8
OBJECT__129
10
13.700000
20
-17.739000
30
67.523003
70
192
0
VERTEX
8
OBJECT__129
10
8.000000
20
-17.739000
30
67.523003
70
192
0
VERTEX
8
OBJECT__129
10
13.700000
20
-25.011999
30
56.986000
70
192
0
VERTEX
8
OBJECT__129
10
13.700000
20
-26.555000
30
44.276001
70
192
0
VERTEX
8
OBJECT__129
10
8.000000
20
-26.555000
30
44.276001
70
192
0
VERTEX
8
OBJECT__129
10
8.000000
20
-25.011999
30
56.986000
70
192
0
VERTEX
8
OBJECT__129
10
13.700000
20
-22.014999
30
32.304001
70
192
0
VERTEX
8
OBJECT__129
10
8.000000
20
-22.014999
30
32.304001
70
192
0
VERTEX
8
OBJECT__129
10
13.700000
20
-12.431000
30
23.813999
70
192
0
VERTEX
8
OBJECT__129
10
8.000000
20
-12.431000
30
23.813999
70
192
0
VERTEX
8
OBJECT__129
10
13.700000
20
17.739000
30
67.523003
70
192
0
VERTEX
8
OBJECT__129
10
0
20
0
30
0
70
128
71
1
72
2
73
3
0
VERTEX
8
OBJECT__129
10
0
20
0
30
0
70
128
71
4
72
5
73
6
0
VERTEX
8
OBJECT__129
10
0
20
0
30
0
70
128
71
7
72
6
73
5
0
VERTEX
8
OBJECT__129
10
0
20
0
30
0
70
128
71
8
72
7
73
9
0
VERTEX
8
OBJECT__129
10
0
20
0
30
0
70
128
71
10
72
8
73
11
0
VERTEX
8
OBJECT__129
10
0
20
0
30
0
70
128
71
12
72
13
73
10
0
VERTEX
8
OBJECT__129
10
0
20
0
30
0
70
128
71
14
72
15
73
16
0
VERTEX
8
OBJECT__129
10
0
20
0
30
0
70
128
71
16
72
12
73
14
0
VERTEX
8
OBJECT__129
10
0
20
0
30
0
70
128
71
17
72
18
73
15
0
VERTEX
8
OBJECT__129
10
0
20
0
30
0
70
128
71
18
72
17
73
19
0
VERTEX
8
OBJECT__129
10
0
20
0
30
0
70
128
71
20
72
21
73
22
0
VERTEX
8
OBJECT__129
10
0
20
0
30
0
70
128
71
23
72
24
73
21
0
VERTEX
8
OBJECT__129
10
0
20
0
30
0
70
128
71
24
72
23
73
25
0
VERTEX
8
OBJECT__129
10
0
20
0
30
0
70
128
71
3
72
2
73
26
0
VERTEX
8
OBJECT__129
10
0
20
0
30
0
70
128
71
26
72
25
73
3
0
VERTEX
8
OBJECT__129
10
0
20
0
30
0
70
128
71
25
72
26
73
24
0
VERTEX
8
OBJECT__129
10
0
20
0
30
0
70
128
71
21
72
20
73
23
0
VERTEX
8
OBJECT__129
10
0
20
0
30
0
70
128
71
22
72
19
73
20
0
VERTEX
8
OBJECT__129
10
0
20
0
30
0
70
128
71
19
72
22
73
18
0
VERTEX
8
OBJECT__129
10
0
20
0
30
0
70
128
71
15
72
14
73
17
0
VERTEX
8
OBJECT__129
10
0
20
0
30
0
70
128
71
16
72
13
73
12
0
VERTEX
8
OBJECT__129
10
0
20
0
30
0
70
128
71
10
72
27
73
12
0
VERTEX
8
OBJECT__129
10
0
20
0
30
0
70
128
71
11
72
27
73
10
0
VERTEX
8
OBJECT__129
10
0
20
0
30
0
70
128
71
9
72
11
73
8
0
VERTEX
8
OBJECT__129
10
0
20
0
30
0
70
128
71
5
72
9
73
7
0
VERTEX
8
OBJECT__129
10
0
20
0
30
0
70
128
71
6
72
1
73
4
0
VERTEX
8
OBJECT__129
10
0
20
0
30
0
70
128
71
3
72
4
73
1
0
SEQEND
8
OBJECT__129
0
POLYLINE
8
OBJECT__130
66
1
70
64
71
14
72
12
62
253
0
VERTEX
8
OBJECT__130
10
8.000000
20
-12.431000
30
23.813999
70
192
0
VERTEX
8
OBJECT__130
10
8.000000
20
-25.011999
30
56.986000
70
192
0
VERTEX
8
OBJECT__130
10
8.000000
20
-26.555000
30
44.276001
70
192
0
VERTEX
8
OBJECT__130
10
8.000000
20
0.000000
30
20.750000
70
192
0
VERTEX
8
OBJECT__130
10
8.000000
20
26.555000
30
44.276001
70
192
0
VERTEX
8
OBJECT__130
10
8.000000
20
25.011999
30
56.986000
70
192
0
VERTEX
8
OBJECT__130
10
8.000000
20
12.431000
30
23.813999
70
192
0
VERTEX
8
OBJECT__130
10
8.000000
20
22.014999
30
32.304001
70
192
0
VERTEX
8
OBJECT__130
10
8.000000
20
-22.014999
30
32.304001
70
192
0
VERTEX
8
OBJECT__130
10
8.000000
20
-6.402000
30
73.473000
70
192
0
VERTEX
8
OBJECT__130
10
8.000000
20
-17.739000
30
67.523003
70
192
0
VERTEX
8
OBJECT__130
10
8.000000
20
17.739000
30
67.523003
70
192
0
VERTEX
8
OBJECT__130
10
8.000000
20
0.000000
30
74.250000
70
192
0
VERTEX
8
OBJECT__130
10
8.000000
20
6.402000
30
73.473000
70
192
0
VERTEX
8
OBJECT__130
10
0
20
0
30
0
70
128
71
1
72
2
73
3
0
VERTEX
8
OBJECT__130
10
0
20
0
30
0
70
128
71
4
72
5
73
6
0
VERTEX
8
OBJECT__130
10
0
20
0
30
0
70
128
71
4
72
7
73
8
0
VERTEX
8
OBJECT__130
10
0
20
0
30
0
70
128
71
3
72
9
73
1
0
VERTEX
8
OBJECT__130
10
0
20
0
30
0
70
128
71
4
72
10
73
11
0
VERTEX
8
OBJECT__130
10
0
20
0
30
0
70
128
71
8
72
5
73
4
0
VERTEX
8
OBJECT__130
10
0
20
0
30
0
70
128
71
11
72
2
73
4
0
VERTEX
8
OBJECT__130
10
0
20
0
30
0
70
128
71
6
72
12
73
4
0
VERTEX
8
OBJECT__130
10
0
20
0
30
0
70
128
71
4
72
13
73
10
0
VERTEX
8
OBJECT__130
10
0
20
0
30
0
70
128
71
12
72
14
73
4
0
VERTEX
8
OBJECT__130
10
0
20
0
30
0
70
128
71
14
72
13
73
4
0
VERTEX
8
OBJECT__130
10
0
20
0
30
0
70
128
71
1
72
4
73
2
0
SEQEND
8
OBJECT__130
0
POLYLINE
8
OBJECT__131
66
1
70
64
71
28
72
28
62
253
0
VERTEX
8
OBJECT__131
10
13.700000
20
12.431000
30
-61.186001
70
192
0
VERTEX
8
OBJECT__131
10
8.000000
20
12.431000
30
-61.186001
70
192
0
VERTEX
8
OBJECT__131
10
8.000000
20
0.000000
30
-64.250000
70
192
0
VERTEX
8
OBJECT__131
10
13.700000
20
22.014999
30
-52.695999
70
192
0
VERTEX
8
OBJECT__131
10
8.000000
20
22.014999
30
-52.695999
70
192
0
VERTEX
8
OBJECT__131
10
8.000000
20
26.555000
30
-40.723999
70
192
0
VERTEX
8
OBJECT__131
10
13.700000
20
25.011999
30
-28.014000
70
192
0
VERTEX
8
OBJECT__131
10
8.000000
20
25.011999
30
-28.014000
70
192
0
VERTEX
8
OBJECT__131
10
13.700000
20
17.739000
30
-17.476999
70
192
0
VERTEX
8
OBJECT__131
10
8.000000
20
17.739000
30
-17.476999
70
192
0
VERTEX
8
OBJECT__131
10
13.700000
20
6.402000
30
-11.527000
70
192
0
VERTEX
8
OBJECT__131
10
8.000000
20
6.402000
30
-11.527000
70
192
0
VERTEX
8
OBJECT__131
10
13.700000
20
-6.402000
30
-11.527000
70
192
0
VERTEX
8
OBJECT__131
10
8.000000
20
-6.402000
30
-11.527000
70
192
0
VERTEX
8
OBJECT__131
10
8.000000
20
0.000000
30
-10.750000
70
192
0
VERTEX
8
OBJECT__131
10
13.700000
20
0.000000
30
-10.750000
70
192
0
VERTEX
8
OBJECT__131
10
13.700000
20
-17.739000
30
-17.476999
70
192
0
VERTEX
8
OBJECT__131
10
13.700000
20
-25.011999
30
-28.014000
70
192
0
VERTEX
8
OBJECT__131
10
8.000000
20
-25.011999
30
-28.014000
70
192
0
VERTEX
8
OBJECT__131
10
8.000000
20
-17.739000
30
-17.476999
70
192
0
VERTEX
8
OBJECT__131
10
13.700000
20
-26.555000
30
-40.723999
70
192
0
VERTEX
8
OBJECT__131
10
8.000000
20
-26.555000
30
-40.723999
70
192
0
VERTEX
8
OBJECT__131
10
8.000000
20
-22.014999
30
-52.695999
70
192
0
VERTEX
8
OBJECT__131
10
8.000000
20
-12.431000
30
-61.186001
70
192
0
VERTEX
8
OBJECT__131
10
13.700000
20
-22.014999
30
-52.695999
70
192
0
VERTEX
8
OBJECT__131
10
13.700000
20
0.000000
30
-64.250000
70
192
0
VERTEX
8
OBJECT__131
10
13.700000
20
-12.431000
30
-61.186001
70
192
0
VERTEX
8
OBJECT__131
10
13.700000
20
26.555000
30
-40.723999
70
192
0
VERTEX
8
OBJECT__131
10
0
20
0
30
0
70
128
71
1
72
2
73
3
0
VERTEX
8
OBJECT__131
10
0
20
0
30
0
70
128
71
4
72
5
73
2
0
VERTEX
8
OBJECT__131
10
0
20
0
30
0
70
128
71
6
72
5
73
4
0
VERTEX
8
OBJECT__131
10
0
20
0
30
0
70
128
71
7
72
8
73
6
0
VERTEX
8
OBJECT__131
10
0
20
0
30
0
70
128
71
9
72
10
73
8
0
VERTEX
8
OBJECT__131
10
0
20
0
30
0
70
128
71
11
72
12
73
10
0
VERTEX
8
OBJECT__131
10
0
20
0
30
0
70
128
71
13
72
14
73
15
0
VERTEX
8
OBJECT__131
10
0
20
0
30
0
70
128
71
12
72
11
73
16
0
VERTEX
8
OBJECT__131
10
0
20
0
30
0
70
128
71
16
72
15
73
12
0
VERTEX
8
OBJECT__131
10
0
20
0
30
0
70
128
71
14
72
13
73
17
0
VERTEX
8
OBJECT__131
10
0
20
0
30
0
70
128
71
18
72
19
73
20
0
VERTEX
8
OBJECT__131
10
0
20
0
30
0
70
128
71
21
72
22
73
19
0
VERTEX
8
OBJECT__131
10
0
20
0
30
0
70
128
71
23
72
22
73
21
0
VERTEX
8
OBJECT__131
10
0
20
0
30
0
70
128
71
24
72
23
73
25
0
VERTEX
8
OBJECT__131
10
0
20
0
30
0
70
128
71
26
72
3
73
24
0
VERTEX
8
OBJECT__131
10
0
20
0
30
0
70
128
71
24
72
27
73
26
0
VERTEX
8
OBJECT__131
10
0
20
0
30
0
70
128
71
25
72
27
73
24
0
VERTEX
8
OBJECT__131
10
0
20
0
30
0
70
128
71
21
72
25
73
23
0
VERTEX
8
OBJECT__131
10
0
20
0
30
0
70
128
71
19
72
18
73
21
0
VERTEX
8
OBJECT__131
10
0
20
0
30
0
70
128
71
20
72
17
73
18
0
VERTEX
8
OBJECT__131
10
0
20
0
30
0
70
128
71
17
72
20
73
14
0
VERTEX
8
OBJECT__131
10
0
20
0
30
0
70
128
71
15
72
16
73
13
0
VERTEX
8
OBJECT__131
10
0
20
0
30
0
70
128
71
10
72
9
73
11
0
VERTEX
8
OBJECT__131
10
0
20
0
30
0
70
128
71
8
72
7
73
9
0
VERTEX
8
OBJECT__131
10
0
20
0
30
0
70
128
71
6
72
28
73
7
0
VERTEX
8
OBJECT__131
10
0
20
0
30
0
70
128
71
4
72
28
73
6
0
VERTEX
8
OBJECT__131
10
0
20
0
30
0
70
128
71
2
72
1
73
4
0
VERTEX
8
OBJECT__131
10
0
20
0
30
0
70
128
71
3
72
26
73
1
0
SEQEND
8
OBJECT__131
0
POLYLINE
8
OBJECT__132
66
1
70
64
71
14
72
12
62
253
0
VERTEX
8
OBJECT__132
10
8.000000
20
-12.431000
30
-61.186001
70
192
0
VERTEX
8
OBJECT__132
10
8.000000
20
-25.011999
30
-28.014000
70
192
0
VERTEX
8
OBJECT__132
10
8.000000
20
-26.555000
30
-40.723999
70
192
0
VERTEX
8
OBJECT__132
10
8.000000
20
6.402000
30
-11.527000
70
192
0
VERTEX
8
OBJECT__132
10
8.000000
20
26.555000
30
-40.723999
70
192
0
VERTEX
8
OBJECT__132
10
8.000000
20
25.011999
30
-28.014000
70
192
0
VERTEX
8
OBJECT__132
10
8.000000
20
-22.014999
30
-52.695999
70
192
0
VERTEX
8
OBJECT__132
10
8.000000
20
0.000000
30
-64.250000
70
192
0
VERTEX
8
OBJECT__132
10
8.000000
20
-6.402000
30
-11.527000
70
192
0
VERTEX
8
OBJECT__132
10
8.000000
20
-17.739000
30
-17.476999
70
192
0
VERTEX
8
OBJECT__132
10
8.000000
20
22.014999
30
-52.695999
70
192
0
VERTEX
8
OBJECT__132
10
8.000000
20
12.431000
30
-61.186001
70
192
0
VERTEX
8
OBJECT__132
10
8.000000
20
0.000000
30
-10.750000
70
192
0
VERTEX
8
OBJECT__132
10
8.000000
20
17.739000
30
-17.476999
70
192
0
VERTEX
8
OBJECT__132
10
0
20
0
30
0
70
128
71
1
72
2
73
3
0
VERTEX
8
OBJECT__132
10
0
20
0
30
0
70
128
71
4
72
5
73
6
0
VERTEX
8
OBJECT__132
10
0
20
0
30
0
70
128
71
3
72
7
73
1
0
VERTEX
8
OBJECT__132
10
0
20
0
30
0
70
128
71
8
72
9
73
10
0
VERTEX
8
OBJECT__132
10
0
20
0
30
0
70
128
71
4
72
11
73
5
0
VERTEX
8
OBJECT__132
10
0
20
0
30
0
70
128
71
4
72
8
73
12
0
VERTEX
8
OBJECT__132
10
0
20
0
30
0
70
128
71
10
72
2
73
8
0
VERTEX
8
OBJECT__132
10
0
20
0
30
0
70
128
71
12
72
11
73
4
0
VERTEX
8
OBJECT__132
10
0
20
0
30
0
70
128
71
8
72
13
73
9
0
VERTEX
8
OBJECT__132
10
0
20
0
30
0
70
128
71
6
72
14
73
4
0
VERTEX
8
OBJECT__132
10
0
20
0
30
0
70
128
71
4
72
13
73
8
0
VERTEX
8
OBJECT__132
10
0
20
0
30
0
70
128
71
1
72
8
73
2
0
SEQEND
8
OBJECT__132
0
ENDSEC
0
EOF
