999
Converted by 3D Exploration 
999
XDimension Software, LLC
999
http://www.xdsoft.com/explorer/
0
SECTION
2
HEADER
9
$ACADVER
1
AC1008
9
$UCSORG
10
0.0
20
0.0
30
0.0
9
$UCSXDIR
10
1.0
20
0.0
30
0.0
9
$TILEMODE
70
1
9
$UCSYDIR
10
0.0
20
1.0
30
0.0
9
$EXTMIN
10
-26.250000
20
-26.250000
30
-26.250000
9
$EXTMAX
10
127.594002
20
44.849998
30
149.229996
0
ENDSEC
0
SECTION
2
TABLES
0
TABLE
2
LTYPE
70
1
0
LTYPE
2
CONTINUOUS
70
64
3
Solid line
72
65
73
0
40
0.0
0
ENDTAB
0
TABLE
2
LAYER
70
38
0
LAYER
2
OBJECT__0
70
0
62
253
6
CONTINUOUS
0
LAYER
2
OBJECT__1
70
0
62
253
6
CONTINUOUS
0
LAYER
2
OBJECT__3
70
0
62
253
6
CONTINUOUS
0
LAYER
2
OBJECT__4
70
0
62
253
6
CONTINUOUS
0
LAYER
2
OBJECT__6
70
0
62
253
6
CONTINUOUS
0
LAYER
2
OBJECT__7
70
0
62
253
6
CONTINUOUS
0
LAYER
2
OBJECT__8
70
0
62
253
6
CONTINUOUS
0
LAYER
2
OBJECT__9
70
0
62
253
6
CONTINUOUS
0
LAYER
2
OBJECT__10
70
0
62
253
6
CONTINUOUS
0
LAYER
2
OBJECT__11
70
0
62
253
6
CONTINUOUS
0
LAYER
2
OBJECT__12
70
0
62
253
6
CONTINUOUS
0
LAYER
2
OBJECT__14
70
0
62
253
6
CONTINUOUS
0
LAYER
2
OBJECT__15
70
0
62
253
6
CONTINUOUS
0
LAYER
2
OBJECT__17
70
0
62
253
6
CONTINUOUS
0
LAYER
2
OBJECT__18
70
0
62
253
6
CONTINUOUS
0
LAYER
2
OBJECT__19
70
0
62
253
6
CONTINUOUS
0
LAYER
2
OBJECT__20
70
0
62
253
6
CONTINUOUS
0
LAYER
2
OBJECT__21
70
0
62
253
6
CONTINUOUS
0
LAYER
2
OBJECT__22
70
0
62
253
6
CONTINUOUS
0
LAYER
2
OBJECT__23
70
0
62
253
6
CONTINUOUS
0
LAYER
2
OBJECT__24
70
0
62
253
6
CONTINUOUS
0
LAYER
2
OBJECT__25
70
0
62
253
6
CONTINUOUS
0
LAYER
2
OBJECT__26
70
0
62
253
6
CONTINUOUS
0
LAYER
2
OBJECT__27
70
0
62
253
6
CONTINUOUS
0
LAYER
2
OBJECT__28
70
0
62
253
6
CONTINUOUS
0
LAYER
2
OBJECT__29
70
0
62
253
6
CONTINUOUS
0
LAYER
2
OBJECT__30
70
0
62
253
6
CONTINUOUS
0
LAYER
2
OBJECT__31
70
0
62
253
6
CONTINUOUS
0
LAYER
2
OBJECT__33
70
0
62
253
6
CONTINUOUS
0
LAYER
2
OBJECT__34
70
0
62
253
6
CONTINUOUS
0
LAYER
2
OBJECT__35
70
0
62
253
6
CONTINUOUS
0
LAYER
2
OBJECT__36
70
0
62
253
6
CONTINUOUS
0
LAYER
2
OBJECT__37
70
0
62
253
6
CONTINUOUS
0
ENDTAB
0
TABLE
2
STYLE
70
1
0
STYLE
2
STANDARD
70
0
40
0.0
41
1.0
50
0.0
71
0
42
0.2
3
txt
4
1
0
ENDTAB
0
TABLE
2
UCS
70
0
0
ENDTAB
0
ENDSEC
0
SECTION
2
ENTITIES
0
POLYLINE
8
OBJECT__0
66
1
70
64
71
12
72
10
62
253
0
VERTEX
8
OBJECT__0
10
22.517000
20
-13.000000
30
0.000000
70
192
0
VERTEX
8
OBJECT__0
10
13.000000
20
22.517000
30
0.000000
70
192
0
VERTEX
8
OBJECT__0
10
22.517000
20
13.000000
30
0.000000
70
192
0
VERTEX
8
OBJECT__0
10
-22.517000
20
13.000000
30
0.000000
70
192
0
VERTEX
8
OBJECT__0
10
-13.000000
20
-22.517000
30
0.000000
70
192
0
VERTEX
8
OBJECT__0
10
-22.517000
20
-13.000000
30
0.000000
70
192
0
VERTEX
8
OBJECT__0
10
13.000000
20
-22.517000
30
0.000000
70
192
0
VERTEX
8
OBJECT__0
10
0.000000
20
-26.000000
30
0.000000
70
192
0
VERTEX
8
OBJECT__0
10
0.000000
20
26.000000
30
0.000000
70
192
0
VERTEX
8
OBJECT__0
10
-13.000000
20
22.517000
30
0.000000
70
192
0
VERTEX
8
OBJECT__0
10
26.000000
20
0.000000
30
0.000000
70
192
0
VERTEX
8
OBJECT__0
10
-26.000000
20
0.000000
30
0.000000
70
192
0
VERTEX
8
OBJECT__0
10
0
20
0
30
0
70
128
71
1
72
2
73
3
0
VERTEX
8
OBJECT__0
10
0
20
0
30
0
70
128
71
4
72
5
73
6
0
VERTEX
8
OBJECT__0
10
0
20
0
30
0
70
128
71
4
72
7
73
8
0
VERTEX
8
OBJECT__0
10
0
20
0
30
0
70
128
71
1
72
9
73
2
0
VERTEX
8
OBJECT__0
10
0
20
0
30
0
70
128
71
8
72
5
73
4
0
VERTEX
8
OBJECT__0
10
0
20
0
30
0
70
128
71
1
72
10
73
9
0
VERTEX
8
OBJECT__0
10
0
20
0
30
0
70
128
71
4
72
1
73
7
0
VERTEX
8
OBJECT__0
10
0
20
0
30
0
70
128
71
1
72
4
73
10
0
VERTEX
8
OBJECT__0
10
0
20
0
30
0
70
128
71
3
72
11
73
1
0
VERTEX
8
OBJECT__0
10
0
20
0
30
0
70
128
71
6
72
12
73
4
0
SEQEND
8
OBJECT__0
0
POLYLINE
8
OBJECT__1
66
1
70
64
71
24
72
24
62
253
0
VERTEX
8
OBJECT__1
10
-22.517000
20
13.000000
30
44.000000
70
192
0
VERTEX
8
OBJECT__1
10
-22.517000
20
13.000000
30
0.000000
70
192
0
VERTEX
8
OBJECT__1
10
-26.000000
20
0.000000
30
0.000000
70
192
0
VERTEX
8
OBJECT__1
10
-13.000000
20
22.517000
30
44.000000
70
192
0
VERTEX
8
OBJECT__1
10
-13.000000
20
22.517000
30
0.000000
70
192
0
VERTEX
8
OBJECT__1
10
0.000000
20
26.000000
30
44.000000
70
192
0
VERTEX
8
OBJECT__1
10
0.000000
20
26.000000
30
0.000000
70
192
0
VERTEX
8
OBJECT__1
10
13.000000
20
22.517000
30
44.000000
70
192
0
VERTEX
8
OBJECT__1
10
13.000000
20
22.517000
30
0.000000
70
192
0
VERTEX
8
OBJECT__1
10
22.517000
20
13.000000
30
44.000000
70
192
0
VERTEX
8
OBJECT__1
10
22.517000
20
13.000000
30
0.000000
70
192
0
VERTEX
8
OBJECT__1
10
26.000000
20
0.000000
30
44.000000
70
192
0
VERTEX
8
OBJECT__1
10
26.000000
20
0.000000
30
0.000000
70
192
0
VERTEX
8
OBJECT__1
10
22.517000
20
-13.000000
30
44.000000
70
192
0
VERTEX
8
OBJECT__1
10
22.517000
20
-13.000000
30
0.000000
70
192
0
VERTEX
8
OBJECT__1
10
13.000000
20
-22.517000
30
44.000000
70
192
0
VERTEX
8
OBJECT__1
10
13.000000
20
-22.517000
30
0.000000
70
192
0
VERTEX
8
OBJECT__1
10
0.000000
20
-26.000000
30
44.000000
70
192
0
VERTEX
8
OBJECT__1
10
0.000000
20
-26.000000
30
0.000000
70
192
0
VERTEX
8
OBJECT__1
10
-13.000000
20
-22.517000
30
44.000000
70
192
0
VERTEX
8
OBJECT__1
10
-13.000000
20
-22.517000
30
0.000000
70
192
0
VERTEX
8
OBJECT__1
10
-22.517000
20
-13.000000
30
44.000000
70
192
0
VERTEX
8
OBJECT__1
10
-22.517000
20
-13.000000
30
0.000000
70
192
0
VERTEX
8
OBJECT__1
10
-26.000000
20
0.000000
30
44.000000
70
192
0
VERTEX
8
OBJECT__1
10
0
20
0
30
0
70
128
71
1
72
2
73
3
0
VERTEX
8
OBJECT__1
10
0
20
0
30
0
70
128
71
4
72
5
73
2
0
VERTEX
8
OBJECT__1
10
0
20
0
30
0
70
128
71
6
72
7
73
5
0
VERTEX
8
OBJECT__1
10
0
20
0
30
0
70
128
71
8
72
9
73
7
0
VERTEX
8
OBJECT__1
10
0
20
0
30
0
70
128
71
10
72
11
73
9
0
VERTEX
8
OBJECT__1
10
0
20
0
30
0
70
128
71
12
72
13
73
11
0
VERTEX
8
OBJECT__1
10
0
20
0
30
0
70
128
71
14
72
15
73
13
0
VERTEX
8
OBJECT__1
10
0
20
0
30
0
70
128
71
16
72
17
73
15
0
VERTEX
8
OBJECT__1
10
0
20
0
30
0
70
128
71
18
72
19
73
17
0
VERTEX
8
OBJECT__1
10
0
20
0
30
0
70
128
71
20
72
21
73
19
0
VERTEX
8
OBJECT__1
10
0
20
0
30
0
70
128
71
22
72
23
73
21
0
VERTEX
8
OBJECT__1
10
0
20
0
30
0
70
128
71
24
72
3
73
23
0
VERTEX
8
OBJECT__1
10
0
20
0
30
0
70
128
71
23
72
22
73
24
0
VERTEX
8
OBJECT__1
10
0
20
0
30
0
70
128
71
21
72
20
73
22
0
VERTEX
8
OBJECT__1
10
0
20
0
30
0
70
128
71
19
72
18
73
20
0
VERTEX
8
OBJECT__1
10
0
20
0
30
0
70
128
71
17
72
16
73
18
0
VERTEX
8
OBJECT__1
10
0
20
0
30
0
70
128
71
15
72
14
73
16
0
VERTEX
8
OBJECT__1
10
0
20
0
30
0
70
128
71
13
72
12
73
14
0
VERTEX
8
OBJECT__1
10
0
20
0
30
0
70
128
71
11
72
10
73
12
0
VERTEX
8
OBJECT__1
10
0
20
0
30
0
70
128
71
9
72
8
73
10
0
VERTEX
8
OBJECT__1
10
0
20
0
30
0
70
128
71
7
72
6
73
8
0
VERTEX
8
OBJECT__1
10
0
20
0
30
0
70
128
71
5
72
4
73
6
0
VERTEX
8
OBJECT__1
10
0
20
0
30
0
70
128
71
2
72
1
73
4
0
VERTEX
8
OBJECT__1
10
0
20
0
30
0
70
128
71
3
72
24
73
1
0
SEQEND
8
OBJECT__1
0
POLYLINE
8
OBJECT__3
66
1
70
64
71
4
72
2
62
253
0
VERTEX
8
OBJECT__3
10
114.929001
20
-10.909000
30
97.832001
70
192
0
VERTEX
8
OBJECT__3
10
113.699997
20
-11.413000
30
97.432999
70
192
0
VERTEX
8
OBJECT__3
10
106.647003
20
-11.413000
30
95.140999
70
192
0
VERTEX
8
OBJECT__3
10
105.417999
20
-10.909000
30
94.741997
70
192
0
VERTEX
8
OBJECT__3
10
0
20
0
30
0
70
128
71
1
72
2
73
3
0
VERTEX
8
OBJECT__3
10
0
20
0
30
0
70
128
71
3
72
4
73
1
0
SEQEND
8
OBJECT__3
0
POLYLINE
8
OBJECT__4
66
1
70
64
71
9
72
7
62
253
0
VERTEX
8
OBJECT__4
10
114.929001
20
-10.909000
30
97.832001
70
192
0
VERTEX
8
OBJECT__4
10
109.987000
20
-10.909000
30
92.282997
70
192
0
VERTEX
8
OBJECT__4
10
112.677002
20
-10.909000
30
93.156998
70
192
0
VERTEX
8
OBJECT__4
10
113.989998
20
-10.909000
30
93.883003
70
192
0
VERTEX
8
OBJECT__4
10
105.417999
20
-10.909000
30
94.741997
70
192
0
VERTEX
8
OBJECT__4
10
106.893997
20
-10.909000
30
92.086998
70
192
0
VERTEX
8
OBJECT__4
10
109.933998
20
-10.909000
30
92.273003
70
192
0
VERTEX
8
OBJECT__4
10
106.267998
20
-10.909000
30
92.125999
70
192
0
VERTEX
8
OBJECT__4
10
115.778999
20
-10.909000
30
95.216003
70
192
0
VERTEX
8
OBJECT__4
10
0
20
0
30
0
70
128
71
1
72
2
73
3
0
VERTEX
8
OBJECT__4
10
0
20
0
30
0
70
128
71
3
72
4
73
1
0
VERTEX
8
OBJECT__4
10
0
20
0
30
0
70
128
71
5
72
6
73
7
0
VERTEX
8
OBJECT__4
10
0
20
0
30
0
70
128
71
1
72
7
73
2
0
VERTEX
8
OBJECT__4
10
0
20
0
30
0
70
128
71
5
72
8
73
6
0
VERTEX
8
OBJECT__4
10
0
20
0
30
0
70
128
71
7
72
1
73
5
0
VERTEX
8
OBJECT__4
10
0
20
0
30
0
70
128
71
4
72
9
73
1
0
SEQEND
8
OBJECT__4
0
POLYLINE
8
OBJECT__6
66
1
70
64
71
12
72
10
62
253
0
VERTEX
8
OBJECT__6
10
118.033997
20
8.447000
30
94.898003
70
192
0
VERTEX
8
OBJECT__6
10
121.351997
20
3.165000
30
95.975998
70
192
0
VERTEX
8
OBJECT__6
10
121.351997
20
-3.165000
30
95.975998
70
192
0
VERTEX
8
OBJECT__6
10
104.630997
20
8.447000
30
90.542999
70
192
0
VERTEX
8
OBJECT__6
10
104.630997
20
-8.447000
30
90.542999
70
192
0
VERTEX
8
OBJECT__6
10
101.313004
20
-3.165000
30
89.464996
70
192
0
VERTEX
8
OBJECT__6
10
118.033997
20
-8.447000
30
94.898003
70
192
0
VERTEX
8
OBJECT__6
10
101.313004
20
3.165000
30
89.464996
70
192
0
VERTEX
8
OBJECT__6
10
112.677002
20
-10.909000
30
93.156998
70
192
0
VERTEX
8
OBJECT__6
10
112.677002
20
10.909000
30
93.156998
70
192
0
VERTEX
8
OBJECT__6
10
109.987000
20
10.909000
30
92.282997
70
192
0
VERTEX
8
OBJECT__6
10
109.987000
20
-10.909000
30
92.282997
70
192
0
VERTEX
8
OBJECT__6
10
0
20
0
30
0
70
128
71
1
72
2
73
3
0
VERTEX
8
OBJECT__6
10
0
20
0
30
0
70
128
71
4
72
5
73
6
0
VERTEX
8
OBJECT__6
10
0
20
0
30
0
70
128
71
3
72
7
73
1
0
VERTEX
8
OBJECT__6
10
0
20
0
30
0
70
128
71
6
72
8
73
4
0
VERTEX
8
OBJECT__6
10
0
20
0
30
0
70
128
71
9
72
10
73
1
0
VERTEX
8
OBJECT__6
10
0
20
0
30
0
70
128
71
11
72
12
73
5
0
VERTEX
8
OBJECT__6
10
0
20
0
30
0
70
128
71
9
72
11
73
10
0
VERTEX
8
OBJECT__6
10
0
20
0
30
0
70
128
71
11
72
9
73
12
0
VERTEX
8
OBJECT__6
10
0
20
0
30
0
70
128
71
4
72
11
73
5
0
VERTEX
8
OBJECT__6
10
0
20
0
30
0
70
128
71
7
72
9
73
1
0
SEQEND
8
OBJECT__6
0
POLYLINE
8
OBJECT__7
66
1
70
64
71
18
72
16
62
253
0
VERTEX
8
OBJECT__7
10
121.351997
20
-3.165000
30
95.975998
70
192
0
VERTEX
8
OBJECT__7
10
121.954002
20
-3.453000
30
97.223000
70
192
0
VERTEX
8
OBJECT__7
10
119.862999
20
-6.780000
30
96.543999
70
192
0
VERTEX
8
OBJECT__7
10
118.033997
20
-8.447000
30
94.898003
70
192
0
VERTEX
8
OBJECT__7
10
121.351997
20
3.165000
30
95.975998
70
192
0
VERTEX
8
OBJECT__7
10
121.954002
20
0.000000
30
97.223000
70
192
0
VERTEX
8
OBJECT__7
10
121.954002
20
3.453000
30
97.223000
70
192
0
VERTEX
8
OBJECT__7
10
118.033997
20
8.447000
30
94.898003
70
192
0
VERTEX
8
OBJECT__7
10
119.862999
20
6.780000
30
96.543999
70
192
0
VERTEX
8
OBJECT__7
10
118.334999
20
9.214000
30
96.046997
70
192
0
VERTEX
8
OBJECT__7
10
118.334999
20
-9.214000
30
96.046997
70
192
0
VERTEX
8
OBJECT__7
10
115.778999
20
-10.909000
30
95.216003
70
192
0
VERTEX
8
OBJECT__7
10
113.989998
20
-10.909000
30
93.883003
70
192
0
VERTEX
8
OBJECT__7
10
112.726997
20
10.909000
30
93.181000
70
192
0
VERTEX
8
OBJECT__7
10
115.295998
20
10.909000
30
94.817001
70
192
0
VERTEX
8
OBJECT__7
10
112.677002
20
10.909000
30
93.156998
70
192
0
VERTEX
8
OBJECT__7
10
115.778999
20
10.909000
30
95.216003
70
192
0
VERTEX
8
OBJECT__7
10
112.677002
20
-10.909000
30
93.156998
70
192
0
VERTEX
8
OBJECT__7
10
0
20
0
30
0
70
128
71
1
72
2
73
3
0
VERTEX
8
OBJECT__7
10
0
20
0
30
0
70
128
71
3
72
4
73
1
0
VERTEX
8
OBJECT__7
10
0
20
0
30
0
70
128
71
1
72
5
73
6
0
VERTEX
8
OBJECT__7
10
0
20
0
30
0
70
128
71
5
72
7
73
6
0
VERTEX
8
OBJECT__7
10
0
20
0
30
0
70
128
71
5
72
8
73
9
0
VERTEX
8
OBJECT__7
10
0
20
0
30
0
70
128
71
8
72
10
73
9
0
VERTEX
8
OBJECT__7
10
0
20
0
30
0
70
128
71
4
72
11
73
12
0
VERTEX
8
OBJECT__7
10
0
20
0
30
0
70
128
71
12
72
13
73
4
0
VERTEX
8
OBJECT__7
10
0
20
0
30
0
70
128
71
10
72
14
73
15
0
VERTEX
8
OBJECT__7
10
0
20
0
30
0
70
128
71
8
72
16
73
14
0
VERTEX
8
OBJECT__7
10
0
20
0
30
0
70
128
71
14
72
10
73
8
0
VERTEX
8
OBJECT__7
10
0
20
0
30
0
70
128
71
15
72
17
73
10
0
VERTEX
8
OBJECT__7
10
0
20
0
30
0
70
128
71
13
72
18
73
4
0
VERTEX
8
OBJECT__7
10
0
20
0
30
0
70
128
71
9
72
7
73
5
0
VERTEX
8
OBJECT__7
10
0
20
0
30
0
70
128
71
6
72
2
73
1
0
VERTEX
8
OBJECT__7
10
0
20
0
30
0
70
128
71
3
72
11
73
4
0
SEQEND
8
OBJECT__7
0
POLYLINE
8
OBJECT__8
66
1
70
64
71
18
72
16
62
253
0
VERTEX
8
OBJECT__8
10
101.313004
20
3.165000
30
89.464996
70
192
0
VERTEX
8
OBJECT__8
10
100.093002
20
3.453000
30
90.120003
70
192
0
VERTEX
8
OBJECT__8
10
102.183998
20
6.780000
30
90.799004
70
192
0
VERTEX
8
OBJECT__8
10
104.630997
20
8.447000
30
90.542999
70
192
0
VERTEX
8
OBJECT__8
10
101.313004
20
-3.165000
30
89.464996
70
192
0
VERTEX
8
OBJECT__8
10
100.093002
20
0.000000
30
90.120003
70
192
0
VERTEX
8
OBJECT__8
10
100.093002
20
-3.453000
30
90.120003
70
192
0
VERTEX
8
OBJECT__8
10
104.630997
20
-8.447000
30
90.542999
70
192
0
VERTEX
8
OBJECT__8
10
102.183998
20
-6.780000
30
90.799004
70
192
0
VERTEX
8
OBJECT__8
10
103.711998
20
-9.214000
30
91.295998
70
192
0
VERTEX
8
OBJECT__8
10
109.933998
20
-10.909000
30
92.273003
70
192
0
VERTEX
8
OBJECT__8
10
106.893997
20
-10.909000
30
92.086998
70
192
0
VERTEX
8
OBJECT__8
10
109.987000
20
-10.909000
30
92.282997
70
192
0
VERTEX
8
OBJECT__8
10
106.267998
20
-10.909000
30
92.125999
70
192
0
VERTEX
8
OBJECT__8
10
103.711998
20
9.214000
30
91.295998
70
192
0
VERTEX
8
OBJECT__8
10
106.267998
20
10.909000
30
92.125999
70
192
0
VERTEX
8
OBJECT__8
10
108.499001
20
10.909000
30
92.098000
70
192
0
VERTEX
8
OBJECT__8
10
109.987000
20
10.909000
30
92.282997
70
192
0
VERTEX
8
OBJECT__8
10
0
20
0
30
0
70
128
71
1
72
2
73
3
0
VERTEX
8
OBJECT__8
10
0
20
0
30
0
70
128
71
3
72
4
73
1
0
VERTEX
8
OBJECT__8
10
0
20
0
30
0
70
128
71
1
72
5
73
6
0
VERTEX
8
OBJECT__8
10
0
20
0
30
0
70
128
71
5
72
7
73
6
0
VERTEX
8
OBJECT__8
10
0
20
0
30
0
70
128
71
5
72
8
73
9
0
VERTEX
8
OBJECT__8
10
0
20
0
30
0
70
128
71
8
72
10
73
9
0
VERTEX
8
OBJECT__8
10
0
20
0
30
0
70
128
71
10
72
11
73
12
0
VERTEX
8
OBJECT__8
10
0
20
0
30
0
70
128
71
8
72
13
73
11
0
VERTEX
8
OBJECT__8
10
0
20
0
30
0
70
128
71
11
72
10
73
8
0
VERTEX
8
OBJECT__8
10
0
20
0
30
0
70
128
71
12
72
14
73
10
0
VERTEX
8
OBJECT__8
10
0
20
0
30
0
70
128
71
4
72
15
73
16
0
VERTEX
8
OBJECT__8
10
0
20
0
30
0
70
128
71
16
72
17
73
4
0
VERTEX
8
OBJECT__8
10
0
20
0
30
0
70
128
71
17
72
18
73
4
0
VERTEX
8
OBJECT__8
10
0
20
0
30
0
70
128
71
9
72
7
73
5
0
VERTEX
8
OBJECT__8
10
0
20
0
30
0
70
128
71
6
72
2
73
1
0
VERTEX
8
OBJECT__8
10
0
20
0
30
0
70
128
71
3
72
15
73
4
0
SEQEND
8
OBJECT__8
0
POLYLINE
8
OBJECT__9
66
1
70
64
71
36
72
36
62
253
0
VERTEX
8
OBJECT__9
10
99.935997
20
7.053000
30
96.377998
70
192
0
VERTEX
8
OBJECT__9
10
102.183998
20
6.780000
30
90.799004
70
192
0
VERTEX
8
OBJECT__9
10
100.093002
20
3.453000
30
90.120003
70
192
0
VERTEX
8
OBJECT__9
10
97.757004
20
0.000000
30
95.668999
70
192
0
VERTEX
8
OBJECT__9
10
118.402000
20
7.053000
30
102.377998
70
192
0
VERTEX
8
OBJECT__9
10
120.582001
20
0.000000
30
103.085999
70
192
0
VERTEX
8
OBJECT__9
10
121.954002
20
3.453000
30
97.223000
70
192
0
VERTEX
8
OBJECT__9
10
121.954002
20
0.000000
30
97.223000
70
192
0
VERTEX
8
OBJECT__9
10
118.402000
20
-7.053000
30
102.377998
70
192
0
VERTEX
8
OBJECT__9
10
119.862999
20
-6.780000
30
96.543999
70
192
0
VERTEX
8
OBJECT__9
10
121.954002
20
-3.453000
30
97.223000
70
192
0
VERTEX
8
OBJECT__9
10
99.935997
20
-7.053000
30
96.377998
70
192
0
VERTEX
8
OBJECT__9
10
100.093002
20
-3.453000
30
90.120003
70
192
0
VERTEX
8
OBJECT__9
10
100.093002
20
0.000000
30
90.120003
70
192
0
VERTEX
8
OBJECT__9
10
106.647003
20
-11.413000
30
95.140999
70
192
0
VERTEX
8
OBJECT__9
10
113.699997
20
-11.413000
30
97.432999
70
192
0
VERTEX
8
OBJECT__9
10
112.695999
20
-11.413000
30
100.524002
70
192
0
VERTEX
8
OBJECT__9
10
118.334999
20
-9.214000
30
96.046997
70
192
0
VERTEX
8
OBJECT__9
10
114.929001
20
-10.909000
30
97.832001
70
192
0
VERTEX
8
OBJECT__9
10
115.778999
20
-10.909000
30
95.216003
70
192
0
VERTEX
8
OBJECT__9
10
112.695999
20
11.413000
30
100.524002
70
192
0
VERTEX
8
OBJECT__9
10
114.929001
20
10.909000
30
97.832001
70
192
0
VERTEX
8
OBJECT__9
10
118.334999
20
9.214000
30
96.046997
70
192
0
VERTEX
8
OBJECT__9
10
115.778999
20
10.909000
30
95.216003
70
192
0
VERTEX
8
OBJECT__9
10
119.862999
20
6.780000
30
96.543999
70
192
0
VERTEX
8
OBJECT__9
10
113.699997
20
11.413000
30
97.432999
70
192
0
VERTEX
8
OBJECT__9
10
106.647003
20
11.413000
30
95.140999
70
192
0
VERTEX
8
OBJECT__9
10
103.711998
20
9.214000
30
91.295998
70
192
0
VERTEX
8
OBJECT__9
10
105.417999
20
10.909000
30
94.741997
70
192
0
VERTEX
8
OBJECT__9
10
106.267998
20
10.909000
30
92.125999
70
192
0
VERTEX
8
OBJECT__9
10
105.642998
20
11.413000
30
98.232002
70
192
0
VERTEX
8
OBJECT__9
10
105.642998
20
-11.413000
30
98.232002
70
192
0
VERTEX
8
OBJECT__9
10
105.417999
20
-10.909000
30
94.741997
70
192
0
VERTEX
8
OBJECT__9
10
103.711998
20
-9.214000
30
91.295998
70
192
0
VERTEX
8
OBJECT__9
10
106.267998
20
-10.909000
30
92.125999
70
192
0
VERTEX
8
OBJECT__9
10
102.183998
20
-6.780000
30
90.799004
70
192
0
VERTEX
8
OBJECT__9
10
0
20
0
30
0
70
128
71
1
72
2
73
3
0
VERTEX
8
OBJECT__9
10
0
20
0
30
0
70
128
71
3
72
4
73
1
0
VERTEX
8
OBJECT__9
10
0
20
0
30
0
70
128
71
5
72
6
73
7
0
VERTEX
8
OBJECT__9
10
0
20
0
30
0
70
128
71
6
72
8
73
7
0
VERTEX
8
OBJECT__9
10
0
20
0
30
0
70
128
71
9
72
10
73
11
0
VERTEX
8
OBJECT__9
10
0
20
0
30
0
70
128
71
11
72
6
73
9
0
VERTEX
8
OBJECT__9
10
0
20
0
30
0
70
128
71
12
72
4
73
13
0
VERTEX
8
OBJECT__9
10
0
20
0
30
0
70
128
71
4
72
14
73
13
0
VERTEX
8
OBJECT__9
10
0
20
0
30
0
70
128
71
15
72
16
73
17
0
VERTEX
8
OBJECT__9
10
0
20
0
30
0
70
128
71
18
72
9
73
19
0
VERTEX
8
OBJECT__9
10
0
20
0
30
0
70
128
71
19
72
20
73
18
0
VERTEX
8
OBJECT__9
10
0
20
0
30
0
70
128
71
17
72
16
73
19
0
VERTEX
8
OBJECT__9
10
0
20
0
30
0
70
128
71
19
72
9
73
17
0
VERTEX
8
OBJECT__9
10
0
20
0
30
0
70
128
71
21
72
5
73
22
0
VERTEX
8
OBJECT__9
10
0
20
0
30
0
70
128
71
23
72
24
73
22
0
VERTEX
8
OBJECT__9
10
0
20
0
30
0
70
128
71
5
72
25
73
23
0
VERTEX
8
OBJECT__9
10
0
20
0
30
0
70
128
71
22
72
5
73
23
0
VERTEX
8
OBJECT__9
10
0
20
0
30
0
70
128
71
21
72
26
73
27
0
VERTEX
8
OBJECT__9
10
0
20
0
30
0
70
128
71
28
72
1
73
29
0
VERTEX
8
OBJECT__9
10
0
20
0
30
0
70
128
71
29
72
30
73
28
0
VERTEX
8
OBJECT__9
10
0
20
0
30
0
70
128
71
31
72
27
73
29
0
VERTEX
8
OBJECT__9
10
0
20
0
30
0
70
128
71
29
72
1
73
31
0
VERTEX
8
OBJECT__9
10
0
20
0
30
0
70
128
71
32
72
12
73
33
0
VERTEX
8
OBJECT__9
10
0
20
0
30
0
70
128
71
34
72
35
73
33
0
VERTEX
8
OBJECT__9
10
0
20
0
30
0
70
128
71
12
72
36
73
34
0
VERTEX
8
OBJECT__9
10
0
20
0
30
0
70
128
71
33
72
12
73
34
0
VERTEX
8
OBJECT__9
10
0
20
0
30
0
70
128
71
33
72
15
73
32
0
VERTEX
8
OBJECT__9
10
0
20
0
30
0
70
128
71
28
72
2
73
1
0
VERTEX
8
OBJECT__9
10
0
20
0
30
0
70
128
71
27
72
31
73
21
0
VERTEX
8
OBJECT__9
10
0
20
0
30
0
70
128
71
22
72
26
73
21
0
VERTEX
8
OBJECT__9
10
0
20
0
30
0
70
128
71
18
72
10
73
9
0
VERTEX
8
OBJECT__9
10
0
20
0
30
0
70
128
71
17
72
32
73
15
0
VERTEX
8
OBJECT__9
10
0
20
0
30
0
70
128
71
13
72
36
73
12
0
VERTEX
8
OBJECT__9
10
0
20
0
30
0
70
128
71
11
72
8
73
6
0
VERTEX
8
OBJECT__9
10
0
20
0
30
0
70
128
71
7
72
25
73
5
0
VERTEX
8
OBJECT__9
10
0
20
0
30
0
70
128
71
3
72
14
73
4
0
SEQEND
8
OBJECT__9
0
POLYLINE
8
OBJECT__10
66
1
70
64
71
9
72
7
62
253
0
VERTEX
8
OBJECT__10
10
105.417999
20
10.909000
30
94.741997
70
192
0
VERTEX
8
OBJECT__10
10
112.677002
20
10.909000
30
93.156998
70
192
0
VERTEX
8
OBJECT__10
10
109.987000
20
10.909000
30
92.282997
70
192
0
VERTEX
8
OBJECT__10
10
108.499001
20
10.909000
30
92.098000
70
192
0
VERTEX
8
OBJECT__10
10
114.929001
20
10.909000
30
97.832001
70
192
0
VERTEX
8
OBJECT__10
10
115.295998
20
10.909000
30
94.817001
70
192
0
VERTEX
8
OBJECT__10
10
112.726997
20
10.909000
30
93.181000
70
192
0
VERTEX
8
OBJECT__10
10
115.778999
20
10.909000
30
95.216003
70
192
0
VERTEX
8
OBJECT__10
10
106.267998
20
10.909000
30
92.125999
70
192
0
VERTEX
8
OBJECT__10
10
0
20
0
30
0
70
128
71
1
72
2
73
3
0
VERTEX
8
OBJECT__10
10
0
20
0
30
0
70
128
71
3
72
4
73
1
0
VERTEX
8
OBJECT__10
10
0
20
0
30
0
70
128
71
5
72
6
73
7
0
VERTEX
8
OBJECT__10
10
0
20
0
30
0
70
128
71
1
72
7
73
2
0
VERTEX
8
OBJECT__10
10
0
20
0
30
0
70
128
71
5
72
8
73
6
0
VERTEX
8
OBJECT__10
10
0
20
0
30
0
70
128
71
7
72
1
73
5
0
VERTEX
8
OBJECT__10
10
0
20
0
30
0
70
128
71
4
72
9
73
1
0
SEQEND
8
OBJECT__10
0
POLYLINE
8
OBJECT__11
66
1
70
64
71
4
72
2
62
253
0
VERTEX
8
OBJECT__11
10
114.929001
20
10.909000
30
97.832001
70
192
0
VERTEX
8
OBJECT__11
10
105.417999
20
10.909000
30
94.741997
70
192
0
VERTEX
8
OBJECT__11
10
106.647003
20
11.413000
30
95.140999
70
192
0
VERTEX
8
OBJECT__11
10
113.699997
20
11.413000
30
97.432999
70
192
0
VERTEX
8
OBJECT__11
10
0
20
0
30
0
70
128
71
1
72
2
73
3
0
VERTEX
8
OBJECT__11
10
0
20
0
30
0
70
128
71
3
72
4
73
1
0
SEQEND
8
OBJECT__11
0
POLYLINE
8
OBJECT__12
66
1
70
64
71
14
72
14
62
253
0
VERTEX
8
OBJECT__12
10
1.000000
20
15.050000
30
36.000000
70
192
0
VERTEX
8
OBJECT__12
10
-1.259000
20
15.050000
30
31.309000
70
192
0
VERTEX
8
OBJECT__12
10
-1.259000
20
30.850000
30
31.309000
70
192
0
VERTEX
8
OBJECT__12
10
1.000000
20
30.850000
30
36.000000
70
192
0
VERTEX
8
OBJECT__12
10
-6.335000
20
15.050000
30
30.150000
70
192
0
VERTEX
8
OBJECT__12
10
-6.335000
20
30.850000
30
30.150000
70
192
0
VERTEX
8
OBJECT__12
10
-10.406000
20
15.050000
30
33.396999
70
192
0
VERTEX
8
OBJECT__12
10
-10.406000
20
30.850000
30
33.396999
70
192
0
VERTEX
8
OBJECT__12
10
-10.406000
20
15.050000
30
38.603001
70
192
0
VERTEX
8
OBJECT__12
10
-10.406000
20
30.850000
30
38.603001
70
192
0
VERTEX
8
OBJECT__12
10
-6.335000
20
15.050000
30
41.849998
70
192
0
VERTEX
8
OBJECT__12
10
-6.335000
20
30.850000
30
41.849998
70
192
0
VERTEX
8
OBJECT__12
10
-1.259000
20
15.050000
30
40.691002
70
192
0
VERTEX
8
OBJECT__12
10
-1.259000
20
30.850000
30
40.691002
70
192
0
VERTEX
8
OBJECT__12
10
0
20
0
30
0
70
128
71
1
72
2
73
3
0
VERTEX
8
OBJECT__12
10
0
20
0
30
0
70
128
71
1
72
3
73
4
0
VERTEX
8
OBJECT__12
10
0
20
0
30
0
70
128
71
2
72
5
73
6
0
VERTEX
8
OBJECT__12
10
0
20
0
30
0
70
128
71
2
72
6
73
3
0
VERTEX
8
OBJECT__12
10
0
20
0
30
0
70
128
71
5
72
7
73
8
0
VERTEX
8
OBJECT__12
10
0
20
0
30
0
70
128
71
5
72
8
73
6
0
VERTEX
8
OBJECT__12
10
0
20
0
30
0
70
128
71
7
72
9
73
10
0
VERTEX
8
OBJECT__12
10
0
20
0
30
0
70
128
71
7
72
10
73
8
0
VERTEX
8
OBJECT__12
10
0
20
0
30
0
70
128
71
9
72
11
73
12
0
VERTEX
8
OBJECT__12
10
0
20
0
30
0
70
128
71
9
72
12
73
10
0
VERTEX
8
OBJECT__12
10
0
20
0
30
0
70
128
71
11
72
13
73
14
0
VERTEX
8
OBJECT__12
10
0
20
0
30
0
70
128
71
11
72
14
73
12
0
VERTEX
8
OBJECT__12
10
0
20
0
30
0
70
128
71
13
72
1
73
4
0
VERTEX
8
OBJECT__12
10
0
20
0
30
0
70
128
71
13
72
4
73
14
0
SEQEND
8
OBJECT__12
0
POLYLINE
8
OBJECT__14
66
1
70
64
71
5
72
3
62
253
0
VERTEX
8
OBJECT__14
10
-24.125999
20
-10.343000
30
149.229996
70
192
0
VERTEX
8
OBJECT__14
10
-23.329000
20
12.035000
30
149.229996
70
192
0
VERTEX
8
OBJECT__14
10
-24.125999
20
10.343000
30
149.229996
70
192
0
VERTEX
8
OBJECT__14
10
-26.250000
20
0.000000
30
149.229996
70
192
0
VERTEX
8
OBJECT__14
10
-23.329000
20
-12.035000
30
149.229996
70
192
0
VERTEX
8
OBJECT__14
10
0
20
0
30
0
70
128
71
1
72
2
73
3
0
VERTEX
8
OBJECT__14
10
0
20
0
30
0
70
128
71
3
72
4
73
1
0
VERTEX
8
OBJECT__14
10
0
20
0
30
0
70
128
71
1
72
5
73
2
0
SEQEND
8
OBJECT__14
0
POLYLINE
8
OBJECT__15
66
1
70
64
71
29
72
27
62
253
0
VERTEX
8
OBJECT__15
10
15.152000
20
-25.535000
30
138.005005
70
192
0
VERTEX
8
OBJECT__15
10
54.139000
20
-23.612000
30
128.634995
70
192
0
VERTEX
8
OBJECT__15
10
48.159000
20
23.907000
30
129.871994
70
192
0
VERTEX
8
OBJECT__15
10
54.139000
20
23.612000
30
128.634995
70
192
0
VERTEX
8
OBJECT__15
10
-9.120000
20
24.554001
30
144.697006
70
192
0
VERTEX
8
OBJECT__15
10
-9.110000
20
-24.517000
30
144.695999
70
192
0
VERTEX
8
OBJECT__15
10
-6.923000
20
-25.320999
30
144.024994
70
192
0
VERTEX
8
OBJECT__15
10
-2.661000
20
-26.115000
30
142.748993
70
192
0
VERTEX
8
OBJECT__15
10
1.293000
20
-26.218000
30
141.591995
70
192
0
VERTEX
8
OBJECT__15
10
-18.040001
20
18.951000
30
147.503006
70
192
0
VERTEX
8
OBJECT__15
10
-14.875000
20
-21.629000
30
146.488998
70
192
0
VERTEX
8
OBJECT__15
10
-11.119000
20
-23.778999
30
145.311996
70
192
0
VERTEX
8
OBJECT__15
10
-18.097000
20
-19.011000
30
147.518997
70
192
0
VERTEX
8
OBJECT__15
10
-20.980000
20
-15.776000
30
148.455994
70
192
0
VERTEX
8
OBJECT__15
10
-22.486000
20
13.543000
30
148.951004
70
192
0
VERTEX
8
OBJECT__15
10
-23.329000
20
12.035000
30
149.229996
70
192
0
VERTEX
8
OBJECT__15
10
-23.329000
20
-12.035000
30
149.229996
70
192
0
VERTEX
8
OBJECT__15
10
-18.127001
20
-18.987000
30
147.529007
70
192
0
VERTEX
8
OBJECT__15
10
-19.514000
20
17.556999
30
147.977997
70
192
0
VERTEX
8
OBJECT__15
10
-22.089001
20
14.183000
30
148.820007
70
192
0
VERTEX
8
OBJECT__15
10
-15.890000
20
20.893999
30
146.811996
70
192
0
VERTEX
8
OBJECT__15
10
-16.422001
20
20.479000
30
146.981995
70
192
0
VERTEX
8
OBJECT__15
10
-12.275000
20
23.202999
30
145.671997
70
192
0
VERTEX
8
OBJECT__15
10
7.167000
20
-25.927999
30
139.923996
70
192
0
VERTEX
8
OBJECT__15
10
0.636000
20
26.242001
30
141.783005
70
192
0
VERTEX
8
OBJECT__15
10
-3.695000
20
25.989000
30
143.054993
70
192
0
VERTEX
8
OBJECT__15
10
-8.319000
20
24.896999
30
144.449997
70
192
0
VERTEX
8
OBJECT__15
10
1.293000
20
26.218000
30
141.591995
70
192
0
VERTEX
8
OBJECT__15
10
15.183000
20
25.533001
30
138.119003
70
192
0
VERTEX
8
OBJECT__15
10
0
20
0
30
0
70
128
71
1
72
2
73
3
0
VERTEX
8
OBJECT__15
10
0
20
0
30
0
70
128
71
2
72
4
73
3
0
VERTEX
8
OBJECT__15
10
0
20
0
30
0
70
128
71
5
72
6
73
7
0
VERTEX
8
OBJECT__15
10
0
20
0
30
0
70
128
71
7
72
8
73
5
0
VERTEX
8
OBJECT__15
10
0
20
0
30
0
70
128
71
8
72
9
73
5
0
VERTEX
8
OBJECT__15
10
0
20
0
30
0
70
128
71
10
72
11
73
12
0
VERTEX
8
OBJECT__15
10
0
20
0
30
0
70
128
71
10
72
13
73
11
0
VERTEX
8
OBJECT__15
10
0
20
0
30
0
70
128
71
14
72
15
73
16
0
VERTEX
8
OBJECT__15
10
0
20
0
30
0
70
128
71
16
72
17
73
14
0
VERTEX
8
OBJECT__15
10
0
20
0
30
0
70
128
71
14
72
18
73
15
0
VERTEX
8
OBJECT__15
10
0
20
0
30
0
70
128
71
13
72
10
73
19
0
VERTEX
8
OBJECT__15
10
0
20
0
30
0
70
128
71
19
72
20
73
13
0
VERTEX
8
OBJECT__15
10
0
20
0
30
0
70
128
71
20
72
15
73
13
0
VERTEX
8
OBJECT__15
10
0
20
0
30
0
70
128
71
18
72
13
73
15
0
VERTEX
8
OBJECT__15
10
0
20
0
30
0
70
128
71
6
72
21
73
22
0
VERTEX
8
OBJECT__15
10
0
20
0
30
0
70
128
71
6
72
5
73
23
0
VERTEX
8
OBJECT__15
10
0
20
0
30
0
70
128
71
23
72
21
73
6
0
VERTEX
8
OBJECT__15
10
0
20
0
30
0
70
128
71
22
72
10
73
6
0
VERTEX
8
OBJECT__15
10
0
20
0
30
0
70
128
71
12
72
6
73
10
0
VERTEX
8
OBJECT__15
10
0
20
0
30
0
70
128
71
24
72
25
73
26
0
VERTEX
8
OBJECT__15
10
0
20
0
30
0
70
128
71
26
72
27
73
24
0
VERTEX
8
OBJECT__15
10
0
20
0
30
0
70
128
71
24
72
28
73
25
0
VERTEX
8
OBJECT__15
10
0
20
0
30
0
70
128
71
29
72
28
73
24
0
VERTEX
8
OBJECT__15
10
0
20
0
30
0
70
128
71
24
72
1
73
29
0
VERTEX
8
OBJECT__15
10
0
20
0
30
0
70
128
71
27
72
5
73
24
0
VERTEX
8
OBJECT__15
10
0
20
0
30
0
70
128
71
9
72
24
73
5
0
VERTEX
8
OBJECT__15
10
0
20
0
30
0
70
128
71
3
72
29
73
1
0
SEQEND
8
OBJECT__15
0
POLYLINE
8
OBJECT__17
66
1
70
64
71
34
72
33
62
253
0
VERTEX
8
OBJECT__17
10
91.216003
20
-21.784000
30
119.827003
70
192
0
VERTEX
8
OBJECT__17
10
107.627998
20
-20.975000
30
115.900002
70
192
0
VERTEX
8
OBJECT__17
10
105.834000
20
21.063000
30
116.389999
70
192
0
VERTEX
8
OBJECT__17
10
119.791000
20
15.626000
30
112.458000
70
192
0
VERTEX
8
OBJECT__17
10
116.348000
20
18.548000
30
113.452003
70
192
0
VERTEX
8
OBJECT__17
10
113.334000
20
19.889000
30
114.310997
70
192
0
VERTEX
8
OBJECT__17
10
111.449997
20
20.431000
30
114.839996
70
192
0
VERTEX
8
OBJECT__17
10
107.627998
20
20.975000
30
115.900002
70
192
0
VERTEX
8
OBJECT__17
10
123.230003
20
12.704000
30
111.445999
70
192
0
VERTEX
8
OBJECT__17
10
122.512001
20
13.697000
30
111.658997
70
192
0
VERTEX
8
OBJECT__17
10
119.772003
20
16.350000
30
112.462997
70
192
0
VERTEX
8
OBJECT__17
10
116.849998
20
18.325001
30
113.308998
70
192
0
VERTEX
8
OBJECT__17
10
126.237000
20
7.425000
30
110.549004
70
192
0
VERTEX
8
OBJECT__17
10
124.581001
20
10.837000
30
111.044998
70
192
0
VERTEX
8
OBJECT__17
10
127.075996
20
4.522000
30
110.296997
70
192
0
VERTEX
8
OBJECT__17
10
127.588997
20
0.431000
30
110.140999
70
192
0
VERTEX
8
OBJECT__17
10
127.170998
20
4.191000
30
110.267998
70
192
0
VERTEX
8
OBJECT__17
10
127.058998
20
-4.518000
30
110.302002
70
192
0
VERTEX
8
OBJECT__17
10
127.250000
20
-3.782000
30
110.244003
70
192
0
VERTEX
8
OBJECT__17
10
127.594002
20
0.000000
30
110.139999
70
192
0
VERTEX
8
OBJECT__17
10
124.938004
20
-10.222000
30
110.939003
70
192
0
VERTEX
8
OBJECT__17
10
126.484001
20
-6.734000
30
110.474998
70
192
0
VERTEX
8
OBJECT__17
10
123.313004
20
-12.707000
30
111.421997
70
192
0
VERTEX
8
OBJECT__17
10
123.281998
20
-12.741000
30
111.431000
70
192
0
VERTEX
8
OBJECT__17
10
118.366997
20
-17.389000
30
112.871002
70
192
0
VERTEX
8
OBJECT__17
10
120.717003
20
-15.541000
30
112.186996
70
192
0
VERTEX
8
OBJECT__17
10
116.323997
20
-18.513000
30
113.458000
70
192
0
VERTEX
8
OBJECT__17
10
111.987999
20
-20.295000
30
114.690002
70
192
0
VERTEX
8
OBJECT__17
10
114.978996
20
-19.253000
30
113.844002
70
192
0
VERTEX
8
OBJECT__17
10
108.174004
20
-20.940001
30
115.750000
70
192
0
VERTEX
8
OBJECT__17
10
54.139000
20
23.612000
30
128.634995
70
192
0
VERTEX
8
OBJECT__17
10
55.960999
20
-23.521999
30
128.264008
70
192
0
VERTEX
8
OBJECT__17
10
54.139000
20
-23.612000
30
128.634995
70
192
0
VERTEX
8
OBJECT__17
10
91.223000
20
21.784000
30
119.850998
70
192
0
VERTEX
8
OBJECT__17
10
0
20
0
30
0
70
128
71
1
72
2
73
3
0
VERTEX
8
OBJECT__17
10
0
20
0
30
0
70
128
71
4
72
5
73
6
0
VERTEX
8
OBJECT__17
10
0
20
0
30
0
70
128
71
6
72
7
73
4
0
VERTEX
8
OBJECT__17
10
0
20
0
30
0
70
128
71
7
72
8
73
4
0
VERTEX
8
OBJECT__17
10
0
20
0
30
0
70
128
71
3
72
9
73
4
0
VERTEX
8
OBJECT__17
10
0
20
0
30
0
70
128
71
4
72
9
73
10
0
VERTEX
8
OBJECT__17
10
0
20
0
30
0
70
128
71
4
72
11
73
12
0
VERTEX
8
OBJECT__17
10
0
20
0
30
0
70
128
71
12
72
5
73
4
0
VERTEX
8
OBJECT__17
10
0
20
0
30
0
70
128
71
10
72
11
73
4
0
VERTEX
8
OBJECT__17
10
0
20
0
30
0
70
128
71
3
72
13
73
14
0
VERTEX
8
OBJECT__17
10
0
20
0
30
0
70
128
71
3
72
15
73
13
0
VERTEX
8
OBJECT__17
10
0
20
0
30
0
70
128
71
14
72
9
73
3
0
VERTEX
8
OBJECT__17
10
0
20
0
30
0
70
128
71
3
72
16
73
17
0
VERTEX
8
OBJECT__17
10
0
20
0
30
0
70
128
71
3
72
18
73
19
0
VERTEX
8
OBJECT__17
10
0
20
0
30
0
70
128
71
19
72
20
73
3
0
VERTEX
8
OBJECT__17
10
0
20
0
30
0
70
128
71
20
72
16
73
3
0
VERTEX
8
OBJECT__17
10
0
20
0
30
0
70
128
71
3
72
21
73
22
0
VERTEX
8
OBJECT__17
10
0
20
0
30
0
70
128
71
3
72
23
73
21
0
VERTEX
8
OBJECT__17
10
0
20
0
30
0
70
128
71
3
72
24
73
23
0
VERTEX
8
OBJECT__17
10
0
20
0
30
0
70
128
71
22
72
18
73
3
0
VERTEX
8
OBJECT__17
10
0
20
0
30
0
70
128
71
17
72
15
73
3
0
VERTEX
8
OBJECT__17
10
0
20
0
30
0
70
128
71
3
72
25
73
26
0
VERTEX
8
OBJECT__17
10
0
20
0
30
0
70
128
71
3
72
27
73
25
0
VERTEX
8
OBJECT__17
10
0
20
0
30
0
70
128
71
3
72
28
73
29
0
VERTEX
8
OBJECT__17
10
0
20
0
30
0
70
128
71
3
72
30
73
28
0
VERTEX
8
OBJECT__17
10
0
20
0
30
0
70
128
71
3
72
2
73
30
0
VERTEX
8
OBJECT__17
10
0
20
0
30
0
70
128
71
29
72
27
73
3
0
VERTEX
8
OBJECT__17
10
0
20
0
30
0
70
128
71
26
72
24
73
3
0
VERTEX
8
OBJECT__17
10
0
20
0
30
0
70
128
71
8
72
3
73
4
0
VERTEX
8
OBJECT__17
10
0
20
0
30
0
70
128
71
31
72
32
73
1
0
VERTEX
8
OBJECT__17
10
0
20
0
30
0
70
128
71
31
72
33
73
32
0
VERTEX
8
OBJECT__17
10
0
20
0
30
0
70
128
71
1
72
34
73
31
0
VERTEX
8
OBJECT__17
10
0
20
0
30
0
70
128
71
3
72
34
73
1
0
SEQEND
8
OBJECT__17
0
POLYLINE
8
OBJECT__18
66
1
70
64
71
47
72
45
62
253
0
VERTEX
8
OBJECT__18
10
114.978996
20
-19.253000
30
113.844002
70
192
0
VERTEX
8
OBJECT__18
10
114.698997
20
-19.372999
30
101.125000
70
192
0
VERTEX
8
OBJECT__18
10
116.324997
20
-18.511000
30
101.601997
70
192
0
VERTEX
8
OBJECT__18
10
116.323997
20
-18.513000
30
113.458000
70
192
0
VERTEX
8
OBJECT__18
10
111.434998
20
-20.434000
30
100.139999
70
192
0
VERTEX
8
OBJECT__18
10
111.987999
20
-20.295000
30
114.690002
70
192
0
VERTEX
8
OBJECT__18
10
108.174004
20
-20.940001
30
115.750000
70
192
0
VERTEX
8
OBJECT__18
10
107.627998
20
-20.975000
30
115.900002
70
192
0
VERTEX
8
OBJECT__18
10
107.627998
20
-20.975000
30
98.957001
70
192
0
VERTEX
8
OBJECT__18
10
120.885002
20
-15.387000
30
102.924004
70
192
0
VERTEX
8
OBJECT__18
10
123.269997
20
-12.730000
30
103.596001
70
192
0
VERTEX
8
OBJECT__18
10
123.281998
20
-12.741000
30
111.431000
70
192
0
VERTEX
8
OBJECT__18
10
120.717003
20
-15.541000
30
112.186996
70
192
0
VERTEX
8
OBJECT__18
10
118.074997
20
-17.583000
30
102.116997
70
192
0
VERTEX
8
OBJECT__18
10
118.366997
20
-17.389000
30
112.871002
70
192
0
VERTEX
8
OBJECT__18
10
124.722000
20
-10.600000
30
104.000000
70
192
0
VERTEX
8
OBJECT__18
10
127.098999
20
-4.529000
30
104.000000
70
192
0
VERTEX
8
OBJECT__18
10
126.484001
20
-6.734000
30
110.474998
70
192
0
VERTEX
8
OBJECT__18
10
127.058998
20
-4.518000
30
110.302002
70
192
0
VERTEX
8
OBJECT__18
10
123.313004
20
-12.707000
30
111.421997
70
192
0
VERTEX
8
OBJECT__18
10
123.427002
20
-12.556000
30
103.639999
70
192
0
VERTEX
8
OBJECT__18
10
124.938004
20
-10.222000
30
110.939003
70
192
0
VERTEX
8
OBJECT__18
10
127.098999
20
4.529000
30
104.000000
70
192
0
VERTEX
8
OBJECT__18
10
127.588997
20
0.431000
30
110.140999
70
192
0
VERTEX
8
OBJECT__18
10
127.594002
20
0.000000
30
110.139999
70
192
0
VERTEX
8
OBJECT__18
10
127.170998
20
4.191000
30
110.267998
70
192
0
VERTEX
8
OBJECT__18
10
127.250000
20
-3.782000
30
110.244003
70
192
0
VERTEX
8
OBJECT__18
10
127.075996
20
4.522000
30
110.296997
70
192
0
VERTEX
8
OBJECT__18
10
123.222000
20
12.699000
30
103.582001
70
192
0
VERTEX
8
OBJECT__18
10
123.230003
20
12.704000
30
111.445999
70
192
0
VERTEX
8
OBJECT__18
10
124.581001
20
10.837000
30
111.044998
70
192
0
VERTEX
8
OBJECT__18
10
124.722000
20
10.600000
30
104.000000
70
192
0
VERTEX
8
OBJECT__18
10
126.237000
20
7.425000
30
110.549004
70
192
0
VERTEX
8
OBJECT__18
10
117.041000
20
18.216999
30
101.816002
70
192
0
VERTEX
8
OBJECT__18
10
116.348000
20
18.548000
30
113.452003
70
192
0
VERTEX
8
OBJECT__18
10
116.849998
20
18.325001
30
113.308998
70
192
0
VERTEX
8
OBJECT__18
10
120.189003
20
16.004999
30
102.725998
70
192
0
VERTEX
8
OBJECT__18
10
119.772003
20
16.350000
30
112.462997
70
192
0
VERTEX
8
OBJECT__18
10
122.512001
20
13.697000
30
111.658997
70
192
0
VERTEX
8
OBJECT__18
10
122.495003
20
13.717000
30
103.378998
70
192
0
VERTEX
8
OBJECT__18
10
110.512001
20
20.631001
30
99.857002
70
192
0
VERTEX
8
OBJECT__18
10
107.627998
20
20.975000
30
115.900002
70
192
0
VERTEX
8
OBJECT__18
10
111.449997
20
20.431000
30
114.839996
70
192
0
VERTEX
8
OBJECT__18
10
113.334000
20
19.889000
30
114.310997
70
192
0
VERTEX
8
OBJECT__18
10
116.347000
20
18.549000
30
101.610001
70
192
0
VERTEX
8
OBJECT__18
10
114.223999
20
19.565001
30
100.983002
70
192
0
VERTEX
8
OBJECT__18
10
107.627998
20
20.975000
30
98.957001
70
192
0
VERTEX
8
OBJECT__18
10
0
20
0
30
0
70
128
71
1
72
2
73
3
0
VERTEX
8
OBJECT__18
10
0
20
0
30
0
70
128
71
3
72
4
73
1
0
VERTEX
8
OBJECT__18
10
0
20
0
30
0
70
128
71
5
72
2
73
6
0
VERTEX
8
OBJECT__18
10
0
20
0
30
0
70
128
71
6
72
7
73
5
0
VERTEX
8
OBJECT__18
10
0
20
0
30
0
70
128
71
7
72
8
73
5
0
VERTEX
8
OBJECT__18
10
0
20
0
30
0
70
128
71
8
72
9
73
5
0
VERTEX
8
OBJECT__18
10
0
20
0
30
0
70
128
71
10
72
11
73
12
0
VERTEX
8
OBJECT__18
10
0
20
0
30
0
70
128
71
12
72
13
73
10
0
VERTEX
8
OBJECT__18
10
0
20
0
30
0
70
128
71
14
72
10
73
15
0
VERTEX
8
OBJECT__18
10
0
20
0
30
0
70
128
71
15
72
4
73
14
0
VERTEX
8
OBJECT__18
10
0
20
0
30
0
70
128
71
4
72
3
73
14
0
VERTEX
8
OBJECT__18
10
0
20
0
30
0
70
128
71
16
72
17
73
18
0
VERTEX
8
OBJECT__18
10
0
20
0
30
0
70
128
71
17
72
19
73
18
0
VERTEX
8
OBJECT__18
10
0
20
0
30
0
70
128
71
20
72
21
73
16
0
VERTEX
8
OBJECT__18
10
0
20
0
30
0
70
128
71
20
72
11
73
21
0
VERTEX
8
OBJECT__18
10
0
20
0
30
0
70
128
71
16
72
22
73
20
0
VERTEX
8
OBJECT__18
10
0
20
0
30
0
70
128
71
20
72
12
73
11
0
VERTEX
8
OBJECT__18
10
0
20
0
30
0
70
128
71
23
72
24
73
25
0
VERTEX
8
OBJECT__18
10
0
20
0
30
0
70
128
71
23
72
26
73
24
0
VERTEX
8
OBJECT__18
10
0
20
0
30
0
70
128
71
25
72
17
73
23
0
VERTEX
8
OBJECT__18
10
0
20
0
30
0
70
128
71
25
72
27
73
17
0
VERTEX
8
OBJECT__18
10
0
20
0
30
0
70
128
71
23
72
28
73
26
0
VERTEX
8
OBJECT__18
10
0
20
0
30
0
70
128
71
29
72
30
73
31
0
VERTEX
8
OBJECT__18
10
0
20
0
30
0
70
128
71
23
72
32
73
33
0
VERTEX
8
OBJECT__18
10
0
20
0
30
0
70
128
71
32
72
31
73
33
0
VERTEX
8
OBJECT__18
10
0
20
0
30
0
70
128
71
33
72
28
73
23
0
VERTEX
8
OBJECT__18
10
0
20
0
30
0
70
128
71
34
72
35
73
36
0
VERTEX
8
OBJECT__18
10
0
20
0
30
0
70
128
71
37
72
38
73
39
0
VERTEX
8
OBJECT__18
10
0
20
0
30
0
70
128
71
37
72
36
73
38
0
VERTEX
8
OBJECT__18
10
0
20
0
30
0
70
128
71
40
72
39
73
30
0
VERTEX
8
OBJECT__18
10
0
20
0
30
0
70
128
71
30
72
29
73
40
0
VERTEX
8
OBJECT__18
10
0
20
0
30
0
70
128
71
39
72
40
73
37
0
VERTEX
8
OBJECT__18
10
0
20
0
30
0
70
128
71
36
72
37
73
34
0
VERTEX
8
OBJECT__18
10
0
20
0
30
0
70
128
71
41
72
42
73
43
0
VERTEX
8
OBJECT__18
10
0
20
0
30
0
70
128
71
44
72
35
73
45
0
VERTEX
8
OBJECT__18
10
0
20
0
30
0
70
128
71
46
72
43
73
44
0
VERTEX
8
OBJECT__18
10
0
20
0
30
0
70
128
71
45
72
46
73
44
0
VERTEX
8
OBJECT__18
10
0
20
0
30
0
70
128
71
43
72
46
73
41
0
VERTEX
8
OBJECT__18
10
0
20
0
30
0
70
128
71
41
72
47
73
42
0
VERTEX
8
OBJECT__18
10
0
20
0
30
0
70
128
71
34
72
45
73
35
0
VERTEX
8
OBJECT__18
10
0
20
0
30
0
70
128
71
31
72
32
73
29
0
VERTEX
8
OBJECT__18
10
0
20
0
30
0
70
128
71
27
72
19
73
17
0
VERTEX
8
OBJECT__18
10
0
20
0
30
0
70
128
71
18
72
22
73
16
0
VERTEX
8
OBJECT__18
10
0
20
0
30
0
70
128
71
13
72
15
73
10
0
VERTEX
8
OBJECT__18
10
0
20
0
30
0
70
128
71
1
72
6
73
2
0
SEQEND
8
OBJECT__18
0
POLYLINE
8
OBJECT__19
66
1
70
64
71
6
72
4
62
253
0
VERTEX
8
OBJECT__19
10
124.816002
20
9.430000
30
104.000000
70
192
0
VERTEX
8
OBJECT__19
10
127.098999
20
4.529000
30
104.000000
70
192
0
VERTEX
8
OBJECT__19
10
127.098999
20
-4.529000
30
104.000000
70
192
0
VERTEX
8
OBJECT__19
10
124.722000
20
-10.600000
30
104.000000
70
192
0
VERTEX
8
OBJECT__19
10
124.816002
20
-9.430000
30
104.000000
70
192
0
VERTEX
8
OBJECT__19
10
124.722000
20
10.600000
30
104.000000
70
192
0
VERTEX
8
OBJECT__19
10
0
20
0
30
0
70
128
71
1
72
2
73
3
0
VERTEX
8
OBJECT__19
10
0
20
0
30
0
70
128
71
3
72
4
73
5
0
VERTEX
8
OBJECT__19
10
0
20
0
30
0
70
128
71
3
72
5
73
1
0
VERTEX
8
OBJECT__19
10
0
20
0
30
0
70
128
71
1
72
6
73
2
0
SEQEND
8
OBJECT__19
0
POLYLINE
8
OBJECT__20
66
1
70
64
71
24
72
22
62
253
0
VERTEX
8
OBJECT__20
10
124.816002
20
9.430000
30
104.000000
70
192
0
VERTEX
8
OBJECT__20
10
124.816002
20
-9.430000
30
104.000000
70
192
0
VERTEX
8
OBJECT__20
10
97.126999
20
-7.340000
30
94.977997
70
192
0
VERTEX
8
OBJECT__20
10
116.324997
20
-18.511000
30
101.601997
70
192
0
VERTEX
8
OBJECT__20
10
114.698997
20
-19.372999
30
101.125000
70
192
0
VERTEX
8
OBJECT__20
10
111.434998
20
-20.434000
30
100.139999
70
192
0
VERTEX
8
OBJECT__20
10
107.627998
20
-20.975000
30
98.957001
70
192
0
VERTEX
8
OBJECT__20
10
123.269997
20
-12.730000
30
103.596001
70
192
0
VERTEX
8
OBJECT__20
10
120.885002
20
-15.387000
30
102.924004
70
192
0
VERTEX
8
OBJECT__20
10
118.074997
20
-17.583000
30
102.116997
70
192
0
VERTEX
8
OBJECT__20
10
124.722000
20
-10.600000
30
104.000000
70
192
0
VERTEX
8
OBJECT__20
10
123.427002
20
-12.556000
30
103.639999
70
192
0
VERTEX
8
OBJECT__20
10
97.126999
20
7.340000
30
94.977997
70
192
0
VERTEX
8
OBJECT__20
10
123.222000
20
12.699000
30
103.582001
70
192
0
VERTEX
8
OBJECT__20
10
124.722000
20
10.600000
30
104.000000
70
192
0
VERTEX
8
OBJECT__20
10
120.189003
20
16.004999
30
102.725998
70
192
0
VERTEX
8
OBJECT__20
10
122.495003
20
13.717000
30
103.378998
70
192
0
VERTEX
8
OBJECT__20
10
117.041000
20
18.216999
30
101.816002
70
192
0
VERTEX
8
OBJECT__20
10
116.347000
20
18.549000
30
101.610001
70
192
0
VERTEX
8
OBJECT__20
10
110.512001
20
20.631001
30
99.857002
70
192
0
VERTEX
8
OBJECT__20
10
114.223999
20
19.565001
30
100.983002
70
192
0
VERTEX
8
OBJECT__20
10
107.627998
20
20.975000
30
98.957001
70
192
0
VERTEX
8
OBJECT__20
10
94.981003
20
21.598000
30
94.977997
70
192
0
VERTEX
8
OBJECT__20
10
94.981003
20
-21.598000
30
94.977997
70
192
0
VERTEX
8
OBJECT__20
10
0
20
0
30
0
70
128
71
1
72
2
73
3
0
VERTEX
8
OBJECT__20
10
0
20
0
30
0
70
128
71
3
72
4
73
5
0
VERTEX
8
OBJECT__20
10
0
20
0
30
0
70
128
71
5
72
6
73
3
0
VERTEX
8
OBJECT__20
10
0
20
0
30
0
70
128
71
6
72
7
73
3
0
VERTEX
8
OBJECT__20
10
0
20
0
30
0
70
128
71
3
72
8
73
9
0
VERTEX
8
OBJECT__20
10
0
20
0
30
0
70
128
71
9
72
10
73
3
0
VERTEX
8
OBJECT__20
10
0
20
0
30
0
70
128
71
10
72
4
73
3
0
VERTEX
8
OBJECT__20
10
0
20
0
30
0
70
128
71
3
72
2
73
11
0
VERTEX
8
OBJECT__20
10
0
20
0
30
0
70
128
71
11
72
12
73
3
0
VERTEX
8
OBJECT__20
10
0
20
0
30
0
70
128
71
12
72
8
73
3
0
VERTEX
8
OBJECT__20
10
0
20
0
30
0
70
128
71
13
72
14
73
15
0
VERTEX
8
OBJECT__20
10
0
20
0
30
0
70
128
71
13
72
16
73
17
0
VERTEX
8
OBJECT__20
10
0
20
0
30
0
70
128
71
13
72
18
73
16
0
VERTEX
8
OBJECT__20
10
0
20
0
30
0
70
128
71
13
72
19
73
18
0
VERTEX
8
OBJECT__20
10
0
20
0
30
0
70
128
71
13
72
20
73
21
0
VERTEX
8
OBJECT__20
10
0
20
0
30
0
70
128
71
13
72
22
73
20
0
VERTEX
8
OBJECT__20
10
0
20
0
30
0
70
128
71
13
72
23
73
22
0
VERTEX
8
OBJECT__20
10
0
20
0
30
0
70
128
71
21
72
19
73
13
0
VERTEX
8
OBJECT__20
10
0
20
0
30
0
70
128
71
17
72
14
73
13
0
VERTEX
8
OBJECT__20
10
0
20
0
30
0
70
128
71
15
72
1
73
13
0
VERTEX
8
OBJECT__20
10
0
20
0
30
0
70
128
71
7
72
24
73
3
0
VERTEX
8
OBJECT__20
10
0
20
0
30
0
70
128
71
3
72
13
73
1
0
SEQEND
8
OBJECT__20
0
POLYLINE
8
OBJECT__21
66
1
70
64
71
9
72
7
62
253
0
VERTEX
8
OBJECT__21
10
97.126999
20
-7.340000
30
94.977997
70
192
0
VERTEX
8
OBJECT__21
10
94.981003
20
-21.598000
30
94.977997
70
192
0
VERTEX
8
OBJECT__21
10
90.079002
20
-14.294000
30
94.977997
70
192
0
VERTEX
8
OBJECT__21
10
97.126999
20
7.340000
30
94.977997
70
192
0
VERTEX
8
OBJECT__21
10
91.204002
20
0.000000
30
94.977997
70
192
0
VERTEX
8
OBJECT__21
10
90.079002
20
14.294000
30
94.977997
70
192
0
VERTEX
8
OBJECT__21
10
94.981003
20
21.598000
30
94.977997
70
192
0
VERTEX
8
OBJECT__21
10
88.535004
20
-21.916000
30
94.977997
70
192
0
VERTEX
8
OBJECT__21
10
88.535004
20
21.916000
30
94.977997
70
192
0
VERTEX
8
OBJECT__21
10
0
20
0
30
0
70
128
71
1
72
2
73
3
0
VERTEX
8
OBJECT__21
10
0
20
0
30
0
70
128
71
4
72
5
73
6
0
VERTEX
8
OBJECT__21
10
0
20
0
30
0
70
128
71
5
72
4
73
1
0
VERTEX
8
OBJECT__21
10
0
20
0
30
0
70
128
71
6
72
7
73
4
0
VERTEX
8
OBJECT__21
10
0
20
0
30
0
70
128
71
2
72
8
73
3
0
VERTEX
8
OBJECT__21
10
0
20
0
30
0
70
128
71
3
72
5
73
1
0
VERTEX
8
OBJECT__21
10
0
20
0
30
0
70
128
71
6
72
9
73
7
0
SEQEND
8
OBJECT__21
0
POLYLINE
8
OBJECT__22
66
1
70
64
71
37
72
43
62
253
0
VERTEX
8
OBJECT__22
10
64.790001
20
-10.286000
30
92.177002
70
192
0
VERTEX
8
OBJECT__22
10
62.379002
20
-20.318001
30
92.177002
70
192
0
VERTEX
8
OBJECT__22
10
50.473999
20
-16.455999
30
88.708000
70
192
0
VERTEX
8
OBJECT__22
10
65.599998
20
0.000000
30
92.177002
70
192
0
VERTEX
8
OBJECT__22
10
52.852001
20
-5.879000
30
88.708000
70
192
0
VERTEX
8
OBJECT__22
10
52.308998
20
-8.294000
30
88.708000
70
192
0
VERTEX
8
OBJECT__22
10
52.852001
20
0.000000
30
88.708000
70
192
0
VERTEX
8
OBJECT__22
10
52.852001
20
5.879000
30
88.708000
70
192
0
VERTEX
8
OBJECT__22
10
64.790001
20
10.286000
30
92.177002
70
192
0
VERTEX
8
OBJECT__22
10
52.308998
20
8.294000
30
88.708000
70
192
0
VERTEX
8
OBJECT__22
10
50.473999
20
16.455999
30
88.708000
70
192
0
VERTEX
8
OBJECT__22
10
78.325996
20
0.000000
30
94.275002
70
192
0
VERTEX
8
OBJECT__22
10
77.359001
20
12.278000
30
94.275002
70
192
0
VERTEX
8
OBJECT__22
10
90.079002
20
-14.294000
30
94.977997
70
192
0
VERTEX
8
OBJECT__22
10
77.359001
20
-12.278000
30
94.275002
70
192
0
VERTEX
8
OBJECT__22
10
91.204002
20
0.000000
30
94.977997
70
192
0
VERTEX
8
OBJECT__22
10
85.957001
20
-22.042999
30
94.952003
70
192
0
VERTEX
8
OBJECT__22
10
76.341003
20
-22.517000
30
94.406998
70
192
0
VERTEX
8
OBJECT__22
10
88.535004
20
-21.916000
30
94.977997
70
192
0
VERTEX
8
OBJECT__22
10
70.342003
20
-22.813000
30
93.633003
70
192
0
VERTEX
8
OBJECT__22
10
74.992996
20
-22.584000
30
94.233002
70
192
0
VERTEX
8
OBJECT__22
10
66.733002
20
-22.990999
30
93.167999
70
192
0
VERTEX
8
OBJECT__22
10
61.312000
20
-23.257999
30
92.089996
70
192
0
VERTEX
8
OBJECT__22
10
57.125000
20
-23.465000
30
91.257004
70
192
0
VERTEX
8
OBJECT__22
10
50.272999
20
-17.350000
30
88.708000
70
192
0
VERTEX
8
OBJECT__22
10
47.495998
20
-23.940001
30
88.708000
70
192
0
VERTEX
8
OBJECT__22
10
62.379002
20
20.318001
30
92.177002
70
192
0
VERTEX
8
OBJECT__22
10
50.272999
20
17.350000
30
88.708000
70
192
0
VERTEX
8
OBJECT__22
10
58.441002
20
23.400000
30
91.556999
70
192
0
VERTEX
8
OBJECT__22
10
47.495998
20
23.940001
30
88.708000
70
192
0
VERTEX
8
OBJECT__22
10
61.314999
20
23.257999
30
92.096001
70
192
0
VERTEX
8
OBJECT__22
10
68.589996
20
22.900000
30
93.459999
70
192
0
VERTEX
8
OBJECT__22
10
70.244003
20
22.818001
30
93.648003
70
192
0
VERTEX
8
OBJECT__22
10
78.597000
20
22.406000
30
94.598000
70
192
0
VERTEX
8
OBJECT__22
10
88.535004
20
21.916000
30
94.977997
70
192
0
VERTEX
8
OBJECT__22
10
74.981003
20
22.584000
30
94.186996
70
192
0
VERTEX
8
OBJECT__22
10
90.079002
20
14.294000
30
94.977997
70
192
0
VERTEX
8
OBJECT__22
10
0
20
0
30
0
70
128
71
1
72
2
73
3
0
VERTEX
8
OBJECT__22
10
0
20
0
30
0
70
128
71
4
72
1
73
5
0
VERTEX
8
OBJECT__22
10
0
20
0
30
0
70
128
71
1
72
6
73
5
0
VERTEX
8
OBJECT__22
10
0
20
0
30
0
70
128
71
4
72
7
73
8
0
VERTEX
8
OBJECT__22
10
0
20
0
30
0
70
128
71
8
72
9
73
4
0
VERTEX
8
OBJECT__22
10
0
20
0
30
0
70
128
71
9
72
10
73
11
0
VERTEX
8
OBJECT__22
10
0
20
0
30
0
70
128
71
1
72
4
73
12
0
VERTEX
8
OBJECT__22
10
0
20
0
30
0
70
128
71
4
72
9
73
13
0
VERTEX
8
OBJECT__22
10
0
20
0
30
0
70
128
71
14
72
15
73
12
0
VERTEX
8
OBJECT__22
10
0
20
0
30
0
70
128
71
16
72
12
73
13
0
VERTEX
8
OBJECT__22
10
0
20
0
30
0
70
128
71
15
72
14
73
17
0
VERTEX
8
OBJECT__22
10
0
20
0
30
0
70
128
71
17
72
18
73
15
0
VERTEX
8
OBJECT__22
10
0
20
0
30
0
70
128
71
14
72
19
73
17
0
VERTEX
8
OBJECT__22
10
0
20
0
30
0
70
128
71
1
72
15
73
20
0
VERTEX
8
OBJECT__22
10
0
20
0
30
0
70
128
71
15
72
21
73
20
0
VERTEX
8
OBJECT__22
10
0
20
0
30
0
70
128
71
2
72
20
73
22
0
VERTEX
8
OBJECT__22
10
0
20
0
30
0
70
128
71
2
72
23
73
24
0
VERTEX
8
OBJECT__22
10
0
20
0
30
0
70
128
71
24
72
25
73
2
0
VERTEX
8
OBJECT__22
10
0
20
0
30
0
70
128
71
24
72
26
73
25
0
VERTEX
8
OBJECT__22
10
0
20
0
30
0
70
128
71
27
72
28
73
29
0
VERTEX
8
OBJECT__22
10
0
20
0
30
0
70
128
71
28
72
30
73
29
0
VERTEX
8
OBJECT__22
10
0
20
0
30
0
70
128
71
27
72
11
73
28
0
VERTEX
8
OBJECT__22
10
0
20
0
30
0
70
128
71
27
72
31
73
32
0
VERTEX
8
OBJECT__22
10
0
20
0
30
0
70
128
71
9
72
27
73
33
0
VERTEX
8
OBJECT__22
10
0
20
0
30
0
70
128
71
33
72
13
73
9
0
VERTEX
8
OBJECT__22
10
0
20
0
30
0
70
128
71
13
72
34
73
35
0
VERTEX
8
OBJECT__22
10
0
20
0
30
0
70
128
71
13
72
36
73
34
0
VERTEX
8
OBJECT__22
10
0
20
0
30
0
70
128
71
35
72
37
73
13
0
VERTEX
8
OBJECT__22
10
0
20
0
30
0
70
128
71
33
72
36
73
13
0
VERTEX
8
OBJECT__22
10
0
20
0
30
0
70
128
71
32
72
33
73
27
0
VERTEX
8
OBJECT__22
10
0
20
0
30
0
70
128
71
29
72
31
73
27
0
VERTEX
8
OBJECT__22
10
0
20
0
30
0
70
128
71
25
72
3
73
2
0
VERTEX
8
OBJECT__22
10
0
20
0
30
0
70
128
71
22
72
23
73
2
0
VERTEX
8
OBJECT__22
10
0
20
0
30
0
70
128
71
20
72
2
73
1
0
VERTEX
8
OBJECT__22
10
0
20
0
30
0
70
128
71
18
72
21
73
15
0
VERTEX
8
OBJECT__22
10
0
20
0
30
0
70
128
71
13
72
37
73
16
0
VERTEX
8
OBJECT__22
10
0
20
0
30
0
70
128
71
12
72
16
73
14
0
VERTEX
8
OBJECT__22
10
0
20
0
30
0
70
128
71
13
72
12
73
4
0
VERTEX
8
OBJECT__22
10
0
20
0
30
0
70
128
71
12
72
15
73
1
0
VERTEX
8
OBJECT__22
10
0
20
0
30
0
70
128
71
11
72
27
73
9
0
VERTEX
8
OBJECT__22
10
0
20
0
30
0
70
128
71
8
72
10
73
9
0
VERTEX
8
OBJECT__22
10
0
20
0
30
0
70
128
71
5
72
7
73
4
0
VERTEX
8
OBJECT__22
10
0
20
0
30
0
70
128
71
3
72
6
73
1
0
SEQEND
8
OBJECT__22
0
POLYLINE
8
OBJECT__23
66
1
70
64
71
35
72
33
62
253
0
VERTEX
8
OBJECT__23
10
1.293000
20
26.218000
30
141.591995
70
192
0
VERTEX
8
OBJECT__23
10
1.769000
20
26.195000
30
57.334999
70
192
0
VERTEX
8
OBJECT__23
10
1.432000
20
26.211000
30
57.117001
70
192
0
VERTEX
8
OBJECT__23
10
2.399000
20
26.164000
30
57.908001
70
192
0
VERTEX
8
OBJECT__23
10
3.781000
20
26.094999
30
59.317001
70
192
0
VERTEX
8
OBJECT__23
10
58.441002
20
23.400000
30
91.556999
70
192
0
VERTEX
8
OBJECT__23
10
48.159000
20
23.907000
30
129.871994
70
192
0
VERTEX
8
OBJECT__23
10
54.139000
20
23.612000
30
128.634995
70
192
0
VERTEX
8
OBJECT__23
10
6.472000
20
25.962999
30
62.105999
70
192
0
VERTEX
8
OBJECT__23
10
33.115002
20
24.649000
30
82.772003
70
192
0
VERTEX
8
OBJECT__23
10
15.183000
20
25.533001
30
138.119003
70
192
0
VERTEX
8
OBJECT__23
10
40.361000
20
24.292000
30
86.181000
70
192
0
VERTEX
8
OBJECT__23
10
39.446999
20
24.337000
30
85.750999
70
192
0
VERTEX
8
OBJECT__23
10
47.495998
20
23.940001
30
88.708000
70
192
0
VERTEX
8
OBJECT__23
10
68.589996
20
22.900000
30
93.459999
70
192
0
VERTEX
8
OBJECT__23
10
61.314999
20
23.257999
30
92.096001
70
192
0
VERTEX
8
OBJECT__23
10
74.981003
20
22.584000
30
94.186996
70
192
0
VERTEX
8
OBJECT__23
10
70.244003
20
22.818001
30
93.648003
70
192
0
VERTEX
8
OBJECT__23
10
91.223000
20
21.784000
30
119.850998
70
192
0
VERTEX
8
OBJECT__23
10
78.597000
20
22.406000
30
94.598000
70
192
0
VERTEX
8
OBJECT__23
10
105.834000
20
21.063000
30
116.389999
70
192
0
VERTEX
8
OBJECT__23
10
107.627998
20
20.975000
30
115.900002
70
192
0
VERTEX
8
OBJECT__23
10
107.627998
20
20.975000
30
98.957001
70
192
0
VERTEX
8
OBJECT__23
10
94.981003
20
21.598000
30
94.977997
70
192
0
VERTEX
8
OBJECT__23
10
7.209000
20
25.926001
30
62.869999
70
192
0
VERTEX
8
OBJECT__23
10
13.124000
20
25.635000
30
68.668999
70
192
0
VERTEX
8
OBJECT__23
10
9.032000
20
25.837000
30
64.656998
70
192
0
VERTEX
8
OBJECT__23
10
17.233999
20
25.431999
30
72.169998
70
192
0
VERTEX
8
OBJECT__23
10
14.363000
20
25.573999
30
69.724998
70
192
0
VERTEX
8
OBJECT__23
10
36.655998
20
24.474001
30
84.438004
70
192
0
VERTEX
8
OBJECT__23
10
88.535004
20
21.916000
30
94.977997
70
192
0
VERTEX
8
OBJECT__23
10
19.903999
20
25.299999
30
74.445000
70
192
0
VERTEX
8
OBJECT__23
10
25.952999
20
25.002001
30
78.651001
70
192
0
VERTEX
8
OBJECT__23
10
24.645000
20
25.066999
30
77.740997
70
192
0
VERTEX
8
OBJECT__23
10
1.293000
20
26.218000
30
57.070000
70
192
0
VERTEX
8
OBJECT__23
10
0
20
0
30
0
70
128
71
1
72
2
73
3
0
VERTEX
8
OBJECT__23
10
0
20
0
30
0
70
128
71
1
72
4
73
2
0
VERTEX
8
OBJECT__23
10
0
20
0
30
0
70
128
71
1
72
5
73
4
0
VERTEX
8
OBJECT__23
10
0
20
0
30
0
70
128
71
6
72
7
73
8
0
VERTEX
8
OBJECT__23
10
0
20
0
30
0
70
128
71
1
72
9
73
5
0
VERTEX
8
OBJECT__23
10
0
20
0
30
0
70
128
71
10
72
1
73
11
0
VERTEX
8
OBJECT__23
10
0
20
0
30
0
70
128
71
11
72
12
73
13
0
VERTEX
8
OBJECT__23
10
0
20
0
30
0
70
128
71
14
72
11
73
7
0
VERTEX
8
OBJECT__23
10
0
20
0
30
0
70
128
71
8
72
15
73
16
0
VERTEX
8
OBJECT__23
10
0
20
0
30
0
70
128
71
8
72
17
73
18
0
VERTEX
8
OBJECT__23
10
0
20
0
30
0
70
128
71
8
72
19
73
20
0
VERTEX
8
OBJECT__23
10
0
20
0
30
0
70
128
71
21
72
22
73
23
0
VERTEX
8
OBJECT__23
10
0
20
0
30
0
70
128
71
19
72
21
73
24
0
VERTEX
8
OBJECT__23
10
0
20
0
30
0
70
128
71
1
72
25
73
9
0
VERTEX
8
OBJECT__23
10
0
20
0
30
0
70
128
71
1
72
26
73
27
0
VERTEX
8
OBJECT__23
10
0
20
0
30
0
70
128
71
1
72
28
73
29
0
VERTEX
8
OBJECT__23
10
0
20
0
30
0
70
128
71
13
72
30
73
11
0
VERTEX
8
OBJECT__23
10
0
20
0
30
0
70
128
71
8
72
16
73
6
0
VERTEX
8
OBJECT__23
10
0
20
0
30
0
70
128
71
20
72
17
73
8
0
VERTEX
8
OBJECT__23
10
0
20
0
30
0
70
128
71
24
72
31
73
19
0
VERTEX
8
OBJECT__23
10
0
20
0
30
0
70
128
71
27
72
25
73
1
0
VERTEX
8
OBJECT__23
10
0
20
0
30
0
70
128
71
1
72
32
73
28
0
VERTEX
8
OBJECT__23
10
0
20
0
30
0
70
128
71
1
72
33
73
34
0
VERTEX
8
OBJECT__23
10
0
20
0
30
0
70
128
71
11
72
30
73
10
0
VERTEX
8
OBJECT__23
10
0
20
0
30
0
70
128
71
18
72
15
73
8
0
VERTEX
8
OBJECT__23
10
0
20
0
30
0
70
128
71
23
72
24
73
21
0
VERTEX
8
OBJECT__23
10
0
20
0
30
0
70
128
71
29
72
26
73
1
0
VERTEX
8
OBJECT__23
10
0
20
0
30
0
70
128
71
10
72
33
73
1
0
VERTEX
8
OBJECT__23
10
0
20
0
30
0
70
128
71
31
72
20
73
19
0
VERTEX
8
OBJECT__23
10
0
20
0
30
0
70
128
71
34
72
32
73
1
0
VERTEX
8
OBJECT__23
10
0
20
0
30
0
70
128
71
7
72
6
73
14
0
VERTEX
8
OBJECT__23
10
0
20
0
30
0
70
128
71
14
72
12
73
11
0
VERTEX
8
OBJECT__23
10
0
20
0
30
0
70
128
71
3
72
35
73
1
0
SEQEND
8
OBJECT__23
0
POLYLINE
8
OBJECT__24
66
1
70
64
71
36
72
34
62
253
0
VERTEX
8
OBJECT__24
10
54.139000
20
-23.612000
30
128.634995
70
192
0
VERTEX
8
OBJECT__24
10
15.152000
20
-25.535000
30
138.005005
70
192
0
VERTEX
8
OBJECT__24
10
47.495998
20
-23.940001
30
88.708000
70
192
0
VERTEX
8
OBJECT__24
10
1.293000
20
-26.218000
30
141.591995
70
192
0
VERTEX
8
OBJECT__24
10
6.240000
20
-25.974001
30
61.872002
70
192
0
VERTEX
8
OBJECT__24
10
6.471000
20
-25.962999
30
62.103001
70
192
0
VERTEX
8
OBJECT__24
10
1.293000
20
-26.218000
30
57.070000
70
192
0
VERTEX
8
OBJECT__24
10
1.598000
20
-26.202999
30
57.210999
70
192
0
VERTEX
8
OBJECT__24
10
91.216003
20
-21.784000
30
119.827003
70
192
0
VERTEX
8
OBJECT__24
10
94.981003
20
-21.598000
30
94.977997
70
192
0
VERTEX
8
OBJECT__24
10
107.627998
20
-20.975000
30
98.957001
70
192
0
VERTEX
8
OBJECT__24
10
61.312000
20
-23.257999
30
92.089996
70
192
0
VERTEX
8
OBJECT__24
10
66.733002
20
-22.990999
30
93.167999
70
192
0
VERTEX
8
OBJECT__24
10
55.960999
20
-23.521999
30
128.264008
70
192
0
VERTEX
8
OBJECT__24
10
45.744999
20
-24.025999
30
88.165001
70
192
0
VERTEX
8
OBJECT__24
10
39.071999
20
-24.355000
30
85.635002
70
192
0
VERTEX
8
OBJECT__24
10
39.377998
20
-24.340000
30
85.751999
70
192
0
VERTEX
8
OBJECT__24
10
21.910999
20
-25.201000
30
75.943001
70
192
0
VERTEX
8
OBJECT__24
10
24.603001
20
-25.069000
30
77.746002
70
192
0
VERTEX
8
OBJECT__24
10
12.193000
20
-25.681000
30
67.796997
70
192
0
VERTEX
8
OBJECT__24
10
14.378000
20
-25.573000
30
69.725998
70
192
0
VERTEX
8
OBJECT__24
10
9.031000
20
-25.837000
30
64.650002
70
192
0
VERTEX
8
OBJECT__24
10
2.588000
20
-26.153999
30
58.095001
70
192
0
VERTEX
8
OBJECT__24
10
88.535004
20
-21.916000
30
94.977997
70
192
0
VERTEX
8
OBJECT__24
10
70.342003
20
-22.813000
30
93.633003
70
192
0
VERTEX
8
OBJECT__24
10
74.992996
20
-22.584000
30
94.233002
70
192
0
VERTEX
8
OBJECT__24
10
57.125000
20
-23.465000
30
91.257004
70
192
0
VERTEX
8
OBJECT__24
10
36.661999
20
-24.474001
30
84.466003
70
192
0
VERTEX
8
OBJECT__24
10
18.099001
20
-25.389000
30
73.012001
70
192
0
VERTEX
8
OBJECT__24
10
17.233000
20
-25.431999
30
72.248001
70
192
0
VERTEX
8
OBJECT__24
10
85.957001
20
-22.042999
30
94.952003
70
192
0
VERTEX
8
OBJECT__24
10
76.341003
20
-22.517000
30
94.406998
70
192
0
VERTEX
8
OBJECT__24
10
7.167000
20
-25.927999
30
139.923996
70
192
0
VERTEX
8
OBJECT__24
10
32.499001
20
-24.679001
30
82.445000
70
192
0
VERTEX
8
OBJECT__24
10
25.952999
20
-25.002001
30
78.651001
70
192
0
VERTEX
8
OBJECT__24
10
107.627998
20
-20.975000
30
115.900002
70
192
0
VERTEX
8
OBJECT__24
10
0
20
0
30
0
70
128
71
1
72
2
73
3
0
VERTEX
8
OBJECT__24
10
0
20
0
30
0
70
128
71
4
72
5
73
6
0
VERTEX
8
OBJECT__24
10
0
20
0
30
0
70
128
71
4
72
7
73
8
0
VERTEX
8
OBJECT__24
10
0
20
0
30
0
70
128
71
9
72
10
73
11
0
VERTEX
8
OBJECT__24
10
0
20
0
30
0
70
128
71
12
72
13
73
14
0
VERTEX
8
OBJECT__24
10
0
20
0
30
0
70
128
71
2
72
15
73
3
0
VERTEX
8
OBJECT__24
10
0
20
0
30
0
70
128
71
2
72
16
73
17
0
VERTEX
8
OBJECT__24
10
0
20
0
30
0
70
128
71
4
72
18
73
19
0
VERTEX
8
OBJECT__24
10
0
20
0
30
0
70
128
71
4
72
20
73
21
0
VERTEX
8
OBJECT__24
10
0
20
0
30
0
70
128
71
6
72
22
73
4
0
VERTEX
8
OBJECT__24
10
0
20
0
30
0
70
128
71
22
72
20
73
4
0
VERTEX
8
OBJECT__24
10
0
20
0
30
0
70
128
71
8
72
23
73
4
0
VERTEX
8
OBJECT__24
10
0
20
0
30
0
70
128
71
9
72
24
73
10
0
VERTEX
8
OBJECT__24
10
0
20
0
30
0
70
128
71
14
72
25
73
26
0
VERTEX
8
OBJECT__24
10
0
20
0
30
0
70
128
71
1
72
27
73
12
0
VERTEX
8
OBJECT__24
10
0
20
0
30
0
70
128
71
17
72
15
73
2
0
VERTEX
8
OBJECT__24
10
0
20
0
30
0
70
128
71
28
72
16
73
2
0
VERTEX
8
OBJECT__24
10
0
20
0
30
0
70
128
71
4
72
29
73
18
0
VERTEX
8
OBJECT__24
10
0
20
0
30
0
70
128
71
21
72
30
73
4
0
VERTEX
8
OBJECT__24
10
0
20
0
30
0
70
128
71
23
72
5
73
4
0
VERTEX
8
OBJECT__24
10
0
20
0
30
0
70
128
71
9
72
31
73
24
0
VERTEX
8
OBJECT__24
10
0
20
0
30
0
70
128
71
9
72
14
73
32
0
VERTEX
8
OBJECT__24
10
0
20
0
30
0
70
128
71
14
72
13
73
25
0
VERTEX
8
OBJECT__24
10
0
20
0
30
0
70
128
71
3
72
27
73
1
0
VERTEX
8
OBJECT__24
10
0
20
0
30
0
70
128
71
33
72
34
73
28
0
VERTEX
8
OBJECT__24
10
0
20
0
30
0
70
128
71
19
72
35
73
4
0
VERTEX
8
OBJECT__24
10
0
20
0
30
0
70
128
71
32
72
31
73
9
0
VERTEX
8
OBJECT__24
10
0
20
0
30
0
70
128
71
14
72
1
73
12
0
VERTEX
8
OBJECT__24
10
0
20
0
30
0
70
128
71
2
72
33
73
28
0
VERTEX
8
OBJECT__24
10
0
20
0
30
0
70
128
71
30
72
29
73
4
0
VERTEX
8
OBJECT__24
10
0
20
0
30
0
70
128
71
26
72
32
73
14
0
VERTEX
8
OBJECT__24
10
0
20
0
30
0
70
128
71
35
72
34
73
4
0
VERTEX
8
OBJECT__24
10
0
20
0
30
0
70
128
71
33
72
4
73
34
0
VERTEX
8
OBJECT__24
10
0
20
0
30
0
70
128
71
11
72
36
73
9
0
SEQEND
8
OBJECT__24
0
POLYLINE
8
OBJECT__25
66
1
70
64
71
39
72
43
62
253
0
VERTEX
8
OBJECT__25
10
41.672001
20
-14.387000
30
84.554001
70
192
0
VERTEX
8
OBJECT__25
10
37.500000
20
-23.200001
30
84.554001
70
192
0
VERTEX
8
OBJECT__25
10
31.068001
20
-18.232000
30
78.651001
70
192
0
VERTEX
8
OBJECT__25
10
30.558001
20
-18.907000
30
78.651001
70
192
0
VERTEX
8
OBJECT__25
10
43.810001
20
-4.875000
30
84.554001
70
192
0
VERTEX
8
OBJECT__25
10
34.750999
20
-9.445000
30
78.651001
70
192
0
VERTEX
8
OBJECT__25
10
33.819000
20
-11.667000
30
78.651001
70
192
0
VERTEX
8
OBJECT__25
10
43.810001
20
4.875000
30
84.554001
70
192
0
VERTEX
8
OBJECT__25
10
36.007999
20
0.000000
30
78.651001
70
192
0
VERTEX
8
OBJECT__25
10
35.483002
20
-3.944000
30
78.651001
70
192
0
VERTEX
8
OBJECT__25
10
35.483002
20
3.944000
30
78.651001
70
192
0
VERTEX
8
OBJECT__25
10
34.750999
20
9.445000
30
78.651001
70
192
0
VERTEX
8
OBJECT__25
10
41.672001
20
14.387000
30
84.554001
70
192
0
VERTEX
8
OBJECT__25
10
33.819000
20
11.667000
30
78.651001
70
192
0
VERTEX
8
OBJECT__25
10
31.068001
20
18.232000
30
78.651001
70
192
0
VERTEX
8
OBJECT__25
10
37.500000
20
23.200001
30
84.554001
70
192
0
VERTEX
8
OBJECT__25
10
52.308998
20
-8.294000
30
88.708000
70
192
0
VERTEX
8
OBJECT__25
10
52.852001
20
-5.879000
30
88.708000
70
192
0
VERTEX
8
OBJECT__25
10
50.473999
20
-16.455999
30
88.708000
70
192
0
VERTEX
8
OBJECT__25
10
52.852001
20
0.000000
30
88.708000
70
192
0
VERTEX
8
OBJECT__25
10
52.852001
20
5.879000
30
88.708000
70
192
0
VERTEX
8
OBJECT__25
10
50.473999
20
16.455999
30
88.708000
70
192
0
VERTEX
8
OBJECT__25
10
52.308998
20
8.294000
30
88.708000
70
192
0
VERTEX
8
OBJECT__25
10
50.272999
20
17.350000
30
88.708000
70
192
0
VERTEX
8
OBJECT__25
10
45.744999
20
-24.025999
30
88.165001
70
192
0
VERTEX
8
OBJECT__25
10
39.377998
20
-24.340000
30
85.751999
70
192
0
VERTEX
8
OBJECT__25
10
50.272999
20
-17.350000
30
88.708000
70
192
0
VERTEX
8
OBJECT__25
10
47.495998
20
-23.940001
30
88.708000
70
192
0
VERTEX
8
OBJECT__25
10
39.071999
20
-24.355000
30
85.635002
70
192
0
VERTEX
8
OBJECT__25
10
36.661999
20
-24.474001
30
84.466003
70
192
0
VERTEX
8
OBJECT__25
10
32.499001
20
-24.679001
30
82.445000
70
192
0
VERTEX
8
OBJECT__25
10
30.558001
20
18.907000
30
78.651001
70
192
0
VERTEX
8
OBJECT__25
10
33.115002
20
24.649000
30
82.772003
70
192
0
VERTEX
8
OBJECT__25
10
36.655998
20
24.474001
30
84.438004
70
192
0
VERTEX
8
OBJECT__25
10
25.952999
20
25.002001
30
78.651001
70
192
0
VERTEX
8
OBJECT__25
10
40.361000
20
24.292000
30
86.181000
70
192
0
VERTEX
8
OBJECT__25
10
47.495998
20
23.940001
30
88.708000
70
192
0
VERTEX
8
OBJECT__25
10
39.446999
20
24.337000
30
85.750999
70
192
0
VERTEX
8
OBJECT__25
10
25.952999
20
-25.002001
30
78.651001
70
192
0
VERTEX
8
OBJECT__25
10
0
20
0
30
0
70
128
71
1
72
2
73
3
0
VERTEX
8
OBJECT__25
10
0
20
0
30
0
70
128
71
2
72
4
73
3
0
VERTEX
8
OBJECT__25
10
0
20
0
30
0
70
128
71
5
72
1
73
6
0
VERTEX
8
OBJECT__25
10
0
20
0
30
0
70
128
71
1
72
7
73
6
0
VERTEX
8
OBJECT__25
10
0
20
0
30
0
70
128
71
8
72
5
73
9
0
VERTEX
8
OBJECT__25
10
0
20
0
30
0
70
128
71
5
72
10
73
9
0
VERTEX
8
OBJECT__25
10
0
20
0
30
0
70
128
71
8
72
11
73
12
0
VERTEX
8
OBJECT__25
10
0
20
0
30
0
70
128
71
12
72
13
73
8
0
VERTEX
8
OBJECT__25
10
0
20
0
30
0
70
128
71
13
72
14
73
15
0
VERTEX
8
OBJECT__25
10
0
20
0
30
0
70
128
71
15
72
16
73
13
0
VERTEX
8
OBJECT__25
10
0
20
0
30
0
70
128
71
1
72
5
73
17
0
VERTEX
8
OBJECT__25
10
0
20
0
30
0
70
128
71
5
72
18
73
17
0
VERTEX
8
OBJECT__25
10
0
20
0
30
0
70
128
71
17
72
19
73
1
0
VERTEX
8
OBJECT__25
10
0
20
0
30
0
70
128
71
5
72
8
73
20
0
VERTEX
8
OBJECT__25
10
0
20
0
30
0
70
128
71
8
72
21
73
20
0
VERTEX
8
OBJECT__25
10
0
20
0
30
0
70
128
71
13
72
22
73
23
0
VERTEX
8
OBJECT__25
10
0
20
0
30
0
70
128
71
23
72
8
73
13
0
VERTEX
8
OBJECT__25
10
0
20
0
30
0
70
128
71
13
72
24
73
22
0
VERTEX
8
OBJECT__25
10
0
20
0
30
0
70
128
71
1
72
25
73
26
0
VERTEX
8
OBJECT__25
10
0
20
0
30
0
70
128
71
1
72
27
73
28
0
VERTEX
8
OBJECT__25
10
0
20
0
30
0
70
128
71
28
72
25
73
1
0
VERTEX
8
OBJECT__25
10
0
20
0
30
0
70
128
71
2
72
26
73
29
0
VERTEX
8
OBJECT__25
10
0
20
0
30
0
70
128
71
4
72
2
73
30
0
VERTEX
8
OBJECT__25
10
0
20
0
30
0
70
128
71
30
72
31
73
4
0
VERTEX
8
OBJECT__25
10
0
20
0
30
0
70
128
71
32
72
33
73
34
0
VERTEX
8
OBJECT__25
10
0
20
0
30
0
70
128
71
32
72
35
73
33
0
VERTEX
8
OBJECT__25
10
0
20
0
30
0
70
128
71
13
72
36
73
37
0
VERTEX
8
OBJECT__25
10
0
20
0
30
0
70
128
71
13
72
16
73
38
0
VERTEX
8
OBJECT__25
10
0
20
0
30
0
70
128
71
38
72
36
73
13
0
VERTEX
8
OBJECT__25
10
0
20
0
30
0
70
128
71
37
72
24
73
13
0
VERTEX
8
OBJECT__25
10
0
20
0
30
0
70
128
71
38
72
16
73
34
0
VERTEX
8
OBJECT__25
10
0
20
0
30
0
70
128
71
34
72
16
73
32
0
VERTEX
8
OBJECT__25
10
0
20
0
30
0
70
128
71
31
72
39
73
4
0
VERTEX
8
OBJECT__25
10
0
20
0
30
0
70
128
71
29
72
30
73
2
0
VERTEX
8
OBJECT__25
10
0
20
0
30
0
70
128
71
26
72
2
73
1
0
VERTEX
8
OBJECT__25
10
0
20
0
30
0
70
128
71
23
72
21
73
8
0
VERTEX
8
OBJECT__25
10
0
20
0
30
0
70
128
71
20
72
18
73
5
0
VERTEX
8
OBJECT__25
10
0
20
0
30
0
70
128
71
19
72
27
73
1
0
VERTEX
8
OBJECT__25
10
0
20
0
30
0
70
128
71
15
72
32
73
16
0
VERTEX
8
OBJECT__25
10
0
20
0
30
0
70
128
71
12
72
14
73
13
0
VERTEX
8
OBJECT__25
10
0
20
0
30
0
70
128
71
9
72
11
73
8
0
VERTEX
8
OBJECT__25
10
0
20
0
30
0
70
128
71
6
72
10
73
5
0
VERTEX
8
OBJECT__25
10
0
20
0
30
0
70
128
71
3
72
7
73
1
0
SEQEND
8
OBJECT__25
0
POLYLINE
8
OBJECT__26
66
1
70
64
71
79
72
93
62
253
0
VERTEX
8
OBJECT__26
10
19.108000
20
-19.540001
30
64.716003
70
192
0
VERTEX
8
OBJECT__26
10
13.329000
20
-23.885000
30
64.716003
70
192
0
VERTEX
8
OBJECT__26
10
12.763000
20
-22.879000
30
56.500000
70
192
0
VERTEX
8
OBJECT__26
10
23.549999
20
-13.835000
30
64.716003
70
192
0
VERTEX
8
OBJECT__26
10
20.250999
20
-16.209000
30
56.500000
70
192
0
VERTEX
8
OBJECT__26
10
18.298000
20
-18.716999
30
56.500000
70
192
0
VERTEX
8
OBJECT__26
10
22.552999
20
-13.252000
30
56.500000
70
192
0
VERTEX
8
OBJECT__26
10
25.230000
20
-6.865000
30
56.500000
70
192
0
VERTEX
8
OBJECT__26
10
27.298000
20
0.000000
30
64.716003
70
192
0
VERTEX
8
OBJECT__26
10
26.344999
20
-7.167000
30
64.716003
70
192
0
VERTEX
8
OBJECT__26
10
25.368999
20
-5.818000
30
56.500000
70
192
0
VERTEX
8
OBJECT__26
10
26.143999
20
0.000000
30
56.500000
70
192
0
VERTEX
8
OBJECT__26
10
25.368999
20
5.818000
30
56.500000
70
192
0
VERTEX
8
OBJECT__26
10
26.344999
20
7.167000
30
64.716003
70
192
0
VERTEX
8
OBJECT__26
10
23.549999
20
13.835000
30
64.716003
70
192
0
VERTEX
8
OBJECT__26
10
25.230000
20
6.865000
30
56.500000
70
192
0
VERTEX
8
OBJECT__26
10
22.552999
20
13.252000
30
56.500000
70
192
0
VERTEX
8
OBJECT__26
10
20.250999
20
16.209000
30
56.500000
70
192
0
VERTEX
8
OBJECT__26
10
19.108000
20
19.540001
30
64.716003
70
192
0
VERTEX
8
OBJECT__26
10
13.329000
20
23.885000
30
64.716003
70
192
0
VERTEX
8
OBJECT__26
10
18.298000
20
18.716999
30
56.500000
70
192
0
VERTEX
8
OBJECT__26
10
26.462999
20
-15.539000
30
72.295998
70
192
0
VERTEX
8
OBJECT__26
10
29.601999
20
-8.050000
30
72.295998
70
192
0
VERTEX
8
OBJECT__26
10
30.674000
20
0.000000
30
72.295998
70
192
0
VERTEX
8
OBJECT__26
10
29.601999
20
8.050000
30
72.295998
70
192
0
VERTEX
8
OBJECT__26
10
26.462999
20
15.539000
30
72.295998
70
192
0
VERTEX
8
OBJECT__26
10
21.475000
20
21.947001
30
72.295998
70
192
0
VERTEX
8
OBJECT__26
10
33.819000
20
-11.667000
30
78.651001
70
192
0
VERTEX
8
OBJECT__26
10
34.750999
20
-9.445000
30
78.651001
70
192
0
VERTEX
8
OBJECT__26
10
35.483002
20
-3.944000
30
78.651001
70
192
0
VERTEX
8
OBJECT__26
10
36.007999
20
0.000000
30
78.651001
70
192
0
VERTEX
8
OBJECT__26
10
34.750999
20
9.445000
30
78.651001
70
192
0
VERTEX
8
OBJECT__26
10
35.483002
20
3.944000
30
78.651001
70
192
0
VERTEX
8
OBJECT__26
10
31.068001
20
18.232000
30
78.651001
70
192
0
VERTEX
8
OBJECT__26
10
33.819000
20
11.667000
30
78.651001
70
192
0
VERTEX
8
OBJECT__26
10
6.332000
20
25.448000
30
56.500000
70
192
0
VERTEX
8
OBJECT__26
10
2.399000
20
26.164000
30
57.908001
70
192
0
VERTEX
8
OBJECT__26
10
3.781000
20
26.094999
30
59.317001
70
192
0
VERTEX
8
OBJECT__26
10
1.769000
20
26.195000
30
57.334999
70
192
0
VERTEX
8
OBJECT__26
10
1.432000
20
26.211000
30
57.117001
70
192
0
VERTEX
8
OBJECT__26
10
-0.054000
20
26.250000
30
56.500000
70
192
0
VERTEX
8
OBJECT__26
10
-0.051000
20
26.250000
30
56.525002
70
192
0
VERTEX
8
OBJECT__26
10
-0.029000
20
26.250000
30
56.577000
70
192
0
VERTEX
8
OBJECT__26
10
0.007000
20
26.250000
30
56.620998
70
192
0
VERTEX
8
OBJECT__26
10
0.140000
20
26.250000
30
56.716000
70
192
0
VERTEX
8
OBJECT__26
10
0.513000
20
26.245001
30
56.869999
70
192
0
VERTEX
8
OBJECT__26
10
1.293000
20
26.218000
30
57.070000
70
192
0
VERTEX
8
OBJECT__26
10
11.256000
20
23.481001
30
56.500000
70
192
0
VERTEX
8
OBJECT__26
10
7.209000
20
25.926001
30
62.869999
70
192
0
VERTEX
8
OBJECT__26
10
9.032000
20
25.837000
30
64.656998
70
192
0
VERTEX
8
OBJECT__26
10
6.472000
20
25.962999
30
62.105999
70
192
0
VERTEX
8
OBJECT__26
10
12.763000
20
22.879000
30
56.500000
70
192
0
VERTEX
8
OBJECT__26
10
13.124000
20
25.635000
30
68.668999
70
192
0
VERTEX
8
OBJECT__26
10
14.363000
20
25.573999
30
69.724998
70
192
0
VERTEX
8
OBJECT__26
10
17.233999
20
25.431999
30
72.169998
70
192
0
VERTEX
8
OBJECT__26
10
19.903999
20
25.299999
30
74.445000
70
192
0
VERTEX
8
OBJECT__26
10
24.645000
20
25.066999
30
77.740997
70
192
0
VERTEX
8
OBJECT__26
10
30.558001
20
18.907000
30
78.651001
70
192
0
VERTEX
8
OBJECT__26
10
25.952999
20
25.002001
30
78.651001
70
192
0
VERTEX
8
OBJECT__26
10
30.558001
20
-18.907000
30
78.651001
70
192
0
VERTEX
8
OBJECT__26
10
24.603001
20
-25.069000
30
77.746002
70
192
0
VERTEX
8
OBJECT__26
10
21.475000
20
-21.947001
30
72.295998
70
192
0
VERTEX
8
OBJECT__26
10
25.952999
20
-25.002001
30
78.651001
70
192
0
VERTEX
8
OBJECT__26
10
31.068001
20
-18.232000
30
78.651001
70
192
0
VERTEX
8
OBJECT__26
10
21.910999
20
-25.201000
30
75.943001
70
192
0
VERTEX
8
OBJECT__26
10
18.099001
20
-25.389000
30
73.012001
70
192
0
VERTEX
8
OBJECT__26
10
17.233000
20
-25.431999
30
72.248001
70
192
0
VERTEX
8
OBJECT__26
10
14.378000
20
-25.573000
30
69.725998
70
192
0
VERTEX
8
OBJECT__26
10
12.193000
20
-25.681000
30
67.796997
70
192
0
VERTEX
8
OBJECT__26
10
11.256000
20
-23.481001
30
56.500000
70
192
0
VERTEX
8
OBJECT__26
10
9.031000
20
-25.837000
30
64.650002
70
192
0
VERTEX
8
OBJECT__26
10
6.471000
20
-25.962999
30
62.103001
70
192
0
VERTEX
8
OBJECT__26
10
6.332000
20
-25.448000
30
56.500000
70
192
0
VERTEX
8
OBJECT__26
10
-0.054000
20
-26.250000
30
56.500000
70
192
0
VERTEX
8
OBJECT__26
10
1.293000
20
-26.218000
30
57.070000
70
192
0
VERTEX
8
OBJECT__26
10
1.598000
20
-26.202999
30
57.210999
70
192
0
VERTEX
8
OBJECT__26
10
6.240000
20
-25.974001
30
61.872002
70
192
0
VERTEX
8
OBJECT__26
10
2.588000
20
-26.153999
30
58.095001
70
192
0
VERTEX
8
OBJECT__26
10
-0.051000
20
-26.250000
30
56.525002
70
192
0
VERTEX
8
OBJECT__26
10
0
20
0
30
0
70
128
71
1
72
2
73
3
0
VERTEX
8
OBJECT__26
10
0
20
0
30
0
70
128
71
4
72
1
73
5
0
VERTEX
8
OBJECT__26
10
0
20
0
30
0
70
128
71
1
72
6
73
5
0
VERTEX
8
OBJECT__26
10
0
20
0
30
0
70
128
71
4
72
7
73
8
0
VERTEX
8
OBJECT__26
10
0
20
0
30
0
70
128
71
9
72
10
73
11
0
VERTEX
8
OBJECT__26
10
0
20
0
30
0
70
128
71
10
72
8
73
11
0
VERTEX
8
OBJECT__26
10
0
20
0
30
0
70
128
71
9
72
12
73
13
0
VERTEX
8
OBJECT__26
10
0
20
0
30
0
70
128
71
13
72
14
73
9
0
VERTEX
8
OBJECT__26
10
0
20
0
30
0
70
128
71
15
72
14
73
16
0
VERTEX
8
OBJECT__26
10
0
20
0
30
0
70
128
71
15
72
17
73
18
0
VERTEX
8
OBJECT__26
10
0
20
0
30
0
70
128
71
18
72
19
73
15
0
VERTEX
8
OBJECT__26
10
0
20
0
30
0
70
128
71
20
72
19
73
21
0
VERTEX
8
OBJECT__26
10
0
20
0
30
0
70
128
71
1
72
4
73
22
0
VERTEX
8
OBJECT__26
10
0
20
0
30
0
70
128
71
4
72
10
73
23
0
VERTEX
8
OBJECT__26
10
0
20
0
30
0
70
128
71
10
72
9
73
24
0
VERTEX
8
OBJECT__26
10
0
20
0
30
0
70
128
71
9
72
14
73
25
0
VERTEX
8
OBJECT__26
10
0
20
0
30
0
70
128
71
14
72
15
73
26
0
VERTEX
8
OBJECT__26
10
0
20
0
30
0
70
128
71
15
72
19
73
27
0
VERTEX
8
OBJECT__26
10
0
20
0
30
0
70
128
71
22
72
23
73
28
0
VERTEX
8
OBJECT__26
10
0
20
0
30
0
70
128
71
23
72
29
73
28
0
VERTEX
8
OBJECT__26
10
0
20
0
30
0
70
128
71
23
72
24
73
30
0
VERTEX
8
OBJECT__26
10
0
20
0
30
0
70
128
71
24
72
31
73
30
0
VERTEX
8
OBJECT__26
10
0
20
0
30
0
70
128
71
25
72
32
73
33
0
VERTEX
8
OBJECT__26
10
0
20
0
30
0
70
128
71
33
72
24
73
25
0
VERTEX
8
OBJECT__26
10
0
20
0
30
0
70
128
71
26
72
34
73
35
0
VERTEX
8
OBJECT__26
10
0
20
0
30
0
70
128
71
35
72
25
73
26
0
VERTEX
8
OBJECT__26
10
0
20
0
30
0
70
128
71
36
72
37
73
38
0
VERTEX
8
OBJECT__26
10
0
20
0
30
0
70
128
71
36
72
39
73
37
0
VERTEX
8
OBJECT__26
10
0
20
0
30
0
70
128
71
36
72
40
73
39
0
VERTEX
8
OBJECT__26
10
0
20
0
30
0
70
128
71
36
72
41
73
42
0
VERTEX
8
OBJECT__26
10
0
20
0
30
0
70
128
71
42
72
43
73
36
0
VERTEX
8
OBJECT__26
10
0
20
0
30
0
70
128
71
43
72
44
73
36
0
VERTEX
8
OBJECT__26
10
0
20
0
30
0
70
128
71
44
72
45
73
36
0
VERTEX
8
OBJECT__26
10
0
20
0
30
0
70
128
71
45
72
46
73
36
0
VERTEX
8
OBJECT__26
10
0
20
0
30
0
70
128
71
46
72
47
73
36
0
VERTEX
8
OBJECT__26
10
0
20
0
30
0
70
128
71
47
72
40
73
36
0
VERTEX
8
OBJECT__26
10
0
20
0
30
0
70
128
71
48
72
49
73
50
0
VERTEX
8
OBJECT__26
10
0
20
0
30
0
70
128
71
48
72
36
73
51
0
VERTEX
8
OBJECT__26
10
0
20
0
30
0
70
128
71
51
72
49
73
48
0
VERTEX
8
OBJECT__26
10
0
20
0
30
0
70
128
71
20
72
52
73
48
0
VERTEX
8
OBJECT__26
10
0
20
0
30
0
70
128
71
20
72
50
73
53
0
VERTEX
8
OBJECT__26
10
0
20
0
30
0
70
128
71
19
72
54
73
55
0
VERTEX
8
OBJECT__26
10
0
20
0
30
0
70
128
71
19
72
20
73
54
0
VERTEX
8
OBJECT__26
10
0
20
0
30
0
70
128
71
27
72
55
73
56
0
VERTEX
8
OBJECT__26
10
0
20
0
30
0
70
128
71
26
72
27
73
57
0
VERTEX
8
OBJECT__26
10
0
20
0
30
0
70
128
71
57
72
58
73
26
0
VERTEX
8
OBJECT__26
10
0
20
0
30
0
70
128
71
57
72
59
73
58
0
VERTEX
8
OBJECT__26
10
0
20
0
30
0
70
128
71
60
72
61
73
62
0
VERTEX
8
OBJECT__26
10
0
20
0
30
0
70
128
71
60
72
63
73
61
0
VERTEX
8
OBJECT__26
10
0
20
0
30
0
70
128
71
22
72
64
73
60
0
VERTEX
8
OBJECT__26
10
0
20
0
30
0
70
128
71
62
72
65
73
66
0
VERTEX
8
OBJECT__26
10
0
20
0
30
0
70
128
71
62
72
61
73
65
0
VERTEX
8
OBJECT__26
10
0
20
0
30
0
70
128
71
1
72
62
73
67
0
VERTEX
8
OBJECT__26
10
0
20
0
30
0
70
128
71
67
72
68
73
1
0
VERTEX
8
OBJECT__26
10
0
20
0
30
0
70
128
71
2
72
68
73
69
0
VERTEX
8
OBJECT__26
10
0
20
0
30
0
70
128
71
70
72
2
73
71
0
VERTEX
8
OBJECT__26
10
0
20
0
30
0
70
128
71
71
72
72
73
70
0
VERTEX
8
OBJECT__26
10
0
20
0
30
0
70
128
71
72
72
73
73
70
0
VERTEX
8
OBJECT__26
10
0
20
0
30
0
70
128
71
74
72
73
73
75
0
VERTEX
8
OBJECT__26
10
0
20
0
30
0
70
128
71
73
72
76
73
75
0
VERTEX
8
OBJECT__26
10
0
20
0
30
0
70
128
71
73
72
72
73
77
0
VERTEX
8
OBJECT__26
10
0
20
0
30
0
70
128
71
77
72
78
73
73
0
VERTEX
8
OBJECT__26
10
0
20
0
30
0
70
128
71
78
72
76
73
73
0
VERTEX
8
OBJECT__26
10
0
20
0
30
0
70
128
71
75
72
79
73
74
0
VERTEX
8
OBJECT__26
10
0
20
0
30
0
70
128
71
70
72
3
73
2
0
VERTEX
8
OBJECT__26
10
0
20
0
30
0
70
128
71
69
72
71
73
2
0
VERTEX
8
OBJECT__26
10
0
20
0
30
0
70
128
71
68
72
2
73
1
0
VERTEX
8
OBJECT__26
10
0
20
0
30
0
70
128
71
66
72
67
73
62
0
VERTEX
8
OBJECT__26
10
0
20
0
30
0
70
128
71
62
72
22
73
60
0
VERTEX
8
OBJECT__26
10
0
20
0
30
0
70
128
71
58
72
34
73
26
0
VERTEX
8
OBJECT__26
10
0
20
0
30
0
70
128
71
56
72
57
73
27
0
VERTEX
8
OBJECT__26
10
0
20
0
30
0
70
128
71
55
72
27
73
19
0
VERTEX
8
OBJECT__26
10
0
20
0
30
0
70
128
71
53
72
54
73
20
0
VERTEX
8
OBJECT__26
10
0
20
0
30
0
70
128
71
50
72
20
73
48
0
VERTEX
8
OBJECT__26
10
0
20
0
30
0
70
128
71
38
72
51
73
36
0
VERTEX
8
OBJECT__26
10
0
20
0
30
0
70
128
71
35
72
32
73
25
0
VERTEX
8
OBJECT__26
10
0
20
0
30
0
70
128
71
33
72
31
73
24
0
VERTEX
8
OBJECT__26
10
0
20
0
30
0
70
128
71
30
72
29
73
23
0
VERTEX
8
OBJECT__26
10
0
20
0
30
0
70
128
71
28
72
64
73
22
0
VERTEX
8
OBJECT__26
10
0
20
0
30
0
70
128
71
27
72
26
73
15
0
VERTEX
8
OBJECT__26
10
0
20
0
30
0
70
128
71
26
72
25
73
14
0
VERTEX
8
OBJECT__26
10
0
20
0
30
0
70
128
71
25
72
24
73
9
0
VERTEX
8
OBJECT__26
10
0
20
0
30
0
70
128
71
24
72
23
73
10
0
VERTEX
8
OBJECT__26
10
0
20
0
30
0
70
128
71
23
72
22
73
4
0
VERTEX
8
OBJECT__26
10
0
20
0
30
0
70
128
71
22
72
62
73
1
0
VERTEX
8
OBJECT__26
10
0
20
0
30
0
70
128
71
21
72
52
73
20
0
VERTEX
8
OBJECT__26
10
0
20
0
30
0
70
128
71
18
72
21
73
19
0
VERTEX
8
OBJECT__26
10
0
20
0
30
0
70
128
71
16
72
17
73
15
0
VERTEX
8
OBJECT__26
10
0
20
0
30
0
70
128
71
13
72
16
73
14
0
VERTEX
8
OBJECT__26
10
0
20
0
30
0
70
128
71
11
72
12
73
9
0
VERTEX
8
OBJECT__26
10
0
20
0
30
0
70
128
71
8
72
10
73
4
0
VERTEX
8
OBJECT__26
10
0
20
0
30
0
70
128
71
5
72
7
73
4
0
VERTEX
8
OBJECT__26
10
0
20
0
30
0
70
128
71
3
72
6
73
1
0
SEQEND
8
OBJECT__26
0
POLYLINE
8
OBJECT__27
66
1
70
64
71
45
72
43
62
253
0
VERTEX
8
OBJECT__27
10
-26.250000
20
0.000000
30
149.229996
70
192
0
VERTEX
8
OBJECT__27
10
-26.250000
20
0.000000
30
44.000000
70
192
0
VERTEX
8
OBJECT__27
10
-24.125999
20
-10.343000
30
44.000000
70
192
0
VERTEX
8
OBJECT__27
10
-24.125999
20
10.343000
30
149.229996
70
192
0
VERTEX
8
OBJECT__27
10
-24.125999
20
10.343000
30
44.000000
70
192
0
VERTEX
8
OBJECT__27
10
-18.099001
20
-19.013000
30
44.000000
70
192
0
VERTEX
8
OBJECT__27
10
-11.119000
20
-23.778999
30
145.311996
70
192
0
VERTEX
8
OBJECT__27
10
-14.875000
20
-21.629000
30
146.488998
70
192
0
VERTEX
8
OBJECT__27
10
-9.143000
20
-24.606001
30
44.000000
70
192
0
VERTEX
8
OBJECT__27
10
-9.110000
20
-24.517000
30
144.695999
70
192
0
VERTEX
8
OBJECT__27
10
-20.980000
20
-15.776000
30
148.455994
70
192
0
VERTEX
8
OBJECT__27
10
-23.329000
20
-12.035000
30
149.229996
70
192
0
VERTEX
8
OBJECT__27
10
-18.127001
20
-18.987000
30
147.529007
70
192
0
VERTEX
8
OBJECT__27
10
-18.097000
20
-19.011000
30
147.518997
70
192
0
VERTEX
8
OBJECT__27
10
-19.514000
20
17.556999
30
147.977997
70
192
0
VERTEX
8
OBJECT__27
10
-18.040001
20
18.951000
30
147.503006
70
192
0
VERTEX
8
OBJECT__27
10
-22.089001
20
14.183000
30
148.820007
70
192
0
VERTEX
8
OBJECT__27
10
-22.486000
20
13.543000
30
148.951004
70
192
0
VERTEX
8
OBJECT__27
10
-23.329000
20
12.035000
30
149.229996
70
192
0
VERTEX
8
OBJECT__27
10
-18.099001
20
19.013000
30
44.000000
70
192
0
VERTEX
8
OBJECT__27
10
-12.275000
20
23.202999
30
145.671997
70
192
0
VERTEX
8
OBJECT__27
10
-9.120000
20
24.554001
30
144.697006
70
192
0
VERTEX
8
OBJECT__27
10
-15.890000
20
20.893999
30
146.811996
70
192
0
VERTEX
8
OBJECT__27
10
-16.422001
20
20.479000
30
146.981995
70
192
0
VERTEX
8
OBJECT__27
10
-9.143000
20
24.606001
30
44.000000
70
192
0
VERTEX
8
OBJECT__27
10
-0.051000
20
26.250000
30
56.525002
70
192
0
VERTEX
8
OBJECT__27
10
-0.054000
20
26.250000
30
56.500000
70
192
0
VERTEX
8
OBJECT__27
10
-0.029000
20
26.250000
30
56.577000
70
192
0
VERTEX
8
OBJECT__27
10
0.513000
20
26.245001
30
56.869999
70
192
0
VERTEX
8
OBJECT__27
10
0.636000
20
26.242001
30
141.783005
70
192
0
VERTEX
8
OBJECT__27
10
1.293000
20
26.218000
30
141.591995
70
192
0
VERTEX
8
OBJECT__27
10
-3.695000
20
25.989000
30
143.054993
70
192
0
VERTEX
8
OBJECT__27
10
-8.319000
20
24.896999
30
144.449997
70
192
0
VERTEX
8
OBJECT__27
10
1.293000
20
26.218000
30
57.070000
70
192
0
VERTEX
8
OBJECT__27
10
0.140000
20
26.250000
30
56.716000
70
192
0
VERTEX
8
OBJECT__27
10
0.007000
20
26.250000
30
56.620998
70
192
0
VERTEX
8
OBJECT__27
10
-0.051000
20
-26.250000
30
56.525002
70
192
0
VERTEX
8
OBJECT__27
10
-2.661000
20
-26.115000
30
142.748993
70
192
0
VERTEX
8
OBJECT__27
10
-6.923000
20
-25.320999
30
144.024994
70
192
0
VERTEX
8
OBJECT__27
10
1.293000
20
-26.218000
30
57.070000
70
192
0
VERTEX
8
OBJECT__27
10
1.293000
20
-26.218000
30
141.591995
70
192
0
VERTEX
8
OBJECT__27
10
-0.054000
20
-26.250000
30
56.500000
70
192
0
VERTEX
8
OBJECT__27
10
-0.054000
20
-26.250000
30
44.000000
70
192
0
VERTEX
8
OBJECT__27
10
-0.054000
20
26.250000
30
44.000000
70
192
0
VERTEX
8
OBJECT__27
10
-24.125999
20
-10.343000
30
149.229996
70
192
0
VERTEX
8
OBJECT__27
10
0
20
0
30
0
70
128
71
1
72
2
73
3
0
VERTEX
8
OBJECT__27
10
0
20
0
30
0
70
128
71
4
72
5
73
2
0
VERTEX
8
OBJECT__27
10
0
20
0
30
0
70
128
71
6
72
7
73
8
0
VERTEX
8
OBJECT__27
10
0
20
0
30
0
70
128
71
6
72
9
73
10
0
VERTEX
8
OBJECT__27
10
0
20
0
30
0
70
128
71
10
72
7
73
6
0
VERTEX
8
OBJECT__27
10
0
20
0
30
0
70
128
71
3
72
11
73
12
0
VERTEX
8
OBJECT__27
10
0
20
0
30
0
70
128
71
3
72
13
73
11
0
VERTEX
8
OBJECT__27
10
0
20
0
30
0
70
128
71
3
72
6
73
14
0
VERTEX
8
OBJECT__27
10
0
20
0
30
0
70
128
71
14
72
13
73
3
0
VERTEX
8
OBJECT__27
10
0
20
0
30
0
70
128
71
5
72
15
73
16
0
VERTEX
8
OBJECT__27
10
0
20
0
30
0
70
128
71
5
72
17
73
15
0
VERTEX
8
OBJECT__27
10
0
20
0
30
0
70
128
71
5
72
18
73
17
0
VERTEX
8
OBJECT__27
10
0
20
0
30
0
70
128
71
5
72
4
73
19
0
VERTEX
8
OBJECT__27
10
0
20
0
30
0
70
128
71
19
72
18
73
5
0
VERTEX
8
OBJECT__27
10
0
20
0
30
0
70
128
71
20
72
21
73
22
0
VERTEX
8
OBJECT__27
10
0
20
0
30
0
70
128
71
20
72
23
73
21
0
VERTEX
8
OBJECT__27
10
0
20
0
30
0
70
128
71
20
72
16
73
24
0
VERTEX
8
OBJECT__27
10
0
20
0
30
0
70
128
71
24
72
23
73
20
0
VERTEX
8
OBJECT__27
10
0
20
0
30
0
70
128
71
25
72
26
73
27
0
VERTEX
8
OBJECT__27
10
0
20
0
30
0
70
128
71
22
72
28
73
26
0
VERTEX
8
OBJECT__27
10
0
20
0
30
0
70
128
71
29
72
30
73
31
0
VERTEX
8
OBJECT__27
10
0
20
0
30
0
70
128
71
29
72
32
73
30
0
VERTEX
8
OBJECT__27
10
0
20
0
30
0
70
128
71
29
72
22
73
33
0
VERTEX
8
OBJECT__27
10
0
20
0
30
0
70
128
71
33
72
32
73
29
0
VERTEX
8
OBJECT__27
10
0
20
0
30
0
70
128
71
31
72
34
73
29
0
VERTEX
8
OBJECT__27
10
0
20
0
30
0
70
128
71
29
72
35
73
22
0
VERTEX
8
OBJECT__27
10
0
20
0
30
0
70
128
71
35
72
36
73
22
0
VERTEX
8
OBJECT__27
10
0
20
0
30
0
70
128
71
36
72
28
73
22
0
VERTEX
8
OBJECT__27
10
0
20
0
30
0
70
128
71
26
72
25
73
22
0
VERTEX
8
OBJECT__27
10
0
20
0
30
0
70
128
71
37
72
38
73
39
0
VERTEX
8
OBJECT__27
10
0
20
0
30
0
70
128
71
38
72
37
73
40
0
VERTEX
8
OBJECT__27
10
0
20
0
30
0
70
128
71
40
72
41
73
38
0
VERTEX
8
OBJECT__27
10
0
20
0
30
0
70
128
71
9
72
42
73
37
0
VERTEX
8
OBJECT__27
10
0
20
0
30
0
70
128
71
9
72
43
73
42
0
VERTEX
8
OBJECT__27
10
0
20
0
30
0
70
128
71
37
72
10
73
9
0
VERTEX
8
OBJECT__27
10
0
20
0
30
0
70
128
71
39
72
10
73
37
0
VERTEX
8
OBJECT__27
10
0
20
0
30
0
70
128
71
27
72
44
73
25
0
VERTEX
8
OBJECT__27
10
0
20
0
30
0
70
128
71
22
72
25
73
20
0
VERTEX
8
OBJECT__27
10
0
20
0
30
0
70
128
71
16
72
20
73
5
0
VERTEX
8
OBJECT__27
10
0
20
0
30
0
70
128
71
12
72
45
73
3
0
VERTEX
8
OBJECT__27
10
0
20
0
30
0
70
128
71
8
72
14
73
6
0
VERTEX
8
OBJECT__27
10
0
20
0
30
0
70
128
71
2
72
1
73
4
0
VERTEX
8
OBJECT__27
10
0
20
0
30
0
70
128
71
3
72
45
73
1
0
SEQEND
8
OBJECT__27
0
POLYLINE
8
OBJECT__28
66
1
70
64
71
27
72
25
62
253
0
VERTEX
8
OBJECT__28
10
-0.054000
20
-26.250000
30
44.000000
70
192
0
VERTEX
8
OBJECT__28
10
11.317000
20
-23.634001
30
44.000000
70
192
0
VERTEX
8
OBJECT__28
10
6.332000
20
-25.448000
30
56.500000
70
192
0
VERTEX
8
OBJECT__28
10
11.256000
20
-23.481001
30
56.500000
70
192
0
VERTEX
8
OBJECT__28
10
20.431000
20
-16.349001
30
44.000000
70
192
0
VERTEX
8
OBJECT__28
10
18.298000
20
-18.716999
30
56.500000
70
192
0
VERTEX
8
OBJECT__28
10
12.763000
20
-22.879000
30
56.500000
70
192
0
VERTEX
8
OBJECT__28
10
20.250999
20
-16.209000
30
56.500000
70
192
0
VERTEX
8
OBJECT__28
10
25.487000
20
-5.834000
30
44.000000
70
192
0
VERTEX
8
OBJECT__28
10
25.230000
20
-6.865000
30
56.500000
70
192
0
VERTEX
8
OBJECT__28
10
22.552999
20
-13.252000
30
56.500000
70
192
0
VERTEX
8
OBJECT__28
10
25.368999
20
-5.818000
30
56.500000
70
192
0
VERTEX
8
OBJECT__28
10
25.487000
20
5.834000
30
44.000000
70
192
0
VERTEX
8
OBJECT__28
10
25.368999
20
5.818000
30
56.500000
70
192
0
VERTEX
8
OBJECT__28
10
26.143999
20
0.000000
30
56.500000
70
192
0
VERTEX
8
OBJECT__28
10
20.431000
20
16.349001
30
44.000000
70
192
0
VERTEX
8
OBJECT__28
10
22.552999
20
13.252000
30
56.500000
70
192
0
VERTEX
8
OBJECT__28
10
25.230000
20
6.865000
30
56.500000
70
192
0
VERTEX
8
OBJECT__28
10
20.250999
20
16.209000
30
56.500000
70
192
0
VERTEX
8
OBJECT__28
10
11.317000
20
23.634001
30
44.000000
70
192
0
VERTEX
8
OBJECT__28
10
12.763000
20
22.879000
30
56.500000
70
192
0
VERTEX
8
OBJECT__28
10
18.298000
20
18.716999
30
56.500000
70
192
0
VERTEX
8
OBJECT__28
10
11.256000
20
23.481001
30
56.500000
70
192
0
VERTEX
8
OBJECT__28
10
-0.054000
20
26.250000
30
44.000000
70
192
0
VERTEX
8
OBJECT__28
10
-0.054000
20
26.250000
30
56.500000
70
192
0
VERTEX
8
OBJECT__28
10
6.332000
20
25.448000
30
56.500000
70
192
0
VERTEX
8
OBJECT__28
10
-0.054000
20
-26.250000
30
56.500000
70
192
0
VERTEX
8
OBJECT__28
10
0
20
0
30
0
70
128
71
1
72
2
73
3
0
VERTEX
8
OBJECT__28
10
0
20
0
30
0
70
128
71
2
72
4
73
3
0
VERTEX
8
OBJECT__28
10
0
20
0
30
0
70
128
71
2
72
5
73
6
0
VERTEX
8
OBJECT__28
10
0
20
0
30
0
70
128
71
6
72
7
73
2
0
VERTEX
8
OBJECT__28
10
0
20
0
30
0
70
128
71
5
72
8
73
6
0
VERTEX
8
OBJECT__28
10
0
20
0
30
0
70
128
71
9
72
10
73
11
0
VERTEX
8
OBJECT__28
10
0
20
0
30
0
70
128
71
11
72
5
73
9
0
VERTEX
8
OBJECT__28
10
0
20
0
30
0
70
128
71
9
72
12
73
10
0
VERTEX
8
OBJECT__28
10
0
20
0
30
0
70
128
71
13
72
14
73
15
0
VERTEX
8
OBJECT__28
10
0
20
0
30
0
70
128
71
15
72
9
73
13
0
VERTEX
8
OBJECT__28
10
0
20
0
30
0
70
128
71
13
72
16
73
17
0
VERTEX
8
OBJECT__28
10
0
20
0
30
0
70
128
71
17
72
18
73
13
0
VERTEX
8
OBJECT__28
10
0
20
0
30
0
70
128
71
16
72
19
73
17
0
VERTEX
8
OBJECT__28
10
0
20
0
30
0
70
128
71
20
72
21
73
22
0
VERTEX
8
OBJECT__28
10
0
20
0
30
0
70
128
71
22
72
16
73
20
0
VERTEX
8
OBJECT__28
10
0
20
0
30
0
70
128
71
20
72
23
73
21
0
VERTEX
8
OBJECT__28
10
0
20
0
30
0
70
128
71
24
72
25
73
26
0
VERTEX
8
OBJECT__28
10
0
20
0
30
0
70
128
71
26
72
20
73
24
0
VERTEX
8
OBJECT__28
10
0
20
0
30
0
70
128
71
26
72
23
73
20
0
VERTEX
8
OBJECT__28
10
0
20
0
30
0
70
128
71
22
72
19
73
16
0
VERTEX
8
OBJECT__28
10
0
20
0
30
0
70
128
71
18
72
14
73
13
0
VERTEX
8
OBJECT__28
10
0
20
0
30
0
70
128
71
15
72
12
73
9
0
VERTEX
8
OBJECT__28
10
0
20
0
30
0
70
128
71
11
72
8
73
5
0
VERTEX
8
OBJECT__28
10
0
20
0
30
0
70
128
71
7
72
4
73
2
0
VERTEX
8
OBJECT__28
10
0
20
0
30
0
70
128
71
3
72
27
73
1
0
SEQEND
8
OBJECT__28
0
POLYLINE
8
OBJECT__29
66
1
70
64
71
15
72
13
62
253
0
VERTEX
8
OBJECT__29
10
-24.125999
20
10.343000
30
44.000000
70
192
0
VERTEX
8
OBJECT__29
10
-18.099001
20
-19.013000
30
44.000000
70
192
0
VERTEX
8
OBJECT__29
10
-24.125999
20
-10.343000
30
44.000000
70
192
0
VERTEX
8
OBJECT__29
10
11.317000
20
23.634001
30
44.000000
70
192
0
VERTEX
8
OBJECT__29
10
25.487000
20
5.834000
30
44.000000
70
192
0
VERTEX
8
OBJECT__29
10
25.487000
20
-5.834000
30
44.000000
70
192
0
VERTEX
8
OBJECT__29
10
-9.143000
20
-24.606001
30
44.000000
70
192
0
VERTEX
8
OBJECT__29
10
-18.099001
20
19.013000
30
44.000000
70
192
0
VERTEX
8
OBJECT__29
10
20.431000
20
-16.349001
30
44.000000
70
192
0
VERTEX
8
OBJECT__29
10
11.317000
20
-23.634001
30
44.000000
70
192
0
VERTEX
8
OBJECT__29
10
20.431000
20
16.349001
30
44.000000
70
192
0
VERTEX
8
OBJECT__29
10
-9.143000
20
24.606001
30
44.000000
70
192
0
VERTEX
8
OBJECT__29
10
-0.054000
20
26.250000
30
44.000000
70
192
0
VERTEX
8
OBJECT__29
10
-26.250000
20
0.000000
30
44.000000
70
192
0
VERTEX
8
OBJECT__29
10
-0.054000
20
-26.250000
30
44.000000
70
192
0
VERTEX
8
OBJECT__29
10
0
20
0
30
0
70
128
71
1
72
2
73
3
0
VERTEX
8
OBJECT__29
10
0
20
0
30
0
70
128
71
4
72
5
73
6
0
VERTEX
8
OBJECT__29
10
0
20
0
30
0
70
128
71
7
72
1
73
8
0
VERTEX
8
OBJECT__29
10
0
20
0
30
0
70
128
71
1
72
7
73
2
0
VERTEX
8
OBJECT__29
10
0
20
0
30
0
70
128
71
4
72
9
73
10
0
VERTEX
8
OBJECT__29
10
0
20
0
30
0
70
128
71
4
72
11
73
5
0
VERTEX
8
OBJECT__29
10
0
20
0
30
0
70
128
71
7
72
12
73
13
0
VERTEX
8
OBJECT__29
10
0
20
0
30
0
70
128
71
3
72
14
73
1
0
VERTEX
8
OBJECT__29
10
0
20
0
30
0
70
128
71
6
72
9
73
4
0
VERTEX
8
OBJECT__29
10
0
20
0
30
0
70
128
71
8
72
12
73
7
0
VERTEX
8
OBJECT__29
10
0
20
0
30
0
70
128
71
10
72
15
73
4
0
VERTEX
8
OBJECT__29
10
0
20
0
30
0
70
128
71
15
72
7
73
4
0
VERTEX
8
OBJECT__29
10
0
20
0
30
0
70
128
71
13
72
4
73
7
0
SEQEND
8
OBJECT__29
0
POLYLINE
8
OBJECT__30
66
1
70
64
71
4
72
2
62
253
0
VERTEX
8
OBJECT__30
10
13.336000
20
27.850000
30
48.978001
70
192
0
VERTEX
8
OBJECT__30
10
21.013000
20
27.850000
30
56.655998
70
192
0
VERTEX
8
OBJECT__30
10
21.327999
20
44.849998
30
56.341000
70
192
0
VERTEX
8
OBJECT__30
10
13.651000
20
44.849998
30
48.662998
70
192
0
VERTEX
8
OBJECT__30
10
0
20
0
30
0
70
128
71
1
72
2
73
3
0
VERTEX
8
OBJECT__30
10
0
20
0
30
0
70
128
71
3
72
4
73
1
0
SEQEND
8
OBJECT__30
0
POLYLINE
8
OBJECT__31
66
1
70
64
71
4
72
2
62
253
0
VERTEX
8
OBJECT__31
10
24.014000
20
27.850000
30
53.654999
70
192
0
VERTEX
8
OBJECT__31
10
23.698999
20
44.849998
30
53.970001
70
192
0
VERTEX
8
OBJECT__31
10
21.327999
20
44.849998
30
56.341000
70
192
0
VERTEX
8
OBJECT__31
10
21.013000
20
27.850000
30
56.655998
70
192
0
VERTEX
8
OBJECT__31
10
0
20
0
30
0
70
128
71
1
72
2
73
3
0
VERTEX
8
OBJECT__31
10
0
20
0
30
0
70
128
71
3
72
4
73
1
0
SEQEND
8
OBJECT__31
0
POLYLINE
8
OBJECT__33
66
1
70
64
71
11
72
9
62
253
0
VERTEX
8
OBJECT__33
10
-8.582000
20
44.849998
30
42.687000
70
192
0
VERTEX
8
OBJECT__33
10
-9.212000
20
44.849998
30
29.691000
70
192
0
VERTEX
8
OBJECT__33
10
-12.258000
20
44.849998
30
33.793999
70
192
0
VERTEX
8
OBJECT__33
10
-4.255000
20
44.849998
30
28.450001
70
192
0
VERTEX
8
OBJECT__33
10
23.698999
20
44.849998
30
53.970001
70
192
0
VERTEX
8
OBJECT__33
10
0.364000
20
44.849998
30
30.636000
70
192
0
VERTEX
8
OBJECT__33
10
13.651000
20
44.849998
30
48.662998
70
192
0
VERTEX
8
OBJECT__33
10
-3.528000
20
44.849998
30
43.442001
70
192
0
VERTEX
8
OBJECT__33
10
5.715000
20
44.849998
30
43.903999
70
192
0
VERTEX
8
OBJECT__33
10
-12.011000
20
44.849998
30
38.897999
70
192
0
VERTEX
8
OBJECT__33
10
21.327999
20
44.849998
30
56.341000
70
192
0
VERTEX
8
OBJECT__33
10
0
20
0
30
0
70
128
71
1
72
2
73
3
0
VERTEX
8
OBJECT__33
10
0
20
0
30
0
70
128
71
1
72
4
73
2
0
VERTEX
8
OBJECT__33
10
0
20
0
30
0
70
128
71
5
72
6
73
7
0
VERTEX
8
OBJECT__33
10
0
20
0
30
0
70
128
71
8
72
9
73
6
0
VERTEX
8
OBJECT__33
10
0
20
0
30
0
70
128
71
3
72
10
73
1
0
VERTEX
8
OBJECT__33
10
0
20
0
30
0
70
128
71
6
72
9
73
7
0
VERTEX
8
OBJECT__33
10
0
20
0
30
0
70
128
71
1
72
8
73
4
0
VERTEX
8
OBJECT__33
10
0
20
0
30
0
70
128
71
6
72
4
73
8
0
VERTEX
8
OBJECT__33
10
0
20
0
30
0
70
128
71
7
72
11
73
5
0
SEQEND
8
OBJECT__33
0
POLYLINE
8
OBJECT__34
66
1
70
64
71
11
72
9
62
253
0
VERTEX
8
OBJECT__34
10
-12.422000
20
27.850000
30
39.068001
70
192
0
VERTEX
8
OBJECT__34
10
-12.684000
20
27.850000
30
33.664001
70
192
0
VERTEX
8
OBJECT__34
10
-9.460000
20
27.850000
30
29.320999
70
192
0
VERTEX
8
OBJECT__34
10
-4.211000
20
27.850000
30
28.007000
70
192
0
VERTEX
8
OBJECT__34
10
-3.442000
20
27.850000
30
43.879002
70
192
0
VERTEX
8
OBJECT__34
10
-8.792000
20
27.850000
30
43.080002
70
192
0
VERTEX
8
OBJECT__34
10
0.679000
20
27.850000
30
30.320999
70
192
0
VERTEX
8
OBJECT__34
10
24.014000
20
27.850000
30
53.654999
70
192
0
VERTEX
8
OBJECT__34
10
21.013000
20
27.850000
30
56.655998
70
192
0
VERTEX
8
OBJECT__34
10
13.336000
20
27.850000
30
48.978001
70
192
0
VERTEX
8
OBJECT__34
10
5.585000
20
27.850000
30
44.330002
70
192
0
VERTEX
8
OBJECT__34
10
0
20
0
30
0
70
128
71
1
72
2
73
3
0
VERTEX
8
OBJECT__34
10
0
20
0
30
0
70
128
71
4
72
5
73
6
0
VERTEX
8
OBJECT__34
10
0
20
0
30
0
70
128
71
6
72
1
73
4
0
VERTEX
8
OBJECT__34
10
0
20
0
30
0
70
128
71
5
72
4
73
7
0
VERTEX
8
OBJECT__34
10
0
20
0
30
0
70
128
71
8
72
9
73
10
0
VERTEX
8
OBJECT__34
10
0
20
0
30
0
70
128
71
7
72
11
73
5
0
VERTEX
8
OBJECT__34
10
0
20
0
30
0
70
128
71
10
72
7
73
8
0
VERTEX
8
OBJECT__34
10
0
20
0
30
0
70
128
71
10
72
11
73
7
0
VERTEX
8
OBJECT__34
10
0
20
0
30
0
70
128
71
3
72
4
73
1
0
SEQEND
8
OBJECT__34
0
POLYLINE
8
OBJECT__35
66
1
70
64
71
4
72
2
62
253
0
VERTEX
8
OBJECT__35
10
0.679000
20
27.850000
30
30.320999
70
192
0
VERTEX
8
OBJECT__35
10
0.364000
20
44.849998
30
30.636000
70
192
0
VERTEX
8
OBJECT__35
10
23.698999
20
44.849998
30
53.970001
70
192
0
VERTEX
8
OBJECT__35
10
24.014000
20
27.850000
30
53.654999
70
192
0
VERTEX
8
OBJECT__35
10
0
20
0
30
0
70
128
71
1
72
2
73
3
0
VERTEX
8
OBJECT__35
10
0
20
0
30
0
70
128
71
3
72
4
73
1
0
SEQEND
8
OBJECT__35
0
POLYLINE
8
OBJECT__36
66
1
70
64
71
14
72
12
62
253
0
VERTEX
8
OBJECT__36
10
-3.442000
20
27.850000
30
43.879002
70
192
0
VERTEX
8
OBJECT__36
10
-3.528000
20
44.849998
30
43.442001
70
192
0
VERTEX
8
OBJECT__36
10
-8.582000
20
44.849998
30
42.687000
70
192
0
VERTEX
8
OBJECT__36
10
-12.422000
20
27.850000
30
39.068001
70
192
0
VERTEX
8
OBJECT__36
10
-8.792000
20
27.850000
30
43.080002
70
192
0
VERTEX
8
OBJECT__36
10
-12.684000
20
27.850000
30
33.664001
70
192
0
VERTEX
8
OBJECT__36
10
-12.011000
20
44.849998
30
38.897999
70
192
0
VERTEX
8
OBJECT__36
10
-9.460000
20
27.850000
30
29.320999
70
192
0
VERTEX
8
OBJECT__36
10
-12.258000
20
44.849998
30
33.793999
70
192
0
VERTEX
8
OBJECT__36
10
-4.211000
20
27.850000
30
28.007000
70
192
0
VERTEX
8
OBJECT__36
10
-9.212000
20
44.849998
30
29.691000
70
192
0
VERTEX
8
OBJECT__36
10
-4.255000
20
44.849998
30
28.450001
70
192
0
VERTEX
8
OBJECT__36
10
0.364000
20
44.849998
30
30.636000
70
192
0
VERTEX
8
OBJECT__36
10
0.679000
20
27.850000
30
30.320999
70
192
0
VERTEX
8
OBJECT__36
10
0
20
0
30
0
70
128
71
1
72
2
73
3
0
VERTEX
8
OBJECT__36
10
0
20
0
30
0
70
128
71
4
72
5
73
3
0
VERTEX
8
OBJECT__36
10
0
20
0
30
0
70
128
71
6
72
4
73
7
0
VERTEX
8
OBJECT__36
10
0
20
0
30
0
70
128
71
8
72
6
73
9
0
VERTEX
8
OBJECT__36
10
0
20
0
30
0
70
128
71
10
72
8
73
11
0
VERTEX
8
OBJECT__36
10
0
20
0
30
0
70
128
71
10
72
12
73
13
0
VERTEX
8
OBJECT__36
10
0
20
0
30
0
70
128
71
13
72
14
73
10
0
VERTEX
8
OBJECT__36
10
0
20
0
30
0
70
128
71
11
72
12
73
10
0
VERTEX
8
OBJECT__36
10
0
20
0
30
0
70
128
71
9
72
11
73
8
0
VERTEX
8
OBJECT__36
10
0
20
0
30
0
70
128
71
7
72
9
73
6
0
VERTEX
8
OBJECT__36
10
0
20
0
30
0
70
128
71
3
72
7
73
4
0
VERTEX
8
OBJECT__36
10
0
20
0
30
0
70
128
71
3
72
5
73
1
0
SEQEND
8
OBJECT__36
0
POLYLINE
8
OBJECT__37
66
1
70
64
71
6
72
4
62
253
0
VERTEX
8
OBJECT__37
10
13.651000
20
44.849998
30
48.662998
70
192
0
VERTEX
8
OBJECT__37
10
5.715000
20
44.849998
30
43.903999
70
192
0
VERTEX
8
OBJECT__37
10
5.585000
20
27.850000
30
44.330002
70
192
0
VERTEX
8
OBJECT__37
10
-3.528000
20
44.849998
30
43.442001
70
192
0
VERTEX
8
OBJECT__37
10
-3.442000
20
27.850000
30
43.879002
70
192
0
VERTEX
8
OBJECT__37
10
13.336000
20
27.850000
30
48.978001
70
192
0
VERTEX
8
OBJECT__37
10
0
20
0
30
0
70
128
71
1
72
2
73
3
0
VERTEX
8
OBJECT__37
10
0
20
0
30
0
70
128
71
2
72
4
73
5
0
VERTEX
8
OBJECT__37
10
0
20
0
30
0
70
128
71
5
72
3
73
2
0
VERTEX
8
OBJECT__37
10
0
20
0
30
0
70
128
71
3
72
6
73
1
0
SEQEND
8
OBJECT__37
0
ENDSEC
0
EOF
