999
Converted by 3D Exploration 
999
XDimension Software, LLC
999
http://www.xdsoft.com/explorer/
0
SECTION
2
HEADER
9
$ACADVER
1
AC1008
9
$UCSORG
10
0.0
20
0.0
30
0.0
9
$UCSXDIR
10
1.0
20
0.0
30
0.0
9
$TILEMODE
70
1
9
$UCSYDIR
10
0.0
20
1.0
30
0.0
9
$EXTMIN
10
0.000000
20
-102.000000
30
-102.000000
9
$EXTMAX
10
94.449997
20
102.000000
30
139.798996
0
ENDSEC
0
SECTION
2
TABLES
0
TABLE
2
LTYPE
70
1
0
LTYPE
2
CONTINUOUS
70
64
3
Solid line
72
65
73
0
40
0.0
0
ENDTAB
0
TABLE
2
LAYER
70
74
0
LAYER
2
OBJECT__0
70
0
62
253
6
CONTINUOUS
0
LAYER
2
OBJECT__1
70
0
62
253
6
CONTINUOUS
0
LAYER
2
OBJECT__3
70
0
62
253
6
CONTINUOUS
0
LAYER
2
OBJECT__4
70
0
62
253
6
CONTINUOUS
0
LAYER
2
OBJECT__5
70
0
62
253
6
CONTINUOUS
0
LAYER
2
OBJECT__6
70
0
62
253
6
CONTINUOUS
0
LAYER
2
OBJECT__7
70
0
62
253
6
CONTINUOUS
0
LAYER
2
OBJECT__8
70
0
62
253
6
CONTINUOUS
0
LAYER
2
OBJECT__9
70
0
62
253
6
CONTINUOUS
0
LAYER
2
OBJECT__11
70
0
62
253
6
CONTINUOUS
0
LAYER
2
OBJECT__12
70
0
62
253
6
CONTINUOUS
0
LAYER
2
OBJECT__13
70
0
62
253
6
CONTINUOUS
0
LAYER
2
OBJECT__14
70
0
62
253
6
CONTINUOUS
0
LAYER
2
OBJECT__15
70
0
62
253
6
CONTINUOUS
0
LAYER
2
OBJECT__16
70
0
62
253
6
CONTINUOUS
0
LAYER
2
OBJECT__17
70
0
62
253
6
CONTINUOUS
0
LAYER
2
OBJECT__18
70
0
62
253
6
CONTINUOUS
0
LAYER
2
OBJECT__19
70
0
62
253
6
CONTINUOUS
0
LAYER
2
OBJECT__20
70
0
62
253
6
CONTINUOUS
0
LAYER
2
OBJECT__21
70
0
62
253
6
CONTINUOUS
0
LAYER
2
OBJECT__22
70
0
62
253
6
CONTINUOUS
0
LAYER
2
OBJECT__23
70
0
62
253
6
CONTINUOUS
0
LAYER
2
OBJECT__24
70
0
62
253
6
CONTINUOUS
0
LAYER
2
OBJECT__26
70
0
62
253
6
CONTINUOUS
0
LAYER
2
OBJECT__27
70
0
62
253
6
CONTINUOUS
0
LAYER
2
OBJECT__28
70
0
62
253
6
CONTINUOUS
0
LAYER
2
OBJECT__30
70
0
62
253
6
CONTINUOUS
0
LAYER
2
OBJECT__31
70
0
62
253
6
CONTINUOUS
0
LAYER
2
OBJECT__32
70
0
62
253
6
CONTINUOUS
0
LAYER
2
OBJECT__34
70
0
62
253
6
CONTINUOUS
0
LAYER
2
OBJECT__35
70
0
62
253
6
CONTINUOUS
0
LAYER
2
OBJECT__37
70
0
62
253
6
CONTINUOUS
0
LAYER
2
OBJECT__38
70
0
62
253
6
CONTINUOUS
0
LAYER
2
OBJECT__39
70
0
62
253
6
CONTINUOUS
0
LAYER
2
OBJECT__40
70
0
62
253
6
CONTINUOUS
0
LAYER
2
OBJECT__41
70
0
62
253
6
CONTINUOUS
0
LAYER
2
OBJECT__42
70
0
62
253
6
CONTINUOUS
0
LAYER
2
OBJECT__44
70
0
62
253
6
CONTINUOUS
0
LAYER
2
OBJECT__45
70
0
62
253
6
CONTINUOUS
0
LAYER
2
OBJECT__46
70
0
62
253
6
CONTINUOUS
0
LAYER
2
OBJECT__47
70
0
62
253
6
CONTINUOUS
0
LAYER
2
OBJECT__48
70
0
62
253
6
CONTINUOUS
0
LAYER
2
OBJECT__49
70
0
62
253
6
CONTINUOUS
0
LAYER
2
OBJECT__50
70
0
62
253
6
CONTINUOUS
0
LAYER
2
OBJECT__52
70
0
62
253
6
CONTINUOUS
0
LAYER
2
OBJECT__53
70
0
62
253
6
CONTINUOUS
0
LAYER
2
OBJECT__54
70
0
62
253
6
CONTINUOUS
0
LAYER
2
OBJECT__55
70
0
62
253
6
CONTINUOUS
0
LAYER
2
OBJECT__56
70
0
62
253
6
CONTINUOUS
0
LAYER
2
OBJECT__57
70
0
62
253
6
CONTINUOUS
0
LAYER
2
OBJECT__58
70
0
62
253
6
CONTINUOUS
0
LAYER
2
OBJECT__59
70
0
62
253
6
CONTINUOUS
0
LAYER
2
OBJECT__61
70
0
62
253
6
CONTINUOUS
0
LAYER
2
OBJECT__62
70
0
62
253
6
CONTINUOUS
0
LAYER
2
OBJECT__63
70
0
62
253
6
CONTINUOUS
0
LAYER
2
OBJECT__64
70
0
62
253
6
CONTINUOUS
0
LAYER
2
OBJECT__65
70
0
62
253
6
CONTINUOUS
0
LAYER
2
OBJECT__66
70
0
62
253
6
CONTINUOUS
0
LAYER
2
OBJECT__67
70
0
62
253
6
CONTINUOUS
0
LAYER
2
OBJECT__68
70
0
62
253
6
CONTINUOUS
0
LAYER
2
OBJECT__70
70
0
62
253
6
CONTINUOUS
0
LAYER
2
OBJECT__71
70
0
62
253
6
CONTINUOUS
0
LAYER
2
OBJECT__72
70
0
62
253
6
CONTINUOUS
0
LAYER
2
OBJECT__73
70
0
62
253
6
CONTINUOUS
0
ENDTAB
0
TABLE
2
STYLE
70
1
0
STYLE
2
STANDARD
70
0
40
0.0
41
1.0
50
0.0
71
0
42
0.2
3
txt
4
1
0
ENDTAB
0
TABLE
2
UCS
70
0
0
ENDTAB
0
ENDSEC
0
SECTION
2
ENTITIES
0
POLYLINE
8
OBJECT__0
66
1
70
64
71
20
72
20
62
253
0
VERTEX
8
OBJECT__0
10
50.502998
20
0.785000
30
25.108999
70
192
0
VERTEX
8
OBJECT__0
10
45.821999
20
1.544000
30
24.990999
70
192
0
VERTEX
8
OBJECT__0
10
45.816002
20
1.536000
30
24.995001
70
192
0
VERTEX
8
OBJECT__0
10
50.563999
20
4.950000
30
23.344999
70
192
0
VERTEX
8
OBJECT__0
10
50.355000
20
4.996000
30
23.309000
70
192
0
VERTEX
8
OBJECT__0
10
47.472000
20
3.922000
30
24.076000
70
192
0
VERTEX
8
OBJECT__0
10
55.106998
20
2.114000
30
24.853001
70
192
0
VERTEX
8
OBJECT__0
10
52.887001
20
4.434000
30
23.745001
70
192
0
VERTEX
8
OBJECT__0
10
55.188000
20
1.526000
30
24.905001
70
192
0
VERTEX
8
OBJECT__0
10
55.397999
20
0.007000
30
25.037001
70
192
0
VERTEX
8
OBJECT__0
10
45.818001
20
0.017000
30
24.993000
70
192
0
VERTEX
8
OBJECT__0
10
49.611000
20
-2.001000
30
24.884001
70
192
0
VERTEX
8
OBJECT__0
10
54.299000
20
-3.336000
30
24.389000
70
192
0
VERTEX
8
OBJECT__0
10
55.509998
20
-0.803000
30
25.107000
70
192
0
VERTEX
8
OBJECT__0
10
53.403000
20
-3.855000
30
24.056999
70
192
0
VERTEX
8
OBJECT__0
10
47.702999
20
-3.992000
30
23.988001
70
192
0
VERTEX
8
OBJECT__0
10
47.862999
20
-4.200000
30
23.902000
70
192
0
VERTEX
8
OBJECT__0
10
50.575001
20
-4.999000
30
23.305000
70
192
0
VERTEX
8
OBJECT__0
10
51.622002
20
-4.888000
30
23.398001
70
192
0
VERTEX
8
OBJECT__0
10
45.820000
20
-1.546000
30
24.992001
70
192
0
VERTEX
8
OBJECT__0
10
0
20
0
30
0
70
128
71
1
72
2
73
3
0
VERTEX
8
OBJECT__0
10
0
20
0
30
0
70
128
71
1
72
4
73
5
0
VERTEX
8
OBJECT__0
10
0
20
0
30
0
70
128
71
5
72
6
73
1
0
VERTEX
8
OBJECT__0
10
0
20
0
30
0
70
128
71
6
72
2
73
1
0
VERTEX
8
OBJECT__0
10
0
20
0
30
0
70
128
71
1
72
7
73
8
0
VERTEX
8
OBJECT__0
10
0
20
0
30
0
70
128
71
1
72
9
73
7
0
VERTEX
8
OBJECT__0
10
0
20
0
30
0
70
128
71
8
72
4
73
1
0
VERTEX
8
OBJECT__0
10
0
20
0
30
0
70
128
71
10
72
9
73
1
0
VERTEX
8
OBJECT__0
10
0
20
0
30
0
70
128
71
1
72
11
73
10
0
VERTEX
8
OBJECT__0
10
0
20
0
30
0
70
128
71
12
72
13
73
14
0
VERTEX
8
OBJECT__0
10
0
20
0
30
0
70
128
71
12
72
15
73
13
0
VERTEX
8
OBJECT__0
10
0
20
0
30
0
70
128
71
10
72
11
73
12
0
VERTEX
8
OBJECT__0
10
0
20
0
30
0
70
128
71
12
72
16
73
17
0
VERTEX
8
OBJECT__0
10
0
20
0
30
0
70
128
71
17
72
18
73
12
0
VERTEX
8
OBJECT__0
10
0
20
0
30
0
70
128
71
18
72
19
73
12
0
VERTEX
8
OBJECT__0
10
0
20
0
30
0
70
128
71
12
72
11
73
20
0
VERTEX
8
OBJECT__0
10
0
20
0
30
0
70
128
71
20
72
16
73
12
0
VERTEX
8
OBJECT__0
10
0
20
0
30
0
70
128
71
19
72
15
73
12
0
VERTEX
8
OBJECT__0
10
0
20
0
30
0
70
128
71
14
72
10
73
12
0
VERTEX
8
OBJECT__0
10
0
20
0
30
0
70
128
71
3
72
11
73
1
0
SEQEND
8
OBJECT__0
0
POLYLINE
8
OBJECT__1
66
1
70
64
71
37
72
37
62
253
0
VERTEX
8
OBJECT__1
10
45.584999
20
-0.310000
30
24.441999
70
192
0
VERTEX
8
OBJECT__1
10
46.480000
20
-2.868000
30
23.834000
70
192
0
VERTEX
8
OBJECT__1
10
45.820000
20
-1.546000
30
24.992001
70
192
0
VERTEX
8
OBJECT__1
10
45.818001
20
0.017000
30
24.993000
70
192
0
VERTEX
8
OBJECT__1
10
47.702999
20
-3.992000
30
23.988001
70
192
0
VERTEX
8
OBJECT__1
10
46.033001
20
1.493000
30
24.135000
70
192
0
VERTEX
8
OBJECT__1
10
45.659000
20
-0.009000
30
24.391001
70
192
0
VERTEX
8
OBJECT__1
10
45.816002
20
1.536000
30
24.995001
70
192
0
VERTEX
8
OBJECT__1
10
45.821999
20
1.544000
30
24.990999
70
192
0
VERTEX
8
OBJECT__1
10
50.355000
20
4.996000
30
23.309000
70
192
0
VERTEX
8
OBJECT__1
10
50.575001
20
5.001000
30
22.348000
70
192
0
VERTEX
8
OBJECT__1
10
48.868999
20
4.701000
30
22.636000
70
192
0
VERTEX
8
OBJECT__1
10
47.472000
20
3.922000
30
24.076000
70
192
0
VERTEX
8
OBJECT__1
10
46.311001
20
2.613000
30
23.944000
70
192
0
VERTEX
8
OBJECT__1
10
52.887001
20
4.434000
30
23.745001
70
192
0
VERTEX
8
OBJECT__1
10
55.106998
20
2.114000
30
24.853001
70
192
0
VERTEX
8
OBJECT__1
10
54.925999
20
2.463000
30
23.150999
70
192
0
VERTEX
8
OBJECT__1
10
52.862000
20
3.667000
30
22.598000
70
192
0
VERTEX
8
OBJECT__1
10
50.563999
20
4.950000
30
23.344999
70
192
0
VERTEX
8
OBJECT__1
10
50.575001
20
5.001000
30
21.985001
70
192
0
VERTEX
8
OBJECT__1
10
54.915001
20
1.551000
30
23.148001
70
192
0
VERTEX
8
OBJECT__1
10
55.188000
20
1.526000
30
24.905001
70
192
0
VERTEX
8
OBJECT__1
10
55.509998
20
-0.803000
30
25.107000
70
192
0
VERTEX
8
OBJECT__1
10
54.299000
20
-3.336000
30
24.389000
70
192
0
VERTEX
8
OBJECT__1
10
54.862000
20
-2.573000
30
23.132999
70
192
0
VERTEX
8
OBJECT__1
10
54.895000
20
0.010000
30
23.142000
70
192
0
VERTEX
8
OBJECT__1
10
55.397999
20
0.007000
30
25.037001
70
192
0
VERTEX
8
OBJECT__1
10
53.209000
20
-3.508000
30
22.691000
70
192
0
VERTEX
8
OBJECT__1
10
53.403000
20
-3.855000
30
24.056999
70
192
0
VERTEX
8
OBJECT__1
10
52.886002
20
-3.691000
30
22.604000
70
192
0
VERTEX
8
OBJECT__1
10
51.622002
20
-4.888000
30
23.398001
70
192
0
VERTEX
8
OBJECT__1
10
50.575001
20
-4.999000
30
22.348000
70
192
0
VERTEX
8
OBJECT__1
10
50.575001
20
-4.999000
30
21.985001
70
192
0
VERTEX
8
OBJECT__1
10
47.862999
20
-4.200000
30
23.902000
70
192
0
VERTEX
8
OBJECT__1
10
47.798000
20
-3.820000
30
23.200001
70
192
0
VERTEX
8
OBJECT__1
10
49.141998
20
-4.790000
30
22.552999
70
192
0
VERTEX
8
OBJECT__1
10
50.575001
20
-4.999000
30
23.305000
70
192
0
VERTEX
8
OBJECT__1
10
0
20
0
30
0
70
128
71
1
72
2
73
3
0
VERTEX
8
OBJECT__1
10
0
20
0
30
0
70
128
71
3
72
4
73
1
0
VERTEX
8
OBJECT__1
10
0
20
0
30
0
70
128
71
2
72
5
73
3
0
VERTEX
8
OBJECT__1
10
0
20
0
30
0
70
128
71
6
72
7
73
4
0
VERTEX
8
OBJECT__1
10
0
20
0
30
0
70
128
71
4
72
8
73
6
0
VERTEX
8
OBJECT__1
10
0
20
0
30
0
70
128
71
8
72
9
73
6
0
VERTEX
8
OBJECT__1
10
0
20
0
30
0
70
128
71
7
72
1
73
4
0
VERTEX
8
OBJECT__1
10
0
20
0
30
0
70
128
71
10
72
11
73
12
0
VERTEX
8
OBJECT__1
10
0
20
0
30
0
70
128
71
13
72
12
73
14
0
VERTEX
8
OBJECT__1
10
0
20
0
30
0
70
128
71
14
72
9
73
13
0
VERTEX
8
OBJECT__1
10
0
20
0
30
0
70
128
71
12
72
13
73
10
0
VERTEX
8
OBJECT__1
10
0
20
0
30
0
70
128
71
14
72
6
73
9
0
VERTEX
8
OBJECT__1
10
0
20
0
30
0
70
128
71
15
72
16
73
17
0
VERTEX
8
OBJECT__1
10
0
20
0
30
0
70
128
71
18
72
11
73
19
0
VERTEX
8
OBJECT__1
10
0
20
0
30
0
70
128
71
18
72
20
73
11
0
VERTEX
8
OBJECT__1
10
0
20
0
30
0
70
128
71
19
72
15
73
18
0
VERTEX
8
OBJECT__1
10
0
20
0
30
0
70
128
71
21
72
17
73
16
0
VERTEX
8
OBJECT__1
10
0
20
0
30
0
70
128
71
16
72
22
73
21
0
VERTEX
8
OBJECT__1
10
0
20
0
30
0
70
128
71
23
72
24
73
25
0
VERTEX
8
OBJECT__1
10
0
20
0
30
0
70
128
71
26
72
27
73
23
0
VERTEX
8
OBJECT__1
10
0
20
0
30
0
70
128
71
26
72
21
73
22
0
VERTEX
8
OBJECT__1
10
0
20
0
30
0
70
128
71
22
72
27
73
26
0
VERTEX
8
OBJECT__1
10
0
20
0
30
0
70
128
71
28
72
25
73
24
0
VERTEX
8
OBJECT__1
10
0
20
0
30
0
70
128
71
24
72
29
73
28
0
VERTEX
8
OBJECT__1
10
0
20
0
30
0
70
128
71
30
72
31
73
32
0
VERTEX
8
OBJECT__1
10
0
20
0
30
0
70
128
71
30
72
29
73
31
0
VERTEX
8
OBJECT__1
10
0
20
0
30
0
70
128
71
32
72
33
73
30
0
VERTEX
8
OBJECT__1
10
0
20
0
30
0
70
128
71
34
72
35
73
36
0
VERTEX
8
OBJECT__1
10
0
20
0
30
0
70
128
71
36
72
37
73
34
0
VERTEX
8
OBJECT__1
10
0
20
0
30
0
70
128
71
36
72
32
73
37
0
VERTEX
8
OBJECT__1
10
0
20
0
30
0
70
128
71
32
72
31
73
37
0
VERTEX
8
OBJECT__1
10
0
20
0
30
0
70
128
71
34
72
5
73
35
0
VERTEX
8
OBJECT__1
10
0
20
0
30
0
70
128
71
30
72
28
73
29
0
VERTEX
8
OBJECT__1
10
0
20
0
30
0
70
128
71
25
72
26
73
23
0
VERTEX
8
OBJECT__1
10
0
20
0
30
0
70
128
71
17
72
18
73
15
0
VERTEX
8
OBJECT__1
10
0
20
0
30
0
70
128
71
10
72
19
73
11
0
VERTEX
8
OBJECT__1
10
0
20
0
30
0
70
128
71
2
72
35
73
5
0
SEQEND
8
OBJECT__1
0
POLYLINE
8
OBJECT__3
66
1
70
64
71
22
72
20
62
253
0
VERTEX
8
OBJECT__3
10
52.862000
20
3.667000
30
22.598000
70
192
0
VERTEX
8
OBJECT__3
10
58.181999
20
4.180000
30
14.049000
70
192
0
VERTEX
8
OBJECT__3
10
54.348000
20
5.001000
30
15.451000
70
192
0
VERTEX
8
OBJECT__3
10
52.839001
20
4.580000
30
14.049000
70
192
0
VERTEX
8
OBJECT__3
10
52.597000
20
4.574000
30
14.440000
70
192
0
VERTEX
8
OBJECT__3
10
52.701000
20
4.526000
30
14.049000
70
192
0
VERTEX
8
OBJECT__3
10
60.897999
20
-0.013000
30
14.049000
70
192
0
VERTEX
8
OBJECT__3
10
58.347000
20
4.168000
30
14.049000
70
192
0
VERTEX
8
OBJECT__3
10
54.925999
20
2.463000
30
23.150999
70
192
0
VERTEX
8
OBJECT__3
10
54.915001
20
1.551000
30
23.148001
70
192
0
VERTEX
8
OBJECT__3
10
54.862000
20
-2.573000
30
23.132999
70
192
0
VERTEX
8
OBJECT__3
10
53.209000
20
-3.508000
30
22.691000
70
192
0
VERTEX
8
OBJECT__3
10
58.191002
20
-4.239000
30
14.049000
70
192
0
VERTEX
8
OBJECT__3
10
58.220001
20
-4.238000
30
14.049000
70
192
0
VERTEX
8
OBJECT__3
10
60.930000
20
-0.065000
30
14.049000
70
192
0
VERTEX
8
OBJECT__3
10
54.895000
20
0.010000
30
23.142000
70
192
0
VERTEX
8
OBJECT__3
10
52.701000
20
-4.525000
30
14.049000
70
192
0
VERTEX
8
OBJECT__3
10
54.348000
20
-4.999000
30
15.451000
70
192
0
VERTEX
8
OBJECT__3
10
52.886002
20
-3.691000
30
22.604000
70
192
0
VERTEX
8
OBJECT__3
10
50.575001
20
-4.999000
30
21.985001
70
192
0
VERTEX
8
OBJECT__3
10
52.597000
20
-4.572000
30
14.440000
70
192
0
VERTEX
8
OBJECT__3
10
50.575001
20
5.001000
30
21.985001
70
192
0
VERTEX
8
OBJECT__3
10
0
20
0
30
0
70
128
71
1
72
2
73
3
0
VERTEX
8
OBJECT__3
10
0
20
0
30
0
70
128
71
4
72
5
73
3
0
VERTEX
8
OBJECT__3
10
0
20
0
30
0
70
128
71
3
72
2
73
4
0
VERTEX
8
OBJECT__3
10
0
20
0
30
0
70
128
71
4
72
6
73
5
0
VERTEX
8
OBJECT__3
10
0
20
0
30
0
70
128
71
7
72
8
73
9
0
VERTEX
8
OBJECT__3
10
0
20
0
30
0
70
128
71
9
72
10
73
7
0
VERTEX
8
OBJECT__3
10
0
20
0
30
0
70
128
71
9
72
8
73
2
0
VERTEX
8
OBJECT__3
10
0
20
0
30
0
70
128
71
2
72
1
73
9
0
VERTEX
8
OBJECT__3
10
0
20
0
30
0
70
128
71
11
72
12
73
13
0
VERTEX
8
OBJECT__3
10
0
20
0
30
0
70
128
71
13
72
14
73
11
0
VERTEX
8
OBJECT__3
10
0
20
0
30
0
70
128
71
15
72
16
73
11
0
VERTEX
8
OBJECT__3
10
0
20
0
30
0
70
128
71
11
72
14
73
15
0
VERTEX
8
OBJECT__3
10
0
20
0
30
0
70
128
71
15
72
7
73
16
0
VERTEX
8
OBJECT__3
10
0
20
0
30
0
70
128
71
17
72
13
73
18
0
VERTEX
8
OBJECT__3
10
0
20
0
30
0
70
128
71
19
72
20
73
18
0
VERTEX
8
OBJECT__3
10
0
20
0
30
0
70
128
71
18
72
13
73
19
0
VERTEX
8
OBJECT__3
10
0
20
0
30
0
70
128
71
18
72
21
73
17
0
VERTEX
8
OBJECT__3
10
0
20
0
30
0
70
128
71
12
72
19
73
13
0
VERTEX
8
OBJECT__3
10
0
20
0
30
0
70
128
71
10
72
16
73
7
0
VERTEX
8
OBJECT__3
10
0
20
0
30
0
70
128
71
3
72
22
73
1
0
SEQEND
8
OBJECT__3
0
POLYLINE
8
OBJECT__4
66
1
70
64
71
20
72
18
62
253
0
VERTEX
8
OBJECT__4
10
34.575001
20
5.001000
30
22.348000
70
192
0
VERTEX
8
OBJECT__4
10
46.311001
20
2.613000
30
23.944000
70
192
0
VERTEX
8
OBJECT__4
10
48.868999
20
4.701000
30
22.636000
70
192
0
VERTEX
8
OBJECT__4
10
46.033001
20
1.493000
30
24.135000
70
192
0
VERTEX
8
OBJECT__4
10
45.659000
20
-0.009000
30
24.391001
70
192
0
VERTEX
8
OBJECT__4
10
30.424999
20
2.357000
30
23.913000
70
192
0
VERTEX
8
OBJECT__4
10
29.854000
20
1.648000
30
24.252001
70
192
0
VERTEX
8
OBJECT__4
10
31.961000
20
4.263000
30
23.002001
70
192
0
VERTEX
8
OBJECT__4
10
29.766001
20
-0.004000
30
24.313999
70
192
0
VERTEX
8
OBJECT__4
10
29.705999
20
-1.136000
30
24.356001
70
192
0
VERTEX
8
OBJECT__4
10
45.584999
20
-0.310000
30
24.441999
70
192
0
VERTEX
8
OBJECT__4
10
30.413000
20
-2.405000
30
23.896999
70
192
0
VERTEX
8
OBJECT__4
10
34.575001
20
-4.999000
30
22.348000
70
192
0
VERTEX
8
OBJECT__4
10
31.047001
20
-3.542000
30
23.486000
70
192
0
VERTEX
8
OBJECT__4
10
33.720001
20
-4.926000
30
22.422001
70
192
0
VERTEX
8
OBJECT__4
10
49.141998
20
-4.790000
30
22.552999
70
192
0
VERTEX
8
OBJECT__4
10
47.798000
20
-3.820000
30
23.200001
70
192
0
VERTEX
8
OBJECT__4
10
46.480000
20
-2.868000
30
23.834000
70
192
0
VERTEX
8
OBJECT__4
10
50.575001
20
-4.999000
30
22.348000
70
192
0
VERTEX
8
OBJECT__4
10
50.575001
20
5.001000
30
22.348000
70
192
0
VERTEX
8
OBJECT__4
10
0
20
0
30
0
70
128
71
1
72
2
73
3
0
VERTEX
8
OBJECT__4
10
0
20
0
30
0
70
128
71
4
72
2
73
1
0
VERTEX
8
OBJECT__4
10
0
20
0
30
0
70
128
71
5
72
6
73
7
0
VERTEX
8
OBJECT__4
10
0
20
0
30
0
70
128
71
5
72
4
73
8
0
VERTEX
8
OBJECT__4
10
0
20
0
30
0
70
128
71
8
72
6
73
5
0
VERTEX
8
OBJECT__4
10
0
20
0
30
0
70
128
71
7
72
9
73
5
0
VERTEX
8
OBJECT__4
10
0
20
0
30
0
70
128
71
1
72
8
73
4
0
VERTEX
8
OBJECT__4
10
0
20
0
30
0
70
128
71
9
72
10
73
11
0
VERTEX
8
OBJECT__4
10
0
20
0
30
0
70
128
71
11
72
12
73
13
0
VERTEX
8
OBJECT__4
10
0
20
0
30
0
70
128
71
12
72
14
73
15
0
VERTEX
8
OBJECT__4
10
0
20
0
30
0
70
128
71
15
72
13
73
12
0
VERTEX
8
OBJECT__4
10
0
20
0
30
0
70
128
71
11
72
10
73
12
0
VERTEX
8
OBJECT__4
10
0
20
0
30
0
70
128
71
13
72
16
73
17
0
VERTEX
8
OBJECT__4
10
0
20
0
30
0
70
128
71
17
72
18
73
13
0
VERTEX
8
OBJECT__4
10
0
20
0
30
0
70
128
71
13
72
19
73
16
0
VERTEX
8
OBJECT__4
10
0
20
0
30
0
70
128
71
13
72
18
73
11
0
VERTEX
8
OBJECT__4
10
0
20
0
30
0
70
128
71
11
72
5
73
9
0
VERTEX
8
OBJECT__4
10
0
20
0
30
0
70
128
71
3
72
20
73
1
0
SEQEND
8
OBJECT__4
0
POLYLINE
8
OBJECT__5
66
1
70
64
71
6
72
4
62
253
0
VERTEX
8
OBJECT__5
10
34.575001
20
5.001000
30
14.049000
70
192
0
VERTEX
8
OBJECT__5
10
50.575001
20
5.001000
30
21.985001
70
192
0
VERTEX
8
OBJECT__5
10
54.348000
20
5.001000
30
15.451000
70
192
0
VERTEX
8
OBJECT__5
10
34.575001
20
5.001000
30
22.348000
70
192
0
VERTEX
8
OBJECT__5
10
50.575001
20
5.001000
30
22.348000
70
192
0
VERTEX
8
OBJECT__5
10
54.348000
20
5.001000
30
14.049000
70
192
0
VERTEX
8
OBJECT__5
10
0
20
0
30
0
70
128
71
1
72
2
73
3
0
VERTEX
8
OBJECT__5
10
0
20
0
30
0
70
128
71
4
72
5
73
2
0
VERTEX
8
OBJECT__5
10
0
20
0
30
0
70
128
71
2
72
1
73
4
0
VERTEX
8
OBJECT__5
10
0
20
0
30
0
70
128
71
3
72
6
73
1
0
SEQEND
8
OBJECT__5
0
POLYLINE
8
OBJECT__6
66
1
70
64
71
6
72
4
62
253
0
VERTEX
8
OBJECT__6
10
34.575001
20
-4.999000
30
22.348000
70
192
0
VERTEX
8
OBJECT__6
10
34.575001
20
-4.999000
30
14.049000
70
192
0
VERTEX
8
OBJECT__6
10
50.575001
20
-4.999000
30
21.985001
70
192
0
VERTEX
8
OBJECT__6
10
54.348000
20
-4.999000
30
14.049000
70
192
0
VERTEX
8
OBJECT__6
10
54.348000
20
-4.999000
30
15.451000
70
192
0
VERTEX
8
OBJECT__6
10
50.575001
20
-4.999000
30
22.348000
70
192
0
VERTEX
8
OBJECT__6
10
0
20
0
30
0
70
128
71
1
72
2
73
3
0
VERTEX
8
OBJECT__6
10
0
20
0
30
0
70
128
71
2
72
4
73
5
0
VERTEX
8
OBJECT__6
10
0
20
0
30
0
70
128
71
5
72
3
73
2
0
VERTEX
8
OBJECT__6
10
0
20
0
30
0
70
128
71
3
72
6
73
1
0
SEQEND
8
OBJECT__6
0
POLYLINE
8
OBJECT__7
66
1
70
64
71
14
72
12
62
253
0
VERTEX
8
OBJECT__7
10
30.245001
20
-2.499000
30
14.049000
70
192
0
VERTEX
8
OBJECT__7
10
33.720001
20
-4.926000
30
22.422001
70
192
0
VERTEX
8
OBJECT__7
10
31.047001
20
-3.542000
30
23.486000
70
192
0
VERTEX
8
OBJECT__7
10
34.575001
20
-4.999000
30
14.049000
70
192
0
VERTEX
8
OBJECT__7
10
34.575001
20
-4.999000
30
22.348000
70
192
0
VERTEX
8
OBJECT__7
10
29.854000
20
1.648000
30
24.252001
70
192
0
VERTEX
8
OBJECT__7
10
30.424999
20
2.357000
30
23.913000
70
192
0
VERTEX
8
OBJECT__7
10
29.766001
20
-0.004000
30
24.313999
70
192
0
VERTEX
8
OBJECT__7
10
30.413000
20
-2.405000
30
23.896999
70
192
0
VERTEX
8
OBJECT__7
10
29.705999
20
-1.136000
30
24.356001
70
192
0
VERTEX
8
OBJECT__7
10
30.245001
20
2.501000
30
14.049000
70
192
0
VERTEX
8
OBJECT__7
10
31.961000
20
4.263000
30
23.002001
70
192
0
VERTEX
8
OBJECT__7
10
34.575001
20
5.001000
30
22.348000
70
192
0
VERTEX
8
OBJECT__7
10
34.575001
20
5.001000
30
14.049000
70
192
0
VERTEX
8
OBJECT__7
10
0
20
0
30
0
70
128
71
1
72
2
73
3
0
VERTEX
8
OBJECT__7
10
0
20
0
30
0
70
128
71
4
72
5
73
2
0
VERTEX
8
OBJECT__7
10
0
20
0
30
0
70
128
71
2
72
1
73
4
0
VERTEX
8
OBJECT__7
10
0
20
0
30
0
70
128
71
1
72
6
73
7
0
VERTEX
8
OBJECT__7
10
0
20
0
30
0
70
128
71
1
72
8
73
6
0
VERTEX
8
OBJECT__7
10
0
20
0
30
0
70
128
71
1
72
9
73
10
0
VERTEX
8
OBJECT__7
10
0
20
0
30
0
70
128
71
10
72
8
73
1
0
VERTEX
8
OBJECT__7
10
0
20
0
30
0
70
128
71
11
72
12
73
13
0
VERTEX
8
OBJECT__7
10
0
20
0
30
0
70
128
71
11
72
7
73
12
0
VERTEX
8
OBJECT__7
10
0
20
0
30
0
70
128
71
13
72
14
73
11
0
VERTEX
8
OBJECT__7
10
0
20
0
30
0
70
128
71
7
72
11
73
1
0
VERTEX
8
OBJECT__7
10
0
20
0
30
0
70
128
71
3
72
9
73
1
0
SEQEND
8
OBJECT__7
0
POLYLINE
8
OBJECT__8
66
1
70
64
71
30
72
28
62
253
0
VERTEX
8
OBJECT__8
10
2.256000
20
-98.916000
30
48.396000
70
192
0
VERTEX
8
OBJECT__8
10
2.256000
20
-94.593002
30
7.265000
70
192
0
VERTEX
8
OBJECT__8
10
2.256000
20
-86.135002
30
-11.730000
70
192
0
VERTEX
8
OBJECT__8
10
2.256000
20
0.000000
30
137.460999
70
192
0
VERTEX
8
OBJECT__8
10
2.256000
20
86.135002
30
87.730003
70
192
0
VERTEX
8
OBJECT__8
10
2.256000
20
73.914001
30
104.552002
70
192
0
VERTEX
8
OBJECT__8
10
2.256000
20
-58.460999
30
-42.465000
70
192
0
VERTEX
8
OBJECT__8
10
2.256000
20
-40.453999
30
-52.862000
70
192
0
VERTEX
8
OBJECT__8
10
2.256000
20
-98.916000
30
27.604000
70
192
0
VERTEX
8
OBJECT__8
10
2.256000
20
58.460999
30
118.464996
70
192
0
VERTEX
8
OBJECT__8
10
2.256000
20
40.453999
30
128.862000
70
192
0
VERTEX
8
OBJECT__8
10
2.256000
20
94.593002
30
68.735001
70
192
0
VERTEX
8
OBJECT__8
10
2.256000
20
98.916000
30
27.604000
70
192
0
VERTEX
8
OBJECT__8
10
2.256000
20
98.916000
30
48.396000
70
192
0
VERTEX
8
OBJECT__8
10
2.256000
20
86.135002
30
-11.730000
70
192
0
VERTEX
8
OBJECT__8
10
2.256000
20
94.593002
30
7.265000
70
192
0
VERTEX
8
OBJECT__8
10
2.256000
20
0.000000
30
-61.460999
70
192
0
VERTEX
8
OBJECT__8
10
2.256000
20
20.679001
30
-59.286999
70
192
0
VERTEX
8
OBJECT__8
10
2.256000
20
-20.679001
30
-59.286999
70
192
0
VERTEX
8
OBJECT__8
10
2.256000
20
-73.914001
30
-28.552000
70
192
0
VERTEX
8
OBJECT__8
10
2.256000
20
-86.135002
30
87.730003
70
192
0
VERTEX
8
OBJECT__8
10
2.256000
20
-94.593002
30
68.735001
70
192
0
VERTEX
8
OBJECT__8
10
2.256000
20
58.460999
30
-42.465000
70
192
0
VERTEX
8
OBJECT__8
10
2.256000
20
73.914001
30
-28.552000
70
192
0
VERTEX
8
OBJECT__8
10
2.256000
20
40.453999
30
-52.862000
70
192
0
VERTEX
8
OBJECT__8
10
2.256000
20
-73.914001
30
104.552002
70
192
0
VERTEX
8
OBJECT__8
10
2.256000
20
-40.453999
30
128.862000
70
192
0
VERTEX
8
OBJECT__8
10
2.256000
20
-58.460999
30
118.464996
70
192
0
VERTEX
8
OBJECT__8
10
2.256000
20
-20.679001
30
135.287003
70
192
0
VERTEX
8
OBJECT__8
10
2.256000
20
20.679001
30
135.287003
70
192
0
VERTEX
8
OBJECT__8
10
0
20
0
30
0
70
128
71
1
72
2
73
3
0
VERTEX
8
OBJECT__8
10
0
20
0
30
0
70
128
71
4
72
5
73
6
0
VERTEX
8
OBJECT__8
10
0
20
0
30
0
70
128
71
1
72
7
73
8
0
VERTEX
8
OBJECT__8
10
0
20
0
30
0
70
128
71
1
72
9
73
2
0
VERTEX
8
OBJECT__8
10
0
20
0
30
0
70
128
71
4
72
10
73
11
0
VERTEX
8
OBJECT__8
10
0
20
0
30
0
70
128
71
4
72
12
73
5
0
VERTEX
8
OBJECT__8
10
0
20
0
30
0
70
128
71
4
72
13
73
14
0
VERTEX
8
OBJECT__8
10
0
20
0
30
0
70
128
71
4
72
15
73
16
0
VERTEX
8
OBJECT__8
10
0
20
0
30
0
70
128
71
4
72
17
73
18
0
VERTEX
8
OBJECT__8
10
0
20
0
30
0
70
128
71
8
72
19
73
1
0
VERTEX
8
OBJECT__8
10
0
20
0
30
0
70
128
71
3
72
20
73
1
0
VERTEX
8
OBJECT__8
10
0
20
0
30
0
70
128
71
17
72
21
73
22
0
VERTEX
8
OBJECT__8
10
0
20
0
30
0
70
128
71
6
72
10
73
4
0
VERTEX
8
OBJECT__8
10
0
20
0
30
0
70
128
71
16
72
13
73
4
0
VERTEX
8
OBJECT__8
10
0
20
0
30
0
70
128
71
4
72
23
73
24
0
VERTEX
8
OBJECT__8
10
0
20
0
30
0
70
128
71
18
72
25
73
4
0
VERTEX
8
OBJECT__8
10
0
20
0
30
0
70
128
71
20
72
7
73
1
0
VERTEX
8
OBJECT__8
10
0
20
0
30
0
70
128
71
17
72
26
73
21
0
VERTEX
8
OBJECT__8
10
0
20
0
30
0
70
128
71
17
72
27
73
28
0
VERTEX
8
OBJECT__8
10
0
20
0
30
0
70
128
71
17
72
4
73
29
0
VERTEX
8
OBJECT__8
10
0
20
0
30
0
70
128
71
14
72
12
73
4
0
VERTEX
8
OBJECT__8
10
0
20
0
30
0
70
128
71
25
72
23
73
4
0
VERTEX
8
OBJECT__8
10
0
20
0
30
0
70
128
71
22
72
1
73
17
0
VERTEX
8
OBJECT__8
10
0
20
0
30
0
70
128
71
29
72
27
73
17
0
VERTEX
8
OBJECT__8
10
0
20
0
30
0
70
128
71
24
72
15
73
4
0
VERTEX
8
OBJECT__8
10
0
20
0
30
0
70
128
71
28
72
26
73
17
0
VERTEX
8
OBJECT__8
10
0
20
0
30
0
70
128
71
19
72
17
73
1
0
VERTEX
8
OBJECT__8
10
0
20
0
30
0
70
128
71
11
72
30
73
4
0
SEQEND
8
OBJECT__8
0
POLYLINE
8
OBJECT__9
66
1
70
64
71
26
72
26
62
253
0
VERTEX
8
OBJECT__9
10
16.000000
20
-23.686001
30
72.569000
70
192
0
VERTEX
8
OBJECT__9
10
13.000000
20
-23.686001
30
72.569000
70
192
0
VERTEX
8
OBJECT__9
10
13.000000
20
-26.750000
30
85.000000
70
192
0
VERTEX
8
OBJECT__9
10
16.000000
20
-15.196000
30
62.985001
70
192
0
VERTEX
8
OBJECT__9
10
13.000000
20
-15.196000
30
62.985001
70
192
0
VERTEX
8
OBJECT__9
10
13.000000
20
-3.224000
30
58.445000
70
192
0
VERTEX
8
OBJECT__9
10
13.000000
20
9.486000
30
59.987999
70
192
0
VERTEX
8
OBJECT__9
10
16.000000
20
-3.224000
30
58.445000
70
192
0
VERTEX
8
OBJECT__9
10
13.000000
20
20.023001
30
67.261002
70
192
0
VERTEX
8
OBJECT__9
10
16.000000
20
9.486000
30
59.987999
70
192
0
VERTEX
8
OBJECT__9
10
13.000000
20
25.973000
30
78.598000
70
192
0
VERTEX
8
OBJECT__9
10
16.000000
20
20.023001
30
67.261002
70
192
0
VERTEX
8
OBJECT__9
10
13.000000
20
25.973000
30
91.402000
70
192
0
VERTEX
8
OBJECT__9
10
16.000000
20
25.973000
30
78.598000
70
192
0
VERTEX
8
OBJECT__9
10
16.000000
20
20.023001
30
102.738998
70
192
0
VERTEX
8
OBJECT__9
10
13.000000
20
20.023001
30
102.738998
70
192
0
VERTEX
8
OBJECT__9
10
16.000000
20
9.486000
30
110.012001
70
192
0
VERTEX
8
OBJECT__9
10
13.000000
20
9.486000
30
110.012001
70
192
0
VERTEX
8
OBJECT__9
10
16.000000
20
-3.224000
30
111.555000
70
192
0
VERTEX
8
OBJECT__9
10
13.000000
20
-3.224000
30
111.555000
70
192
0
VERTEX
8
OBJECT__9
10
16.000000
20
-15.196000
30
107.014999
70
192
0
VERTEX
8
OBJECT__9
10
13.000000
20
-15.196000
30
107.014999
70
192
0
VERTEX
8
OBJECT__9
10
16.000000
20
-23.686001
30
97.431000
70
192
0
VERTEX
8
OBJECT__9
10
13.000000
20
-23.686001
30
97.431000
70
192
0
VERTEX
8
OBJECT__9
10
16.000000
20
-26.750000
30
85.000000
70
192
0
VERTEX
8
OBJECT__9
10
16.000000
20
25.973000
30
91.402000
70
192
0
VERTEX
8
OBJECT__9
10
0
20
0
30
0
70
128
71
1
72
2
73
3
0
VERTEX
8
OBJECT__9
10
0
20
0
30
0
70
128
71
4
72
5
73
2
0
VERTEX
8
OBJECT__9
10
0
20
0
30
0
70
128
71
6
72
5
73
4
0
VERTEX
8
OBJECT__9
10
0
20
0
30
0
70
128
71
7
72
6
73
8
0
VERTEX
8
OBJECT__9
10
0
20
0
30
0
70
128
71
9
72
7
73
10
0
VERTEX
8
OBJECT__9
10
0
20
0
30
0
70
128
71
11
72
9
73
12
0
VERTEX
8
OBJECT__9
10
0
20
0
30
0
70
128
71
13
72
11
73
14
0
VERTEX
8
OBJECT__9
10
0
20
0
30
0
70
128
71
15
72
16
73
13
0
VERTEX
8
OBJECT__9
10
0
20
0
30
0
70
128
71
17
72
18
73
16
0
VERTEX
8
OBJECT__9
10
0
20
0
30
0
70
128
71
19
72
20
73
18
0
VERTEX
8
OBJECT__9
10
0
20
0
30
0
70
128
71
21
72
22
73
20
0
VERTEX
8
OBJECT__9
10
0
20
0
30
0
70
128
71
23
72
24
73
22
0
VERTEX
8
OBJECT__9
10
0
20
0
30
0
70
128
71
25
72
3
73
24
0
VERTEX
8
OBJECT__9
10
0
20
0
30
0
70
128
71
24
72
23
73
25
0
VERTEX
8
OBJECT__9
10
0
20
0
30
0
70
128
71
22
72
21
73
23
0
VERTEX
8
OBJECT__9
10
0
20
0
30
0
70
128
71
20
72
19
73
21
0
VERTEX
8
OBJECT__9
10
0
20
0
30
0
70
128
71
18
72
17
73
19
0
VERTEX
8
OBJECT__9
10
0
20
0
30
0
70
128
71
16
72
15
73
17
0
VERTEX
8
OBJECT__9
10
0
20
0
30
0
70
128
71
13
72
26
73
15
0
VERTEX
8
OBJECT__9
10
0
20
0
30
0
70
128
71
14
72
26
73
13
0
VERTEX
8
OBJECT__9
10
0
20
0
30
0
70
128
71
12
72
14
73
11
0
VERTEX
8
OBJECT__9
10
0
20
0
30
0
70
128
71
10
72
12
73
9
0
VERTEX
8
OBJECT__9
10
0
20
0
30
0
70
128
71
8
72
10
73
7
0
VERTEX
8
OBJECT__9
10
0
20
0
30
0
70
128
71
4
72
8
73
6
0
VERTEX
8
OBJECT__9
10
0
20
0
30
0
70
128
71
2
72
1
73
4
0
VERTEX
8
OBJECT__9
10
0
20
0
30
0
70
128
71
3
72
25
73
1
0
SEQEND
8
OBJECT__9
0
POLYLINE
8
OBJECT__11
66
1
70
64
71
66
72
72
62
253
0
VERTEX
8
OBJECT__11
10
16.000000
20
-1.000000
30
116.000000
70
192
0
VERTEX
8
OBJECT__11
10
16.000000
20
-63.918999
30
101.918999
70
192
0
VERTEX
8
OBJECT__11
10
16.000000
20
-15.196000
30
107.014999
70
192
0
VERTEX
8
OBJECT__11
10
16.000000
20
-23.686001
30
97.431000
70
192
0
VERTEX
8
OBJECT__11
10
16.000000
20
-26.750000
30
85.000000
70
192
0
VERTEX
8
OBJECT__11
10
16.000000
20
-1.000000
30
31.000000
70
192
0
VERTEX
8
OBJECT__11
10
16.000000
20
-87.315002
30
14.604000
70
192
0
VERTEX
8
OBJECT__11
10
16.000000
20
-15.196000
30
22.014999
70
192
0
VERTEX
8
OBJECT__11
10
16.000000
20
-45.198002
30
-40.285000
70
192
0
VERTEX
8
OBJECT__11
10
16.000000
20
-23.396000
30
-49.314999
70
192
0
VERTEX
8
OBJECT__11
10
16.000000
20
-15.196000
30
-22.014999
70
192
0
VERTEX
8
OBJECT__11
10
16.000000
20
63.918999
30
-25.919001
70
192
0
VERTEX
8
OBJECT__11
10
16.000000
20
25.973000
30
-6.402000
70
192
0
VERTEX
8
OBJECT__11
10
16.000000
20
20.023001
30
-17.739000
70
192
0
VERTEX
8
OBJECT__11
10
16.000000
20
-78.285004
30
83.197998
70
192
0
VERTEX
8
OBJECT__11
10
16.000000
20
-23.686001
30
72.569000
70
192
0
VERTEX
8
OBJECT__11
10
16.000000
20
-87.315002
30
61.396000
70
192
0
VERTEX
8
OBJECT__11
10
16.000000
20
-1.000000
30
36.500000
70
192
0
VERTEX
8
OBJECT__11
10
16.000000
20
-0.495000
30
37.368999
70
192
0
VERTEX
8
OBJECT__11
10
16.000000
20
-23.686001
30
12.431000
70
192
0
VERTEX
8
OBJECT__11
10
16.000000
20
-78.285004
30
-7.198000
70
192
0
VERTEX
8
OBJECT__11
10
16.000000
20
-26.750000
30
0.000000
70
192
0
VERTEX
8
OBJECT__11
10
16.000000
20
-63.918999
30
-25.919001
70
192
0
VERTEX
8
OBJECT__11
10
16.000000
20
-23.686001
30
-12.431000
70
192
0
VERTEX
8
OBJECT__11
10
16.000000
20
0.000000
30
-52.395000
70
192
0
VERTEX
8
OBJECT__11
10
16.000000
20
-3.224000
30
-26.555000
70
192
0
VERTEX
8
OBJECT__11
10
16.000000
20
23.396000
30
-49.314999
70
192
0
VERTEX
8
OBJECT__11
10
16.000000
20
9.486000
30
-25.011999
70
192
0
VERTEX
8
OBJECT__11
10
16.000000
20
45.198002
30
-40.285000
70
192
0
VERTEX
8
OBJECT__11
10
16.000000
20
-1.000000
30
121.500000
70
192
0
VERTEX
8
OBJECT__11
10
16.000000
20
-23.396000
30
125.315002
70
192
0
VERTEX
8
OBJECT__11
10
16.000000
20
-15.196000
30
62.985001
70
192
0
VERTEX
8
OBJECT__11
10
16.000000
20
78.285004
30
-7.198000
70
192
0
VERTEX
8
OBJECT__11
10
16.000000
20
-45.198002
30
116.285004
70
192
0
VERTEX
8
OBJECT__11
10
16.000000
20
-90.394997
30
38.000000
70
192
0
VERTEX
8
OBJECT__11
10
16.000000
20
-0.495000
30
122.369003
70
192
0
VERTEX
8
OBJECT__11
10
16.000000
20
-0.505000
30
115.137001
70
192
0
VERTEX
8
OBJECT__11
10
16.000000
20
20.023001
30
17.739000
70
192
0
VERTEX
8
OBJECT__11
10
16.000000
20
25.973000
30
6.402000
70
192
0
VERTEX
8
OBJECT__11
10
16.000000
20
0.505000
30
30.136999
70
192
0
VERTEX
8
OBJECT__11
10
16.000000
20
9.486000
30
25.011999
70
192
0
VERTEX
8
OBJECT__11
10
16.000000
20
25.973000
30
78.598000
70
192
0
VERTEX
8
OBJECT__11
10
16.000000
20
78.285004
30
83.197998
70
192
0
VERTEX
8
OBJECT__11
10
16.000000
20
63.918999
30
101.918999
70
192
0
VERTEX
8
OBJECT__11
10
16.000000
20
-0.505000
30
30.136999
70
192
0
VERTEX
8
OBJECT__11
10
16.000000
20
-3.224000
30
26.555000
70
192
0
VERTEX
8
OBJECT__11
10
16.000000
20
87.315002
30
61.396000
70
192
0
VERTEX
8
OBJECT__11
10
16.000000
20
1.000000
30
116.000000
70
192
0
VERTEX
8
OBJECT__11
10
16.000000
20
0.505000
30
115.137001
70
192
0
VERTEX
8
OBJECT__11
10
16.000000
20
9.486000
30
110.012001
70
192
0
VERTEX
8
OBJECT__11
10
16.000000
20
45.198002
30
116.285004
70
192
0
VERTEX
8
OBJECT__11
10
16.000000
20
23.396000
30
125.315002
70
192
0
VERTEX
8
OBJECT__11
10
16.000000
20
87.315002
30
14.604000
70
192
0
VERTEX
8
OBJECT__11
10
16.000000
20
1.000000
30
31.000000
70
192
0
VERTEX
8
OBJECT__11
10
16.000000
20
-3.224000
30
111.555000
70
192
0
VERTEX
8
OBJECT__11
10
16.000000
20
20.023001
30
102.738998
70
192
0
VERTEX
8
OBJECT__11
10
16.000000
20
25.973000
30
91.402000
70
192
0
VERTEX
8
OBJECT__11
10
16.000000
20
90.394997
30
38.000000
70
192
0
VERTEX
8
OBJECT__11
10
16.000000
20
1.000000
30
36.500000
70
192
0
VERTEX
8
OBJECT__11
10
16.000000
20
20.023001
30
67.261002
70
192
0
VERTEX
8
OBJECT__11
10
16.000000
20
-3.224000
30
58.445000
70
192
0
VERTEX
8
OBJECT__11
10
16.000000
20
0.511000
30
37.360001
70
192
0
VERTEX
8
OBJECT__11
10
16.000000
20
0.000000
30
128.395004
70
192
0
VERTEX
8
OBJECT__11
10
16.000000
20
0.511000
30
122.360001
70
192
0
VERTEX
8
OBJECT__11
10
16.000000
20
9.486000
30
59.987999
70
192
0
VERTEX
8
OBJECT__11
10
16.000000
20
1.000000
30
121.500000
70
192
0
VERTEX
8
OBJECT__11
10
0
20
0
30
0
70
128
71
1
72
2
73
3
0
VERTEX
8
OBJECT__11
10
0
20
0
30
0
70
128
71
2
72
4
73
3
0
VERTEX
8
OBJECT__11
10
0
20
0
30
0
70
128
71
5
72
4
73
2
0
VERTEX
8
OBJECT__11
10
0
20
0
30
0
70
128
71
6
72
7
73
8
0
VERTEX
8
OBJECT__11
10
0
20
0
30
0
70
128
71
9
72
10
73
11
0
VERTEX
8
OBJECT__11
10
0
20
0
30
0
70
128
71
12
72
13
73
14
0
VERTEX
8
OBJECT__11
10
0
20
0
30
0
70
128
71
2
72
15
73
5
0
VERTEX
8
OBJECT__11
10
0
20
0
30
0
70
128
71
16
72
5
73
15
0
VERTEX
8
OBJECT__11
10
0
20
0
30
0
70
128
71
17
72
18
73
19
0
VERTEX
8
OBJECT__11
10
0
20
0
30
0
70
128
71
7
72
20
73
8
0
VERTEX
8
OBJECT__11
10
0
20
0
30
0
70
128
71
7
72
21
73
22
0
VERTEX
8
OBJECT__11
10
0
20
0
30
0
70
128
71
22
72
21
73
23
0
VERTEX
8
OBJECT__11
10
0
20
0
30
0
70
128
71
24
72
23
73
9
0
VERTEX
8
OBJECT__11
10
0
20
0
30
0
70
128
71
10
72
25
73
26
0
VERTEX
8
OBJECT__11
10
0
20
0
30
0
70
128
71
25
72
27
73
28
0
VERTEX
8
OBJECT__11
10
0
20
0
30
0
70
128
71
27
72
29
73
14
0
VERTEX
8
OBJECT__11
10
0
20
0
30
0
70
128
71
14
72
29
73
12
0
VERTEX
8
OBJECT__11
10
0
20
0
30
0
70
128
71
1
72
30
73
31
0
VERTEX
8
OBJECT__11
10
0
20
0
30
0
70
128
71
15
72
17
73
16
0
VERTEX
8
OBJECT__11
10
0
20
0
30
0
70
128
71
19
72
32
73
17
0
VERTEX
8
OBJECT__11
10
0
20
0
30
0
70
128
71
22
72
20
73
7
0
VERTEX
8
OBJECT__11
10
0
20
0
30
0
70
128
71
11
72
24
73
9
0
VERTEX
8
OBJECT__11
10
0
20
0
30
0
70
128
71
28
72
26
73
25
0
VERTEX
8
OBJECT__11
10
0
20
0
30
0
70
128
71
12
72
33
73
13
0
VERTEX
8
OBJECT__11
10
0
20
0
30
0
70
128
71
31
72
34
73
1
0
VERTEX
8
OBJECT__11
10
0
20
0
30
0
70
128
71
32
72
16
73
17
0
VERTEX
8
OBJECT__11
10
0
20
0
30
0
70
128
71
35
72
7
73
6
0
VERTEX
8
OBJECT__11
10
0
20
0
30
0
70
128
71
23
72
24
73
22
0
VERTEX
8
OBJECT__11
10
0
20
0
30
0
70
128
71
14
72
28
73
27
0
VERTEX
8
OBJECT__11
10
0
20
0
30
0
70
128
71
31
72
30
73
36
0
VERTEX
8
OBJECT__11
10
0
20
0
30
0
70
128
71
3
72
37
73
1
0
VERTEX
8
OBJECT__11
10
0
20
0
30
0
70
128
71
18
72
17
73
35
0
VERTEX
8
OBJECT__11
10
0
20
0
30
0
70
128
71
26
72
11
73
10
0
VERTEX
8
OBJECT__11
10
0
20
0
30
0
70
128
71
33
72
38
73
39
0
VERTEX
8
OBJECT__11
10
0
20
0
30
0
70
128
71
33
72
40
73
41
0
VERTEX
8
OBJECT__11
10
0
20
0
30
0
70
128
71
42
72
43
73
44
0
VERTEX
8
OBJECT__11
10
0
20
0
30
0
70
128
71
34
72
2
73
1
0
VERTEX
8
OBJECT__11
10
0
20
0
30
0
70
128
71
8
72
45
73
6
0
VERTEX
8
OBJECT__11
10
0
20
0
30
0
70
128
71
41
72
38
73
33
0
VERTEX
8
OBJECT__11
10
0
20
0
30
0
70
128
71
40
72
8
73
46
0
VERTEX
8
OBJECT__11
10
0
20
0
30
0
70
128
71
42
72
47
73
43
0
VERTEX
8
OBJECT__11
10
0
20
0
30
0
70
128
71
48
72
49
73
50
0
VERTEX
8
OBJECT__11
10
0
20
0
30
0
70
128
71
48
72
51
73
52
0
VERTEX
8
OBJECT__11
10
0
20
0
30
0
70
128
71
6
72
18
73
35
0
VERTEX
8
OBJECT__11
10
0
20
0
30
0
70
128
71
46
72
41
73
40
0
VERTEX
8
OBJECT__11
10
0
20
0
30
0
70
128
71
33
72
53
73
54
0
VERTEX
8
OBJECT__11
10
0
20
0
30
0
70
128
71
55
72
50
73
49
0
VERTEX
8
OBJECT__11
10
0
20
0
30
0
70
128
71
44
72
56
73
57
0
VERTEX
8
OBJECT__11
10
0
20
0
30
0
70
128
71
50
72
44
73
48
0
VERTEX
8
OBJECT__11
10
0
20
0
30
0
70
128
71
58
72
59
73
54
0
VERTEX
8
OBJECT__11
10
0
20
0
30
0
70
128
71
59
72
47
73
60
0
VERTEX
8
OBJECT__11
10
0
20
0
30
0
70
128
71
61
72
19
73
62
0
VERTEX
8
OBJECT__11
10
0
20
0
30
0
70
128
71
48
72
44
73
51
0
VERTEX
8
OBJECT__11
10
0
20
0
30
0
70
128
71
52
72
63
73
64
0
VERTEX
8
OBJECT__11
10
0
20
0
30
0
70
128
71
8
72
40
73
45
0
VERTEX
8
OBJECT__11
10
0
20
0
30
0
70
128
71
54
72
40
73
33
0
VERTEX
8
OBJECT__11
10
0
20
0
30
0
70
128
71
37
72
3
73
55
0
VERTEX
8
OBJECT__11
10
0
20
0
30
0
70
128
71
50
72
56
73
44
0
VERTEX
8
OBJECT__11
10
0
20
0
30
0
70
128
71
54
72
53
73
58
0
VERTEX
8
OBJECT__11
10
0
20
0
30
0
70
128
71
47
72
42
73
60
0
VERTEX
8
OBJECT__11
10
0
20
0
30
0
70
128
71
62
72
65
73
61
0
VERTEX
8
OBJECT__11
10
0
20
0
30
0
70
128
71
64
72
66
73
52
0
VERTEX
8
OBJECT__11
10
0
20
0
30
0
70
128
71
39
72
13
73
33
0
VERTEX
8
OBJECT__11
10
0
20
0
30
0
70
128
71
44
72
57
73
42
0
VERTEX
8
OBJECT__11
10
0
20
0
30
0
70
128
71
60
72
62
73
59
0
VERTEX
8
OBJECT__11
10
0
20
0
30
0
70
128
71
62
72
60
73
65
0
VERTEX
8
OBJECT__11
10
0
20
0
30
0
70
128
71
63
72
36
73
64
0
VERTEX
8
OBJECT__11
10
0
20
0
30
0
70
128
71
49
72
37
73
55
0
VERTEX
8
OBJECT__11
10
0
20
0
30
0
70
128
71
61
72
32
73
19
0
VERTEX
8
OBJECT__11
10
0
20
0
30
0
70
128
71
36
72
63
73
31
0
VERTEX
8
OBJECT__11
10
0
20
0
30
0
70
128
71
52
72
66
73
48
0
VERTEX
8
OBJECT__11
10
0
20
0
30
0
70
128
71
58
72
47
73
59
0
SEQEND
8
OBJECT__11
0
POLYLINE
8
OBJECT__12
66
1
70
64
71
14
72
12
62
253
0
VERTEX
8
OBJECT__12
10
16.669001
20
0.331000
30
37.168999
70
192
0
VERTEX
8
OBJECT__12
10
16.677999
20
0.322000
30
30.322001
70
192
0
VERTEX
8
OBJECT__12
10
16.673000
20
0.327000
30
30.327000
70
192
0
VERTEX
8
OBJECT__12
10
16.000000
20
1.000000
30
36.500000
70
192
0
VERTEX
8
OBJECT__12
10
16.677999
20
0.322000
30
37.178001
70
192
0
VERTEX
8
OBJECT__12
10
16.000000
20
1.000000
30
31.000000
70
192
0
VERTEX
8
OBJECT__12
10
16.677999
20
-0.322000
30
37.178001
70
192
0
VERTEX
8
OBJECT__12
10
16.677999
20
-0.322000
30
30.322001
70
192
0
VERTEX
8
OBJECT__12
10
16.681999
20
-0.318000
30
37.181999
70
192
0
VERTEX
8
OBJECT__12
10
17.000000
20
0.000000
30
37.500000
70
192
0
VERTEX
8
OBJECT__12
10
16.000000
20
-1.000000
30
36.500000
70
192
0
VERTEX
8
OBJECT__12
10
16.000000
20
-1.000000
30
31.000000
70
192
0
VERTEX
8
OBJECT__12
10
16.673000
20
-0.327000
30
30.327000
70
192
0
VERTEX
8
OBJECT__12
10
17.000000
20
0.000000
30
30.000000
70
192
0
VERTEX
8
OBJECT__12
10
0
20
0
30
0
70
128
71
1
72
2
73
3
0
VERTEX
8
OBJECT__12
10
0
20
0
30
0
70
128
71
3
72
4
73
1
0
VERTEX
8
OBJECT__12
10
0
20
0
30
0
70
128
71
1
72
5
73
2
0
VERTEX
8
OBJECT__12
10
0
20
0
30
0
70
128
71
3
72
6
73
4
0
VERTEX
8
OBJECT__12
10
0
20
0
30
0
70
128
71
2
72
7
73
8
0
VERTEX
8
OBJECT__12
10
0
20
0
30
0
70
128
71
2
72
9
73
7
0
VERTEX
8
OBJECT__12
10
0
20
0
30
0
70
128
71
5
72
10
73
9
0
VERTEX
8
OBJECT__12
10
0
20
0
30
0
70
128
71
9
72
2
73
5
0
VERTEX
8
OBJECT__12
10
0
20
0
30
0
70
128
71
7
72
11
73
12
0
VERTEX
8
OBJECT__12
10
0
20
0
30
0
70
128
71
12
72
13
73
7
0
VERTEX
8
OBJECT__12
10
0
20
0
30
0
70
128
71
13
72
8
73
7
0
VERTEX
8
OBJECT__12
10
0
20
0
30
0
70
128
71
8
72
14
73
2
0
SEQEND
8
OBJECT__12
0
POLYLINE
8
OBJECT__13
66
1
70
64
71
10
72
8
62
253
0
VERTEX
8
OBJECT__13
10
16.681999
20
-0.318000
30
122.181999
70
192
0
VERTEX
8
OBJECT__13
10
16.000000
20
-1.000000
30
121.500000
70
192
0
VERTEX
8
OBJECT__13
10
16.000000
20
-1.000000
30
116.000000
70
192
0
VERTEX
8
OBJECT__13
10
16.673000
20
-0.327000
30
115.327003
70
192
0
VERTEX
8
OBJECT__13
10
17.000000
20
0.000000
30
115.000000
70
192
0
VERTEX
8
OBJECT__13
10
17.000000
20
0.000000
30
122.500000
70
192
0
VERTEX
8
OBJECT__13
10
16.669001
20
0.331000
30
122.168999
70
192
0
VERTEX
8
OBJECT__13
10
16.673000
20
0.327000
30
115.327003
70
192
0
VERTEX
8
OBJECT__13
10
16.000000
20
1.000000
30
116.000000
70
192
0
VERTEX
8
OBJECT__13
10
16.000000
20
1.000000
30
121.500000
70
192
0
VERTEX
8
OBJECT__13
10
0
20
0
30
0
70
128
71
1
72
2
73
3
0
VERTEX
8
OBJECT__13
10
0
20
0
30
0
70
128
71
3
72
4
73
1
0
VERTEX
8
OBJECT__13
10
0
20
0
30
0
70
128
71
5
72
6
73
1
0
VERTEX
8
OBJECT__13
10
0
20
0
30
0
70
128
71
7
72
8
73
9
0
VERTEX
8
OBJECT__13
10
0
20
0
30
0
70
128
71
7
72
5
73
8
0
VERTEX
8
OBJECT__13
10
0
20
0
30
0
70
128
71
9
72
10
73
7
0
VERTEX
8
OBJECT__13
10
0
20
0
30
0
70
128
71
7
72
6
73
5
0
VERTEX
8
OBJECT__13
10
0
20
0
30
0
70
128
71
4
72
5
73
1
0
SEQEND
8
OBJECT__13
0
POLYLINE
8
OBJECT__14
66
1
70
64
71
7
72
5
62
253
0
VERTEX
8
OBJECT__14
10
16.681999
20
-0.318000
30
122.181999
70
192
0
VERTEX
8
OBJECT__14
10
17.000000
20
0.000000
30
122.500000
70
192
0
VERTEX
8
OBJECT__14
10
16.669001
20
0.331000
30
122.168999
70
192
0
VERTEX
8
OBJECT__14
10
16.000000
20
0.511000
30
122.360001
70
192
0
VERTEX
8
OBJECT__14
10
16.000000
20
-0.495000
30
122.369003
70
192
0
VERTEX
8
OBJECT__14
10
16.000000
20
1.000000
30
121.500000
70
192
0
VERTEX
8
OBJECT__14
10
16.000000
20
-1.000000
30
121.500000
70
192
0
VERTEX
8
OBJECT__14
10
0
20
0
30
0
70
128
71
1
72
2
73
3
0
VERTEX
8
OBJECT__14
10
0
20
0
30
0
70
128
71
4
72
5
73
1
0
VERTEX
8
OBJECT__14
10
0
20
0
30
0
70
128
71
6
72
4
73
3
0
VERTEX
8
OBJECT__14
10
0
20
0
30
0
70
128
71
3
72
4
73
1
0
VERTEX
8
OBJECT__14
10
0
20
0
30
0
70
128
71
1
72
5
73
7
0
SEQEND
8
OBJECT__14
0
POLYLINE
8
OBJECT__15
66
1
70
64
71
7
72
5
62
253
0
VERTEX
8
OBJECT__15
10
16.673000
20
0.327000
30
115.327003
70
192
0
VERTEX
8
OBJECT__15
10
17.000000
20
0.000000
30
115.000000
70
192
0
VERTEX
8
OBJECT__15
10
16.673000
20
-0.327000
30
115.327003
70
192
0
VERTEX
8
OBJECT__15
10
16.000000
20
-0.505000
30
115.137001
70
192
0
VERTEX
8
OBJECT__15
10
16.000000
20
0.505000
30
115.137001
70
192
0
VERTEX
8
OBJECT__15
10
16.000000
20
-1.000000
30
116.000000
70
192
0
VERTEX
8
OBJECT__15
10
16.000000
20
1.000000
30
116.000000
70
192
0
VERTEX
8
OBJECT__15
10
0
20
0
30
0
70
128
71
1
72
2
73
3
0
VERTEX
8
OBJECT__15
10
0
20
0
30
0
70
128
71
4
72
5
73
1
0
VERTEX
8
OBJECT__15
10
0
20
0
30
0
70
128
71
6
72
4
73
3
0
VERTEX
8
OBJECT__15
10
0
20
0
30
0
70
128
71
3
72
4
73
1
0
VERTEX
8
OBJECT__15
10
0
20
0
30
0
70
128
71
1
72
5
73
7
0
SEQEND
8
OBJECT__15
0
POLYLINE
8
OBJECT__16
66
1
70
64
71
9
72
7
62
253
0
VERTEX
8
OBJECT__16
10
16.677999
20
0.322000
30
30.322001
70
192
0
VERTEX
8
OBJECT__16
10
16.677999
20
-0.322000
30
30.322001
70
192
0
VERTEX
8
OBJECT__16
10
16.673000
20
-0.327000
30
30.327000
70
192
0
VERTEX
8
OBJECT__16
10
17.000000
20
0.000000
30
30.000000
70
192
0
VERTEX
8
OBJECT__16
10
16.000000
20
-0.505000
30
30.136999
70
192
0
VERTEX
8
OBJECT__16
10
16.000000
20
0.505000
30
30.136999
70
192
0
VERTEX
8
OBJECT__16
10
16.673000
20
0.327000
30
30.327000
70
192
0
VERTEX
8
OBJECT__16
10
16.000000
20
-1.000000
30
31.000000
70
192
0
VERTEX
8
OBJECT__16
10
16.000000
20
1.000000
30
31.000000
70
192
0
VERTEX
8
OBJECT__16
10
0
20
0
30
0
70
128
71
1
72
2
73
3
0
VERTEX
8
OBJECT__16
10
0
20
0
30
0
70
128
71
1
72
4
73
2
0
VERTEX
8
OBJECT__16
10
0
20
0
30
0
70
128
71
5
72
6
73
7
0
VERTEX
8
OBJECT__16
10
0
20
0
30
0
70
128
71
7
72
1
73
5
0
VERTEX
8
OBJECT__16
10
0
20
0
30
0
70
128
71
8
72
5
73
3
0
VERTEX
8
OBJECT__16
10
0
20
0
30
0
70
128
71
3
72
5
73
1
0
VERTEX
8
OBJECT__16
10
0
20
0
30
0
70
128
71
7
72
6
73
9
0
SEQEND
8
OBJECT__16
0
POLYLINE
8
OBJECT__17
66
1
70
64
71
9
72
7
62
253
0
VERTEX
8
OBJECT__17
10
16.000000
20
-0.495000
30
37.368999
70
192
0
VERTEX
8
OBJECT__17
10
16.000000
20
-1.000000
30
36.500000
70
192
0
VERTEX
8
OBJECT__17
10
16.677999
20
-0.322000
30
37.178001
70
192
0
VERTEX
8
OBJECT__17
10
16.677999
20
0.322000
30
37.178001
70
192
0
VERTEX
8
OBJECT__17
10
16.669001
20
0.331000
30
37.168999
70
192
0
VERTEX
8
OBJECT__17
10
16.681999
20
-0.318000
30
37.181999
70
192
0
VERTEX
8
OBJECT__17
10
17.000000
20
0.000000
30
37.500000
70
192
0
VERTEX
8
OBJECT__17
10
16.000000
20
1.000000
30
36.500000
70
192
0
VERTEX
8
OBJECT__17
10
16.000000
20
0.511000
30
37.360001
70
192
0
VERTEX
8
OBJECT__17
10
0
20
0
30
0
70
128
71
1
72
2
73
3
0
VERTEX
8
OBJECT__17
10
0
20
0
30
0
70
128
71
1
72
4
73
5
0
VERTEX
8
OBJECT__17
10
0
20
0
30
0
70
128
71
4
72
1
73
6
0
VERTEX
8
OBJECT__17
10
0
20
0
30
0
70
128
71
6
72
7
73
4
0
VERTEX
8
OBJECT__17
10
0
20
0
30
0
70
128
71
8
72
9
73
5
0
VERTEX
8
OBJECT__17
10
0
20
0
30
0
70
128
71
5
72
9
73
1
0
VERTEX
8
OBJECT__17
10
0
20
0
30
0
70
128
71
3
72
6
73
1
0
SEQEND
8
OBJECT__17
0
POLYLINE
8
OBJECT__18
66
1
70
64
71
26
72
26
62
253
0
VERTEX
8
OBJECT__18
10
13.000000
20
-23.686001
30
-12.431000
70
192
0
VERTEX
8
OBJECT__18
10
13.000000
20
-26.750000
30
0.000000
70
192
0
VERTEX
8
OBJECT__18
10
16.000000
20
-26.750000
30
0.000000
70
192
0
VERTEX
8
OBJECT__18
10
16.000000
20
-15.196000
30
-22.014999
70
192
0
VERTEX
8
OBJECT__18
10
13.000000
20
-15.196000
30
-22.014999
70
192
0
VERTEX
8
OBJECT__18
10
13.000000
20
-3.224000
30
-26.555000
70
192
0
VERTEX
8
OBJECT__18
10
13.000000
20
9.486000
30
-25.011999
70
192
0
VERTEX
8
OBJECT__18
10
16.000000
20
-3.224000
30
-26.555000
70
192
0
VERTEX
8
OBJECT__18
10
13.000000
20
20.023001
30
-17.739000
70
192
0
VERTEX
8
OBJECT__18
10
16.000000
20
9.486000
30
-25.011999
70
192
0
VERTEX
8
OBJECT__18
10
13.000000
20
25.973000
30
-6.402000
70
192
0
VERTEX
8
OBJECT__18
10
16.000000
20
20.023001
30
-17.739000
70
192
0
VERTEX
8
OBJECT__18
10
16.000000
20
25.973000
30
6.402000
70
192
0
VERTEX
8
OBJECT__18
10
13.000000
20
25.973000
30
6.402000
70
192
0
VERTEX
8
OBJECT__18
10
16.000000
20
20.023001
30
17.739000
70
192
0
VERTEX
8
OBJECT__18
10
13.000000
20
20.023001
30
17.739000
70
192
0
VERTEX
8
OBJECT__18
10
16.000000
20
9.486000
30
25.011999
70
192
0
VERTEX
8
OBJECT__18
10
13.000000
20
9.486000
30
25.011999
70
192
0
VERTEX
8
OBJECT__18
10
16.000000
20
-3.224000
30
26.555000
70
192
0
VERTEX
8
OBJECT__18
10
13.000000
20
-3.224000
30
26.555000
70
192
0
VERTEX
8
OBJECT__18
10
16.000000
20
-15.196000
30
22.014999
70
192
0
VERTEX
8
OBJECT__18
10
13.000000
20
-15.196000
30
22.014999
70
192
0
VERTEX
8
OBJECT__18
10
16.000000
20
-23.686001
30
12.431000
70
192
0
VERTEX
8
OBJECT__18
10
13.000000
20
-23.686001
30
12.431000
70
192
0
VERTEX
8
OBJECT__18
10
16.000000
20
25.973000
30
-6.402000
70
192
0
VERTEX
8
OBJECT__18
10
16.000000
20
-23.686001
30
-12.431000
70
192
0
VERTEX
8
OBJECT__18
10
0
20
0
30
0
70
128
71
1
72
2
73
3
0
VERTEX
8
OBJECT__18
10
0
20
0
30
0
70
128
71
4
72
5
73
1
0
VERTEX
8
OBJECT__18
10
0
20
0
30
0
70
128
71
6
72
5
73
4
0
VERTEX
8
OBJECT__18
10
0
20
0
30
0
70
128
71
7
72
6
73
8
0
VERTEX
8
OBJECT__18
10
0
20
0
30
0
70
128
71
9
72
7
73
10
0
VERTEX
8
OBJECT__18
10
0
20
0
30
0
70
128
71
11
72
9
73
12
0
VERTEX
8
OBJECT__18
10
0
20
0
30
0
70
128
71
13
72
14
73
11
0
VERTEX
8
OBJECT__18
10
0
20
0
30
0
70
128
71
15
72
16
73
14
0
VERTEX
8
OBJECT__18
10
0
20
0
30
0
70
128
71
17
72
18
73
16
0
VERTEX
8
OBJECT__18
10
0
20
0
30
0
70
128
71
19
72
20
73
18
0
VERTEX
8
OBJECT__18
10
0
20
0
30
0
70
128
71
21
72
22
73
20
0
VERTEX
8
OBJECT__18
10
0
20
0
30
0
70
128
71
23
72
24
73
22
0
VERTEX
8
OBJECT__18
10
0
20
0
30
0
70
128
71
3
72
2
73
24
0
VERTEX
8
OBJECT__18
10
0
20
0
30
0
70
128
71
24
72
23
73
3
0
VERTEX
8
OBJECT__18
10
0
20
0
30
0
70
128
71
22
72
21
73
23
0
VERTEX
8
OBJECT__18
10
0
20
0
30
0
70
128
71
20
72
19
73
21
0
VERTEX
8
OBJECT__18
10
0
20
0
30
0
70
128
71
18
72
17
73
19
0
VERTEX
8
OBJECT__18
10
0
20
0
30
0
70
128
71
16
72
15
73
17
0
VERTEX
8
OBJECT__18
10
0
20
0
30
0
70
128
71
14
72
13
73
15
0
VERTEX
8
OBJECT__18
10
0
20
0
30
0
70
128
71
11
72
25
73
13
0
VERTEX
8
OBJECT__18
10
0
20
0
30
0
70
128
71
12
72
25
73
11
0
VERTEX
8
OBJECT__18
10
0
20
0
30
0
70
128
71
10
72
12
73
9
0
VERTEX
8
OBJECT__18
10
0
20
0
30
0
70
128
71
8
72
10
73
7
0
VERTEX
8
OBJECT__18
10
0
20
0
30
0
70
128
71
4
72
8
73
6
0
VERTEX
8
OBJECT__18
10
0
20
0
30
0
70
128
71
1
72
26
73
4
0
VERTEX
8
OBJECT__18
10
0
20
0
30
0
70
128
71
3
72
26
73
1
0
SEQEND
8
OBJECT__18
0
POLYLINE
8
OBJECT__19
66
1
70
64
71
48
72
48
62
253
0
VERTEX
8
OBJECT__19
10
10.000000
20
-87.416000
30
61.423000
70
192
0
VERTEX
8
OBJECT__19
10
10.000000
20
-90.500000
30
38.000000
70
192
0
VERTEX
8
OBJECT__19
10
16.000000
20
-90.394997
30
38.000000
70
192
0
VERTEX
8
OBJECT__19
10
16.000000
20
-87.315002
30
61.396000
70
192
0
VERTEX
8
OBJECT__19
10
16.000000
20
-78.285004
30
83.197998
70
192
0
VERTEX
8
OBJECT__19
10
10.000000
20
-78.375000
30
83.250000
70
192
0
VERTEX
8
OBJECT__19
10
16.000000
20
-63.918999
30
101.918999
70
192
0
VERTEX
8
OBJECT__19
10
10.000000
20
-45.250000
30
116.375000
70
192
0
VERTEX
8
OBJECT__19
10
10.000000
20
-63.993000
30
101.992996
70
192
0
VERTEX
8
OBJECT__19
10
10.000000
20
-23.423000
30
125.416000
70
192
0
VERTEX
8
OBJECT__19
10
16.000000
20
-45.198002
30
116.285004
70
192
0
VERTEX
8
OBJECT__19
10
16.000000
20
-23.396000
30
125.315002
70
192
0
VERTEX
8
OBJECT__19
10
16.000000
20
0.000000
30
128.395004
70
192
0
VERTEX
8
OBJECT__19
10
10.000000
20
23.423000
30
125.416000
70
192
0
VERTEX
8
OBJECT__19
10
10.000000
20
0.000000
30
128.500000
70
192
0
VERTEX
8
OBJECT__19
10
10.000000
20
45.250000
30
116.375000
70
192
0
VERTEX
8
OBJECT__19
10
16.000000
20
23.396000
30
125.315002
70
192
0
VERTEX
8
OBJECT__19
10
10.000000
20
63.993000
30
101.992996
70
192
0
VERTEX
8
OBJECT__19
10
16.000000
20
45.198002
30
116.285004
70
192
0
VERTEX
8
OBJECT__19
10
16.000000
20
63.918999
30
101.918999
70
192
0
VERTEX
8
OBJECT__19
10
16.000000
20
78.285004
30
83.197998
70
192
0
VERTEX
8
OBJECT__19
10
10.000000
20
78.375000
30
83.250000
70
192
0
VERTEX
8
OBJECT__19
10
16.000000
20
87.315002
30
61.396000
70
192
0
VERTEX
8
OBJECT__19
10
10.000000
20
87.416000
30
61.423000
70
192
0
VERTEX
8
OBJECT__19
10
16.000000
20
90.394997
30
38.000000
70
192
0
VERTEX
8
OBJECT__19
10
10.000000
20
90.500000
30
38.000000
70
192
0
VERTEX
8
OBJECT__19
10
16.000000
20
87.315002
30
14.604000
70
192
0
VERTEX
8
OBJECT__19
10
10.000000
20
78.375000
30
-7.250000
70
192
0
VERTEX
8
OBJECT__19
10
10.000000
20
87.416000
30
14.577000
70
192
0
VERTEX
8
OBJECT__19
10
10.000000
20
63.993000
30
-25.993000
70
192
0
VERTEX
8
OBJECT__19
10
16.000000
20
78.285004
30
-7.198000
70
192
0
VERTEX
8
OBJECT__19
10
10.000000
20
45.250000
30
-40.375000
70
192
0
VERTEX
8
OBJECT__19
10
16.000000
20
63.918999
30
-25.919001
70
192
0
VERTEX
8
OBJECT__19
10
16.000000
20
45.198002
30
-40.285000
70
192
0
VERTEX
8
OBJECT__19
10
16.000000
20
23.396000
30
-49.314999
70
192
0
VERTEX
8
OBJECT__19
10
10.000000
20
23.423000
30
-49.416000
70
192
0
VERTEX
8
OBJECT__19
10
16.000000
20
0.000000
30
-52.395000
70
192
0
VERTEX
8
OBJECT__19
10
10.000000
20
0.000000
30
-52.500000
70
192
0
VERTEX
8
OBJECT__19
10
16.000000
20
-23.396000
30
-49.314999
70
192
0
VERTEX
8
OBJECT__19
10
10.000000
20
-23.423000
30
-49.416000
70
192
0
VERTEX
8
OBJECT__19
10
16.000000
20
-45.198002
30
-40.285000
70
192
0
VERTEX
8
OBJECT__19
10
10.000000
20
-63.993000
30
-25.993000
70
192
0
VERTEX
8
OBJECT__19
10
10.000000
20
-45.250000
30
-40.375000
70
192
0
VERTEX
8
OBJECT__19
10
10.000000
20
-78.375000
30
-7.250000
70
192
0
VERTEX
8
OBJECT__19
10
16.000000
20
-63.918999
30
-25.919001
70
192
0
VERTEX
8
OBJECT__19
10
10.000000
20
-87.416000
30
14.577000
70
192
0
VERTEX
8
OBJECT__19
10
16.000000
20
-78.285004
30
-7.198000
70
192
0
VERTEX
8
OBJECT__19
10
16.000000
20
-87.315002
30
14.604000
70
192
0
VERTEX
8
OBJECT__19
10
0
20
0
30
0
70
128
71
1
72
2
73
3
0
VERTEX
8
OBJECT__19
10
0
20
0
30
0
70
128
71
1
72
4
73
5
0
VERTEX
8
OBJECT__19
10
0
20
0
30
0
70
128
71
6
72
5
73
7
0
VERTEX
8
OBJECT__19
10
0
20
0
30
0
70
128
71
8
72
9
73
7
0
VERTEX
8
OBJECT__19
10
0
20
0
30
0
70
128
71
10
72
8
73
11
0
VERTEX
8
OBJECT__19
10
0
20
0
30
0
70
128
71
10
72
12
73
13
0
VERTEX
8
OBJECT__19
10
0
20
0
30
0
70
128
71
14
72
15
73
13
0
VERTEX
8
OBJECT__19
10
0
20
0
30
0
70
128
71
16
72
14
73
17
0
VERTEX
8
OBJECT__19
10
0
20
0
30
0
70
128
71
18
72
16
73
19
0
VERTEX
8
OBJECT__19
10
0
20
0
30
0
70
128
71
18
72
20
73
21
0
VERTEX
8
OBJECT__19
10
0
20
0
30
0
70
128
71
22
72
21
73
23
0
VERTEX
8
OBJECT__19
10
0
20
0
30
0
70
128
71
24
72
23
73
25
0
VERTEX
8
OBJECT__19
10
0
20
0
30
0
70
128
71
26
72
25
73
27
0
VERTEX
8
OBJECT__19
10
0
20
0
30
0
70
128
71
28
72
29
73
27
0
VERTEX
8
OBJECT__19
10
0
20
0
30
0
70
128
71
30
72
28
73
31
0
VERTEX
8
OBJECT__19
10
0
20
0
30
0
70
128
71
32
72
30
73
33
0
VERTEX
8
OBJECT__19
10
0
20
0
30
0
70
128
71
32
72
34
73
35
0
VERTEX
8
OBJECT__19
10
0
20
0
30
0
70
128
71
36
72
35
73
37
0
VERTEX
8
OBJECT__19
10
0
20
0
30
0
70
128
71
38
72
37
73
39
0
VERTEX
8
OBJECT__19
10
0
20
0
30
0
70
128
71
40
72
39
73
41
0
VERTEX
8
OBJECT__19
10
0
20
0
30
0
70
128
71
42
72
43
73
41
0
VERTEX
8
OBJECT__19
10
0
20
0
30
0
70
128
71
44
72
42
73
45
0
VERTEX
8
OBJECT__19
10
0
20
0
30
0
70
128
71
46
72
44
73
47
0
VERTEX
8
OBJECT__19
10
0
20
0
30
0
70
128
71
2
72
46
73
48
0
VERTEX
8
OBJECT__19
10
0
20
0
30
0
70
128
71
48
72
3
73
2
0
VERTEX
8
OBJECT__19
10
0
20
0
30
0
70
128
71
47
72
48
73
46
0
VERTEX
8
OBJECT__19
10
0
20
0
30
0
70
128
71
45
72
47
73
44
0
VERTEX
8
OBJECT__19
10
0
20
0
30
0
70
128
71
41
72
45
73
42
0
VERTEX
8
OBJECT__19
10
0
20
0
30
0
70
128
71
41
72
43
73
40
0
VERTEX
8
OBJECT__19
10
0
20
0
30
0
70
128
71
39
72
40
73
38
0
VERTEX
8
OBJECT__19
10
0
20
0
30
0
70
128
71
37
72
38
73
36
0
VERTEX
8
OBJECT__19
10
0
20
0
30
0
70
128
71
35
72
36
73
32
0
VERTEX
8
OBJECT__19
10
0
20
0
30
0
70
128
71
33
72
34
73
32
0
VERTEX
8
OBJECT__19
10
0
20
0
30
0
70
128
71
31
72
33
73
30
0
VERTEX
8
OBJECT__19
10
0
20
0
30
0
70
128
71
27
72
31
73
28
0
VERTEX
8
OBJECT__19
10
0
20
0
30
0
70
128
71
27
72
29
73
26
0
VERTEX
8
OBJECT__19
10
0
20
0
30
0
70
128
71
25
72
26
73
24
0
VERTEX
8
OBJECT__19
10
0
20
0
30
0
70
128
71
23
72
24
73
22
0
VERTEX
8
OBJECT__19
10
0
20
0
30
0
70
128
71
21
72
22
73
18
0
VERTEX
8
OBJECT__19
10
0
20
0
30
0
70
128
71
19
72
20
73
18
0
VERTEX
8
OBJECT__19
10
0
20
0
30
0
70
128
71
17
72
19
73
16
0
VERTEX
8
OBJECT__19
10
0
20
0
30
0
70
128
71
13
72
17
73
14
0
VERTEX
8
OBJECT__19
10
0
20
0
30
0
70
128
71
13
72
15
73
10
0
VERTEX
8
OBJECT__19
10
0
20
0
30
0
70
128
71
11
72
12
73
10
0
VERTEX
8
OBJECT__19
10
0
20
0
30
0
70
128
71
7
72
11
73
8
0
VERTEX
8
OBJECT__19
10
0
20
0
30
0
70
128
71
7
72
9
73
6
0
VERTEX
8
OBJECT__19
10
0
20
0
30
0
70
128
71
5
72
6
73
1
0
VERTEX
8
OBJECT__19
10
0
20
0
30
0
70
128
71
3
72
4
73
1
0
SEQEND
8
OBJECT__19
0
POLYLINE
8
OBJECT__20
66
1
70
64
71
50
72
50
62
253
0
VERTEX
8
OBJECT__20
10
10.000000
20
-54.561001
30
123.973999
70
192
0
VERTEX
8
OBJECT__20
10
10.000000
20
-74.227997
30
107.704002
70
192
0
VERTEX
8
OBJECT__20
10
10.000000
20
-63.993000
30
101.992996
70
192
0
VERTEX
8
OBJECT__20
10
10.000000
20
-89.230003
30
87.055000
70
192
0
VERTEX
8
OBJECT__20
10
10.000000
20
-78.375000
30
83.250000
70
192
0
VERTEX
8
OBJECT__20
10
10.000000
20
19.080000
30
-62.021999
70
192
0
VERTEX
8
OBJECT__20
10
10.000000
20
23.423000
30
-49.416000
70
192
0
VERTEX
8
OBJECT__20
10
10.000000
20
0.000000
30
-52.500000
70
192
0
VERTEX
8
OBJECT__20
10
10.000000
20
43.355000
30
-54.133999
70
192
0
VERTEX
8
OBJECT__20
10
10.000000
20
45.250000
30
-40.375000
70
192
0
VERTEX
8
OBJECT__20
10
10.000000
20
-98.625999
30
63.323002
70
192
0
VERTEX
8
OBJECT__20
10
10.000000
20
-87.416000
30
61.423000
70
192
0
VERTEX
8
OBJECT__20
10
10.000000
20
64.905998
30
-40.458000
70
192
0
VERTEX
8
OBJECT__20
10
10.000000
20
63.993000
30
-25.993000
70
192
0
VERTEX
8
OBJECT__20
10
10.000000
20
-101.824997
30
38.000000
70
192
0
VERTEX
8
OBJECT__20
10
10.000000
20
-90.500000
30
38.000000
70
192
0
VERTEX
8
OBJECT__20
10
10.000000
20
82.378998
30
-21.851000
70
192
0
VERTEX
8
OBJECT__20
10
10.000000
20
78.375000
30
-7.250000
70
192
0
VERTEX
8
OBJECT__20
10
10.000000
20
101.023003
30
50.762001
70
192
0
VERTEX
8
OBJECT__20
10
10.000000
20
94.675003
30
75.484001
70
192
0
VERTEX
8
OBJECT__20
10
10.000000
20
87.416000
30
61.423000
70
192
0
VERTEX
8
OBJECT__20
10
10.000000
20
82.378998
30
97.851997
70
192
0
VERTEX
8
OBJECT__20
10
10.000000
20
78.375000
30
83.250000
70
192
0
VERTEX
8
OBJECT__20
10
10.000000
20
64.905998
30
116.458000
70
192
0
VERTEX
8
OBJECT__20
10
10.000000
20
63.993000
30
101.992996
70
192
0
VERTEX
8
OBJECT__20
10
10.000000
20
-98.625999
30
12.677000
70
192
0
VERTEX
8
OBJECT__20
10
10.000000
20
-87.416000
30
14.577000
70
192
0
VERTEX
8
OBJECT__20
10
10.000000
20
-89.230003
30
-11.055000
70
192
0
VERTEX
8
OBJECT__20
10
10.000000
20
-78.375000
30
-7.250000
70
192
0
VERTEX
8
OBJECT__20
10
10.000000
20
-74.227997
30
-31.704000
70
192
0
VERTEX
8
OBJECT__20
10
10.000000
20
-63.993000
30
-25.993000
70
192
0
VERTEX
8
OBJECT__20
10
10.000000
20
-6.394000
30
-63.624001
70
192
0
VERTEX
8
OBJECT__20
10
10.000000
20
-23.423000
30
-49.416000
70
192
0
VERTEX
8
OBJECT__20
10
10.000000
20
90.500000
30
38.000000
70
192
0
VERTEX
8
OBJECT__20
10
10.000000
20
101.824997
30
38.000000
70
192
0
VERTEX
8
OBJECT__20
10
10.000000
20
43.355000
30
130.134003
70
192
0
VERTEX
8
OBJECT__20
10
10.000000
20
45.250000
30
116.375000
70
192
0
VERTEX
8
OBJECT__20
10
10.000000
20
19.080000
30
138.022003
70
192
0
VERTEX
8
OBJECT__20
10
10.000000
20
23.423000
30
125.416000
70
192
0
VERTEX
8
OBJECT__20
10
10.000000
20
-6.394000
30
139.625000
70
192
0
VERTEX
8
OBJECT__20
10
10.000000
20
-31.466000
30
134.841995
70
192
0
VERTEX
8
OBJECT__20
10
10.000000
20
-23.423000
30
125.416000
70
192
0
VERTEX
8
OBJECT__20
10
10.000000
20
-45.250000
30
116.375000
70
192
0
VERTEX
8
OBJECT__20
10
10.000000
20
-54.561001
30
-47.973999
70
192
0
VERTEX
8
OBJECT__20
10
10.000000
20
-45.250000
30
-40.375000
70
192
0
VERTEX
8
OBJECT__20
10
10.000000
20
-31.466000
30
-58.841999
70
192
0
VERTEX
8
OBJECT__20
10
10.000000
20
94.675003
30
0.516000
70
192
0
VERTEX
8
OBJECT__20
10
10.000000
20
87.416000
30
14.577000
70
192
0
VERTEX
8
OBJECT__20
10
10.000000
20
101.023003
30
25.238001
70
192
0
VERTEX
8
OBJECT__20
10
10.000000
20
0.000000
30
128.500000
70
192
0
VERTEX
8
OBJECT__20
10
0
20
0
30
0
70
128
71
1
72
2
73
3
0
VERTEX
8
OBJECT__20
10
0
20
0
30
0
70
128
71
2
72
4
73
5
0
VERTEX
8
OBJECT__20
10
0
20
0
30
0
70
128
71
6
72
7
73
8
0
VERTEX
8
OBJECT__20
10
0
20
0
30
0
70
128
71
9
72
10
73
7
0
VERTEX
8
OBJECT__20
10
0
20
0
30
0
70
128
71
5
72
3
73
2
0
VERTEX
8
OBJECT__20
10
0
20
0
30
0
70
128
71
4
72
11
73
12
0
VERTEX
8
OBJECT__20
10
0
20
0
30
0
70
128
71
7
72
6
73
9
0
VERTEX
8
OBJECT__20
10
0
20
0
30
0
70
128
71
13
72
14
73
10
0
VERTEX
8
OBJECT__20
10
0
20
0
30
0
70
128
71
12
72
5
73
4
0
VERTEX
8
OBJECT__20
10
0
20
0
30
0
70
128
71
11
72
15
73
16
0
VERTEX
8
OBJECT__20
10
0
20
0
30
0
70
128
71
10
72
9
73
13
0
VERTEX
8
OBJECT__20
10
0
20
0
30
0
70
128
71
17
72
18
73
14
0
VERTEX
8
OBJECT__20
10
0
20
0
30
0
70
128
71
19
72
20
73
21
0
VERTEX
8
OBJECT__20
10
0
20
0
30
0
70
128
71
20
72
22
73
23
0
VERTEX
8
OBJECT__20
10
0
20
0
30
0
70
128
71
22
72
24
73
25
0
VERTEX
8
OBJECT__20
10
0
20
0
30
0
70
128
71
16
72
12
73
11
0
VERTEX
8
OBJECT__20
10
0
20
0
30
0
70
128
71
26
72
27
73
16
0
VERTEX
8
OBJECT__20
10
0
20
0
30
0
70
128
71
28
72
29
73
27
0
VERTEX
8
OBJECT__20
10
0
20
0
30
0
70
128
71
30
72
31
73
29
0
VERTEX
8
OBJECT__20
10
0
20
0
30
0
70
128
71
32
72
8
73
33
0
VERTEX
8
OBJECT__20
10
0
20
0
30
0
70
128
71
14
72
13
73
17
0
VERTEX
8
OBJECT__20
10
0
20
0
30
0
70
128
71
34
72
35
73
19
0
VERTEX
8
OBJECT__20
10
0
20
0
30
0
70
128
71
25
72
23
73
22
0
VERTEX
8
OBJECT__20
10
0
20
0
30
0
70
128
71
24
72
36
73
37
0
VERTEX
8
OBJECT__20
10
0
20
0
30
0
70
128
71
36
72
38
73
39
0
VERTEX
8
OBJECT__20
10
0
20
0
30
0
70
128
71
40
72
41
73
42
0
VERTEX
8
OBJECT__20
10
0
20
0
30
0
70
128
71
41
72
1
73
43
0
VERTEX
8
OBJECT__20
10
0
20
0
30
0
70
128
71
16
72
15
73
26
0
VERTEX
8
OBJECT__20
10
0
20
0
30
0
70
128
71
29
72
28
73
30
0
VERTEX
8
OBJECT__20
10
0
20
0
30
0
70
128
71
44
72
45
73
31
0
VERTEX
8
OBJECT__20
10
0
20
0
30
0
70
128
71
46
72
33
73
45
0
VERTEX
8
OBJECT__20
10
0
20
0
30
0
70
128
71
8
72
32
73
6
0
VERTEX
8
OBJECT__20
10
0
20
0
30
0
70
128
71
47
72
48
73
18
0
VERTEX
8
OBJECT__20
10
0
20
0
30
0
70
128
71
49
72
34
73
48
0
VERTEX
8
OBJECT__20
10
0
20
0
30
0
70
128
71
23
72
21
73
20
0
VERTEX
8
OBJECT__20
10
0
20
0
30
0
70
128
71
39
72
37
73
36
0
VERTEX
8
OBJECT__20
10
0
20
0
30
0
70
128
71
38
72
40
73
50
0
VERTEX
8
OBJECT__20
10
0
20
0
30
0
70
128
71
43
72
42
73
41
0
VERTEX
8
OBJECT__20
10
0
20
0
30
0
70
128
71
27
72
26
73
28
0
VERTEX
8
OBJECT__20
10
0
20
0
30
0
70
128
71
45
72
44
73
46
0
VERTEX
8
OBJECT__20
10
0
20
0
30
0
70
128
71
18
72
17
73
47
0
VERTEX
8
OBJECT__20
10
0
20
0
30
0
70
128
71
48
72
47
73
49
0
VERTEX
8
OBJECT__20
10
0
20
0
30
0
70
128
71
37
72
25
73
24
0
VERTEX
8
OBJECT__20
10
0
20
0
30
0
70
128
71
42
72
50
73
40
0
VERTEX
8
OBJECT__20
10
0
20
0
30
0
70
128
71
31
72
30
73
44
0
VERTEX
8
OBJECT__20
10
0
20
0
30
0
70
128
71
49
72
35
73
34
0
VERTEX
8
OBJECT__20
10
0
20
0
30
0
70
128
71
50
72
39
73
38
0
VERTEX
8
OBJECT__20
10
0
20
0
30
0
70
128
71
33
72
46
73
32
0
VERTEX
8
OBJECT__20
10
0
20
0
30
0
70
128
71
3
72
43
73
1
0
VERTEX
8
OBJECT__20
10
0
20
0
30
0
70
128
71
21
72
34
73
19
0
SEQEND
8
OBJECT__20
0
POLYLINE
8
OBJECT__21
66
1
70
64
71
52
72
52
62
253
0
VERTEX
8
OBJECT__21
10
0.000000
20
-98.794998
30
63.366001
70
192
0
VERTEX
8
OBJECT__21
10
0.000000
20
-102.000000
30
38.000000
70
192
0
VERTEX
8
OBJECT__21
10
10.000000
20
-101.824997
30
38.000000
70
192
0
VERTEX
8
OBJECT__21
10
10.000000
20
-98.625999
30
63.323002
70
192
0
VERTEX
8
OBJECT__21
10
10.000000
20
-89.230003
30
87.055000
70
192
0
VERTEX
8
OBJECT__21
10
0.000000
20
-74.355003
30
107.823997
70
192
0
VERTEX
8
OBJECT__21
10
0.000000
20
-89.383003
30
87.139000
70
192
0
VERTEX
8
OBJECT__21
10
0.000000
20
-54.653999
30
124.121002
70
192
0
VERTEX
8
OBJECT__21
10
10.000000
20
-74.227997
30
107.704002
70
192
0
VERTEX
8
OBJECT__21
10
10.000000
20
-54.561001
30
123.973999
70
192
0
VERTEX
8
OBJECT__21
10
10.000000
20
-31.466000
30
134.841995
70
192
0
VERTEX
8
OBJECT__21
10
0.000000
20
-31.520000
30
135.007996
70
192
0
VERTEX
8
OBJECT__21
10
10.000000
20
-6.394000
30
139.625000
70
192
0
VERTEX
8
OBJECT__21
10
0.000000
20
19.113001
30
138.192993
70
192
0
VERTEX
8
OBJECT__21
10
0.000000
20
-6.405000
30
139.798996
70
192
0
VERTEX
8
OBJECT__21
10
0.000000
20
43.429001
30
130.292007
70
192
0
VERTEX
8
OBJECT__21
10
10.000000
20
19.080000
30
138.022003
70
192
0
VERTEX
8
OBJECT__21
10
0.000000
20
65.016998
30
116.592003
70
192
0
VERTEX
8
OBJECT__21
10
10.000000
20
43.355000
30
130.134003
70
192
0
VERTEX
8
OBJECT__21
10
10.000000
20
64.905998
30
116.458000
70
192
0
VERTEX
8
OBJECT__21
10
10.000000
20
82.378998
30
97.851997
70
192
0
VERTEX
8
OBJECT__21
10
0.000000
20
94.836998
30
75.549004
70
192
0
VERTEX
8
OBJECT__21
10
0.000000
20
82.519997
30
97.954002
70
192
0
VERTEX
8
OBJECT__21
10
0.000000
20
101.195999
30
50.784000
70
192
0
VERTEX
8
OBJECT__21
10
10.000000
20
94.675003
30
75.484001
70
192
0
VERTEX
8
OBJECT__21
10
0.000000
20
101.195999
30
25.216000
70
192
0
VERTEX
8
OBJECT__21
10
0.000000
20
102.000000
30
38.000000
70
192
0
VERTEX
8
OBJECT__21
10
10.000000
20
101.824997
30
38.000000
70
192
0
VERTEX
8
OBJECT__21
10
10.000000
20
101.023003
30
50.762001
70
192
0
VERTEX
8
OBJECT__21
10
10.000000
20
101.023003
30
25.238001
70
192
0
VERTEX
8
OBJECT__21
10
10.000000
20
94.675003
30
0.516000
70
192
0
VERTEX
8
OBJECT__21
10
0.000000
20
94.836998
30
0.451000
70
192
0
VERTEX
8
OBJECT__21
10
10.000000
20
82.378998
30
-21.851000
70
192
0
VERTEX
8
OBJECT__21
10
0.000000
20
82.519997
30
-21.954000
70
192
0
VERTEX
8
OBJECT__21
10
10.000000
20
64.905998
30
-40.458000
70
192
0
VERTEX
8
OBJECT__21
10
0.000000
20
43.429001
30
-54.292000
70
192
0
VERTEX
8
OBJECT__21
10
0.000000
20
65.016998
30
-40.591999
70
192
0
VERTEX
8
OBJECT__21
10
0.000000
20
19.113001
30
-62.193001
70
192
0
VERTEX
8
OBJECT__21
10
10.000000
20
43.355000
30
-54.133999
70
192
0
VERTEX
8
OBJECT__21
10
0.000000
20
-6.405000
30
-63.799000
70
192
0
VERTEX
8
OBJECT__21
10
10.000000
20
19.080000
30
-62.021999
70
192
0
VERTEX
8
OBJECT__21
10
0.000000
20
-31.520000
30
-59.007999
70
192
0
VERTEX
8
OBJECT__21
10
10.000000
20
-6.394000
30
-63.624001
70
192
0
VERTEX
8
OBJECT__21
10
0.000000
20
-54.653999
30
-48.120998
70
192
0
VERTEX
8
OBJECT__21
10
10.000000
20
-31.466000
30
-58.841999
70
192
0
VERTEX
8
OBJECT__21
10
10.000000
20
-54.561001
30
-47.973999
70
192
0
VERTEX
8
OBJECT__21
10
10.000000
20
-74.227997
30
-31.704000
70
192
0
VERTEX
8
OBJECT__21
10
0.000000
20
-74.355003
30
-31.823999
70
192
0
VERTEX
8
OBJECT__21
10
10.000000
20
-89.230003
30
-11.055000
70
192
0
VERTEX
8
OBJECT__21
10
0.000000
20
-98.794998
30
12.634000
70
192
0
VERTEX
8
OBJECT__21
10
0.000000
20
-89.383003
30
-11.139000
70
192
0
VERTEX
8
OBJECT__21
10
10.000000
20
-98.625999
30
12.677000
70
192
0
VERTEX
8
OBJECT__21
10
0
20
0
30
0
70
128
71
1
72
2
73
3
0
VERTEX
8
OBJECT__21
10
0
20
0
30
0
70
128
71
1
72
4
73
5
0
VERTEX
8
OBJECT__21
10
0
20
0
30
0
70
128
71
6
72
7
73
5
0
VERTEX
8
OBJECT__21
10
0
20
0
30
0
70
128
71
8
72
6
73
9
0
VERTEX
8
OBJECT__21
10
0
20
0
30
0
70
128
71
8
72
10
73
11
0
VERTEX
8
OBJECT__21
10
0
20
0
30
0
70
128
71
12
72
11
73
13
0
VERTEX
8
OBJECT__21
10
0
20
0
30
0
70
128
71
14
72
15
73
13
0
VERTEX
8
OBJECT__21
10
0
20
0
30
0
70
128
71
16
72
14
73
17
0
VERTEX
8
OBJECT__21
10
0
20
0
30
0
70
128
71
18
72
16
73
19
0
VERTEX
8
OBJECT__21
10
0
20
0
30
0
70
128
71
18
72
20
73
21
0
VERTEX
8
OBJECT__21
10
0
20
0
30
0
70
128
71
22
72
23
73
21
0
VERTEX
8
OBJECT__21
10
0
20
0
30
0
70
128
71
24
72
22
73
25
0
VERTEX
8
OBJECT__21
10
0
20
0
30
0
70
128
71
26
72
27
73
28
0
VERTEX
8
OBJECT__21
10
0
20
0
30
0
70
128
71
24
72
29
73
28
0
VERTEX
8
OBJECT__21
10
0
20
0
30
0
70
128
71
28
72
27
73
24
0
VERTEX
8
OBJECT__21
10
0
20
0
30
0
70
128
71
26
72
30
73
31
0
VERTEX
8
OBJECT__21
10
0
20
0
30
0
70
128
71
32
72
31
73
33
0
VERTEX
8
OBJECT__21
10
0
20
0
30
0
70
128
71
34
72
33
73
35
0
VERTEX
8
OBJECT__21
10
0
20
0
30
0
70
128
71
36
72
37
73
35
0
VERTEX
8
OBJECT__21
10
0
20
0
30
0
70
128
71
38
72
36
73
39
0
VERTEX
8
OBJECT__21
10
0
20
0
30
0
70
128
71
40
72
38
73
41
0
VERTEX
8
OBJECT__21
10
0
20
0
30
0
70
128
71
42
72
40
73
43
0
VERTEX
8
OBJECT__21
10
0
20
0
30
0
70
128
71
44
72
42
73
45
0
VERTEX
8
OBJECT__21
10
0
20
0
30
0
70
128
71
44
72
46
73
47
0
VERTEX
8
OBJECT__21
10
0
20
0
30
0
70
128
71
48
72
47
73
49
0
VERTEX
8
OBJECT__21
10
0
20
0
30
0
70
128
71
50
72
51
73
49
0
VERTEX
8
OBJECT__21
10
0
20
0
30
0
70
128
71
2
72
50
73
52
0
VERTEX
8
OBJECT__21
10
0
20
0
30
0
70
128
71
52
72
3
73
2
0
VERTEX
8
OBJECT__21
10
0
20
0
30
0
70
128
71
49
72
52
73
50
0
VERTEX
8
OBJECT__21
10
0
20
0
30
0
70
128
71
49
72
51
73
48
0
VERTEX
8
OBJECT__21
10
0
20
0
30
0
70
128
71
47
72
48
73
44
0
VERTEX
8
OBJECT__21
10
0
20
0
30
0
70
128
71
45
72
46
73
44
0
VERTEX
8
OBJECT__21
10
0
20
0
30
0
70
128
71
43
72
45
73
42
0
VERTEX
8
OBJECT__21
10
0
20
0
30
0
70
128
71
41
72
43
73
40
0
VERTEX
8
OBJECT__21
10
0
20
0
30
0
70
128
71
39
72
41
73
38
0
VERTEX
8
OBJECT__21
10
0
20
0
30
0
70
128
71
35
72
39
73
36
0
VERTEX
8
OBJECT__21
10
0
20
0
30
0
70
128
71
35
72
37
73
34
0
VERTEX
8
OBJECT__21
10
0
20
0
30
0
70
128
71
33
72
34
73
32
0
VERTEX
8
OBJECT__21
10
0
20
0
30
0
70
128
71
31
72
32
73
26
0
VERTEX
8
OBJECT__21
10
0
20
0
30
0
70
128
71
28
72
30
73
26
0
VERTEX
8
OBJECT__21
10
0
20
0
30
0
70
128
71
25
72
29
73
24
0
VERTEX
8
OBJECT__21
10
0
20
0
30
0
70
128
71
21
72
25
73
22
0
VERTEX
8
OBJECT__21
10
0
20
0
30
0
70
128
71
21
72
23
73
18
0
VERTEX
8
OBJECT__21
10
0
20
0
30
0
70
128
71
19
72
20
73
18
0
VERTEX
8
OBJECT__21
10
0
20
0
30
0
70
128
71
17
72
19
73
16
0
VERTEX
8
OBJECT__21
10
0
20
0
30
0
70
128
71
13
72
17
73
14
0
VERTEX
8
OBJECT__21
10
0
20
0
30
0
70
128
71
13
72
15
73
12
0
VERTEX
8
OBJECT__21
10
0
20
0
30
0
70
128
71
11
72
12
73
8
0
VERTEX
8
OBJECT__21
10
0
20
0
30
0
70
128
71
9
72
10
73
8
0
VERTEX
8
OBJECT__21
10
0
20
0
30
0
70
128
71
5
72
9
73
6
0
VERTEX
8
OBJECT__21
10
0
20
0
30
0
70
128
71
5
72
7
73
1
0
VERTEX
8
OBJECT__21
10
0
20
0
30
0
70
128
71
3
72
4
73
1
0
SEQEND
8
OBJECT__21
0
POLYLINE
8
OBJECT__22
66
1
70
64
71
26
72
24
62
253
0
VERTEX
8
OBJECT__22
10
0.000000
20
-98.794998
30
12.634000
70
192
0
VERTEX
8
OBJECT__22
10
0.000000
20
-31.520000
30
-59.007999
70
192
0
VERTEX
8
OBJECT__22
10
0.000000
20
-54.653999
30
-48.120998
70
192
0
VERTEX
8
OBJECT__22
10
0.000000
20
-74.355003
30
-31.823999
70
192
0
VERTEX
8
OBJECT__22
10
0.000000
20
-6.405000
30
-63.799000
70
192
0
VERTEX
8
OBJECT__22
10
0.000000
20
43.429001
30
-54.292000
70
192
0
VERTEX
8
OBJECT__22
10
0.000000
20
19.113001
30
-62.193001
70
192
0
VERTEX
8
OBJECT__22
10
0.000000
20
82.519997
30
-21.954000
70
192
0
VERTEX
8
OBJECT__22
10
0.000000
20
65.016998
30
-40.591999
70
192
0
VERTEX
8
OBJECT__22
10
0.000000
20
94.836998
30
75.549004
70
192
0
VERTEX
8
OBJECT__22
10
0.000000
20
43.429001
30
130.292007
70
192
0
VERTEX
8
OBJECT__22
10
0.000000
20
65.016998
30
116.592003
70
192
0
VERTEX
8
OBJECT__22
10
0.000000
20
101.195999
30
50.784000
70
192
0
VERTEX
8
OBJECT__22
10
0.000000
20
-6.405000
30
139.798996
70
192
0
VERTEX
8
OBJECT__22
10
0.000000
20
19.113001
30
138.192993
70
192
0
VERTEX
8
OBJECT__22
10
0.000000
20
-102.000000
30
38.000000
70
192
0
VERTEX
8
OBJECT__22
10
0.000000
20
-98.794998
30
63.366001
70
192
0
VERTEX
8
OBJECT__22
10
0.000000
20
101.195999
30
25.216000
70
192
0
VERTEX
8
OBJECT__22
10
0.000000
20
94.836998
30
0.451000
70
192
0
VERTEX
8
OBJECT__22
10
0.000000
20
82.519997
30
97.954002
70
192
0
VERTEX
8
OBJECT__22
10
0.000000
20
-31.520000
30
135.007996
70
192
0
VERTEX
8
OBJECT__22
10
0.000000
20
-74.355003
30
107.823997
70
192
0
VERTEX
8
OBJECT__22
10
0.000000
20
-54.653999
30
124.121002
70
192
0
VERTEX
8
OBJECT__22
10
0.000000
20
-89.383003
30
87.139000
70
192
0
VERTEX
8
OBJECT__22
10
0.000000
20
-89.383003
30
-11.139000
70
192
0
VERTEX
8
OBJECT__22
10
0.000000
20
102.000000
30
38.000000
70
192
0
VERTEX
8
OBJECT__22
10
0
20
0
30
0
70
128
71
1
72
2
73
3
0
VERTEX
8
OBJECT__22
10
0
20
0
30
0
70
128
71
3
72
4
73
1
0
VERTEX
8
OBJECT__22
10
0
20
0
30
0
70
128
71
1
72
5
73
2
0
VERTEX
8
OBJECT__22
10
0
20
0
30
0
70
128
71
1
72
6
73
7
0
VERTEX
8
OBJECT__22
10
0
20
0
30
0
70
128
71
7
72
5
73
1
0
VERTEX
8
OBJECT__22
10
0
20
0
30
0
70
128
71
1
72
8
73
9
0
VERTEX
8
OBJECT__22
10
0
20
0
30
0
70
128
71
10
72
11
73
12
0
VERTEX
8
OBJECT__22
10
0
20
0
30
0
70
128
71
13
72
14
73
15
0
VERTEX
8
OBJECT__22
10
0
20
0
30
0
70
128
71
13
72
16
73
17
0
VERTEX
8
OBJECT__22
10
0
20
0
30
0
70
128
71
9
72
6
73
1
0
VERTEX
8
OBJECT__22
10
0
20
0
30
0
70
128
71
1
72
18
73
19
0
VERTEX
8
OBJECT__22
10
0
20
0
30
0
70
128
71
12
72
20
73
10
0
VERTEX
8
OBJECT__22
10
0
20
0
30
0
70
128
71
13
72
21
73
14
0
VERTEX
8
OBJECT__22
10
0
20
0
30
0
70
128
71
13
72
22
73
23
0
VERTEX
8
OBJECT__22
10
0
20
0
30
0
70
128
71
17
72
24
73
13
0
VERTEX
8
OBJECT__22
10
0
20
0
30
0
70
128
71
19
72
8
73
1
0
VERTEX
8
OBJECT__22
10
0
20
0
30
0
70
128
71
15
72
11
73
13
0
VERTEX
8
OBJECT__22
10
0
20
0
30
0
70
128
71
24
72
22
73
13
0
VERTEX
8
OBJECT__22
10
0
20
0
30
0
70
128
71
4
72
25
73
1
0
VERTEX
8
OBJECT__22
10
0
20
0
30
0
70
128
71
23
72
21
73
13
0
VERTEX
8
OBJECT__22
10
0
20
0
30
0
70
128
71
16
72
26
73
18
0
VERTEX
8
OBJECT__22
10
0
20
0
30
0
70
128
71
10
72
13
73
11
0
VERTEX
8
OBJECT__22
10
0
20
0
30
0
70
128
71
13
72
26
73
16
0
VERTEX
8
OBJECT__22
10
0
20
0
30
0
70
128
71
1
72
16
73
18
0
SEQEND
8
OBJECT__22
0
POLYLINE
8
OBJECT__23
66
1
70
64
71
44
72
44
62
253
0
VERTEX
8
OBJECT__23
10
7.966000
20
0.000000
30
111.250000
70
192
0
VERTEX
8
OBJECT__23
10
14.850000
20
0.000000
30
111.250000
70
192
0
VERTEX
8
OBJECT__23
10
14.850000
20
8.978000
30
109.667000
70
192
0
VERTEX
8
OBJECT__23
10
7.966000
20
12.199000
30
108.242996
70
192
0
VERTEX
8
OBJECT__23
10
7.966000
20
21.603001
30
99.912003
70
192
0
VERTEX
8
OBJECT__23
10
14.850000
20
16.872999
30
105.109001
70
192
0
VERTEX
8
OBJECT__23
10
14.850000
20
12.010000
30
107.916000
70
192
0
VERTEX
8
OBJECT__23
10
7.966000
20
26.059000
30
88.164001
70
192
0
VERTEX
8
OBJECT__23
10
14.850000
20
22.733000
30
98.125000
70
192
0
VERTEX
8
OBJECT__23
10
14.850000
20
25.851000
30
89.557999
70
192
0
VERTEX
8
OBJECT__23
10
14.850000
20
21.386999
30
99.730003
70
192
0
VERTEX
8
OBJECT__23
10
14.850000
20
25.851000
30
88.164001
70
192
0
VERTEX
8
OBJECT__23
10
14.850000
20
25.851000
30
80.442001
70
192
0
VERTEX
8
OBJECT__23
10
7.966000
20
24.544001
30
75.692001
70
192
0
VERTEX
8
OBJECT__23
10
7.966000
20
17.407000
30
65.351997
70
192
0
VERTEX
8
OBJECT__23
10
14.850000
20
22.733000
30
71.875000
70
192
0
VERTEX
8
OBJECT__23
10
14.850000
20
24.172001
30
75.827003
70
192
0
VERTEX
8
OBJECT__23
10
14.850000
20
16.872999
30
64.890999
70
192
0
VERTEX
8
OBJECT__23
10
14.850000
20
8.978000
30
60.333000
70
192
0
VERTEX
8
OBJECT__23
10
7.966000
20
6.282000
30
59.513000
70
192
0
VERTEX
8
OBJECT__23
10
14.850000
20
17.320000
30
65.424004
70
192
0
VERTEX
8
OBJECT__23
10
7.966000
20
0.000000
30
58.750000
70
192
0
VERTEX
8
OBJECT__23
10
14.850000
20
0.000000
30
58.750000
70
192
0
VERTEX
8
OBJECT__23
10
14.850000
20
-6.223000
30
59.847000
70
192
0
VERTEX
8
OBJECT__23
10
14.850000
20
6.223000
30
59.847000
70
192
0
VERTEX
8
OBJECT__23
10
7.966000
20
-17.407000
30
65.351997
70
192
0
VERTEX
8
OBJECT__23
10
7.966000
20
-6.282000
30
59.513000
70
192
0
VERTEX
8
OBJECT__23
10
14.850000
20
-8.978000
30
60.333000
70
192
0
VERTEX
8
OBJECT__23
10
14.850000
20
-16.872999
30
64.890999
70
192
0
VERTEX
8
OBJECT__23
10
14.850000
20
-17.320000
30
65.424004
70
192
0
VERTEX
8
OBJECT__23
10
14.850000
20
-22.733000
30
71.875000
70
192
0
VERTEX
8
OBJECT__23
10
7.966000
20
-24.544001
30
75.692001
70
192
0
VERTEX
8
OBJECT__23
10
7.966000
20
-26.059000
30
88.164001
70
192
0
VERTEX
8
OBJECT__23
10
14.850000
20
-25.851000
30
80.442001
70
192
0
VERTEX
8
OBJECT__23
10
14.850000
20
-24.172001
30
75.827003
70
192
0
VERTEX
8
OBJECT__23
10
14.850000
20
-25.851000
30
89.557999
70
192
0
VERTEX
8
OBJECT__23
10
14.850000
20
-22.733000
30
98.125000
70
192
0
VERTEX
8
OBJECT__23
10
7.966000
20
-21.603001
30
99.912003
70
192
0
VERTEX
8
OBJECT__23
10
14.850000
20
-25.851000
30
88.164001
70
192
0
VERTEX
8
OBJECT__23
10
14.850000
20
-21.386999
30
99.730003
70
192
0
VERTEX
8
OBJECT__23
10
14.850000
20
-16.872999
30
105.109001
70
192
0
VERTEX
8
OBJECT__23
10
7.966000
20
-12.199000
30
108.242996
70
192
0
VERTEX
8
OBJECT__23
10
14.850000
20
-8.978000
30
109.667000
70
192
0
VERTEX
8
OBJECT__23
10
14.850000
20
-12.010000
30
107.916000
70
192
0
VERTEX
8
OBJECT__23
10
0
20
0
30
0
70
128
71
1
72
2
73
3
0
VERTEX
8
OBJECT__23
10
0
20
0
30
0
70
128
71
3
72
4
73
1
0
VERTEX
8
OBJECT__23
10
0
20
0
30
0
70
128
71
5
72
4
73
6
0
VERTEX
8
OBJECT__23
10
0
20
0
30
0
70
128
71
4
72
7
73
6
0
VERTEX
8
OBJECT__23
10
0
20
0
30
0
70
128
71
8
72
5
73
9
0
VERTEX
8
OBJECT__23
10
0
20
0
30
0
70
128
71
9
72
10
73
8
0
VERTEX
8
OBJECT__23
10
0
20
0
30
0
70
128
71
5
72
11
73
9
0
VERTEX
8
OBJECT__23
10
0
20
0
30
0
70
128
71
8
72
12
73
13
0
VERTEX
8
OBJECT__23
10
0
20
0
30
0
70
128
71
13
72
14
73
8
0
VERTEX
8
OBJECT__23
10
0
20
0
30
0
70
128
71
15
72
14
73
16
0
VERTEX
8
OBJECT__23
10
0
20
0
30
0
70
128
71
14
72
17
73
16
0
VERTEX
8
OBJECT__23
10
0
20
0
30
0
70
128
71
15
72
18
73
19
0
VERTEX
8
OBJECT__23
10
0
20
0
30
0
70
128
71
19
72
20
73
15
0
VERTEX
8
OBJECT__23
10
0
20
0
30
0
70
128
71
15
72
21
73
18
0
VERTEX
8
OBJECT__23
10
0
20
0
30
0
70
128
71
22
72
23
73
24
0
VERTEX
8
OBJECT__23
10
0
20
0
30
0
70
128
71
22
72
20
73
25
0
VERTEX
8
OBJECT__23
10
0
20
0
30
0
70
128
71
25
72
23
73
22
0
VERTEX
8
OBJECT__23
10
0
20
0
30
0
70
128
71
26
72
27
73
28
0
VERTEX
8
OBJECT__23
10
0
20
0
30
0
70
128
71
28
72
29
73
26
0
VERTEX
8
OBJECT__23
10
0
20
0
30
0
70
128
71
27
72
24
73
28
0
VERTEX
8
OBJECT__23
10
0
20
0
30
0
70
128
71
26
72
30
73
31
0
VERTEX
8
OBJECT__23
10
0
20
0
30
0
70
128
71
31
72
32
73
26
0
VERTEX
8
OBJECT__23
10
0
20
0
30
0
70
128
71
33
72
32
73
34
0
VERTEX
8
OBJECT__23
10
0
20
0
30
0
70
128
71
32
72
35
73
34
0
VERTEX
8
OBJECT__23
10
0
20
0
30
0
70
128
71
33
72
36
73
37
0
VERTEX
8
OBJECT__23
10
0
20
0
30
0
70
128
71
37
72
38
73
33
0
VERTEX
8
OBJECT__23
10
0
20
0
30
0
70
128
71
33
72
39
73
36
0
VERTEX
8
OBJECT__23
10
0
20
0
30
0
70
128
71
38
72
40
73
41
0
VERTEX
8
OBJECT__23
10
0
20
0
30
0
70
128
71
41
72
42
73
38
0
VERTEX
8
OBJECT__23
10
0
20
0
30
0
70
128
71
1
72
42
73
43
0
VERTEX
8
OBJECT__23
10
0
20
0
30
0
70
128
71
42
72
44
73
43
0
VERTEX
8
OBJECT__23
10
0
20
0
30
0
70
128
71
43
72
2
73
1
0
VERTEX
8
OBJECT__23
10
0
20
0
30
0
70
128
71
41
72
44
73
42
0
VERTEX
8
OBJECT__23
10
0
20
0
30
0
70
128
71
37
72
40
73
38
0
VERTEX
8
OBJECT__23
10
0
20
0
30
0
70
128
71
34
72
39
73
33
0
VERTEX
8
OBJECT__23
10
0
20
0
30
0
70
128
71
31
72
35
73
32
0
VERTEX
8
OBJECT__23
10
0
20
0
30
0
70
128
71
29
72
30
73
26
0
VERTEX
8
OBJECT__23
10
0
20
0
30
0
70
128
71
24
72
27
73
22
0
VERTEX
8
OBJECT__23
10
0
20
0
30
0
70
128
71
19
72
25
73
20
0
VERTEX
8
OBJECT__23
10
0
20
0
30
0
70
128
71
16
72
21
73
15
0
VERTEX
8
OBJECT__23
10
0
20
0
30
0
70
128
71
13
72
17
73
14
0
VERTEX
8
OBJECT__23
10
0
20
0
30
0
70
128
71
10
72
12
73
8
0
VERTEX
8
OBJECT__23
10
0
20
0
30
0
70
128
71
6
72
11
73
5
0
VERTEX
8
OBJECT__23
10
0
20
0
30
0
70
128
71
3
72
7
73
4
0
SEQEND
8
OBJECT__23
0
POLYLINE
8
OBJECT__24
66
1
70
64
71
66
72
84
62
253
0
VERTEX
8
OBJECT__24
10
16.264000
20
0.000000
30
59.335999
70
192
0
VERTEX
8
OBJECT__24
10
14.850000
20
0.000000
30
58.750000
70
192
0
VERTEX
8
OBJECT__24
10
14.850000
20
6.223000
30
59.847000
70
192
0
VERTEX
8
OBJECT__24
10
16.264000
20
8.778000
30
60.883999
70
192
0
VERTEX
8
OBJECT__24
10
14.850000
20
8.978000
30
60.333000
70
192
0
VERTEX
8
OBJECT__24
10
14.850000
20
16.872999
30
64.890999
70
192
0
VERTEX
8
OBJECT__24
10
16.264000
20
16.497000
30
65.339996
70
192
0
VERTEX
8
OBJECT__24
10
16.264000
20
22.226000
30
72.167999
70
192
0
VERTEX
8
OBJECT__24
10
14.850000
20
17.320000
30
65.424004
70
192
0
VERTEX
8
OBJECT__24
10
16.264000
20
25.274000
30
80.542999
70
192
0
VERTEX
8
OBJECT__24
10
14.850000
20
24.172001
30
75.827003
70
192
0
VERTEX
8
OBJECT__24
10
14.850000
20
22.733000
30
71.875000
70
192
0
VERTEX
8
OBJECT__24
10
14.850000
20
25.851000
30
80.442001
70
192
0
VERTEX
8
OBJECT__24
10
14.850000
20
25.851000
30
88.164001
70
192
0
VERTEX
8
OBJECT__24
10
16.264000
20
25.274000
30
89.457001
70
192
0
VERTEX
8
OBJECT__24
10
14.850000
20
22.733000
30
98.125000
70
192
0
VERTEX
8
OBJECT__24
10
16.264000
20
22.226000
30
97.832001
70
192
0
VERTEX
8
OBJECT__24
10
16.264000
20
16.497000
30
104.660004
70
192
0
VERTEX
8
OBJECT__24
10
14.850000
20
21.386999
30
99.730003
70
192
0
VERTEX
8
OBJECT__24
10
14.850000
20
16.872999
30
105.109001
70
192
0
VERTEX
8
OBJECT__24
10
14.850000
20
12.010000
30
107.916000
70
192
0
VERTEX
8
OBJECT__24
10
16.264000
20
8.778000
30
109.116997
70
192
0
VERTEX
8
OBJECT__24
10
14.850000
20
0.000000
30
111.250000
70
192
0
VERTEX
8
OBJECT__24
10
16.264000
20
0.000000
30
110.664001
70
192
0
VERTEX
8
OBJECT__24
10
14.850000
20
-8.978000
30
109.667000
70
192
0
VERTEX
8
OBJECT__24
10
16.264000
20
-8.778000
30
109.116997
70
192
0
VERTEX
8
OBJECT__24
10
16.264000
20
-16.497000
30
104.660004
70
192
0
VERTEX
8
OBJECT__24
10
14.850000
20
-12.010000
30
107.916000
70
192
0
VERTEX
8
OBJECT__24
10
14.850000
20
-16.872999
30
105.109001
70
192
0
VERTEX
8
OBJECT__24
10
14.850000
20
-21.386999
30
99.730003
70
192
0
VERTEX
8
OBJECT__24
10
16.264000
20
-22.226000
30
97.832001
70
192
0
VERTEX
8
OBJECT__24
10
14.850000
20
-25.851000
30
89.557999
70
192
0
VERTEX
8
OBJECT__24
10
16.264000
20
-25.274000
30
89.457001
70
192
0
VERTEX
8
OBJECT__24
10
16.264000
20
-25.274000
30
80.542999
70
192
0
VERTEX
8
OBJECT__24
10
14.850000
20
-25.851000
30
88.164001
70
192
0
VERTEX
8
OBJECT__24
10
14.850000
20
-25.851000
30
80.442001
70
192
0
VERTEX
8
OBJECT__24
10
14.850000
20
-24.172001
30
75.827003
70
192
0
VERTEX
8
OBJECT__24
10
16.264000
20
-22.226000
30
72.167999
70
192
0
VERTEX
8
OBJECT__24
10
14.850000
20
-22.733000
30
71.875000
70
192
0
VERTEX
8
OBJECT__24
10
14.850000
20
-17.320000
30
65.424004
70
192
0
VERTEX
8
OBJECT__24
10
16.264000
20
-16.497000
30
65.339996
70
192
0
VERTEX
8
OBJECT__24
10
14.850000
20
-16.872999
30
64.890999
70
192
0
VERTEX
8
OBJECT__24
10
14.850000
20
-8.978000
30
60.333000
70
192
0
VERTEX
8
OBJECT__24
10
16.264000
20
-8.778000
30
60.883999
70
192
0
VERTEX
8
OBJECT__24
10
14.850000
20
-6.223000
30
59.847000
70
192
0
VERTEX
8
OBJECT__24
10
16.850000
20
8.294000
30
62.212002
70
192
0
VERTEX
8
OBJECT__24
10
16.850000
20
15.588000
30
66.422997
70
192
0
VERTEX
8
OBJECT__24
10
16.850000
20
21.000999
30
72.875000
70
192
0
VERTEX
8
OBJECT__24
10
16.850000
20
23.882000
30
80.789001
70
192
0
VERTEX
8
OBJECT__24
10
16.850000
20
23.882000
30
89.210999
70
192
0
VERTEX
8
OBJECT__24
10
16.850000
20
21.000999
30
97.125000
70
192
0
VERTEX
8
OBJECT__24
10
16.850000
20
15.588000
30
103.577003
70
192
0
VERTEX
8
OBJECT__24
10
16.850000
20
8.294000
30
107.788002
70
192
0
VERTEX
8
OBJECT__24
10
16.850000
20
0.000000
30
109.250000
70
192
0
VERTEX
8
OBJECT__24
10
16.850000
20
-8.294000
30
107.788002
70
192
0
VERTEX
8
OBJECT__24
10
16.850000
20
-15.588000
30
103.577003
70
192
0
VERTEX
8
OBJECT__24
10
16.850000
20
-21.000999
30
97.125000
70
192
0
VERTEX
8
OBJECT__24
10
16.850000
20
-23.882000
30
89.210999
70
192
0
VERTEX
8
OBJECT__24
10
16.850000
20
-23.882000
30
80.789001
70
192
0
VERTEX
8
OBJECT__24
10
16.850000
20
-21.000999
30
72.875000
70
192
0
VERTEX
8
OBJECT__24
10
16.850000
20
-15.588000
30
66.422997
70
192
0
VERTEX
8
OBJECT__24
10
16.850000
20
-8.294000
30
62.212002
70
192
0
VERTEX
8
OBJECT__24
10
16.850000
20
0.000000
30
60.750000
70
192
0
VERTEX
8
OBJECT__24
10
14.850000
20
-22.733000
30
98.125000
70
192
0
VERTEX
8
OBJECT__24
10
14.850000
20
8.978000
30
109.667000
70
192
0
VERTEX
8
OBJECT__24
10
14.850000
20
25.851000
30
89.557999
70
192
0
VERTEX
8
OBJECT__24
10
0
20
0
30
0
70
128
71
1
72
2
73
3
0
VERTEX
8
OBJECT__24
10
0
20
0
30
0
70
128
71
3
72
4
73
1
0
VERTEX
8
OBJECT__24
10
0
20
0
30
0
70
128
71
5
72
6
73
7
0
VERTEX
8
OBJECT__24
10
0
20
0
30
0
70
128
71
8
72
7
73
9
0
VERTEX
8
OBJECT__24
10
0
20
0
30
0
70
128
71
7
72
6
73
9
0
VERTEX
8
OBJECT__24
10
0
20
0
30
0
70
128
71
10
72
8
73
11
0
VERTEX
8
OBJECT__24
10
0
20
0
30
0
70
128
71
8
72
12
73
11
0
VERTEX
8
OBJECT__24
10
0
20
0
30
0
70
128
71
10
72
13
73
14
0
VERTEX
8
OBJECT__24
10
0
20
0
30
0
70
128
71
14
72
15
73
10
0
VERTEX
8
OBJECT__24
10
0
20
0
30
0
70
128
71
16
72
17
73
15
0
VERTEX
8
OBJECT__24
10
0
20
0
30
0
70
128
71
18
72
17
73
19
0
VERTEX
8
OBJECT__24
10
0
20
0
30
0
70
128
71
17
72
16
73
19
0
VERTEX
8
OBJECT__24
10
0
20
0
30
0
70
128
71
18
72
20
73
21
0
VERTEX
8
OBJECT__24
10
0
20
0
30
0
70
128
71
21
72
22
73
18
0
VERTEX
8
OBJECT__24
10
0
20
0
30
0
70
128
71
23
72
24
73
22
0
VERTEX
8
OBJECT__24
10
0
20
0
30
0
70
128
71
25
72
26
73
24
0
VERTEX
8
OBJECT__24
10
0
20
0
30
0
70
128
71
27
72
26
73
28
0
VERTEX
8
OBJECT__24
10
0
20
0
30
0
70
128
71
26
72
25
73
28
0
VERTEX
8
OBJECT__24
10
0
20
0
30
0
70
128
71
27
72
29
73
30
0
VERTEX
8
OBJECT__24
10
0
20
0
30
0
70
128
71
30
72
31
73
27
0
VERTEX
8
OBJECT__24
10
0
20
0
30
0
70
128
71
32
72
33
73
31
0
VERTEX
8
OBJECT__24
10
0
20
0
30
0
70
128
71
34
72
33
73
35
0
VERTEX
8
OBJECT__24
10
0
20
0
30
0
70
128
71
33
72
32
73
35
0
VERTEX
8
OBJECT__24
10
0
20
0
30
0
70
128
71
34
72
36
73
37
0
VERTEX
8
OBJECT__24
10
0
20
0
30
0
70
128
71
37
72
38
73
34
0
VERTEX
8
OBJECT__24
10
0
20
0
30
0
70
128
71
38
72
39
73
40
0
VERTEX
8
OBJECT__24
10
0
20
0
30
0
70
128
71
40
72
41
73
38
0
VERTEX
8
OBJECT__24
10
0
20
0
30
0
70
128
71
42
72
43
73
44
0
VERTEX
8
OBJECT__24
10
0
20
0
30
0
70
128
71
1
72
44
73
45
0
VERTEX
8
OBJECT__24
10
0
20
0
30
0
70
128
71
44
72
43
73
45
0
VERTEX
8
OBJECT__24
10
0
20
0
30
0
70
128
71
1
72
4
73
46
0
VERTEX
8
OBJECT__24
10
0
20
0
30
0
70
128
71
4
72
7
73
47
0
VERTEX
8
OBJECT__24
10
0
20
0
30
0
70
128
71
7
72
8
73
48
0
VERTEX
8
OBJECT__24
10
0
20
0
30
0
70
128
71
8
72
10
73
49
0
VERTEX
8
OBJECT__24
10
0
20
0
30
0
70
128
71
10
72
15
73
50
0
VERTEX
8
OBJECT__24
10
0
20
0
30
0
70
128
71
17
72
51
73
50
0
VERTEX
8
OBJECT__24
10
0
20
0
30
0
70
128
71
18
72
52
73
51
0
VERTEX
8
OBJECT__24
10
0
20
0
30
0
70
128
71
22
72
53
73
52
0
VERTEX
8
OBJECT__24
10
0
20
0
30
0
70
128
71
24
72
54
73
53
0
VERTEX
8
OBJECT__24
10
0
20
0
30
0
70
128
71
24
72
26
73
55
0
VERTEX
8
OBJECT__24
10
0
20
0
30
0
70
128
71
26
72
27
73
56
0
VERTEX
8
OBJECT__24
10
0
20
0
30
0
70
128
71
31
72
57
73
56
0
VERTEX
8
OBJECT__24
10
0
20
0
30
0
70
128
71
33
72
58
73
57
0
VERTEX
8
OBJECT__24
10
0
20
0
30
0
70
128
71
33
72
34
73
59
0
VERTEX
8
OBJECT__24
10
0
20
0
30
0
70
128
71
38
72
60
73
59
0
VERTEX
8
OBJECT__24
10
0
20
0
30
0
70
128
71
41
72
61
73
60
0
VERTEX
8
OBJECT__24
10
0
20
0
30
0
70
128
71
41
72
44
73
62
0
VERTEX
8
OBJECT__24
10
0
20
0
30
0
70
128
71
1
72
63
73
62
0
VERTEX
8
OBJECT__24
10
0
20
0
30
0
70
128
71
62
72
44
73
1
0
VERTEX
8
OBJECT__24
10
0
20
0
30
0
70
128
71
62
72
61
73
41
0
VERTEX
8
OBJECT__24
10
0
20
0
30
0
70
128
71
60
72
38
73
41
0
VERTEX
8
OBJECT__24
10
0
20
0
30
0
70
128
71
59
72
34
73
38
0
VERTEX
8
OBJECT__24
10
0
20
0
30
0
70
128
71
59
72
58
73
33
0
VERTEX
8
OBJECT__24
10
0
20
0
30
0
70
128
71
57
72
31
73
33
0
VERTEX
8
OBJECT__24
10
0
20
0
30
0
70
128
71
56
72
27
73
31
0
VERTEX
8
OBJECT__24
10
0
20
0
30
0
70
128
71
56
72
55
73
26
0
VERTEX
8
OBJECT__24
10
0
20
0
30
0
70
128
71
55
72
54
73
24
0
VERTEX
8
OBJECT__24
10
0
20
0
30
0
70
128
71
53
72
22
73
24
0
VERTEX
8
OBJECT__24
10
0
20
0
30
0
70
128
71
52
72
18
73
22
0
VERTEX
8
OBJECT__24
10
0
20
0
30
0
70
128
71
51
72
17
73
18
0
VERTEX
8
OBJECT__24
10
0
20
0
30
0
70
128
71
50
72
15
73
17
0
VERTEX
8
OBJECT__24
10
0
20
0
30
0
70
128
71
50
72
49
73
10
0
VERTEX
8
OBJECT__24
10
0
20
0
30
0
70
128
71
49
72
48
73
8
0
VERTEX
8
OBJECT__24
10
0
20
0
30
0
70
128
71
48
72
47
73
7
0
VERTEX
8
OBJECT__24
10
0
20
0
30
0
70
128
71
47
72
46
73
4
0
VERTEX
8
OBJECT__24
10
0
20
0
30
0
70
128
71
46
72
63
73
1
0
VERTEX
8
OBJECT__24
10
0
20
0
30
0
70
128
71
45
72
2
73
1
0
VERTEX
8
OBJECT__24
10
0
20
0
30
0
70
128
71
44
72
41
73
42
0
VERTEX
8
OBJECT__24
10
0
20
0
30
0
70
128
71
40
72
42
73
41
0
VERTEX
8
OBJECT__24
10
0
20
0
30
0
70
128
71
37
72
39
73
38
0
VERTEX
8
OBJECT__24
10
0
20
0
30
0
70
128
71
35
72
36
73
34
0
VERTEX
8
OBJECT__24
10
0
20
0
30
0
70
128
71
31
72
64
73
32
0
VERTEX
8
OBJECT__24
10
0
20
0
30
0
70
128
71
30
72
64
73
31
0
VERTEX
8
OBJECT__24
10
0
20
0
30
0
70
128
71
28
72
29
73
27
0
VERTEX
8
OBJECT__24
10
0
20
0
30
0
70
128
71
24
72
23
73
25
0
VERTEX
8
OBJECT__24
10
0
20
0
30
0
70
128
71
22
72
65
73
23
0
VERTEX
8
OBJECT__24
10
0
20
0
30
0
70
128
71
21
72
65
73
22
0
VERTEX
8
OBJECT__24
10
0
20
0
30
0
70
128
71
19
72
20
73
18
0
VERTEX
8
OBJECT__24
10
0
20
0
30
0
70
128
71
15
72
66
73
16
0
VERTEX
8
OBJECT__24
10
0
20
0
30
0
70
128
71
14
72
66
73
15
0
VERTEX
8
OBJECT__24
10
0
20
0
30
0
70
128
71
11
72
13
73
10
0
VERTEX
8
OBJECT__24
10
0
20
0
30
0
70
128
71
9
72
12
73
8
0
VERTEX
8
OBJECT__24
10
0
20
0
30
0
70
128
71
7
72
4
73
5
0
VERTEX
8
OBJECT__24
10
0
20
0
30
0
70
128
71
3
72
5
73
4
0
SEQEND
8
OBJECT__24
0
POLYLINE
8
OBJECT__26
66
1
70
64
71
18
72
16
62
253
0
VERTEX
8
OBJECT__26
10
16.850000
20
-15.588000
30
66.422997
70
192
0
VERTEX
8
OBJECT__26
10
16.850000
20
-23.882000
30
89.210999
70
192
0
VERTEX
8
OBJECT__26
10
16.850000
20
-23.882000
30
80.789001
70
192
0
VERTEX
8
OBJECT__26
10
16.850000
20
-15.588000
30
103.577003
70
192
0
VERTEX
8
OBJECT__26
10
16.850000
20
-21.000999
30
97.125000
70
192
0
VERTEX
8
OBJECT__26
10
16.850000
20
15.588000
30
66.422997
70
192
0
VERTEX
8
OBJECT__26
10
16.850000
20
-8.294000
30
62.212002
70
192
0
VERTEX
8
OBJECT__26
10
16.850000
20
0.000000
30
60.750000
70
192
0
VERTEX
8
OBJECT__26
10
16.850000
20
0.000000
30
109.250000
70
192
0
VERTEX
8
OBJECT__26
10
16.850000
20
-8.294000
30
107.788002
70
192
0
VERTEX
8
OBJECT__26
10
16.850000
20
23.882000
30
89.210999
70
192
0
VERTEX
8
OBJECT__26
10
16.850000
20
21.000999
30
97.125000
70
192
0
VERTEX
8
OBJECT__26
10
16.850000
20
21.000999
30
72.875000
70
192
0
VERTEX
8
OBJECT__26
10
16.850000
20
23.882000
30
80.789001
70
192
0
VERTEX
8
OBJECT__26
10
16.850000
20
15.588000
30
103.577003
70
192
0
VERTEX
8
OBJECT__26
10
16.850000
20
8.294000
30
107.788002
70
192
0
VERTEX
8
OBJECT__26
10
16.850000
20
8.294000
30
62.212002
70
192
0
VERTEX
8
OBJECT__26
10
16.850000
20
-21.000999
30
72.875000
70
192
0
VERTEX
8
OBJECT__26
10
0
20
0
30
0
70
128
71
1
72
2
73
3
0
VERTEX
8
OBJECT__26
10
0
20
0
30
0
70
128
71
1
72
4
73
5
0
VERTEX
8
OBJECT__26
10
0
20
0
30
0
70
128
71
6
72
7
73
8
0
VERTEX
8
OBJECT__26
10
0
20
0
30
0
70
128
71
5
72
2
73
1
0
VERTEX
8
OBJECT__26
10
0
20
0
30
0
70
128
71
1
72
9
73
10
0
VERTEX
8
OBJECT__26
10
0
20
0
30
0
70
128
71
1
72
11
73
12
0
VERTEX
8
OBJECT__26
10
0
20
0
30
0
70
128
71
1
72
13
73
14
0
VERTEX
8
OBJECT__26
10
0
20
0
30
0
70
128
71
6
72
1
73
7
0
VERTEX
8
OBJECT__26
10
0
20
0
30
0
70
128
71
10
72
4
73
1
0
VERTEX
8
OBJECT__26
10
0
20
0
30
0
70
128
71
1
72
15
73
16
0
VERTEX
8
OBJECT__26
10
0
20
0
30
0
70
128
71
14
72
11
73
1
0
VERTEX
8
OBJECT__26
10
0
20
0
30
0
70
128
71
8
72
17
73
6
0
VERTEX
8
OBJECT__26
10
0
20
0
30
0
70
128
71
16
72
9
73
1
0
VERTEX
8
OBJECT__26
10
0
20
0
30
0
70
128
71
6
72
13
73
1
0
VERTEX
8
OBJECT__26
10
0
20
0
30
0
70
128
71
12
72
15
73
1
0
VERTEX
8
OBJECT__26
10
0
20
0
30
0
70
128
71
3
72
18
73
1
0
SEQEND
8
OBJECT__26
0
POLYLINE
8
OBJECT__27
66
1
70
64
71
44
72
44
62
253
0
VERTEX
8
OBJECT__27
10
7.916000
20
0.000000
30
-26.250000
70
192
0
VERTEX
8
OBJECT__27
10
14.800000
20
0.000000
30
-26.250000
70
192
0
VERTEX
8
OBJECT__27
10
14.800000
20
-8.978000
30
-24.667000
70
192
0
VERTEX
8
OBJECT__27
10
7.916000
20
-12.199000
30
-23.243000
70
192
0
VERTEX
8
OBJECT__27
10
7.916000
20
-21.603001
30
-14.912000
70
192
0
VERTEX
8
OBJECT__27
10
14.800000
20
-16.872999
30
-20.108999
70
192
0
VERTEX
8
OBJECT__27
10
14.800000
20
-12.010000
30
-22.916000
70
192
0
VERTEX
8
OBJECT__27
10
7.916000
20
-26.059000
30
-3.164000
70
192
0
VERTEX
8
OBJECT__27
10
14.800000
20
-22.733000
30
-13.125000
70
192
0
VERTEX
8
OBJECT__27
10
14.800000
20
-25.851000
30
-4.558000
70
192
0
VERTEX
8
OBJECT__27
10
14.800000
20
-21.386999
30
-14.730000
70
192
0
VERTEX
8
OBJECT__27
10
14.800000
20
-25.851000
30
-3.164000
70
192
0
VERTEX
8
OBJECT__27
10
14.800000
20
-25.851000
30
4.558000
70
192
0
VERTEX
8
OBJECT__27
10
7.916000
20
-24.544001
30
9.308000
70
192
0
VERTEX
8
OBJECT__27
10
7.916000
20
-17.407000
30
19.648001
70
192
0
VERTEX
8
OBJECT__27
10
14.800000
20
-22.733000
30
13.125000
70
192
0
VERTEX
8
OBJECT__27
10
14.800000
20
-24.172001
30
9.173000
70
192
0
VERTEX
8
OBJECT__27
10
14.800000
20
-16.872999
30
20.108999
70
192
0
VERTEX
8
OBJECT__27
10
14.800000
20
-8.978000
30
24.667000
70
192
0
VERTEX
8
OBJECT__27
10
14.800000
20
-17.320000
30
19.576000
70
192
0
VERTEX
8
OBJECT__27
10
7.916000
20
-6.282000
30
25.487000
70
192
0
VERTEX
8
OBJECT__27
10
7.916000
20
0.000000
30
26.250000
70
192
0
VERTEX
8
OBJECT__27
10
14.800000
20
0.000000
30
26.250000
70
192
0
VERTEX
8
OBJECT__27
10
14.800000
20
6.223000
30
25.153000
70
192
0
VERTEX
8
OBJECT__27
10
14.800000
20
-6.223000
30
25.153000
70
192
0
VERTEX
8
OBJECT__27
10
7.916000
20
17.407000
30
19.648001
70
192
0
VERTEX
8
OBJECT__27
10
7.916000
20
6.282000
30
25.487000
70
192
0
VERTEX
8
OBJECT__27
10
14.800000
20
8.978000
30
24.667000
70
192
0
VERTEX
8
OBJECT__27
10
14.800000
20
16.872999
30
20.108999
70
192
0
VERTEX
8
OBJECT__27
10
14.800000
20
17.320000
30
19.576000
70
192
0
VERTEX
8
OBJECT__27
10
14.800000
20
22.733000
30
13.125000
70
192
0
VERTEX
8
OBJECT__27
10
7.916000
20
24.544001
30
9.308000
70
192
0
VERTEX
8
OBJECT__27
10
7.916000
20
26.059000
30
-3.164000
70
192
0
VERTEX
8
OBJECT__27
10
14.800000
20
25.851000
30
4.558000
70
192
0
VERTEX
8
OBJECT__27
10
14.800000
20
24.172001
30
9.173000
70
192
0
VERTEX
8
OBJECT__27
10
14.800000
20
25.851000
30
-4.558000
70
192
0
VERTEX
8
OBJECT__27
10
14.800000
20
22.733000
30
-13.125000
70
192
0
VERTEX
8
OBJECT__27
10
7.916000
20
21.603001
30
-14.912000
70
192
0
VERTEX
8
OBJECT__27
10
14.800000
20
25.851000
30
-3.164000
70
192
0
VERTEX
8
OBJECT__27
10
14.800000
20
21.386999
30
-14.730000
70
192
0
VERTEX
8
OBJECT__27
10
14.800000
20
16.872999
30
-20.108999
70
192
0
VERTEX
8
OBJECT__27
10
7.916000
20
12.199000
30
-23.243000
70
192
0
VERTEX
8
OBJECT__27
10
14.800000
20
8.978000
30
-24.667000
70
192
0
VERTEX
8
OBJECT__27
10
14.800000
20
12.010000
30
-22.916000
70
192
0
VERTEX
8
OBJECT__27
10
0
20
0
30
0
70
128
71
1
72
2
73
3
0
VERTEX
8
OBJECT__27
10
0
20
0
30
0
70
128
71
3
72
4
73
1
0
VERTEX
8
OBJECT__27
10
0
20
0
30
0
70
128
71
5
72
4
73
6
0
VERTEX
8
OBJECT__27
10
0
20
0
30
0
70
128
71
4
72
7
73
6
0
VERTEX
8
OBJECT__27
10
0
20
0
30
0
70
128
71
8
72
5
73
9
0
VERTEX
8
OBJECT__27
10
0
20
0
30
0
70
128
71
9
72
10
73
8
0
VERTEX
8
OBJECT__27
10
0
20
0
30
0
70
128
71
5
72
11
73
9
0
VERTEX
8
OBJECT__27
10
0
20
0
30
0
70
128
71
8
72
12
73
13
0
VERTEX
8
OBJECT__27
10
0
20
0
30
0
70
128
71
13
72
14
73
8
0
VERTEX
8
OBJECT__27
10
0
20
0
30
0
70
128
71
15
72
14
73
16
0
VERTEX
8
OBJECT__27
10
0
20
0
30
0
70
128
71
14
72
17
73
16
0
VERTEX
8
OBJECT__27
10
0
20
0
30
0
70
128
71
15
72
18
73
19
0
VERTEX
8
OBJECT__27
10
0
20
0
30
0
70
128
71
15
72
20
73
18
0
VERTEX
8
OBJECT__27
10
0
20
0
30
0
70
128
71
19
72
21
73
15
0
VERTEX
8
OBJECT__27
10
0
20
0
30
0
70
128
71
22
72
23
73
24
0
VERTEX
8
OBJECT__27
10
0
20
0
30
0
70
128
71
22
72
21
73
25
0
VERTEX
8
OBJECT__27
10
0
20
0
30
0
70
128
71
25
72
23
73
22
0
VERTEX
8
OBJECT__27
10
0
20
0
30
0
70
128
71
26
72
27
73
28
0
VERTEX
8
OBJECT__27
10
0
20
0
30
0
70
128
71
28
72
29
73
26
0
VERTEX
8
OBJECT__27
10
0
20
0
30
0
70
128
71
27
72
24
73
28
0
VERTEX
8
OBJECT__27
10
0
20
0
30
0
70
128
71
26
72
30
73
31
0
VERTEX
8
OBJECT__27
10
0
20
0
30
0
70
128
71
31
72
32
73
26
0
VERTEX
8
OBJECT__27
10
0
20
0
30
0
70
128
71
33
72
32
73
34
0
VERTEX
8
OBJECT__27
10
0
20
0
30
0
70
128
71
32
72
35
73
34
0
VERTEX
8
OBJECT__27
10
0
20
0
30
0
70
128
71
33
72
36
73
37
0
VERTEX
8
OBJECT__27
10
0
20
0
30
0
70
128
71
37
72
38
73
33
0
VERTEX
8
OBJECT__27
10
0
20
0
30
0
70
128
71
33
72
39
73
36
0
VERTEX
8
OBJECT__27
10
0
20
0
30
0
70
128
71
38
72
40
73
41
0
VERTEX
8
OBJECT__27
10
0
20
0
30
0
70
128
71
41
72
42
73
38
0
VERTEX
8
OBJECT__27
10
0
20
0
30
0
70
128
71
1
72
42
73
43
0
VERTEX
8
OBJECT__27
10
0
20
0
30
0
70
128
71
42
72
44
73
43
0
VERTEX
8
OBJECT__27
10
0
20
0
30
0
70
128
71
43
72
2
73
1
0
VERTEX
8
OBJECT__27
10
0
20
0
30
0
70
128
71
41
72
44
73
42
0
VERTEX
8
OBJECT__27
10
0
20
0
30
0
70
128
71
37
72
40
73
38
0
VERTEX
8
OBJECT__27
10
0
20
0
30
0
70
128
71
34
72
39
73
33
0
VERTEX
8
OBJECT__27
10
0
20
0
30
0
70
128
71
31
72
35
73
32
0
VERTEX
8
OBJECT__27
10
0
20
0
30
0
70
128
71
29
72
30
73
26
0
VERTEX
8
OBJECT__27
10
0
20
0
30
0
70
128
71
24
72
27
73
22
0
VERTEX
8
OBJECT__27
10
0
20
0
30
0
70
128
71
19
72
25
73
21
0
VERTEX
8
OBJECT__27
10
0
20
0
30
0
70
128
71
16
72
20
73
15
0
VERTEX
8
OBJECT__27
10
0
20
0
30
0
70
128
71
13
72
17
73
14
0
VERTEX
8
OBJECT__27
10
0
20
0
30
0
70
128
71
10
72
12
73
8
0
VERTEX
8
OBJECT__27
10
0
20
0
30
0
70
128
71
6
72
11
73
5
0
VERTEX
8
OBJECT__27
10
0
20
0
30
0
70
128
71
3
72
7
73
4
0
SEQEND
8
OBJECT__27
0
POLYLINE
8
OBJECT__28
66
1
70
64
71
66
72
84
62
253
0
VERTEX
8
OBJECT__28
10
16.214001
20
0.000000
30
25.664000
70
192
0
VERTEX
8
OBJECT__28
10
14.800000
20
0.000000
30
26.250000
70
192
0
VERTEX
8
OBJECT__28
10
14.800000
20
-6.223000
30
25.153000
70
192
0
VERTEX
8
OBJECT__28
10
16.214001
20
-8.778000
30
24.115999
70
192
0
VERTEX
8
OBJECT__28
10
14.800000
20
-16.872999
30
20.108999
70
192
0
VERTEX
8
OBJECT__28
10
16.214001
20
-16.497000
30
19.660000
70
192
0
VERTEX
8
OBJECT__28
10
16.214001
20
-22.226000
30
12.832000
70
192
0
VERTEX
8
OBJECT__28
10
14.800000
20
-17.320000
30
19.576000
70
192
0
VERTEX
8
OBJECT__28
10
16.214001
20
-25.274000
30
4.457000
70
192
0
VERTEX
8
OBJECT__28
10
14.800000
20
-24.172001
30
9.173000
70
192
0
VERTEX
8
OBJECT__28
10
14.800000
20
-22.733000
30
13.125000
70
192
0
VERTEX
8
OBJECT__28
10
14.800000
20
-25.851000
30
4.558000
70
192
0
VERTEX
8
OBJECT__28
10
14.800000
20
-25.851000
30
-3.164000
70
192
0
VERTEX
8
OBJECT__28
10
16.214001
20
-25.274000
30
-4.457000
70
192
0
VERTEX
8
OBJECT__28
10
14.800000
20
-22.733000
30
-13.125000
70
192
0
VERTEX
8
OBJECT__28
10
16.214001
20
-22.226000
30
-12.832000
70
192
0
VERTEX
8
OBJECT__28
10
16.214001
20
-16.497000
30
-19.660000
70
192
0
VERTEX
8
OBJECT__28
10
14.800000
20
-21.386999
30
-14.730000
70
192
0
VERTEX
8
OBJECT__28
10
14.800000
20
-16.872999
30
-20.108999
70
192
0
VERTEX
8
OBJECT__28
10
14.800000
20
-12.010000
30
-22.916000
70
192
0
VERTEX
8
OBJECT__28
10
16.214001
20
-8.778000
30
-24.115999
70
192
0
VERTEX
8
OBJECT__28
10
14.800000
20
0.000000
30
-26.250000
70
192
0
VERTEX
8
OBJECT__28
10
16.214001
20
0.000000
30
-25.664000
70
192
0
VERTEX
8
OBJECT__28
10
14.800000
20
8.978000
30
-24.667000
70
192
0
VERTEX
8
OBJECT__28
10
16.214001
20
8.778000
30
-24.115999
70
192
0
VERTEX
8
OBJECT__28
10
16.214001
20
16.497000
30
-19.660000
70
192
0
VERTEX
8
OBJECT__28
10
14.800000
20
12.010000
30
-22.916000
70
192
0
VERTEX
8
OBJECT__28
10
14.800000
20
16.872999
30
-20.108999
70
192
0
VERTEX
8
OBJECT__28
10
14.800000
20
21.386999
30
-14.730000
70
192
0
VERTEX
8
OBJECT__28
10
16.214001
20
22.226000
30
-12.832000
70
192
0
VERTEX
8
OBJECT__28
10
14.800000
20
25.851000
30
-4.558000
70
192
0
VERTEX
8
OBJECT__28
10
16.214001
20
25.274000
30
-4.457000
70
192
0
VERTEX
8
OBJECT__28
10
16.214001
20
25.274000
30
4.457000
70
192
0
VERTEX
8
OBJECT__28
10
14.800000
20
25.851000
30
-3.164000
70
192
0
VERTEX
8
OBJECT__28
10
14.800000
20
25.851000
30
4.558000
70
192
0
VERTEX
8
OBJECT__28
10
14.800000
20
24.172001
30
9.173000
70
192
0
VERTEX
8
OBJECT__28
10
16.214001
20
22.226000
30
12.832000
70
192
0
VERTEX
8
OBJECT__28
10
14.800000
20
22.733000
30
13.125000
70
192
0
VERTEX
8
OBJECT__28
10
14.800000
20
17.320000
30
19.576000
70
192
0
VERTEX
8
OBJECT__28
10
16.214001
20
16.497000
30
19.660000
70
192
0
VERTEX
8
OBJECT__28
10
14.800000
20
8.978000
30
24.667000
70
192
0
VERTEX
8
OBJECT__28
10
16.214001
20
8.778000
30
24.115999
70
192
0
VERTEX
8
OBJECT__28
10
14.800000
20
6.223000
30
25.153000
70
192
0
VERTEX
8
OBJECT__28
10
16.799999
20
-8.294000
30
22.788000
70
192
0
VERTEX
8
OBJECT__28
10
16.799999
20
-15.588000
30
18.577000
70
192
0
VERTEX
8
OBJECT__28
10
16.799999
20
-21.000999
30
12.125000
70
192
0
VERTEX
8
OBJECT__28
10
16.799999
20
-23.882000
30
4.211000
70
192
0
VERTEX
8
OBJECT__28
10
16.799999
20
-23.882000
30
-4.211000
70
192
0
VERTEX
8
OBJECT__28
10
16.799999
20
-21.000999
30
-12.125000
70
192
0
VERTEX
8
OBJECT__28
10
16.799999
20
-15.588000
30
-18.577000
70
192
0
VERTEX
8
OBJECT__28
10
16.799999
20
-8.294000
30
-22.788000
70
192
0
VERTEX
8
OBJECT__28
10
16.799999
20
0.000000
30
-24.250000
70
192
0
VERTEX
8
OBJECT__28
10
16.799999
20
8.294000
30
-22.788000
70
192
0
VERTEX
8
OBJECT__28
10
16.799999
20
15.588000
30
-18.577000
70
192
0
VERTEX
8
OBJECT__28
10
16.799999
20
21.000999
30
-12.125000
70
192
0
VERTEX
8
OBJECT__28
10
16.799999
20
23.882000
30
-4.211000
70
192
0
VERTEX
8
OBJECT__28
10
16.799999
20
23.882000
30
4.211000
70
192
0
VERTEX
8
OBJECT__28
10
16.799999
20
21.000999
30
12.125000
70
192
0
VERTEX
8
OBJECT__28
10
16.799999
20
15.588000
30
18.577000
70
192
0
VERTEX
8
OBJECT__28
10
16.799999
20
8.294000
30
22.788000
70
192
0
VERTEX
8
OBJECT__28
10
16.799999
20
0.000000
30
24.250000
70
192
0
VERTEX
8
OBJECT__28
10
14.800000
20
16.872999
30
20.108999
70
192
0
VERTEX
8
OBJECT__28
10
14.800000
20
22.733000
30
-13.125000
70
192
0
VERTEX
8
OBJECT__28
10
14.800000
20
-8.978000
30
-24.667000
70
192
0
VERTEX
8
OBJECT__28
10
14.800000
20
-25.851000
30
-4.558000
70
192
0
VERTEX
8
OBJECT__28
10
14.800000
20
-8.978000
30
24.667000
70
192
0
VERTEX
8
OBJECT__28
10
0
20
0
30
0
70
128
71
1
72
2
73
3
0
VERTEX
8
OBJECT__28
10
0
20
0
30
0
70
128
71
3
72
4
73
1
0
VERTEX
8
OBJECT__28
10
0
20
0
30
0
70
128
71
5
72
6
73
4
0
VERTEX
8
OBJECT__28
10
0
20
0
30
0
70
128
71
7
72
6
73
8
0
VERTEX
8
OBJECT__28
10
0
20
0
30
0
70
128
71
6
72
5
73
8
0
VERTEX
8
OBJECT__28
10
0
20
0
30
0
70
128
71
9
72
7
73
10
0
VERTEX
8
OBJECT__28
10
0
20
0
30
0
70
128
71
7
72
11
73
10
0
VERTEX
8
OBJECT__28
10
0
20
0
30
0
70
128
71
9
72
12
73
13
0
VERTEX
8
OBJECT__28
10
0
20
0
30
0
70
128
71
13
72
14
73
9
0
VERTEX
8
OBJECT__28
10
0
20
0
30
0
70
128
71
15
72
16
73
14
0
VERTEX
8
OBJECT__28
10
0
20
0
30
0
70
128
71
17
72
16
73
18
0
VERTEX
8
OBJECT__28
10
0
20
0
30
0
70
128
71
16
72
15
73
18
0
VERTEX
8
OBJECT__28
10
0
20
0
30
0
70
128
71
17
72
19
73
20
0
VERTEX
8
OBJECT__28
10
0
20
0
30
0
70
128
71
20
72
21
73
17
0
VERTEX
8
OBJECT__28
10
0
20
0
30
0
70
128
71
22
72
23
73
21
0
VERTEX
8
OBJECT__28
10
0
20
0
30
0
70
128
71
22
72
24
73
25
0
VERTEX
8
OBJECT__28
10
0
20
0
30
0
70
128
71
26
72
25
73
27
0
VERTEX
8
OBJECT__28
10
0
20
0
30
0
70
128
71
25
72
24
73
27
0
VERTEX
8
OBJECT__28
10
0
20
0
30
0
70
128
71
26
72
28
73
29
0
VERTEX
8
OBJECT__28
10
0
20
0
30
0
70
128
71
29
72
30
73
26
0
VERTEX
8
OBJECT__28
10
0
20
0
30
0
70
128
71
31
72
32
73
30
0
VERTEX
8
OBJECT__28
10
0
20
0
30
0
70
128
71
33
72
32
73
34
0
VERTEX
8
OBJECT__28
10
0
20
0
30
0
70
128
71
32
72
31
73
34
0
VERTEX
8
OBJECT__28
10
0
20
0
30
0
70
128
71
33
72
35
73
36
0
VERTEX
8
OBJECT__28
10
0
20
0
30
0
70
128
71
36
72
37
73
33
0
VERTEX
8
OBJECT__28
10
0
20
0
30
0
70
128
71
37
72
38
73
39
0
VERTEX
8
OBJECT__28
10
0
20
0
30
0
70
128
71
39
72
40
73
37
0
VERTEX
8
OBJECT__28
10
0
20
0
30
0
70
128
71
41
72
42
73
40
0
VERTEX
8
OBJECT__28
10
0
20
0
30
0
70
128
71
1
72
42
73
43
0
VERTEX
8
OBJECT__28
10
0
20
0
30
0
70
128
71
42
72
41
73
43
0
VERTEX
8
OBJECT__28
10
0
20
0
30
0
70
128
71
1
72
4
73
44
0
VERTEX
8
OBJECT__28
10
0
20
0
30
0
70
128
71
4
72
6
73
45
0
VERTEX
8
OBJECT__28
10
0
20
0
30
0
70
128
71
6
72
7
73
46
0
VERTEX
8
OBJECT__28
10
0
20
0
30
0
70
128
71
7
72
9
73
47
0
VERTEX
8
OBJECT__28
10
0
20
0
30
0
70
128
71
9
72
14
73
48
0
VERTEX
8
OBJECT__28
10
0
20
0
30
0
70
128
71
14
72
16
73
49
0
VERTEX
8
OBJECT__28
10
0
20
0
30
0
70
128
71
16
72
17
73
50
0
VERTEX
8
OBJECT__28
10
0
20
0
30
0
70
128
71
21
72
51
73
50
0
VERTEX
8
OBJECT__28
10
0
20
0
30
0
70
128
71
23
72
52
73
51
0
VERTEX
8
OBJECT__28
10
0
20
0
30
0
70
128
71
25
72
53
73
52
0
VERTEX
8
OBJECT__28
10
0
20
0
30
0
70
128
71
26
72
54
73
53
0
VERTEX
8
OBJECT__28
10
0
20
0
30
0
70
128
71
26
72
30
73
55
0
VERTEX
8
OBJECT__28
10
0
20
0
30
0
70
128
71
30
72
32
73
56
0
VERTEX
8
OBJECT__28
10
0
20
0
30
0
70
128
71
32
72
33
73
57
0
VERTEX
8
OBJECT__28
10
0
20
0
30
0
70
128
71
33
72
37
73
58
0
VERTEX
8
OBJECT__28
10
0
20
0
30
0
70
128
71
37
72
40
73
59
0
VERTEX
8
OBJECT__28
10
0
20
0
30
0
70
128
71
42
72
60
73
59
0
VERTEX
8
OBJECT__28
10
0
20
0
30
0
70
128
71
1
72
61
73
60
0
VERTEX
8
OBJECT__28
10
0
20
0
30
0
70
128
71
60
72
42
73
1
0
VERTEX
8
OBJECT__28
10
0
20
0
30
0
70
128
71
59
72
40
73
42
0
VERTEX
8
OBJECT__28
10
0
20
0
30
0
70
128
71
59
72
58
73
37
0
VERTEX
8
OBJECT__28
10
0
20
0
30
0
70
128
71
58
72
57
73
33
0
VERTEX
8
OBJECT__28
10
0
20
0
30
0
70
128
71
57
72
56
73
32
0
VERTEX
8
OBJECT__28
10
0
20
0
30
0
70
128
71
56
72
55
73
30
0
VERTEX
8
OBJECT__28
10
0
20
0
30
0
70
128
71
55
72
54
73
26
0
VERTEX
8
OBJECT__28
10
0
20
0
30
0
70
128
71
53
72
25
73
26
0
VERTEX
8
OBJECT__28
10
0
20
0
30
0
70
128
71
52
72
23
73
25
0
VERTEX
8
OBJECT__28
10
0
20
0
30
0
70
128
71
51
72
21
73
23
0
VERTEX
8
OBJECT__28
10
0
20
0
30
0
70
128
71
50
72
17
73
21
0
VERTEX
8
OBJECT__28
10
0
20
0
30
0
70
128
71
50
72
49
73
16
0
VERTEX
8
OBJECT__28
10
0
20
0
30
0
70
128
71
49
72
48
73
14
0
VERTEX
8
OBJECT__28
10
0
20
0
30
0
70
128
71
48
72
47
73
9
0
VERTEX
8
OBJECT__28
10
0
20
0
30
0
70
128
71
47
72
46
73
7
0
VERTEX
8
OBJECT__28
10
0
20
0
30
0
70
128
71
46
72
45
73
6
0
VERTEX
8
OBJECT__28
10
0
20
0
30
0
70
128
71
45
72
44
73
4
0
VERTEX
8
OBJECT__28
10
0
20
0
30
0
70
128
71
44
72
61
73
1
0
VERTEX
8
OBJECT__28
10
0
20
0
30
0
70
128
71
43
72
2
73
1
0
VERTEX
8
OBJECT__28
10
0
20
0
30
0
70
128
71
40
72
62
73
41
0
VERTEX
8
OBJECT__28
10
0
20
0
30
0
70
128
71
39
72
62
73
40
0
VERTEX
8
OBJECT__28
10
0
20
0
30
0
70
128
71
36
72
38
73
37
0
VERTEX
8
OBJECT__28
10
0
20
0
30
0
70
128
71
34
72
35
73
33
0
VERTEX
8
OBJECT__28
10
0
20
0
30
0
70
128
71
30
72
63
73
31
0
VERTEX
8
OBJECT__28
10
0
20
0
30
0
70
128
71
29
72
63
73
30
0
VERTEX
8
OBJECT__28
10
0
20
0
30
0
70
128
71
27
72
28
73
26
0
VERTEX
8
OBJECT__28
10
0
20
0
30
0
70
128
71
25
72
23
73
22
0
VERTEX
8
OBJECT__28
10
0
20
0
30
0
70
128
71
21
72
64
73
22
0
VERTEX
8
OBJECT__28
10
0
20
0
30
0
70
128
71
20
72
64
73
21
0
VERTEX
8
OBJECT__28
10
0
20
0
30
0
70
128
71
18
72
19
73
17
0
VERTEX
8
OBJECT__28
10
0
20
0
30
0
70
128
71
14
72
65
73
15
0
VERTEX
8
OBJECT__28
10
0
20
0
30
0
70
128
71
13
72
65
73
14
0
VERTEX
8
OBJECT__28
10
0
20
0
30
0
70
128
71
10
72
12
73
9
0
VERTEX
8
OBJECT__28
10
0
20
0
30
0
70
128
71
8
72
11
73
7
0
VERTEX
8
OBJECT__28
10
0
20
0
30
0
70
128
71
4
72
66
73
5
0
VERTEX
8
OBJECT__28
10
0
20
0
30
0
70
128
71
3
72
66
73
4
0
SEQEND
8
OBJECT__28
0
POLYLINE
8
OBJECT__30
66
1
70
64
71
18
72
16
62
253
0
VERTEX
8
OBJECT__30
10
16.799999
20
-15.588000
30
18.577000
70
192
0
VERTEX
8
OBJECT__30
10
16.799999
20
15.588000
30
18.577000
70
192
0
VERTEX
8
OBJECT__30
10
16.799999
20
8.294000
30
22.788000
70
192
0
VERTEX
8
OBJECT__30
10
16.799999
20
0.000000
30
-24.250000
70
192
0
VERTEX
8
OBJECT__30
10
16.799999
20
8.294000
30
-22.788000
70
192
0
VERTEX
8
OBJECT__30
10
16.799999
20
0.000000
30
24.250000
70
192
0
VERTEX
8
OBJECT__30
10
16.799999
20
-8.294000
30
-22.788000
70
192
0
VERTEX
8
OBJECT__30
10
16.799999
20
-15.588000
30
-18.577000
70
192
0
VERTEX
8
OBJECT__30
10
16.799999
20
-23.882000
30
4.211000
70
192
0
VERTEX
8
OBJECT__30
10
16.799999
20
-23.882000
30
-4.211000
70
192
0
VERTEX
8
OBJECT__30
10
16.799999
20
-21.000999
30
12.125000
70
192
0
VERTEX
8
OBJECT__30
10
16.799999
20
21.000999
30
12.125000
70
192
0
VERTEX
8
OBJECT__30
10
16.799999
20
21.000999
30
-12.125000
70
192
0
VERTEX
8
OBJECT__30
10
16.799999
20
23.882000
30
-4.211000
70
192
0
VERTEX
8
OBJECT__30
10
16.799999
20
23.882000
30
4.211000
70
192
0
VERTEX
8
OBJECT__30
10
16.799999
20
15.588000
30
-18.577000
70
192
0
VERTEX
8
OBJECT__30
10
16.799999
20
-21.000999
30
-12.125000
70
192
0
VERTEX
8
OBJECT__30
10
16.799999
20
-8.294000
30
22.788000
70
192
0
VERTEX
8
OBJECT__30
10
0
20
0
30
0
70
128
71
1
72
2
73
3
0
VERTEX
8
OBJECT__30
10
0
20
0
30
0
70
128
71
1
72
4
73
5
0
VERTEX
8
OBJECT__30
10
0
20
0
30
0
70
128
71
3
72
6
73
1
0
VERTEX
8
OBJECT__30
10
0
20
0
30
0
70
128
71
1
72
7
73
4
0
VERTEX
8
OBJECT__30
10
0
20
0
30
0
70
128
71
8
72
9
73
10
0
VERTEX
8
OBJECT__30
10
0
20
0
30
0
70
128
71
8
72
1
73
11
0
VERTEX
8
OBJECT__30
10
0
20
0
30
0
70
128
71
1
72
12
73
2
0
VERTEX
8
OBJECT__30
10
0
20
0
30
0
70
128
71
1
72
13
73
14
0
VERTEX
8
OBJECT__30
10
0
20
0
30
0
70
128
71
1
72
8
73
7
0
VERTEX
8
OBJECT__30
10
0
20
0
30
0
70
128
71
11
72
9
73
8
0
VERTEX
8
OBJECT__30
10
0
20
0
30
0
70
128
71
1
72
15
73
12
0
VERTEX
8
OBJECT__30
10
0
20
0
30
0
70
128
71
1
72
16
73
13
0
VERTEX
8
OBJECT__30
10
0
20
0
30
0
70
128
71
10
72
17
73
8
0
VERTEX
8
OBJECT__30
10
0
20
0
30
0
70
128
71
14
72
15
73
1
0
VERTEX
8
OBJECT__30
10
0
20
0
30
0
70
128
71
6
72
18
73
1
0
VERTEX
8
OBJECT__30
10
0
20
0
30
0
70
128
71
5
72
16
73
1
0
SEQEND
8
OBJECT__30
0
POLYLINE
8
OBJECT__31
66
1
70
64
71
22
72
22
62
253
0
VERTEX
8
OBJECT__31
10
21.306000
20
9.959000
30
15.537000
70
192
0
VERTEX
8
OBJECT__31
10
15.085000
20
9.959000
30
15.537000
70
192
0
VERTEX
8
OBJECT__31
10
15.085000
20
0.000000
30
18.461000
70
192
0
VERTEX
8
OBJECT__31
10
21.306000
20
16.756001
30
7.692000
70
192
0
VERTEX
8
OBJECT__31
10
15.085000
20
16.756001
30
7.692000
70
192
0
VERTEX
8
OBJECT__31
10
21.306000
20
18.233000
30
-2.582000
70
192
0
VERTEX
8
OBJECT__31
10
15.085000
20
18.233000
30
-2.582000
70
192
0
VERTEX
8
OBJECT__31
10
21.306000
20
13.921000
30
-12.023000
70
192
0
VERTEX
8
OBJECT__31
10
15.085000
20
13.921000
30
-12.023000
70
192
0
VERTEX
8
OBJECT__31
10
21.306000
20
5.190000
30
-17.635000
70
192
0
VERTEX
8
OBJECT__31
10
15.085000
20
5.190000
30
-17.635000
70
192
0
VERTEX
8
OBJECT__31
10
21.306000
20
-5.190000
30
-17.635000
70
192
0
VERTEX
8
OBJECT__31
10
15.085000
20
-5.190000
30
-17.635000
70
192
0
VERTEX
8
OBJECT__31
10
21.306000
20
-13.921000
30
-12.023000
70
192
0
VERTEX
8
OBJECT__31
10
15.085000
20
-13.921000
30
-12.023000
70
192
0
VERTEX
8
OBJECT__31
10
21.306000
20
-18.233000
30
-2.582000
70
192
0
VERTEX
8
OBJECT__31
10
15.085000
20
-18.233000
30
-2.582000
70
192
0
VERTEX
8
OBJECT__31
10
21.306000
20
-16.756001
30
7.692000
70
192
0
VERTEX
8
OBJECT__31
10
15.085000
20
-16.756001
30
7.692000
70
192
0
VERTEX
8
OBJECT__31
10
21.306000
20
-9.959000
30
15.537000
70
192
0
VERTEX
8
OBJECT__31
10
15.085000
20
-9.959000
30
15.537000
70
192
0
VERTEX
8
OBJECT__31
10
21.306000
20
0.000000
30
18.461000
70
192
0
VERTEX
8
OBJECT__31
10
0
20
0
30
0
70
128
71
1
72
2
73
3
0
VERTEX
8
OBJECT__31
10
0
20
0
30
0
70
128
71
4
72
5
73
2
0
VERTEX
8
OBJECT__31
10
0
20
0
30
0
70
128
71
6
72
7
73
5
0
VERTEX
8
OBJECT__31
10
0
20
0
30
0
70
128
71
8
72
9
73
7
0
VERTEX
8
OBJECT__31
10
0
20
0
30
0
70
128
71
10
72
11
73
9
0
VERTEX
8
OBJECT__31
10
0
20
0
30
0
70
128
71
12
72
13
73
11
0
VERTEX
8
OBJECT__31
10
0
20
0
30
0
70
128
71
14
72
15
73
13
0
VERTEX
8
OBJECT__31
10
0
20
0
30
0
70
128
71
16
72
17
73
15
0
VERTEX
8
OBJECT__31
10
0
20
0
30
0
70
128
71
18
72
19
73
17
0
VERTEX
8
OBJECT__31
10
0
20
0
30
0
70
128
71
20
72
21
73
19
0
VERTEX
8
OBJECT__31
10
0
20
0
30
0
70
128
71
22
72
3
73
21
0
VERTEX
8
OBJECT__31
10
0
20
0
30
0
70
128
71
21
72
20
73
22
0
VERTEX
8
OBJECT__31
10
0
20
0
30
0
70
128
71
19
72
18
73
20
0
VERTEX
8
OBJECT__31
10
0
20
0
30
0
70
128
71
17
72
16
73
18
0
VERTEX
8
OBJECT__31
10
0
20
0
30
0
70
128
71
15
72
14
73
16
0
VERTEX
8
OBJECT__31
10
0
20
0
30
0
70
128
71
13
72
12
73
14
0
VERTEX
8
OBJECT__31
10
0
20
0
30
0
70
128
71
11
72
10
73
12
0
VERTEX
8
OBJECT__31
10
0
20
0
30
0
70
128
71
9
72
8
73
10
0
VERTEX
8
OBJECT__31
10
0
20
0
30
0
70
128
71
7
72
6
73
8
0
VERTEX
8
OBJECT__31
10
0
20
0
30
0
70
128
71
5
72
4
73
6
0
VERTEX
8
OBJECT__31
10
0
20
0
30
0
70
128
71
2
72
1
73
4
0
VERTEX
8
OBJECT__31
10
0
20
0
30
0
70
128
71
3
72
22
73
1
0
SEQEND
8
OBJECT__31
0
POLYLINE
8
OBJECT__32
66
1
70
64
71
22
72
22
62
253
0
VERTEX
8
OBJECT__32
10
23.687000
20
10.006000
30
100.570000
70
192
0
VERTEX
8
OBJECT__32
10
14.766000
20
10.006000
30
100.570000
70
192
0
VERTEX
8
OBJECT__32
10
14.766000
20
0.000000
30
103.508003
70
192
0
VERTEX
8
OBJECT__32
10
23.687000
20
16.836000
30
92.689003
70
192
0
VERTEX
8
OBJECT__32
10
14.766000
20
16.836000
30
92.689003
70
192
0
VERTEX
8
OBJECT__32
10
23.687000
20
18.320000
30
82.365997
70
192
0
VERTEX
8
OBJECT__32
10
14.766000
20
18.320000
30
82.365997
70
192
0
VERTEX
8
OBJECT__32
10
23.687000
20
13.987000
30
72.879997
70
192
0
VERTEX
8
OBJECT__32
10
14.766000
20
13.987000
30
72.879997
70
192
0
VERTEX
8
OBJECT__32
10
23.687000
20
5.214000
30
67.241997
70
192
0
VERTEX
8
OBJECT__32
10
14.766000
20
5.214000
30
67.241997
70
192
0
VERTEX
8
OBJECT__32
10
23.687000
20
-5.214000
30
67.241997
70
192
0
VERTEX
8
OBJECT__32
10
14.766000
20
-5.214000
30
67.241997
70
192
0
VERTEX
8
OBJECT__32
10
23.687000
20
-13.987000
30
72.879997
70
192
0
VERTEX
8
OBJECT__32
10
14.766000
20
-13.987000
30
72.879997
70
192
0
VERTEX
8
OBJECT__32
10
23.687000
20
-18.320000
30
82.365997
70
192
0
VERTEX
8
OBJECT__32
10
14.766000
20
-18.320000
30
82.365997
70
192
0
VERTEX
8
OBJECT__32
10
23.687000
20
-16.836000
30
92.689003
70
192
0
VERTEX
8
OBJECT__32
10
14.766000
20
-16.836000
30
92.689003
70
192
0
VERTEX
8
OBJECT__32
10
23.687000
20
-10.006000
30
100.570000
70
192
0
VERTEX
8
OBJECT__32
10
14.766000
20
-10.006000
30
100.570000
70
192
0
VERTEX
8
OBJECT__32
10
23.687000
20
0.000000
30
103.508003
70
192
0
VERTEX
8
OBJECT__32
10
0
20
0
30
0
70
128
71
1
72
2
73
3
0
VERTEX
8
OBJECT__32
10
0
20
0
30
0
70
128
71
4
72
5
73
2
0
VERTEX
8
OBJECT__32
10
0
20
0
30
0
70
128
71
6
72
7
73
5
0
VERTEX
8
OBJECT__32
10
0
20
0
30
0
70
128
71
8
72
9
73
7
0
VERTEX
8
OBJECT__32
10
0
20
0
30
0
70
128
71
10
72
11
73
9
0
VERTEX
8
OBJECT__32
10
0
20
0
30
0
70
128
71
12
72
13
73
11
0
VERTEX
8
OBJECT__32
10
0
20
0
30
0
70
128
71
14
72
15
73
13
0
VERTEX
8
OBJECT__32
10
0
20
0
30
0
70
128
71
16
72
17
73
15
0
VERTEX
8
OBJECT__32
10
0
20
0
30
0
70
128
71
18
72
19
73
17
0
VERTEX
8
OBJECT__32
10
0
20
0
30
0
70
128
71
20
72
21
73
19
0
VERTEX
8
OBJECT__32
10
0
20
0
30
0
70
128
71
22
72
3
73
21
0
VERTEX
8
OBJECT__32
10
0
20
0
30
0
70
128
71
21
72
20
73
22
0
VERTEX
8
OBJECT__32
10
0
20
0
30
0
70
128
71
19
72
18
73
20
0
VERTEX
8
OBJECT__32
10
0
20
0
30
0
70
128
71
17
72
16
73
18
0
VERTEX
8
OBJECT__32
10
0
20
0
30
0
70
128
71
15
72
14
73
16
0
VERTEX
8
OBJECT__32
10
0
20
0
30
0
70
128
71
13
72
12
73
14
0
VERTEX
8
OBJECT__32
10
0
20
0
30
0
70
128
71
11
72
10
73
12
0
VERTEX
8
OBJECT__32
10
0
20
0
30
0
70
128
71
9
72
8
73
10
0
VERTEX
8
OBJECT__32
10
0
20
0
30
0
70
128
71
7
72
6
73
8
0
VERTEX
8
OBJECT__32
10
0
20
0
30
0
70
128
71
5
72
4
73
6
0
VERTEX
8
OBJECT__32
10
0
20
0
30
0
70
128
71
2
72
1
73
4
0
VERTEX
8
OBJECT__32
10
0
20
0
30
0
70
128
71
3
72
22
73
1
0
SEQEND
8
OBJECT__32
0
POLYLINE
8
OBJECT__34
66
1
70
64
71
40
72
40
62
253
0
VERTEX
8
OBJECT__34
10
17.900000
20
8.037000
30
19.400999
70
192
0
VERTEX
8
OBJECT__34
10
17.700001
20
7.961000
30
19.216000
70
192
0
VERTEX
8
OBJECT__34
10
17.700001
20
0.001000
30
20.799000
70
192
0
VERTEX
8
OBJECT__34
10
17.700001
20
14.709000
30
14.707000
70
192
0
VERTEX
8
OBJECT__34
10
17.900000
20
10.302000
30
17.886999
70
192
0
VERTEX
8
OBJECT__34
10
17.900000
20
14.850000
30
14.848000
70
192
0
VERTEX
8
OBJECT__34
10
17.900000
20
17.889000
30
10.300000
70
192
0
VERTEX
8
OBJECT__34
10
17.700001
20
19.216999
30
7.959000
70
192
0
VERTEX
8
OBJECT__34
10
17.900000
20
19.402000
30
8.035000
70
192
0
VERTEX
8
OBJECT__34
10
17.900000
20
21.000999
30
-0.001000
70
192
0
VERTEX
8
OBJECT__34
10
17.700001
20
20.801001
30
-0.001000
70
192
0
VERTEX
8
OBJECT__34
10
17.900000
20
19.402000
30
-8.037000
70
192
0
VERTEX
8
OBJECT__34
10
17.700001
20
19.216999
30
-7.961000
70
192
0
VERTEX
8
OBJECT__34
10
17.700001
20
14.709000
30
-14.709000
70
192
0
VERTEX
8
OBJECT__34
10
17.900000
20
17.889000
30
-10.302000
70
192
0
VERTEX
8
OBJECT__34
10
17.900000
20
14.850000
30
-14.850000
70
192
0
VERTEX
8
OBJECT__34
10
17.900000
20
10.302000
30
-17.889000
70
192
0
VERTEX
8
OBJECT__34
10
17.700001
20
7.961000
30
-19.218000
70
192
0
VERTEX
8
OBJECT__34
10
17.900000
20
0.001000
30
-21.000999
70
192
0
VERTEX
8
OBJECT__34
10
17.700001
20
0.001000
30
-20.801001
70
192
0
VERTEX
8
OBJECT__34
10
17.900000
20
-8.036000
30
-19.402000
70
192
0
VERTEX
8
OBJECT__34
10
17.700001
20
-7.959000
30
-19.218000
70
192
0
VERTEX
8
OBJECT__34
10
17.700001
20
-14.707000
30
-14.709000
70
192
0
VERTEX
8
OBJECT__34
10
17.900000
20
-10.300000
30
-17.889000
70
192
0
VERTEX
8
OBJECT__34
10
17.900000
20
-14.848000
30
-14.850000
70
192
0
VERTEX
8
OBJECT__34
10
17.900000
20
-17.888000
30
-10.302000
70
192
0
VERTEX
8
OBJECT__34
10
17.700001
20
-19.216000
30
-7.961000
70
192
0
VERTEX
8
OBJECT__34
10
17.900000
20
-20.999001
30
-0.001000
70
192
0
VERTEX
8
OBJECT__34
10
17.700001
20
-20.799000
30
-0.001000
70
192
0
VERTEX
8
OBJECT__34
10
17.900000
20
-19.400999
30
8.035000
70
192
0
VERTEX
8
OBJECT__34
10
17.700001
20
-19.216000
30
7.959000
70
192
0
VERTEX
8
OBJECT__34
10
17.700001
20
-14.707000
30
14.707000
70
192
0
VERTEX
8
OBJECT__34
10
17.900000
20
-17.888000
30
10.300000
70
192
0
VERTEX
8
OBJECT__34
10
17.900000
20
-14.848000
30
14.848000
70
192
0
VERTEX
8
OBJECT__34
10
17.900000
20
-10.300000
30
17.886999
70
192
0
VERTEX
8
OBJECT__34
10
17.700001
20
-7.959000
30
19.216000
70
192
0
VERTEX
8
OBJECT__34
10
17.900000
20
-8.036000
30
19.400999
70
192
0
VERTEX
8
OBJECT__34
10
17.900000
20
0.001000
30
20.999001
70
192
0
VERTEX
8
OBJECT__34
10
17.900000
20
-19.400999
30
-8.037000
70
192
0
VERTEX
8
OBJECT__34
10
17.900000
20
8.037000
30
-19.402000
70
192
0
VERTEX
8
OBJECT__34
10
0
20
0
30
0
70
128
71
1
72
2
73
3
0
VERTEX
8
OBJECT__34
10
0
20
0
30
0
70
128
71
4
72
2
73
5
0
VERTEX
8
OBJECT__34
10
0
20
0
30
0
70
128
71
2
72
1
73
5
0
VERTEX
8
OBJECT__34
10
0
20
0
30
0
70
128
71
4
72
6
73
7
0
VERTEX
8
OBJECT__34
10
0
20
0
30
0
70
128
71
7
72
8
73
4
0
VERTEX
8
OBJECT__34
10
0
20
0
30
0
70
128
71
9
72
10
73
11
0
VERTEX
8
OBJECT__34
10
0
20
0
30
0
70
128
71
12
72
13
73
11
0
VERTEX
8
OBJECT__34
10
0
20
0
30
0
70
128
71
14
72
13
73
15
0
VERTEX
8
OBJECT__34
10
0
20
0
30
0
70
128
71
13
72
12
73
15
0
VERTEX
8
OBJECT__34
10
0
20
0
30
0
70
128
71
14
72
16
73
17
0
VERTEX
8
OBJECT__34
10
0
20
0
30
0
70
128
71
17
72
18
73
14
0
VERTEX
8
OBJECT__34
10
0
20
0
30
0
70
128
71
19
72
20
73
18
0
VERTEX
8
OBJECT__34
10
0
20
0
30
0
70
128
71
21
72
22
73
20
0
VERTEX
8
OBJECT__34
10
0
20
0
30
0
70
128
71
23
72
22
73
24
0
VERTEX
8
OBJECT__34
10
0
20
0
30
0
70
128
71
22
72
21
73
24
0
VERTEX
8
OBJECT__34
10
0
20
0
30
0
70
128
71
23
72
25
73
26
0
VERTEX
8
OBJECT__34
10
0
20
0
30
0
70
128
71
26
72
27
73
23
0
VERTEX
8
OBJECT__34
10
0
20
0
30
0
70
128
71
28
72
29
73
27
0
VERTEX
8
OBJECT__34
10
0
20
0
30
0
70
128
71
30
72
31
73
29
0
VERTEX
8
OBJECT__34
10
0
20
0
30
0
70
128
71
32
72
31
73
33
0
VERTEX
8
OBJECT__34
10
0
20
0
30
0
70
128
71
31
72
30
73
33
0
VERTEX
8
OBJECT__34
10
0
20
0
30
0
70
128
71
32
72
34
73
35
0
VERTEX
8
OBJECT__34
10
0
20
0
30
0
70
128
71
35
72
36
73
32
0
VERTEX
8
OBJECT__34
10
0
20
0
30
0
70
128
71
37
72
38
73
3
0
VERTEX
8
OBJECT__34
10
0
20
0
30
0
70
128
71
3
72
36
73
37
0
VERTEX
8
OBJECT__34
10
0
20
0
30
0
70
128
71
35
72
37
73
36
0
VERTEX
8
OBJECT__34
10
0
20
0
30
0
70
128
71
33
72
34
73
32
0
VERTEX
8
OBJECT__34
10
0
20
0
30
0
70
128
71
29
72
28
73
30
0
VERTEX
8
OBJECT__34
10
0
20
0
30
0
70
128
71
27
72
39
73
28
0
VERTEX
8
OBJECT__34
10
0
20
0
30
0
70
128
71
26
72
39
73
27
0
VERTEX
8
OBJECT__34
10
0
20
0
30
0
70
128
71
24
72
25
73
23
0
VERTEX
8
OBJECT__34
10
0
20
0
30
0
70
128
71
20
72
19
73
21
0
VERTEX
8
OBJECT__34
10
0
20
0
30
0
70
128
71
18
72
40
73
19
0
VERTEX
8
OBJECT__34
10
0
20
0
30
0
70
128
71
17
72
40
73
18
0
VERTEX
8
OBJECT__34
10
0
20
0
30
0
70
128
71
15
72
16
73
14
0
VERTEX
8
OBJECT__34
10
0
20
0
30
0
70
128
71
11
72
10
73
12
0
VERTEX
8
OBJECT__34
10
0
20
0
30
0
70
128
71
11
72
8
73
9
0
VERTEX
8
OBJECT__34
10
0
20
0
30
0
70
128
71
7
72
9
73
8
0
VERTEX
8
OBJECT__34
10
0
20
0
30
0
70
128
71
5
72
6
73
4
0
VERTEX
8
OBJECT__34
10
0
20
0
30
0
70
128
71
3
72
38
73
1
0
SEQEND
8
OBJECT__34
0
POLYLINE
8
OBJECT__35
66
1
70
64
71
57
72
59
62
253
0
VERTEX
8
OBJECT__35
10
63.700001
20
0.001000
30
-21.000999
70
192
0
VERTEX
8
OBJECT__35
10
17.900000
20
0.001000
30
-21.000999
70
192
0
VERTEX
8
OBJECT__35
10
17.900000
20
8.037000
30
-19.402000
70
192
0
VERTEX
8
OBJECT__35
10
63.700001
20
10.501000
30
-18.187000
70
192
0
VERTEX
8
OBJECT__35
10
17.900000
20
10.302000
30
-17.889000
70
192
0
VERTEX
8
OBJECT__35
10
17.900000
20
14.850000
30
-14.850000
70
192
0
VERTEX
8
OBJECT__35
10
63.700001
20
18.187000
30
-10.501000
70
192
0
VERTEX
8
OBJECT__35
10
63.700001
20
21.000999
30
-0.001000
70
192
0
VERTEX
8
OBJECT__35
10
17.900000
20
19.402000
30
-8.037000
70
192
0
VERTEX
8
OBJECT__35
10
17.900000
20
17.889000
30
-10.302000
70
192
0
VERTEX
8
OBJECT__35
10
17.900000
20
21.000999
30
-0.001000
70
192
0
VERTEX
8
OBJECT__35
10
17.900000
20
19.402000
30
8.035000
70
192
0
VERTEX
8
OBJECT__35
10
63.700001
20
18.187000
30
10.499000
70
192
0
VERTEX
8
OBJECT__35
10
63.700001
20
10.501000
30
18.186001
70
192
0
VERTEX
8
OBJECT__35
10
17.900000
20
14.850000
30
14.848000
70
192
0
VERTEX
8
OBJECT__35
10
17.900000
20
17.889000
30
10.300000
70
192
0
VERTEX
8
OBJECT__35
10
63.700001
20
-18.186001
30
10.499000
70
192
0
VERTEX
8
OBJECT__35
10
63.700001
20
-10.499000
30
18.186001
70
192
0
VERTEX
8
OBJECT__35
10
17.900000
20
-14.848000
30
14.848000
70
192
0
VERTEX
8
OBJECT__35
10
17.900000
20
-10.300000
30
17.886999
70
192
0
VERTEX
8
OBJECT__35
10
63.700001
20
-20.999001
30
-0.001000
70
192
0
VERTEX
8
OBJECT__35
10
17.900000
20
-19.400999
30
8.035000
70
192
0
VERTEX
8
OBJECT__35
10
17.900000
20
-17.888000
30
10.300000
70
192
0
VERTEX
8
OBJECT__35
10
17.900000
20
-20.999001
30
-0.001000
70
192
0
VERTEX
8
OBJECT__35
10
17.900000
20
-19.400999
30
-8.037000
70
192
0
VERTEX
8
OBJECT__35
10
63.700001
20
-18.186001
30
-10.501000
70
192
0
VERTEX
8
OBJECT__35
10
17.900000
20
-17.888000
30
-10.302000
70
192
0
VERTEX
8
OBJECT__35
10
17.900000
20
-14.848000
30
-14.850000
70
192
0
VERTEX
8
OBJECT__35
10
63.700001
20
-10.499000
30
-18.187000
70
192
0
VERTEX
8
OBJECT__35
10
17.900000
20
-8.036000
30
-19.402000
70
192
0
VERTEX
8
OBJECT__35
10
17.900000
20
-10.300000
30
-17.889000
70
192
0
VERTEX
8
OBJECT__35
10
17.900000
20
0.001000
30
20.999001
70
192
0
VERTEX
8
OBJECT__35
10
17.900000
20
-8.036000
30
19.400999
70
192
0
VERTEX
8
OBJECT__35
10
29.823999
20
-1.636000
30
20.934999
70
192
0
VERTEX
8
OBJECT__35
10
30.611000
20
-3.088000
30
20.771000
70
192
0
VERTEX
8
OBJECT__35
10
31.848000
20
-4.220000
30
20.570999
70
192
0
VERTEX
8
OBJECT__35
10
51.768002
20
-5.024000
30
20.389000
70
192
0
VERTEX
8
OBJECT__35
10
34.575001
20
-5.024000
30
20.389000
70
192
0
VERTEX
8
OBJECT__35
10
53.450001
20
-4.800000
30
20.443001
70
192
0
VERTEX
8
OBJECT__35
10
33.415001
20
-4.889000
30
20.422001
70
192
0
VERTEX
8
OBJECT__35
10
54.986000
20
-4.111000
30
20.593000
70
192
0
VERTEX
8
OBJECT__35
10
56.181999
20
-3.016000
30
20.781000
70
192
0
VERTEX
8
OBJECT__35
10
63.700001
20
0.001000
30
20.999001
70
192
0
VERTEX
8
OBJECT__35
10
56.952000
20
-1.598000
30
20.938000
70
192
0
VERTEX
8
OBJECT__35
10
57.217999
20
0.001000
30
20.999001
70
192
0
VERTEX
8
OBJECT__35
10
56.084000
20
3.138000
30
20.763000
70
192
0
VERTEX
8
OBJECT__35
10
56.931999
20
1.655000
30
20.934000
70
192
0
VERTEX
8
OBJECT__35
10
54.591000
20
4.347000
30
20.544001
70
192
0
VERTEX
8
OBJECT__35
10
17.900000
20
10.302000
30
17.886999
70
192
0
VERTEX
8
OBJECT__35
10
34.575001
20
5.026000
30
20.389000
70
192
0
VERTEX
8
OBJECT__35
10
51.768002
20
5.026000
30
20.389000
70
192
0
VERTEX
8
OBJECT__35
10
52.442001
20
4.991000
30
20.396999
70
192
0
VERTEX
8
OBJECT__35
10
31.639999
20
4.079000
30
20.599001
70
192
0
VERTEX
8
OBJECT__35
10
17.900000
20
8.037000
30
19.400999
70
192
0
VERTEX
8
OBJECT__35
10
29.735001
20
1.351000
30
20.955999
70
192
0
VERTEX
8
OBJECT__35
10
30.464001
20
2.890000
30
20.799000
70
192
0
VERTEX
8
OBJECT__35
10
29.775000
20
0.001000
30
20.945999
70
192
0
VERTEX
8
OBJECT__35
10
0
20
0
30
0
70
128
71
1
72
2
73
3
0
VERTEX
8
OBJECT__35
10
0
20
0
30
0
70
128
71
3
72
4
73
1
0
VERTEX
8
OBJECT__35
10
0
20
0
30
0
70
128
71
4
72
5
73
6
0
VERTEX
8
OBJECT__35
10
0
20
0
30
0
70
128
71
6
72
7
73
4
0
VERTEX
8
OBJECT__35
10
0
20
0
30
0
70
128
71
8
72
7
73
9
0
VERTEX
8
OBJECT__35
10
0
20
0
30
0
70
128
71
7
72
10
73
9
0
VERTEX
8
OBJECT__35
10
0
20
0
30
0
70
128
71
8
72
11
73
12
0
VERTEX
8
OBJECT__35
10
0
20
0
30
0
70
128
71
12
72
13
73
8
0
VERTEX
8
OBJECT__35
10
0
20
0
30
0
70
128
71
14
72
13
73
15
0
VERTEX
8
OBJECT__35
10
0
20
0
30
0
70
128
71
13
72
16
73
15
0
VERTEX
8
OBJECT__35
10
0
20
0
30
0
70
128
71
17
72
18
73
19
0
VERTEX
8
OBJECT__35
10
0
20
0
30
0
70
128
71
18
72
20
73
19
0
VERTEX
8
OBJECT__35
10
0
20
0
30
0
70
128
71
21
72
17
73
22
0
VERTEX
8
OBJECT__35
10
0
20
0
30
0
70
128
71
17
72
23
73
22
0
VERTEX
8
OBJECT__35
10
0
20
0
30
0
70
128
71
21
72
24
73
25
0
VERTEX
8
OBJECT__35
10
0
20
0
30
0
70
128
71
25
72
26
73
21
0
VERTEX
8
OBJECT__35
10
0
20
0
30
0
70
128
71
26
72
27
73
28
0
VERTEX
8
OBJECT__35
10
0
20
0
30
0
70
128
71
28
72
29
73
26
0
VERTEX
8
OBJECT__35
10
0
20
0
30
0
70
128
71
1
72
29
73
30
0
VERTEX
8
OBJECT__35
10
0
20
0
30
0
70
128
71
29
72
31
73
30
0
VERTEX
8
OBJECT__35
10
0
20
0
30
0
70
128
71
32
72
33
73
34
0
VERTEX
8
OBJECT__35
10
0
20
0
30
0
70
128
71
35
72
34
73
33
0
VERTEX
8
OBJECT__35
10
0
20
0
30
0
70
128
71
20
72
36
73
35
0
VERTEX
8
OBJECT__35
10
0
20
0
30
0
70
128
71
18
72
37
73
38
0
VERTEX
8
OBJECT__35
10
0
20
0
30
0
70
128
71
38
72
20
73
18
0
VERTEX
8
OBJECT__35
10
0
20
0
30
0
70
128
71
18
72
39
73
37
0
VERTEX
8
OBJECT__35
10
0
20
0
30
0
70
128
71
38
72
40
73
20
0
VERTEX
8
OBJECT__35
10
0
20
0
30
0
70
128
71
18
72
41
73
39
0
VERTEX
8
OBJECT__35
10
0
20
0
30
0
70
128
71
18
72
42
73
41
0
VERTEX
8
OBJECT__35
10
0
20
0
30
0
70
128
71
18
72
43
73
44
0
VERTEX
8
OBJECT__35
10
0
20
0
30
0
70
128
71
44
72
42
73
18
0
VERTEX
8
OBJECT__35
10
0
20
0
30
0
70
128
71
43
72
45
73
44
0
VERTEX
8
OBJECT__35
10
0
20
0
30
0
70
128
71
40
72
36
73
20
0
VERTEX
8
OBJECT__35
10
0
20
0
30
0
70
128
71
33
72
20
73
35
0
VERTEX
8
OBJECT__35
10
0
20
0
30
0
70
128
71
14
72
46
73
47
0
VERTEX
8
OBJECT__35
10
0
20
0
30
0
70
128
71
47
72
43
73
14
0
VERTEX
8
OBJECT__35
10
0
20
0
30
0
70
128
71
14
72
48
73
46
0
VERTEX
8
OBJECT__35
10
0
20
0
30
0
70
128
71
14
72
49
73
50
0
VERTEX
8
OBJECT__35
10
0
20
0
30
0
70
128
71
50
72
51
73
14
0
VERTEX
8
OBJECT__35
10
0
20
0
30
0
70
128
71
51
72
52
73
14
0
VERTEX
8
OBJECT__35
10
0
20
0
30
0
70
128
71
49
72
53
73
50
0
VERTEX
8
OBJECT__35
10
0
20
0
30
0
70
128
71
52
72
48
73
14
0
VERTEX
8
OBJECT__35
10
0
20
0
30
0
70
128
71
54
72
32
73
55
0
VERTEX
8
OBJECT__35
10
0
20
0
30
0
70
128
71
56
72
49
73
54
0
VERTEX
8
OBJECT__35
10
0
20
0
30
0
70
128
71
55
72
56
73
54
0
VERTEX
8
OBJECT__35
10
0
20
0
30
0
70
128
71
32
72
57
73
55
0
VERTEX
8
OBJECT__35
10
0
20
0
30
0
70
128
71
56
72
53
73
49
0
VERTEX
8
OBJECT__35
10
0
20
0
30
0
70
128
71
47
72
45
73
43
0
VERTEX
8
OBJECT__35
10
0
20
0
30
0
70
128
71
34
72
57
73
32
0
VERTEX
8
OBJECT__35
10
0
20
0
30
0
70
128
71
30
72
2
73
1
0
VERTEX
8
OBJECT__35
10
0
20
0
30
0
70
128
71
28
72
31
73
29
0
VERTEX
8
OBJECT__35
10
0
20
0
30
0
70
128
71
25
72
27
73
26
0
VERTEX
8
OBJECT__35
10
0
20
0
30
0
70
128
71
22
72
24
73
21
0
VERTEX
8
OBJECT__35
10
0
20
0
30
0
70
128
71
19
72
23
73
17
0
VERTEX
8
OBJECT__35
10
0
20
0
30
0
70
128
71
15
72
49
73
14
0
VERTEX
8
OBJECT__35
10
0
20
0
30
0
70
128
71
12
72
16
73
13
0
VERTEX
8
OBJECT__35
10
0
20
0
30
0
70
128
71
9
72
11
73
8
0
VERTEX
8
OBJECT__35
10
0
20
0
30
0
70
128
71
6
72
10
73
7
0
VERTEX
8
OBJECT__35
10
0
20
0
30
0
70
128
71
3
72
5
73
4
0
SEQEND
8
OBJECT__35
0
POLYLINE
8
OBJECT__37
66
1
70
64
71
26
72
26
62
253
0
VERTEX
8
OBJECT__37
10
63.700001
20
0.001000
30
-21.000999
70
192
0
VERTEX
8
OBJECT__37
10
63.700001
20
10.501000
30
-18.187000
70
192
0
VERTEX
8
OBJECT__37
10
63.700001
20
6.509000
30
-13.515000
70
192
0
VERTEX
8
OBJECT__37
10
63.700001
20
18.187000
30
-10.501000
70
192
0
VERTEX
8
OBJECT__37
10
63.700001
20
11.728000
30
-9.353000
70
192
0
VERTEX
8
OBJECT__37
10
63.700001
20
10.501000
30
18.186001
70
192
0
VERTEX
8
OBJECT__37
10
63.700001
20
6.509000
30
13.514000
70
192
0
VERTEX
8
OBJECT__37
10
63.700001
20
11.728000
30
9.351000
70
192
0
VERTEX
8
OBJECT__37
10
63.700001
20
0.001000
30
20.999001
70
192
0
VERTEX
8
OBJECT__37
10
63.700001
20
0.001000
30
14.999000
70
192
0
VERTEX
8
OBJECT__37
10
63.700001
20
21.000999
30
-0.001000
70
192
0
VERTEX
8
OBJECT__37
10
63.700001
20
14.625000
30
-3.339000
70
192
0
VERTEX
8
OBJECT__37
10
63.700001
20
18.187000
30
10.499000
70
192
0
VERTEX
8
OBJECT__37
10
63.700001
20
14.625000
30
3.337000
70
192
0
VERTEX
8
OBJECT__37
10
63.700001
20
-10.499000
30
18.186001
70
192
0
VERTEX
8
OBJECT__37
10
63.700001
20
-6.507000
30
13.514000
70
192
0
VERTEX
8
OBJECT__37
10
63.700001
20
-18.186001
30
10.499000
70
192
0
VERTEX
8
OBJECT__37
10
63.700001
20
-11.727000
30
9.351000
70
192
0
VERTEX
8
OBJECT__37
10
63.700001
20
-20.999001
30
-0.001000
70
192
0
VERTEX
8
OBJECT__37
10
63.700001
20
-14.623000
30
3.337000
70
192
0
VERTEX
8
OBJECT__37
10
63.700001
20
-18.186001
30
-10.501000
70
192
0
VERTEX
8
OBJECT__37
10
63.700001
20
-11.727000
30
-9.353000
70
192
0
VERTEX
8
OBJECT__37
10
63.700001
20
-14.623000
30
-3.339000
70
192
0
VERTEX
8
OBJECT__37
10
63.700001
20
-10.499000
30
-18.187000
70
192
0
VERTEX
8
OBJECT__37
10
63.700001
20
-6.507000
30
-13.515000
70
192
0
VERTEX
8
OBJECT__37
10
63.700001
20
0.001000
30
-15.001000
70
192
0
VERTEX
8
OBJECT__37
10
0
20
0
30
0
70
128
71
1
72
2
73
3
0
VERTEX
8
OBJECT__37
10
0
20
0
30
0
70
128
71
2
72
4
73
5
0
VERTEX
8
OBJECT__37
10
0
20
0
30
0
70
128
71
6
72
7
73
8
0
VERTEX
8
OBJECT__37
10
0
20
0
30
0
70
128
71
9
72
10
73
7
0
VERTEX
8
OBJECT__37
10
0
20
0
30
0
70
128
71
5
72
3
73
2
0
VERTEX
8
OBJECT__37
10
0
20
0
30
0
70
128
71
4
72
11
73
12
0
VERTEX
8
OBJECT__37
10
0
20
0
30
0
70
128
71
13
72
8
73
14
0
VERTEX
8
OBJECT__37
10
0
20
0
30
0
70
128
71
7
72
6
73
9
0
VERTEX
8
OBJECT__37
10
0
20
0
30
0
70
128
71
9
72
15
73
16
0
VERTEX
8
OBJECT__37
10
0
20
0
30
0
70
128
71
15
72
17
73
18
0
VERTEX
8
OBJECT__37
10
0
20
0
30
0
70
128
71
17
72
19
73
20
0
VERTEX
8
OBJECT__37
10
0
20
0
30
0
70
128
71
21
72
22
73
23
0
VERTEX
8
OBJECT__37
10
0
20
0
30
0
70
128
71
12
72
5
73
4
0
VERTEX
8
OBJECT__37
10
0
20
0
30
0
70
128
71
14
72
11
73
13
0
VERTEX
8
OBJECT__37
10
0
20
0
30
0
70
128
71
16
72
10
73
9
0
VERTEX
8
OBJECT__37
10
0
20
0
30
0
70
128
71
20
72
18
73
17
0
VERTEX
8
OBJECT__37
10
0
20
0
30
0
70
128
71
23
72
19
73
21
0
VERTEX
8
OBJECT__37
10
0
20
0
30
0
70
128
71
24
72
25
73
22
0
VERTEX
8
OBJECT__37
10
0
20
0
30
0
70
128
71
14
72
12
73
11
0
VERTEX
8
OBJECT__37
10
0
20
0
30
0
70
128
71
18
72
16
73
15
0
VERTEX
8
OBJECT__37
10
0
20
0
30
0
70
128
71
22
72
21
73
24
0
VERTEX
8
OBJECT__37
10
0
20
0
30
0
70
128
71
1
72
26
73
25
0
VERTEX
8
OBJECT__37
10
0
20
0
30
0
70
128
71
8
72
13
73
6
0
VERTEX
8
OBJECT__37
10
0
20
0
30
0
70
128
71
25
72
24
73
1
0
VERTEX
8
OBJECT__37
10
0
20
0
30
0
70
128
71
23
72
20
73
19
0
VERTEX
8
OBJECT__37
10
0
20
0
30
0
70
128
71
3
72
26
73
1
0
SEQEND
8
OBJECT__37
0
POLYLINE
8
OBJECT__38
66
1
70
64
71
36
72
36
62
253
0
VERTEX
8
OBJECT__38
10
63.700001
20
0.001000
30
-15.001000
70
192
0
VERTEX
8
OBJECT__38
10
63.700001
20
6.509000
30
-13.515000
70
192
0
VERTEX
8
OBJECT__38
10
64.699997
20
6.075000
30
-12.615000
70
192
0
VERTEX
8
OBJECT__38
10
63.700001
20
11.728000
30
-9.353000
70
192
0
VERTEX
8
OBJECT__38
10
64.699997
20
10.946000
30
-8.730000
70
192
0
VERTEX
8
OBJECT__38
10
64.699997
20
8.020000
30
-11.064000
70
192
0
VERTEX
8
OBJECT__38
10
63.700001
20
14.625000
30
-3.339000
70
192
0
VERTEX
8
OBJECT__38
10
64.699997
20
13.113000
30
-4.230000
70
192
0
VERTEX
8
OBJECT__38
10
64.699997
20
13.650000
30
-3.116000
70
192
0
VERTEX
8
OBJECT__38
10
63.700001
20
14.625000
30
3.337000
70
192
0
VERTEX
8
OBJECT__38
10
64.699997
20
13.650000
30
3.114000
70
192
0
VERTEX
8
OBJECT__38
10
63.700001
20
11.728000
30
9.351000
70
192
0
VERTEX
8
OBJECT__38
10
64.699997
20
10.946000
30
8.728000
70
192
0
VERTEX
8
OBJECT__38
10
64.699997
20
13.113000
30
4.228000
70
192
0
VERTEX
8
OBJECT__38
10
63.700001
20
6.509000
30
13.514000
70
192
0
VERTEX
8
OBJECT__38
10
64.699997
20
8.020000
30
11.062000
70
192
0
VERTEX
8
OBJECT__38
10
64.699997
20
6.075000
30
12.613000
70
192
0
VERTEX
8
OBJECT__38
10
63.700001
20
0.001000
30
14.999000
70
192
0
VERTEX
8
OBJECT__38
10
64.699997
20
0.001000
30
13.999000
70
192
0
VERTEX
8
OBJECT__38
10
63.700001
20
-6.507000
30
13.514000
70
192
0
VERTEX
8
OBJECT__38
10
64.699997
20
-6.074000
30
12.613000
70
192
0
VERTEX
8
OBJECT__38
10
63.700001
20
-11.727000
30
9.351000
70
192
0
VERTEX
8
OBJECT__38
10
64.699997
20
-10.945000
30
8.728000
70
192
0
VERTEX
8
OBJECT__38
10
64.699997
20
-8.018000
30
11.062000
70
192
0
VERTEX
8
OBJECT__38
10
63.700001
20
-14.623000
30
3.337000
70
192
0
VERTEX
8
OBJECT__38
10
64.699997
20
-13.112000
30
4.228000
70
192
0
VERTEX
8
OBJECT__38
10
64.699997
20
-13.648000
30
3.114000
70
192
0
VERTEX
8
OBJECT__38
10
63.700001
20
-14.623000
30
-3.339000
70
192
0
VERTEX
8
OBJECT__38
10
64.699997
20
-13.648000
30
-3.116000
70
192
0
VERTEX
8
OBJECT__38
10
63.700001
20
-11.727000
30
-9.353000
70
192
0
VERTEX
8
OBJECT__38
10
64.699997
20
-10.945000
30
-8.730000
70
192
0
VERTEX
8
OBJECT__38
10
64.699997
20
-13.112000
30
-4.230000
70
192
0
VERTEX
8
OBJECT__38
10
63.700001
20
-6.507000
30
-13.515000
70
192
0
VERTEX
8
OBJECT__38
10
64.699997
20
-8.018000
30
-11.064000
70
192
0
VERTEX
8
OBJECT__38
10
64.699997
20
-6.074000
30
-12.615000
70
192
0
VERTEX
8
OBJECT__38
10
64.699997
20
0.001000
30
-14.001000
70
192
0
VERTEX
8
OBJECT__38
10
0
20
0
30
0
70
128
71
1
72
2
73
3
0
VERTEX
8
OBJECT__38
10
0
20
0
30
0
70
128
71
4
72
5
73
6
0
VERTEX
8
OBJECT__38
10
0
20
0
30
0
70
128
71
6
72
2
73
4
0
VERTEX
8
OBJECT__38
10
0
20
0
30
0
70
128
71
4
72
7
73
8
0
VERTEX
8
OBJECT__38
10
0
20
0
30
0
70
128
71
7
72
9
73
8
0
VERTEX
8
OBJECT__38
10
0
20
0
30
0
70
128
71
7
72
10
73
11
0
VERTEX
8
OBJECT__38
10
0
20
0
30
0
70
128
71
12
72
13
73
14
0
VERTEX
8
OBJECT__38
10
0
20
0
30
0
70
128
71
14
72
10
73
12
0
VERTEX
8
OBJECT__38
10
0
20
0
30
0
70
128
71
12
72
15
73
16
0
VERTEX
8
OBJECT__38
10
0
20
0
30
0
70
128
71
15
72
17
73
16
0
VERTEX
8
OBJECT__38
10
0
20
0
30
0
70
128
71
15
72
18
73
19
0
VERTEX
8
OBJECT__38
10
0
20
0
30
0
70
128
71
18
72
20
73
21
0
VERTEX
8
OBJECT__38
10
0
20
0
30
0
70
128
71
22
72
23
73
24
0
VERTEX
8
OBJECT__38
10
0
20
0
30
0
70
128
71
24
72
20
73
22
0
VERTEX
8
OBJECT__38
10
0
20
0
30
0
70
128
71
22
72
25
73
26
0
VERTEX
8
OBJECT__38
10
0
20
0
30
0
70
128
71
25
72
27
73
26
0
VERTEX
8
OBJECT__38
10
0
20
0
30
0
70
128
71
25
72
28
73
29
0
VERTEX
8
OBJECT__38
10
0
20
0
30
0
70
128
71
30
72
31
73
32
0
VERTEX
8
OBJECT__38
10
0
20
0
30
0
70
128
71
32
72
28
73
30
0
VERTEX
8
OBJECT__38
10
0
20
0
30
0
70
128
71
30
72
33
73
34
0
VERTEX
8
OBJECT__38
10
0
20
0
30
0
70
128
71
33
72
35
73
34
0
VERTEX
8
OBJECT__38
10
0
20
0
30
0
70
128
71
1
72
36
73
35
0
VERTEX
8
OBJECT__38
10
0
20
0
30
0
70
128
71
35
72
33
73
1
0
VERTEX
8
OBJECT__38
10
0
20
0
30
0
70
128
71
34
72
31
73
30
0
VERTEX
8
OBJECT__38
10
0
20
0
30
0
70
128
71
32
72
29
73
28
0
VERTEX
8
OBJECT__38
10
0
20
0
30
0
70
128
71
29
72
27
73
25
0
VERTEX
8
OBJECT__38
10
0
20
0
30
0
70
128
71
26
72
23
73
22
0
VERTEX
8
OBJECT__38
10
0
20
0
30
0
70
128
71
24
72
21
73
20
0
VERTEX
8
OBJECT__38
10
0
20
0
30
0
70
128
71
21
72
19
73
18
0
VERTEX
8
OBJECT__38
10
0
20
0
30
0
70
128
71
19
72
17
73
15
0
VERTEX
8
OBJECT__38
10
0
20
0
30
0
70
128
71
16
72
13
73
12
0
VERTEX
8
OBJECT__38
10
0
20
0
30
0
70
128
71
14
72
11
73
10
0
VERTEX
8
OBJECT__38
10
0
20
0
30
0
70
128
71
11
72
9
73
7
0
VERTEX
8
OBJECT__38
10
0
20
0
30
0
70
128
71
8
72
5
73
4
0
VERTEX
8
OBJECT__38
10
0
20
0
30
0
70
128
71
6
72
3
73
2
0
VERTEX
8
OBJECT__38
10
0
20
0
30
0
70
128
71
3
72
36
73
1
0
SEQEND
8
OBJECT__38
0
POLYLINE
8
OBJECT__39
66
1
70
64
71
32
72
32
62
253
0
VERTEX
8
OBJECT__39
10
71.199997
20
0.001000
30
-14.001000
70
192
0
VERTEX
8
OBJECT__39
10
64.699997
20
0.001000
30
-14.001000
70
192
0
VERTEX
8
OBJECT__39
10
64.699997
20
6.075000
30
-12.615000
70
192
0
VERTEX
8
OBJECT__39
10
71.199997
20
8.230000
30
-11.327000
70
192
0
VERTEX
8
OBJECT__39
10
71.199997
20
13.316000
30
-4.327000
70
192
0
VERTEX
8
OBJECT__39
10
64.699997
20
10.946000
30
-8.730000
70
192
0
VERTEX
8
OBJECT__39
10
64.699997
20
8.020000
30
-11.064000
70
192
0
VERTEX
8
OBJECT__39
10
64.699997
20
13.650000
30
-3.116000
70
192
0
VERTEX
8
OBJECT__39
10
64.699997
20
13.650000
30
3.114000
70
192
0
VERTEX
8
OBJECT__39
10
71.199997
20
13.316000
30
4.325000
70
192
0
VERTEX
8
OBJECT__39
10
64.699997
20
13.113000
30
-4.230000
70
192
0
VERTEX
8
OBJECT__39
10
64.699997
20
13.113000
30
4.228000
70
192
0
VERTEX
8
OBJECT__39
10
64.699997
20
10.946000
30
8.728000
70
192
0
VERTEX
8
OBJECT__39
10
71.199997
20
8.230000
30
11.325000
70
192
0
VERTEX
8
OBJECT__39
10
71.199997
20
0.001000
30
13.999000
70
192
0
VERTEX
8
OBJECT__39
10
64.699997
20
6.075000
30
12.613000
70
192
0
VERTEX
8
OBJECT__39
10
64.699997
20
8.020000
30
11.062000
70
192
0
VERTEX
8
OBJECT__39
10
64.699997
20
0.001000
30
13.999000
70
192
0
VERTEX
8
OBJECT__39
10
64.699997
20
-6.074000
30
12.613000
70
192
0
VERTEX
8
OBJECT__39
10
71.199997
20
-8.228000
30
11.325000
70
192
0
VERTEX
8
OBJECT__39
10
71.199997
20
-13.314000
30
4.325000
70
192
0
VERTEX
8
OBJECT__39
10
64.699997
20
-10.945000
30
8.728000
70
192
0
VERTEX
8
OBJECT__39
10
64.699997
20
-8.018000
30
11.062000
70
192
0
VERTEX
8
OBJECT__39
10
71.199997
20
-13.314000
30
-4.327000
70
192
0
VERTEX
8
OBJECT__39
10
64.699997
20
-13.648000
30
3.114000
70
192
0
VERTEX
8
OBJECT__39
10
64.699997
20
-13.648000
30
-3.116000
70
192
0
VERTEX
8
OBJECT__39
10
64.699997
20
-13.112000
30
4.228000
70
192
0
VERTEX
8
OBJECT__39
10
64.699997
20
-13.112000
30
-4.230000
70
192
0
VERTEX
8
OBJECT__39
10
64.699997
20
-10.945000
30
-8.730000
70
192
0
VERTEX
8
OBJECT__39
10
71.199997
20
-8.228000
30
-11.327000
70
192
0
VERTEX
8
OBJECT__39
10
64.699997
20
-6.074000
30
-12.615000
70
192
0
VERTEX
8
OBJECT__39
10
64.699997
20
-8.018000
30
-11.064000
70
192
0
VERTEX
8
OBJECT__39
10
0
20
0
30
0
70
128
71
1
72
2
73
3
0
VERTEX
8
OBJECT__39
10
0
20
0
30
0
70
128
71
3
72
4
73
1
0
VERTEX
8
OBJECT__39
10
0
20
0
30
0
70
128
71
5
72
4
73
6
0
VERTEX
8
OBJECT__39
10
0
20
0
30
0
70
128
71
4
72
7
73
6
0
VERTEX
8
OBJECT__39
10
0
20
0
30
0
70
128
71
5
72
8
73
9
0
VERTEX
8
OBJECT__39
10
0
20
0
30
0
70
128
71
9
72
10
73
5
0
VERTEX
8
OBJECT__39
10
0
20
0
30
0
70
128
71
5
72
11
73
8
0
VERTEX
8
OBJECT__39
10
0
20
0
30
0
70
128
71
10
72
12
73
13
0
VERTEX
8
OBJECT__39
10
0
20
0
30
0
70
128
71
13
72
14
73
10
0
VERTEX
8
OBJECT__39
10
0
20
0
30
0
70
128
71
15
72
14
73
16
0
VERTEX
8
OBJECT__39
10
0
20
0
30
0
70
128
71
14
72
17
73
16
0
VERTEX
8
OBJECT__39
10
0
20
0
30
0
70
128
71
15
72
18
73
19
0
VERTEX
8
OBJECT__39
10
0
20
0
30
0
70
128
71
19
72
20
73
15
0
VERTEX
8
OBJECT__39
10
0
20
0
30
0
70
128
71
21
72
20
73
22
0
VERTEX
8
OBJECT__39
10
0
20
0
30
0
70
128
71
20
72
23
73
22
0
VERTEX
8
OBJECT__39
10
0
20
0
30
0
70
128
71
24
72
21
73
25
0
VERTEX
8
OBJECT__39
10
0
20
0
30
0
70
128
71
25
72
26
73
24
0
VERTEX
8
OBJECT__39
10
0
20
0
30
0
70
128
71
21
72
27
73
25
0
VERTEX
8
OBJECT__39
10
0
20
0
30
0
70
128
71
24
72
28
73
29
0
VERTEX
8
OBJECT__39
10
0
20
0
30
0
70
128
71
29
72
30
73
24
0
VERTEX
8
OBJECT__39
10
0
20
0
30
0
70
128
71
1
72
30
73
31
0
VERTEX
8
OBJECT__39
10
0
20
0
30
0
70
128
71
30
72
32
73
31
0
VERTEX
8
OBJECT__39
10
0
20
0
30
0
70
128
71
31
72
2
73
1
0
VERTEX
8
OBJECT__39
10
0
20
0
30
0
70
128
71
29
72
32
73
30
0
VERTEX
8
OBJECT__39
10
0
20
0
30
0
70
128
71
26
72
28
73
24
0
VERTEX
8
OBJECT__39
10
0
20
0
30
0
70
128
71
22
72
27
73
21
0
VERTEX
8
OBJECT__39
10
0
20
0
30
0
70
128
71
19
72
23
73
20
0
VERTEX
8
OBJECT__39
10
0
20
0
30
0
70
128
71
16
72
18
73
15
0
VERTEX
8
OBJECT__39
10
0
20
0
30
0
70
128
71
13
72
17
73
14
0
VERTEX
8
OBJECT__39
10
0
20
0
30
0
70
128
71
9
72
12
73
10
0
VERTEX
8
OBJECT__39
10
0
20
0
30
0
70
128
71
6
72
11
73
5
0
VERTEX
8
OBJECT__39
10
0
20
0
30
0
70
128
71
3
72
7
73
4
0
SEQEND
8
OBJECT__39
0
POLYLINE
8
OBJECT__40
66
1
70
64
71
20
72
20
62
253
0
VERTEX
8
OBJECT__40
10
71.199997
20
13.316000
30
4.325000
70
192
0
VERTEX
8
OBJECT__40
10
71.199997
20
8.230000
30
11.325000
70
192
0
VERTEX
8
OBJECT__40
10
71.199997
20
5.585000
30
7.685000
70
192
0
VERTEX
8
OBJECT__40
10
71.199997
20
0.001000
30
13.999000
70
192
0
VERTEX
8
OBJECT__40
10
71.199997
20
0.001000
30
9.499000
70
192
0
VERTEX
8
OBJECT__40
10
71.199997
20
-8.228000
30
11.325000
70
192
0
VERTEX
8
OBJECT__40
10
71.199997
20
-5.583000
30
7.685000
70
192
0
VERTEX
8
OBJECT__40
10
71.199997
20
-13.314000
30
4.325000
70
192
0
VERTEX
8
OBJECT__40
10
71.199997
20
-9.034000
30
2.935000
70
192
0
VERTEX
8
OBJECT__40
10
71.199997
20
9.036000
30
2.935000
70
192
0
VERTEX
8
OBJECT__40
10
71.199997
20
9.036000
30
-2.937000
70
192
0
VERTEX
8
OBJECT__40
10
71.199997
20
-13.314000
30
-4.327000
70
192
0
VERTEX
8
OBJECT__40
10
71.199997
20
-9.034000
30
-2.937000
70
192
0
VERTEX
8
OBJECT__40
10
71.199997
20
-8.228000
30
-11.327000
70
192
0
VERTEX
8
OBJECT__40
10
71.199997
20
-5.583000
30
-7.687000
70
192
0
VERTEX
8
OBJECT__40
10
71.199997
20
0.001000
30
-14.001000
70
192
0
VERTEX
8
OBJECT__40
10
71.199997
20
8.230000
30
-11.327000
70
192
0
VERTEX
8
OBJECT__40
10
71.199997
20
5.585000
30
-7.687000
70
192
0
VERTEX
8
OBJECT__40
10
71.199997
20
13.316000
30
-4.327000
70
192
0
VERTEX
8
OBJECT__40
10
71.199997
20
0.001000
30
-9.501000
70
192
0
VERTEX
8
OBJECT__40
10
0
20
0
30
0
70
128
71
1
72
2
73
3
0
VERTEX
8
OBJECT__40
10
0
20
0
30
0
70
128
71
2
72
4
73
5
0
VERTEX
8
OBJECT__40
10
0
20
0
30
0
70
128
71
5
72
3
73
2
0
VERTEX
8
OBJECT__40
10
0
20
0
30
0
70
128
71
6
72
7
73
5
0
VERTEX
8
OBJECT__40
10
0
20
0
30
0
70
128
71
5
72
4
73
6
0
VERTEX
8
OBJECT__40
10
0
20
0
30
0
70
128
71
8
72
9
73
7
0
VERTEX
8
OBJECT__40
10
0
20
0
30
0
70
128
71
1
72
10
73
11
0
VERTEX
8
OBJECT__40
10
0
20
0
30
0
70
128
71
7
72
6
73
8
0
VERTEX
8
OBJECT__40
10
0
20
0
30
0
70
128
71
12
72
13
73
9
0
VERTEX
8
OBJECT__40
10
0
20
0
30
0
70
128
71
14
72
15
73
13
0
VERTEX
8
OBJECT__40
10
0
20
0
30
0
70
128
71
3
72
10
73
1
0
VERTEX
8
OBJECT__40
10
0
20
0
30
0
70
128
71
13
72
12
73
14
0
VERTEX
8
OBJECT__40
10
0
20
0
30
0
70
128
71
16
72
17
73
18
0
VERTEX
8
OBJECT__40
10
0
20
0
30
0
70
128
71
17
72
19
73
11
0
VERTEX
8
OBJECT__40
10
0
20
0
30
0
70
128
71
9
72
8
73
12
0
VERTEX
8
OBJECT__40
10
0
20
0
30
0
70
128
71
16
72
20
73
15
0
VERTEX
8
OBJECT__40
10
0
20
0
30
0
70
128
71
11
72
18
73
17
0
VERTEX
8
OBJECT__40
10
0
20
0
30
0
70
128
71
15
72
14
73
16
0
VERTEX
8
OBJECT__40
10
0
20
0
30
0
70
128
71
11
72
19
73
1
0
VERTEX
8
OBJECT__40
10
0
20
0
30
0
70
128
71
18
72
20
73
16
0
SEQEND
8
OBJECT__40
0
POLYLINE
8
OBJECT__41
66
1
70
64
71
30
72
30
62
253
0
VERTEX
8
OBJECT__41
10
51.147999
20
1.271000
30
110.043999
70
192
0
VERTEX
8
OBJECT__41
10
46.066002
20
1.535000
30
109.995003
70
192
0
VERTEX
8
OBJECT__41
10
45.826000
20
0.117000
30
110.149002
70
192
0
VERTEX
8
OBJECT__41
10
46.528000
20
2.484000
30
109.716003
70
192
0
VERTEX
8
OBJECT__41
10
45.841000
20
0.017000
30
110.139999
70
192
0
VERTEX
8
OBJECT__41
10
55.769001
20
0.017000
30
110.113998
70
192
0
VERTEX
8
OBJECT__41
10
50.605000
20
4.995000
30
108.309998
70
192
0
VERTEX
8
OBJECT__41
10
49.290001
20
4.759000
30
108.503998
70
192
0
VERTEX
8
OBJECT__41
10
50.823002
20
4.975000
30
108.327003
70
192
0
VERTEX
8
OBJECT__41
10
47.722000
20
3.921000
30
109.077003
70
192
0
VERTEX
8
OBJECT__41
10
46.676998
20
2.792000
30
109.625999
70
192
0
VERTEX
8
OBJECT__41
10
53.137001
20
4.434000
30
108.746002
70
192
0
VERTEX
8
OBJECT__41
10
51.949001
20
4.872000
30
108.413002
70
192
0
VERTEX
8
OBJECT__41
10
55.106998
20
2.466000
30
109.712997
70
192
0
VERTEX
8
OBJECT__41
10
54.331001
20
3.565000
30
109.275002
70
192
0
VERTEX
8
OBJECT__41
10
55.776001
20
0.699000
30
110.117996
70
192
0
VERTEX
8
OBJECT__41
10
55.356998
20
2.113000
30
109.853996
70
192
0
VERTEX
8
OBJECT__41
10
50.480000
20
-1.251000
30
110.047997
70
192
0
VERTEX
8
OBJECT__41
10
55.348000
20
-2.132000
30
109.848999
70
192
0
VERTEX
8
OBJECT__41
10
55.759998
20
-0.803000
30
110.108002
70
192
0
VERTEX
8
OBJECT__41
10
55.118999
20
-2.476000
30
109.718002
70
192
0
VERTEX
8
OBJECT__41
10
51.872002
20
-4.889000
30
108.399002
70
192
0
VERTEX
8
OBJECT__41
10
53.263000
20
-4.365000
30
108.792999
70
192
0
VERTEX
8
OBJECT__41
10
48.112999
20
-4.200000
30
108.903000
70
192
0
VERTEX
8
OBJECT__41
10
49.382000
20
-4.787000
30
108.481003
70
192
0
VERTEX
8
OBJECT__41
10
50.825001
20
-5.000000
30
108.306000
70
192
0
VERTEX
8
OBJECT__41
10
46.567001
20
-2.461000
30
109.697998
70
192
0
VERTEX
8
OBJECT__41
10
46.942001
20
-3.149000
30
109.475998
70
192
0
VERTEX
8
OBJECT__41
10
54.549000
20
-3.336000
30
109.389999
70
192
0
VERTEX
8
OBJECT__41
10
46.070000
20
-1.547000
30
109.992996
70
192
0
VERTEX
8
OBJECT__41
10
0
20
0
30
0
70
128
71
1
72
2
73
3
0
VERTEX
8
OBJECT__41
10
0
20
0
30
0
70
128
71
1
72
4
73
2
0
VERTEX
8
OBJECT__41
10
0
20
0
30
0
70
128
71
5
72
6
73
1
0
VERTEX
8
OBJECT__41
10
0
20
0
30
0
70
128
71
1
72
7
73
8
0
VERTEX
8
OBJECT__41
10
0
20
0
30
0
70
128
71
1
72
9
73
7
0
VERTEX
8
OBJECT__41
10
0
20
0
30
0
70
128
71
8
72
10
73
1
0
VERTEX
8
OBJECT__41
10
0
20
0
30
0
70
128
71
10
72
11
73
1
0
VERTEX
8
OBJECT__41
10
0
20
0
30
0
70
128
71
1
72
12
73
13
0
VERTEX
8
OBJECT__41
10
0
20
0
30
0
70
128
71
1
72
14
73
15
0
VERTEX
8
OBJECT__41
10
0
20
0
30
0
70
128
71
15
72
12
73
1
0
VERTEX
8
OBJECT__41
10
0
20
0
30
0
70
128
71
1
72
16
73
17
0
VERTEX
8
OBJECT__41
10
0
20
0
30
0
70
128
71
1
72
6
73
16
0
VERTEX
8
OBJECT__41
10
0
20
0
30
0
70
128
71
17
72
14
73
1
0
VERTEX
8
OBJECT__41
10
0
20
0
30
0
70
128
71
13
72
9
73
1
0
VERTEX
8
OBJECT__41
10
0
20
0
30
0
70
128
71
11
72
4
73
1
0
VERTEX
8
OBJECT__41
10
0
20
0
30
0
70
128
71
18
72
19
73
20
0
VERTEX
8
OBJECT__41
10
0
20
0
30
0
70
128
71
18
72
21
73
19
0
VERTEX
8
OBJECT__41
10
0
20
0
30
0
70
128
71
6
72
5
73
18
0
VERTEX
8
OBJECT__41
10
0
20
0
30
0
70
128
71
18
72
22
73
23
0
VERTEX
8
OBJECT__41
10
0
20
0
30
0
70
128
71
18
72
24
73
25
0
VERTEX
8
OBJECT__41
10
0
20
0
30
0
70
128
71
25
72
26
73
18
0
VERTEX
8
OBJECT__41
10
0
20
0
30
0
70
128
71
26
72
22
73
18
0
VERTEX
8
OBJECT__41
10
0
20
0
30
0
70
128
71
18
72
27
73
28
0
VERTEX
8
OBJECT__41
10
0
20
0
30
0
70
128
71
28
72
24
73
18
0
VERTEX
8
OBJECT__41
10
0
20
0
30
0
70
128
71
23
72
29
73
18
0
VERTEX
8
OBJECT__41
10
0
20
0
30
0
70
128
71
18
72
5
73
30
0
VERTEX
8
OBJECT__41
10
0
20
0
30
0
70
128
71
30
72
27
73
18
0
VERTEX
8
OBJECT__41
10
0
20
0
30
0
70
128
71
29
72
21
73
18
0
VERTEX
8
OBJECT__41
10
0
20
0
30
0
70
128
71
20
72
6
73
18
0
VERTEX
8
OBJECT__41
10
0
20
0
30
0
70
128
71
3
72
5
73
1
0
SEQEND
8
OBJECT__41
0
POLYLINE
8
OBJECT__42
66
1
70
64
71
52
72
52
62
253
0
VERTEX
8
OBJECT__42
10
46.942001
20
-3.149000
30
109.475998
70
192
0
VERTEX
8
OBJECT__42
10
46.730000
20
-2.869000
30
108.834999
70
192
0
VERTEX
8
OBJECT__42
10
47.784000
20
-3.969000
30
108.216003
70
192
0
VERTEX
8
OBJECT__42
10
49.391998
20
-4.790000
30
107.554001
70
192
0
VERTEX
8
OBJECT__42
10
49.382000
20
-4.787000
30
108.481003
70
192
0
VERTEX
8
OBJECT__42
10
48.112999
20
-4.200000
30
108.903000
70
192
0
VERTEX
8
OBJECT__42
10
46.567001
20
-2.461000
30
109.697998
70
192
0
VERTEX
8
OBJECT__42
10
46.530998
20
-2.481000
30
108.968002
70
192
0
VERTEX
8
OBJECT__42
10
50.825001
20
-5.000000
30
108.306000
70
192
0
VERTEX
8
OBJECT__42
10
50.825001
20
-5.000000
30
107.348999
70
192
0
VERTEX
8
OBJECT__42
10
46.070000
20
-1.547000
30
109.992996
70
192
0
VERTEX
8
OBJECT__42
10
46.108002
20
-1.658000
30
109.250999
70
192
0
VERTEX
8
OBJECT__42
10
45.841000
20
0.017000
30
110.139999
70
192
0
VERTEX
8
OBJECT__42
10
45.834999
20
-0.310000
30
109.443001
70
192
0
VERTEX
8
OBJECT__42
10
45.826000
20
0.117000
30
110.149002
70
192
0
VERTEX
8
OBJECT__42
10
46.066002
20
1.535000
30
109.995003
70
192
0
VERTEX
8
OBJECT__42
10
45.980000
20
1.234000
30
109.339996
70
192
0
VERTEX
8
OBJECT__42
10
45.863998
20
-0.002000
30
109.422997
70
192
0
VERTEX
8
OBJECT__42
10
46.528000
20
2.484000
30
109.716003
70
192
0
VERTEX
8
OBJECT__42
10
46.511002
20
2.493000
30
108.978996
70
192
0
VERTEX
8
OBJECT__42
10
49.118999
20
4.700000
30
107.637001
70
192
0
VERTEX
8
OBJECT__42
10
49.290001
20
4.759000
30
108.503998
70
192
0
VERTEX
8
OBJECT__42
10
50.605000
20
4.995000
30
108.309998
70
192
0
VERTEX
8
OBJECT__42
10
46.676998
20
2.792000
30
109.625999
70
192
0
VERTEX
8
OBJECT__42
10
46.561001
20
2.612000
30
108.944000
70
192
0
VERTEX
8
OBJECT__42
10
47.674999
20
3.883000
30
108.274002
70
192
0
VERTEX
8
OBJECT__42
10
47.722000
20
3.921000
30
109.077003
70
192
0
VERTEX
8
OBJECT__42
10
50.825001
20
5.000000
30
107.348999
70
192
0
VERTEX
8
OBJECT__42
10
53.226002
20
3.798000
30
107.628998
70
192
0
VERTEX
8
OBJECT__42
10
53.137001
20
4.434000
30
108.746002
70
192
0
VERTEX
8
OBJECT__42
10
54.331001
20
3.565000
30
109.275002
70
192
0
VERTEX
8
OBJECT__42
10
50.825001
20
5.000000
30
106.986000
70
192
0
VERTEX
8
OBJECT__42
10
51.949001
20
4.872000
30
108.413002
70
192
0
VERTEX
8
OBJECT__42
10
55.106998
20
2.466000
30
109.712997
70
192
0
VERTEX
8
OBJECT__42
10
54.924999
20
2.458000
30
108.084000
70
192
0
VERTEX
8
OBJECT__42
10
54.827000
20
2.997000
30
108.057999
70
192
0
VERTEX
8
OBJECT__42
10
50.823002
20
4.975000
30
108.327003
70
192
0
VERTEX
8
OBJECT__42
10
55.759998
20
-0.803000
30
110.108002
70
192
0
VERTEX
8
OBJECT__42
10
55.348000
20
-2.132000
30
109.848999
70
192
0
VERTEX
8
OBJECT__42
10
55.623001
20
-1.407000
30
108.271004
70
192
0
VERTEX
8
OBJECT__42
10
55.382999
20
-0.080000
30
108.207001
70
192
0
VERTEX
8
OBJECT__42
10
55.769001
20
0.017000
30
110.113998
70
192
0
VERTEX
8
OBJECT__42
10
55.356998
20
2.113000
30
109.853996
70
192
0
VERTEX
8
OBJECT__42
10
55.776001
20
0.699000
30
110.117996
70
192
0
VERTEX
8
OBJECT__42
10
55.118999
20
-2.476000
30
109.718002
70
192
0
VERTEX
8
OBJECT__42
10
54.860001
20
-2.227000
30
108.067001
70
192
0
VERTEX
8
OBJECT__42
10
52.574001
20
-4.684000
30
107.454002
70
192
0
VERTEX
8
OBJECT__42
10
51.872002
20
-4.889000
30
108.399002
70
192
0
VERTEX
8
OBJECT__42
10
53.263000
20
-4.365000
30
108.792999
70
192
0
VERTEX
8
OBJECT__42
10
53.198002
20
-4.013000
30
107.622002
70
192
0
VERTEX
8
OBJECT__42
10
54.549000
20
-3.336000
30
109.389999
70
192
0
VERTEX
8
OBJECT__42
10
50.825001
20
-5.000000
30
106.986000
70
192
0
VERTEX
8
OBJECT__42
10
0
20
0
30
0
70
128
71
1
72
2
73
3
0
VERTEX
8
OBJECT__42
10
0
20
0
30
0
70
128
71
3
72
4
73
5
0
VERTEX
8
OBJECT__42
10
0
20
0
30
0
70
128
71
5
72
6
73
3
0
VERTEX
8
OBJECT__42
10
0
20
0
30
0
70
128
71
1
72
7
73
8
0
VERTEX
8
OBJECT__42
10
0
20
0
30
0
70
128
71
8
72
2
73
1
0
VERTEX
8
OBJECT__42
10
0
20
0
30
0
70
128
71
9
72
5
73
4
0
VERTEX
8
OBJECT__42
10
0
20
0
30
0
70
128
71
4
72
10
73
9
0
VERTEX
8
OBJECT__42
10
0
20
0
30
0
70
128
71
7
72
11
73
12
0
VERTEX
8
OBJECT__42
10
0
20
0
30
0
70
128
71
11
72
13
73
14
0
VERTEX
8
OBJECT__42
10
0
20
0
30
0
70
128
71
14
72
12
73
11
0
VERTEX
8
OBJECT__42
10
0
20
0
30
0
70
128
71
15
72
16
73
17
0
VERTEX
8
OBJECT__42
10
0
20
0
30
0
70
128
71
18
72
13
73
15
0
VERTEX
8
OBJECT__42
10
0
20
0
30
0
70
128
71
17
72
18
73
15
0
VERTEX
8
OBJECT__42
10
0
20
0
30
0
70
128
71
18
72
14
73
13
0
VERTEX
8
OBJECT__42
10
0
20
0
30
0
70
128
71
17
72
16
73
19
0
VERTEX
8
OBJECT__42
10
0
20
0
30
0
70
128
71
19
72
20
73
17
0
VERTEX
8
OBJECT__42
10
0
20
0
30
0
70
128
71
21
72
22
73
23
0
VERTEX
8
OBJECT__42
10
0
20
0
30
0
70
128
71
24
72
25
73
20
0
VERTEX
8
OBJECT__42
10
0
20
0
30
0
70
128
71
22
72
21
73
26
0
VERTEX
8
OBJECT__42
10
0
20
0
30
0
70
128
71
25
72
24
73
27
0
VERTEX
8
OBJECT__42
10
0
20
0
30
0
70
128
71
27
72
26
73
25
0
VERTEX
8
OBJECT__42
10
0
20
0
30
0
70
128
71
26
72
27
73
22
0
VERTEX
8
OBJECT__42
10
0
20
0
30
0
70
128
71
20
72
19
73
24
0
VERTEX
8
OBJECT__42
10
0
20
0
30
0
70
128
71
23
72
28
73
21
0
VERTEX
8
OBJECT__42
10
0
20
0
30
0
70
128
71
29
72
30
73
31
0
VERTEX
8
OBJECT__42
10
0
20
0
30
0
70
128
71
29
72
32
73
33
0
VERTEX
8
OBJECT__42
10
0
20
0
30
0
70
128
71
33
72
30
73
29
0
VERTEX
8
OBJECT__42
10
0
20
0
30
0
70
128
71
34
72
35
73
36
0
VERTEX
8
OBJECT__42
10
0
20
0
30
0
70
128
71
36
72
31
73
34
0
VERTEX
8
OBJECT__42
10
0
20
0
30
0
70
128
71
33
72
32
73
28
0
VERTEX
8
OBJECT__42
10
0
20
0
30
0
70
128
71
28
72
37
73
33
0
VERTEX
8
OBJECT__42
10
0
20
0
30
0
70
128
71
38
72
39
73
40
0
VERTEX
8
OBJECT__42
10
0
20
0
30
0
70
128
71
41
72
42
73
38
0
VERTEX
8
OBJECT__42
10
0
20
0
30
0
70
128
71
41
72
35
73
43
0
VERTEX
8
OBJECT__42
10
0
20
0
30
0
70
128
71
43
72
44
73
41
0
VERTEX
8
OBJECT__42
10
0
20
0
30
0
70
128
71
35
72
34
73
43
0
VERTEX
8
OBJECT__42
10
0
20
0
30
0
70
128
71
44
72
42
73
41
0
VERTEX
8
OBJECT__42
10
0
20
0
30
0
70
128
71
40
72
39
73
45
0
VERTEX
8
OBJECT__42
10
0
20
0
30
0
70
128
71
45
72
46
73
40
0
VERTEX
8
OBJECT__42
10
0
20
0
30
0
70
128
71
10
72
47
73
48
0
VERTEX
8
OBJECT__42
10
0
20
0
30
0
70
128
71
48
72
9
73
10
0
VERTEX
8
OBJECT__42
10
0
20
0
30
0
70
128
71
49
72
48
73
47
0
VERTEX
8
OBJECT__42
10
0
20
0
30
0
70
128
71
50
72
46
73
51
0
VERTEX
8
OBJECT__42
10
0
20
0
30
0
70
128
71
46
72
45
73
51
0
VERTEX
8
OBJECT__42
10
0
20
0
30
0
70
128
71
51
72
49
73
50
0
VERTEX
8
OBJECT__42
10
0
20
0
30
0
70
128
71
47
72
50
73
49
0
VERTEX
8
OBJECT__42
10
0
20
0
30
0
70
128
71
10
72
52
73
47
0
VERTEX
8
OBJECT__42
10
0
20
0
30
0
70
128
71
40
72
41
73
38
0
VERTEX
8
OBJECT__42
10
0
20
0
30
0
70
128
71
31
72
36
73
29
0
VERTEX
8
OBJECT__42
10
0
20
0
30
0
70
128
71
23
72
37
73
28
0
VERTEX
8
OBJECT__42
10
0
20
0
30
0
70
128
71
12
72
8
73
7
0
VERTEX
8
OBJECT__42
10
0
20
0
30
0
70
128
71
3
72
6
73
1
0
SEQEND
8
OBJECT__42
0
POLYLINE
8
OBJECT__44
66
1
70
64
71
23
72
21
62
253
0
VERTEX
8
OBJECT__44
10
53.226002
20
3.798000
30
107.628998
70
192
0
VERTEX
8
OBJECT__44
10
58.178001
20
3.844000
30
99.050003
70
192
0
VERTEX
8
OBJECT__44
10
54.598000
20
5.000000
30
100.452003
70
192
0
VERTEX
8
OBJECT__44
10
55.806000
20
4.988000
30
99.050003
70
192
0
VERTEX
8
OBJECT__44
10
52.951000
20
4.525000
30
99.050003
70
192
0
VERTEX
8
OBJECT__44
10
52.847000
20
4.573000
30
99.441002
70
192
0
VERTEX
8
OBJECT__44
10
55.382999
20
-0.080000
30
108.207001
70
192
0
VERTEX
8
OBJECT__44
10
60.738998
20
-0.071000
30
99.050003
70
192
0
VERTEX
8
OBJECT__44
10
60.092999
20
2.920000
30
99.050003
70
192
0
VERTEX
8
OBJECT__44
10
54.924999
20
2.458000
30
108.084000
70
192
0
VERTEX
8
OBJECT__44
10
54.827000
20
2.997000
30
108.057999
70
192
0
VERTEX
8
OBJECT__44
10
58.255001
20
-4.114000
30
99.050003
70
192
0
VERTEX
8
OBJECT__44
10
60.994999
20
-1.257000
30
99.050003
70
192
0
VERTEX
8
OBJECT__44
10
55.623001
20
-1.407000
30
108.271004
70
192
0
VERTEX
8
OBJECT__44
10
54.860001
20
-2.227000
30
108.067001
70
192
0
VERTEX
8
OBJECT__44
10
52.951000
20
-4.525000
30
99.050003
70
192
0
VERTEX
8
OBJECT__44
10
57.859001
20
-4.527000
30
99.050003
70
192
0
VERTEX
8
OBJECT__44
10
54.598000
20
-5.000000
30
100.452003
70
192
0
VERTEX
8
OBJECT__44
10
52.847000
20
-4.573000
30
99.441002
70
192
0
VERTEX
8
OBJECT__44
10
53.198002
20
-4.013000
30
107.622002
70
192
0
VERTEX
8
OBJECT__44
10
52.574001
20
-4.684000
30
107.454002
70
192
0
VERTEX
8
OBJECT__44
10
50.825001
20
-5.000000
30
106.986000
70
192
0
VERTEX
8
OBJECT__44
10
50.825001
20
5.000000
30
106.986000
70
192
0
VERTEX
8
OBJECT__44
10
0
20
0
30
0
70
128
71
1
72
2
73
3
0
VERTEX
8
OBJECT__44
10
0
20
0
30
0
70
128
71
4
72
5
73
6
0
VERTEX
8
OBJECT__44
10
0
20
0
30
0
70
128
71
3
72
2
73
4
0
VERTEX
8
OBJECT__44
10
0
20
0
30
0
70
128
71
6
72
3
73
4
0
VERTEX
8
OBJECT__44
10
0
20
0
30
0
70
128
71
7
72
8
73
9
0
VERTEX
8
OBJECT__44
10
0
20
0
30
0
70
128
71
10
72
9
73
2
0
VERTEX
8
OBJECT__44
10
0
20
0
30
0
70
128
71
2
72
11
73
10
0
VERTEX
8
OBJECT__44
10
0
20
0
30
0
70
128
71
2
72
1
73
11
0
VERTEX
8
OBJECT__44
10
0
20
0
30
0
70
128
71
12
72
13
73
14
0
VERTEX
8
OBJECT__44
10
0
20
0
30
0
70
128
71
14
72
15
73
12
0
VERTEX
8
OBJECT__44
10
0
20
0
30
0
70
128
71
14
72
13
73
8
0
VERTEX
8
OBJECT__44
10
0
20
0
30
0
70
128
71
8
72
7
73
14
0
VERTEX
8
OBJECT__44
10
0
20
0
30
0
70
128
71
16
72
17
73
18
0
VERTEX
8
OBJECT__44
10
0
20
0
30
0
70
128
71
18
72
19
73
16
0
VERTEX
8
OBJECT__44
10
0
20
0
30
0
70
128
71
20
72
21
73
18
0
VERTEX
8
OBJECT__44
10
0
20
0
30
0
70
128
71
18
72
12
73
20
0
VERTEX
8
OBJECT__44
10
0
20
0
30
0
70
128
71
21
72
22
73
18
0
VERTEX
8
OBJECT__44
10
0
20
0
30
0
70
128
71
17
72
12
73
18
0
VERTEX
8
OBJECT__44
10
0
20
0
30
0
70
128
71
15
72
20
73
12
0
VERTEX
8
OBJECT__44
10
0
20
0
30
0
70
128
71
9
72
10
73
7
0
VERTEX
8
OBJECT__44
10
0
20
0
30
0
70
128
71
3
72
23
73
1
0
SEQEND
8
OBJECT__44
0
POLYLINE
8
OBJECT__45
66
1
70
64
71
29
72
27
62
253
0
VERTEX
8
OBJECT__45
10
45.980000
20
1.234000
30
109.339996
70
192
0
VERTEX
8
OBJECT__45
10
46.511002
20
2.493000
30
108.978996
70
192
0
VERTEX
8
OBJECT__45
10
34.825001
20
5.000000
30
107.348999
70
192
0
VERTEX
8
OBJECT__45
10
33.430000
20
4.802000
30
107.543999
70
192
0
VERTEX
8
OBJECT__45
10
32.210999
20
4.262000
30
108.002998
70
192
0
VERTEX
8
OBJECT__45
10
46.561001
20
2.612000
30
108.944000
70
192
0
VERTEX
8
OBJECT__45
10
45.863998
20
-0.002000
30
109.422997
70
192
0
VERTEX
8
OBJECT__45
10
30.570999
20
2.456000
30
108.947998
70
192
0
VERTEX
8
OBJECT__45
10
30.104000
20
1.648000
30
109.252998
70
192
0
VERTEX
8
OBJECT__45
10
29.832001
20
0.272000
30
109.445000
70
192
0
VERTEX
8
OBJECT__45
10
31.035999
20
3.262000
30
108.642998
70
192
0
VERTEX
8
OBJECT__45
10
29.856001
20
0.001000
30
109.428001
70
192
0
VERTEX
8
OBJECT__45
10
47.674999
20
3.883000
30
108.274002
70
192
0
VERTEX
8
OBJECT__45
10
49.118999
20
4.700000
30
107.637001
70
192
0
VERTEX
8
OBJECT__45
10
29.955999
20
-1.137000
30
109.357002
70
192
0
VERTEX
8
OBJECT__45
10
45.834999
20
-0.310000
30
109.443001
70
192
0
VERTEX
8
OBJECT__45
10
33.970001
20
-4.926000
30
107.422997
70
192
0
VERTEX
8
OBJECT__45
10
34.825001
20
-5.000000
30
107.348999
70
192
0
VERTEX
8
OBJECT__45
10
31.297001
20
-3.543000
30
108.487000
70
192
0
VERTEX
8
OBJECT__45
10
32.675999
20
-4.514000
30
107.800003
70
192
0
VERTEX
8
OBJECT__45
10
30.507999
20
-2.490000
30
108.982002
70
192
0
VERTEX
8
OBJECT__45
10
30.434000
20
-2.392000
30
109.028999
70
192
0
VERTEX
8
OBJECT__45
10
46.730000
20
-2.869000
30
108.834999
70
192
0
VERTEX
8
OBJECT__45
10
46.530998
20
-2.481000
30
108.968002
70
192
0
VERTEX
8
OBJECT__45
10
47.784000
20
-3.969000
30
108.216003
70
192
0
VERTEX
8
OBJECT__45
10
46.108002
20
-1.658000
30
109.250999
70
192
0
VERTEX
8
OBJECT__45
10
49.391998
20
-4.790000
30
107.554001
70
192
0
VERTEX
8
OBJECT__45
10
50.825001
20
-5.000000
30
107.348999
70
192
0
VERTEX
8
OBJECT__45
10
50.825001
20
5.000000
30
107.348999
70
192
0
VERTEX
8
OBJECT__45
10
0
20
0
30
0
70
128
71
1
72
2
73
3
0
VERTEX
8
OBJECT__45
10
0
20
0
30
0
70
128
71
3
72
4
73
1
0
VERTEX
8
OBJECT__45
10
0
20
0
30
0
70
128
71
4
72
5
73
1
0
VERTEX
8
OBJECT__45
10
0
20
0
30
0
70
128
71
2
72
6
73
3
0
VERTEX
8
OBJECT__45
10
0
20
0
30
0
70
128
71
7
72
8
73
9
0
VERTEX
8
OBJECT__45
10
0
20
0
30
0
70
128
71
9
72
10
73
7
0
VERTEX
8
OBJECT__45
10
0
20
0
30
0
70
128
71
7
72
1
73
5
0
VERTEX
8
OBJECT__45
10
0
20
0
30
0
70
128
71
5
72
11
73
7
0
VERTEX
8
OBJECT__45
10
0
20
0
30
0
70
128
71
11
72
8
73
7
0
VERTEX
8
OBJECT__45
10
0
20
0
30
0
70
128
71
10
72
12
73
7
0
VERTEX
8
OBJECT__45
10
0
20
0
30
0
70
128
71
6
72
13
73
3
0
VERTEX
8
OBJECT__45
10
0
20
0
30
0
70
128
71
13
72
14
73
3
0
VERTEX
8
OBJECT__45
10
0
20
0
30
0
70
128
71
12
72
15
73
16
0
VERTEX
8
OBJECT__45
10
0
20
0
30
0
70
128
71
16
72
17
73
18
0
VERTEX
8
OBJECT__45
10
0
20
0
30
0
70
128
71
16
72
19
73
20
0
VERTEX
8
OBJECT__45
10
0
20
0
30
0
70
128
71
20
72
17
73
16
0
VERTEX
8
OBJECT__45
10
0
20
0
30
0
70
128
71
16
72
21
73
19
0
VERTEX
8
OBJECT__45
10
0
20
0
30
0
70
128
71
16
72
15
73
22
0
VERTEX
8
OBJECT__45
10
0
20
0
30
0
70
128
71
22
72
21
73
16
0
VERTEX
8
OBJECT__45
10
0
20
0
30
0
70
128
71
18
72
23
73
24
0
VERTEX
8
OBJECT__45
10
0
20
0
30
0
70
128
71
18
72
25
73
23
0
VERTEX
8
OBJECT__45
10
0
20
0
30
0
70
128
71
24
72
26
73
18
0
VERTEX
8
OBJECT__45
10
0
20
0
30
0
70
128
71
18
72
27
73
25
0
VERTEX
8
OBJECT__45
10
0
20
0
30
0
70
128
71
18
72
26
73
16
0
VERTEX
8
OBJECT__45
10
0
20
0
30
0
70
128
71
18
72
28
73
27
0
VERTEX
8
OBJECT__45
10
0
20
0
30
0
70
128
71
16
72
7
73
12
0
VERTEX
8
OBJECT__45
10
0
20
0
30
0
70
128
71
14
72
29
73
3
0
SEQEND
8
OBJECT__45
0
POLYLINE
8
OBJECT__46
66
1
70
64
71
6
72
4
62
253
0
VERTEX
8
OBJECT__46
10
34.825001
20
5.000000
30
99.050003
70
192
0
VERTEX
8
OBJECT__46
10
50.825001
20
5.000000
30
106.986000
70
192
0
VERTEX
8
OBJECT__46
10
54.598000
20
5.000000
30
100.452003
70
192
0
VERTEX
8
OBJECT__46
10
34.825001
20
5.000000
30
107.348999
70
192
0
VERTEX
8
OBJECT__46
10
50.825001
20
5.000000
30
107.348999
70
192
0
VERTEX
8
OBJECT__46
10
54.598000
20
5.000000
30
99.050003
70
192
0
VERTEX
8
OBJECT__46
10
0
20
0
30
0
70
128
71
1
72
2
73
3
0
VERTEX
8
OBJECT__46
10
0
20
0
30
0
70
128
71
4
72
5
73
2
0
VERTEX
8
OBJECT__46
10
0
20
0
30
0
70
128
71
2
72
1
73
4
0
VERTEX
8
OBJECT__46
10
0
20
0
30
0
70
128
71
3
72
6
73
1
0
SEQEND
8
OBJECT__46
0
POLYLINE
8
OBJECT__47
66
1
70
64
71
6
72
4
62
253
0
VERTEX
8
OBJECT__47
10
34.825001
20
-5.000000
30
107.348999
70
192
0
VERTEX
8
OBJECT__47
10
34.825001
20
-5.000000
30
99.050003
70
192
0
VERTEX
8
OBJECT__47
10
50.825001
20
-5.000000
30
106.986000
70
192
0
VERTEX
8
OBJECT__47
10
54.598000
20
-5.000000
30
99.050003
70
192
0
VERTEX
8
OBJECT__47
10
54.598000
20
-5.000000
30
100.452003
70
192
0
VERTEX
8
OBJECT__47
10
50.825001
20
-5.000000
30
107.348999
70
192
0
VERTEX
8
OBJECT__47
10
0
20
0
30
0
70
128
71
1
72
2
73
3
0
VERTEX
8
OBJECT__47
10
0
20
0
30
0
70
128
71
2
72
4
73
5
0
VERTEX
8
OBJECT__47
10
0
20
0
30
0
70
128
71
5
72
3
73
2
0
VERTEX
8
OBJECT__47
10
0
20
0
30
0
70
128
71
3
72
6
73
1
0
SEQEND
8
OBJECT__47
0
POLYLINE
8
OBJECT__48
66
1
70
64
71
19
72
17
62
253
0
VERTEX
8
OBJECT__48
10
30.495001
20
-2.500000
30
99.050003
70
192
0
VERTEX
8
OBJECT__48
10
32.675999
20
-4.514000
30
107.800003
70
192
0
VERTEX
8
OBJECT__48
10
31.297001
20
-3.543000
30
108.487000
70
192
0
VERTEX
8
OBJECT__48
10
34.825001
20
-5.000000
30
99.050003
70
192
0
VERTEX
8
OBJECT__48
10
33.970001
20
-4.926000
30
107.422997
70
192
0
VERTEX
8
OBJECT__48
10
34.825001
20
-5.000000
30
107.348999
70
192
0
VERTEX
8
OBJECT__48
10
30.495001
20
2.500000
30
99.050003
70
192
0
VERTEX
8
OBJECT__48
10
29.832001
20
0.272000
30
109.445000
70
192
0
VERTEX
8
OBJECT__48
10
30.104000
20
1.648000
30
109.252998
70
192
0
VERTEX
8
OBJECT__48
10
29.856001
20
0.001000
30
109.428001
70
192
0
VERTEX
8
OBJECT__48
10
30.434000
20
-2.392000
30
109.028999
70
192
0
VERTEX
8
OBJECT__48
10
29.955999
20
-1.137000
30
109.357002
70
192
0
VERTEX
8
OBJECT__48
10
30.507999
20
-2.490000
30
108.982002
70
192
0
VERTEX
8
OBJECT__48
10
34.825001
20
5.000000
30
99.050003
70
192
0
VERTEX
8
OBJECT__48
10
33.430000
20
4.802000
30
107.543999
70
192
0
VERTEX
8
OBJECT__48
10
30.570999
20
2.456000
30
108.947998
70
192
0
VERTEX
8
OBJECT__48
10
31.035999
20
3.262000
30
108.642998
70
192
0
VERTEX
8
OBJECT__48
10
32.210999
20
4.262000
30
108.002998
70
192
0
VERTEX
8
OBJECT__48
10
34.825001
20
5.000000
30
107.348999
70
192
0
VERTEX
8
OBJECT__48
10
0
20
0
30
0
70
128
71
1
72
2
73
3
0
VERTEX
8
OBJECT__48
10
0
20
0
30
0
70
128
71
1
72
4
73
5
0
VERTEX
8
OBJECT__48
10
0
20
0
30
0
70
128
71
5
72
2
73
1
0
VERTEX
8
OBJECT__48
10
0
20
0
30
0
70
128
71
4
72
6
73
5
0
VERTEX
8
OBJECT__48
10
0
20
0
30
0
70
128
71
7
72
8
73
9
0
VERTEX
8
OBJECT__48
10
0
20
0
30
0
70
128
71
7
72
10
73
8
0
VERTEX
8
OBJECT__48
10
0
20
0
30
0
70
128
71
7
72
11
73
12
0
VERTEX
8
OBJECT__48
10
0
20
0
30
0
70
128
71
7
72
1
73
13
0
VERTEX
8
OBJECT__48
10
0
20
0
30
0
70
128
71
13
72
11
73
7
0
VERTEX
8
OBJECT__48
10
0
20
0
30
0
70
128
71
12
72
10
73
7
0
VERTEX
8
OBJECT__48
10
0
20
0
30
0
70
128
71
14
72
7
73
15
0
VERTEX
8
OBJECT__48
10
0
20
0
30
0
70
128
71
7
72
16
73
17
0
VERTEX
8
OBJECT__48
10
0
20
0
30
0
70
128
71
17
72
18
73
7
0
VERTEX
8
OBJECT__48
10
0
20
0
30
0
70
128
71
18
72
15
73
7
0
VERTEX
8
OBJECT__48
10
0
20
0
30
0
70
128
71
15
72
19
73
14
0
VERTEX
8
OBJECT__48
10
0
20
0
30
0
70
128
71
9
72
16
73
7
0
VERTEX
8
OBJECT__48
10
0
20
0
30
0
70
128
71
3
72
13
73
1
0
SEQEND
8
OBJECT__48
0
POLYLINE
8
OBJECT__49
66
1
70
64
71
7
72
5
62
253
0
VERTEX
8
OBJECT__49
10
89.949997
20
29.878000
30
61.750000
70
192
0
VERTEX
8
OBJECT__49
10
83.949997
20
35.074001
30
70.750000
70
192
0
VERTEX
8
OBJECT__49
10
89.949997
20
35.074001
30
70.750000
70
192
0
VERTEX
8
OBJECT__49
10
86.949997
20
29.476000
30
61.054001
70
192
0
VERTEX
8
OBJECT__49
10
83.949997
20
29.878000
30
61.750000
70
192
0
VERTEX
8
OBJECT__49
10
92.949997
20
32.476002
30
66.250000
70
192
0
VERTEX
8
OBJECT__49
10
80.949997
20
32.476002
30
66.250000
70
192
0
VERTEX
8
OBJECT__49
10
0
20
0
30
0
70
128
71
1
72
2
73
3
0
VERTEX
8
OBJECT__49
10
0
20
0
30
0
70
128
71
2
72
4
73
5
0
VERTEX
8
OBJECT__49
10
0
20
0
30
0
70
128
71
3
72
6
73
1
0
VERTEX
8
OBJECT__49
10
0
20
0
30
0
70
128
71
1
72
4
73
2
0
VERTEX
8
OBJECT__49
10
0
20
0
30
0
70
128
71
5
72
7
73
2
0
SEQEND
8
OBJECT__49
0
POLYLINE
8
OBJECT__50
66
1
70
64
71
37
72
37
62
253
0
VERTEX
8
OBJECT__50
10
89.949997
20
29.878000
30
61.750000
70
192
0
VERTEX
8
OBJECT__50
10
92.295998
20
6.745000
30
77.959999
70
192
0
VERTEX
8
OBJECT__50
10
91.037003
20
5.342000
30
76.844002
70
192
0
VERTEX
8
OBJECT__50
10
92.911003
20
8.080000
30
79.542999
70
192
0
VERTEX
8
OBJECT__50
10
92.358002
20
6.879000
30
78.119003
70
192
0
VERTEX
8
OBJECT__50
10
92.949997
20
32.476002
30
66.250000
70
192
0
VERTEX
8
OBJECT__50
10
92.949997
20
8.444000
30
80.125000
70
192
0
VERTEX
8
OBJECT__50
10
86.949997
20
29.476000
30
61.054001
70
192
0
VERTEX
8
OBJECT__50
10
89.588997
20
4.343000
30
76.271004
70
192
0
VERTEX
8
OBJECT__50
10
88.100998
20
3.786000
30
76.014999
70
192
0
VERTEX
8
OBJECT__50
10
89.924004
20
4.574000
30
76.403000
70
192
0
VERTEX
8
OBJECT__50
10
84.737999
20
4.137000
30
76.170998
70
192
0
VERTEX
8
OBJECT__50
10
83.996002
20
4.604000
30
76.429001
70
192
0
VERTEX
8
OBJECT__50
10
86.383003
20
3.687000
30
75.973999
70
192
0
VERTEX
8
OBJECT__50
10
83.949997
20
29.878000
30
61.750000
70
192
0
VERTEX
8
OBJECT__50
10
80.949997
20
32.476002
30
66.250000
70
192
0
VERTEX
8
OBJECT__50
10
81.146004
20
7.580000
30
78.866997
70
192
0
VERTEX
8
OBJECT__50
10
81.803001
20
6.469000
30
77.705002
70
192
0
VERTEX
8
OBJECT__50
10
81.564003
20
6.872000
30
78.126999
70
192
0
VERTEX
8
OBJECT__50
10
82.966003
20
5.253000
30
76.786003
70
192
0
VERTEX
8
OBJECT__50
10
83.949997
20
35.074001
30
70.750000
70
192
0
VERTEX
8
OBJECT__50
10
82.558998
20
9.710000
30
84.114998
70
192
0
VERTEX
8
OBJECT__50
10
83.543999
20
9.732000
30
85.000000
70
192
0
VERTEX
8
OBJECT__50
10
81.403999
20
9.352000
30
82.244003
70
192
0
VERTEX
8
OBJECT__50
10
80.956001
20
8.571000
30
80.351997
70
192
0
VERTEX
8
OBJECT__50
10
80.983002
20
8.428000
30
80.138000
70
192
0
VERTEX
8
OBJECT__50
10
89.949997
20
35.074001
30
70.750000
70
192
0
VERTEX
8
OBJECT__50
10
85.462997
20
9.685000
30
86.120003
70
192
0
VERTEX
8
OBJECT__50
10
87.108002
20
9.656000
30
86.350998
70
192
0
VERTEX
8
OBJECT__50
10
88.732002
20
9.697000
30
86.016998
70
192
0
VERTEX
8
OBJECT__50
10
83.996002
20
9.742000
30
85.405998
70
192
0
VERTEX
8
OBJECT__50
10
83.955002
20
9.741000
30
85.369003
70
192
0
VERTEX
8
OBJECT__50
10
92.674004
20
9.198000
30
81.766998
70
192
0
VERTEX
8
OBJECT__50
10
90.380997
20
9.742000
30
85.000000
70
192
0
VERTEX
8
OBJECT__50
10
90.621002
20
9.749000
30
84.850998
70
192
0
VERTEX
8
OBJECT__50
10
89.908997
20
9.729000
30
85.291000
70
192
0
VERTEX
8
OBJECT__50
10
91.901001
20
9.612000
30
83.363998
70
192
0
VERTEX
8
OBJECT__50
10
0
20
0
30
0
70
128
71
1
72
2
73
3
0
VERTEX
8
OBJECT__50
10
0
20
0
30
0
70
128
71
1
72
4
73
5
0
VERTEX
8
OBJECT__50
10
0
20
0
30
0
70
128
71
6
72
7
73
4
0
VERTEX
8
OBJECT__50
10
0
20
0
30
0
70
128
71
4
72
1
73
6
0
VERTEX
8
OBJECT__50
10
0
20
0
30
0
70
128
71
5
72
2
73
1
0
VERTEX
8
OBJECT__50
10
0
20
0
30
0
70
128
71
8
72
9
73
10
0
VERTEX
8
OBJECT__50
10
0
20
0
30
0
70
128
71
8
72
1
73
11
0
VERTEX
8
OBJECT__50
10
0
20
0
30
0
70
128
71
11
72
9
73
8
0
VERTEX
8
OBJECT__50
10
0
20
0
30
0
70
128
71
8
72
12
73
13
0
VERTEX
8
OBJECT__50
10
0
20
0
30
0
70
128
71
8
72
14
73
12
0
VERTEX
8
OBJECT__50
10
0
20
0
30
0
70
128
71
13
72
15
73
8
0
VERTEX
8
OBJECT__50
10
0
20
0
30
0
70
128
71
16
72
15
73
17
0
VERTEX
8
OBJECT__50
10
0
20
0
30
0
70
128
71
15
72
18
73
19
0
VERTEX
8
OBJECT__50
10
0
20
0
30
0
70
128
71
15
72
13
73
20
0
VERTEX
8
OBJECT__50
10
0
20
0
30
0
70
128
71
20
72
18
73
15
0
VERTEX
8
OBJECT__50
10
0
20
0
30
0
70
128
71
19
72
17
73
15
0
VERTEX
8
OBJECT__50
10
0
20
0
30
0
70
128
71
21
72
22
73
23
0
VERTEX
8
OBJECT__50
10
0
20
0
30
0
70
128
71
21
72
24
73
22
0
VERTEX
8
OBJECT__50
10
0
20
0
30
0
70
128
71
21
72
16
73
25
0
VERTEX
8
OBJECT__50
10
0
20
0
30
0
70
128
71
25
72
24
73
21
0
VERTEX
8
OBJECT__50
10
0
20
0
30
0
70
128
71
16
72
26
73
25
0
VERTEX
8
OBJECT__50
10
0
20
0
30
0
70
128
71
27
72
28
73
29
0
VERTEX
8
OBJECT__50
10
0
20
0
30
0
70
128
71
29
72
30
73
27
0
VERTEX
8
OBJECT__50
10
0
20
0
30
0
70
128
71
27
72
31
73
28
0
VERTEX
8
OBJECT__50
10
0
20
0
30
0
70
128
71
27
72
21
73
32
0
VERTEX
8
OBJECT__50
10
0
20
0
30
0
70
128
71
32
72
31
73
27
0
VERTEX
8
OBJECT__50
10
0
20
0
30
0
70
128
71
27
72
33
73
7
0
VERTEX
8
OBJECT__50
10
0
20
0
30
0
70
128
71
27
72
34
73
35
0
VERTEX
8
OBJECT__50
10
0
20
0
30
0
70
128
71
27
72
36
73
34
0
VERTEX
8
OBJECT__50
10
0
20
0
30
0
70
128
71
35
72
37
73
27
0
VERTEX
8
OBJECT__50
10
0
20
0
30
0
70
128
71
37
72
33
73
27
0
VERTEX
8
OBJECT__50
10
0
20
0
30
0
70
128
71
7
72
6
73
27
0
VERTEX
8
OBJECT__50
10
0
20
0
30
0
70
128
71
30
72
36
73
27
0
VERTEX
8
OBJECT__50
10
0
20
0
30
0
70
128
71
23
72
32
73
21
0
VERTEX
8
OBJECT__50
10
0
20
0
30
0
70
128
71
17
72
26
73
16
0
VERTEX
8
OBJECT__50
10
0
20
0
30
0
70
128
71
10
72
14
73
8
0
VERTEX
8
OBJECT__50
10
0
20
0
30
0
70
128
71
3
72
11
73
1
0
SEQEND
8
OBJECT__50
0
POLYLINE
8
OBJECT__52
66
1
70
64
71
103
72
109
62
253
0
VERTEX
8
OBJECT__52
10
71.449997
20
6.894000
30
91.893997
70
192
0
VERTEX
8
OBJECT__52
10
83.996002
20
9.742000
30
85.405998
70
192
0
VERTEX
8
OBJECT__52
10
83.955002
20
9.741000
30
85.369003
70
192
0
VERTEX
8
OBJECT__52
10
71.449997
20
9.750000
30
85.000000
70
192
0
VERTEX
8
OBJECT__52
10
83.543999
20
9.732000
30
85.000000
70
192
0
VERTEX
8
OBJECT__52
10
85.462997
20
9.685000
30
86.120003
70
192
0
VERTEX
8
OBJECT__52
10
94.449997
20
6.894000
30
91.893997
70
192
0
VERTEX
8
OBJECT__52
10
87.108002
20
9.656000
30
86.350998
70
192
0
VERTEX
8
OBJECT__52
10
88.732002
20
9.697000
30
86.016998
70
192
0
VERTEX
8
OBJECT__52
10
94.449997
20
9.750000
30
85.000000
70
192
0
VERTEX
8
OBJECT__52
10
90.380997
20
9.742000
30
85.000000
70
192
0
VERTEX
8
OBJECT__52
10
89.908997
20
9.729000
30
85.291000
70
192
0
VERTEX
8
OBJECT__52
10
71.449997
20
6.894000
30
78.106003
70
192
0
VERTEX
8
OBJECT__52
10
80.956001
20
8.571000
30
80.351997
70
192
0
VERTEX
8
OBJECT__52
10
80.983002
20
8.428000
30
80.138000
70
192
0
VERTEX
8
OBJECT__52
10
81.146004
20
7.580000
30
78.866997
70
192
0
VERTEX
8
OBJECT__52
10
81.403999
20
9.352000
30
82.244003
70
192
0
VERTEX
8
OBJECT__52
10
82.558998
20
9.710000
30
84.114998
70
192
0
VERTEX
8
OBJECT__52
10
94.449997
20
0.000000
30
75.250000
70
192
0
VERTEX
8
OBJECT__52
10
91.037003
20
5.342000
30
76.844002
70
192
0
VERTEX
8
OBJECT__52
10
92.295998
20
6.745000
30
77.959999
70
192
0
VERTEX
8
OBJECT__52
10
89.588997
20
4.343000
30
76.271004
70
192
0
VERTEX
8
OBJECT__52
10
89.924004
20
4.574000
30
76.403000
70
192
0
VERTEX
8
OBJECT__52
10
88.100998
20
3.786000
30
76.014999
70
192
0
VERTEX
8
OBJECT__52
10
94.449997
20
6.894000
30
78.106003
70
192
0
VERTEX
8
OBJECT__52
10
71.449997
20
0.000000
30
75.250000
70
192
0
VERTEX
8
OBJECT__52
10
86.383003
20
3.687000
30
75.973999
70
192
0
VERTEX
8
OBJECT__52
10
82.966003
20
5.253000
30
76.786003
70
192
0
VERTEX
8
OBJECT__52
10
83.996002
20
4.604000
30
76.429001
70
192
0
VERTEX
8
OBJECT__52
10
81.564003
20
6.872000
30
78.126999
70
192
0
VERTEX
8
OBJECT__52
10
81.803001
20
6.469000
30
77.705002
70
192
0
VERTEX
8
OBJECT__52
10
84.737999
20
4.137000
30
76.170998
70
192
0
VERTEX
8
OBJECT__52
10
92.674004
20
9.198000
30
81.766998
70
192
0
VERTEX
8
OBJECT__52
10
91.901001
20
9.612000
30
83.363998
70
192
0
VERTEX
8
OBJECT__52
10
92.949997
20
8.444000
30
80.125000
70
192
0
VERTEX
8
OBJECT__52
10
92.911003
20
8.080000
30
79.542999
70
192
0
VERTEX
8
OBJECT__52
10
92.358002
20
6.879000
30
78.119003
70
192
0
VERTEX
8
OBJECT__52
10
90.621002
20
9.749000
30
84.850998
70
192
0
VERTEX
8
OBJECT__52
10
82.558998
20
-5.621000
30
77.032997
70
192
0
VERTEX
8
OBJECT__52
10
81.550003
20
-6.881000
30
78.121002
70
192
0
VERTEX
8
OBJECT__52
10
83.996002
20
-4.519000
30
76.361000
70
192
0
VERTEX
8
OBJECT__52
10
83.955002
20
-4.551000
30
76.379997
70
192
0
VERTEX
8
OBJECT__52
10
85.462997
20
-3.873000
30
76.052002
70
192
0
VERTEX
8
OBJECT__52
10
87.108002
20
-3.658000
30
75.961998
70
192
0
VERTEX
8
OBJECT__52
10
88.732002
20
-3.968000
30
76.094002
70
192
0
VERTEX
8
OBJECT__52
10
90.621002
20
-5.003000
30
76.630997
70
192
0
VERTEX
8
OBJECT__52
10
89.908997
20
-4.612000
30
76.429001
70
192
0
VERTEX
8
OBJECT__52
10
94.449997
20
-6.894000
30
78.106003
70
192
0
VERTEX
8
OBJECT__52
10
92.325996
20
-6.870000
30
78.129997
70
192
0
VERTEX
8
OBJECT__52
10
91.901001
20
-6.223000
30
77.494003
70
192
0
VERTEX
8
OBJECT__52
10
71.449997
20
-9.750000
30
85.000000
70
192
0
VERTEX
8
OBJECT__52
10
81.146004
20
-9.101000
30
81.501999
70
192
0
VERTEX
8
OBJECT__52
10
81.803001
20
-9.552000
30
83.045998
70
192
0
VERTEX
8
OBJECT__52
10
71.449997
20
-6.894000
30
78.106003
70
192
0
VERTEX
8
OBJECT__52
10
80.983002
20
-8.425000
30
80.132004
70
192
0
VERTEX
8
OBJECT__52
10
80.956001
20
-8.311000
30
79.901001
70
192
0
VERTEX
8
OBJECT__52
10
82.966003
20
-9.740000
30
84.556999
70
192
0
VERTEX
8
OBJECT__52
10
81.403999
20
-7.063000
30
78.278999
70
192
0
VERTEX
8
OBJECT__52
10
94.449997
20
-6.894000
30
91.893997
70
192
0
VERTEX
8
OBJECT__52
10
89.924004
20
-9.732000
30
85.336998
70
192
0
VERTEX
8
OBJECT__52
10
90.348000
20
-9.733000
30
85.000000
70
192
0
VERTEX
8
OBJECT__52
10
89.588997
20
-9.731000
30
85.603996
70
192
0
VERTEX
8
OBJECT__52
10
88.100998
20
-9.674000
30
86.213997
70
192
0
VERTEX
8
OBJECT__52
10
86.383003
20
-9.660000
30
86.320000
70
192
0
VERTEX
8
OBJECT__52
10
71.449997
20
-6.894000
30
91.893997
70
192
0
VERTEX
8
OBJECT__52
10
84.737999
20
-9.714000
30
85.832001
70
192
0
VERTEX
8
OBJECT__52
10
83.581001
20
-9.731000
30
85.000000
70
192
0
VERTEX
8
OBJECT__52
10
83.996002
20
-9.725000
30
85.297997
70
192
0
VERTEX
8
OBJECT__52
10
94.449997
20
-9.750000
30
85.000000
70
192
0
VERTEX
8
OBJECT__52
10
92.911003
20
-8.766000
30
80.731003
70
192
0
VERTEX
8
OBJECT__52
10
92.949997
20
-8.444000
30
80.125000
70
192
0
VERTEX
8
OBJECT__52
10
92.295998
20
-9.470000
30
82.678001
70
192
0
VERTEX
8
OBJECT__52
10
92.674004
20
-7.399000
30
78.651001
70
192
0
VERTEX
8
OBJECT__52
10
91.037003
20
-9.735000
30
84.452003
70
192
0
VERTEX
8
OBJECT__52
10
71.449997
20
0.000000
30
94.750000
70
192
0
VERTEX
8
OBJECT__52
10
80.956001
20
-0.260000
30
94.747002
70
192
0
VERTEX
8
OBJECT__52
10
80.983002
20
-0.004000
30
94.730003
70
192
0
VERTEX
8
OBJECT__52
10
81.403999
20
-2.289000
30
94.476997
70
192
0
VERTEX
8
OBJECT__52
10
83.996002
20
-5.222000
30
93.233002
70
192
0
VERTEX
8
OBJECT__52
10
83.955002
20
-5.190000
30
93.250999
70
192
0
VERTEX
8
OBJECT__52
10
85.462997
20
-5.813000
30
92.828003
70
192
0
VERTEX
8
OBJECT__52
10
82.558998
20
-4.089000
30
93.850998
70
192
0
VERTEX
8
OBJECT__52
10
87.108002
20
-5.998000
30
92.686996
70
192
0
VERTEX
8
OBJECT__52
10
88.732002
20
-5.729000
30
92.889000
70
192
0
VERTEX
8
OBJECT__52
10
90.621002
20
-4.746000
30
93.516998
70
192
0
VERTEX
8
OBJECT__52
10
89.908997
20
-5.117000
30
93.279999
70
192
0
VERTEX
8
OBJECT__52
10
92.674004
20
-1.799000
30
94.583000
70
192
0
VERTEX
8
OBJECT__52
10
91.901001
20
-3.389000
30
94.141998
70
192
0
VERTEX
8
OBJECT__52
10
94.449997
20
0.000000
30
94.750000
70
192
0
VERTEX
8
OBJECT__52
10
92.949997
20
0.000000
30
94.750000
70
192
0
VERTEX
8
OBJECT__52
10
92.295998
20
2.724000
30
94.362000
70
192
0
VERTEX
8
OBJECT__52
10
92.911003
20
0.686000
30
94.725998
70
192
0
VERTEX
8
OBJECT__52
10
89.588997
20
5.388000
30
93.125999
70
192
0
VERTEX
8
OBJECT__52
10
89.924004
20
5.158000
30
93.260002
70
192
0
VERTEX
8
OBJECT__52
10
91.037003
20
4.393000
30
93.704002
70
192
0
VERTEX
8
OBJECT__52
10
88.100998
20
5.888000
30
92.771004
70
192
0
VERTEX
8
OBJECT__52
10
86.383003
20
5.973000
30
92.706001
70
192
0
VERTEX
8
OBJECT__52
10
82.966003
20
4.487000
30
93.655998
70
192
0
VERTEX
8
OBJECT__52
10
83.996002
20
5.121000
30
93.273003
70
192
0
VERTEX
8
OBJECT__52
10
81.146004
20
1.521000
30
94.630997
70
192
0
VERTEX
8
OBJECT__52
10
81.803001
20
3.084000
30
94.250000
70
192
0
VERTEX
8
OBJECT__52
10
80.983002
20
-0.001000
30
94.730003
70
192
0
VERTEX
8
OBJECT__52
10
84.737999
20
5.578000
30
92.997002
70
192
0
VERTEX
8
OBJECT__52
10
0
20
0
30
0
70
128
71
1
72
2
73
3
0
VERTEX
8
OBJECT__52
10
0
20
0
30
0
70
128
71
3
72
4
73
1
0
VERTEX
8
OBJECT__52
10
0
20
0
30
0
70
128
71
3
72
5
73
4
0
VERTEX
8
OBJECT__52
10
0
20
0
30
0
70
128
71
1
72
6
73
2
0
VERTEX
8
OBJECT__52
10
0
20
0
30
0
70
128
71
7
72
8
73
6
0
VERTEX
8
OBJECT__52
10
0
20
0
30
0
70
128
71
6
72
1
73
7
0
VERTEX
8
OBJECT__52
10
0
20
0
30
0
70
128
71
7
72
9
73
8
0
VERTEX
8
OBJECT__52
10
0
20
0
30
0
70
128
71
7
72
10
73
11
0
VERTEX
8
OBJECT__52
10
0
20
0
30
0
70
128
71
11
72
12
73
7
0
VERTEX
8
OBJECT__52
10
0
20
0
30
0
70
128
71
12
72
9
73
7
0
VERTEX
8
OBJECT__52
10
0
20
0
30
0
70
128
71
13
72
14
73
15
0
VERTEX
8
OBJECT__52
10
0
20
0
30
0
70
128
71
15
72
16
73
13
0
VERTEX
8
OBJECT__52
10
0
20
0
30
0
70
128
71
4
72
17
73
14
0
VERTEX
8
OBJECT__52
10
0
20
0
30
0
70
128
71
14
72
13
73
4
0
VERTEX
8
OBJECT__52
10
0
20
0
30
0
70
128
71
4
72
5
73
18
0
VERTEX
8
OBJECT__52
10
0
20
0
30
0
70
128
71
18
72
17
73
4
0
VERTEX
8
OBJECT__52
10
0
20
0
30
0
70
128
71
19
72
20
73
21
0
VERTEX
8
OBJECT__52
10
0
20
0
30
0
70
128
71
19
72
22
73
23
0
VERTEX
8
OBJECT__52
10
0
20
0
30
0
70
128
71
23
72
20
73
19
0
VERTEX
8
OBJECT__52
10
0
20
0
30
0
70
128
71
19
72
24
73
22
0
VERTEX
8
OBJECT__52
10
0
20
0
30
0
70
128
71
21
72
25
73
19
0
VERTEX
8
OBJECT__52
10
0
20
0
30
0
70
128
71
19
72
26
73
27
0
VERTEX
8
OBJECT__52
10
0
20
0
30
0
70
128
71
27
72
24
73
19
0
VERTEX
8
OBJECT__52
10
0
20
0
30
0
70
128
71
26
72
28
73
29
0
VERTEX
8
OBJECT__52
10
0
20
0
30
0
70
128
71
26
72
13
73
30
0
VERTEX
8
OBJECT__52
10
0
20
0
30
0
70
128
71
30
72
31
73
26
0
VERTEX
8
OBJECT__52
10
0
20
0
30
0
70
128
71
31
72
28
73
26
0
VERTEX
8
OBJECT__52
10
0
20
0
30
0
70
128
71
29
72
32
73
26
0
VERTEX
8
OBJECT__52
10
0
20
0
30
0
70
128
71
32
72
27
73
26
0
VERTEX
8
OBJECT__52
10
0
20
0
30
0
70
128
71
10
72
33
73
34
0
VERTEX
8
OBJECT__52
10
0
20
0
30
0
70
128
71
10
72
25
73
35
0
VERTEX
8
OBJECT__52
10
0
20
0
30
0
70
128
71
25
72
36
73
35
0
VERTEX
8
OBJECT__52
10
0
20
0
30
0
70
128
71
25
72
37
73
36
0
VERTEX
8
OBJECT__52
10
0
20
0
30
0
70
128
71
35
72
33
73
10
0
VERTEX
8
OBJECT__52
10
0
20
0
30
0
70
128
71
34
72
38
73
10
0
VERTEX
8
OBJECT__52
10
0
20
0
30
0
70
128
71
26
72
39
73
40
0
VERTEX
8
OBJECT__52
10
0
20
0
30
0
70
128
71
26
72
41
73
42
0
VERTEX
8
OBJECT__52
10
0
20
0
30
0
70
128
71
26
72
43
73
41
0
VERTEX
8
OBJECT__52
10
0
20
0
30
0
70
128
71
42
72
39
73
26
0
VERTEX
8
OBJECT__52
10
0
20
0
30
0
70
128
71
26
72
19
73
44
0
VERTEX
8
OBJECT__52
10
0
20
0
30
0
70
128
71
44
72
43
73
26
0
VERTEX
8
OBJECT__52
10
0
20
0
30
0
70
128
71
19
72
45
73
44
0
VERTEX
8
OBJECT__52
10
0
20
0
30
0
70
128
71
19
72
46
73
47
0
VERTEX
8
OBJECT__52
10
0
20
0
30
0
70
128
71
48
72
49
73
50
0
VERTEX
8
OBJECT__52
10
0
20
0
30
0
70
128
71
50
72
19
73
48
0
VERTEX
8
OBJECT__52
10
0
20
0
30
0
70
128
71
50
72
46
73
19
0
VERTEX
8
OBJECT__52
10
0
20
0
30
0
70
128
71
47
72
45
73
19
0
VERTEX
8
OBJECT__52
10
0
20
0
30
0
70
128
71
51
72
52
73
53
0
VERTEX
8
OBJECT__52
10
0
20
0
30
0
70
128
71
51
72
54
73
55
0
VERTEX
8
OBJECT__52
10
0
20
0
30
0
70
128
71
54
72
56
73
55
0
VERTEX
8
OBJECT__52
10
0
20
0
30
0
70
128
71
55
72
52
73
51
0
VERTEX
8
OBJECT__52
10
0
20
0
30
0
70
128
71
53
72
57
73
51
0
VERTEX
8
OBJECT__52
10
0
20
0
30
0
70
128
71
54
72
58
73
56
0
VERTEX
8
OBJECT__52
10
0
20
0
30
0
70
128
71
54
72
40
73
58
0
VERTEX
8
OBJECT__52
10
0
20
0
30
0
70
128
71
59
72
60
73
61
0
VERTEX
8
OBJECT__52
10
0
20
0
30
0
70
128
71
59
72
62
73
60
0
VERTEX
8
OBJECT__52
10
0
20
0
30
0
70
128
71
59
72
63
73
62
0
VERTEX
8
OBJECT__52
10
0
20
0
30
0
70
128
71
59
72
64
73
63
0
VERTEX
8
OBJECT__52
10
0
20
0
30
0
70
128
71
65
72
66
73
64
0
VERTEX
8
OBJECT__52
10
0
20
0
30
0
70
128
71
65
72
51
73
67
0
VERTEX
8
OBJECT__52
10
0
20
0
30
0
70
128
71
67
72
68
73
65
0
VERTEX
8
OBJECT__52
10
0
20
0
30
0
70
128
71
68
72
66
73
65
0
VERTEX
8
OBJECT__52
10
0
20
0
30
0
70
128
71
64
72
59
73
65
0
VERTEX
8
OBJECT__52
10
0
20
0
30
0
70
128
71
48
72
69
73
70
0
VERTEX
8
OBJECT__52
10
0
20
0
30
0
70
128
71
70
72
71
73
48
0
VERTEX
8
OBJECT__52
10
0
20
0
30
0
70
128
71
69
72
72
73
70
0
VERTEX
8
OBJECT__52
10
0
20
0
30
0
70
128
71
71
72
73
73
48
0
VERTEX
8
OBJECT__52
10
0
20
0
30
0
70
128
71
69
72
61
73
74
0
VERTEX
8
OBJECT__52
10
0
20
0
30
0
70
128
71
74
72
72
73
69
0
VERTEX
8
OBJECT__52
10
0
20
0
30
0
70
128
71
75
72
76
73
77
0
VERTEX
8
OBJECT__52
10
0
20
0
30
0
70
128
71
75
72
65
73
78
0
VERTEX
8
OBJECT__52
10
0
20
0
30
0
70
128
71
65
72
79
73
80
0
VERTEX
8
OBJECT__52
10
0
20
0
30
0
70
128
71
65
72
81
73
79
0
VERTEX
8
OBJECT__52
10
0
20
0
30
0
70
128
71
80
72
82
73
65
0
VERTEX
8
OBJECT__52
10
0
20
0
30
0
70
128
71
65
72
59
73
83
0
VERTEX
8
OBJECT__52
10
0
20
0
30
0
70
128
71
83
72
81
73
65
0
VERTEX
8
OBJECT__52
10
0
20
0
30
0
70
128
71
82
72
78
73
65
0
VERTEX
8
OBJECT__52
10
0
20
0
30
0
70
128
71
59
72
84
73
83
0
VERTEX
8
OBJECT__52
10
0
20
0
30
0
70
128
71
78
72
76
73
75
0
VERTEX
8
OBJECT__52
10
0
20
0
30
0
70
128
71
59
72
85
73
86
0
VERTEX
8
OBJECT__52
10
0
20
0
30
0
70
128
71
59
72
87
73
88
0
VERTEX
8
OBJECT__52
10
0
20
0
30
0
70
128
71
89
72
90
73
87
0
VERTEX
8
OBJECT__52
10
0
20
0
30
0
70
128
71
87
72
59
73
89
0
VERTEX
8
OBJECT__52
10
0
20
0
30
0
70
128
71
88
72
85
73
59
0
VERTEX
8
OBJECT__52
10
0
20
0
30
0
70
128
71
86
72
84
73
59
0
VERTEX
8
OBJECT__52
10
0
20
0
30
0
70
128
71
89
72
7
73
91
0
VERTEX
8
OBJECT__52
10
0
20
0
30
0
70
128
71
91
72
92
73
89
0
VERTEX
8
OBJECT__52
10
0
20
0
30
0
70
128
71
7
72
93
73
94
0
VERTEX
8
OBJECT__52
10
0
20
0
30
0
70
128
71
94
72
95
73
7
0
VERTEX
8
OBJECT__52
10
0
20
0
30
0
70
128
71
7
72
96
73
93
0
VERTEX
8
OBJECT__52
10
0
20
0
30
0
70
128
71
95
72
91
73
7
0
VERTEX
8
OBJECT__52
10
0
20
0
30
0
70
128
71
7
72
1
73
97
0
VERTEX
8
OBJECT__52
10
0
20
0
30
0
70
128
71
97
72
96
73
7
0
VERTEX
8
OBJECT__52
10
0
20
0
30
0
70
128
71
1
72
98
73
99
0
VERTEX
8
OBJECT__52
10
0
20
0
30
0
70
128
71
1
72
100
73
101
0
VERTEX
8
OBJECT__52
10
0
20
0
30
0
70
128
71
75
72
102
73
100
0
VERTEX
8
OBJECT__52
10
0
20
0
30
0
70
128
71
100
72
1
73
75
0
VERTEX
8
OBJECT__52
10
0
20
0
30
0
70
128
71
101
72
98
73
1
0
VERTEX
8
OBJECT__52
10
0
20
0
30
0
70
128
71
99
72
103
73
1
0
VERTEX
8
OBJECT__52
10
0
20
0
30
0
70
128
71
103
72
97
73
1
0
VERTEX
8
OBJECT__52
10
0
20
0
30
0
70
128
71
92
72
90
73
89
0
VERTEX
8
OBJECT__52
10
0
20
0
30
0
70
128
71
77
72
102
73
75
0
VERTEX
8
OBJECT__52
10
0
20
0
30
0
70
128
71
73
72
49
73
48
0
VERTEX
8
OBJECT__52
10
0
20
0
30
0
70
128
71
61
72
69
73
59
0
VERTEX
8
OBJECT__52
10
0
20
0
30
0
70
128
71
57
72
67
73
51
0
VERTEX
8
OBJECT__52
10
0
20
0
30
0
70
128
71
40
72
54
73
26
0
VERTEX
8
OBJECT__52
10
0
20
0
30
0
70
128
71
38
72
11
73
10
0
VERTEX
8
OBJECT__52
10
0
20
0
30
0
70
128
71
21
72
37
73
25
0
VERTEX
8
OBJECT__52
10
0
20
0
30
0
70
128
71
16
72
30
73
13
0
SEQEND
8
OBJECT__52
0
POLYLINE
8
OBJECT__53
66
1
70
64
71
8
72
6
62
253
0
VERTEX
8
OBJECT__53
10
94.449997
20
0.000000
30
94.750000
70
192
0
VERTEX
8
OBJECT__53
10
94.449997
20
6.894000
30
78.106003
70
192
0
VERTEX
8
OBJECT__53
10
94.449997
20
9.750000
30
85.000000
70
192
0
VERTEX
8
OBJECT__53
10
94.449997
20
-9.750000
30
85.000000
70
192
0
VERTEX
8
OBJECT__53
10
94.449997
20
-6.894000
30
78.106003
70
192
0
VERTEX
8
OBJECT__53
10
94.449997
20
0.000000
30
75.250000
70
192
0
VERTEX
8
OBJECT__53
10
94.449997
20
-6.894000
30
91.893997
70
192
0
VERTEX
8
OBJECT__53
10
94.449997
20
6.894000
30
91.893997
70
192
0
VERTEX
8
OBJECT__53
10
0
20
0
30
0
70
128
71
1
72
2
73
3
0
VERTEX
8
OBJECT__53
10
0
20
0
30
0
70
128
71
1
72
4
73
5
0
VERTEX
8
OBJECT__53
10
0
20
0
30
0
70
128
71
1
72
6
73
2
0
VERTEX
8
OBJECT__53
10
0
20
0
30
0
70
128
71
1
72
7
73
4
0
VERTEX
8
OBJECT__53
10
0
20
0
30
0
70
128
71
5
72
6
73
1
0
VERTEX
8
OBJECT__53
10
0
20
0
30
0
70
128
71
3
72
8
73
1
0
SEQEND
8
OBJECT__53
0
POLYLINE
8
OBJECT__54
66
1
70
64
71
37
72
37
62
253
0
VERTEX
8
OBJECT__54
10
89.949997
20
-35.074001
30
70.750000
70
192
0
VERTEX
8
OBJECT__54
10
91.037003
20
-9.735000
30
84.452003
70
192
0
VERTEX
8
OBJECT__54
10
90.348000
20
-9.733000
30
85.000000
70
192
0
VERTEX
8
OBJECT__54
10
92.295998
20
-9.470000
30
82.678001
70
192
0
VERTEX
8
OBJECT__54
10
92.949997
20
-32.476002
30
66.250000
70
192
0
VERTEX
8
OBJECT__54
10
92.949997
20
-8.444000
30
80.125000
70
192
0
VERTEX
8
OBJECT__54
10
92.911003
20
-8.766000
30
80.731003
70
192
0
VERTEX
8
OBJECT__54
10
86.949997
20
-35.476002
30
71.445999
70
192
0
VERTEX
8
OBJECT__54
10
89.588997
20
-9.731000
30
85.603996
70
192
0
VERTEX
8
OBJECT__54
10
88.100998
20
-9.674000
30
86.213997
70
192
0
VERTEX
8
OBJECT__54
10
89.924004
20
-9.732000
30
85.336998
70
192
0
VERTEX
8
OBJECT__54
10
84.737999
20
-9.714000
30
85.832001
70
192
0
VERTEX
8
OBJECT__54
10
83.996002
20
-9.725000
30
85.297997
70
192
0
VERTEX
8
OBJECT__54
10
86.383003
20
-9.660000
30
86.320000
70
192
0
VERTEX
8
OBJECT__54
10
83.949997
20
-35.074001
30
70.750000
70
192
0
VERTEX
8
OBJECT__54
10
80.949997
20
-32.476002
30
66.250000
70
192
0
VERTEX
8
OBJECT__54
10
81.146004
20
-9.101000
30
81.501999
70
192
0
VERTEX
8
OBJECT__54
10
83.581001
20
-9.731000
30
85.000000
70
192
0
VERTEX
8
OBJECT__54
10
82.966003
20
-9.740000
30
84.556999
70
192
0
VERTEX
8
OBJECT__54
10
81.803001
20
-9.552000
30
83.045998
70
192
0
VERTEX
8
OBJECT__54
10
83.949997
20
-29.878000
30
61.750000
70
192
0
VERTEX
8
OBJECT__54
10
81.403999
20
-7.063000
30
78.278999
70
192
0
VERTEX
8
OBJECT__54
10
81.550003
20
-6.881000
30
78.121002
70
192
0
VERTEX
8
OBJECT__54
10
82.558998
20
-5.621000
30
77.032997
70
192
0
VERTEX
8
OBJECT__54
10
80.956001
20
-8.311000
30
79.901001
70
192
0
VERTEX
8
OBJECT__54
10
80.983002
20
-8.425000
30
80.132004
70
192
0
VERTEX
8
OBJECT__54
10
89.949997
20
-29.878000
30
61.750000
70
192
0
VERTEX
8
OBJECT__54
10
85.462997
20
-3.873000
30
76.052002
70
192
0
VERTEX
8
OBJECT__54
10
87.108002
20
-3.658000
30
75.961998
70
192
0
VERTEX
8
OBJECT__54
10
88.732002
20
-3.968000
30
76.094002
70
192
0
VERTEX
8
OBJECT__54
10
83.996002
20
-4.519000
30
76.361000
70
192
0
VERTEX
8
OBJECT__54
10
83.955002
20
-4.551000
30
76.379997
70
192
0
VERTEX
8
OBJECT__54
10
92.674004
20
-7.399000
30
78.651001
70
192
0
VERTEX
8
OBJECT__54
10
91.901001
20
-6.223000
30
77.494003
70
192
0
VERTEX
8
OBJECT__54
10
92.325996
20
-6.870000
30
78.129997
70
192
0
VERTEX
8
OBJECT__54
10
89.908997
20
-4.612000
30
76.429001
70
192
0
VERTEX
8
OBJECT__54
10
90.621002
20
-5.003000
30
76.630997
70
192
0
VERTEX
8
OBJECT__54
10
0
20
0
30
0
70
128
71
1
72
2
73
3
0
VERTEX
8
OBJECT__54
10
0
20
0
30
0
70
128
71
1
72
4
73
2
0
VERTEX
8
OBJECT__54
10
0
20
0
30
0
70
128
71
5
72
6
73
7
0
VERTEX
8
OBJECT__54
10
0
20
0
30
0
70
128
71
7
72
1
73
5
0
VERTEX
8
OBJECT__54
10
0
20
0
30
0
70
128
71
7
72
4
73
1
0
VERTEX
8
OBJECT__54
10
0
20
0
30
0
70
128
71
8
72
9
73
10
0
VERTEX
8
OBJECT__54
10
0
20
0
30
0
70
128
71
8
72
1
73
11
0
VERTEX
8
OBJECT__54
10
0
20
0
30
0
70
128
71
11
72
9
73
8
0
VERTEX
8
OBJECT__54
10
0
20
0
30
0
70
128
71
8
72
12
73
13
0
VERTEX
8
OBJECT__54
10
0
20
0
30
0
70
128
71
8
72
14
73
12
0
VERTEX
8
OBJECT__54
10
0
20
0
30
0
70
128
71
13
72
15
73
8
0
VERTEX
8
OBJECT__54
10
0
20
0
30
0
70
128
71
16
72
15
73
17
0
VERTEX
8
OBJECT__54
10
0
20
0
30
0
70
128
71
15
72
18
73
19
0
VERTEX
8
OBJECT__54
10
0
20
0
30
0
70
128
71
15
72
13
73
18
0
VERTEX
8
OBJECT__54
10
0
20
0
30
0
70
128
71
19
72
20
73
15
0
VERTEX
8
OBJECT__54
10
0
20
0
30
0
70
128
71
20
72
17
73
15
0
VERTEX
8
OBJECT__54
10
0
20
0
30
0
70
128
71
21
72
22
73
23
0
VERTEX
8
OBJECT__54
10
0
20
0
30
0
70
128
71
23
72
24
73
21
0
VERTEX
8
OBJECT__54
10
0
20
0
30
0
70
128
71
21
72
16
73
25
0
VERTEX
8
OBJECT__54
10
0
20
0
30
0
70
128
71
25
72
22
73
21
0
VERTEX
8
OBJECT__54
10
0
20
0
30
0
70
128
71
16
72
26
73
25
0
VERTEX
8
OBJECT__54
10
0
20
0
30
0
70
128
71
27
72
28
73
29
0
VERTEX
8
OBJECT__54
10
0
20
0
30
0
70
128
71
29
72
30
73
27
0
VERTEX
8
OBJECT__54
10
0
20
0
30
0
70
128
71
27
72
31
73
28
0
VERTEX
8
OBJECT__54
10
0
20
0
30
0
70
128
71
27
72
21
73
32
0
VERTEX
8
OBJECT__54
10
0
20
0
30
0
70
128
71
32
72
31
73
27
0
VERTEX
8
OBJECT__54
10
0
20
0
30
0
70
128
71
27
72
33
73
6
0
VERTEX
8
OBJECT__54
10
0
20
0
30
0
70
128
71
27
72
34
73
35
0
VERTEX
8
OBJECT__54
10
0
20
0
30
0
70
128
71
27
72
36
73
37
0
VERTEX
8
OBJECT__54
10
0
20
0
30
0
70
128
71
37
72
34
73
27
0
VERTEX
8
OBJECT__54
10
0
20
0
30
0
70
128
71
35
72
33
73
27
0
VERTEX
8
OBJECT__54
10
0
20
0
30
0
70
128
71
6
72
5
73
27
0
VERTEX
8
OBJECT__54
10
0
20
0
30
0
70
128
71
30
72
36
73
27
0
VERTEX
8
OBJECT__54
10
0
20
0
30
0
70
128
71
24
72
32
73
21
0
VERTEX
8
OBJECT__54
10
0
20
0
30
0
70
128
71
17
72
26
73
16
0
VERTEX
8
OBJECT__54
10
0
20
0
30
0
70
128
71
10
72
14
73
8
0
VERTEX
8
OBJECT__54
10
0
20
0
30
0
70
128
71
3
72
11
73
1
0
SEQEND
8
OBJECT__54
0
POLYLINE
8
OBJECT__55
66
1
70
64
71
7
72
5
62
253
0
VERTEX
8
OBJECT__55
10
89.949997
20
-35.074001
30
70.750000
70
192
0
VERTEX
8
OBJECT__55
10
83.949997
20
-29.878000
30
61.750000
70
192
0
VERTEX
8
OBJECT__55
10
89.949997
20
-29.878000
30
61.750000
70
192
0
VERTEX
8
OBJECT__55
10
86.949997
20
-35.476002
30
71.445999
70
192
0
VERTEX
8
OBJECT__55
10
83.949997
20
-35.074001
30
70.750000
70
192
0
VERTEX
8
OBJECT__55
10
92.949997
20
-32.476002
30
66.250000
70
192
0
VERTEX
8
OBJECT__55
10
80.949997
20
-32.476002
30
66.250000
70
192
0
VERTEX
8
OBJECT__55
10
0
20
0
30
0
70
128
71
1
72
2
73
3
0
VERTEX
8
OBJECT__55
10
0
20
0
30
0
70
128
71
2
72
4
73
5
0
VERTEX
8
OBJECT__55
10
0
20
0
30
0
70
128
71
3
72
6
73
1
0
VERTEX
8
OBJECT__55
10
0
20
0
30
0
70
128
71
1
72
4
73
2
0
VERTEX
8
OBJECT__55
10
0
20
0
30
0
70
128
71
5
72
7
73
2
0
SEQEND
8
OBJECT__55
0
POLYLINE
8
OBJECT__56
66
1
70
64
71
34
72
34
62
253
0
VERTEX
8
OBJECT__56
10
89.949997
20
5.196000
30
122.500000
70
192
0
VERTEX
8
OBJECT__56
10
92.295998
20
2.724000
30
94.362000
70
192
0
VERTEX
8
OBJECT__56
10
91.037003
20
4.393000
30
93.704002
70
192
0
VERTEX
8
OBJECT__56
10
92.949997
20
0.000000
30
122.500000
70
192
0
VERTEX
8
OBJECT__56
10
92.949997
20
0.000000
30
94.750000
70
192
0
VERTEX
8
OBJECT__56
10
92.911003
20
0.686000
30
94.725998
70
192
0
VERTEX
8
OBJECT__56
10
86.949997
20
6.000000
30
122.500000
70
192
0
VERTEX
8
OBJECT__56
10
89.588997
20
5.388000
30
93.125999
70
192
0
VERTEX
8
OBJECT__56
10
88.100998
20
5.888000
30
92.771004
70
192
0
VERTEX
8
OBJECT__56
10
89.924004
20
5.158000
30
93.260002
70
192
0
VERTEX
8
OBJECT__56
10
84.737999
20
5.578000
30
92.997002
70
192
0
VERTEX
8
OBJECT__56
10
83.996002
20
5.121000
30
93.273003
70
192
0
VERTEX
8
OBJECT__56
10
86.383003
20
5.973000
30
92.706001
70
192
0
VERTEX
8
OBJECT__56
10
83.949997
20
5.196000
30
122.500000
70
192
0
VERTEX
8
OBJECT__56
10
80.949997
20
0.000000
30
122.500000
70
192
0
VERTEX
8
OBJECT__56
10
81.146004
20
1.521000
30
94.630997
70
192
0
VERTEX
8
OBJECT__56
10
80.983002
20
-0.001000
30
94.730003
70
192
0
VERTEX
8
OBJECT__56
10
82.966003
20
4.487000
30
93.655998
70
192
0
VERTEX
8
OBJECT__56
10
81.803001
20
3.084000
30
94.250000
70
192
0
VERTEX
8
OBJECT__56
10
83.949997
20
-5.196000
30
122.500000
70
192
0
VERTEX
8
OBJECT__56
10
81.403999
20
-2.289000
30
94.476997
70
192
0
VERTEX
8
OBJECT__56
10
82.558998
20
-4.089000
30
93.850998
70
192
0
VERTEX
8
OBJECT__56
10
80.956001
20
-0.260000
30
94.747002
70
192
0
VERTEX
8
OBJECT__56
10
80.983002
20
-0.004000
30
94.730003
70
192
0
VERTEX
8
OBJECT__56
10
89.949997
20
-5.196000
30
122.500000
70
192
0
VERTEX
8
OBJECT__56
10
85.462997
20
-5.813000
30
92.828003
70
192
0
VERTEX
8
OBJECT__56
10
87.108002
20
-5.998000
30
92.686996
70
192
0
VERTEX
8
OBJECT__56
10
88.732002
20
-5.729000
30
92.889000
70
192
0
VERTEX
8
OBJECT__56
10
83.996002
20
-5.222000
30
93.233002
70
192
0
VERTEX
8
OBJECT__56
10
83.955002
20
-5.190000
30
93.250999
70
192
0
VERTEX
8
OBJECT__56
10
92.674004
20
-1.799000
30
94.583000
70
192
0
VERTEX
8
OBJECT__56
10
89.908997
20
-5.117000
30
93.279999
70
192
0
VERTEX
8
OBJECT__56
10
90.621002
20
-4.746000
30
93.516998
70
192
0
VERTEX
8
OBJECT__56
10
91.901001
20
-3.389000
30
94.141998
70
192
0
VERTEX
8
OBJECT__56
10
0
20
0
30
0
70
128
71
1
72
2
73
3
0
VERTEX
8
OBJECT__56
10
0
20
0
30
0
70
128
71
4
72
5
73
6
0
VERTEX
8
OBJECT__56
10
0
20
0
30
0
70
128
71
6
72
1
73
4
0
VERTEX
8
OBJECT__56
10
0
20
0
30
0
70
128
71
6
72
2
73
1
0
VERTEX
8
OBJECT__56
10
0
20
0
30
0
70
128
71
7
72
8
73
9
0
VERTEX
8
OBJECT__56
10
0
20
0
30
0
70
128
71
7
72
1
73
10
0
VERTEX
8
OBJECT__56
10
0
20
0
30
0
70
128
71
10
72
8
73
7
0
VERTEX
8
OBJECT__56
10
0
20
0
30
0
70
128
71
7
72
11
73
12
0
VERTEX
8
OBJECT__56
10
0
20
0
30
0
70
128
71
7
72
13
73
11
0
VERTEX
8
OBJECT__56
10
0
20
0
30
0
70
128
71
12
72
14
73
7
0
VERTEX
8
OBJECT__56
10
0
20
0
30
0
70
128
71
15
72
14
73
16
0
VERTEX
8
OBJECT__56
10
0
20
0
30
0
70
128
71
16
72
17
73
15
0
VERTEX
8
OBJECT__56
10
0
20
0
30
0
70
128
71
14
72
12
73
18
0
VERTEX
8
OBJECT__56
10
0
20
0
30
0
70
128
71
18
72
19
73
14
0
VERTEX
8
OBJECT__56
10
0
20
0
30
0
70
128
71
19
72
16
73
14
0
VERTEX
8
OBJECT__56
10
0
20
0
30
0
70
128
71
20
72
21
73
22
0
VERTEX
8
OBJECT__56
10
0
20
0
30
0
70
128
71
20
72
15
73
23
0
VERTEX
8
OBJECT__56
10
0
20
0
30
0
70
128
71
23
72
21
73
20
0
VERTEX
8
OBJECT__56
10
0
20
0
30
0
70
128
71
15
72
24
73
23
0
VERTEX
8
OBJECT__56
10
0
20
0
30
0
70
128
71
25
72
26
73
27
0
VERTEX
8
OBJECT__56
10
0
20
0
30
0
70
128
71
27
72
28
73
25
0
VERTEX
8
OBJECT__56
10
0
20
0
30
0
70
128
71
25
72
29
73
26
0
VERTEX
8
OBJECT__56
10
0
20
0
30
0
70
128
71
25
72
20
73
30
0
VERTEX
8
OBJECT__56
10
0
20
0
30
0
70
128
71
30
72
29
73
25
0
VERTEX
8
OBJECT__56
10
0
20
0
30
0
70
128
71
25
72
31
73
5
0
VERTEX
8
OBJECT__56
10
0
20
0
30
0
70
128
71
25
72
32
73
33
0
VERTEX
8
OBJECT__56
10
0
20
0
30
0
70
128
71
33
72
34
73
25
0
VERTEX
8
OBJECT__56
10
0
20
0
30
0
70
128
71
34
72
31
73
25
0
VERTEX
8
OBJECT__56
10
0
20
0
30
0
70
128
71
5
72
4
73
25
0
VERTEX
8
OBJECT__56
10
0
20
0
30
0
70
128
71
28
72
32
73
25
0
VERTEX
8
OBJECT__56
10
0
20
0
30
0
70
128
71
22
72
30
73
20
0
VERTEX
8
OBJECT__56
10
0
20
0
30
0
70
128
71
17
72
24
73
15
0
VERTEX
8
OBJECT__56
10
0
20
0
30
0
70
128
71
9
72
13
73
7
0
VERTEX
8
OBJECT__56
10
0
20
0
30
0
70
128
71
3
72
10
73
1
0
SEQEND
8
OBJECT__56
0
POLYLINE
8
OBJECT__57
66
1
70
64
71
7
72
5
62
253
0
VERTEX
8
OBJECT__57
10
89.949997
20
5.196000
30
122.500000
70
192
0
VERTEX
8
OBJECT__57
10
83.949997
20
-5.196000
30
122.500000
70
192
0
VERTEX
8
OBJECT__57
10
89.949997
20
-5.196000
30
122.500000
70
192
0
VERTEX
8
OBJECT__57
10
86.949997
20
6.000000
30
122.500000
70
192
0
VERTEX
8
OBJECT__57
10
83.949997
20
5.196000
30
122.500000
70
192
0
VERTEX
8
OBJECT__57
10
92.949997
20
0.000000
30
122.500000
70
192
0
VERTEX
8
OBJECT__57
10
80.949997
20
0.000000
30
122.500000
70
192
0
VERTEX
8
OBJECT__57
10
0
20
0
30
0
70
128
71
1
72
2
73
3
0
VERTEX
8
OBJECT__57
10
0
20
0
30
0
70
128
71
2
72
4
73
5
0
VERTEX
8
OBJECT__57
10
0
20
0
30
0
70
128
71
3
72
6
73
1
0
VERTEX
8
OBJECT__57
10
0
20
0
30
0
70
128
71
1
72
4
73
2
0
VERTEX
8
OBJECT__57
10
0
20
0
30
0
70
128
71
5
72
7
73
2
0
SEQEND
8
OBJECT__57
0
POLYLINE
8
OBJECT__58
66
1
70
64
71
7
72
5
62
253
0
VERTEX
8
OBJECT__58
10
83.699997
20
-29.877001
30
23.249001
70
192
0
VERTEX
8
OBJECT__58
10
80.699997
20
-32.474998
30
18.749001
70
192
0
VERTEX
8
OBJECT__58
10
83.699997
20
-35.073002
30
14.249000
70
192
0
VERTEX
8
OBJECT__58
10
89.699997
20
-35.073002
30
14.249000
70
192
0
VERTEX
8
OBJECT__58
10
86.699997
20
-29.475000
30
23.945000
70
192
0
VERTEX
8
OBJECT__58
10
92.699997
20
-32.474998
30
18.749001
70
192
0
VERTEX
8
OBJECT__58
10
89.699997
20
-29.877001
30
23.249001
70
192
0
VERTEX
8
OBJECT__58
10
0
20
0
30
0
70
128
71
1
72
2
73
3
0
VERTEX
8
OBJECT__58
10
0
20
0
30
0
70
128
71
4
72
5
73
1
0
VERTEX
8
OBJECT__58
10
0
20
0
30
0
70
128
71
4
72
6
73
7
0
VERTEX
8
OBJECT__58
10
0
20
0
30
0
70
128
71
7
72
5
73
4
0
VERTEX
8
OBJECT__58
10
0
20
0
30
0
70
128
71
3
72
4
73
1
0
SEQEND
8
OBJECT__58
0
POLYLINE
8
OBJECT__59
66
1
70
64
71
37
72
37
62
253
0
VERTEX
8
OBJECT__59
10
89.699997
20
-29.877001
30
23.249001
70
192
0
VERTEX
8
OBJECT__59
10
92.045998
20
-6.745000
30
7.039000
70
192
0
VERTEX
8
OBJECT__59
10
90.787003
20
-5.341000
30
8.155000
70
192
0
VERTEX
8
OBJECT__59
10
92.661003
20
-8.079000
30
5.456000
70
192
0
VERTEX
8
OBJECT__59
10
92.108002
20
-6.878000
30
6.880000
70
192
0
VERTEX
8
OBJECT__59
10
92.699997
20
-32.474998
30
18.749001
70
192
0
VERTEX
8
OBJECT__59
10
92.699997
20
-8.443000
30
4.874000
70
192
0
VERTEX
8
OBJECT__59
10
86.699997
20
-29.475000
30
23.945000
70
192
0
VERTEX
8
OBJECT__59
10
89.338997
20
-4.342000
30
8.728000
70
192
0
VERTEX
8
OBJECT__59
10
87.850998
20
-3.785000
30
8.984000
70
192
0
VERTEX
8
OBJECT__59
10
89.674004
20
-4.573000
30
8.596000
70
192
0
VERTEX
8
OBJECT__59
10
84.487999
20
-4.136000
30
8.828000
70
192
0
VERTEX
8
OBJECT__59
10
83.746002
20
-4.604000
30
8.570000
70
192
0
VERTEX
8
OBJECT__59
10
86.133003
20
-3.686000
30
9.025000
70
192
0
VERTEX
8
OBJECT__59
10
83.699997
20
-29.877001
30
23.249001
70
192
0
VERTEX
8
OBJECT__59
10
80.699997
20
-32.474998
30
18.749001
70
192
0
VERTEX
8
OBJECT__59
10
80.896004
20
-7.579000
30
6.132000
70
192
0
VERTEX
8
OBJECT__59
10
81.553001
20
-6.468000
30
7.294000
70
192
0
VERTEX
8
OBJECT__59
10
81.314003
20
-6.871000
30
6.872000
70
192
0
VERTEX
8
OBJECT__59
10
82.716003
20
-5.252000
30
8.213000
70
192
0
VERTEX
8
OBJECT__59
10
83.699997
20
-35.073002
30
14.249000
70
192
0
VERTEX
8
OBJECT__59
10
82.308998
20
-9.709000
30
0.884000
70
192
0
VERTEX
8
OBJECT__59
10
83.293999
20
-9.731000
30
-0.001000
70
192
0
VERTEX
8
OBJECT__59
10
81.153999
20
-9.352000
30
2.755000
70
192
0
VERTEX
8
OBJECT__59
10
80.706001
20
-8.570000
30
4.647000
70
192
0
VERTEX
8
OBJECT__59
10
80.733002
20
-8.427000
30
4.861000
70
192
0
VERTEX
8
OBJECT__59
10
89.699997
20
-35.073002
30
14.249000
70
192
0
VERTEX
8
OBJECT__59
10
85.212997
20
-9.685000
30
-1.121000
70
192
0
VERTEX
8
OBJECT__59
10
86.858002
20
-9.655000
30
-1.352000
70
192
0
VERTEX
8
OBJECT__59
10
88.482002
20
-9.696000
30
-1.018000
70
192
0
VERTEX
8
OBJECT__59
10
83.746002
20
-9.741000
30
-0.407000
70
192
0
VERTEX
8
OBJECT__59
10
83.705002
20
-9.740000
30
-0.370000
70
192
0
VERTEX
8
OBJECT__59
10
92.424004
20
-9.197000
30
3.232000
70
192
0
VERTEX
8
OBJECT__59
10
90.130997
20
-9.741000
30
-0.001000
70
192
0
VERTEX
8
OBJECT__59
10
90.371002
20
-9.748000
30
0.148000
70
192
0
VERTEX
8
OBJECT__59
10
89.658997
20
-9.728000
30
-0.292000
70
192
0
VERTEX
8
OBJECT__59
10
91.651001
20
-9.611000
30
1.635000
70
192
0
VERTEX
8
OBJECT__59
10
0
20
0
30
0
70
128
71
1
72
2
73
3
0
VERTEX
8
OBJECT__59
10
0
20
0
30
0
70
128
71
1
72
4
73
5
0
VERTEX
8
OBJECT__59
10
0
20
0
30
0
70
128
71
6
72
7
73
4
0
VERTEX
8
OBJECT__59
10
0
20
0
30
0
70
128
71
4
72
1
73
6
0
VERTEX
8
OBJECT__59
10
0
20
0
30
0
70
128
71
5
72
2
73
1
0
VERTEX
8
OBJECT__59
10
0
20
0
30
0
70
128
71
8
72
9
73
10
0
VERTEX
8
OBJECT__59
10
0
20
0
30
0
70
128
71
8
72
1
73
11
0
VERTEX
8
OBJECT__59
10
0
20
0
30
0
70
128
71
11
72
9
73
8
0
VERTEX
8
OBJECT__59
10
0
20
0
30
0
70
128
71
8
72
12
73
13
0
VERTEX
8
OBJECT__59
10
0
20
0
30
0
70
128
71
8
72
14
73
12
0
VERTEX
8
OBJECT__59
10
0
20
0
30
0
70
128
71
13
72
15
73
8
0
VERTEX
8
OBJECT__59
10
0
20
0
30
0
70
128
71
16
72
15
73
17
0
VERTEX
8
OBJECT__59
10
0
20
0
30
0
70
128
71
15
72
18
73
19
0
VERTEX
8
OBJECT__59
10
0
20
0
30
0
70
128
71
15
72
13
73
20
0
VERTEX
8
OBJECT__59
10
0
20
0
30
0
70
128
71
20
72
18
73
15
0
VERTEX
8
OBJECT__59
10
0
20
0
30
0
70
128
71
19
72
17
73
15
0
VERTEX
8
OBJECT__59
10
0
20
0
30
0
70
128
71
21
72
22
73
23
0
VERTEX
8
OBJECT__59
10
0
20
0
30
0
70
128
71
21
72
24
73
22
0
VERTEX
8
OBJECT__59
10
0
20
0
30
0
70
128
71
21
72
16
73
25
0
VERTEX
8
OBJECT__59
10
0
20
0
30
0
70
128
71
25
72
24
73
21
0
VERTEX
8
OBJECT__59
10
0
20
0
30
0
70
128
71
16
72
26
73
25
0
VERTEX
8
OBJECT__59
10
0
20
0
30
0
70
128
71
27
72
28
73
29
0
VERTEX
8
OBJECT__59
10
0
20
0
30
0
70
128
71
29
72
30
73
27
0
VERTEX
8
OBJECT__59
10
0
20
0
30
0
70
128
71
27
72
31
73
28
0
VERTEX
8
OBJECT__59
10
0
20
0
30
0
70
128
71
27
72
21
73
32
0
VERTEX
8
OBJECT__59
10
0
20
0
30
0
70
128
71
32
72
31
73
27
0
VERTEX
8
OBJECT__59
10
0
20
0
30
0
70
128
71
27
72
33
73
7
0
VERTEX
8
OBJECT__59
10
0
20
0
30
0
70
128
71
27
72
34
73
35
0
VERTEX
8
OBJECT__59
10
0
20
0
30
0
70
128
71
27
72
36
73
34
0
VERTEX
8
OBJECT__59
10
0
20
0
30
0
70
128
71
35
72
37
73
27
0
VERTEX
8
OBJECT__59
10
0
20
0
30
0
70
128
71
37
72
33
73
27
0
VERTEX
8
OBJECT__59
10
0
20
0
30
0
70
128
71
7
72
6
73
27
0
VERTEX
8
OBJECT__59
10
0
20
0
30
0
70
128
71
30
72
36
73
27
0
VERTEX
8
OBJECT__59
10
0
20
0
30
0
70
128
71
23
72
32
73
21
0
VERTEX
8
OBJECT__59
10
0
20
0
30
0
70
128
71
17
72
26
73
16
0
VERTEX
8
OBJECT__59
10
0
20
0
30
0
70
128
71
10
72
14
73
8
0
VERTEX
8
OBJECT__59
10
0
20
0
30
0
70
128
71
3
72
11
73
1
0
SEQEND
8
OBJECT__59
0
POLYLINE
8
OBJECT__61
66
1
70
64
71
103
72
109
62
253
0
VERTEX
8
OBJECT__61
10
71.199997
20
-6.894000
30
-6.895000
70
192
0
VERTEX
8
OBJECT__61
10
83.746002
20
-9.741000
30
-0.407000
70
192
0
VERTEX
8
OBJECT__61
10
83.705002
20
-9.740000
30
-0.370000
70
192
0
VERTEX
8
OBJECT__61
10
71.199997
20
-9.749000
30
-0.001000
70
192
0
VERTEX
8
OBJECT__61
10
83.293999
20
-9.731000
30
-0.001000
70
192
0
VERTEX
8
OBJECT__61
10
85.212997
20
-9.685000
30
-1.121000
70
192
0
VERTEX
8
OBJECT__61
10
94.199997
20
-6.894000
30
-6.895000
70
192
0
VERTEX
8
OBJECT__61
10
86.858002
20
-9.655000
30
-1.352000
70
192
0
VERTEX
8
OBJECT__61
10
88.482002
20
-9.696000
30
-1.018000
70
192
0
VERTEX
8
OBJECT__61
10
94.199997
20
-9.749000
30
-0.001000
70
192
0
VERTEX
8
OBJECT__61
10
90.130997
20
-9.741000
30
-0.001000
70
192
0
VERTEX
8
OBJECT__61
10
89.658997
20
-9.728000
30
-0.292000
70
192
0
VERTEX
8
OBJECT__61
10
71.199997
20
-6.894000
30
6.893000
70
192
0
VERTEX
8
OBJECT__61
10
80.706001
20
-8.570000
30
4.647000
70
192
0
VERTEX
8
OBJECT__61
10
80.733002
20
-8.427000
30
4.861000
70
192
0
VERTEX
8
OBJECT__61
10
80.896004
20
-7.579000
30
6.132000
70
192
0
VERTEX
8
OBJECT__61
10
81.153999
20
-9.352000
30
2.755000
70
192
0
VERTEX
8
OBJECT__61
10
82.308998
20
-9.709000
30
0.884000
70
192
0
VERTEX
8
OBJECT__61
10
94.199997
20
0.001000
30
9.749000
70
192
0
VERTEX
8
OBJECT__61
10
90.787003
20
-5.341000
30
8.155000
70
192
0
VERTEX
8
OBJECT__61
10
92.045998
20
-6.745000
30
7.039000
70
192
0
VERTEX
8
OBJECT__61
10
89.338997
20
-4.342000
30
8.728000
70
192
0
VERTEX
8
OBJECT__61
10
89.674004
20
-4.573000
30
8.596000
70
192
0
VERTEX
8
OBJECT__61
10
87.850998
20
-3.785000
30
8.984000
70
192
0
VERTEX
8
OBJECT__61
10
94.199997
20
-6.894000
30
6.893000
70
192
0
VERTEX
8
OBJECT__61
10
71.199997
20
0.001000
30
9.749000
70
192
0
VERTEX
8
OBJECT__61
10
86.133003
20
-3.686000
30
9.025000
70
192
0
VERTEX
8
OBJECT__61
10
82.716003
20
-5.252000
30
8.213000
70
192
0
VERTEX
8
OBJECT__61
10
83.746002
20
-4.604000
30
8.570000
70
192
0
VERTEX
8
OBJECT__61
10
81.314003
20
-6.871000
30
6.872000
70
192
0
VERTEX
8
OBJECT__61
10
81.553001
20
-6.468000
30
7.294000
70
192
0
VERTEX
8
OBJECT__61
10
84.487999
20
-4.136000
30
8.828000
70
192
0
VERTEX
8
OBJECT__61
10
92.424004
20
-9.197000
30
3.232000
70
192
0
VERTEX
8
OBJECT__61
10
91.651001
20
-9.611000
30
1.635000
70
192
0
VERTEX
8
OBJECT__61
10
92.699997
20
-8.443000
30
4.874000
70
192
0
VERTEX
8
OBJECT__61
10
92.661003
20
-8.079000
30
5.456000
70
192
0
VERTEX
8
OBJECT__61
10
92.108002
20
-6.878000
30
6.880000
70
192
0
VERTEX
8
OBJECT__61
10
90.371002
20
-9.748000
30
0.148000
70
192
0
VERTEX
8
OBJECT__61
10
82.308998
20
5.622000
30
7.966000
70
192
0
VERTEX
8
OBJECT__61
10
81.300003
20
6.881000
30
6.878000
70
192
0
VERTEX
8
OBJECT__61
10
83.746002
20
4.520000
30
8.639000
70
192
0
VERTEX
8
OBJECT__61
10
83.705002
20
4.551000
30
8.619000
70
192
0
VERTEX
8
OBJECT__61
10
85.212997
20
3.873000
30
8.947000
70
192
0
VERTEX
8
OBJECT__61
10
86.858002
20
3.659000
30
9.037000
70
192
0
VERTEX
8
OBJECT__61
10
88.482002
20
3.968000
30
8.905000
70
192
0
VERTEX
8
OBJECT__61
10
90.371002
20
5.004000
30
8.368000
70
192
0
VERTEX
8
OBJECT__61
10
89.658997
20
4.613000
30
8.570000
70
192
0
VERTEX
8
OBJECT__61
10
94.199997
20
6.895000
30
6.893000
70
192
0
VERTEX
8
OBJECT__61
10
92.075996
20
6.871000
30
6.869000
70
192
0
VERTEX
8
OBJECT__61
10
91.651001
20
6.223000
30
7.505000
70
192
0
VERTEX
8
OBJECT__61
10
71.199997
20
9.751000
30
-0.001000
70
192
0
VERTEX
8
OBJECT__61
10
80.896004
20
9.102000
30
3.497000
70
192
0
VERTEX
8
OBJECT__61
10
81.553001
20
9.553000
30
1.953000
70
192
0
VERTEX
8
OBJECT__61
10
71.199997
20
6.895000
30
6.893000
70
192
0
VERTEX
8
OBJECT__61
10
80.733002
20
8.425000
30
4.867000
70
192
0
VERTEX
8
OBJECT__61
10
80.706001
20
8.311000
30
5.098000
70
192
0
VERTEX
8
OBJECT__61
10
82.716003
20
9.741000
30
0.442000
70
192
0
VERTEX
8
OBJECT__61
10
81.153999
20
7.064000
30
6.720000
70
192
0
VERTEX
8
OBJECT__61
10
94.199997
20
6.895000
30
-6.895000
70
192
0
VERTEX
8
OBJECT__61
10
89.674004
20
9.733000
30
-0.338000
70
192
0
VERTEX
8
OBJECT__61
10
90.098000
20
9.734000
30
-0.001000
70
192
0
VERTEX
8
OBJECT__61
10
89.338997
20
9.732000
30
-0.605000
70
192
0
VERTEX
8
OBJECT__61
10
87.850998
20
9.675000
30
-1.215000
70
192
0
VERTEX
8
OBJECT__61
10
86.133003
20
9.661000
30
-1.321000
70
192
0
VERTEX
8
OBJECT__61
10
71.199997
20
6.895000
30
-6.895000
70
192
0
VERTEX
8
OBJECT__61
10
84.487999
20
9.715000
30
-0.833000
70
192
0
VERTEX
8
OBJECT__61
10
83.331001
20
9.732000
30
-0.001000
70
192
0
VERTEX
8
OBJECT__61
10
83.746002
20
9.726000
30
-0.299000
70
192
0
VERTEX
8
OBJECT__61
10
94.199997
20
9.751000
30
-0.001000
70
192
0
VERTEX
8
OBJECT__61
10
92.661003
20
8.767000
30
4.268000
70
192
0
VERTEX
8
OBJECT__61
10
92.699997
20
8.445000
30
4.874000
70
192
0
VERTEX
8
OBJECT__61
10
92.045998
20
9.470000
30
2.321000
70
192
0
VERTEX
8
OBJECT__61
10
92.424004
20
7.400000
30
6.348000
70
192
0
VERTEX
8
OBJECT__61
10
90.787003
20
9.735000
30
0.547000
70
192
0
VERTEX
8
OBJECT__61
10
71.199997
20
0.001000
30
-9.751000
70
192
0
VERTEX
8
OBJECT__61
10
80.706001
20
0.261000
30
-9.747000
70
192
0
VERTEX
8
OBJECT__61
10
80.733002
20
0.004000
30
-9.731000
70
192
0
VERTEX
8
OBJECT__61
10
81.153999
20
2.290000
30
-9.478000
70
192
0
VERTEX
8
OBJECT__61
10
83.746002
20
5.223000
30
-8.234000
70
192
0
VERTEX
8
OBJECT__61
10
83.705002
20
5.191000
30
-8.252000
70
192
0
VERTEX
8
OBJECT__61
10
85.212997
20
5.814000
30
-7.829000
70
192
0
VERTEX
8
OBJECT__61
10
82.308998
20
4.090000
30
-8.852000
70
192
0
VERTEX
8
OBJECT__61
10
86.858002
20
5.999000
30
-7.688000
70
192
0
VERTEX
8
OBJECT__61
10
88.482002
20
5.730000
30
-7.890000
70
192
0
VERTEX
8
OBJECT__61
10
90.371002
20
4.747000
30
-8.518000
70
192
0
VERTEX
8
OBJECT__61
10
89.658997
20
5.118000
30
-8.281000
70
192
0
VERTEX
8
OBJECT__61
10
92.424004
20
1.800000
30
-9.584000
70
192
0
VERTEX
8
OBJECT__61
10
91.651001
20
3.390000
30
-9.143000
70
192
0
VERTEX
8
OBJECT__61
10
94.199997
20
0.001000
30
-9.751000
70
192
0
VERTEX
8
OBJECT__61
10
92.699997
20
0.001000
30
-9.751000
70
192
0
VERTEX
8
OBJECT__61
10
92.045998
20
-2.723000
30
-9.363000
70
192
0
VERTEX
8
OBJECT__61
10
92.661003
20
-0.686000
30
-9.727000
70
192
0
VERTEX
8
OBJECT__61
10
89.338997
20
-5.388000
30
-8.127000
70
192
0
VERTEX
8
OBJECT__61
10
89.674004
20
-5.157000
30
-8.261000
70
192
0
VERTEX
8
OBJECT__61
10
90.787003
20
-4.392000
30
-8.705000
70
192
0
VERTEX
8
OBJECT__61
10
87.850998
20
-5.888000
30
-7.772000
70
192
0
VERTEX
8
OBJECT__61
10
86.133003
20
-5.972000
30
-7.707000
70
192
0
VERTEX
8
OBJECT__61
10
82.716003
20
-4.486000
30
-8.657000
70
192
0
VERTEX
8
OBJECT__61
10
83.746002
20
-5.120000
30
-8.274000
70
192
0
VERTEX
8
OBJECT__61
10
80.896004
20
-1.520000
30
-9.632000
70
192
0
VERTEX
8
OBJECT__61
10
81.553001
20
-3.083000
30
-9.250000
70
192
0
VERTEX
8
OBJECT__61
10
80.733002
20
0.002000
30
-9.731000
70
192
0
VERTEX
8
OBJECT__61
10
84.487999
20
-5.577000
30
-7.998000
70
192
0
VERTEX
8
OBJECT__61
10
0
20
0
30
0
70
128
71
1
72
2
73
3
0
VERTEX
8
OBJECT__61
10
0
20
0
30
0
70
128
71
3
72
4
73
1
0
VERTEX
8
OBJECT__61
10
0
20
0
30
0
70
128
71
3
72
5
73
4
0
VERTEX
8
OBJECT__61
10
0
20
0
30
0
70
128
71
1
72
6
73
2
0
VERTEX
8
OBJECT__61
10
0
20
0
30
0
70
128
71
7
72
8
73
6
0
VERTEX
8
OBJECT__61
10
0
20
0
30
0
70
128
71
6
72
1
73
7
0
VERTEX
8
OBJECT__61
10
0
20
0
30
0
70
128
71
7
72
9
73
8
0
VERTEX
8
OBJECT__61
10
0
20
0
30
0
70
128
71
7
72
10
73
11
0
VERTEX
8
OBJECT__61
10
0
20
0
30
0
70
128
71
11
72
12
73
7
0
VERTEX
8
OBJECT__61
10
0
20
0
30
0
70
128
71
12
72
9
73
7
0
VERTEX
8
OBJECT__61
10
0
20
0
30
0
70
128
71
13
72
14
73
15
0
VERTEX
8
OBJECT__61
10
0
20
0
30
0
70
128
71
15
72
16
73
13
0
VERTEX
8
OBJECT__61
10
0
20
0
30
0
70
128
71
4
72
17
73
14
0
VERTEX
8
OBJECT__61
10
0
20
0
30
0
70
128
71
14
72
13
73
4
0
VERTEX
8
OBJECT__61
10
0
20
0
30
0
70
128
71
4
72
5
73
18
0
VERTEX
8
OBJECT__61
10
0
20
0
30
0
70
128
71
18
72
17
73
4
0
VERTEX
8
OBJECT__61
10
0
20
0
30
0
70
128
71
19
72
20
73
21
0
VERTEX
8
OBJECT__61
10
0
20
0
30
0
70
128
71
19
72
22
73
23
0
VERTEX
8
OBJECT__61
10
0
20
0
30
0
70
128
71
23
72
20
73
19
0
VERTEX
8
OBJECT__61
10
0
20
0
30
0
70
128
71
19
72
24
73
22
0
VERTEX
8
OBJECT__61
10
0
20
0
30
0
70
128
71
21
72
25
73
19
0
VERTEX
8
OBJECT__61
10
0
20
0
30
0
70
128
71
19
72
26
73
27
0
VERTEX
8
OBJECT__61
10
0
20
0
30
0
70
128
71
27
72
24
73
19
0
VERTEX
8
OBJECT__61
10
0
20
0
30
0
70
128
71
26
72
28
73
29
0
VERTEX
8
OBJECT__61
10
0
20
0
30
0
70
128
71
26
72
13
73
30
0
VERTEX
8
OBJECT__61
10
0
20
0
30
0
70
128
71
30
72
31
73
26
0
VERTEX
8
OBJECT__61
10
0
20
0
30
0
70
128
71
31
72
28
73
26
0
VERTEX
8
OBJECT__61
10
0
20
0
30
0
70
128
71
29
72
32
73
26
0
VERTEX
8
OBJECT__61
10
0
20
0
30
0
70
128
71
32
72
27
73
26
0
VERTEX
8
OBJECT__61
10
0
20
0
30
0
70
128
71
10
72
33
73
34
0
VERTEX
8
OBJECT__61
10
0
20
0
30
0
70
128
71
10
72
25
73
35
0
VERTEX
8
OBJECT__61
10
0
20
0
30
0
70
128
71
25
72
36
73
35
0
VERTEX
8
OBJECT__61
10
0
20
0
30
0
70
128
71
25
72
37
73
36
0
VERTEX
8
OBJECT__61
10
0
20
0
30
0
70
128
71
35
72
33
73
10
0
VERTEX
8
OBJECT__61
10
0
20
0
30
0
70
128
71
34
72
38
73
10
0
VERTEX
8
OBJECT__61
10
0
20
0
30
0
70
128
71
26
72
39
73
40
0
VERTEX
8
OBJECT__61
10
0
20
0
30
0
70
128
71
26
72
41
73
42
0
VERTEX
8
OBJECT__61
10
0
20
0
30
0
70
128
71
26
72
43
73
41
0
VERTEX
8
OBJECT__61
10
0
20
0
30
0
70
128
71
42
72
39
73
26
0
VERTEX
8
OBJECT__61
10
0
20
0
30
0
70
128
71
26
72
19
73
44
0
VERTEX
8
OBJECT__61
10
0
20
0
30
0
70
128
71
44
72
43
73
26
0
VERTEX
8
OBJECT__61
10
0
20
0
30
0
70
128
71
19
72
45
73
44
0
VERTEX
8
OBJECT__61
10
0
20
0
30
0
70
128
71
19
72
46
73
47
0
VERTEX
8
OBJECT__61
10
0
20
0
30
0
70
128
71
48
72
49
73
50
0
VERTEX
8
OBJECT__61
10
0
20
0
30
0
70
128
71
50
72
19
73
48
0
VERTEX
8
OBJECT__61
10
0
20
0
30
0
70
128
71
50
72
46
73
19
0
VERTEX
8
OBJECT__61
10
0
20
0
30
0
70
128
71
47
72
45
73
19
0
VERTEX
8
OBJECT__61
10
0
20
0
30
0
70
128
71
51
72
52
73
53
0
VERTEX
8
OBJECT__61
10
0
20
0
30
0
70
128
71
51
72
54
73
55
0
VERTEX
8
OBJECT__61
10
0
20
0
30
0
70
128
71
54
72
56
73
55
0
VERTEX
8
OBJECT__61
10
0
20
0
30
0
70
128
71
55
72
52
73
51
0
VERTEX
8
OBJECT__61
10
0
20
0
30
0
70
128
71
53
72
57
73
51
0
VERTEX
8
OBJECT__61
10
0
20
0
30
0
70
128
71
54
72
58
73
56
0
VERTEX
8
OBJECT__61
10
0
20
0
30
0
70
128
71
54
72
40
73
58
0
VERTEX
8
OBJECT__61
10
0
20
0
30
0
70
128
71
59
72
60
73
61
0
VERTEX
8
OBJECT__61
10
0
20
0
30
0
70
128
71
59
72
62
73
60
0
VERTEX
8
OBJECT__61
10
0
20
0
30
0
70
128
71
59
72
63
73
62
0
VERTEX
8
OBJECT__61
10
0
20
0
30
0
70
128
71
59
72
64
73
63
0
VERTEX
8
OBJECT__61
10
0
20
0
30
0
70
128
71
65
72
66
73
64
0
VERTEX
8
OBJECT__61
10
0
20
0
30
0
70
128
71
65
72
51
73
67
0
VERTEX
8
OBJECT__61
10
0
20
0
30
0
70
128
71
67
72
68
73
65
0
VERTEX
8
OBJECT__61
10
0
20
0
30
0
70
128
71
68
72
66
73
65
0
VERTEX
8
OBJECT__61
10
0
20
0
30
0
70
128
71
64
72
59
73
65
0
VERTEX
8
OBJECT__61
10
0
20
0
30
0
70
128
71
48
72
69
73
70
0
VERTEX
8
OBJECT__61
10
0
20
0
30
0
70
128
71
70
72
71
73
48
0
VERTEX
8
OBJECT__61
10
0
20
0
30
0
70
128
71
69
72
72
73
70
0
VERTEX
8
OBJECT__61
10
0
20
0
30
0
70
128
71
71
72
73
73
48
0
VERTEX
8
OBJECT__61
10
0
20
0
30
0
70
128
71
69
72
61
73
74
0
VERTEX
8
OBJECT__61
10
0
20
0
30
0
70
128
71
74
72
72
73
69
0
VERTEX
8
OBJECT__61
10
0
20
0
30
0
70
128
71
75
72
76
73
77
0
VERTEX
8
OBJECT__61
10
0
20
0
30
0
70
128
71
75
72
65
73
78
0
VERTEX
8
OBJECT__61
10
0
20
0
30
0
70
128
71
65
72
79
73
80
0
VERTEX
8
OBJECT__61
10
0
20
0
30
0
70
128
71
65
72
81
73
79
0
VERTEX
8
OBJECT__61
10
0
20
0
30
0
70
128
71
80
72
82
73
65
0
VERTEX
8
OBJECT__61
10
0
20
0
30
0
70
128
71
65
72
59
73
83
0
VERTEX
8
OBJECT__61
10
0
20
0
30
0
70
128
71
83
72
81
73
65
0
VERTEX
8
OBJECT__61
10
0
20
0
30
0
70
128
71
82
72
78
73
65
0
VERTEX
8
OBJECT__61
10
0
20
0
30
0
70
128
71
59
72
84
73
83
0
VERTEX
8
OBJECT__61
10
0
20
0
30
0
70
128
71
78
72
76
73
75
0
VERTEX
8
OBJECT__61
10
0
20
0
30
0
70
128
71
59
72
85
73
86
0
VERTEX
8
OBJECT__61
10
0
20
0
30
0
70
128
71
59
72
87
73
88
0
VERTEX
8
OBJECT__61
10
0
20
0
30
0
70
128
71
89
72
90
73
87
0
VERTEX
8
OBJECT__61
10
0
20
0
30
0
70
128
71
87
72
59
73
89
0
VERTEX
8
OBJECT__61
10
0
20
0
30
0
70
128
71
88
72
85
73
59
0
VERTEX
8
OBJECT__61
10
0
20
0
30
0
70
128
71
86
72
84
73
59
0
VERTEX
8
OBJECT__61
10
0
20
0
30
0
70
128
71
89
72
7
73
91
0
VERTEX
8
OBJECT__61
10
0
20
0
30
0
70
128
71
91
72
92
73
89
0
VERTEX
8
OBJECT__61
10
0
20
0
30
0
70
128
71
7
72
93
73
94
0
VERTEX
8
OBJECT__61
10
0
20
0
30
0
70
128
71
94
72
95
73
7
0
VERTEX
8
OBJECT__61
10
0
20
0
30
0
70
128
71
7
72
96
73
93
0
VERTEX
8
OBJECT__61
10
0
20
0
30
0
70
128
71
95
72
91
73
7
0
VERTEX
8
OBJECT__61
10
0
20
0
30
0
70
128
71
7
72
1
73
97
0
VERTEX
8
OBJECT__61
10
0
20
0
30
0
70
128
71
97
72
96
73
7
0
VERTEX
8
OBJECT__61
10
0
20
0
30
0
70
128
71
1
72
98
73
99
0
VERTEX
8
OBJECT__61
10
0
20
0
30
0
70
128
71
1
72
100
73
101
0
VERTEX
8
OBJECT__61
10
0
20
0
30
0
70
128
71
75
72
102
73
100
0
VERTEX
8
OBJECT__61
10
0
20
0
30
0
70
128
71
100
72
1
73
75
0
VERTEX
8
OBJECT__61
10
0
20
0
30
0
70
128
71
101
72
98
73
1
0
VERTEX
8
OBJECT__61
10
0
20
0
30
0
70
128
71
99
72
103
73
1
0
VERTEX
8
OBJECT__61
10
0
20
0
30
0
70
128
71
103
72
97
73
1
0
VERTEX
8
OBJECT__61
10
0
20
0
30
0
70
128
71
92
72
90
73
89
0
VERTEX
8
OBJECT__61
10
0
20
0
30
0
70
128
71
77
72
102
73
75
0
VERTEX
8
OBJECT__61
10
0
20
0
30
0
70
128
71
73
72
49
73
48
0
VERTEX
8
OBJECT__61
10
0
20
0
30
0
70
128
71
61
72
69
73
59
0
VERTEX
8
OBJECT__61
10
0
20
0
30
0
70
128
71
57
72
67
73
51
0
VERTEX
8
OBJECT__61
10
0
20
0
30
0
70
128
71
40
72
54
73
26
0
VERTEX
8
OBJECT__61
10
0
20
0
30
0
70
128
71
38
72
11
73
10
0
VERTEX
8
OBJECT__61
10
0
20
0
30
0
70
128
71
21
72
37
73
25
0
VERTEX
8
OBJECT__61
10
0
20
0
30
0
70
128
71
16
72
30
73
13
0
SEQEND
8
OBJECT__61
0
POLYLINE
8
OBJECT__62
66
1
70
64
71
8
72
6
62
253
0
VERTEX
8
OBJECT__62
10
94.199997
20
0.001000
30
9.749000
70
192
0
VERTEX
8
OBJECT__62
10
94.199997
20
-6.894000
30
6.893000
70
192
0
VERTEX
8
OBJECT__62
10
94.199997
20
-9.749000
30
-0.001000
70
192
0
VERTEX
8
OBJECT__62
10
94.199997
20
0.001000
30
-9.751000
70
192
0
VERTEX
8
OBJECT__62
10
94.199997
20
6.895000
30
-6.895000
70
192
0
VERTEX
8
OBJECT__62
10
94.199997
20
9.751000
30
-0.001000
70
192
0
VERTEX
8
OBJECT__62
10
94.199997
20
-6.894000
30
-6.895000
70
192
0
VERTEX
8
OBJECT__62
10
94.199997
20
6.895000
30
6.893000
70
192
0
VERTEX
8
OBJECT__62
10
0
20
0
30
0
70
128
71
1
72
2
73
3
0
VERTEX
8
OBJECT__62
10
0
20
0
30
0
70
128
71
4
72
5
73
6
0
VERTEX
8
OBJECT__62
10
0
20
0
30
0
70
128
71
7
72
8
73
1
0
VERTEX
8
OBJECT__62
10
0
20
0
30
0
70
128
71
8
72
7
73
4
0
VERTEX
8
OBJECT__62
10
0
20
0
30
0
70
128
71
6
72
8
73
4
0
VERTEX
8
OBJECT__62
10
0
20
0
30
0
70
128
71
3
72
7
73
1
0
SEQEND
8
OBJECT__62
0
POLYLINE
8
OBJECT__63
66
1
70
64
71
37
72
37
62
253
0
VERTEX
8
OBJECT__63
10
89.699997
20
35.075001
30
14.249000
70
192
0
VERTEX
8
OBJECT__63
10
90.787003
20
9.735000
30
0.547000
70
192
0
VERTEX
8
OBJECT__63
10
90.098000
20
9.734000
30
-0.001000
70
192
0
VERTEX
8
OBJECT__63
10
92.045998
20
9.470000
30
2.321000
70
192
0
VERTEX
8
OBJECT__63
10
92.699997
20
32.477001
30
18.749001
70
192
0
VERTEX
8
OBJECT__63
10
92.699997
20
8.445000
30
4.874000
70
192
0
VERTEX
8
OBJECT__63
10
92.661003
20
8.767000
30
4.268000
70
192
0
VERTEX
8
OBJECT__63
10
86.699997
20
35.477001
30
13.553000
70
192
0
VERTEX
8
OBJECT__63
10
89.338997
20
9.732000
30
-0.605000
70
192
0
VERTEX
8
OBJECT__63
10
87.850998
20
9.675000
30
-1.215000
70
192
0
VERTEX
8
OBJECT__63
10
89.674004
20
9.733000
30
-0.338000
70
192
0
VERTEX
8
OBJECT__63
10
84.487999
20
9.715000
30
-0.833000
70
192
0
VERTEX
8
OBJECT__63
10
83.746002
20
9.726000
30
-0.299000
70
192
0
VERTEX
8
OBJECT__63
10
86.133003
20
9.661000
30
-1.321000
70
192
0
VERTEX
8
OBJECT__63
10
83.699997
20
35.075001
30
14.249000
70
192
0
VERTEX
8
OBJECT__63
10
80.699997
20
32.477001
30
18.749001
70
192
0
VERTEX
8
OBJECT__63
10
80.896004
20
9.102000
30
3.497000
70
192
0
VERTEX
8
OBJECT__63
10
83.331001
20
9.732000
30
-0.001000
70
192
0
VERTEX
8
OBJECT__63
10
82.716003
20
9.741000
30
0.442000
70
192
0
VERTEX
8
OBJECT__63
10
81.553001
20
9.553000
30
1.953000
70
192
0
VERTEX
8
OBJECT__63
10
83.699997
20
29.879000
30
23.249001
70
192
0
VERTEX
8
OBJECT__63
10
81.153999
20
7.064000
30
6.720000
70
192
0
VERTEX
8
OBJECT__63
10
81.300003
20
6.881000
30
6.878000
70
192
0
VERTEX
8
OBJECT__63
10
82.308998
20
5.622000
30
7.966000
70
192
0
VERTEX
8
OBJECT__63
10
80.706001
20
8.311000
30
5.098000
70
192
0
VERTEX
8
OBJECT__63
10
80.733002
20
8.425000
30
4.867000
70
192
0
VERTEX
8
OBJECT__63
10
89.699997
20
29.879000
30
23.249001
70
192
0
VERTEX
8
OBJECT__63
10
85.212997
20
3.873000
30
8.947000
70
192
0
VERTEX
8
OBJECT__63
10
86.858002
20
3.659000
30
9.037000
70
192
0
VERTEX
8
OBJECT__63
10
88.482002
20
3.968000
30
8.905000
70
192
0
VERTEX
8
OBJECT__63
10
83.746002
20
4.520000
30
8.639000
70
192
0
VERTEX
8
OBJECT__63
10
83.705002
20
4.551000
30
8.619000
70
192
0
VERTEX
8
OBJECT__63
10
92.424004
20
7.400000
30
6.348000
70
192
0
VERTEX
8
OBJECT__63
10
91.651001
20
6.223000
30
7.505000
70
192
0
VERTEX
8
OBJECT__63
10
92.075996
20
6.871000
30
6.869000
70
192
0
VERTEX
8
OBJECT__63
10
89.658997
20
4.613000
30
8.570000
70
192
0
VERTEX
8
OBJECT__63
10
90.371002
20
5.004000
30
8.368000
70
192
0
VERTEX
8
OBJECT__63
10
0
20
0
30
0
70
128
71
1
72
2
73
3
0
VERTEX
8
OBJECT__63
10
0
20
0
30
0
70
128
71
1
72
4
73
2
0
VERTEX
8
OBJECT__63
10
0
20
0
30
0
70
128
71
5
72
6
73
7
0
VERTEX
8
OBJECT__63
10
0
20
0
30
0
70
128
71
7
72
1
73
5
0
VERTEX
8
OBJECT__63
10
0
20
0
30
0
70
128
71
7
72
4
73
1
0
VERTEX
8
OBJECT__63
10
0
20
0
30
0
70
128
71
8
72
9
73
10
0
VERTEX
8
OBJECT__63
10
0
20
0
30
0
70
128
71
8
72
1
73
11
0
VERTEX
8
OBJECT__63
10
0
20
0
30
0
70
128
71
11
72
9
73
8
0
VERTEX
8
OBJECT__63
10
0
20
0
30
0
70
128
71
8
72
12
73
13
0
VERTEX
8
OBJECT__63
10
0
20
0
30
0
70
128
71
8
72
14
73
12
0
VERTEX
8
OBJECT__63
10
0
20
0
30
0
70
128
71
13
72
15
73
8
0
VERTEX
8
OBJECT__63
10
0
20
0
30
0
70
128
71
16
72
15
73
17
0
VERTEX
8
OBJECT__63
10
0
20
0
30
0
70
128
71
15
72
18
73
19
0
VERTEX
8
OBJECT__63
10
0
20
0
30
0
70
128
71
15
72
13
73
18
0
VERTEX
8
OBJECT__63
10
0
20
0
30
0
70
128
71
19
72
20
73
15
0
VERTEX
8
OBJECT__63
10
0
20
0
30
0
70
128
71
20
72
17
73
15
0
VERTEX
8
OBJECT__63
10
0
20
0
30
0
70
128
71
21
72
22
73
23
0
VERTEX
8
OBJECT__63
10
0
20
0
30
0
70
128
71
23
72
24
73
21
0
VERTEX
8
OBJECT__63
10
0
20
0
30
0
70
128
71
21
72
16
73
25
0
VERTEX
8
OBJECT__63
10
0
20
0
30
0
70
128
71
25
72
22
73
21
0
VERTEX
8
OBJECT__63
10
0
20
0
30
0
70
128
71
16
72
26
73
25
0
VERTEX
8
OBJECT__63
10
0
20
0
30
0
70
128
71
27
72
28
73
29
0
VERTEX
8
OBJECT__63
10
0
20
0
30
0
70
128
71
29
72
30
73
27
0
VERTEX
8
OBJECT__63
10
0
20
0
30
0
70
128
71
27
72
31
73
28
0
VERTEX
8
OBJECT__63
10
0
20
0
30
0
70
128
71
27
72
21
73
32
0
VERTEX
8
OBJECT__63
10
0
20
0
30
0
70
128
71
32
72
31
73
27
0
VERTEX
8
OBJECT__63
10
0
20
0
30
0
70
128
71
27
72
33
73
6
0
VERTEX
8
OBJECT__63
10
0
20
0
30
0
70
128
71
27
72
34
73
35
0
VERTEX
8
OBJECT__63
10
0
20
0
30
0
70
128
71
27
72
36
73
37
0
VERTEX
8
OBJECT__63
10
0
20
0
30
0
70
128
71
37
72
34
73
27
0
VERTEX
8
OBJECT__63
10
0
20
0
30
0
70
128
71
35
72
33
73
27
0
VERTEX
8
OBJECT__63
10
0
20
0
30
0
70
128
71
6
72
5
73
27
0
VERTEX
8
OBJECT__63
10
0
20
0
30
0
70
128
71
30
72
36
73
27
0
VERTEX
8
OBJECT__63
10
0
20
0
30
0
70
128
71
24
72
32
73
21
0
VERTEX
8
OBJECT__63
10
0
20
0
30
0
70
128
71
17
72
26
73
16
0
VERTEX
8
OBJECT__63
10
0
20
0
30
0
70
128
71
10
72
14
73
8
0
VERTEX
8
OBJECT__63
10
0
20
0
30
0
70
128
71
3
72
11
73
1
0
SEQEND
8
OBJECT__63
0
POLYLINE
8
OBJECT__64
66
1
70
64
71
7
72
5
62
253
0
VERTEX
8
OBJECT__64
10
89.699997
20
35.075001
30
14.249000
70
192
0
VERTEX
8
OBJECT__64
10
83.699997
20
29.879000
30
23.249001
70
192
0
VERTEX
8
OBJECT__64
10
89.699997
20
29.879000
30
23.249001
70
192
0
VERTEX
8
OBJECT__64
10
86.699997
20
35.477001
30
13.553000
70
192
0
VERTEX
8
OBJECT__64
10
83.699997
20
35.075001
30
14.249000
70
192
0
VERTEX
8
OBJECT__64
10
92.699997
20
32.477001
30
18.749001
70
192
0
VERTEX
8
OBJECT__64
10
80.699997
20
32.477001
30
18.749001
70
192
0
VERTEX
8
OBJECT__64
10
0
20
0
30
0
70
128
71
1
72
2
73
3
0
VERTEX
8
OBJECT__64
10
0
20
0
30
0
70
128
71
2
72
4
73
5
0
VERTEX
8
OBJECT__64
10
0
20
0
30
0
70
128
71
3
72
6
73
1
0
VERTEX
8
OBJECT__64
10
0
20
0
30
0
70
128
71
1
72
4
73
2
0
VERTEX
8
OBJECT__64
10
0
20
0
30
0
70
128
71
5
72
7
73
2
0
SEQEND
8
OBJECT__64
0
POLYLINE
8
OBJECT__65
66
1
70
64
71
34
72
34
62
253
0
VERTEX
8
OBJECT__65
10
89.699997
20
-5.195000
30
-37.500999
70
192
0
VERTEX
8
OBJECT__65
10
92.045998
20
-2.723000
30
-9.363000
70
192
0
VERTEX
8
OBJECT__65
10
90.787003
20
-4.392000
30
-8.705000
70
192
0
VERTEX
8
OBJECT__65
10
92.699997
20
0.001000
30
-37.500999
70
192
0
VERTEX
8
OBJECT__65
10
92.699997
20
0.001000
30
-9.751000
70
192
0
VERTEX
8
OBJECT__65
10
92.661003
20
-0.686000
30
-9.727000
70
192
0
VERTEX
8
OBJECT__65
10
86.699997
20
-5.999000
30
-37.500999
70
192
0
VERTEX
8
OBJECT__65
10
89.338997
20
-5.388000
30
-8.127000
70
192
0
VERTEX
8
OBJECT__65
10
87.850998
20
-5.888000
30
-7.772000
70
192
0
VERTEX
8
OBJECT__65
10
89.674004
20
-5.157000
30
-8.261000
70
192
0
VERTEX
8
OBJECT__65
10
84.487999
20
-5.577000
30
-7.998000
70
192
0
VERTEX
8
OBJECT__65
10
83.746002
20
-5.120000
30
-8.274000
70
192
0
VERTEX
8
OBJECT__65
10
86.133003
20
-5.972000
30
-7.707000
70
192
0
VERTEX
8
OBJECT__65
10
83.699997
20
-5.195000
30
-37.500999
70
192
0
VERTEX
8
OBJECT__65
10
80.699997
20
0.001000
30
-37.500999
70
192
0
VERTEX
8
OBJECT__65
10
80.896004
20
-1.520000
30
-9.632000
70
192
0
VERTEX
8
OBJECT__65
10
80.733002
20
0.002000
30
-9.731000
70
192
0
VERTEX
8
OBJECT__65
10
82.716003
20
-4.486000
30
-8.657000
70
192
0
VERTEX
8
OBJECT__65
10
81.553001
20
-3.083000
30
-9.250000
70
192
0
VERTEX
8
OBJECT__65
10
83.699997
20
5.197000
30
-37.500999
70
192
0
VERTEX
8
OBJECT__65
10
81.153999
20
2.290000
30
-9.478000
70
192
0
VERTEX
8
OBJECT__65
10
82.308998
20
4.090000
30
-8.852000
70
192
0
VERTEX
8
OBJECT__65
10
80.706001
20
0.261000
30
-9.747000
70
192
0
VERTEX
8
OBJECT__65
10
80.733002
20
0.004000
30
-9.731000
70
192
0
VERTEX
8
OBJECT__65
10
89.699997
20
5.197000
30
-37.500999
70
192
0
VERTEX
8
OBJECT__65
10
85.212997
20
5.814000
30
-7.829000
70
192
0
VERTEX
8
OBJECT__65
10
86.858002
20
5.999000
30
-7.688000
70
192
0
VERTEX
8
OBJECT__65
10
88.482002
20
5.730000
30
-7.890000
70
192
0
VERTEX
8
OBJECT__65
10
83.746002
20
5.223000
30
-8.234000
70
192
0
VERTEX
8
OBJECT__65
10
83.705002
20
5.191000
30
-8.252000
70
192
0
VERTEX
8
OBJECT__65
10
92.424004
20
1.800000
30
-9.584000
70
192
0
VERTEX
8
OBJECT__65
10
89.658997
20
5.118000
30
-8.281000
70
192
0
VERTEX
8
OBJECT__65
10
90.371002
20
4.747000
30
-8.518000
70
192
0
VERTEX
8
OBJECT__65
10
91.651001
20
3.390000
30
-9.143000
70
192
0
VERTEX
8
OBJECT__65
10
0
20
0
30
0
70
128
71
1
72
2
73
3
0
VERTEX
8
OBJECT__65
10
0
20
0
30
0
70
128
71
4
72
5
73
6
0
VERTEX
8
OBJECT__65
10
0
20
0
30
0
70
128
71
6
72
1
73
4
0
VERTEX
8
OBJECT__65
10
0
20
0
30
0
70
128
71
6
72
2
73
1
0
VERTEX
8
OBJECT__65
10
0
20
0
30
0
70
128
71
7
72
8
73
9
0
VERTEX
8
OBJECT__65
10
0
20
0
30
0
70
128
71
7
72
1
73
10
0
VERTEX
8
OBJECT__65
10
0
20
0
30
0
70
128
71
10
72
8
73
7
0
VERTEX
8
OBJECT__65
10
0
20
0
30
0
70
128
71
7
72
11
73
12
0
VERTEX
8
OBJECT__65
10
0
20
0
30
0
70
128
71
7
72
13
73
11
0
VERTEX
8
OBJECT__65
10
0
20
0
30
0
70
128
71
12
72
14
73
7
0
VERTEX
8
OBJECT__65
10
0
20
0
30
0
70
128
71
15
72
14
73
16
0
VERTEX
8
OBJECT__65
10
0
20
0
30
0
70
128
71
16
72
17
73
15
0
VERTEX
8
OBJECT__65
10
0
20
0
30
0
70
128
71
14
72
12
73
18
0
VERTEX
8
OBJECT__65
10
0
20
0
30
0
70
128
71
18
72
19
73
14
0
VERTEX
8
OBJECT__65
10
0
20
0
30
0
70
128
71
19
72
16
73
14
0
VERTEX
8
OBJECT__65
10
0
20
0
30
0
70
128
71
20
72
21
73
22
0
VERTEX
8
OBJECT__65
10
0
20
0
30
0
70
128
71
20
72
15
73
23
0
VERTEX
8
OBJECT__65
10
0
20
0
30
0
70
128
71
23
72
21
73
20
0
VERTEX
8
OBJECT__65
10
0
20
0
30
0
70
128
71
15
72
24
73
23
0
VERTEX
8
OBJECT__65
10
0
20
0
30
0
70
128
71
25
72
26
73
27
0
VERTEX
8
OBJECT__65
10
0
20
0
30
0
70
128
71
27
72
28
73
25
0
VERTEX
8
OBJECT__65
10
0
20
0
30
0
70
128
71
25
72
29
73
26
0
VERTEX
8
OBJECT__65
10
0
20
0
30
0
70
128
71
25
72
20
73
30
0
VERTEX
8
OBJECT__65
10
0
20
0
30
0
70
128
71
30
72
29
73
25
0
VERTEX
8
OBJECT__65
10
0
20
0
30
0
70
128
71
25
72
31
73
5
0
VERTEX
8
OBJECT__65
10
0
20
0
30
0
70
128
71
25
72
32
73
33
0
VERTEX
8
OBJECT__65
10
0
20
0
30
0
70
128
71
33
72
34
73
25
0
VERTEX
8
OBJECT__65
10
0
20
0
30
0
70
128
71
34
72
31
73
25
0
VERTEX
8
OBJECT__65
10
0
20
0
30
0
70
128
71
5
72
4
73
25
0
VERTEX
8
OBJECT__65
10
0
20
0
30
0
70
128
71
28
72
32
73
25
0
VERTEX
8
OBJECT__65
10
0
20
0
30
0
70
128
71
22
72
30
73
20
0
VERTEX
8
OBJECT__65
10
0
20
0
30
0
70
128
71
17
72
24
73
15
0
VERTEX
8
OBJECT__65
10
0
20
0
30
0
70
128
71
9
72
13
73
7
0
VERTEX
8
OBJECT__65
10
0
20
0
30
0
70
128
71
3
72
10
73
1
0
SEQEND
8
OBJECT__65
0
POLYLINE
8
OBJECT__66
66
1
70
64
71
7
72
5
62
253
0
VERTEX
8
OBJECT__66
10
89.699997
20
-5.195000
30
-37.500999
70
192
0
VERTEX
8
OBJECT__66
10
83.699997
20
5.197000
30
-37.500999
70
192
0
VERTEX
8
OBJECT__66
10
89.699997
20
5.197000
30
-37.500999
70
192
0
VERTEX
8
OBJECT__66
10
86.699997
20
-5.999000
30
-37.500999
70
192
0
VERTEX
8
OBJECT__66
10
83.699997
20
-5.195000
30
-37.500999
70
192
0
VERTEX
8
OBJECT__66
10
92.699997
20
0.001000
30
-37.500999
70
192
0
VERTEX
8
OBJECT__66
10
80.699997
20
0.001000
30
-37.500999
70
192
0
VERTEX
8
OBJECT__66
10
0
20
0
30
0
70
128
71
1
72
2
73
3
0
VERTEX
8
OBJECT__66
10
0
20
0
30
0
70
128
71
2
72
4
73
5
0
VERTEX
8
OBJECT__66
10
0
20
0
30
0
70
128
71
3
72
6
73
1
0
VERTEX
8
OBJECT__66
10
0
20
0
30
0
70
128
71
1
72
4
73
2
0
VERTEX
8
OBJECT__66
10
0
20
0
30
0
70
128
71
5
72
7
73
2
0
SEQEND
8
OBJECT__66
0
POLYLINE
8
OBJECT__67
66
1
70
64
71
40
72
40
62
253
0
VERTEX
8
OBJECT__67
10
18.150000
20
0.000000
30
106.000000
70
192
0
VERTEX
8
OBJECT__67
10
18.150000
20
8.036000
30
104.401001
70
192
0
VERTEX
8
OBJECT__67
10
17.950001
20
7.960000
30
104.217003
70
192
0
VERTEX
8
OBJECT__67
10
17.950001
20
14.708000
30
99.708000
70
192
0
VERTEX
8
OBJECT__67
10
18.150000
20
10.301000
30
102.888000
70
192
0
VERTEX
8
OBJECT__67
10
18.150000
20
14.849000
30
99.848999
70
192
0
VERTEX
8
OBJECT__67
10
18.150000
20
17.888000
30
95.301003
70
192
0
VERTEX
8
OBJECT__67
10
17.950001
20
19.216999
30
92.959999
70
192
0
VERTEX
8
OBJECT__67
10
18.150000
20
19.400999
30
93.036003
70
192
0
VERTEX
8
OBJECT__67
10
18.150000
20
21.000000
30
85.000000
70
192
0
VERTEX
8
OBJECT__67
10
17.950001
20
20.799999
30
85.000000
70
192
0
VERTEX
8
OBJECT__67
10
18.150000
20
19.400999
30
76.963997
70
192
0
VERTEX
8
OBJECT__67
10
17.950001
20
19.216999
30
77.040001
70
192
0
VERTEX
8
OBJECT__67
10
17.950001
20
14.708000
30
70.292000
70
192
0
VERTEX
8
OBJECT__67
10
18.150000
20
17.888000
30
74.698997
70
192
0
VERTEX
8
OBJECT__67
10
18.150000
20
14.849000
30
70.151001
70
192
0
VERTEX
8
OBJECT__67
10
18.150000
20
10.301000
30
67.112000
70
192
0
VERTEX
8
OBJECT__67
10
17.950001
20
7.960000
30
65.782997
70
192
0
VERTEX
8
OBJECT__67
10
18.150000
20
0.000000
30
64.000000
70
192
0
VERTEX
8
OBJECT__67
10
17.950001
20
0.000000
30
64.199997
70
192
0
VERTEX
8
OBJECT__67
10
18.150000
20
-8.036000
30
65.598999
70
192
0
VERTEX
8
OBJECT__67
10
17.950001
20
-7.960000
30
65.782997
70
192
0
VERTEX
8
OBJECT__67
10
17.950001
20
-14.708000
30
70.292000
70
192
0
VERTEX
8
OBJECT__67
10
18.150000
20
-10.301000
30
67.112000
70
192
0
VERTEX
8
OBJECT__67
10
18.150000
20
-14.849000
30
70.151001
70
192
0
VERTEX
8
OBJECT__67
10
18.150000
20
-17.888000
30
74.698997
70
192
0
VERTEX
8
OBJECT__67
10
17.950001
20
-19.216999
30
77.040001
70
192
0
VERTEX
8
OBJECT__67
10
18.150000
20
-21.000000
30
85.000000
70
192
0
VERTEX
8
OBJECT__67
10
17.950001
20
-20.799999
30
85.000000
70
192
0
VERTEX
8
OBJECT__67
10
18.150000
20
-19.400999
30
93.036003
70
192
0
VERTEX
8
OBJECT__67
10
17.950001
20
-19.216999
30
92.959999
70
192
0
VERTEX
8
OBJECT__67
10
17.950001
20
-14.708000
30
99.708000
70
192
0
VERTEX
8
OBJECT__67
10
18.150000
20
-17.888000
30
95.301003
70
192
0
VERTEX
8
OBJECT__67
10
18.150000
20
-14.849000
30
99.848999
70
192
0
VERTEX
8
OBJECT__67
10
18.150000
20
-10.301000
30
102.888000
70
192
0
VERTEX
8
OBJECT__67
10
17.950001
20
-7.960000
30
104.217003
70
192
0
VERTEX
8
OBJECT__67
10
18.150000
20
-8.036000
30
104.401001
70
192
0
VERTEX
8
OBJECT__67
10
17.950001
20
0.000000
30
105.800003
70
192
0
VERTEX
8
OBJECT__67
10
18.150000
20
-19.400999
30
76.963997
70
192
0
VERTEX
8
OBJECT__67
10
18.150000
20
8.036000
30
65.598999
70
192
0
VERTEX
8
OBJECT__67
10
0
20
0
30
0
70
128
71
1
72
2
73
3
0
VERTEX
8
OBJECT__67
10
0
20
0
30
0
70
128
71
4
72
3
73
5
0
VERTEX
8
OBJECT__67
10
0
20
0
30
0
70
128
71
3
72
2
73
5
0
VERTEX
8
OBJECT__67
10
0
20
0
30
0
70
128
71
4
72
6
73
7
0
VERTEX
8
OBJECT__67
10
0
20
0
30
0
70
128
71
7
72
8
73
4
0
VERTEX
8
OBJECT__67
10
0
20
0
30
0
70
128
71
9
72
10
73
11
0
VERTEX
8
OBJECT__67
10
0
20
0
30
0
70
128
71
12
72
13
73
11
0
VERTEX
8
OBJECT__67
10
0
20
0
30
0
70
128
71
14
72
13
73
15
0
VERTEX
8
OBJECT__67
10
0
20
0
30
0
70
128
71
13
72
12
73
15
0
VERTEX
8
OBJECT__67
10
0
20
0
30
0
70
128
71
14
72
16
73
17
0
VERTEX
8
OBJECT__67
10
0
20
0
30
0
70
128
71
17
72
18
73
14
0
VERTEX
8
OBJECT__67
10
0
20
0
30
0
70
128
71
19
72
20
73
18
0
VERTEX
8
OBJECT__67
10
0
20
0
30
0
70
128
71
19
72
21
73
22
0
VERTEX
8
OBJECT__67
10
0
20
0
30
0
70
128
71
23
72
22
73
24
0
VERTEX
8
OBJECT__67
10
0
20
0
30
0
70
128
71
22
72
21
73
24
0
VERTEX
8
OBJECT__67
10
0
20
0
30
0
70
128
71
23
72
25
73
26
0
VERTEX
8
OBJECT__67
10
0
20
0
30
0
70
128
71
26
72
27
73
23
0
VERTEX
8
OBJECT__67
10
0
20
0
30
0
70
128
71
28
72
29
73
27
0
VERTEX
8
OBJECT__67
10
0
20
0
30
0
70
128
71
30
72
31
73
29
0
VERTEX
8
OBJECT__67
10
0
20
0
30
0
70
128
71
32
72
31
73
33
0
VERTEX
8
OBJECT__67
10
0
20
0
30
0
70
128
71
31
72
30
73
33
0
VERTEX
8
OBJECT__67
10
0
20
0
30
0
70
128
71
32
72
34
73
35
0
VERTEX
8
OBJECT__67
10
0
20
0
30
0
70
128
71
35
72
36
73
32
0
VERTEX
8
OBJECT__67
10
0
20
0
30
0
70
128
71
37
72
1
73
38
0
VERTEX
8
OBJECT__67
10
0
20
0
30
0
70
128
71
38
72
36
73
37
0
VERTEX
8
OBJECT__67
10
0
20
0
30
0
70
128
71
35
72
37
73
36
0
VERTEX
8
OBJECT__67
10
0
20
0
30
0
70
128
71
33
72
34
73
32
0
VERTEX
8
OBJECT__67
10
0
20
0
30
0
70
128
71
29
72
28
73
30
0
VERTEX
8
OBJECT__67
10
0
20
0
30
0
70
128
71
27
72
39
73
28
0
VERTEX
8
OBJECT__67
10
0
20
0
30
0
70
128
71
26
72
39
73
27
0
VERTEX
8
OBJECT__67
10
0
20
0
30
0
70
128
71
24
72
25
73
23
0
VERTEX
8
OBJECT__67
10
0
20
0
30
0
70
128
71
22
72
20
73
19
0
VERTEX
8
OBJECT__67
10
0
20
0
30
0
70
128
71
18
72
40
73
19
0
VERTEX
8
OBJECT__67
10
0
20
0
30
0
70
128
71
17
72
40
73
18
0
VERTEX
8
OBJECT__67
10
0
20
0
30
0
70
128
71
15
72
16
73
14
0
VERTEX
8
OBJECT__67
10
0
20
0
30
0
70
128
71
11
72
10
73
12
0
VERTEX
8
OBJECT__67
10
0
20
0
30
0
70
128
71
11
72
8
73
9
0
VERTEX
8
OBJECT__67
10
0
20
0
30
0
70
128
71
7
72
9
73
8
0
VERTEX
8
OBJECT__67
10
0
20
0
30
0
70
128
71
5
72
6
73
4
0
VERTEX
8
OBJECT__67
10
0
20
0
30
0
70
128
71
3
72
38
73
1
0
SEQEND
8
OBJECT__67
0
POLYLINE
8
OBJECT__68
66
1
70
64
71
57
72
59
62
253
0
VERTEX
8
OBJECT__68
10
63.950001
20
0.000000
30
64.000000
70
192
0
VERTEX
8
OBJECT__68
10
18.150000
20
0.000000
30
64.000000
70
192
0
VERTEX
8
OBJECT__68
10
18.150000
20
8.036000
30
65.598999
70
192
0
VERTEX
8
OBJECT__68
10
63.950001
20
10.500000
30
66.813004
70
192
0
VERTEX
8
OBJECT__68
10
63.950001
20
18.187000
30
74.500000
70
192
0
VERTEX
8
OBJECT__68
10
18.150000
20
14.849000
30
70.151001
70
192
0
VERTEX
8
OBJECT__68
10
18.150000
20
10.301000
30
67.112000
70
192
0
VERTEX
8
OBJECT__68
10
63.950001
20
21.000000
30
85.000000
70
192
0
VERTEX
8
OBJECT__68
10
18.150000
20
19.400999
30
76.963997
70
192
0
VERTEX
8
OBJECT__68
10
18.150000
20
17.888000
30
74.698997
70
192
0
VERTEX
8
OBJECT__68
10
18.150000
20
21.000000
30
85.000000
70
192
0
VERTEX
8
OBJECT__68
10
18.150000
20
19.400999
30
93.036003
70
192
0
VERTEX
8
OBJECT__68
10
63.950001
20
18.187000
30
95.500000
70
192
0
VERTEX
8
OBJECT__68
10
63.950001
20
10.500000
30
103.186996
70
192
0
VERTEX
8
OBJECT__68
10
18.150000
20
14.849000
30
99.848999
70
192
0
VERTEX
8
OBJECT__68
10
18.150000
20
17.888000
30
95.301003
70
192
0
VERTEX
8
OBJECT__68
10
63.950001
20
-10.500000
30
103.186996
70
192
0
VERTEX
8
OBJECT__68
10
18.150000
20
-10.301000
30
102.888000
70
192
0
VERTEX
8
OBJECT__68
10
18.150000
20
-14.849000
30
99.848999
70
192
0
VERTEX
8
OBJECT__68
10
63.950001
20
-18.187000
30
95.500000
70
192
0
VERTEX
8
OBJECT__68
10
63.950001
20
-21.000000
30
85.000000
70
192
0
VERTEX
8
OBJECT__68
10
18.150000
20
-19.400999
30
93.036003
70
192
0
VERTEX
8
OBJECT__68
10
18.150000
20
-17.888000
30
95.301003
70
192
0
VERTEX
8
OBJECT__68
10
18.150000
20
-21.000000
30
85.000000
70
192
0
VERTEX
8
OBJECT__68
10
18.150000
20
-19.400999
30
76.963997
70
192
0
VERTEX
8
OBJECT__68
10
63.950001
20
-18.187000
30
74.500000
70
192
0
VERTEX
8
OBJECT__68
10
18.150000
20
-17.888000
30
74.698997
70
192
0
VERTEX
8
OBJECT__68
10
18.150000
20
-14.849000
30
70.151001
70
192
0
VERTEX
8
OBJECT__68
10
63.950001
20
-10.500000
30
66.813004
70
192
0
VERTEX
8
OBJECT__68
10
18.150000
20
-8.036000
30
65.598999
70
192
0
VERTEX
8
OBJECT__68
10
18.150000
20
-10.301000
30
67.112000
70
192
0
VERTEX
8
OBJECT__68
10
18.150000
20
0.000000
30
106.000000
70
192
0
VERTEX
8
OBJECT__68
10
18.150000
20
-8.036000
30
104.401001
70
192
0
VERTEX
8
OBJECT__68
10
30.073999
20
-1.637000
30
105.935997
70
192
0
VERTEX
8
OBJECT__68
10
30.861000
20
-3.089000
30
105.772003
70
192
0
VERTEX
8
OBJECT__68
10
32.098000
20
-4.221000
30
105.570999
70
192
0
VERTEX
8
OBJECT__68
10
52.018002
20
-5.025000
30
105.389999
70
192
0
VERTEX
8
OBJECT__68
10
34.825001
20
-5.025000
30
105.389999
70
192
0
VERTEX
8
OBJECT__68
10
53.700001
20
-4.801000
30
105.444000
70
192
0
VERTEX
8
OBJECT__68
10
33.665001
20
-4.889000
30
105.422997
70
192
0
VERTEX
8
OBJECT__68
10
55.236000
20
-4.112000
30
105.594002
70
192
0
VERTEX
8
OBJECT__68
10
56.431999
20
-3.017000
30
105.781998
70
192
0
VERTEX
8
OBJECT__68
10
63.950001
20
0.000000
30
106.000000
70
192
0
VERTEX
8
OBJECT__68
10
57.202000
20
-1.598000
30
105.939003
70
192
0
VERTEX
8
OBJECT__68
10
57.467999
20
0.000000
30
106.000000
70
192
0
VERTEX
8
OBJECT__68
10
56.334000
20
3.137000
30
105.764000
70
192
0
VERTEX
8
OBJECT__68
10
57.181999
20
1.655000
30
105.934998
70
192
0
VERTEX
8
OBJECT__68
10
54.841000
20
4.346000
30
105.544998
70
192
0
VERTEX
8
OBJECT__68
10
18.150000
20
10.301000
30
102.888000
70
192
0
VERTEX
8
OBJECT__68
10
34.825001
20
5.025000
30
105.389999
70
192
0
VERTEX
8
OBJECT__68
10
52.018002
20
5.025000
30
105.389999
70
192
0
VERTEX
8
OBJECT__68
10
52.692001
20
4.990000
30
105.398003
70
192
0
VERTEX
8
OBJECT__68
10
31.889999
20
4.078000
30
105.599998
70
192
0
VERTEX
8
OBJECT__68
10
18.150000
20
8.036000
30
104.401001
70
192
0
VERTEX
8
OBJECT__68
10
29.985001
20
1.350000
30
105.957001
70
192
0
VERTEX
8
OBJECT__68
10
30.714001
20
2.889000
30
105.800003
70
192
0
VERTEX
8
OBJECT__68
10
30.025000
20
0.000000
30
105.946999
70
192
0
VERTEX
8
OBJECT__68
10
0
20
0
30
0
70
128
71
1
72
2
73
3
0
VERTEX
8
OBJECT__68
10
0
20
0
30
0
70
128
71
3
72
4
73
1
0
VERTEX
8
OBJECT__68
10
0
20
0
30
0
70
128
71
5
72
4
73
6
0
VERTEX
8
OBJECT__68
10
0
20
0
30
0
70
128
71
4
72
7
73
6
0
VERTEX
8
OBJECT__68
10
0
20
0
30
0
70
128
71
8
72
5
73
9
0
VERTEX
8
OBJECT__68
10
0
20
0
30
0
70
128
71
5
72
10
73
9
0
VERTEX
8
OBJECT__68
10
0
20
0
30
0
70
128
71
8
72
11
73
12
0
VERTEX
8
OBJECT__68
10
0
20
0
30
0
70
128
71
12
72
13
73
8
0
VERTEX
8
OBJECT__68
10
0
20
0
30
0
70
128
71
14
72
13
73
15
0
VERTEX
8
OBJECT__68
10
0
20
0
30
0
70
128
71
13
72
16
73
15
0
VERTEX
8
OBJECT__68
10
0
20
0
30
0
70
128
71
17
72
18
73
19
0
VERTEX
8
OBJECT__68
10
0
20
0
30
0
70
128
71
19
72
20
73
17
0
VERTEX
8
OBJECT__68
10
0
20
0
30
0
70
128
71
21
72
20
73
22
0
VERTEX
8
OBJECT__68
10
0
20
0
30
0
70
128
71
20
72
23
73
22
0
VERTEX
8
OBJECT__68
10
0
20
0
30
0
70
128
71
21
72
24
73
25
0
VERTEX
8
OBJECT__68
10
0
20
0
30
0
70
128
71
25
72
26
73
21
0
VERTEX
8
OBJECT__68
10
0
20
0
30
0
70
128
71
26
72
27
73
28
0
VERTEX
8
OBJECT__68
10
0
20
0
30
0
70
128
71
28
72
29
73
26
0
VERTEX
8
OBJECT__68
10
0
20
0
30
0
70
128
71
1
72
29
73
30
0
VERTEX
8
OBJECT__68
10
0
20
0
30
0
70
128
71
29
72
31
73
30
0
VERTEX
8
OBJECT__68
10
0
20
0
30
0
70
128
71
32
72
33
73
34
0
VERTEX
8
OBJECT__68
10
0
20
0
30
0
70
128
71
35
72
34
73
33
0
VERTEX
8
OBJECT__68
10
0
20
0
30
0
70
128
71
18
72
36
73
35
0
VERTEX
8
OBJECT__68
10
0
20
0
30
0
70
128
71
17
72
37
73
38
0
VERTEX
8
OBJECT__68
10
0
20
0
30
0
70
128
71
38
72
18
73
17
0
VERTEX
8
OBJECT__68
10
0
20
0
30
0
70
128
71
17
72
39
73
37
0
VERTEX
8
OBJECT__68
10
0
20
0
30
0
70
128
71
38
72
40
73
18
0
VERTEX
8
OBJECT__68
10
0
20
0
30
0
70
128
71
17
72
41
73
39
0
VERTEX
8
OBJECT__68
10
0
20
0
30
0
70
128
71
17
72
42
73
41
0
VERTEX
8
OBJECT__68
10
0
20
0
30
0
70
128
71
17
72
43
73
44
0
VERTEX
8
OBJECT__68
10
0
20
0
30
0
70
128
71
44
72
42
73
17
0
VERTEX
8
OBJECT__68
10
0
20
0
30
0
70
128
71
43
72
45
73
44
0
VERTEX
8
OBJECT__68
10
0
20
0
30
0
70
128
71
40
72
36
73
18
0
VERTEX
8
OBJECT__68
10
0
20
0
30
0
70
128
71
33
72
18
73
35
0
VERTEX
8
OBJECT__68
10
0
20
0
30
0
70
128
71
14
72
46
73
47
0
VERTEX
8
OBJECT__68
10
0
20
0
30
0
70
128
71
47
72
43
73
14
0
VERTEX
8
OBJECT__68
10
0
20
0
30
0
70
128
71
14
72
48
73
46
0
VERTEX
8
OBJECT__68
10
0
20
0
30
0
70
128
71
14
72
49
73
50
0
VERTEX
8
OBJECT__68
10
0
20
0
30
0
70
128
71
50
72
51
73
14
0
VERTEX
8
OBJECT__68
10
0
20
0
30
0
70
128
71
51
72
52
73
14
0
VERTEX
8
OBJECT__68
10
0
20
0
30
0
70
128
71
49
72
53
73
50
0
VERTEX
8
OBJECT__68
10
0
20
0
30
0
70
128
71
52
72
48
73
14
0
VERTEX
8
OBJECT__68
10
0
20
0
30
0
70
128
71
54
72
32
73
55
0
VERTEX
8
OBJECT__68
10
0
20
0
30
0
70
128
71
56
72
49
73
54
0
VERTEX
8
OBJECT__68
10
0
20
0
30
0
70
128
71
55
72
56
73
54
0
VERTEX
8
OBJECT__68
10
0
20
0
30
0
70
128
71
32
72
57
73
55
0
VERTEX
8
OBJECT__68
10
0
20
0
30
0
70
128
71
56
72
53
73
49
0
VERTEX
8
OBJECT__68
10
0
20
0
30
0
70
128
71
47
72
45
73
43
0
VERTEX
8
OBJECT__68
10
0
20
0
30
0
70
128
71
34
72
57
73
32
0
VERTEX
8
OBJECT__68
10
0
20
0
30
0
70
128
71
30
72
2
73
1
0
VERTEX
8
OBJECT__68
10
0
20
0
30
0
70
128
71
28
72
31
73
29
0
VERTEX
8
OBJECT__68
10
0
20
0
30
0
70
128
71
25
72
27
73
26
0
VERTEX
8
OBJECT__68
10
0
20
0
30
0
70
128
71
22
72
24
73
21
0
VERTEX
8
OBJECT__68
10
0
20
0
30
0
70
128
71
19
72
23
73
20
0
VERTEX
8
OBJECT__68
10
0
20
0
30
0
70
128
71
15
72
49
73
14
0
VERTEX
8
OBJECT__68
10
0
20
0
30
0
70
128
71
12
72
16
73
13
0
VERTEX
8
OBJECT__68
10
0
20
0
30
0
70
128
71
9
72
11
73
8
0
VERTEX
8
OBJECT__68
10
0
20
0
30
0
70
128
71
6
72
10
73
5
0
VERTEX
8
OBJECT__68
10
0
20
0
30
0
70
128
71
3
72
7
73
4
0
SEQEND
8
OBJECT__68
0
POLYLINE
8
OBJECT__70
66
1
70
64
71
26
72
26
62
253
0
VERTEX
8
OBJECT__70
10
63.950001
20
10.500000
30
66.813004
70
192
0
VERTEX
8
OBJECT__70
10
63.950001
20
18.187000
30
74.500000
70
192
0
VERTEX
8
OBJECT__70
10
63.950001
20
11.727000
30
75.648003
70
192
0
VERTEX
8
OBJECT__70
10
63.950001
20
21.000000
30
85.000000
70
192
0
VERTEX
8
OBJECT__70
10
63.950001
20
14.624000
30
81.662003
70
192
0
VERTEX
8
OBJECT__70
10
63.950001
20
18.187000
30
95.500000
70
192
0
VERTEX
8
OBJECT__70
10
63.950001
20
11.727000
30
94.351997
70
192
0
VERTEX
8
OBJECT__70
10
63.950001
20
14.624000
30
88.337997
70
192
0
VERTEX
8
OBJECT__70
10
63.950001
20
10.500000
30
103.186996
70
192
0
VERTEX
8
OBJECT__70
10
63.950001
20
6.508000
30
98.514999
70
192
0
VERTEX
8
OBJECT__70
10
63.950001
20
-10.500000
30
103.186996
70
192
0
VERTEX
8
OBJECT__70
10
63.950001
20
-18.187000
30
95.500000
70
192
0
VERTEX
8
OBJECT__70
10
63.950001
20
-11.727000
30
94.351997
70
192
0
VERTEX
8
OBJECT__70
10
63.950001
20
-21.000000
30
85.000000
70
192
0
VERTEX
8
OBJECT__70
10
63.950001
20
-14.624000
30
88.337997
70
192
0
VERTEX
8
OBJECT__70
10
63.950001
20
0.000000
30
106.000000
70
192
0
VERTEX
8
OBJECT__70
10
63.950001
20
0.000000
30
100.000000
70
192
0
VERTEX
8
OBJECT__70
10
63.950001
20
-6.508000
30
98.514999
70
192
0
VERTEX
8
OBJECT__70
10
63.950001
20
-18.187000
30
74.500000
70
192
0
VERTEX
8
OBJECT__70
10
63.950001
20
-11.727000
30
75.648003
70
192
0
VERTEX
8
OBJECT__70
10
63.950001
20
-14.624000
30
81.662003
70
192
0
VERTEX
8
OBJECT__70
10
63.950001
20
-10.500000
30
66.813004
70
192
0
VERTEX
8
OBJECT__70
10
63.950001
20
-6.508000
30
71.485001
70
192
0
VERTEX
8
OBJECT__70
10
63.950001
20
0.000000
30
64.000000
70
192
0
VERTEX
8
OBJECT__70
10
63.950001
20
6.508000
30
71.485001
70
192
0
VERTEX
8
OBJECT__70
10
63.950001
20
0.000000
30
70.000000
70
192
0
VERTEX
8
OBJECT__70
10
0
20
0
30
0
70
128
71
1
72
2
73
3
0
VERTEX
8
OBJECT__70
10
0
20
0
30
0
70
128
71
2
72
4
73
5
0
VERTEX
8
OBJECT__70
10
0
20
0
30
0
70
128
71
5
72
3
73
2
0
VERTEX
8
OBJECT__70
10
0
20
0
30
0
70
128
71
6
72
7
73
8
0
VERTEX
8
OBJECT__70
10
0
20
0
30
0
70
128
71
9
72
10
73
7
0
VERTEX
8
OBJECT__70
10
0
20
0
30
0
70
128
71
11
72
12
73
13
0
VERTEX
8
OBJECT__70
10
0
20
0
30
0
70
128
71
12
72
14
73
15
0
VERTEX
8
OBJECT__70
10
0
20
0
30
0
70
128
71
4
72
8
73
5
0
VERTEX
8
OBJECT__70
10
0
20
0
30
0
70
128
71
7
72
6
73
9
0
VERTEX
8
OBJECT__70
10
0
20
0
30
0
70
128
71
16
72
17
73
10
0
VERTEX
8
OBJECT__70
10
0
20
0
30
0
70
128
71
16
72
11
73
18
0
VERTEX
8
OBJECT__70
10
0
20
0
30
0
70
128
71
15
72
13
73
12
0
VERTEX
8
OBJECT__70
10
0
20
0
30
0
70
128
71
19
72
20
73
21
0
VERTEX
8
OBJECT__70
10
0
20
0
30
0
70
128
71
22
72
23
73
20
0
VERTEX
8
OBJECT__70
10
0
20
0
30
0
70
128
71
8
72
4
73
6
0
VERTEX
8
OBJECT__70
10
0
20
0
30
0
70
128
71
18
72
17
73
16
0
VERTEX
8
OBJECT__70
10
0
20
0
30
0
70
128
71
14
72
21
73
15
0
VERTEX
8
OBJECT__70
10
0
20
0
30
0
70
128
71
20
72
19
73
22
0
VERTEX
8
OBJECT__70
10
0
20
0
30
0
70
128
71
10
72
9
73
16
0
VERTEX
8
OBJECT__70
10
0
20
0
30
0
70
128
71
21
72
14
73
19
0
VERTEX
8
OBJECT__70
10
0
20
0
30
0
70
128
71
24
72
1
73
25
0
VERTEX
8
OBJECT__70
10
0
20
0
30
0
70
128
71
13
72
18
73
11
0
VERTEX
8
OBJECT__70
10
0
20
0
30
0
70
128
71
3
72
25
73
1
0
VERTEX
8
OBJECT__70
10
0
20
0
30
0
70
128
71
24
72
26
73
23
0
VERTEX
8
OBJECT__70
10
0
20
0
30
0
70
128
71
23
72
22
73
24
0
VERTEX
8
OBJECT__70
10
0
20
0
30
0
70
128
71
25
72
26
73
24
0
SEQEND
8
OBJECT__70
0
POLYLINE
8
OBJECT__71
66
1
70
64
71
36
72
36
62
253
0
VERTEX
8
OBJECT__71
10
63.950001
20
0.000000
30
70.000000
70
192
0
VERTEX
8
OBJECT__71
10
63.950001
20
6.508000
30
71.485001
70
192
0
VERTEX
8
OBJECT__71
10
64.949997
20
6.074000
30
72.386002
70
192
0
VERTEX
8
OBJECT__71
10
63.950001
20
11.727000
30
75.648003
70
192
0
VERTEX
8
OBJECT__71
10
64.949997
20
10.946000
30
76.271004
70
192
0
VERTEX
8
OBJECT__71
10
64.949997
20
8.019000
30
73.936996
70
192
0
VERTEX
8
OBJECT__71
10
63.950001
20
14.624000
30
81.662003
70
192
0
VERTEX
8
OBJECT__71
10
64.949997
20
13.113000
30
80.771004
70
192
0
VERTEX
8
OBJECT__71
10
64.949997
20
13.649000
30
81.885002
70
192
0
VERTEX
8
OBJECT__71
10
63.950001
20
14.624000
30
88.337997
70
192
0
VERTEX
8
OBJECT__71
10
64.949997
20
13.649000
30
88.114998
70
192
0
VERTEX
8
OBJECT__71
10
63.950001
20
11.727000
30
94.351997
70
192
0
VERTEX
8
OBJECT__71
10
64.949997
20
10.946000
30
93.728996
70
192
0
VERTEX
8
OBJECT__71
10
64.949997
20
13.113000
30
89.228996
70
192
0
VERTEX
8
OBJECT__71
10
63.950001
20
6.508000
30
98.514999
70
192
0
VERTEX
8
OBJECT__71
10
64.949997
20
8.019000
30
96.063004
70
192
0
VERTEX
8
OBJECT__71
10
64.949997
20
6.074000
30
97.613998
70
192
0
VERTEX
8
OBJECT__71
10
63.950001
20
0.000000
30
100.000000
70
192
0
VERTEX
8
OBJECT__71
10
64.949997
20
0.000000
30
99.000000
70
192
0
VERTEX
8
OBJECT__71
10
63.950001
20
-6.508000
30
98.514999
70
192
0
VERTEX
8
OBJECT__71
10
64.949997
20
-6.074000
30
97.613998
70
192
0
VERTEX
8
OBJECT__71
10
63.950001
20
-11.727000
30
94.351997
70
192
0
VERTEX
8
OBJECT__71
10
64.949997
20
-10.946000
30
93.728996
70
192
0
VERTEX
8
OBJECT__71
10
64.949997
20
-8.019000
30
96.063004
70
192
0
VERTEX
8
OBJECT__71
10
63.950001
20
-14.624000
30
88.337997
70
192
0
VERTEX
8
OBJECT__71
10
64.949997
20
-13.113000
30
89.228996
70
192
0
VERTEX
8
OBJECT__71
10
64.949997
20
-13.649000
30
88.114998
70
192
0
VERTEX
8
OBJECT__71
10
63.950001
20
-14.624000
30
81.662003
70
192
0
VERTEX
8
OBJECT__71
10
64.949997
20
-13.649000
30
81.885002
70
192
0
VERTEX
8
OBJECT__71
10
63.950001
20
-11.727000
30
75.648003
70
192
0
VERTEX
8
OBJECT__71
10
64.949997
20
-10.946000
30
76.271004
70
192
0
VERTEX
8
OBJECT__71
10
64.949997
20
-13.113000
30
80.771004
70
192
0
VERTEX
8
OBJECT__71
10
63.950001
20
-6.508000
30
71.485001
70
192
0
VERTEX
8
OBJECT__71
10
64.949997
20
-8.019000
30
73.936996
70
192
0
VERTEX
8
OBJECT__71
10
64.949997
20
-6.074000
30
72.386002
70
192
0
VERTEX
8
OBJECT__71
10
64.949997
20
0.000000
30
71.000000
70
192
0
VERTEX
8
OBJECT__71
10
0
20
0
30
0
70
128
71
1
72
2
73
3
0
VERTEX
8
OBJECT__71
10
0
20
0
30
0
70
128
71
4
72
5
73
6
0
VERTEX
8
OBJECT__71
10
0
20
0
30
0
70
128
71
6
72
2
73
4
0
VERTEX
8
OBJECT__71
10
0
20
0
30
0
70
128
71
4
72
7
73
8
0
VERTEX
8
OBJECT__71
10
0
20
0
30
0
70
128
71
7
72
9
73
8
0
VERTEX
8
OBJECT__71
10
0
20
0
30
0
70
128
71
10
72
11
73
9
0
VERTEX
8
OBJECT__71
10
0
20
0
30
0
70
128
71
12
72
13
73
14
0
VERTEX
8
OBJECT__71
10
0
20
0
30
0
70
128
71
14
72
10
73
12
0
VERTEX
8
OBJECT__71
10
0
20
0
30
0
70
128
71
12
72
15
73
16
0
VERTEX
8
OBJECT__71
10
0
20
0
30
0
70
128
71
15
72
17
73
16
0
VERTEX
8
OBJECT__71
10
0
20
0
30
0
70
128
71
18
72
19
73
17
0
VERTEX
8
OBJECT__71
10
0
20
0
30
0
70
128
71
18
72
20
73
21
0
VERTEX
8
OBJECT__71
10
0
20
0
30
0
70
128
71
22
72
23
73
24
0
VERTEX
8
OBJECT__71
10
0
20
0
30
0
70
128
71
24
72
20
73
22
0
VERTEX
8
OBJECT__71
10
0
20
0
30
0
70
128
71
22
72
25
73
26
0
VERTEX
8
OBJECT__71
10
0
20
0
30
0
70
128
71
25
72
27
73
26
0
VERTEX
8
OBJECT__71
10
0
20
0
30
0
70
128
71
25
72
28
73
29
0
VERTEX
8
OBJECT__71
10
0
20
0
30
0
70
128
71
30
72
31
73
32
0
VERTEX
8
OBJECT__71
10
0
20
0
30
0
70
128
71
32
72
28
73
30
0
VERTEX
8
OBJECT__71
10
0
20
0
30
0
70
128
71
30
72
33
73
34
0
VERTEX
8
OBJECT__71
10
0
20
0
30
0
70
128
71
33
72
35
73
34
0
VERTEX
8
OBJECT__71
10
0
20
0
30
0
70
128
71
1
72
36
73
35
0
VERTEX
8
OBJECT__71
10
0
20
0
30
0
70
128
71
35
72
33
73
1
0
VERTEX
8
OBJECT__71
10
0
20
0
30
0
70
128
71
34
72
31
73
30
0
VERTEX
8
OBJECT__71
10
0
20
0
30
0
70
128
71
32
72
29
73
28
0
VERTEX
8
OBJECT__71
10
0
20
0
30
0
70
128
71
29
72
27
73
25
0
VERTEX
8
OBJECT__71
10
0
20
0
30
0
70
128
71
26
72
23
73
22
0
VERTEX
8
OBJECT__71
10
0
20
0
30
0
70
128
71
24
72
21
73
20
0
VERTEX
8
OBJECT__71
10
0
20
0
30
0
70
128
71
21
72
19
73
18
0
VERTEX
8
OBJECT__71
10
0
20
0
30
0
70
128
71
17
72
15
73
18
0
VERTEX
8
OBJECT__71
10
0
20
0
30
0
70
128
71
16
72
13
73
12
0
VERTEX
8
OBJECT__71
10
0
20
0
30
0
70
128
71
14
72
11
73
10
0
VERTEX
8
OBJECT__71
10
0
20
0
30
0
70
128
71
9
72
7
73
10
0
VERTEX
8
OBJECT__71
10
0
20
0
30
0
70
128
71
8
72
5
73
4
0
VERTEX
8
OBJECT__71
10
0
20
0
30
0
70
128
71
6
72
3
73
2
0
VERTEX
8
OBJECT__71
10
0
20
0
30
0
70
128
71
3
72
36
73
1
0
SEQEND
8
OBJECT__71
0
POLYLINE
8
OBJECT__72
66
1
70
64
71
32
72
32
62
253
0
VERTEX
8
OBJECT__72
10
71.449997
20
0.000000
30
71.000000
70
192
0
VERTEX
8
OBJECT__72
10
64.949997
20
0.000000
30
71.000000
70
192
0
VERTEX
8
OBJECT__72
10
64.949997
20
6.074000
30
72.386002
70
192
0
VERTEX
8
OBJECT__72
10
71.449997
20
8.229000
30
73.674004
70
192
0
VERTEX
8
OBJECT__72
10
71.449997
20
13.315000
30
80.674004
70
192
0
VERTEX
8
OBJECT__72
10
64.949997
20
10.946000
30
76.271004
70
192
0
VERTEX
8
OBJECT__72
10
64.949997
20
8.019000
30
73.936996
70
192
0
VERTEX
8
OBJECT__72
10
71.449997
20
13.315000
30
89.325996
70
192
0
VERTEX
8
OBJECT__72
10
64.949997
20
13.649000
30
81.885002
70
192
0
VERTEX
8
OBJECT__72
10
64.949997
20
13.649000
30
88.114998
70
192
0
VERTEX
8
OBJECT__72
10
64.949997
20
13.113000
30
80.771004
70
192
0
VERTEX
8
OBJECT__72
10
64.949997
20
13.113000
30
89.228996
70
192
0
VERTEX
8
OBJECT__72
10
64.949997
20
10.946000
30
93.728996
70
192
0
VERTEX
8
OBJECT__72
10
71.449997
20
8.229000
30
96.325996
70
192
0
VERTEX
8
OBJECT__72
10
71.449997
20
0.000000
30
99.000000
70
192
0
VERTEX
8
OBJECT__72
10
64.949997
20
6.074000
30
97.613998
70
192
0
VERTEX
8
OBJECT__72
10
64.949997
20
8.019000
30
96.063004
70
192
0
VERTEX
8
OBJECT__72
10
64.949997
20
0.000000
30
99.000000
70
192
0
VERTEX
8
OBJECT__72
10
64.949997
20
-6.074000
30
97.613998
70
192
0
VERTEX
8
OBJECT__72
10
71.449997
20
-8.229000
30
96.325996
70
192
0
VERTEX
8
OBJECT__72
10
71.449997
20
-13.315000
30
89.325996
70
192
0
VERTEX
8
OBJECT__72
10
64.949997
20
-10.946000
30
93.728996
70
192
0
VERTEX
8
OBJECT__72
10
64.949997
20
-8.019000
30
96.063004
70
192
0
VERTEX
8
OBJECT__72
10
64.949997
20
-13.649000
30
88.114998
70
192
0
VERTEX
8
OBJECT__72
10
64.949997
20
-13.649000
30
81.885002
70
192
0
VERTEX
8
OBJECT__72
10
71.449997
20
-13.315000
30
80.674004
70
192
0
VERTEX
8
OBJECT__72
10
64.949997
20
-13.113000
30
89.228996
70
192
0
VERTEX
8
OBJECT__72
10
64.949997
20
-13.113000
30
80.771004
70
192
0
VERTEX
8
OBJECT__72
10
64.949997
20
-10.946000
30
76.271004
70
192
0
VERTEX
8
OBJECT__72
10
71.449997
20
-8.229000
30
73.674004
70
192
0
VERTEX
8
OBJECT__72
10
64.949997
20
-6.074000
30
72.386002
70
192
0
VERTEX
8
OBJECT__72
10
64.949997
20
-8.019000
30
73.936996
70
192
0
VERTEX
8
OBJECT__72
10
0
20
0
30
0
70
128
71
1
72
2
73
3
0
VERTEX
8
OBJECT__72
10
0
20
0
30
0
70
128
71
3
72
4
73
1
0
VERTEX
8
OBJECT__72
10
0
20
0
30
0
70
128
71
5
72
4
73
6
0
VERTEX
8
OBJECT__72
10
0
20
0
30
0
70
128
71
4
72
7
73
6
0
VERTEX
8
OBJECT__72
10
0
20
0
30
0
70
128
71
8
72
5
73
9
0
VERTEX
8
OBJECT__72
10
0
20
0
30
0
70
128
71
9
72
10
73
8
0
VERTEX
8
OBJECT__72
10
0
20
0
30
0
70
128
71
5
72
11
73
9
0
VERTEX
8
OBJECT__72
10
0
20
0
30
0
70
128
71
8
72
12
73
13
0
VERTEX
8
OBJECT__72
10
0
20
0
30
0
70
128
71
13
72
14
73
8
0
VERTEX
8
OBJECT__72
10
0
20
0
30
0
70
128
71
15
72
14
73
16
0
VERTEX
8
OBJECT__72
10
0
20
0
30
0
70
128
71
14
72
17
73
16
0
VERTEX
8
OBJECT__72
10
0
20
0
30
0
70
128
71
15
72
18
73
19
0
VERTEX
8
OBJECT__72
10
0
20
0
30
0
70
128
71
19
72
20
73
15
0
VERTEX
8
OBJECT__72
10
0
20
0
30
0
70
128
71
21
72
20
73
22
0
VERTEX
8
OBJECT__72
10
0
20
0
30
0
70
128
71
20
72
23
73
22
0
VERTEX
8
OBJECT__72
10
0
20
0
30
0
70
128
71
21
72
24
73
25
0
VERTEX
8
OBJECT__72
10
0
20
0
30
0
70
128
71
25
72
26
73
21
0
VERTEX
8
OBJECT__72
10
0
20
0
30
0
70
128
71
21
72
27
73
24
0
VERTEX
8
OBJECT__72
10
0
20
0
30
0
70
128
71
26
72
28
73
29
0
VERTEX
8
OBJECT__72
10
0
20
0
30
0
70
128
71
29
72
30
73
26
0
VERTEX
8
OBJECT__72
10
0
20
0
30
0
70
128
71
1
72
30
73
31
0
VERTEX
8
OBJECT__72
10
0
20
0
30
0
70
128
71
30
72
32
73
31
0
VERTEX
8
OBJECT__72
10
0
20
0
30
0
70
128
71
31
72
2
73
1
0
VERTEX
8
OBJECT__72
10
0
20
0
30
0
70
128
71
29
72
32
73
30
0
VERTEX
8
OBJECT__72
10
0
20
0
30
0
70
128
71
25
72
28
73
26
0
VERTEX
8
OBJECT__72
10
0
20
0
30
0
70
128
71
22
72
27
73
21
0
VERTEX
8
OBJECT__72
10
0
20
0
30
0
70
128
71
19
72
23
73
20
0
VERTEX
8
OBJECT__72
10
0
20
0
30
0
70
128
71
16
72
18
73
15
0
VERTEX
8
OBJECT__72
10
0
20
0
30
0
70
128
71
13
72
17
73
14
0
VERTEX
8
OBJECT__72
10
0
20
0
30
0
70
128
71
10
72
12
73
8
0
VERTEX
8
OBJECT__72
10
0
20
0
30
0
70
128
71
6
72
11
73
5
0
VERTEX
8
OBJECT__72
10
0
20
0
30
0
70
128
71
3
72
7
73
4
0
SEQEND
8
OBJECT__72
0
POLYLINE
8
OBJECT__73
66
1
70
64
71
20
72
20
62
253
0
VERTEX
8
OBJECT__73
10
71.449997
20
13.315000
30
89.325996
70
192
0
VERTEX
8
OBJECT__73
10
71.449997
20
9.035000
30
87.935997
70
192
0
VERTEX
8
OBJECT__73
10
71.449997
20
9.035000
30
82.064003
70
192
0
VERTEX
8
OBJECT__73
10
71.449997
20
8.229000
30
96.325996
70
192
0
VERTEX
8
OBJECT__73
10
71.449997
20
5.584000
30
92.685997
70
192
0
VERTEX
8
OBJECT__73
10
71.449997
20
13.315000
30
80.674004
70
192
0
VERTEX
8
OBJECT__73
10
71.449997
20
5.584000
30
77.314003
70
192
0
VERTEX
8
OBJECT__73
10
71.449997
20
0.000000
30
71.000000
70
192
0
VERTEX
8
OBJECT__73
10
71.449997
20
8.229000
30
73.674004
70
192
0
VERTEX
8
OBJECT__73
10
71.449997
20
0.000000
30
99.000000
70
192
0
VERTEX
8
OBJECT__73
10
71.449997
20
0.000000
30
94.500000
70
192
0
VERTEX
8
OBJECT__73
10
71.449997
20
-8.229000
30
96.325996
70
192
0
VERTEX
8
OBJECT__73
10
71.449997
20
-5.584000
30
92.685997
70
192
0
VERTEX
8
OBJECT__73
10
71.449997
20
-13.315000
30
80.674004
70
192
0
VERTEX
8
OBJECT__73
10
71.449997
20
-9.035000
30
82.064003
70
192
0
VERTEX
8
OBJECT__73
10
71.449997
20
-9.035000
30
87.935997
70
192
0
VERTEX
8
OBJECT__73
10
71.449997
20
-8.229000
30
73.674004
70
192
0
VERTEX
8
OBJECT__73
10
71.449997
20
-5.584000
30
77.314003
70
192
0
VERTEX
8
OBJECT__73
10
71.449997
20
-13.315000
30
89.325996
70
192
0
VERTEX
8
OBJECT__73
10
71.449997
20
0.000000
30
75.500000
70
192
0
VERTEX
8
OBJECT__73
10
0
20
0
30
0
70
128
71
1
72
2
73
3
0
VERTEX
8
OBJECT__73
10
0
20
0
30
0
70
128
71
4
72
5
73
2
0
VERTEX
8
OBJECT__73
10
0
20
0
30
0
70
128
71
6
72
3
73
7
0
VERTEX
8
OBJECT__73
10
0
20
0
30
0
70
128
71
2
72
1
73
4
0
VERTEX
8
OBJECT__73
10
0
20
0
30
0
70
128
71
8
72
9
73
7
0
VERTEX
8
OBJECT__73
10
0
20
0
30
0
70
128
71
3
72
6
73
1
0
VERTEX
8
OBJECT__73
10
0
20
0
30
0
70
128
71
10
72
11
73
5
0
VERTEX
8
OBJECT__73
10
0
20
0
30
0
70
128
71
10
72
12
73
13
0
VERTEX
8
OBJECT__73
10
0
20
0
30
0
70
128
71
14
72
15
73
16
0
VERTEX
8
OBJECT__73
10
0
20
0
30
0
70
128
71
14
72
17
73
18
0
VERTEX
8
OBJECT__73
10
0
20
0
30
0
70
128
71
7
72
9
73
6
0
VERTEX
8
OBJECT__73
10
0
20
0
30
0
70
128
71
13
72
11
73
10
0
VERTEX
8
OBJECT__73
10
0
20
0
30
0
70
128
71
19
72
16
73
13
0
VERTEX
8
OBJECT__73
10
0
20
0
30
0
70
128
71
18
72
15
73
14
0
VERTEX
8
OBJECT__73
10
0
20
0
30
0
70
128
71
5
72
4
73
10
0
VERTEX
8
OBJECT__73
10
0
20
0
30
0
70
128
71
16
72
19
73
14
0
VERTEX
8
OBJECT__73
10
0
20
0
30
0
70
128
71
13
72
12
73
19
0
VERTEX
8
OBJECT__73
10
0
20
0
30
0
70
128
71
8
72
20
73
18
0
VERTEX
8
OBJECT__73
10
0
20
0
30
0
70
128
71
18
72
17
73
8
0
VERTEX
8
OBJECT__73
10
0
20
0
30
0
70
128
71
7
72
20
73
8
0
SEQEND
8
OBJECT__73
0
ENDSEC
0
EOF
