999
Converted by 3D Exploration 
999
XDimension Software, LLC
999
http://www.xdsoft.com/explorer/
0
SECTION
2
HEADER
9
$ACADVER
1
AC1008
9
$UCSORG
10
0.0
20
0.0
30
0.0
9
$UCSXDIR
10
1.0
20
0.0
30
0.0
9
$TILEMODE
70
1
9
$UCSYDIR
10
0.0
20
1.0
30
0.0
9
$EXTMIN
10
0.000000
20
-85.500000
30
-85.500000
9
$EXTMAX
10
73.050003
20
85.500000
30
117.000000
0
ENDSEC
0
SECTION
2
TABLES
0
TABLE
2
LTYPE
70
1
0
LTYPE
2
CONTINUOUS
70
64
3
Solid line
72
65
73
0
40
0.0
0
ENDTAB
0
TABLE
2
LAYER
70
126
0
LAYER
2
OBJECT__0
70
0
62
253
6
CONTINUOUS
0
LAYER
2
OBJECT__1
70
0
62
253
6
CONTINUOUS
0
LAYER
2
OBJECT__3
70
0
62
253
6
CONTINUOUS
0
LAYER
2
OBJECT__4
70
0
62
253
6
CONTINUOUS
0
LAYER
2
OBJECT__5
70
0
62
253
6
CONTINUOUS
0
LAYER
2
OBJECT__6
70
0
62
253
6
CONTINUOUS
0
LAYER
2
OBJECT__7
70
0
62
253
6
CONTINUOUS
0
LAYER
2
OBJECT__8
70
0
62
253
6
CONTINUOUS
0
LAYER
2
OBJECT__10
70
0
62
253
6
CONTINUOUS
0
LAYER
2
OBJECT__11
70
0
62
253
6
CONTINUOUS
0
LAYER
2
OBJECT__12
70
0
62
253
6
CONTINUOUS
0
LAYER
2
OBJECT__13
70
0
62
253
6
CONTINUOUS
0
LAYER
2
OBJECT__14
70
0
62
253
6
CONTINUOUS
0
LAYER
2
OBJECT__15
70
0
62
253
6
CONTINUOUS
0
LAYER
2
OBJECT__16
70
0
62
253
6
CONTINUOUS
0
LAYER
2
OBJECT__17
70
0
62
253
6
CONTINUOUS
0
LAYER
2
OBJECT__18
70
0
62
253
6
CONTINUOUS
0
LAYER
2
OBJECT__19
70
0
62
253
6
CONTINUOUS
0
LAYER
2
OBJECT__20
70
0
62
253
6
CONTINUOUS
0
LAYER
2
OBJECT__21
70
0
62
253
6
CONTINUOUS
0
LAYER
2
OBJECT__22
70
0
62
253
6
CONTINUOUS
0
LAYER
2
OBJECT__23
70
0
62
253
6
CONTINUOUS
0
LAYER
2
OBJECT__24
70
0
62
253
6
CONTINUOUS
0
LAYER
2
OBJECT__25
70
0
62
253
6
CONTINUOUS
0
LAYER
2
OBJECT__26
70
0
62
253
6
CONTINUOUS
0
LAYER
2
OBJECT__27
70
0
62
253
6
CONTINUOUS
0
LAYER
2
OBJECT__28
70
0
62
253
6
CONTINUOUS
0
LAYER
2
OBJECT__30
70
0
62
253
6
CONTINUOUS
0
LAYER
2
OBJECT__31
70
0
62
253
6
CONTINUOUS
0
LAYER
2
OBJECT__32
70
0
62
253
6
CONTINUOUS
0
LAYER
2
OBJECT__33
70
0
62
253
6
CONTINUOUS
0
LAYER
2
OBJECT__34
70
0
62
253
6
CONTINUOUS
0
LAYER
2
OBJECT__36
70
0
62
253
6
CONTINUOUS
0
LAYER
2
OBJECT__37
70
0
62
253
6
CONTINUOUS
0
LAYER
2
OBJECT__38
70
0
62
253
6
CONTINUOUS
0
LAYER
2
OBJECT__39
70
0
62
253
6
CONTINUOUS
0
LAYER
2
OBJECT__40
70
0
62
253
6
CONTINUOUS
0
LAYER
2
OBJECT__41
70
0
62
253
6
CONTINUOUS
0
LAYER
2
OBJECT__42
70
0
62
253
6
CONTINUOUS
0
LAYER
2
OBJECT__43
70
0
62
253
6
CONTINUOUS
0
LAYER
2
OBJECT__44
70
0
62
253
6
CONTINUOUS
0
LAYER
2
OBJECT__45
70
0
62
253
6
CONTINUOUS
0
LAYER
2
OBJECT__46
70
0
62
253
6
CONTINUOUS
0
LAYER
2
OBJECT__47
70
0
62
253
6
CONTINUOUS
0
LAYER
2
OBJECT__48
70
0
62
253
6
CONTINUOUS
0
LAYER
2
OBJECT__49
70
0
62
253
6
CONTINUOUS
0
LAYER
2
OBJECT__50
70
0
62
253
6
CONTINUOUS
0
LAYER
2
OBJECT__51
70
0
62
253
6
CONTINUOUS
0
LAYER
2
OBJECT__52
70
0
62
253
6
CONTINUOUS
0
LAYER
2
OBJECT__53
70
0
62
253
6
CONTINUOUS
0
LAYER
2
OBJECT__54
70
0
62
253
6
CONTINUOUS
0
LAYER
2
OBJECT__55
70
0
62
253
6
CONTINUOUS
0
LAYER
2
OBJECT__56
70
0
62
253
6
CONTINUOUS
0
LAYER
2
OBJECT__57
70
0
62
253
6
CONTINUOUS
0
LAYER
2
OBJECT__59
70
0
62
253
6
CONTINUOUS
0
LAYER
2
OBJECT__60
70
0
62
253
6
CONTINUOUS
0
LAYER
2
OBJECT__61
70
0
62
253
6
CONTINUOUS
0
LAYER
2
OBJECT__62
70
0
62
253
6
CONTINUOUS
0
LAYER
2
OBJECT__63
70
0
62
253
6
CONTINUOUS
0
LAYER
2
OBJECT__65
70
0
62
253
6
CONTINUOUS
0
LAYER
2
OBJECT__66
70
0
62
253
6
CONTINUOUS
0
LAYER
2
OBJECT__67
70
0
62
253
6
CONTINUOUS
0
LAYER
2
OBJECT__68
70
0
62
253
6
CONTINUOUS
0
LAYER
2
OBJECT__69
70
0
62
253
6
CONTINUOUS
0
LAYER
2
OBJECT__70
70
0
62
253
6
CONTINUOUS
0
LAYER
2
OBJECT__71
70
0
62
253
6
CONTINUOUS
0
LAYER
2
OBJECT__72
70
0
62
253
6
CONTINUOUS
0
LAYER
2
OBJECT__73
70
0
62
253
6
CONTINUOUS
0
LAYER
2
OBJECT__74
70
0
62
253
6
CONTINUOUS
0
LAYER
2
OBJECT__75
70
0
62
253
6
CONTINUOUS
0
LAYER
2
OBJECT__76
70
0
62
253
6
CONTINUOUS
0
LAYER
2
OBJECT__77
70
0
62
253
6
CONTINUOUS
0
LAYER
2
OBJECT__78
70
0
62
253
6
CONTINUOUS
0
LAYER
2
OBJECT__79
70
0
62
253
6
CONTINUOUS
0
LAYER
2
OBJECT__80
70
0
62
253
6
CONTINUOUS
0
LAYER
2
OBJECT__81
70
0
62
253
6
CONTINUOUS
0
LAYER
2
OBJECT__82
70
0
62
253
6
CONTINUOUS
0
LAYER
2
OBJECT__83
70
0
62
253
6
CONTINUOUS
0
LAYER
2
OBJECT__84
70
0
62
253
6
CONTINUOUS
0
LAYER
2
OBJECT__85
70
0
62
253
6
CONTINUOUS
0
LAYER
2
OBJECT__86
70
0
62
253
6
CONTINUOUS
0
LAYER
2
OBJECT__88
70
0
62
253
6
CONTINUOUS
0
LAYER
2
OBJECT__89
70
0
62
253
6
CONTINUOUS
0
LAYER
2
OBJECT__90
70
0
62
253
6
CONTINUOUS
0
LAYER
2
OBJECT__92
70
0
62
253
6
CONTINUOUS
0
LAYER
2
OBJECT__93
70
0
62
253
6
CONTINUOUS
0
LAYER
2
OBJECT__94
70
0
62
253
6
CONTINUOUS
0
LAYER
2
OBJECT__95
70
0
62
253
6
CONTINUOUS
0
LAYER
2
OBJECT__96
70
0
62
253
6
CONTINUOUS
0
LAYER
2
OBJECT__97
70
0
62
253
6
CONTINUOUS
0
LAYER
2
OBJECT__98
70
0
62
253
6
CONTINUOUS
0
LAYER
2
OBJECT__99
70
0
62
253
6
CONTINUOUS
0
LAYER
2
OBJECT__100
70
0
62
253
6
CONTINUOUS
0
LAYER
2
OBJECT__101
70
0
62
253
6
CONTINUOUS
0
LAYER
2
OBJECT__103
70
0
62
253
6
CONTINUOUS
0
LAYER
2
OBJECT__104
70
0
62
253
6
CONTINUOUS
0
LAYER
2
OBJECT__106
70
0
62
253
6
CONTINUOUS
0
LAYER
2
OBJECT__107
70
0
62
253
6
CONTINUOUS
0
LAYER
2
OBJECT__109
70
0
62
253
6
CONTINUOUS
0
LAYER
2
OBJECT__110
70
0
62
253
6
CONTINUOUS
0
LAYER
2
OBJECT__111
70
0
62
253
6
CONTINUOUS
0
LAYER
2
OBJECT__112
70
0
62
253
6
CONTINUOUS
0
LAYER
2
OBJECT__113
70
0
62
253
6
CONTINUOUS
0
LAYER
2
OBJECT__114
70
0
62
253
6
CONTINUOUS
0
LAYER
2
OBJECT__115
70
0
62
253
6
CONTINUOUS
0
LAYER
2
OBJECT__116
70
0
62
253
6
CONTINUOUS
0
LAYER
2
OBJECT__117
70
0
62
253
6
CONTINUOUS
0
LAYER
2
OBJECT__118
70
0
62
253
6
CONTINUOUS
0
LAYER
2
OBJECT__119
70
0
62
253
6
CONTINUOUS
0
LAYER
2
OBJECT__120
70
0
62
253
6
CONTINUOUS
0
LAYER
2
OBJECT__121
70
0
62
253
6
CONTINUOUS
0
LAYER
2
OBJECT__122
70
0
62
253
6
CONTINUOUS
0
LAYER
2
OBJECT__123
70
0
62
253
6
CONTINUOUS
0
LAYER
2
OBJECT__124
70
0
62
253
6
CONTINUOUS
0
LAYER
2
OBJECT__125
70
0
62
253
6
CONTINUOUS
0
ENDTAB
0
TABLE
2
STYLE
70
1
0
STYLE
2
STANDARD
70
0
40
0.0
41
1.0
50
0.0
71
0
42
0.2
3
txt
4
1
0
ENDTAB
0
TABLE
2
UCS
70
0
0
ENDTAB
0
ENDSEC
0
SECTION
2
ENTITIES
0
POLYLINE
8
OBJECT__0
66
1
70
64
71
85
72
108
62
253
0
VERTEX
8
OBJECT__0
10
15.043000
20
-24.737000
30
-13.069000
70
192
0
VERTEX
8
OBJECT__0
10
14.286000
20
-24.628000
30
-13.099000
70
192
0
VERTEX
8
OBJECT__0
10
14.286000
20
-25.577000
30
-20.000000
70
192
0
VERTEX
8
OBJECT__0
10
14.286000
20
-21.853001
30
-6.711000
70
192
0
VERTEX
8
OBJECT__0
10
15.043000
20
-23.518000
30
-10.263000
70
192
0
VERTEX
8
OBJECT__0
10
15.043000
20
-21.948999
30
-6.652000
70
192
0
VERTEX
8
OBJECT__0
10
15.043000
20
-18.084000
30
-1.901000
70
192
0
VERTEX
8
OBJECT__0
10
14.286000
20
-17.457001
30
-1.308000
70
192
0
VERTEX
8
OBJECT__0
10
15.043000
20
-11.819000
30
2.809000
70
192
0
VERTEX
8
OBJECT__0
10
14.286000
20
-11.767000
30
2.709000
70
192
0
VERTEX
8
OBJECT__0
10
14.286000
20
-5.204000
30
5.042000
70
192
0
VERTEX
8
OBJECT__0
10
15.043000
20
-9.762000
30
3.540000
70
192
0
VERTEX
8
OBJECT__0
10
15.043000
20
-5.227000
30
5.152000
70
192
0
VERTEX
8
OBJECT__0
10
15.043000
20
0.012000
30
5.510000
70
192
0
VERTEX
8
OBJECT__0
10
14.286000
20
1.745000
30
5.517000
70
192
0
VERTEX
8
OBJECT__0
10
15.043000
20
8.603000
30
4.206000
70
192
0
VERTEX
8
OBJECT__0
10
14.286000
20
8.565000
30
4.100000
70
192
0
VERTEX
8
OBJECT__0
10
14.286000
20
14.750000
30
0.895000
70
192
0
VERTEX
8
OBJECT__0
10
15.043000
20
9.764000
30
3.604000
70
192
0
VERTEX
8
OBJECT__0
10
15.043000
20
14.815000
30
0.987000
70
192
0
VERTEX
8
OBJECT__0
10
15.043000
20
18.011999
30
-1.999000
70
192
0
VERTEX
8
OBJECT__0
10
14.286000
20
19.840000
30
-3.859000
70
192
0
VERTEX
8
OBJECT__0
10
15.043000
20
19.927999
30
-3.788000
70
192
0
VERTEX
8
OBJECT__0
10
15.043000
20
23.563000
30
-9.765000
70
192
0
VERTEX
8
OBJECT__0
10
14.286000
20
23.459000
30
-9.810000
70
192
0
VERTEX
8
OBJECT__0
10
14.286000
20
25.337999
30
-16.517000
70
192
0
VERTEX
8
OBJECT__0
10
15.043000
20
23.680000
30
-10.184000
70
192
0
VERTEX
8
OBJECT__0
10
15.043000
20
25.450001
30
-16.502001
70
192
0
VERTEX
8
OBJECT__0
10
15.043000
20
25.450001
30
-20.000000
70
192
0
VERTEX
8
OBJECT__0
10
14.286000
20
25.337999
30
-23.483000
70
192
0
VERTEX
8
OBJECT__0
10
15.043000
20
25.450001
30
-23.497999
70
192
0
VERTEX
8
OBJECT__0
10
15.043000
20
23.680000
30
-29.816000
70
192
0
VERTEX
8
OBJECT__0
10
14.286000
20
23.459000
30
-30.190001
70
192
0
VERTEX
8
OBJECT__0
10
15.043000
20
23.563000
30
-30.235001
70
192
0
VERTEX
8
OBJECT__0
10
15.043000
20
19.927999
30
-36.212002
70
192
0
VERTEX
8
OBJECT__0
10
14.286000
20
19.840000
30
-36.140999
70
192
0
VERTEX
8
OBJECT__0
10
14.286000
20
14.750000
30
-40.895000
70
192
0
VERTEX
8
OBJECT__0
10
15.043000
20
18.011999
30
-38.000999
70
192
0
VERTEX
8
OBJECT__0
10
15.043000
20
14.815000
30
-40.987000
70
192
0
VERTEX
8
OBJECT__0
10
15.043000
20
9.764000
30
-43.604000
70
192
0
VERTEX
8
OBJECT__0
10
14.286000
20
8.565000
30
-44.099998
70
192
0
VERTEX
8
OBJECT__0
10
15.043000
20
8.603000
30
-44.206001
70
192
0
VERTEX
8
OBJECT__0
10
15.043000
20
1.753000
30
-45.629002
70
192
0
VERTEX
8
OBJECT__0
10
14.286000
20
1.745000
30
-45.516998
70
192
0
VERTEX
8
OBJECT__0
10
14.286000
20
-5.204000
30
-45.042000
70
192
0
VERTEX
8
OBJECT__0
10
15.043000
20
0.012000
30
-45.509998
70
192
0
VERTEX
8
OBJECT__0
10
15.043000
20
-5.227000
30
-45.152000
70
192
0
VERTEX
8
OBJECT__0
10
15.043000
20
-9.762000
30
-43.540001
70
192
0
VERTEX
8
OBJECT__0
10
14.286000
20
-11.767000
30
-42.709000
70
192
0
VERTEX
8
OBJECT__0
10
15.043000
20
-11.819000
30
-42.808998
70
192
0
VERTEX
8
OBJECT__0
10
15.043000
20
-17.534000
30
-38.775002
70
192
0
VERTEX
8
OBJECT__0
10
14.286000
20
-17.457001
30
-38.692001
70
192
0
VERTEX
8
OBJECT__0
10
14.286000
20
-21.853001
30
-33.289001
70
192
0
VERTEX
8
OBJECT__0
10
15.043000
20
-18.084000
30
-38.098999
70
192
0
VERTEX
8
OBJECT__0
10
15.043000
20
-21.948999
30
-33.348000
70
192
0
VERTEX
8
OBJECT__0
10
15.043000
20
-23.518000
30
-29.737000
70
192
0
VERTEX
8
OBJECT__0
10
14.286000
20
-24.628000
30
-26.900999
70
192
0
VERTEX
8
OBJECT__0
10
15.043000
20
-25.688999
30
-20.000000
70
192
0
VERTEX
8
OBJECT__0
10
13.830000
20
-24.035999
30
-13.265000
70
192
0
VERTEX
8
OBJECT__0
10
13.830000
20
-24.962000
30
-20.000000
70
192
0
VERTEX
8
OBJECT__0
10
13.830000
20
-21.327999
30
-7.030000
70
192
0
VERTEX
8
OBJECT__0
10
13.830000
20
-17.038000
30
-1.757000
70
192
0
VERTEX
8
OBJECT__0
10
13.830000
20
-11.484000
30
2.163000
70
192
0
VERTEX
8
OBJECT__0
10
13.830000
20
-5.079000
30
4.440000
70
192
0
VERTEX
8
OBJECT__0
10
13.830000
20
1.703000
30
4.904000
70
192
0
VERTEX
8
OBJECT__0
10
13.830000
20
8.359000
30
3.520000
70
192
0
VERTEX
8
OBJECT__0
10
13.830000
20
14.395000
30
0.393000
70
192
0
VERTEX
8
OBJECT__0
10
13.830000
20
19.363001
30
-4.247000
70
192
0
VERTEX
8
OBJECT__0
10
13.830000
20
22.895000
30
-10.055000
70
192
0
VERTEX
8
OBJECT__0
10
13.830000
20
24.729000
30
-16.601000
70
192
0
VERTEX
8
OBJECT__0
10
13.830000
20
24.729000
30
-23.399000
70
192
0
VERTEX
8
OBJECT__0
10
13.830000
20
24.962000
30
-20.000000
70
192
0
VERTEX
8
OBJECT__0
10
13.830000
20
22.895000
30
-29.945000
70
192
0
VERTEX
8
OBJECT__0
10
13.830000
20
19.363001
30
-35.752998
70
192
0
VERTEX
8
OBJECT__0
10
13.830000
20
14.395000
30
-40.393002
70
192
0
VERTEX
8
OBJECT__0
10
13.830000
20
8.359000
30
-43.520000
70
192
0
VERTEX
8
OBJECT__0
10
13.830000
20
1.703000
30
-44.903999
70
192
0
VERTEX
8
OBJECT__0
10
13.830000
20
-5.079000
30
-44.439999
70
192
0
VERTEX
8
OBJECT__0
10
13.830000
20
-11.484000
30
-42.162998
70
192
0
VERTEX
8
OBJECT__0
10
13.830000
20
-17.038000
30
-38.243000
70
192
0
VERTEX
8
OBJECT__0
10
13.830000
20
-21.327999
30
-32.970001
70
192
0
VERTEX
8
OBJECT__0
10
13.830000
20
-24.035999
30
-26.735001
70
192
0
VERTEX
8
OBJECT__0
10
15.043000
20
-24.737000
30
-26.931000
70
192
0
VERTEX
8
OBJECT__0
10
15.043000
20
1.753000
30
5.629000
70
192
0
VERTEX
8
OBJECT__0
10
15.043000
20
-17.534000
30
-1.225000
70
192
0
VERTEX
8
OBJECT__0
10
0
20
0
30
0
70
128
71
1
72
2
73
3
0
VERTEX
8
OBJECT__0
10
0
20
0
30
0
70
128
71
4
72
2
73
5
0
VERTEX
8
OBJECT__0
10
0
20
0
30
0
70
128
71
2
72
1
73
5
0
VERTEX
8
OBJECT__0
10
0
20
0
30
0
70
128
71
4
72
6
73
7
0
VERTEX
8
OBJECT__0
10
0
20
0
30
0
70
128
71
7
72
8
73
4
0
VERTEX
8
OBJECT__0
10
0
20
0
30
0
70
128
71
9
72
10
73
8
0
VERTEX
8
OBJECT__0
10
0
20
0
30
0
70
128
71
11
72
10
73
12
0
VERTEX
8
OBJECT__0
10
0
20
0
30
0
70
128
71
10
72
9
73
12
0
VERTEX
8
OBJECT__0
10
0
20
0
30
0
70
128
71
11
72
13
73
14
0
VERTEX
8
OBJECT__0
10
0
20
0
30
0
70
128
71
14
72
15
73
11
0
VERTEX
8
OBJECT__0
10
0
20
0
30
0
70
128
71
16
72
17
73
15
0
VERTEX
8
OBJECT__0
10
0
20
0
30
0
70
128
71
18
72
17
73
19
0
VERTEX
8
OBJECT__0
10
0
20
0
30
0
70
128
71
17
72
16
73
19
0
VERTEX
8
OBJECT__0
10
0
20
0
30
0
70
128
71
18
72
20
73
21
0
VERTEX
8
OBJECT__0
10
0
20
0
30
0
70
128
71
21
72
22
73
18
0
VERTEX
8
OBJECT__0
10
0
20
0
30
0
70
128
71
23
72
24
73
25
0
VERTEX
8
OBJECT__0
10
0
20
0
30
0
70
128
71
26
72
25
73
27
0
VERTEX
8
OBJECT__0
10
0
20
0
30
0
70
128
71
25
72
24
73
27
0
VERTEX
8
OBJECT__0
10
0
20
0
30
0
70
128
71
26
72
28
73
29
0
VERTEX
8
OBJECT__0
10
0
20
0
30
0
70
128
71
29
72
30
73
26
0
VERTEX
8
OBJECT__0
10
0
20
0
30
0
70
128
71
30
72
31
73
32
0
VERTEX
8
OBJECT__0
10
0
20
0
30
0
70
128
71
32
72
33
73
30
0
VERTEX
8
OBJECT__0
10
0
20
0
30
0
70
128
71
34
72
35
73
36
0
VERTEX
8
OBJECT__0
10
0
20
0
30
0
70
128
71
37
72
36
73
38
0
VERTEX
8
OBJECT__0
10
0
20
0
30
0
70
128
71
36
72
35
73
38
0
VERTEX
8
OBJECT__0
10
0
20
0
30
0
70
128
71
37
72
39
73
40
0
VERTEX
8
OBJECT__0
10
0
20
0
30
0
70
128
71
40
72
41
73
37
0
VERTEX
8
OBJECT__0
10
0
20
0
30
0
70
128
71
42
72
43
73
44
0
VERTEX
8
OBJECT__0
10
0
20
0
30
0
70
128
71
45
72
44
73
46
0
VERTEX
8
OBJECT__0
10
0
20
0
30
0
70
128
71
44
72
43
73
46
0
VERTEX
8
OBJECT__0
10
0
20
0
30
0
70
128
71
45
72
47
73
48
0
VERTEX
8
OBJECT__0
10
0
20
0
30
0
70
128
71
48
72
49
73
45
0
VERTEX
8
OBJECT__0
10
0
20
0
30
0
70
128
71
50
72
51
73
52
0
VERTEX
8
OBJECT__0
10
0
20
0
30
0
70
128
71
53
72
52
73
54
0
VERTEX
8
OBJECT__0
10
0
20
0
30
0
70
128
71
52
72
51
73
54
0
VERTEX
8
OBJECT__0
10
0
20
0
30
0
70
128
71
53
72
55
73
56
0
VERTEX
8
OBJECT__0
10
0
20
0
30
0
70
128
71
56
72
57
73
53
0
VERTEX
8
OBJECT__0
10
0
20
0
30
0
70
128
71
58
72
3
73
57
0
VERTEX
8
OBJECT__0
10
0
20
0
30
0
70
128
71
2
72
59
73
60
0
VERTEX
8
OBJECT__0
10
0
20
0
30
0
70
128
71
4
72
61
73
59
0
VERTEX
8
OBJECT__0
10
0
20
0
30
0
70
128
71
8
72
62
73
61
0
VERTEX
8
OBJECT__0
10
0
20
0
30
0
70
128
71
10
72
63
73
62
0
VERTEX
8
OBJECT__0
10
0
20
0
30
0
70
128
71
11
72
64
73
63
0
VERTEX
8
OBJECT__0
10
0
20
0
30
0
70
128
71
15
72
65
73
64
0
VERTEX
8
OBJECT__0
10
0
20
0
30
0
70
128
71
17
72
66
73
65
0
VERTEX
8
OBJECT__0
10
0
20
0
30
0
70
128
71
17
72
18
73
67
0
VERTEX
8
OBJECT__0
10
0
20
0
30
0
70
128
71
18
72
22
73
68
0
VERTEX
8
OBJECT__0
10
0
20
0
30
0
70
128
71
22
72
25
73
69
0
VERTEX
8
OBJECT__0
10
0
20
0
30
0
70
128
71
25
72
26
73
70
0
VERTEX
8
OBJECT__0
10
0
20
0
30
0
70
128
71
30
72
71
73
72
0
VERTEX
8
OBJECT__0
10
0
20
0
30
0
70
128
71
72
72
26
73
30
0
VERTEX
8
OBJECT__0
10
0
20
0
30
0
70
128
71
30
72
33
73
73
0
VERTEX
8
OBJECT__0
10
0
20
0
30
0
70
128
71
33
72
36
73
74
0
VERTEX
8
OBJECT__0
10
0
20
0
30
0
70
128
71
37
72
75
73
74
0
VERTEX
8
OBJECT__0
10
0
20
0
30
0
70
128
71
41
72
76
73
75
0
VERTEX
8
OBJECT__0
10
0
20
0
30
0
70
128
71
44
72
77
73
76
0
VERTEX
8
OBJECT__0
10
0
20
0
30
0
70
128
71
45
72
78
73
77
0
VERTEX
8
OBJECT__0
10
0
20
0
30
0
70
128
71
49
72
79
73
78
0
VERTEX
8
OBJECT__0
10
0
20
0
30
0
70
128
71
52
72
80
73
79
0
VERTEX
8
OBJECT__0
10
0
20
0
30
0
70
128
71
53
72
81
73
80
0
VERTEX
8
OBJECT__0
10
0
20
0
30
0
70
128
71
57
72
82
73
81
0
VERTEX
8
OBJECT__0
10
0
20
0
30
0
70
128
71
57
72
3
73
60
0
VERTEX
8
OBJECT__0
10
0
20
0
30
0
70
128
71
60
72
82
73
57
0
VERTEX
8
OBJECT__0
10
0
20
0
30
0
70
128
71
81
72
53
73
57
0
VERTEX
8
OBJECT__0
10
0
20
0
30
0
70
128
71
80
72
52
73
53
0
VERTEX
8
OBJECT__0
10
0
20
0
30
0
70
128
71
79
72
49
73
52
0
VERTEX
8
OBJECT__0
10
0
20
0
30
0
70
128
71
78
72
45
73
49
0
VERTEX
8
OBJECT__0
10
0
20
0
30
0
70
128
71
77
72
44
73
45
0
VERTEX
8
OBJECT__0
10
0
20
0
30
0
70
128
71
76
72
41
73
44
0
VERTEX
8
OBJECT__0
10
0
20
0
30
0
70
128
71
75
72
37
73
41
0
VERTEX
8
OBJECT__0
10
0
20
0
30
0
70
128
71
74
72
36
73
37
0
VERTEX
8
OBJECT__0
10
0
20
0
30
0
70
128
71
74
72
73
73
33
0
VERTEX
8
OBJECT__0
10
0
20
0
30
0
70
128
71
73
72
71
73
30
0
VERTEX
8
OBJECT__0
10
0
20
0
30
0
70
128
71
72
72
70
73
26
0
VERTEX
8
OBJECT__0
10
0
20
0
30
0
70
128
71
70
72
69
73
25
0
VERTEX
8
OBJECT__0
10
0
20
0
30
0
70
128
71
69
72
68
73
22
0
VERTEX
8
OBJECT__0
10
0
20
0
30
0
70
128
71
68
72
67
73
18
0
VERTEX
8
OBJECT__0
10
0
20
0
30
0
70
128
71
67
72
66
73
17
0
VERTEX
8
OBJECT__0
10
0
20
0
30
0
70
128
71
65
72
15
73
17
0
VERTEX
8
OBJECT__0
10
0
20
0
30
0
70
128
71
64
72
11
73
15
0
VERTEX
8
OBJECT__0
10
0
20
0
30
0
70
128
71
63
72
10
73
11
0
VERTEX
8
OBJECT__0
10
0
20
0
30
0
70
128
71
62
72
8
73
10
0
VERTEX
8
OBJECT__0
10
0
20
0
30
0
70
128
71
61
72
4
73
8
0
VERTEX
8
OBJECT__0
10
0
20
0
30
0
70
128
71
59
72
2
73
4
0
VERTEX
8
OBJECT__0
10
0
20
0
30
0
70
128
71
60
72
3
73
2
0
VERTEX
8
OBJECT__0
10
0
20
0
30
0
70
128
71
57
72
83
73
58
0
VERTEX
8
OBJECT__0
10
0
20
0
30
0
70
128
71
56
72
83
73
57
0
VERTEX
8
OBJECT__0
10
0
20
0
30
0
70
128
71
54
72
55
73
53
0
VERTEX
8
OBJECT__0
10
0
20
0
30
0
70
128
71
52
72
49
73
50
0
VERTEX
8
OBJECT__0
10
0
20
0
30
0
70
128
71
48
72
50
73
49
0
VERTEX
8
OBJECT__0
10
0
20
0
30
0
70
128
71
46
72
47
73
45
0
VERTEX
8
OBJECT__0
10
0
20
0
30
0
70
128
71
44
72
41
73
42
0
VERTEX
8
OBJECT__0
10
0
20
0
30
0
70
128
71
40
72
42
73
41
0
VERTEX
8
OBJECT__0
10
0
20
0
30
0
70
128
71
38
72
39
73
37
0
VERTEX
8
OBJECT__0
10
0
20
0
30
0
70
128
71
36
72
33
73
34
0
VERTEX
8
OBJECT__0
10
0
20
0
30
0
70
128
71
32
72
34
73
33
0
VERTEX
8
OBJECT__0
10
0
20
0
30
0
70
128
71
29
72
31
73
30
0
VERTEX
8
OBJECT__0
10
0
20
0
30
0
70
128
71
27
72
28
73
26
0
VERTEX
8
OBJECT__0
10
0
20
0
30
0
70
128
71
25
72
22
73
23
0
VERTEX
8
OBJECT__0
10
0
20
0
30
0
70
128
71
21
72
23
73
22
0
VERTEX
8
OBJECT__0
10
0
20
0
30
0
70
128
71
19
72
20
73
18
0
VERTEX
8
OBJECT__0
10
0
20
0
30
0
70
128
71
15
72
84
73
16
0
VERTEX
8
OBJECT__0
10
0
20
0
30
0
70
128
71
14
72
84
73
15
0
VERTEX
8
OBJECT__0
10
0
20
0
30
0
70
128
71
12
72
13
73
11
0
VERTEX
8
OBJECT__0
10
0
20
0
30
0
70
128
71
8
72
85
73
9
0
VERTEX
8
OBJECT__0
10
0
20
0
30
0
70
128
71
7
72
85
73
8
0
VERTEX
8
OBJECT__0
10
0
20
0
30
0
70
128
71
5
72
6
73
4
0
VERTEX
8
OBJECT__0
10
0
20
0
30
0
70
128
71
3
72
58
73
1
0
SEQEND
8
OBJECT__0
0
POLYLINE
8
OBJECT__1
66
1
70
64
71
74
72
74
62
253
0
VERTEX
8
OBJECT__1
10
15.043000
20
-23.518000
30
-10.263000
70
192
0
VERTEX
8
OBJECT__1
10
15.043000
20
-24.737000
30
-13.069000
70
192
0
VERTEX
8
OBJECT__1
10
21.421000
20
-23.118999
30
-13.212000
70
192
0
VERTEX
8
OBJECT__1
10
15.043000
20
-25.688999
30
-20.000000
70
192
0
VERTEX
8
OBJECT__1
10
21.421000
20
-24.094999
30
-20.000000
70
192
0
VERTEX
8
OBJECT__1
10
15.043000
20
-18.084000
30
-1.901000
70
192
0
VERTEX
8
OBJECT__1
10
15.043000
20
-21.948999
30
-6.652000
70
192
0
VERTEX
8
OBJECT__1
10
21.421000
20
-20.270000
30
-6.973000
70
192
0
VERTEX
8
OBJECT__1
10
21.421000
20
-22.051001
30
-10.875000
70
192
0
VERTEX
8
OBJECT__1
10
15.043000
20
-11.819000
30
2.809000
70
192
0
VERTEX
8
OBJECT__1
10
15.043000
20
-17.534000
30
-1.225000
70
192
0
VERTEX
8
OBJECT__1
10
21.421000
20
-15.779000
30
-1.790000
70
192
0
VERTEX
8
OBJECT__1
10
21.421000
20
-10.009000
30
1.917000
70
192
0
VERTEX
8
OBJECT__1
10
15.043000
20
-9.762000
30
3.540000
70
192
0
VERTEX
8
OBJECT__1
10
21.421000
20
-16.899000
30
-3.083000
70
192
0
VERTEX
8
OBJECT__1
10
15.043000
20
0.012000
30
5.510000
70
192
0
VERTEX
8
OBJECT__1
10
15.043000
20
-5.227000
30
5.152000
70
192
0
VERTEX
8
OBJECT__1
10
21.421000
20
-3.429000
30
3.849000
70
192
0
VERTEX
8
OBJECT__1
10
21.421000
20
-9.190000
30
2.158000
70
192
0
VERTEX
8
OBJECT__1
10
15.043000
20
8.603000
30
4.206000
70
192
0
VERTEX
8
OBJECT__1
10
15.043000
20
1.753000
30
5.629000
70
192
0
VERTEX
8
OBJECT__1
10
21.421000
20
3.429000
30
3.849000
70
192
0
VERTEX
8
OBJECT__1
10
21.421000
20
9.190000
30
2.158000
70
192
0
VERTEX
8
OBJECT__1
10
15.043000
20
9.764000
30
3.604000
70
192
0
VERTEX
8
OBJECT__1
10
21.421000
20
0.000000
30
3.849000
70
192
0
VERTEX
8
OBJECT__1
10
21.421000
20
10.009000
30
1.917000
70
192
0
VERTEX
8
OBJECT__1
10
21.421000
20
15.779000
30
-1.790000
70
192
0
VERTEX
8
OBJECT__1
10
15.043000
20
14.815000
30
0.987000
70
192
0
VERTEX
8
OBJECT__1
10
15.043000
20
18.011999
30
-1.999000
70
192
0
VERTEX
8
OBJECT__1
10
15.043000
20
23.563000
30
-9.765000
70
192
0
VERTEX
8
OBJECT__1
10
15.043000
20
19.927999
30
-3.788000
70
192
0
VERTEX
8
OBJECT__1
10
21.421000
20
20.270000
30
-6.973000
70
192
0
VERTEX
8
OBJECT__1
10
21.421000
20
22.051001
30
-10.875000
70
192
0
VERTEX
8
OBJECT__1
10
15.043000
20
23.680000
30
-10.184000
70
192
0
VERTEX
8
OBJECT__1
10
21.421000
20
16.899000
30
-3.083000
70
192
0
VERTEX
8
OBJECT__1
10
15.043000
20
25.450001
30
-16.502001
70
192
0
VERTEX
8
OBJECT__1
10
21.421000
20
23.118999
30
-13.212000
70
192
0
VERTEX
8
OBJECT__1
10
21.421000
20
24.094999
30
-20.000000
70
192
0
VERTEX
8
OBJECT__1
10
15.043000
20
25.450001
30
-20.000000
70
192
0
VERTEX
8
OBJECT__1
10
15.043000
20
25.450001
30
-23.497999
70
192
0
VERTEX
8
OBJECT__1
10
21.421000
20
23.118999
30
-26.788000
70
192
0
VERTEX
8
OBJECT__1
10
15.043000
20
23.680000
30
-29.816000
70
192
0
VERTEX
8
OBJECT__1
10
21.421000
20
16.899000
30
-36.917000
70
192
0
VERTEX
8
OBJECT__1
10
15.043000
20
18.011999
30
-38.000999
70
192
0
VERTEX
8
OBJECT__1
10
15.043000
20
19.927999
30
-36.212002
70
192
0
VERTEX
8
OBJECT__1
10
15.043000
20
23.563000
30
-30.235001
70
192
0
VERTEX
8
OBJECT__1
10
21.421000
20
22.051001
30
-29.125000
70
192
0
VERTEX
8
OBJECT__1
10
21.421000
20
20.270000
30
-33.027000
70
192
0
VERTEX
8
OBJECT__1
10
21.421000
20
10.009000
30
-41.917000
70
192
0
VERTEX
8
OBJECT__1
10
15.043000
20
9.764000
30
-43.604000
70
192
0
VERTEX
8
OBJECT__1
10
15.043000
20
14.815000
30
-40.987000
70
192
0
VERTEX
8
OBJECT__1
10
21.421000
20
15.779000
30
-38.209999
70
192
0
VERTEX
8
OBJECT__1
10
21.421000
20
0.000000
30
-43.848999
70
192
0
VERTEX
8
OBJECT__1
10
15.043000
20
0.012000
30
-45.509998
70
192
0
VERTEX
8
OBJECT__1
10
15.043000
20
1.753000
30
-45.629002
70
192
0
VERTEX
8
OBJECT__1
10
15.043000
20
8.603000
30
-44.206001
70
192
0
VERTEX
8
OBJECT__1
10
21.421000
20
9.190000
30
-42.158001
70
192
0
VERTEX
8
OBJECT__1
10
21.421000
20
3.429000
30
-43.848999
70
192
0
VERTEX
8
OBJECT__1
10
21.421000
20
-9.190000
30
-42.158001
70
192
0
VERTEX
8
OBJECT__1
10
15.043000
20
-9.762000
30
-43.540001
70
192
0
VERTEX
8
OBJECT__1
10
15.043000
20
-5.227000
30
-45.152000
70
192
0
VERTEX
8
OBJECT__1
10
21.421000
20
-3.429000
30
-43.848999
70
192
0
VERTEX
8
OBJECT__1
10
21.421000
20
-16.899000
30
-36.917000
70
192
0
VERTEX
8
OBJECT__1
10
15.043000
20
-18.084000
30
-38.098999
70
192
0
VERTEX
8
OBJECT__1
10
15.043000
20
-17.534000
30
-38.775002
70
192
0
VERTEX
8
OBJECT__1
10
15.043000
20
-11.819000
30
-42.808998
70
192
0
VERTEX
8
OBJECT__1
10
21.421000
20
-10.009000
30
-41.917000
70
192
0
VERTEX
8
OBJECT__1
10
21.421000
20
-15.779000
30
-38.209999
70
192
0
VERTEX
8
OBJECT__1
10
21.421000
20
-22.051001
30
-29.125000
70
192
0
VERTEX
8
OBJECT__1
10
15.043000
20
-23.518000
30
-29.737000
70
192
0
VERTEX
8
OBJECT__1
10
15.043000
20
-21.948999
30
-33.348000
70
192
0
VERTEX
8
OBJECT__1
10
21.421000
20
-20.270000
30
-33.027000
70
192
0
VERTEX
8
OBJECT__1
10
15.043000
20
-24.737000
30
-26.931000
70
192
0
VERTEX
8
OBJECT__1
10
21.421000
20
-23.118999
30
-26.788000
70
192
0
VERTEX
8
OBJECT__1
10
0
20
0
30
0
70
128
71
1
72
2
73
3
0
VERTEX
8
OBJECT__1
10
0
20
0
30
0
70
128
71
2
72
4
73
5
0
VERTEX
8
OBJECT__1
10
0
20
0
30
0
70
128
71
5
72
3
73
2
0
VERTEX
8
OBJECT__1
10
0
20
0
30
0
70
128
71
6
72
7
73
8
0
VERTEX
8
OBJECT__1
10
0
20
0
30
0
70
128
71
9
72
8
73
7
0
VERTEX
8
OBJECT__1
10
0
20
0
30
0
70
128
71
7
72
1
73
9
0
VERTEX
8
OBJECT__1
10
0
20
0
30
0
70
128
71
10
72
11
73
12
0
VERTEX
8
OBJECT__1
10
0
20
0
30
0
70
128
71
13
72
14
73
10
0
VERTEX
8
OBJECT__1
10
0
20
0
30
0
70
128
71
15
72
12
73
11
0
VERTEX
8
OBJECT__1
10
0
20
0
30
0
70
128
71
11
72
6
73
15
0
VERTEX
8
OBJECT__1
10
0
20
0
30
0
70
128
71
12
72
13
73
10
0
VERTEX
8
OBJECT__1
10
0
20
0
30
0
70
128
71
16
72
17
73
18
0
VERTEX
8
OBJECT__1
10
0
20
0
30
0
70
128
71
19
72
18
73
17
0
VERTEX
8
OBJECT__1
10
0
20
0
30
0
70
128
71
17
72
14
73
19
0
VERTEX
8
OBJECT__1
10
0
20
0
30
0
70
128
71
20
72
21
73
22
0
VERTEX
8
OBJECT__1
10
0
20
0
30
0
70
128
71
23
72
24
73
20
0
VERTEX
8
OBJECT__1
10
0
20
0
30
0
70
128
71
25
72
22
73
21
0
VERTEX
8
OBJECT__1
10
0
20
0
30
0
70
128
71
21
72
16
73
25
0
VERTEX
8
OBJECT__1
10
0
20
0
30
0
70
128
71
26
72
27
73
28
0
VERTEX
8
OBJECT__1
10
0
20
0
30
0
70
128
71
27
72
29
73
28
0
VERTEX
8
OBJECT__1
10
0
20
0
30
0
70
128
71
28
72
24
73
26
0
VERTEX
8
OBJECT__1
10
0
20
0
30
0
70
128
71
24
72
23
73
26
0
VERTEX
8
OBJECT__1
10
0
20
0
30
0
70
128
71
30
72
31
73
32
0
VERTEX
8
OBJECT__1
10
0
20
0
30
0
70
128
71
33
72
34
73
30
0
VERTEX
8
OBJECT__1
10
0
20
0
30
0
70
128
71
35
72
32
73
31
0
VERTEX
8
OBJECT__1
10
0
20
0
30
0
70
128
71
31
72
29
73
35
0
VERTEX
8
OBJECT__1
10
0
20
0
30
0
70
128
71
36
72
34
73
37
0
VERTEX
8
OBJECT__1
10
0
20
0
30
0
70
128
71
38
72
39
73
36
0
VERTEX
8
OBJECT__1
10
0
20
0
30
0
70
128
71
34
72
33
73
37
0
VERTEX
8
OBJECT__1
10
0
20
0
30
0
70
128
71
40
72
38
73
41
0
VERTEX
8
OBJECT__1
10
0
20
0
30
0
70
128
71
41
72
42
73
40
0
VERTEX
8
OBJECT__1
10
0
20
0
30
0
70
128
71
40
72
39
73
38
0
VERTEX
8
OBJECT__1
10
0
20
0
30
0
70
128
71
43
72
44
73
45
0
VERTEX
8
OBJECT__1
10
0
20
0
30
0
70
128
71
46
72
47
73
48
0
VERTEX
8
OBJECT__1
10
0
20
0
30
0
70
128
71
48
72
45
73
46
0
VERTEX
8
OBJECT__1
10
0
20
0
30
0
70
128
71
46
72
42
73
47
0
VERTEX
8
OBJECT__1
10
0
20
0
30
0
70
128
71
49
72
50
73
51
0
VERTEX
8
OBJECT__1
10
0
20
0
30
0
70
128
71
51
72
52
73
49
0
VERTEX
8
OBJECT__1
10
0
20
0
30
0
70
128
71
44
72
43
73
52
0
VERTEX
8
OBJECT__1
10
0
20
0
30
0
70
128
71
51
72
44
73
52
0
VERTEX
8
OBJECT__1
10
0
20
0
30
0
70
128
71
53
72
54
73
55
0
VERTEX
8
OBJECT__1
10
0
20
0
30
0
70
128
71
56
72
57
73
58
0
VERTEX
8
OBJECT__1
10
0
20
0
30
0
70
128
71
58
72
55
73
56
0
VERTEX
8
OBJECT__1
10
0
20
0
30
0
70
128
71
56
72
50
73
57
0
VERTEX
8
OBJECT__1
10
0
20
0
30
0
70
128
71
59
72
60
73
61
0
VERTEX
8
OBJECT__1
10
0
20
0
30
0
70
128
71
54
72
53
73
62
0
VERTEX
8
OBJECT__1
10
0
20
0
30
0
70
128
71
62
72
61
73
54
0
VERTEX
8
OBJECT__1
10
0
20
0
30
0
70
128
71
63
72
64
73
65
0
VERTEX
8
OBJECT__1
10
0
20
0
30
0
70
128
71
66
72
67
73
68
0
VERTEX
8
OBJECT__1
10
0
20
0
30
0
70
128
71
68
72
65
73
66
0
VERTEX
8
OBJECT__1
10
0
20
0
30
0
70
128
71
66
72
60
73
67
0
VERTEX
8
OBJECT__1
10
0
20
0
30
0
70
128
71
60
72
59
73
67
0
VERTEX
8
OBJECT__1
10
0
20
0
30
0
70
128
71
69
72
70
73
71
0
VERTEX
8
OBJECT__1
10
0
20
0
30
0
70
128
71
64
72
63
73
72
0
VERTEX
8
OBJECT__1
10
0
20
0
30
0
70
128
71
72
72
71
73
64
0
VERTEX
8
OBJECT__1
10
0
20
0
30
0
70
128
71
73
72
74
73
5
0
VERTEX
8
OBJECT__1
10
0
20
0
30
0
70
128
71
70
72
69
73
74
0
VERTEX
8
OBJECT__1
10
0
20
0
30
0
70
128
71
74
72
73
73
70
0
VERTEX
8
OBJECT__1
10
0
20
0
30
0
70
128
71
5
72
4
73
73
0
VERTEX
8
OBJECT__1
10
0
20
0
30
0
70
128
71
71
72
72
73
69
0
VERTEX
8
OBJECT__1
10
0
20
0
30
0
70
128
71
65
72
68
73
63
0
VERTEX
8
OBJECT__1
10
0
20
0
30
0
70
128
71
61
72
62
73
59
0
VERTEX
8
OBJECT__1
10
0
20
0
30
0
70
128
71
55
72
58
73
53
0
VERTEX
8
OBJECT__1
10
0
20
0
30
0
70
128
71
49
72
57
73
50
0
VERTEX
8
OBJECT__1
10
0
20
0
30
0
70
128
71
45
72
48
73
43
0
VERTEX
8
OBJECT__1
10
0
20
0
30
0
70
128
71
41
72
47
73
42
0
VERTEX
8
OBJECT__1
10
0
20
0
30
0
70
128
71
37
72
38
73
36
0
VERTEX
8
OBJECT__1
10
0
20
0
30
0
70
128
71
32
72
33
73
30
0
VERTEX
8
OBJECT__1
10
0
20
0
30
0
70
128
71
27
72
35
73
29
0
VERTEX
8
OBJECT__1
10
0
20
0
30
0
70
128
71
22
72
23
73
20
0
VERTEX
8
OBJECT__1
10
0
20
0
30
0
70
128
71
18
72
25
73
16
0
VERTEX
8
OBJECT__1
10
0
20
0
30
0
70
128
71
13
72
19
73
14
0
VERTEX
8
OBJECT__1
10
0
20
0
30
0
70
128
71
8
72
15
73
6
0
VERTEX
8
OBJECT__1
10
0
20
0
30
0
70
128
71
3
72
9
73
1
0
SEQEND
8
OBJECT__1
0
POLYLINE
8
OBJECT__3
66
1
70
64
71
58
72
58
62
253
0
VERTEX
8
OBJECT__3
10
21.421000
20
24.094999
30
-20.000000
70
192
0
VERTEX
8
OBJECT__3
10
21.421000
20
23.118999
30
-13.212000
70
192
0
VERTEX
8
OBJECT__3
10
21.799999
20
22.653000
30
-13.348000
70
192
0
VERTEX
8
OBJECT__3
10
21.799999
20
19.862000
30
-7.236000
70
192
0
VERTEX
8
OBJECT__3
10
21.421000
20
22.051001
30
-10.875000
70
192
0
VERTEX
8
OBJECT__3
10
21.421000
20
20.270000
30
-6.973000
70
192
0
VERTEX
8
OBJECT__3
10
21.421000
20
16.899000
30
-3.083000
70
192
0
VERTEX
8
OBJECT__3
10
21.799999
20
15.461000
30
-2.157000
70
192
0
VERTEX
8
OBJECT__3
10
21.421000
20
10.009000
30
1.917000
70
192
0
VERTEX
8
OBJECT__3
10
21.799999
20
9.808000
30
1.476000
70
192
0
VERTEX
8
OBJECT__3
10
21.799999
20
3.360000
30
3.369000
70
192
0
VERTEX
8
OBJECT__3
10
21.421000
20
9.190000
30
2.158000
70
192
0
VERTEX
8
OBJECT__3
10
21.799999
20
-3.360000
30
3.369000
70
192
0
VERTEX
8
OBJECT__3
10
21.421000
20
0.000000
30
3.849000
70
192
0
VERTEX
8
OBJECT__3
10
21.421000
20
3.429000
30
3.849000
70
192
0
VERTEX
8
OBJECT__3
10
21.421000
20
-3.429000
30
3.849000
70
192
0
VERTEX
8
OBJECT__3
10
21.421000
20
-9.190000
30
2.158000
70
192
0
VERTEX
8
OBJECT__3
10
21.799999
20
-9.808000
30
1.476000
70
192
0
VERTEX
8
OBJECT__3
10
21.421000
20
-10.009000
30
1.917000
70
192
0
VERTEX
8
OBJECT__3
10
21.421000
20
-15.779000
30
-1.790000
70
192
0
VERTEX
8
OBJECT__3
10
21.799999
20
-15.461000
30
-2.157000
70
192
0
VERTEX
8
OBJECT__3
10
21.799999
20
-19.862000
30
-7.236000
70
192
0
VERTEX
8
OBJECT__3
10
21.421000
20
-16.899000
30
-3.083000
70
192
0
VERTEX
8
OBJECT__3
10
21.421000
20
-20.270000
30
-6.973000
70
192
0
VERTEX
8
OBJECT__3
10
21.421000
20
-22.051001
30
-10.875000
70
192
0
VERTEX
8
OBJECT__3
10
21.799999
20
-22.653000
30
-13.348000
70
192
0
VERTEX
8
OBJECT__3
10
21.421000
20
-24.094999
30
-20.000000
70
192
0
VERTEX
8
OBJECT__3
10
21.799999
20
-23.610001
30
-20.000000
70
192
0
VERTEX
8
OBJECT__3
10
21.421000
20
-23.118999
30
-26.788000
70
192
0
VERTEX
8
OBJECT__3
10
21.799999
20
-22.653000
30
-26.652000
70
192
0
VERTEX
8
OBJECT__3
10
21.799999
20
-19.862000
30
-32.764000
70
192
0
VERTEX
8
OBJECT__3
10
21.421000
20
-22.051001
30
-29.125000
70
192
0
VERTEX
8
OBJECT__3
10
21.421000
20
-20.270000
30
-33.027000
70
192
0
VERTEX
8
OBJECT__3
10
21.421000
20
-16.899000
30
-36.917000
70
192
0
VERTEX
8
OBJECT__3
10
21.799999
20
-15.461000
30
-37.842999
70
192
0
VERTEX
8
OBJECT__3
10
21.421000
20
-10.009000
30
-41.917000
70
192
0
VERTEX
8
OBJECT__3
10
21.799999
20
-9.808000
30
-41.476002
70
192
0
VERTEX
8
OBJECT__3
10
21.799999
20
-3.360000
30
-43.368999
70
192
0
VERTEX
8
OBJECT__3
10
21.421000
20
-9.190000
30
-42.158001
70
192
0
VERTEX
8
OBJECT__3
10
21.421000
20
-3.429000
30
-43.848999
70
192
0
VERTEX
8
OBJECT__3
10
21.421000
20
0.000000
30
-43.848999
70
192
0
VERTEX
8
OBJECT__3
10
21.799999
20
3.360000
30
-43.368999
70
192
0
VERTEX
8
OBJECT__3
10
21.421000
20
3.429000
30
-43.848999
70
192
0
VERTEX
8
OBJECT__3
10
21.421000
20
9.190000
30
-42.158001
70
192
0
VERTEX
8
OBJECT__3
10
21.799999
20
9.808000
30
-41.476002
70
192
0
VERTEX
8
OBJECT__3
10
21.421000
20
10.009000
30
-41.917000
70
192
0
VERTEX
8
OBJECT__3
10
21.421000
20
15.779000
30
-38.209999
70
192
0
VERTEX
8
OBJECT__3
10
21.799999
20
15.461000
30
-37.842999
70
192
0
VERTEX
8
OBJECT__3
10
21.799999
20
19.862000
30
-32.764000
70
192
0
VERTEX
8
OBJECT__3
10
21.421000
20
16.899000
30
-36.917000
70
192
0
VERTEX
8
OBJECT__3
10
21.421000
20
20.270000
30
-33.027000
70
192
0
VERTEX
8
OBJECT__3
10
21.421000
20
22.051001
30
-29.125000
70
192
0
VERTEX
8
OBJECT__3
10
21.799999
20
22.653000
30
-26.652000
70
192
0
VERTEX
8
OBJECT__3
10
21.421000
20
23.118999
30
-26.788000
70
192
0
VERTEX
8
OBJECT__3
10
21.799999
20
23.610001
30
-20.000000
70
192
0
VERTEX
8
OBJECT__3
10
21.421000
20
-15.779000
30
-38.209999
70
192
0
VERTEX
8
OBJECT__3
10
21.421000
20
-23.118999
30
-13.212000
70
192
0
VERTEX
8
OBJECT__3
10
21.421000
20
15.779000
30
-1.790000
70
192
0
VERTEX
8
OBJECT__3
10
0
20
0
30
0
70
128
71
1
72
2
73
3
0
VERTEX
8
OBJECT__3
10
0
20
0
30
0
70
128
71
4
72
3
73
5
0
VERTEX
8
OBJECT__3
10
0
20
0
30
0
70
128
71
3
72
2
73
5
0
VERTEX
8
OBJECT__3
10
0
20
0
30
0
70
128
71
4
72
6
73
7
0
VERTEX
8
OBJECT__3
10
0
20
0
30
0
70
128
71
7
72
8
73
4
0
VERTEX
8
OBJECT__3
10
0
20
0
30
0
70
128
71
9
72
10
73
8
0
VERTEX
8
OBJECT__3
10
0
20
0
30
0
70
128
71
11
72
10
73
12
0
VERTEX
8
OBJECT__3
10
0
20
0
30
0
70
128
71
10
72
9
73
12
0
VERTEX
8
OBJECT__3
10
0
20
0
30
0
70
128
71
13
72
11
73
14
0
VERTEX
8
OBJECT__3
10
0
20
0
30
0
70
128
71
11
72
15
73
14
0
VERTEX
8
OBJECT__3
10
0
20
0
30
0
70
128
71
13
72
16
73
17
0
VERTEX
8
OBJECT__3
10
0
20
0
30
0
70
128
71
17
72
18
73
13
0
VERTEX
8
OBJECT__3
10
0
20
0
30
0
70
128
71
19
72
20
73
21
0
VERTEX
8
OBJECT__3
10
0
20
0
30
0
70
128
71
22
72
21
73
23
0
VERTEX
8
OBJECT__3
10
0
20
0
30
0
70
128
71
21
72
20
73
23
0
VERTEX
8
OBJECT__3
10
0
20
0
30
0
70
128
71
22
72
24
73
25
0
VERTEX
8
OBJECT__3
10
0
20
0
30
0
70
128
71
25
72
26
73
22
0
VERTEX
8
OBJECT__3
10
0
20
0
30
0
70
128
71
27
72
28
73
26
0
VERTEX
8
OBJECT__3
10
0
20
0
30
0
70
128
71
29
72
30
73
28
0
VERTEX
8
OBJECT__3
10
0
20
0
30
0
70
128
71
31
72
30
73
32
0
VERTEX
8
OBJECT__3
10
0
20
0
30
0
70
128
71
30
72
29
73
32
0
VERTEX
8
OBJECT__3
10
0
20
0
30
0
70
128
71
31
72
33
73
34
0
VERTEX
8
OBJECT__3
10
0
20
0
30
0
70
128
71
34
72
35
73
31
0
VERTEX
8
OBJECT__3
10
0
20
0
30
0
70
128
71
36
72
37
73
35
0
VERTEX
8
OBJECT__3
10
0
20
0
30
0
70
128
71
38
72
37
73
39
0
VERTEX
8
OBJECT__3
10
0
20
0
30
0
70
128
71
37
72
36
73
39
0
VERTEX
8
OBJECT__3
10
0
20
0
30
0
70
128
71
38
72
40
73
41
0
VERTEX
8
OBJECT__3
10
0
20
0
30
0
70
128
71
41
72
42
73
38
0
VERTEX
8
OBJECT__3
10
0
20
0
30
0
70
128
71
42
72
43
73
44
0
VERTEX
8
OBJECT__3
10
0
20
0
30
0
70
128
71
44
72
45
73
42
0
VERTEX
8
OBJECT__3
10
0
20
0
30
0
70
128
71
46
72
47
73
48
0
VERTEX
8
OBJECT__3
10
0
20
0
30
0
70
128
71
49
72
48
73
50
0
VERTEX
8
OBJECT__3
10
0
20
0
30
0
70
128
71
48
72
47
73
50
0
VERTEX
8
OBJECT__3
10
0
20
0
30
0
70
128
71
49
72
51
73
52
0
VERTEX
8
OBJECT__3
10
0
20
0
30
0
70
128
71
52
72
53
73
49
0
VERTEX
8
OBJECT__3
10
0
20
0
30
0
70
128
71
54
72
1
73
55
0
VERTEX
8
OBJECT__3
10
0
20
0
30
0
70
128
71
55
72
53
73
54
0
VERTEX
8
OBJECT__3
10
0
20
0
30
0
70
128
71
52
72
54
73
53
0
VERTEX
8
OBJECT__3
10
0
20
0
30
0
70
128
71
50
72
51
73
49
0
VERTEX
8
OBJECT__3
10
0
20
0
30
0
70
128
71
48
72
45
73
46
0
VERTEX
8
OBJECT__3
10
0
20
0
30
0
70
128
71
44
72
46
73
45
0
VERTEX
8
OBJECT__3
10
0
20
0
30
0
70
128
71
41
72
43
73
42
0
VERTEX
8
OBJECT__3
10
0
20
0
30
0
70
128
71
39
72
40
73
38
0
VERTEX
8
OBJECT__3
10
0
20
0
30
0
70
128
71
35
72
56
73
36
0
VERTEX
8
OBJECT__3
10
0
20
0
30
0
70
128
71
34
72
56
73
35
0
VERTEX
8
OBJECT__3
10
0
20
0
30
0
70
128
71
32
72
33
73
31
0
VERTEX
8
OBJECT__3
10
0
20
0
30
0
70
128
71
28
72
27
73
29
0
VERTEX
8
OBJECT__3
10
0
20
0
30
0
70
128
71
26
72
57
73
27
0
VERTEX
8
OBJECT__3
10
0
20
0
30
0
70
128
71
25
72
57
73
26
0
VERTEX
8
OBJECT__3
10
0
20
0
30
0
70
128
71
23
72
24
73
22
0
VERTEX
8
OBJECT__3
10
0
20
0
30
0
70
128
71
21
72
18
73
19
0
VERTEX
8
OBJECT__3
10
0
20
0
30
0
70
128
71
17
72
19
73
18
0
VERTEX
8
OBJECT__3
10
0
20
0
30
0
70
128
71
14
72
16
73
13
0
VERTEX
8
OBJECT__3
10
0
20
0
30
0
70
128
71
12
72
15
73
11
0
VERTEX
8
OBJECT__3
10
0
20
0
30
0
70
128
71
8
72
58
73
9
0
VERTEX
8
OBJECT__3
10
0
20
0
30
0
70
128
71
7
72
58
73
8
0
VERTEX
8
OBJECT__3
10
0
20
0
30
0
70
128
71
5
72
6
73
4
0
VERTEX
8
OBJECT__3
10
0
20
0
30
0
70
128
71
3
72
55
73
1
0
SEQEND
8
OBJECT__3
0
POLYLINE
8
OBJECT__4
66
1
70
64
71
42
72
42
62
253
0
VERTEX
8
OBJECT__4
10
21.799999
20
19.862000
30
-7.236000
70
192
0
VERTEX
8
OBJECT__4
10
21.799999
20
16.180000
30
-8.244000
70
192
0
VERTEX
8
OBJECT__4
10
21.799999
20
19.021000
30
-13.820000
70
192
0
VERTEX
8
OBJECT__4
10
21.799999
20
15.461000
30
-2.157000
70
192
0
VERTEX
8
OBJECT__4
10
21.799999
20
11.756000
30
-3.820000
70
192
0
VERTEX
8
OBJECT__4
10
21.799999
20
-3.360000
30
3.369000
70
192
0
VERTEX
8
OBJECT__4
10
21.799999
20
-9.808000
30
1.476000
70
192
0
VERTEX
8
OBJECT__4
10
21.799999
20
-6.180000
30
-0.979000
70
192
0
VERTEX
8
OBJECT__4
10
21.799999
20
9.808000
30
1.476000
70
192
0
VERTEX
8
OBJECT__4
10
21.799999
20
6.180000
30
-0.979000
70
192
0
VERTEX
8
OBJECT__4
10
21.799999
20
3.360000
30
3.369000
70
192
0
VERTEX
8
OBJECT__4
10
21.799999
20
0.000000
30
0.000000
70
192
0
VERTEX
8
OBJECT__4
10
21.799999
20
-15.461000
30
-2.157000
70
192
0
VERTEX
8
OBJECT__4
10
21.799999
20
-11.756000
30
-3.820000
70
192
0
VERTEX
8
OBJECT__4
10
21.799999
20
-19.862000
30
-7.236000
70
192
0
VERTEX
8
OBJECT__4
10
21.799999
20
-16.180000
30
-8.244000
70
192
0
VERTEX
8
OBJECT__4
10
21.799999
20
-22.653000
30
-13.348000
70
192
0
VERTEX
8
OBJECT__4
10
21.799999
20
-19.021000
30
-13.820000
70
192
0
VERTEX
8
OBJECT__4
10
21.799999
20
-23.610001
30
-20.000000
70
192
0
VERTEX
8
OBJECT__4
10
21.799999
20
-20.000000
30
-20.000000
70
192
0
VERTEX
8
OBJECT__4
10
21.799999
20
-22.653000
30
-26.652000
70
192
0
VERTEX
8
OBJECT__4
10
21.799999
20
-19.021000
30
-26.180000
70
192
0
VERTEX
8
OBJECT__4
10
21.799999
20
3.360000
30
-43.368999
70
192
0
VERTEX
8
OBJECT__4
10
21.799999
20
9.808000
30
-41.476002
70
192
0
VERTEX
8
OBJECT__4
10
21.799999
20
6.180000
30
-39.021000
70
192
0
VERTEX
8
OBJECT__4
10
21.799999
20
15.461000
30
-37.842999
70
192
0
VERTEX
8
OBJECT__4
10
21.799999
20
11.756000
30
-36.180000
70
192
0
VERTEX
8
OBJECT__4
10
21.799999
20
19.862000
30
-32.764000
70
192
0
VERTEX
8
OBJECT__4
10
21.799999
20
16.180000
30
-31.756001
70
192
0
VERTEX
8
OBJECT__4
10
21.799999
20
22.653000
30
-26.652000
70
192
0
VERTEX
8
OBJECT__4
10
21.799999
20
19.021000
30
-26.180000
70
192
0
VERTEX
8
OBJECT__4
10
21.799999
20
-19.862000
30
-32.764000
70
192
0
VERTEX
8
OBJECT__4
10
21.799999
20
-16.180000
30
-31.756001
70
192
0
VERTEX
8
OBJECT__4
10
21.799999
20
-15.461000
30
-37.842999
70
192
0
VERTEX
8
OBJECT__4
10
21.799999
20
-11.756000
30
-36.180000
70
192
0
VERTEX
8
OBJECT__4
10
21.799999
20
-3.360000
30
-43.368999
70
192
0
VERTEX
8
OBJECT__4
10
21.799999
20
0.000000
30
-40.000000
70
192
0
VERTEX
8
OBJECT__4
10
21.799999
20
-6.180000
30
-39.021000
70
192
0
VERTEX
8
OBJECT__4
10
21.799999
20
23.610001
30
-20.000000
70
192
0
VERTEX
8
OBJECT__4
10
21.799999
20
20.000000
30
-20.000000
70
192
0
VERTEX
8
OBJECT__4
10
21.799999
20
22.653000
30
-13.348000
70
192
0
VERTEX
8
OBJECT__4
10
21.799999
20
-9.808000
30
-41.476002
70
192
0
VERTEX
8
OBJECT__4
10
0
20
0
30
0
70
128
71
1
72
2
73
3
0
VERTEX
8
OBJECT__4
10
0
20
0
30
0
70
128
71
4
72
5
73
2
0
VERTEX
8
OBJECT__4
10
0
20
0
30
0
70
128
71
6
72
7
73
8
0
VERTEX
8
OBJECT__4
10
0
20
0
30
0
70
128
71
2
72
1
73
4
0
VERTEX
8
OBJECT__4
10
0
20
0
30
0
70
128
71
9
72
10
73
5
0
VERTEX
8
OBJECT__4
10
0
20
0
30
0
70
128
71
11
72
12
73
10
0
VERTEX
8
OBJECT__4
10
0
20
0
30
0
70
128
71
12
72
11
73
6
0
VERTEX
8
OBJECT__4
10
0
20
0
30
0
70
128
71
5
72
4
73
9
0
VERTEX
8
OBJECT__4
10
0
20
0
30
0
70
128
71
8
72
12
73
6
0
VERTEX
8
OBJECT__4
10
0
20
0
30
0
70
128
71
7
72
13
73
14
0
VERTEX
8
OBJECT__4
10
0
20
0
30
0
70
128
71
13
72
15
73
16
0
VERTEX
8
OBJECT__4
10
0
20
0
30
0
70
128
71
10
72
9
73
11
0
VERTEX
8
OBJECT__4
10
0
20
0
30
0
70
128
71
16
72
14
73
13
0
VERTEX
8
OBJECT__4
10
0
20
0
30
0
70
128
71
14
72
8
73
7
0
VERTEX
8
OBJECT__4
10
0
20
0
30
0
70
128
71
15
72
17
73
18
0
VERTEX
8
OBJECT__4
10
0
20
0
30
0
70
128
71
17
72
19
73
20
0
VERTEX
8
OBJECT__4
10
0
20
0
30
0
70
128
71
21
72
22
73
20
0
VERTEX
8
OBJECT__4
10
0
20
0
30
0
70
128
71
23
72
24
73
25
0
VERTEX
8
OBJECT__4
10
0
20
0
30
0
70
128
71
24
72
26
73
27
0
VERTEX
8
OBJECT__4
10
0
20
0
30
0
70
128
71
26
72
28
73
29
0
VERTEX
8
OBJECT__4
10
0
20
0
30
0
70
128
71
28
72
30
73
31
0
VERTEX
8
OBJECT__4
10
0
20
0
30
0
70
128
71
18
72
16
73
15
0
VERTEX
8
OBJECT__4
10
0
20
0
30
0
70
128
71
20
72
19
73
21
0
VERTEX
8
OBJECT__4
10
0
20
0
30
0
70
128
71
32
72
33
73
22
0
VERTEX
8
OBJECT__4
10
0
20
0
30
0
70
128
71
34
72
35
73
33
0
VERTEX
8
OBJECT__4
10
0
20
0
30
0
70
128
71
36
72
37
73
38
0
VERTEX
8
OBJECT__4
10
0
20
0
30
0
70
128
71
27
72
25
73
24
0
VERTEX
8
OBJECT__4
10
0
20
0
30
0
70
128
71
31
72
29
73
28
0
VERTEX
8
OBJECT__4
10
0
20
0
30
0
70
128
71
30
72
39
73
40
0
VERTEX
8
OBJECT__4
10
0
20
0
30
0
70
128
71
41
72
3
73
40
0
VERTEX
8
OBJECT__4
10
0
20
0
30
0
70
128
71
20
72
18
73
17
0
VERTEX
8
OBJECT__4
10
0
20
0
30
0
70
128
71
33
72
32
73
34
0
VERTEX
8
OBJECT__4
10
0
20
0
30
0
70
128
71
42
72
38
73
35
0
VERTEX
8
OBJECT__4
10
0
20
0
30
0
70
128
71
38
72
42
73
36
0
VERTEX
8
OBJECT__4
10
0
20
0
30
0
70
128
71
29
72
27
73
26
0
VERTEX
8
OBJECT__4
10
0
20
0
30
0
70
128
71
40
72
39
73
41
0
VERTEX
8
OBJECT__4
10
0
20
0
30
0
70
128
71
22
72
21
73
32
0
VERTEX
8
OBJECT__4
10
0
20
0
30
0
70
128
71
36
72
23
73
37
0
VERTEX
8
OBJECT__4
10
0
20
0
30
0
70
128
71
40
72
31
73
30
0
VERTEX
8
OBJECT__4
10
0
20
0
30
0
70
128
71
35
72
34
73
42
0
VERTEX
8
OBJECT__4
10
0
20
0
30
0
70
128
71
3
72
41
73
1
0
VERTEX
8
OBJECT__4
10
0
20
0
30
0
70
128
71
25
72
37
73
23
0
SEQEND
8
OBJECT__4
0
POLYLINE
8
OBJECT__5
66
1
70
64
71
52
72
52
62
253
0
VERTEX
8
OBJECT__5
10
21.799999
20
20.000000
30
-20.000000
70
192
0
VERTEX
8
OBJECT__5
10
21.799999
20
19.021000
30
-13.820000
70
192
0
VERTEX
8
OBJECT__5
10
22.299999
20
18.546000
30
-13.974000
70
192
0
VERTEX
8
OBJECT__5
10
21.799999
20
16.180000
30
-8.244000
70
192
0
VERTEX
8
OBJECT__5
10
22.299999
20
15.776000
30
-8.538000
70
192
0
VERTEX
8
OBJECT__5
10
22.299999
20
17.358999
30
-11.646000
70
192
0
VERTEX
8
OBJECT__5
10
21.799999
20
11.756000
30
-3.820000
70
192
0
VERTEX
8
OBJECT__5
10
22.299999
20
12.075000
30
-4.837000
70
192
0
VERTEX
8
OBJECT__5
10
22.299999
20
11.462000
30
-4.224000
70
192
0
VERTEX
8
OBJECT__5
10
21.799999
20
6.180000
30
-0.979000
70
192
0
VERTEX
8
OBJECT__5
10
22.299999
20
6.026000
30
-1.454000
70
192
0
VERTEX
8
OBJECT__5
10
21.799999
20
0.000000
30
0.000000
70
192
0
VERTEX
8
OBJECT__5
10
22.299999
20
0.000000
30
-0.500000
70
192
0
VERTEX
8
OBJECT__5
10
22.299999
20
4.309000
30
-1.182000
70
192
0
VERTEX
8
OBJECT__5
10
21.799999
20
-6.180000
30
-0.979000
70
192
0
VERTEX
8
OBJECT__5
10
22.299999
20
-4.309000
30
-1.182000
70
192
0
VERTEX
8
OBJECT__5
10
22.299999
20
-6.026000
30
-1.454000
70
192
0
VERTEX
8
OBJECT__5
10
21.799999
20
-11.756000
30
-3.820000
70
192
0
VERTEX
8
OBJECT__5
10
22.299999
20
-11.462000
30
-4.224000
70
192
0
VERTEX
8
OBJECT__5
10
21.799999
20
-16.180000
30
-8.244000
70
192
0
VERTEX
8
OBJECT__5
10
22.299999
20
-15.776000
30
-8.538000
70
192
0
VERTEX
8
OBJECT__5
10
22.299999
20
-12.075000
30
-4.837000
70
192
0
VERTEX
8
OBJECT__5
10
21.799999
20
-19.021000
30
-13.820000
70
192
0
VERTEX
8
OBJECT__5
10
22.299999
20
-17.358999
30
-11.646000
70
192
0
VERTEX
8
OBJECT__5
10
22.299999
20
-18.546000
30
-13.974000
70
192
0
VERTEX
8
OBJECT__5
10
21.799999
20
-20.000000
30
-20.000000
70
192
0
VERTEX
8
OBJECT__5
10
22.299999
20
-19.500000
30
-20.000000
70
192
0
VERTEX
8
OBJECT__5
10
21.799999
20
-19.021000
30
-26.180000
70
192
0
VERTEX
8
OBJECT__5
10
22.299999
20
-18.546000
30
-26.025999
70
192
0
VERTEX
8
OBJECT__5
10
21.799999
20
-16.180000
30
-31.756001
70
192
0
VERTEX
8
OBJECT__5
10
22.299999
20
-15.776000
30
-31.462000
70
192
0
VERTEX
8
OBJECT__5
10
22.299999
20
-17.358999
30
-28.354000
70
192
0
VERTEX
8
OBJECT__5
10
21.799999
20
-11.756000
30
-36.180000
70
192
0
VERTEX
8
OBJECT__5
10
22.299999
20
-12.075000
30
-35.162998
70
192
0
VERTEX
8
OBJECT__5
10
22.299999
20
-11.462000
30
-35.776001
70
192
0
VERTEX
8
OBJECT__5
10
21.799999
20
-6.180000
30
-39.021000
70
192
0
VERTEX
8
OBJECT__5
10
22.299999
20
-6.026000
30
-38.546001
70
192
0
VERTEX
8
OBJECT__5
10
21.799999
20
0.000000
30
-40.000000
70
192
0
VERTEX
8
OBJECT__5
10
22.299999
20
0.000000
30
-39.500000
70
192
0
VERTEX
8
OBJECT__5
10
22.299999
20
-4.309000
30
-38.818001
70
192
0
VERTEX
8
OBJECT__5
10
21.799999
20
6.180000
30
-39.021000
70
192
0
VERTEX
8
OBJECT__5
10
22.299999
20
4.309000
30
-38.818001
70
192
0
VERTEX
8
OBJECT__5
10
22.299999
20
6.026000
30
-38.546001
70
192
0
VERTEX
8
OBJECT__5
10
21.799999
20
11.756000
30
-36.180000
70
192
0
VERTEX
8
OBJECT__5
10
22.299999
20
11.462000
30
-35.776001
70
192
0
VERTEX
8
OBJECT__5
10
21.799999
20
16.180000
30
-31.756001
70
192
0
VERTEX
8
OBJECT__5
10
22.299999
20
15.776000
30
-31.462000
70
192
0
VERTEX
8
OBJECT__5
10
22.299999
20
12.075000
30
-35.162998
70
192
0
VERTEX
8
OBJECT__5
10
21.799999
20
19.021000
30
-26.180000
70
192
0
VERTEX
8
OBJECT__5
10
22.299999
20
17.358999
30
-28.354000
70
192
0
VERTEX
8
OBJECT__5
10
22.299999
20
18.546000
30
-26.025999
70
192
0
VERTEX
8
OBJECT__5
10
22.299999
20
19.500000
30
-20.000000
70
192
0
VERTEX
8
OBJECT__5
10
0
20
0
30
0
70
128
71
1
72
2
73
3
0
VERTEX
8
OBJECT__5
10
0
20
0
30
0
70
128
71
4
72
5
73
6
0
VERTEX
8
OBJECT__5
10
0
20
0
30
0
70
128
71
6
72
2
73
4
0
VERTEX
8
OBJECT__5
10
0
20
0
30
0
70
128
71
4
72
7
73
8
0
VERTEX
8
OBJECT__5
10
0
20
0
30
0
70
128
71
7
72
9
73
8
0
VERTEX
8
OBJECT__5
10
0
20
0
30
0
70
128
71
10
72
11
73
9
0
VERTEX
8
OBJECT__5
10
0
20
0
30
0
70
128
71
12
72
13
73
14
0
VERTEX
8
OBJECT__5
10
0
20
0
30
0
70
128
71
14
72
10
73
12
0
VERTEX
8
OBJECT__5
10
0
20
0
30
0
70
128
71
12
72
15
73
16
0
VERTEX
8
OBJECT__5
10
0
20
0
30
0
70
128
71
15
72
17
73
16
0
VERTEX
8
OBJECT__5
10
0
20
0
30
0
70
128
71
15
72
18
73
19
0
VERTEX
8
OBJECT__5
10
0
20
0
30
0
70
128
71
20
72
21
73
22
0
VERTEX
8
OBJECT__5
10
0
20
0
30
0
70
128
71
22
72
18
73
20
0
VERTEX
8
OBJECT__5
10
0
20
0
30
0
70
128
71
20
72
23
73
24
0
VERTEX
8
OBJECT__5
10
0
20
0
30
0
70
128
71
23
72
25
73
24
0
VERTEX
8
OBJECT__5
10
0
20
0
30
0
70
128
71
26
72
27
73
25
0
VERTEX
8
OBJECT__5
10
0
20
0
30
0
70
128
71
28
72
29
73
27
0
VERTEX
8
OBJECT__5
10
0
20
0
30
0
70
128
71
30
72
31
73
32
0
VERTEX
8
OBJECT__5
10
0
20
0
30
0
70
128
71
32
72
28
73
30
0
VERTEX
8
OBJECT__5
10
0
20
0
30
0
70
128
71
30
72
33
73
34
0
VERTEX
8
OBJECT__5
10
0
20
0
30
0
70
128
71
33
72
35
73
34
0
VERTEX
8
OBJECT__5
10
0
20
0
30
0
70
128
71
36
72
37
73
35
0
VERTEX
8
OBJECT__5
10
0
20
0
30
0
70
128
71
38
72
39
73
40
0
VERTEX
8
OBJECT__5
10
0
20
0
30
0
70
128
71
40
72
36
73
38
0
VERTEX
8
OBJECT__5
10
0
20
0
30
0
70
128
71
38
72
41
73
42
0
VERTEX
8
OBJECT__5
10
0
20
0
30
0
70
128
71
41
72
43
73
42
0
VERTEX
8
OBJECT__5
10
0
20
0
30
0
70
128
71
41
72
44
73
45
0
VERTEX
8
OBJECT__5
10
0
20
0
30
0
70
128
71
46
72
47
73
48
0
VERTEX
8
OBJECT__5
10
0
20
0
30
0
70
128
71
48
72
44
73
46
0
VERTEX
8
OBJECT__5
10
0
20
0
30
0
70
128
71
46
72
49
73
50
0
VERTEX
8
OBJECT__5
10
0
20
0
30
0
70
128
71
49
72
51
73
50
0
VERTEX
8
OBJECT__5
10
0
20
0
30
0
70
128
71
49
72
1
73
52
0
VERTEX
8
OBJECT__5
10
0
20
0
30
0
70
128
71
52
72
51
73
49
0
VERTEX
8
OBJECT__5
10
0
20
0
30
0
70
128
71
50
72
47
73
46
0
VERTEX
8
OBJECT__5
10
0
20
0
30
0
70
128
71
48
72
45
73
44
0
VERTEX
8
OBJECT__5
10
0
20
0
30
0
70
128
71
45
72
43
73
41
0
VERTEX
8
OBJECT__5
10
0
20
0
30
0
70
128
71
42
72
39
73
38
0
VERTEX
8
OBJECT__5
10
0
20
0
30
0
70
128
71
40
72
37
73
36
0
VERTEX
8
OBJECT__5
10
0
20
0
30
0
70
128
71
35
72
33
73
36
0
VERTEX
8
OBJECT__5
10
0
20
0
30
0
70
128
71
34
72
31
73
30
0
VERTEX
8
OBJECT__5
10
0
20
0
30
0
70
128
71
32
72
29
73
28
0
VERTEX
8
OBJECT__5
10
0
20
0
30
0
70
128
71
27
72
26
73
28
0
VERTEX
8
OBJECT__5
10
0
20
0
30
0
70
128
71
25
72
23
73
26
0
VERTEX
8
OBJECT__5
10
0
20
0
30
0
70
128
71
24
72
21
73
20
0
VERTEX
8
OBJECT__5
10
0
20
0
30
0
70
128
71
22
72
19
73
18
0
VERTEX
8
OBJECT__5
10
0
20
0
30
0
70
128
71
19
72
17
73
15
0
VERTEX
8
OBJECT__5
10
0
20
0
30
0
70
128
71
16
72
13
73
12
0
VERTEX
8
OBJECT__5
10
0
20
0
30
0
70
128
71
14
72
11
73
10
0
VERTEX
8
OBJECT__5
10
0
20
0
30
0
70
128
71
9
72
7
73
10
0
VERTEX
8
OBJECT__5
10
0
20
0
30
0
70
128
71
8
72
5
73
4
0
VERTEX
8
OBJECT__5
10
0
20
0
30
0
70
128
71
6
72
3
73
2
0
VERTEX
8
OBJECT__5
10
0
20
0
30
0
70
128
71
3
72
52
73
1
0
SEQEND
8
OBJECT__5
0
POLYLINE
8
OBJECT__6
66
1
70
64
71
46
72
46
62
253
0
VERTEX
8
OBJECT__6
10
24.799999
20
-19.500000
30
-20.000000
70
192
0
VERTEX
8
OBJECT__6
10
24.799999
20
-17.569000
30
-11.539000
70
192
0
VERTEX
8
OBJECT__6
10
22.299999
20
-18.546000
30
-13.974000
70
192
0
VERTEX
8
OBJECT__6
10
22.299999
20
-17.358999
30
-11.646000
70
192
0
VERTEX
8
OBJECT__6
10
24.799999
20
-12.158000
30
-4.754000
70
192
0
VERTEX
8
OBJECT__6
10
22.299999
20
-12.075000
30
-4.837000
70
192
0
VERTEX
8
OBJECT__6
10
22.299999
20
-15.776000
30
-8.538000
70
192
0
VERTEX
8
OBJECT__6
10
24.799999
20
-4.339000
30
-0.989000
70
192
0
VERTEX
8
OBJECT__6
10
22.299999
20
-6.026000
30
-1.454000
70
192
0
VERTEX
8
OBJECT__6
10
22.299999
20
-4.309000
30
-1.182000
70
192
0
VERTEX
8
OBJECT__6
10
22.299999
20
-11.462000
30
-4.224000
70
192
0
VERTEX
8
OBJECT__6
10
24.799999
20
4.339000
30
-0.989000
70
192
0
VERTEX
8
OBJECT__6
10
22.299999
20
0.000000
30
-0.500000
70
192
0
VERTEX
8
OBJECT__6
10
22.299999
20
4.309000
30
-1.182000
70
192
0
VERTEX
8
OBJECT__6
10
24.799999
20
12.158000
30
-4.754000
70
192
0
VERTEX
8
OBJECT__6
10
22.299999
20
11.462000
30
-4.224000
70
192
0
VERTEX
8
OBJECT__6
10
22.299999
20
6.026000
30
-1.454000
70
192
0
VERTEX
8
OBJECT__6
10
22.299999
20
12.075000
30
-4.837000
70
192
0
VERTEX
8
OBJECT__6
10
24.799999
20
17.569000
30
-11.539000
70
192
0
VERTEX
8
OBJECT__6
10
22.299999
20
15.776000
30
-8.538000
70
192
0
VERTEX
8
OBJECT__6
10
22.299999
20
17.358999
30
-11.646000
70
192
0
VERTEX
8
OBJECT__6
10
24.799999
20
19.500000
30
-20.000000
70
192
0
VERTEX
8
OBJECT__6
10
22.299999
20
19.500000
30
-20.000000
70
192
0
VERTEX
8
OBJECT__6
10
22.299999
20
18.546000
30
-13.974000
70
192
0
VERTEX
8
OBJECT__6
10
24.799999
20
17.569000
30
-28.461000
70
192
0
VERTEX
8
OBJECT__6
10
22.299999
20
18.546000
30
-26.025999
70
192
0
VERTEX
8
OBJECT__6
10
22.299999
20
17.358999
30
-28.354000
70
192
0
VERTEX
8
OBJECT__6
10
24.799999
20
12.158000
30
-35.245998
70
192
0
VERTEX
8
OBJECT__6
10
22.299999
20
12.075000
30
-35.162998
70
192
0
VERTEX
8
OBJECT__6
10
22.299999
20
15.776000
30
-31.462000
70
192
0
VERTEX
8
OBJECT__6
10
24.799999
20
4.339000
30
-39.011002
70
192
0
VERTEX
8
OBJECT__6
10
22.299999
20
6.026000
30
-38.546001
70
192
0
VERTEX
8
OBJECT__6
10
22.299999
20
11.462000
30
-35.776001
70
192
0
VERTEX
8
OBJECT__6
10
22.299999
20
4.309000
30
-38.818001
70
192
0
VERTEX
8
OBJECT__6
10
24.799999
20
-4.339000
30
-39.011002
70
192
0
VERTEX
8
OBJECT__6
10
22.299999
20
-4.309000
30
-38.818001
70
192
0
VERTEX
8
OBJECT__6
10
22.299999
20
0.000000
30
-39.500000
70
192
0
VERTEX
8
OBJECT__6
10
24.799999
20
-12.158000
30
-35.245998
70
192
0
VERTEX
8
OBJECT__6
10
22.299999
20
-11.462000
30
-35.776001
70
192
0
VERTEX
8
OBJECT__6
10
22.299999
20
-6.026000
30
-38.546001
70
192
0
VERTEX
8
OBJECT__6
10
22.299999
20
-12.075000
30
-35.162998
70
192
0
VERTEX
8
OBJECT__6
10
24.799999
20
-17.569000
30
-28.461000
70
192
0
VERTEX
8
OBJECT__6
10
22.299999
20
-15.776000
30
-31.462000
70
192
0
VERTEX
8
OBJECT__6
10
22.299999
20
-17.358999
30
-28.354000
70
192
0
VERTEX
8
OBJECT__6
10
22.299999
20
-19.500000
30
-20.000000
70
192
0
VERTEX
8
OBJECT__6
10
22.299999
20
-18.546000
30
-26.025999
70
192
0
VERTEX
8
OBJECT__6
10
0
20
0
30
0
70
128
71
1
72
2
73
3
0
VERTEX
8
OBJECT__6
10
0
20
0
30
0
70
128
71
2
72
4
73
3
0
VERTEX
8
OBJECT__6
10
0
20
0
30
0
70
128
71
5
72
6
73
7
0
VERTEX
8
OBJECT__6
10
0
20
0
30
0
70
128
71
7
72
2
73
5
0
VERTEX
8
OBJECT__6
10
0
20
0
30
0
70
128
71
5
72
8
73
9
0
VERTEX
8
OBJECT__6
10
0
20
0
30
0
70
128
71
8
72
10
73
9
0
VERTEX
8
OBJECT__6
10
0
20
0
30
0
70
128
71
9
72
11
73
5
0
VERTEX
8
OBJECT__6
10
0
20
0
30
0
70
128
71
8
72
12
73
13
0
VERTEX
8
OBJECT__6
10
0
20
0
30
0
70
128
71
12
72
14
73
13
0
VERTEX
8
OBJECT__6
10
0
20
0
30
0
70
128
71
15
72
16
73
17
0
VERTEX
8
OBJECT__6
10
0
20
0
30
0
70
128
71
17
72
12
73
15
0
VERTEX
8
OBJECT__6
10
0
20
0
30
0
70
128
71
15
72
18
73
16
0
VERTEX
8
OBJECT__6
10
0
20
0
30
0
70
128
71
15
72
19
73
20
0
VERTEX
8
OBJECT__6
10
0
20
0
30
0
70
128
71
19
72
21
73
20
0
VERTEX
8
OBJECT__6
10
0
20
0
30
0
70
128
71
22
72
23
73
24
0
VERTEX
8
OBJECT__6
10
0
20
0
30
0
70
128
71
24
72
19
73
22
0
VERTEX
8
OBJECT__6
10
0
20
0
30
0
70
128
71
22
72
25
73
26
0
VERTEX
8
OBJECT__6
10
0
20
0
30
0
70
128
71
25
72
27
73
26
0
VERTEX
8
OBJECT__6
10
0
20
0
30
0
70
128
71
28
72
29
73
30
0
VERTEX
8
OBJECT__6
10
0
20
0
30
0
70
128
71
30
72
25
73
28
0
VERTEX
8
OBJECT__6
10
0
20
0
30
0
70
128
71
28
72
31
73
32
0
VERTEX
8
OBJECT__6
10
0
20
0
30
0
70
128
71
32
72
33
73
28
0
VERTEX
8
OBJECT__6
10
0
20
0
30
0
70
128
71
31
72
34
73
32
0
VERTEX
8
OBJECT__6
10
0
20
0
30
0
70
128
71
35
72
36
73
37
0
VERTEX
8
OBJECT__6
10
0
20
0
30
0
70
128
71
37
72
31
73
35
0
VERTEX
8
OBJECT__6
10
0
20
0
30
0
70
128
71
38
72
39
73
40
0
VERTEX
8
OBJECT__6
10
0
20
0
30
0
70
128
71
38
72
41
73
39
0
VERTEX
8
OBJECT__6
10
0
20
0
30
0
70
128
71
40
72
35
73
38
0
VERTEX
8
OBJECT__6
10
0
20
0
30
0
70
128
71
38
72
42
73
43
0
VERTEX
8
OBJECT__6
10
0
20
0
30
0
70
128
71
42
72
44
73
43
0
VERTEX
8
OBJECT__6
10
0
20
0
30
0
70
128
71
1
72
45
73
46
0
VERTEX
8
OBJECT__6
10
0
20
0
30
0
70
128
71
46
72
42
73
1
0
VERTEX
8
OBJECT__6
10
0
20
0
30
0
70
128
71
46
72
44
73
42
0
VERTEX
8
OBJECT__6
10
0
20
0
30
0
70
128
71
43
72
41
73
38
0
VERTEX
8
OBJECT__6
10
0
20
0
30
0
70
128
71
40
72
36
73
35
0
VERTEX
8
OBJECT__6
10
0
20
0
30
0
70
128
71
37
72
34
73
31
0
VERTEX
8
OBJECT__6
10
0
20
0
30
0
70
128
71
33
72
29
73
28
0
VERTEX
8
OBJECT__6
10
0
20
0
30
0
70
128
71
30
72
27
73
25
0
VERTEX
8
OBJECT__6
10
0
20
0
30
0
70
128
71
26
72
23
73
22
0
VERTEX
8
OBJECT__6
10
0
20
0
30
0
70
128
71
24
72
21
73
19
0
VERTEX
8
OBJECT__6
10
0
20
0
30
0
70
128
71
20
72
18
73
15
0
VERTEX
8
OBJECT__6
10
0
20
0
30
0
70
128
71
17
72
14
73
12
0
VERTEX
8
OBJECT__6
10
0
20
0
30
0
70
128
71
13
72
10
73
8
0
VERTEX
8
OBJECT__6
10
0
20
0
30
0
70
128
71
11
72
6
73
5
0
VERTEX
8
OBJECT__6
10
0
20
0
30
0
70
128
71
7
72
4
73
2
0
VERTEX
8
OBJECT__6
10
0
20
0
30
0
70
128
71
3
72
45
73
1
0
SEQEND
8
OBJECT__6
0
POLYLINE
8
OBJECT__7
66
1
70
64
71
4
72
2
62
253
0
VERTEX
8
OBJECT__7
10
68.699997
20
7.400000
30
5.406000
70
192
0
VERTEX
8
OBJECT__7
10
72.900002
20
7.400000
30
5.406000
70
192
0
VERTEX
8
OBJECT__7
10
72.900002
20
7.400000
30
-8.453000
70
192
0
VERTEX
8
OBJECT__7
10
68.699997
20
7.400000
30
-8.453000
70
192
0
VERTEX
8
OBJECT__7
10
0
20
0
30
0
70
128
71
1
72
2
73
3
0
VERTEX
8
OBJECT__7
10
0
20
0
30
0
70
128
71
3
72
4
73
1
0
SEQEND
8
OBJECT__7
0
POLYLINE
8
OBJECT__8
66
1
70
64
71
6
72
4
62
253
0
VERTEX
8
OBJECT__8
10
68.699997
20
9.088000
30
-14.753000
70
192
0
VERTEX
8
OBJECT__8
10
72.900002
20
9.088000
30
-14.753000
70
192
0
VERTEX
8
OBJECT__8
10
72.900002
20
13.700000
30
-19.365000
70
192
0
VERTEX
8
OBJECT__8
10
68.699997
20
7.400000
30
-8.453000
70
192
0
VERTEX
8
OBJECT__8
10
72.900002
20
7.400000
30
-8.453000
70
192
0
VERTEX
8
OBJECT__8
10
68.699997
20
13.700000
30
-19.365000
70
192
0
VERTEX
8
OBJECT__8
10
0
20
0
30
0
70
128
71
1
72
2
73
3
0
VERTEX
8
OBJECT__8
10
0
20
0
30
0
70
128
71
4
72
5
73
2
0
VERTEX
8
OBJECT__8
10
0
20
0
30
0
70
128
71
2
72
1
73
4
0
VERTEX
8
OBJECT__8
10
0
20
0
30
0
70
128
71
3
72
6
73
1
0
SEQEND
8
OBJECT__8
0
POLYLINE
8
OBJECT__10
66
1
70
64
71
4
72
2
62
253
0
VERTEX
8
OBJECT__10
10
68.699997
20
25.702000
30
-26.295000
70
192
0
VERTEX
8
OBJECT__10
10
68.699997
20
13.700000
30
-19.365000
70
192
0
VERTEX
8
OBJECT__10
10
72.900002
20
13.700000
30
-19.365000
70
192
0
VERTEX
8
OBJECT__10
10
72.900002
20
25.702000
30
-26.295000
70
192
0
VERTEX
8
OBJECT__10
10
0
20
0
30
0
70
128
71
1
72
2
73
3
0
VERTEX
8
OBJECT__10
10
0
20
0
30
0
70
128
71
3
72
4
73
1
0
SEQEND
8
OBJECT__10
0
POLYLINE
8
OBJECT__11
66
1
70
64
71
4
72
2
62
253
0
VERTEX
8
OBJECT__11
10
68.699997
20
25.702000
30
-26.295000
70
192
0
VERTEX
8
OBJECT__11
10
72.900002
20
25.702000
30
-26.295000
70
192
0
VERTEX
8
OBJECT__11
10
72.900002
20
26.164000
30
-27.434000
70
192
0
VERTEX
8
OBJECT__11
10
68.699997
20
26.164000
30
-27.434000
70
192
0
VERTEX
8
OBJECT__11
10
0
20
0
30
0
70
128
71
1
72
2
73
3
0
VERTEX
8
OBJECT__11
10
0
20
0
30
0
70
128
71
3
72
4
73
1
0
SEQEND
8
OBJECT__11
0
POLYLINE
8
OBJECT__12
66
1
70
64
71
4
72
2
62
253
0
VERTEX
8
OBJECT__12
10
68.699997
20
26.164000
30
-27.434000
70
192
0
VERTEX
8
OBJECT__12
10
72.900002
20
26.164000
30
-27.434000
70
192
0
VERTEX
8
OBJECT__12
10
72.900002
20
19.520000
30
-38.942001
70
192
0
VERTEX
8
OBJECT__12
10
68.699997
20
19.520000
30
-38.942001
70
192
0
VERTEX
8
OBJECT__12
10
0
20
0
30
0
70
128
71
1
72
2
73
3
0
VERTEX
8
OBJECT__12
10
0
20
0
30
0
70
128
71
3
72
4
73
1
0
SEQEND
8
OBJECT__12
0
POLYLINE
8
OBJECT__13
66
1
70
64
71
4
72
2
62
253
0
VERTEX
8
OBJECT__13
10
68.699997
20
19.520000
30
-38.942001
70
192
0
VERTEX
8
OBJECT__13
10
72.900002
20
19.520000
30
-38.942001
70
192
0
VERTEX
8
OBJECT__13
10
72.900002
20
18.302000
30
-39.112000
70
192
0
VERTEX
8
OBJECT__13
10
68.699997
20
18.302000
30
-39.112000
70
192
0
VERTEX
8
OBJECT__13
10
0
20
0
30
0
70
128
71
1
72
2
73
3
0
VERTEX
8
OBJECT__13
10
0
20
0
30
0
70
128
71
3
72
4
73
1
0
SEQEND
8
OBJECT__13
0
POLYLINE
8
OBJECT__14
66
1
70
64
71
4
72
2
62
253
0
VERTEX
8
OBJECT__14
10
68.699997
20
6.300000
30
-32.181999
70
192
0
VERTEX
8
OBJECT__14
10
68.699997
20
18.302000
30
-39.112000
70
192
0
VERTEX
8
OBJECT__14
10
72.900002
20
18.302000
30
-39.112000
70
192
0
VERTEX
8
OBJECT__14
10
72.900002
20
6.300000
30
-32.181999
70
192
0
VERTEX
8
OBJECT__14
10
0
20
0
30
0
70
128
71
1
72
2
73
3
0
VERTEX
8
OBJECT__14
10
0
20
0
30
0
70
128
71
3
72
4
73
1
0
SEQEND
8
OBJECT__14
0
POLYLINE
8
OBJECT__15
66
1
70
64
71
6
72
4
62
253
0
VERTEX
8
OBJECT__15
10
68.699997
20
0.000000
30
-30.493999
70
192
0
VERTEX
8
OBJECT__15
10
72.900002
20
0.000000
30
-30.493999
70
192
0
VERTEX
8
OBJECT__15
10
72.900002
20
-6.300000
30
-32.181999
70
192
0
VERTEX
8
OBJECT__15
10
68.699997
20
6.300000
30
-32.181999
70
192
0
VERTEX
8
OBJECT__15
10
72.900002
20
6.300000
30
-32.181999
70
192
0
VERTEX
8
OBJECT__15
10
68.699997
20
-6.300000
30
-32.181999
70
192
0
VERTEX
8
OBJECT__15
10
0
20
0
30
0
70
128
71
1
72
2
73
3
0
VERTEX
8
OBJECT__15
10
0
20
0
30
0
70
128
71
4
72
5
73
2
0
VERTEX
8
OBJECT__15
10
0
20
0
30
0
70
128
71
2
72
1
73
4
0
VERTEX
8
OBJECT__15
10
0
20
0
30
0
70
128
71
3
72
6
73
1
0
SEQEND
8
OBJECT__15
0
POLYLINE
8
OBJECT__16
66
1
70
64
71
4
72
2
62
253
0
VERTEX
8
OBJECT__16
10
68.699997
20
-18.302000
30
-39.112000
70
192
0
VERTEX
8
OBJECT__16
10
68.699997
20
-6.300000
30
-32.181999
70
192
0
VERTEX
8
OBJECT__16
10
72.900002
20
-6.300000
30
-32.181999
70
192
0
VERTEX
8
OBJECT__16
10
72.900002
20
-18.302000
30
-39.112000
70
192
0
VERTEX
8
OBJECT__16
10
0
20
0
30
0
70
128
71
1
72
2
73
3
0
VERTEX
8
OBJECT__16
10
0
20
0
30
0
70
128
71
3
72
4
73
1
0
SEQEND
8
OBJECT__16
0
POLYLINE
8
OBJECT__17
66
1
70
64
71
4
72
2
62
253
0
VERTEX
8
OBJECT__17
10
68.699997
20
-18.302000
30
-39.112000
70
192
0
VERTEX
8
OBJECT__17
10
72.900002
20
-18.302000
30
-39.112000
70
192
0
VERTEX
8
OBJECT__17
10
72.900002
20
-19.520000
30
-38.942001
70
192
0
VERTEX
8
OBJECT__17
10
68.699997
20
-19.520000
30
-38.942001
70
192
0
VERTEX
8
OBJECT__17
10
0
20
0
30
0
70
128
71
1
72
2
73
3
0
VERTEX
8
OBJECT__17
10
0
20
0
30
0
70
128
71
3
72
4
73
1
0
SEQEND
8
OBJECT__17
0
POLYLINE
8
OBJECT__18
66
1
70
64
71
4
72
2
62
253
0
VERTEX
8
OBJECT__18
10
68.699997
20
-19.520000
30
-38.942001
70
192
0
VERTEX
8
OBJECT__18
10
72.900002
20
-19.520000
30
-38.942001
70
192
0
VERTEX
8
OBJECT__18
10
72.900002
20
-26.164000
30
-27.434000
70
192
0
VERTEX
8
OBJECT__18
10
68.699997
20
-26.164000
30
-27.434000
70
192
0
VERTEX
8
OBJECT__18
10
0
20
0
30
0
70
128
71
1
72
2
73
3
0
VERTEX
8
OBJECT__18
10
0
20
0
30
0
70
128
71
3
72
4
73
1
0
SEQEND
8
OBJECT__18
0
POLYLINE
8
OBJECT__19
66
1
70
64
71
4
72
2
62
253
0
VERTEX
8
OBJECT__19
10
68.699997
20
-26.164000
30
-27.434000
70
192
0
VERTEX
8
OBJECT__19
10
72.900002
20
-26.164000
30
-27.434000
70
192
0
VERTEX
8
OBJECT__19
10
72.900002
20
-25.702000
30
-26.295000
70
192
0
VERTEX
8
OBJECT__19
10
68.699997
20
-25.702000
30
-26.295000
70
192
0
VERTEX
8
OBJECT__19
10
0
20
0
30
0
70
128
71
1
72
2
73
3
0
VERTEX
8
OBJECT__19
10
0
20
0
30
0
70
128
71
3
72
4
73
1
0
SEQEND
8
OBJECT__19
0
POLYLINE
8
OBJECT__20
66
1
70
64
71
4
72
2
62
253
0
VERTEX
8
OBJECT__20
10
68.699997
20
-13.700000
30
-19.365000
70
192
0
VERTEX
8
OBJECT__20
10
68.699997
20
-25.702000
30
-26.295000
70
192
0
VERTEX
8
OBJECT__20
10
72.900002
20
-25.702000
30
-26.295000
70
192
0
VERTEX
8
OBJECT__20
10
72.900002
20
-13.700000
30
-19.365000
70
192
0
VERTEX
8
OBJECT__20
10
0
20
0
30
0
70
128
71
1
72
2
73
3
0
VERTEX
8
OBJECT__20
10
0
20
0
30
0
70
128
71
3
72
4
73
1
0
SEQEND
8
OBJECT__20
0
POLYLINE
8
OBJECT__21
66
1
70
64
71
6
72
4
62
253
0
VERTEX
8
OBJECT__21
10
68.699997
20
-9.088000
30
-14.753000
70
192
0
VERTEX
8
OBJECT__21
10
72.900002
20
-9.088000
30
-14.753000
70
192
0
VERTEX
8
OBJECT__21
10
72.900002
20
-7.400000
30
-8.453000
70
192
0
VERTEX
8
OBJECT__21
10
68.699997
20
-13.700000
30
-19.365000
70
192
0
VERTEX
8
OBJECT__21
10
72.900002
20
-13.700000
30
-19.365000
70
192
0
VERTEX
8
OBJECT__21
10
68.699997
20
-7.400000
30
-8.453000
70
192
0
VERTEX
8
OBJECT__21
10
0
20
0
30
0
70
128
71
1
72
2
73
3
0
VERTEX
8
OBJECT__21
10
0
20
0
30
0
70
128
71
4
72
5
73
2
0
VERTEX
8
OBJECT__21
10
0
20
0
30
0
70
128
71
2
72
1
73
4
0
VERTEX
8
OBJECT__21
10
0
20
0
30
0
70
128
71
3
72
6
73
1
0
SEQEND
8
OBJECT__21
0
POLYLINE
8
OBJECT__22
66
1
70
64
71
4
72
2
62
253
0
VERTEX
8
OBJECT__22
10
68.699997
20
-7.400000
30
5.406000
70
192
0
VERTEX
8
OBJECT__22
10
68.699997
20
-7.400000
30
-8.453000
70
192
0
VERTEX
8
OBJECT__22
10
72.900002
20
-7.400000
30
-8.453000
70
192
0
VERTEX
8
OBJECT__22
10
72.900002
20
-7.400000
30
5.406000
70
192
0
VERTEX
8
OBJECT__22
10
0
20
0
30
0
70
128
71
1
72
2
73
3
0
VERTEX
8
OBJECT__22
10
0
20
0
30
0
70
128
71
3
72
4
73
1
0
SEQEND
8
OBJECT__22
0
POLYLINE
8
OBJECT__23
66
1
70
64
71
21
72
19
62
253
0
VERTEX
8
OBJECT__23
10
72.900002
20
-25.702000
30
-26.295000
70
192
0
VERTEX
8
OBJECT__23
10
72.900002
20
-26.164000
30
-27.434000
70
192
0
VERTEX
8
OBJECT__23
10
72.900002
20
-19.520000
30
-38.942001
70
192
0
VERTEX
8
OBJECT__23
10
72.900002
20
-18.302000
30
-39.112000
70
192
0
VERTEX
8
OBJECT__23
10
72.900002
20
-6.300000
30
-32.181999
70
192
0
VERTEX
8
OBJECT__23
10
72.900002
20
-13.700000
30
-19.365000
70
192
0
VERTEX
8
OBJECT__23
10
72.900002
20
7.400000
30
5.406000
70
192
0
VERTEX
8
OBJECT__23
10
72.900002
20
-7.400000
30
5.406000
70
192
0
VERTEX
8
OBJECT__23
10
72.900002
20
-7.400000
30
-8.453000
70
192
0
VERTEX
8
OBJECT__23
10
72.900002
20
6.644000
30
6.376000
70
192
0
VERTEX
8
OBJECT__23
10
72.900002
20
-6.644000
30
6.376000
70
192
0
VERTEX
8
OBJECT__23
10
72.900002
20
19.520000
30
-38.942001
70
192
0
VERTEX
8
OBJECT__23
10
72.900002
20
-9.088000
30
-14.753000
70
192
0
VERTEX
8
OBJECT__23
10
72.900002
20
6.300000
30
-32.181999
70
192
0
VERTEX
8
OBJECT__23
10
72.900002
20
9.088000
30
-14.753000
70
192
0
VERTEX
8
OBJECT__23
10
72.900002
20
7.400000
30
-8.453000
70
192
0
VERTEX
8
OBJECT__23
10
72.900002
20
13.700000
30
-19.365000
70
192
0
VERTEX
8
OBJECT__23
10
72.900002
20
26.164000
30
-27.434000
70
192
0
VERTEX
8
OBJECT__23
10
72.900002
20
25.702000
30
-26.295000
70
192
0
VERTEX
8
OBJECT__23
10
72.900002
20
0.000000
30
-30.493999
70
192
0
VERTEX
8
OBJECT__23
10
72.900002
20
18.302000
30
-39.112000
70
192
0
VERTEX
8
OBJECT__23
10
0
20
0
30
0
70
128
71
1
72
2
73
3
0
VERTEX
8
OBJECT__23
10
0
20
0
30
0
70
128
71
4
72
5
73
6
0
VERTEX
8
OBJECT__23
10
0
20
0
30
0
70
128
71
7
72
8
73
9
0
VERTEX
8
OBJECT__23
10
0
20
0
30
0
70
128
71
7
72
10
73
11
0
VERTEX
8
OBJECT__23
10
0
20
0
30
0
70
128
71
12
72
13
73
14
0
VERTEX
8
OBJECT__23
10
0
20
0
30
0
70
128
71
6
72
1
73
4
0
VERTEX
8
OBJECT__23
10
0
20
0
30
0
70
128
71
13
72
6
73
5
0
VERTEX
8
OBJECT__23
10
0
20
0
30
0
70
128
71
13
72
15
73
16
0
VERTEX
8
OBJECT__23
10
0
20
0
30
0
70
128
71
11
72
8
73
7
0
VERTEX
8
OBJECT__23
10
0
20
0
30
0
70
128
71
13
72
12
73
17
0
VERTEX
8
OBJECT__23
10
0
20
0
30
0
70
128
71
12
72
18
73
19
0
VERTEX
8
OBJECT__23
10
0
20
0
30
0
70
128
71
13
72
20
73
14
0
VERTEX
8
OBJECT__23
10
0
20
0
30
0
70
128
71
5
72
20
73
13
0
VERTEX
8
OBJECT__23
10
0
20
0
30
0
70
128
71
9
72
16
73
7
0
VERTEX
8
OBJECT__23
10
0
20
0
30
0
70
128
71
19
72
17
73
12
0
VERTEX
8
OBJECT__23
10
0
20
0
30
0
70
128
71
3
72
4
73
1
0
VERTEX
8
OBJECT__23
10
0
20
0
30
0
70
128
71
17
72
15
73
13
0
VERTEX
8
OBJECT__23
10
0
20
0
30
0
70
128
71
16
72
9
73
13
0
VERTEX
8
OBJECT__23
10
0
20
0
30
0
70
128
71
14
72
21
73
12
0
SEQEND
8
OBJECT__23
0
POLYLINE
8
OBJECT__24
66
1
70
64
71
4
72
2
62
253
0
VERTEX
8
OBJECT__24
10
68.699997
20
-7.400000
30
5.406000
70
192
0
VERTEX
8
OBJECT__24
10
72.900002
20
-7.400000
30
5.406000
70
192
0
VERTEX
8
OBJECT__24
10
72.900002
20
-6.644000
30
6.376000
70
192
0
VERTEX
8
OBJECT__24
10
68.699997
20
-6.644000
30
6.376000
70
192
0
VERTEX
8
OBJECT__24
10
0
20
0
30
0
70
128
71
1
72
2
73
3
0
VERTEX
8
OBJECT__24
10
0
20
0
30
0
70
128
71
3
72
4
73
1
0
SEQEND
8
OBJECT__24
0
POLYLINE
8
OBJECT__25
66
1
70
64
71
4
72
2
62
253
0
VERTEX
8
OBJECT__25
10
72.900002
20
-6.644000
30
6.376000
70
192
0
VERTEX
8
OBJECT__25
10
72.900002
20
6.644000
30
6.376000
70
192
0
VERTEX
8
OBJECT__25
10
68.699997
20
6.644000
30
6.376000
70
192
0
VERTEX
8
OBJECT__25
10
68.699997
20
-6.644000
30
6.376000
70
192
0
VERTEX
8
OBJECT__25
10
0
20
0
30
0
70
128
71
1
72
2
73
3
0
VERTEX
8
OBJECT__25
10
0
20
0
30
0
70
128
71
3
72
4
73
1
0
SEQEND
8
OBJECT__25
0
POLYLINE
8
OBJECT__26
66
1
70
64
71
4
72
2
62
253
0
VERTEX
8
OBJECT__26
10
68.699997
20
6.644000
30
6.376000
70
192
0
VERTEX
8
OBJECT__26
10
72.900002
20
6.644000
30
6.376000
70
192
0
VERTEX
8
OBJECT__26
10
72.900002
20
7.400000
30
5.406000
70
192
0
VERTEX
8
OBJECT__26
10
68.699997
20
7.400000
30
5.406000
70
192
0
VERTEX
8
OBJECT__26
10
0
20
0
30
0
70
128
71
1
72
2
73
3
0
VERTEX
8
OBJECT__26
10
0
20
0
30
0
70
128
71
3
72
4
73
1
0
SEQEND
8
OBJECT__26
0
POLYLINE
8
OBJECT__27
66
1
70
64
71
11
72
9
62
253
0
VERTEX
8
OBJECT__27
10
48.511002
20
5.000000
30
94.984001
70
192
0
VERTEX
8
OBJECT__27
10
59.716999
20
5.000000
30
97.055000
70
192
0
VERTEX
8
OBJECT__27
10
60.057999
20
5.000000
30
95.781998
70
192
0
VERTEX
8
OBJECT__27
10
28.757000
20
5.000000
30
80.084000
70
192
0
VERTEX
8
OBJECT__27
10
37.199001
20
5.000000
30
93.906998
70
192
0
VERTEX
8
OBJECT__27
10
44.483002
20
5.000000
30
94.599998
70
192
0
VERTEX
8
OBJECT__27
10
60.611000
20
5.000000
30
91.231003
70
192
0
VERTEX
8
OBJECT__27
10
60.344002
20
5.000000
30
79.338997
70
192
0
VERTEX
8
OBJECT__27
10
29.079000
20
5.000000
30
93.750000
70
192
0
VERTEX
8
OBJECT__27
10
32.980999
20
5.000000
30
93.762001
70
192
0
VERTEX
8
OBJECT__27
10
60.605999
20
5.000000
30
90.485001
70
192
0
VERTEX
8
OBJECT__27
10
0
20
0
30
0
70
128
71
1
72
2
73
3
0
VERTEX
8
OBJECT__27
10
0
20
0
30
0
70
128
71
4
72
5
73
6
0
VERTEX
8
OBJECT__27
10
0
20
0
30
0
70
128
71
3
72
7
73
1
0
VERTEX
8
OBJECT__27
10
0
20
0
30
0
70
128
71
6
72
8
73
4
0
VERTEX
8
OBJECT__27
10
0
20
0
30
0
70
128
71
4
72
9
73
10
0
VERTEX
8
OBJECT__27
10
0
20
0
30
0
70
128
71
7
72
11
73
1
0
VERTEX
8
OBJECT__27
10
0
20
0
30
0
70
128
71
10
72
5
73
4
0
VERTEX
8
OBJECT__27
10
0
20
0
30
0
70
128
71
6
72
1
73
8
0
VERTEX
8
OBJECT__27
10
0
20
0
30
0
70
128
71
11
72
8
73
1
0
SEQEND
8
OBJECT__27
0
POLYLINE
8
OBJECT__28
66
1
70
64
71
15
72
14
62
253
0
VERTEX
8
OBJECT__28
10
59.726002
20
0.000000
30
97.434998
70
192
0
VERTEX
8
OBJECT__28
10
59.716999
20
5.000000
30
97.055000
70
192
0
VERTEX
8
OBJECT__28
10
48.511002
20
5.000000
30
94.984001
70
192
0
VERTEX
8
OBJECT__28
10
44.504002
20
0.000000
30
94.903000
70
192
0
VERTEX
8
OBJECT__28
10
29.089001
20
0.000000
30
94.182999
70
192
0
VERTEX
8
OBJECT__28
10
37.199001
20
5.000000
30
93.906998
70
192
0
VERTEX
8
OBJECT__28
10
44.483002
20
5.000000
30
94.599998
70
192
0
VERTEX
8
OBJECT__28
10
32.980999
20
5.000000
30
93.762001
70
192
0
VERTEX
8
OBJECT__28
10
32.980999
20
-5.000000
30
93.762001
70
192
0
VERTEX
8
OBJECT__28
10
44.402000
20
-5.000000
30
94.475998
70
192
0
VERTEX
8
OBJECT__28
10
29.079000
20
-5.000000
30
93.750000
70
192
0
VERTEX
8
OBJECT__28
10
44.493000
20
-5.000000
30
94.489998
70
192
0
VERTEX
8
OBJECT__28
10
55.672001
20
-5.000000
30
96.190002
70
192
0
VERTEX
8
OBJECT__28
10
59.716999
20
-5.000000
30
97.055000
70
192
0
VERTEX
8
OBJECT__28
10
29.079000
20
5.000000
30
93.750000
70
192
0
VERTEX
8
OBJECT__28
10
0
20
0
30
0
70
128
71
1
72
2
73
3
0
VERTEX
8
OBJECT__28
10
0
20
0
30
0
70
128
71
3
72
4
73
1
0
VERTEX
8
OBJECT__28
10
0
20
0
30
0
70
128
71
5
72
4
73
6
0
VERTEX
8
OBJECT__28
10
0
20
0
30
0
70
128
71
4
72
7
73
6
0
VERTEX
8
OBJECT__28
10
0
20
0
30
0
70
128
71
6
72
8
73
5
0
VERTEX
8
OBJECT__28
10
0
20
0
30
0
70
128
71
4
72
5
73
9
0
VERTEX
8
OBJECT__28
10
0
20
0
30
0
70
128
71
9
72
10
73
4
0
VERTEX
8
OBJECT__28
10
0
20
0
30
0
70
128
71
5
72
11
73
9
0
VERTEX
8
OBJECT__28
10
0
20
0
30
0
70
128
71
4
72
12
73
13
0
VERTEX
8
OBJECT__28
10
0
20
0
30
0
70
128
71
13
72
1
73
4
0
VERTEX
8
OBJECT__28
10
0
20
0
30
0
70
128
71
13
72
14
73
1
0
VERTEX
8
OBJECT__28
10
0
20
0
30
0
70
128
71
10
72
12
73
4
0
VERTEX
8
OBJECT__28
10
0
20
0
30
0
70
128
71
8
72
15
73
5
0
VERTEX
8
OBJECT__28
10
0
20
0
30
0
70
128
71
3
72
7
73
4
0
SEQEND
8
OBJECT__28
0
POLYLINE
8
OBJECT__30
66
1
70
64
71
11
72
9
62
253
0
VERTEX
8
OBJECT__30
10
55.672001
20
-5.000000
30
96.190002
70
192
0
VERTEX
8
OBJECT__30
10
60.611000
20
-5.000000
30
91.231003
70
192
0
VERTEX
8
OBJECT__30
10
60.046001
20
-5.000000
30
95.834000
70
192
0
VERTEX
8
OBJECT__30
10
60.605999
20
-5.000000
30
90.485001
70
192
0
VERTEX
8
OBJECT__30
10
28.757000
20
-5.000000
30
80.084000
70
192
0
VERTEX
8
OBJECT__30
10
60.344002
20
-5.000000
30
79.338997
70
192
0
VERTEX
8
OBJECT__30
10
44.402000
20
-5.000000
30
94.475998
70
192
0
VERTEX
8
OBJECT__30
10
44.493000
20
-5.000000
30
94.489998
70
192
0
VERTEX
8
OBJECT__30
10
32.980999
20
-5.000000
30
93.762001
70
192
0
VERTEX
8
OBJECT__30
10
59.716999
20
-5.000000
30
97.055000
70
192
0
VERTEX
8
OBJECT__30
10
29.079000
20
-5.000000
30
93.750000
70
192
0
VERTEX
8
OBJECT__30
10
0
20
0
30
0
70
128
71
1
72
2
73
3
0
VERTEX
8
OBJECT__30
10
0
20
0
30
0
70
128
71
1
72
4
73
2
0
VERTEX
8
OBJECT__30
10
0
20
0
30
0
70
128
71
5
72
6
73
7
0
VERTEX
8
OBJECT__30
10
0
20
0
30
0
70
128
71
6
72
1
73
8
0
VERTEX
8
OBJECT__30
10
0
20
0
30
0
70
128
71
1
72
6
73
4
0
VERTEX
8
OBJECT__30
10
0
20
0
30
0
70
128
71
7
72
9
73
5
0
VERTEX
8
OBJECT__30
10
0
20
0
30
0
70
128
71
3
72
10
73
1
0
VERTEX
8
OBJECT__30
10
0
20
0
30
0
70
128
71
8
72
7
73
6
0
VERTEX
8
OBJECT__30
10
0
20
0
30
0
70
128
71
9
72
11
73
5
0
SEQEND
8
OBJECT__30
0
POLYLINE
8
OBJECT__31
66
1
70
64
71
10
72
8
62
253
0
VERTEX
8
OBJECT__31
10
60.617001
20
0.000000
30
90.959000
70
192
0
VERTEX
8
OBJECT__31
10
60.611000
20
5.000000
30
91.231003
70
192
0
VERTEX
8
OBJECT__31
10
60.057999
20
5.000000
30
95.781998
70
192
0
VERTEX
8
OBJECT__31
10
60.605999
20
5.000000
30
90.485001
70
192
0
VERTEX
8
OBJECT__31
10
59.726002
20
0.000000
30
97.434998
70
192
0
VERTEX
8
OBJECT__31
10
60.046001
20
-5.000000
30
95.834000
70
192
0
VERTEX
8
OBJECT__31
10
60.611000
20
-5.000000
30
91.231003
70
192
0
VERTEX
8
OBJECT__31
10
59.716999
20
-5.000000
30
97.055000
70
192
0
VERTEX
8
OBJECT__31
10
60.605999
20
-5.000000
30
90.485001
70
192
0
VERTEX
8
OBJECT__31
10
59.716999
20
5.000000
30
97.055000
70
192
0
VERTEX
8
OBJECT__31
10
0
20
0
30
0
70
128
71
1
72
2
73
3
0
VERTEX
8
OBJECT__31
10
0
20
0
30
0
70
128
71
1
72
4
73
2
0
VERTEX
8
OBJECT__31
10
0
20
0
30
0
70
128
71
3
72
5
73
1
0
VERTEX
8
OBJECT__31
10
0
20
0
30
0
70
128
71
1
72
5
73
6
0
VERTEX
8
OBJECT__31
10
0
20
0
30
0
70
128
71
6
72
7
73
1
0
VERTEX
8
OBJECT__31
10
0
20
0
30
0
70
128
71
5
72
8
73
6
0
VERTEX
8
OBJECT__31
10
0
20
0
30
0
70
128
71
7
72
9
73
1
0
VERTEX
8
OBJECT__31
10
0
20
0
30
0
70
128
71
3
72
10
73
5
0
SEQEND
8
OBJECT__31
0
POLYLINE
8
OBJECT__32
66
1
70
64
71
5
72
3
62
253
0
VERTEX
8
OBJECT__32
10
28.757000
20
-5.000000
30
80.084000
70
192
0
VERTEX
8
OBJECT__32
10
29.079000
20
-5.000000
30
93.750000
70
192
0
VERTEX
8
OBJECT__32
10
29.089001
20
0.000000
30
94.182999
70
192
0
VERTEX
8
OBJECT__32
10
28.757000
20
5.000000
30
80.084000
70
192
0
VERTEX
8
OBJECT__32
10
29.079000
20
5.000000
30
93.750000
70
192
0
VERTEX
8
OBJECT__32
10
0
20
0
30
0
70
128
71
1
72
2
73
3
0
VERTEX
8
OBJECT__32
10
0
20
0
30
0
70
128
71
3
72
4
73
1
0
VERTEX
8
OBJECT__32
10
0
20
0
30
0
70
128
71
3
72
5
73
4
0
SEQEND
8
OBJECT__32
0
POLYLINE
8
OBJECT__33
66
1
70
64
71
5
72
3
62
253
0
VERTEX
8
OBJECT__33
10
69.699997
20
0.000000
30
-28.660000
70
192
0
VERTEX
8
OBJECT__33
10
69.699997
20
-5.778000
30
-43.293999
70
192
0
VERTEX
8
OBJECT__33
10
69.699997
20
5.778000
30
-43.293999
70
192
0
VERTEX
8
OBJECT__33
10
69.699997
20
-15.994000
30
-37.894001
70
192
0
VERTEX
8
OBJECT__33
10
69.699997
20
15.994000
30
-37.894001
70
192
0
VERTEX
8
OBJECT__33
10
0
20
0
30
0
70
128
71
1
72
2
73
3
0
VERTEX
8
OBJECT__33
10
0
20
0
30
0
70
128
71
1
72
4
73
2
0
VERTEX
8
OBJECT__33
10
0
20
0
30
0
70
128
71
3
72
5
73
1
0
SEQEND
8
OBJECT__33
0
POLYLINE
8
OBJECT__34
66
1
70
64
71
10
72
8
62
253
0
VERTEX
8
OBJECT__34
10
22.700001
20
5.778000
30
-43.293999
70
192
0
VERTEX
8
OBJECT__34
10
22.700001
20
15.994000
30
-37.894001
70
192
0
VERTEX
8
OBJECT__34
10
68.699997
20
15.994000
30
-37.894001
70
192
0
VERTEX
8
OBJECT__34
10
69.699997
20
5.778000
30
-43.293999
70
192
0
VERTEX
8
OBJECT__34
10
69.699997
20
-5.778000
30
-43.293999
70
192
0
VERTEX
8
OBJECT__34
10
22.700001
20
-5.778000
30
-43.293999
70
192
0
VERTEX
8
OBJECT__34
10
68.699997
20
-15.994000
30
-37.894001
70
192
0
VERTEX
8
OBJECT__34
10
69.699997
20
-15.994000
30
-37.894001
70
192
0
VERTEX
8
OBJECT__34
10
22.700001
20
-15.994000
30
-37.894001
70
192
0
VERTEX
8
OBJECT__34
10
69.699997
20
15.994000
30
-37.894001
70
192
0
VERTEX
8
OBJECT__34
10
0
20
0
30
0
70
128
71
1
72
2
73
3
0
VERTEX
8
OBJECT__34
10
0
20
0
30
0
70
128
71
3
72
4
73
1
0
VERTEX
8
OBJECT__34
10
0
20
0
30
0
70
128
71
5
72
6
73
1
0
VERTEX
8
OBJECT__34
10
0
20
0
30
0
70
128
71
6
72
5
73
7
0
VERTEX
8
OBJECT__34
10
0
20
0
30
0
70
128
71
5
72
8
73
7
0
VERTEX
8
OBJECT__34
10
0
20
0
30
0
70
128
71
7
72
9
73
6
0
VERTEX
8
OBJECT__34
10
0
20
0
30
0
70
128
71
1
72
4
73
5
0
VERTEX
8
OBJECT__34
10
0
20
0
30
0
70
128
71
3
72
10
73
4
0
SEQEND
8
OBJECT__34
0
POLYLINE
8
OBJECT__36
66
1
70
64
71
4
72
2
62
253
0
VERTEX
8
OBJECT__36
10
68.699997
20
-15.994000
30
-37.894001
70
192
0
VERTEX
8
OBJECT__36
10
68.699997
20
-19.163000
30
-39.723999
70
192
0
VERTEX
8
OBJECT__36
10
22.700001
20
-19.163000
30
-39.723999
70
192
0
VERTEX
8
OBJECT__36
10
22.700001
20
-15.994000
30
-37.894001
70
192
0
VERTEX
8
OBJECT__36
10
0
20
0
30
0
70
128
71
1
72
2
73
3
0
VERTEX
8
OBJECT__36
10
0
20
0
30
0
70
128
71
3
72
4
73
1
0
SEQEND
8
OBJECT__36
0
POLYLINE
8
OBJECT__37
66
1
70
64
71
6
72
4
62
253
0
VERTEX
8
OBJECT__37
10
22.700001
20
-23.816000
30
-33.750000
70
192
0
VERTEX
8
OBJECT__37
10
22.700001
20
-19.163000
30
-39.723999
70
192
0
VERTEX
8
OBJECT__37
10
68.699997
20
-19.163000
30
-39.723999
70
192
0
VERTEX
8
OBJECT__37
10
68.699997
20
-26.663000
30
-26.733999
70
192
0
VERTEX
8
OBJECT__37
10
22.700001
20
-26.663000
30
-26.733999
70
192
0
VERTEX
8
OBJECT__37
10
68.699997
20
-23.816000
30
-33.750000
70
192
0
VERTEX
8
OBJECT__37
10
0
20
0
30
0
70
128
71
1
72
2
73
3
0
VERTEX
8
OBJECT__37
10
0
20
0
30
0
70
128
71
4
72
5
73
1
0
VERTEX
8
OBJECT__37
10
0
20
0
30
0
70
128
71
1
72
6
73
4
0
VERTEX
8
OBJECT__37
10
0
20
0
30
0
70
128
71
3
72
6
73
1
0
SEQEND
8
OBJECT__37
0
POLYLINE
8
OBJECT__38
66
1
70
64
71
4
72
2
62
253
0
VERTEX
8
OBJECT__38
10
68.699997
20
-23.493999
30
-24.903999
70
192
0
VERTEX
8
OBJECT__38
10
22.700001
20
-23.493999
30
-24.903999
70
192
0
VERTEX
8
OBJECT__38
10
22.700001
20
-26.663000
30
-26.733999
70
192
0
VERTEX
8
OBJECT__38
10
68.699997
20
-26.663000
30
-26.733999
70
192
0
VERTEX
8
OBJECT__38
10
0
20
0
30
0
70
128
71
1
72
2
73
3
0
VERTEX
8
OBJECT__38
10
0
20
0
30
0
70
128
71
3
72
4
73
1
0
SEQEND
8
OBJECT__38
0
POLYLINE
8
OBJECT__39
66
1
70
64
71
4
72
2
62
253
0
VERTEX
8
OBJECT__39
10
68.699997
20
19.163000
30
-39.723999
70
192
0
VERTEX
8
OBJECT__39
10
68.699997
20
15.994000
30
-37.894001
70
192
0
VERTEX
8
OBJECT__39
10
22.700001
20
15.994000
30
-37.894001
70
192
0
VERTEX
8
OBJECT__39
10
22.700001
20
19.163000
30
-39.723999
70
192
0
VERTEX
8
OBJECT__39
10
0
20
0
30
0
70
128
71
1
72
2
73
3
0
VERTEX
8
OBJECT__39
10
0
20
0
30
0
70
128
71
3
72
4
73
1
0
SEQEND
8
OBJECT__39
0
POLYLINE
8
OBJECT__40
66
1
70
64
71
6
72
4
62
253
0
VERTEX
8
OBJECT__40
10
22.700001
20
23.816000
30
-33.750000
70
192
0
VERTEX
8
OBJECT__40
10
22.700001
20
26.663000
30
-26.733999
70
192
0
VERTEX
8
OBJECT__40
10
68.699997
20
26.663000
30
-26.733999
70
192
0
VERTEX
8
OBJECT__40
10
22.700001
20
19.163000
30
-39.723999
70
192
0
VERTEX
8
OBJECT__40
10
68.699997
20
23.816000
30
-33.750000
70
192
0
VERTEX
8
OBJECT__40
10
68.699997
20
19.163000
30
-39.723999
70
192
0
VERTEX
8
OBJECT__40
10
0
20
0
30
0
70
128
71
1
72
2
73
3
0
VERTEX
8
OBJECT__40
10
0
20
0
30
0
70
128
71
4
72
1
73
5
0
VERTEX
8
OBJECT__40
10
0
20
0
30
0
70
128
71
5
72
6
73
4
0
VERTEX
8
OBJECT__40
10
0
20
0
30
0
70
128
71
3
72
5
73
1
0
SEQEND
8
OBJECT__40
0
POLYLINE
8
OBJECT__41
66
1
70
64
71
4
72
2
62
253
0
VERTEX
8
OBJECT__41
10
68.699997
20
26.663000
30
-26.733999
70
192
0
VERTEX
8
OBJECT__41
10
22.700001
20
26.663000
30
-26.733999
70
192
0
VERTEX
8
OBJECT__41
10
22.700001
20
23.493999
30
-24.903999
70
192
0
VERTEX
8
OBJECT__41
10
68.699997
20
23.493999
30
-24.903999
70
192
0
VERTEX
8
OBJECT__41
10
0
20
0
30
0
70
128
71
1
72
2
73
3
0
VERTEX
8
OBJECT__41
10
0
20
0
30
0
70
128
71
3
72
4
73
1
0
SEQEND
8
OBJECT__41
0
POLYLINE
8
OBJECT__42
66
1
70
64
71
10
72
8
62
253
0
VERTEX
8
OBJECT__42
10
22.700001
20
17.285000
30
-3.349000
70
192
0
VERTEX
8
OBJECT__42
10
22.700001
20
7.500000
30
2.798000
70
192
0
VERTEX
8
OBJECT__42
10
68.699997
20
7.500000
30
2.798000
70
192
0
VERTEX
8
OBJECT__42
10
69.699997
20
17.285000
30
-3.349000
70
192
0
VERTEX
8
OBJECT__42
10
22.700001
20
23.062000
30
-13.357000
70
192
0
VERTEX
8
OBJECT__42
10
69.699997
20
23.062000
30
-13.357000
70
192
0
VERTEX
8
OBJECT__42
10
68.699997
20
23.493999
30
-24.903999
70
192
0
VERTEX
8
OBJECT__42
10
69.699997
20
23.493999
30
-24.903999
70
192
0
VERTEX
8
OBJECT__42
10
22.700001
20
23.493999
30
-24.903999
70
192
0
VERTEX
8
OBJECT__42
10
69.699997
20
7.500000
30
2.798000
70
192
0
VERTEX
8
OBJECT__42
10
0
20
0
30
0
70
128
71
1
72
2
73
3
0
VERTEX
8
OBJECT__42
10
0
20
0
30
0
70
128
71
3
72
4
73
1
0
VERTEX
8
OBJECT__42
10
0
20
0
30
0
70
128
71
5
72
1
73
4
0
VERTEX
8
OBJECT__42
10
0
20
0
30
0
70
128
71
5
72
6
73
7
0
VERTEX
8
OBJECT__42
10
0
20
0
30
0
70
128
71
6
72
8
73
7
0
VERTEX
8
OBJECT__42
10
0
20
0
30
0
70
128
71
7
72
9
73
5
0
VERTEX
8
OBJECT__42
10
0
20
0
30
0
70
128
71
4
72
6
73
5
0
VERTEX
8
OBJECT__42
10
0
20
0
30
0
70
128
71
3
72
10
73
4
0
SEQEND
8
OBJECT__42
0
POLYLINE
8
OBJECT__43
66
1
70
64
71
5
72
3
62
253
0
VERTEX
8
OBJECT__43
10
69.699997
20
7.500000
30
-15.670000
70
192
0
VERTEX
8
OBJECT__43
10
69.699997
20
23.493999
30
-24.903999
70
192
0
VERTEX
8
OBJECT__43
10
69.699997
20
23.062000
30
-13.357000
70
192
0
VERTEX
8
OBJECT__43
10
69.699997
20
17.285000
30
-3.349000
70
192
0
VERTEX
8
OBJECT__43
10
69.699997
20
7.500000
30
2.798000
70
192
0
VERTEX
8
OBJECT__43
10
0
20
0
30
0
70
128
71
1
72
2
73
3
0
VERTEX
8
OBJECT__43
10
0
20
0
30
0
70
128
71
3
72
4
73
1
0
VERTEX
8
OBJECT__43
10
0
20
0
30
0
70
128
71
4
72
5
73
1
0
SEQEND
8
OBJECT__43
0
POLYLINE
8
OBJECT__44
66
1
70
64
71
4
72
2
62
253
0
VERTEX
8
OBJECT__44
10
68.699997
20
7.500000
30
6.458000
70
192
0
VERTEX
8
OBJECT__44
10
68.699997
20
7.500000
30
2.798000
70
192
0
VERTEX
8
OBJECT__44
10
22.700001
20
7.500000
30
2.798000
70
192
0
VERTEX
8
OBJECT__44
10
22.700001
20
7.500000
30
6.458000
70
192
0
VERTEX
8
OBJECT__44
10
0
20
0
30
0
70
128
71
1
72
2
73
3
0
VERTEX
8
OBJECT__44
10
0
20
0
30
0
70
128
71
3
72
4
73
1
0
SEQEND
8
OBJECT__44
0
POLYLINE
8
OBJECT__45
66
1
70
64
71
18
72
16
62
253
0
VERTEX
8
OBJECT__45
10
68.699997
20
7.500000
30
2.798000
70
192
0
VERTEX
8
OBJECT__45
10
68.699997
20
7.500000
30
6.458000
70
192
0
VERTEX
8
OBJECT__45
10
68.699997
20
0.000000
30
7.500000
70
192
0
VERTEX
8
OBJECT__45
10
68.699997
20
23.493999
30
-24.903999
70
192
0
VERTEX
8
OBJECT__45
10
68.699997
20
15.994000
30
-37.894001
70
192
0
VERTEX
8
OBJECT__45
10
68.699997
20
23.816000
30
-33.750000
70
192
0
VERTEX
8
OBJECT__45
10
68.699997
20
-23.816000
30
-33.750000
70
192
0
VERTEX
8
OBJECT__45
10
68.699997
20
7.500000
30
-15.670000
70
192
0
VERTEX
8
OBJECT__45
10
68.699997
20
-7.500000
30
-15.670000
70
192
0
VERTEX
8
OBJECT__45
10
68.699997
20
-7.500000
30
2.798000
70
192
0
VERTEX
8
OBJECT__45
10
68.699997
20
19.163000
30
-39.723999
70
192
0
VERTEX
8
OBJECT__45
10
68.699997
20
-15.994000
30
-37.894001
70
192
0
VERTEX
8
OBJECT__45
10
68.699997
20
0.000000
30
-28.660000
70
192
0
VERTEX
8
OBJECT__45
10
68.699997
20
-23.493999
30
-24.903999
70
192
0
VERTEX
8
OBJECT__45
10
68.699997
20
-19.163000
30
-39.723999
70
192
0
VERTEX
8
OBJECT__45
10
68.699997
20
-7.500000
30
6.458000
70
192
0
VERTEX
8
OBJECT__45
10
68.699997
20
26.663000
30
-26.733999
70
192
0
VERTEX
8
OBJECT__45
10
68.699997
20
-26.663000
30
-26.733999
70
192
0
VERTEX
8
OBJECT__45
10
0
20
0
30
0
70
128
71
1
72
2
73
3
0
VERTEX
8
OBJECT__45
10
0
20
0
30
0
70
128
71
4
72
5
73
6
0
VERTEX
8
OBJECT__45
10
0
20
0
30
0
70
128
71
7
72
8
73
9
0
VERTEX
8
OBJECT__45
10
0
20
0
30
0
70
128
71
3
72
10
73
1
0
VERTEX
8
OBJECT__45
10
0
20
0
30
0
70
128
71
1
72
10
73
9
0
VERTEX
8
OBJECT__45
10
0
20
0
30
0
70
128
71
5
72
11
73
6
0
VERTEX
8
OBJECT__45
10
0
20
0
30
0
70
128
71
5
72
4
73
8
0
VERTEX
8
OBJECT__45
10
0
20
0
30
0
70
128
71
7
72
12
73
13
0
VERTEX
8
OBJECT__45
10
0
20
0
30
0
70
128
71
9
72
14
73
7
0
VERTEX
8
OBJECT__45
10
0
20
0
30
0
70
128
71
9
72
8
73
1
0
VERTEX
8
OBJECT__45
10
0
20
0
30
0
70
128
71
8
72
13
73
5
0
VERTEX
8
OBJECT__45
10
0
20
0
30
0
70
128
71
7
72
15
73
12
0
VERTEX
8
OBJECT__45
10
0
20
0
30
0
70
128
71
3
72
16
73
10
0
VERTEX
8
OBJECT__45
10
0
20
0
30
0
70
128
71
13
72
8
73
7
0
VERTEX
8
OBJECT__45
10
0
20
0
30
0
70
128
71
6
72
17
73
4
0
VERTEX
8
OBJECT__45
10
0
20
0
30
0
70
128
71
14
72
18
73
7
0
SEQEND
8
OBJECT__45
0
POLYLINE
8
OBJECT__46
66
1
70
64
71
4
72
2
62
253
0
VERTEX
8
OBJECT__46
10
68.699997
20
-7.500000
30
6.458000
70
192
0
VERTEX
8
OBJECT__46
10
22.700001
20
-7.500000
30
6.458000
70
192
0
VERTEX
8
OBJECT__46
10
22.700001
20
-7.500000
30
2.798000
70
192
0
VERTEX
8
OBJECT__46
10
68.699997
20
-7.500000
30
2.798000
70
192
0
VERTEX
8
OBJECT__46
10
0
20
0
30
0
70
128
71
1
72
2
73
3
0
VERTEX
8
OBJECT__46
10
0
20
0
30
0
70
128
71
3
72
4
73
1
0
SEQEND
8
OBJECT__46
0
POLYLINE
8
OBJECT__47
66
1
70
64
71
10
72
8
62
253
0
VERTEX
8
OBJECT__47
10
22.700001
20
-23.062000
30
-13.357000
70
192
0
VERTEX
8
OBJECT__47
10
22.700001
20
-23.493999
30
-24.903999
70
192
0
VERTEX
8
OBJECT__47
10
68.699997
20
-23.493999
30
-24.903999
70
192
0
VERTEX
8
OBJECT__47
10
69.699997
20
-23.062000
30
-13.357000
70
192
0
VERTEX
8
OBJECT__47
10
69.699997
20
-17.285000
30
-3.349000
70
192
0
VERTEX
8
OBJECT__47
10
22.700001
20
-17.285000
30
-3.349000
70
192
0
VERTEX
8
OBJECT__47
10
68.699997
20
-7.500000
30
2.798000
70
192
0
VERTEX
8
OBJECT__47
10
69.699997
20
-7.500000
30
2.798000
70
192
0
VERTEX
8
OBJECT__47
10
22.700001
20
-7.500000
30
2.798000
70
192
0
VERTEX
8
OBJECT__47
10
69.699997
20
-23.493999
30
-24.903999
70
192
0
VERTEX
8
OBJECT__47
10
0
20
0
30
0
70
128
71
1
72
2
73
3
0
VERTEX
8
OBJECT__47
10
0
20
0
30
0
70
128
71
3
72
4
73
1
0
VERTEX
8
OBJECT__47
10
0
20
0
30
0
70
128
71
5
72
6
73
1
0
VERTEX
8
OBJECT__47
10
0
20
0
30
0
70
128
71
6
72
5
73
7
0
VERTEX
8
OBJECT__47
10
0
20
0
30
0
70
128
71
5
72
8
73
7
0
VERTEX
8
OBJECT__47
10
0
20
0
30
0
70
128
71
7
72
9
73
6
0
VERTEX
8
OBJECT__47
10
0
20
0
30
0
70
128
71
1
72
4
73
5
0
VERTEX
8
OBJECT__47
10
0
20
0
30
0
70
128
71
3
72
10
73
4
0
SEQEND
8
OBJECT__47
0
POLYLINE
8
OBJECT__48
66
1
70
64
71
5
72
3
62
253
0
VERTEX
8
OBJECT__48
10
69.699997
20
-7.500000
30
-15.670000
70
192
0
VERTEX
8
OBJECT__48
10
69.699997
20
-7.500000
30
2.798000
70
192
0
VERTEX
8
OBJECT__48
10
69.699997
20
-17.285000
30
-3.349000
70
192
0
VERTEX
8
OBJECT__48
10
69.699997
20
-23.062000
30
-13.357000
70
192
0
VERTEX
8
OBJECT__48
10
69.699997
20
-23.493999
30
-24.903999
70
192
0
VERTEX
8
OBJECT__48
10
0
20
0
30
0
70
128
71
1
72
2
73
3
0
VERTEX
8
OBJECT__48
10
0
20
0
30
0
70
128
71
3
72
4
73
1
0
VERTEX
8
OBJECT__48
10
0
20
0
30
0
70
128
71
4
72
5
73
1
0
SEQEND
8
OBJECT__48
0
POLYLINE
8
OBJECT__49
66
1
70
64
71
16
72
16
62
253
0
VERTEX
8
OBJECT__49
10
68.699997
20
0.000000
30
7.500000
70
192
0
VERTEX
8
OBJECT__49
10
68.699997
20
7.500000
30
6.458000
70
192
0
VERTEX
8
OBJECT__49
10
61.299999
20
5.150000
30
7.013000
70
192
0
VERTEX
8
OBJECT__49
10
22.700001
20
7.500000
30
6.458000
70
192
0
VERTEX
8
OBJECT__49
10
28.450001
20
5.150000
30
7.013000
70
192
0
VERTEX
8
OBJECT__49
10
28.450001
20
0.000000
30
7.500000
70
192
0
VERTEX
8
OBJECT__49
10
27.340000
20
1.750000
30
7.444000
70
192
0
VERTEX
8
OBJECT__49
10
22.700001
20
1.750000
30
7.444000
70
192
0
VERTEX
8
OBJECT__49
10
27.340000
20
0.000000
30
7.444000
70
192
0
VERTEX
8
OBJECT__49
10
22.700001
20
-7.500000
30
6.458000
70
192
0
VERTEX
8
OBJECT__49
10
28.450001
20
-5.150000
30
7.013000
70
192
0
VERTEX
8
OBJECT__49
10
27.340000
20
-1.750000
30
7.444000
70
192
0
VERTEX
8
OBJECT__49
10
68.699997
20
-7.500000
30
6.458000
70
192
0
VERTEX
8
OBJECT__49
10
61.299999
20
-5.150000
30
7.013000
70
192
0
VERTEX
8
OBJECT__49
10
61.299999
20
0.000000
30
7.500000
70
192
0
VERTEX
8
OBJECT__49
10
22.700001
20
-1.750000
30
7.444000
70
192
0
VERTEX
8
OBJECT__49
10
0
20
0
30
0
70
128
71
1
72
2
73
3
0
VERTEX
8
OBJECT__49
10
0
20
0
30
0
70
128
71
4
72
5
73
3
0
VERTEX
8
OBJECT__49
10
0
20
0
30
0
70
128
71
3
72
2
73
4
0
VERTEX
8
OBJECT__49
10
0
20
0
30
0
70
128
71
6
72
5
73
7
0
VERTEX
8
OBJECT__49
10
0
20
0
30
0
70
128
71
4
72
8
73
7
0
VERTEX
8
OBJECT__49
10
0
20
0
30
0
70
128
71
7
72
5
73
4
0
VERTEX
8
OBJECT__49
10
0
20
0
30
0
70
128
71
7
72
9
73
6
0
VERTEX
8
OBJECT__49
10
0
20
0
30
0
70
128
71
10
72
11
73
12
0
VERTEX
8
OBJECT__49
10
0
20
0
30
0
70
128
71
10
72
13
73
14
0
VERTEX
8
OBJECT__49
10
0
20
0
30
0
70
128
71
14
72
11
73
10
0
VERTEX
8
OBJECT__49
10
0
20
0
30
0
70
128
71
1
72
15
73
14
0
VERTEX
8
OBJECT__49
10
0
20
0
30
0
70
128
71
14
72
13
73
1
0
VERTEX
8
OBJECT__49
10
0
20
0
30
0
70
128
71
6
72
9
73
12
0
VERTEX
8
OBJECT__49
10
0
20
0
30
0
70
128
71
12
72
11
73
6
0
VERTEX
8
OBJECT__49
10
0
20
0
30
0
70
128
71
12
72
16
73
10
0
VERTEX
8
OBJECT__49
10
0
20
0
30
0
70
128
71
3
72
15
73
1
0
SEQEND
8
OBJECT__49
0
POLYLINE
8
OBJECT__50
66
1
70
64
71
5
72
3
62
253
0
VERTEX
8
OBJECT__50
10
22.700001
20
1.750000
30
6.100000
70
192
0
VERTEX
8
OBJECT__50
10
22.700001
20
-1.750000
30
6.100000
70
192
0
VERTEX
8
OBJECT__50
10
27.340000
20
0.000000
30
7.444000
70
192
0
VERTEX
8
OBJECT__50
10
27.340000
20
-1.750000
30
7.444000
70
192
0
VERTEX
8
OBJECT__50
10
27.340000
20
1.750000
30
7.444000
70
192
0
VERTEX
8
OBJECT__50
10
0
20
0
30
0
70
128
71
1
72
2
73
3
0
VERTEX
8
OBJECT__50
10
0
20
0
30
0
70
128
71
2
72
4
73
3
0
VERTEX
8
OBJECT__50
10
0
20
0
30
0
70
128
71
3
72
5
73
1
0
SEQEND
8
OBJECT__50
0
POLYLINE
8
OBJECT__51
66
1
70
64
71
3
72
1
62
253
0
VERTEX
8
OBJECT__51
10
27.340000
20
1.750000
30
7.444000
70
192
0
VERTEX
8
OBJECT__51
10
22.700001
20
1.750000
30
7.444000
70
192
0
VERTEX
8
OBJECT__51
10
22.700001
20
1.750000
30
6.100000
70
192
0
VERTEX
8
OBJECT__51
10
0
20
0
30
0
70
128
71
1
72
2
73
3
0
SEQEND
8
OBJECT__51
0
POLYLINE
8
OBJECT__52
66
1
70
64
71
3
72
1
62
253
0
VERTEX
8
OBJECT__52
10
22.700001
20
-1.750000
30
6.100000
70
192
0
VERTEX
8
OBJECT__52
10
22.700001
20
-1.750000
30
7.444000
70
192
0
VERTEX
8
OBJECT__52
10
27.340000
20
-1.750000
30
7.444000
70
192
0
VERTEX
8
OBJECT__52
10
0
20
0
30
0
70
128
71
1
72
2
73
3
0
SEQEND
8
OBJECT__52
0
POLYLINE
8
OBJECT__53
66
1
70
64
71
4
72
2
62
253
0
VERTEX
8
OBJECT__53
10
28.450001
20
-5.150000
30
-1.000000
70
192
0
VERTEX
8
OBJECT__53
10
28.450001
20
-5.150000
30
7.013000
70
192
0
VERTEX
8
OBJECT__53
10
61.299999
20
-5.150000
30
7.013000
70
192
0
VERTEX
8
OBJECT__53
10
61.299999
20
-5.150000
30
-1.000000
70
192
0
VERTEX
8
OBJECT__53
10
0
20
0
30
0
70
128
71
1
72
2
73
3
0
VERTEX
8
OBJECT__53
10
0
20
0
30
0
70
128
71
3
72
4
73
1
0
SEQEND
8
OBJECT__53
0
POLYLINE
8
OBJECT__54
66
1
70
64
71
4
72
2
62
253
0
VERTEX
8
OBJECT__54
10
28.450001
20
5.150000
30
-1.000000
70
192
0
VERTEX
8
OBJECT__54
10
28.450001
20
-5.150000
30
-1.000000
70
192
0
VERTEX
8
OBJECT__54
10
61.299999
20
-5.150000
30
-1.000000
70
192
0
VERTEX
8
OBJECT__54
10
61.299999
20
5.150000
30
-1.000000
70
192
0
VERTEX
8
OBJECT__54
10
0
20
0
30
0
70
128
71
1
72
2
73
3
0
VERTEX
8
OBJECT__54
10
0
20
0
30
0
70
128
71
3
72
4
73
1
0
SEQEND
8
OBJECT__54
0
POLYLINE
8
OBJECT__55
66
1
70
64
71
4
72
2
62
253
0
VERTEX
8
OBJECT__55
10
28.450001
20
5.150000
30
-1.000000
70
192
0
VERTEX
8
OBJECT__55
10
61.299999
20
5.150000
30
-1.000000
70
192
0
VERTEX
8
OBJECT__55
10
61.299999
20
5.150000
30
7.013000
70
192
0
VERTEX
8
OBJECT__55
10
28.450001
20
5.150000
30
7.013000
70
192
0
VERTEX
8
OBJECT__55
10
0
20
0
30
0
70
128
71
1
72
2
73
3
0
VERTEX
8
OBJECT__55
10
0
20
0
30
0
70
128
71
3
72
4
73
1
0
SEQEND
8
OBJECT__55
0
POLYLINE
8
OBJECT__56
66
1
70
64
71
11
72
9
62
253
0
VERTEX
8
OBJECT__56
10
48.361000
20
5.000000
30
9.984000
70
192
0
VERTEX
8
OBJECT__56
10
59.567001
20
5.000000
30
12.055000
70
192
0
VERTEX
8
OBJECT__56
10
59.908001
20
5.000000
30
10.782000
70
192
0
VERTEX
8
OBJECT__56
10
28.607000
20
5.000000
30
-4.916000
70
192
0
VERTEX
8
OBJECT__56
10
37.049000
20
5.000000
30
8.907000
70
192
0
VERTEX
8
OBJECT__56
10
44.333000
20
5.000000
30
9.600000
70
192
0
VERTEX
8
OBJECT__56
10
60.460999
20
5.000000
30
6.231000
70
192
0
VERTEX
8
OBJECT__56
10
60.194000
20
5.000000
30
-5.661000
70
192
0
VERTEX
8
OBJECT__56
10
28.929001
20
5.000000
30
8.750000
70
192
0
VERTEX
8
OBJECT__56
10
32.831001
20
5.000000
30
8.762000
70
192
0
VERTEX
8
OBJECT__56
10
60.456001
20
5.000000
30
5.485000
70
192
0
VERTEX
8
OBJECT__56
10
0
20
0
30
0
70
128
71
1
72
2
73
3
0
VERTEX
8
OBJECT__56
10
0
20
0
30
0
70
128
71
4
72
5
73
6
0
VERTEX
8
OBJECT__56
10
0
20
0
30
0
70
128
71
3
72
7
73
1
0
VERTEX
8
OBJECT__56
10
0
20
0
30
0
70
128
71
6
72
8
73
4
0
VERTEX
8
OBJECT__56
10
0
20
0
30
0
70
128
71
4
72
9
73
10
0
VERTEX
8
OBJECT__56
10
0
20
0
30
0
70
128
71
7
72
11
73
1
0
VERTEX
8
OBJECT__56
10
0
20
0
30
0
70
128
71
10
72
5
73
4
0
VERTEX
8
OBJECT__56
10
0
20
0
30
0
70
128
71
6
72
1
73
8
0
VERTEX
8
OBJECT__56
10
0
20
0
30
0
70
128
71
11
72
8
73
1
0
SEQEND
8
OBJECT__56
0
POLYLINE
8
OBJECT__57
66
1
70
64
71
15
72
14
62
253
0
VERTEX
8
OBJECT__57
10
59.576000
20
0.000000
30
12.435000
70
192
0
VERTEX
8
OBJECT__57
10
59.567001
20
5.000000
30
12.055000
70
192
0
VERTEX
8
OBJECT__57
10
48.361000
20
5.000000
30
9.984000
70
192
0
VERTEX
8
OBJECT__57
10
44.354000
20
0.000000
30
9.903000
70
192
0
VERTEX
8
OBJECT__57
10
28.938999
20
0.000000
30
9.183000
70
192
0
VERTEX
8
OBJECT__57
10
37.049000
20
5.000000
30
8.907000
70
192
0
VERTEX
8
OBJECT__57
10
44.333000
20
5.000000
30
9.600000
70
192
0
VERTEX
8
OBJECT__57
10
32.831001
20
5.000000
30
8.762000
70
192
0
VERTEX
8
OBJECT__57
10
32.831001
20
-5.000000
30
8.762000
70
192
0
VERTEX
8
OBJECT__57
10
44.251999
20
-5.000000
30
9.476000
70
192
0
VERTEX
8
OBJECT__57
10
28.929001
20
-5.000000
30
8.750000
70
192
0
VERTEX
8
OBJECT__57
10
44.342999
20
-5.000000
30
9.490000
70
192
0
VERTEX
8
OBJECT__57
10
55.521999
20
-5.000000
30
11.190000
70
192
0
VERTEX
8
OBJECT__57
10
59.567001
20
-5.000000
30
12.055000
70
192
0
VERTEX
8
OBJECT__57
10
28.929001
20
5.000000
30
8.750000
70
192
0
VERTEX
8
OBJECT__57
10
0
20
0
30
0
70
128
71
1
72
2
73
3
0
VERTEX
8
OBJECT__57
10
0
20
0
30
0
70
128
71
3
72
4
73
1
0
VERTEX
8
OBJECT__57
10
0
20
0
30
0
70
128
71
5
72
4
73
6
0
VERTEX
8
OBJECT__57
10
0
20
0
30
0
70
128
71
4
72
7
73
6
0
VERTEX
8
OBJECT__57
10
0
20
0
30
0
70
128
71
6
72
8
73
5
0
VERTEX
8
OBJECT__57
10
0
20
0
30
0
70
128
71
4
72
5
73
9
0
VERTEX
8
OBJECT__57
10
0
20
0
30
0
70
128
71
9
72
10
73
4
0
VERTEX
8
OBJECT__57
10
0
20
0
30
0
70
128
71
5
72
11
73
9
0
VERTEX
8
OBJECT__57
10
0
20
0
30
0
70
128
71
4
72
12
73
13
0
VERTEX
8
OBJECT__57
10
0
20
0
30
0
70
128
71
13
72
1
73
4
0
VERTEX
8
OBJECT__57
10
0
20
0
30
0
70
128
71
13
72
14
73
1
0
VERTEX
8
OBJECT__57
10
0
20
0
30
0
70
128
71
10
72
12
73
4
0
VERTEX
8
OBJECT__57
10
0
20
0
30
0
70
128
71
8
72
15
73
5
0
VERTEX
8
OBJECT__57
10
0
20
0
30
0
70
128
71
3
72
7
73
4
0
SEQEND
8
OBJECT__57
0
POLYLINE
8
OBJECT__59
66
1
70
64
71
11
72
9
62
253
0
VERTEX
8
OBJECT__59
10
55.521999
20
-5.000000
30
11.190000
70
192
0
VERTEX
8
OBJECT__59
10
60.460999
20
-5.000000
30
6.231000
70
192
0
VERTEX
8
OBJECT__59
10
59.896000
20
-5.000000
30
10.834000
70
192
0
VERTEX
8
OBJECT__59
10
60.456001
20
-5.000000
30
5.485000
70
192
0
VERTEX
8
OBJECT__59
10
28.607000
20
-5.000000
30
-4.916000
70
192
0
VERTEX
8
OBJECT__59
10
60.194000
20
-5.000000
30
-5.661000
70
192
0
VERTEX
8
OBJECT__59
10
44.251999
20
-5.000000
30
9.476000
70
192
0
VERTEX
8
OBJECT__59
10
44.342999
20
-5.000000
30
9.490000
70
192
0
VERTEX
8
OBJECT__59
10
32.831001
20
-5.000000
30
8.762000
70
192
0
VERTEX
8
OBJECT__59
10
59.567001
20
-5.000000
30
12.055000
70
192
0
VERTEX
8
OBJECT__59
10
28.929001
20
-5.000000
30
8.750000
70
192
0
VERTEX
8
OBJECT__59
10
0
20
0
30
0
70
128
71
1
72
2
73
3
0
VERTEX
8
OBJECT__59
10
0
20
0
30
0
70
128
71
1
72
4
73
2
0
VERTEX
8
OBJECT__59
10
0
20
0
30
0
70
128
71
5
72
6
73
7
0
VERTEX
8
OBJECT__59
10
0
20
0
30
0
70
128
71
6
72
1
73
8
0
VERTEX
8
OBJECT__59
10
0
20
0
30
0
70
128
71
1
72
6
73
4
0
VERTEX
8
OBJECT__59
10
0
20
0
30
0
70
128
71
7
72
9
73
5
0
VERTEX
8
OBJECT__59
10
0
20
0
30
0
70
128
71
3
72
10
73
1
0
VERTEX
8
OBJECT__59
10
0
20
0
30
0
70
128
71
8
72
7
73
6
0
VERTEX
8
OBJECT__59
10
0
20
0
30
0
70
128
71
9
72
11
73
5
0
SEQEND
8
OBJECT__59
0
POLYLINE
8
OBJECT__60
66
1
70
64
71
10
72
8
62
253
0
VERTEX
8
OBJECT__60
10
60.466999
20
0.000000
30
5.959000
70
192
0
VERTEX
8
OBJECT__60
10
60.460999
20
5.000000
30
6.231000
70
192
0
VERTEX
8
OBJECT__60
10
59.908001
20
5.000000
30
10.782000
70
192
0
VERTEX
8
OBJECT__60
10
60.456001
20
5.000000
30
5.485000
70
192
0
VERTEX
8
OBJECT__60
10
59.576000
20
0.000000
30
12.435000
70
192
0
VERTEX
8
OBJECT__60
10
59.896000
20
-5.000000
30
10.834000
70
192
0
VERTEX
8
OBJECT__60
10
60.460999
20
-5.000000
30
6.231000
70
192
0
VERTEX
8
OBJECT__60
10
59.567001
20
-5.000000
30
12.055000
70
192
0
VERTEX
8
OBJECT__60
10
60.456001
20
-5.000000
30
5.485000
70
192
0
VERTEX
8
OBJECT__60
10
59.567001
20
5.000000
30
12.055000
70
192
0
VERTEX
8
OBJECT__60
10
0
20
0
30
0
70
128
71
1
72
2
73
3
0
VERTEX
8
OBJECT__60
10
0
20
0
30
0
70
128
71
1
72
4
73
2
0
VERTEX
8
OBJECT__60
10
0
20
0
30
0
70
128
71
3
72
5
73
1
0
VERTEX
8
OBJECT__60
10
0
20
0
30
0
70
128
71
1
72
5
73
6
0
VERTEX
8
OBJECT__60
10
0
20
0
30
0
70
128
71
6
72
7
73
1
0
VERTEX
8
OBJECT__60
10
0
20
0
30
0
70
128
71
5
72
8
73
6
0
VERTEX
8
OBJECT__60
10
0
20
0
30
0
70
128
71
7
72
9
73
1
0
VERTEX
8
OBJECT__60
10
0
20
0
30
0
70
128
71
3
72
10
73
5
0
SEQEND
8
OBJECT__60
0
POLYLINE
8
OBJECT__61
66
1
70
64
71
5
72
3
62
253
0
VERTEX
8
OBJECT__61
10
28.607000
20
-5.000000
30
-4.916000
70
192
0
VERTEX
8
OBJECT__61
10
28.929001
20
-5.000000
30
8.750000
70
192
0
VERTEX
8
OBJECT__61
10
28.938999
20
0.000000
30
9.183000
70
192
0
VERTEX
8
OBJECT__61
10
28.607000
20
5.000000
30
-4.916000
70
192
0
VERTEX
8
OBJECT__61
10
28.929001
20
5.000000
30
8.750000
70
192
0
VERTEX
8
OBJECT__61
10
0
20
0
30
0
70
128
71
1
72
2
73
3
0
VERTEX
8
OBJECT__61
10
0
20
0
30
0
70
128
71
3
72
4
73
1
0
VERTEX
8
OBJECT__61
10
0
20
0
30
0
70
128
71
3
72
5
73
4
0
SEQEND
8
OBJECT__61
0
POLYLINE
8
OBJECT__62
66
1
70
64
71
5
72
3
62
253
0
VERTEX
8
OBJECT__62
10
69.849998
20
0.000000
30
56.340000
70
192
0
VERTEX
8
OBJECT__62
10
69.849998
20
-15.994000
30
47.105999
70
192
0
VERTEX
8
OBJECT__62
10
69.849998
20
-5.778000
30
41.706001
70
192
0
VERTEX
8
OBJECT__62
10
69.849998
20
5.778000
30
41.706001
70
192
0
VERTEX
8
OBJECT__62
10
69.849998
20
15.994000
30
47.105999
70
192
0
VERTEX
8
OBJECT__62
10
0
20
0
30
0
70
128
71
1
72
2
73
3
0
VERTEX
8
OBJECT__62
10
0
20
0
30
0
70
128
71
3
72
4
73
1
0
VERTEX
8
OBJECT__62
10
0
20
0
30
0
70
128
71
4
72
5
73
1
0
SEQEND
8
OBJECT__62
0
POLYLINE
8
OBJECT__63
66
1
70
64
71
10
72
8
62
253
0
VERTEX
8
OBJECT__63
10
22.850000
20
5.778000
30
41.706001
70
192
0
VERTEX
8
OBJECT__63
10
22.850000
20
15.994000
30
47.105999
70
192
0
VERTEX
8
OBJECT__63
10
68.849998
20
15.994000
30
47.105999
70
192
0
VERTEX
8
OBJECT__63
10
69.849998
20
5.778000
30
41.706001
70
192
0
VERTEX
8
OBJECT__63
10
22.850000
20
-5.778000
30
41.706001
70
192
0
VERTEX
8
OBJECT__63
10
69.849998
20
-5.778000
30
41.706001
70
192
0
VERTEX
8
OBJECT__63
10
68.849998
20
-15.994000
30
47.105999
70
192
0
VERTEX
8
OBJECT__63
10
69.849998
20
-15.994000
30
47.105999
70
192
0
VERTEX
8
OBJECT__63
10
22.850000
20
-15.994000
30
47.105999
70
192
0
VERTEX
8
OBJECT__63
10
69.849998
20
15.994000
30
47.105999
70
192
0
VERTEX
8
OBJECT__63
10
0
20
0
30
0
70
128
71
1
72
2
73
3
0
VERTEX
8
OBJECT__63
10
0
20
0
30
0
70
128
71
3
72
4
73
1
0
VERTEX
8
OBJECT__63
10
0
20
0
30
0
70
128
71
5
72
1
73
4
0
VERTEX
8
OBJECT__63
10
0
20
0
30
0
70
128
71
5
72
6
73
7
0
VERTEX
8
OBJECT__63
10
0
20
0
30
0
70
128
71
6
72
8
73
7
0
VERTEX
8
OBJECT__63
10
0
20
0
30
0
70
128
71
7
72
9
73
5
0
VERTEX
8
OBJECT__63
10
0
20
0
30
0
70
128
71
4
72
6
73
5
0
VERTEX
8
OBJECT__63
10
0
20
0
30
0
70
128
71
3
72
10
73
4
0
SEQEND
8
OBJECT__63
0
POLYLINE
8
OBJECT__65
66
1
70
64
71
4
72
2
62
253
0
VERTEX
8
OBJECT__65
10
68.849998
20
-19.163000
30
45.276001
70
192
0
VERTEX
8
OBJECT__65
10
22.850000
20
-19.163000
30
45.276001
70
192
0
VERTEX
8
OBJECT__65
10
22.850000
20
-15.994000
30
47.105999
70
192
0
VERTEX
8
OBJECT__65
10
68.849998
20
-15.994000
30
47.105999
70
192
0
VERTEX
8
OBJECT__65
10
0
20
0
30
0
70
128
71
1
72
2
73
3
0
VERTEX
8
OBJECT__65
10
0
20
0
30
0
70
128
71
3
72
4
73
1
0
SEQEND
8
OBJECT__65
0
POLYLINE
8
OBJECT__66
66
1
70
64
71
6
72
4
62
253
0
VERTEX
8
OBJECT__66
10
68.849998
20
-23.816000
30
51.250000
70
192
0
VERTEX
8
OBJECT__66
10
22.850000
20
-23.816000
30
51.250000
70
192
0
VERTEX
8
OBJECT__66
10
22.850000
20
-19.163000
30
45.276001
70
192
0
VERTEX
8
OBJECT__66
10
22.850000
20
-26.663000
30
58.265999
70
192
0
VERTEX
8
OBJECT__66
10
68.849998
20
-26.663000
30
58.265999
70
192
0
VERTEX
8
OBJECT__66
10
68.849998
20
-19.163000
30
45.276001
70
192
0
VERTEX
8
OBJECT__66
10
0
20
0
30
0
70
128
71
1
72
2
73
3
0
VERTEX
8
OBJECT__66
10
0
20
0
30
0
70
128
71
4
72
2
73
1
0
VERTEX
8
OBJECT__66
10
0
20
0
30
0
70
128
71
1
72
5
73
4
0
VERTEX
8
OBJECT__66
10
0
20
0
30
0
70
128
71
3
72
6
73
1
0
SEQEND
8
OBJECT__66
0
POLYLINE
8
OBJECT__67
66
1
70
64
71
4
72
2
62
253
0
VERTEX
8
OBJECT__67
10
68.849998
20
-26.663000
30
58.265999
70
192
0
VERTEX
8
OBJECT__67
10
68.849998
20
-23.493999
30
60.096001
70
192
0
VERTEX
8
OBJECT__67
10
22.850000
20
-23.493999
30
60.096001
70
192
0
VERTEX
8
OBJECT__67
10
22.850000
20
-26.663000
30
58.265999
70
192
0
VERTEX
8
OBJECT__67
10
0
20
0
30
0
70
128
71
1
72
2
73
3
0
VERTEX
8
OBJECT__67
10
0
20
0
30
0
70
128
71
3
72
4
73
1
0
SEQEND
8
OBJECT__67
0
POLYLINE
8
OBJECT__68
66
1
70
64
71
4
72
2
62
253
0
VERTEX
8
OBJECT__68
10
68.849998
20
15.994000
30
47.105999
70
192
0
VERTEX
8
OBJECT__68
10
22.850000
20
15.994000
30
47.105999
70
192
0
VERTEX
8
OBJECT__68
10
22.850000
20
19.163000
30
45.276001
70
192
0
VERTEX
8
OBJECT__68
10
68.849998
20
19.163000
30
45.276001
70
192
0
VERTEX
8
OBJECT__68
10
0
20
0
30
0
70
128
71
1
72
2
73
3
0
VERTEX
8
OBJECT__68
10
0
20
0
30
0
70
128
71
3
72
4
73
1
0
SEQEND
8
OBJECT__68
0
POLYLINE
8
OBJECT__69
66
1
70
64
71
6
72
4
62
253
0
VERTEX
8
OBJECT__69
10
22.850000
20
23.816000
30
51.250000
70
192
0
VERTEX
8
OBJECT__69
10
22.850000
20
26.663000
30
58.265999
70
192
0
VERTEX
8
OBJECT__69
10
68.849998
20
26.663000
30
58.265999
70
192
0
VERTEX
8
OBJECT__69
10
68.849998
20
19.163000
30
45.276001
70
192
0
VERTEX
8
OBJECT__69
10
22.850000
20
19.163000
30
45.276001
70
192
0
VERTEX
8
OBJECT__69
10
68.849998
20
23.816000
30
51.250000
70
192
0
VERTEX
8
OBJECT__69
10
0
20
0
30
0
70
128
71
1
72
2
73
3
0
VERTEX
8
OBJECT__69
10
0
20
0
30
0
70
128
71
4
72
5
73
1
0
VERTEX
8
OBJECT__69
10
0
20
0
30
0
70
128
71
1
72
6
73
4
0
VERTEX
8
OBJECT__69
10
0
20
0
30
0
70
128
71
3
72
6
73
1
0
SEQEND
8
OBJECT__69
0
POLYLINE
8
OBJECT__70
66
1
70
64
71
4
72
2
62
253
0
VERTEX
8
OBJECT__70
10
68.849998
20
23.493999
30
60.096001
70
192
0
VERTEX
8
OBJECT__70
10
68.849998
20
26.663000
30
58.265999
70
192
0
VERTEX
8
OBJECT__70
10
22.850000
20
26.663000
30
58.265999
70
192
0
VERTEX
8
OBJECT__70
10
22.850000
20
23.493999
30
60.096001
70
192
0
VERTEX
8
OBJECT__70
10
0
20
0
30
0
70
128
71
1
72
2
73
3
0
VERTEX
8
OBJECT__70
10
0
20
0
30
0
70
128
71
3
72
4
73
1
0
SEQEND
8
OBJECT__70
0
POLYLINE
8
OBJECT__71
66
1
70
64
71
10
72
8
62
253
0
VERTEX
8
OBJECT__71
10
22.850000
20
17.285000
30
81.651001
70
192
0
VERTEX
8
OBJECT__71
10
22.850000
20
7.500000
30
87.797997
70
192
0
VERTEX
8
OBJECT__71
10
68.849998
20
7.500000
30
87.797997
70
192
0
VERTEX
8
OBJECT__71
10
69.849998
20
17.285000
30
81.651001
70
192
0
VERTEX
8
OBJECT__71
10
69.849998
20
23.062000
30
71.642998
70
192
0
VERTEX
8
OBJECT__71
10
22.850000
20
23.062000
30
71.642998
70
192
0
VERTEX
8
OBJECT__71
10
68.849998
20
23.493999
30
60.096001
70
192
0
VERTEX
8
OBJECT__71
10
69.849998
20
23.493999
30
60.096001
70
192
0
VERTEX
8
OBJECT__71
10
22.850000
20
23.493999
30
60.096001
70
192
0
VERTEX
8
OBJECT__71
10
69.849998
20
7.500000
30
87.797997
70
192
0
VERTEX
8
OBJECT__71
10
0
20
0
30
0
70
128
71
1
72
2
73
3
0
VERTEX
8
OBJECT__71
10
0
20
0
30
0
70
128
71
3
72
4
73
1
0
VERTEX
8
OBJECT__71
10
0
20
0
30
0
70
128
71
5
72
6
73
1
0
VERTEX
8
OBJECT__71
10
0
20
0
30
0
70
128
71
6
72
5
73
7
0
VERTEX
8
OBJECT__71
10
0
20
0
30
0
70
128
71
5
72
8
73
7
0
VERTEX
8
OBJECT__71
10
0
20
0
30
0
70
128
71
7
72
9
73
6
0
VERTEX
8
OBJECT__71
10
0
20
0
30
0
70
128
71
1
72
4
73
5
0
VERTEX
8
OBJECT__71
10
0
20
0
30
0
70
128
71
3
72
10
73
4
0
SEQEND
8
OBJECT__71
0
POLYLINE
8
OBJECT__72
66
1
70
64
71
5
72
3
62
253
0
VERTEX
8
OBJECT__72
10
69.849998
20
7.500000
30
69.330002
70
192
0
VERTEX
8
OBJECT__72
10
69.849998
20
23.062000
30
71.642998
70
192
0
VERTEX
8
OBJECT__72
10
69.849998
20
17.285000
30
81.651001
70
192
0
VERTEX
8
OBJECT__72
10
69.849998
20
23.493999
30
60.096001
70
192
0
VERTEX
8
OBJECT__72
10
69.849998
20
7.500000
30
87.797997
70
192
0
VERTEX
8
OBJECT__72
10
0
20
0
30
0
70
128
71
1
72
2
73
3
0
VERTEX
8
OBJECT__72
10
0
20
0
30
0
70
128
71
1
72
4
73
2
0
VERTEX
8
OBJECT__72
10
0
20
0
30
0
70
128
71
3
72
5
73
1
0
SEQEND
8
OBJECT__72
0
POLYLINE
8
OBJECT__73
66
1
70
64
71
4
72
2
62
253
0
VERTEX
8
OBJECT__73
10
68.849998
20
7.500000
30
87.797997
70
192
0
VERTEX
8
OBJECT__73
10
22.850000
20
7.500000
30
87.797997
70
192
0
VERTEX
8
OBJECT__73
10
22.850000
20
7.500000
30
91.458000
70
192
0
VERTEX
8
OBJECT__73
10
68.849998
20
7.500000
30
91.458000
70
192
0
VERTEX
8
OBJECT__73
10
0
20
0
30
0
70
128
71
1
72
2
73
3
0
VERTEX
8
OBJECT__73
10
0
20
0
30
0
70
128
71
3
72
4
73
1
0
SEQEND
8
OBJECT__73
0
POLYLINE
8
OBJECT__74
66
1
70
64
71
18
72
16
62
253
0
VERTEX
8
OBJECT__74
10
68.849998
20
7.500000
30
87.797997
70
192
0
VERTEX
8
OBJECT__74
10
68.849998
20
7.500000
30
91.458000
70
192
0
VERTEX
8
OBJECT__74
10
68.849998
20
0.000000
30
92.500000
70
192
0
VERTEX
8
OBJECT__74
10
68.849998
20
15.994000
30
47.105999
70
192
0
VERTEX
8
OBJECT__74
10
68.849998
20
19.163000
30
45.276001
70
192
0
VERTEX
8
OBJECT__74
10
68.849998
20
23.816000
30
51.250000
70
192
0
VERTEX
8
OBJECT__74
10
68.849998
20
-23.816000
30
51.250000
70
192
0
VERTEX
8
OBJECT__74
10
68.849998
20
7.500000
30
69.330002
70
192
0
VERTEX
8
OBJECT__74
10
68.849998
20
-7.500000
30
69.330002
70
192
0
VERTEX
8
OBJECT__74
10
68.849998
20
-7.500000
30
87.797997
70
192
0
VERTEX
8
OBJECT__74
10
68.849998
20
23.493999
30
60.096001
70
192
0
VERTEX
8
OBJECT__74
10
68.849998
20
-15.994000
30
47.105999
70
192
0
VERTEX
8
OBJECT__74
10
68.849998
20
0.000000
30
56.340000
70
192
0
VERTEX
8
OBJECT__74
10
68.849998
20
-23.493999
30
60.096001
70
192
0
VERTEX
8
OBJECT__74
10
68.849998
20
-19.163000
30
45.276001
70
192
0
VERTEX
8
OBJECT__74
10
68.849998
20
-7.500000
30
91.458000
70
192
0
VERTEX
8
OBJECT__74
10
68.849998
20
26.663000
30
58.265999
70
192
0
VERTEX
8
OBJECT__74
10
68.849998
20
-26.663000
30
58.265999
70
192
0
VERTEX
8
OBJECT__74
10
0
20
0
30
0
70
128
71
1
72
2
73
3
0
VERTEX
8
OBJECT__74
10
0
20
0
30
0
70
128
71
4
72
5
73
6
0
VERTEX
8
OBJECT__74
10
0
20
0
30
0
70
128
71
7
72
8
73
9
0
VERTEX
8
OBJECT__74
10
0
20
0
30
0
70
128
71
3
72
10
73
1
0
VERTEX
8
OBJECT__74
10
0
20
0
30
0
70
128
71
1
72
10
73
9
0
VERTEX
8
OBJECT__74
10
0
20
0
30
0
70
128
71
6
72
11
73
4
0
VERTEX
8
OBJECT__74
10
0
20
0
30
0
70
128
71
4
72
11
73
8
0
VERTEX
8
OBJECT__74
10
0
20
0
30
0
70
128
71
7
72
12
73
13
0
VERTEX
8
OBJECT__74
10
0
20
0
30
0
70
128
71
9
72
14
73
7
0
VERTEX
8
OBJECT__74
10
0
20
0
30
0
70
128
71
9
72
8
73
1
0
VERTEX
8
OBJECT__74
10
0
20
0
30
0
70
128
71
8
72
13
73
4
0
VERTEX
8
OBJECT__74
10
0
20
0
30
0
70
128
71
7
72
15
73
12
0
VERTEX
8
OBJECT__74
10
0
20
0
30
0
70
128
71
3
72
16
73
10
0
VERTEX
8
OBJECT__74
10
0
20
0
30
0
70
128
71
13
72
8
73
7
0
VERTEX
8
OBJECT__74
10
0
20
0
30
0
70
128
71
6
72
17
73
11
0
VERTEX
8
OBJECT__74
10
0
20
0
30
0
70
128
71
14
72
18
73
7
0
SEQEND
8
OBJECT__74
0
POLYLINE
8
OBJECT__75
66
1
70
64
71
4
72
2
62
253
0
VERTEX
8
OBJECT__75
10
68.849998
20
-7.500000
30
87.797997
70
192
0
VERTEX
8
OBJECT__75
10
68.849998
20
-7.500000
30
91.458000
70
192
0
VERTEX
8
OBJECT__75
10
22.850000
20
-7.500000
30
91.458000
70
192
0
VERTEX
8
OBJECT__75
10
22.850000
20
-7.500000
30
87.797997
70
192
0
VERTEX
8
OBJECT__75
10
0
20
0
30
0
70
128
71
1
72
2
73
3
0
VERTEX
8
OBJECT__75
10
0
20
0
30
0
70
128
71
3
72
4
73
1
0
SEQEND
8
OBJECT__75
0
POLYLINE
8
OBJECT__76
66
1
70
64
71
10
72
8
62
253
0
VERTEX
8
OBJECT__76
10
22.850000
20
-23.062000
30
71.642998
70
192
0
VERTEX
8
OBJECT__76
10
22.850000
20
-23.493999
30
60.096001
70
192
0
VERTEX
8
OBJECT__76
10
68.849998
20
-23.493999
30
60.096001
70
192
0
VERTEX
8
OBJECT__76
10
69.849998
20
-23.062000
30
71.642998
70
192
0
VERTEX
8
OBJECT__76
10
69.849998
20
-17.285000
30
81.651001
70
192
0
VERTEX
8
OBJECT__76
10
22.850000
20
-17.285000
30
81.651001
70
192
0
VERTEX
8
OBJECT__76
10
68.849998
20
-7.500000
30
87.797997
70
192
0
VERTEX
8
OBJECT__76
10
69.849998
20
-7.500000
30
87.797997
70
192
0
VERTEX
8
OBJECT__76
10
22.850000
20
-7.500000
30
87.797997
70
192
0
VERTEX
8
OBJECT__76
10
69.849998
20
-23.493999
30
60.096001
70
192
0
VERTEX
8
OBJECT__76
10
0
20
0
30
0
70
128
71
1
72
2
73
3
0
VERTEX
8
OBJECT__76
10
0
20
0
30
0
70
128
71
3
72
4
73
1
0
VERTEX
8
OBJECT__76
10
0
20
0
30
0
70
128
71
5
72
6
73
1
0
VERTEX
8
OBJECT__76
10
0
20
0
30
0
70
128
71
6
72
5
73
7
0
VERTEX
8
OBJECT__76
10
0
20
0
30
0
70
128
71
5
72
8
73
7
0
VERTEX
8
OBJECT__76
10
0
20
0
30
0
70
128
71
7
72
9
73
6
0
VERTEX
8
OBJECT__76
10
0
20
0
30
0
70
128
71
1
72
4
73
5
0
VERTEX
8
OBJECT__76
10
0
20
0
30
0
70
128
71
3
72
10
73
4
0
SEQEND
8
OBJECT__76
0
POLYLINE
8
OBJECT__77
66
1
70
64
71
5
72
3
62
253
0
VERTEX
8
OBJECT__77
10
69.849998
20
-7.500000
30
69.330002
70
192
0
VERTEX
8
OBJECT__77
10
69.849998
20
-7.500000
30
87.797997
70
192
0
VERTEX
8
OBJECT__77
10
69.849998
20
-17.285000
30
81.651001
70
192
0
VERTEX
8
OBJECT__77
10
69.849998
20
-23.062000
30
71.642998
70
192
0
VERTEX
8
OBJECT__77
10
69.849998
20
-23.493999
30
60.096001
70
192
0
VERTEX
8
OBJECT__77
10
0
20
0
30
0
70
128
71
1
72
2
73
3
0
VERTEX
8
OBJECT__77
10
0
20
0
30
0
70
128
71
3
72
4
73
1
0
VERTEX
8
OBJECT__77
10
0
20
0
30
0
70
128
71
4
72
5
73
1
0
SEQEND
8
OBJECT__77
0
POLYLINE
8
OBJECT__78
66
1
70
64
71
16
72
16
62
253
0
VERTEX
8
OBJECT__78
10
68.849998
20
0.000000
30
92.500000
70
192
0
VERTEX
8
OBJECT__78
10
68.849998
20
7.500000
30
91.458000
70
192
0
VERTEX
8
OBJECT__78
10
61.450001
20
5.150000
30
92.013000
70
192
0
VERTEX
8
OBJECT__78
10
22.850000
20
7.500000
30
91.458000
70
192
0
VERTEX
8
OBJECT__78
10
28.600000
20
5.150000
30
92.013000
70
192
0
VERTEX
8
OBJECT__78
10
28.600000
20
0.000000
30
92.500000
70
192
0
VERTEX
8
OBJECT__78
10
27.490000
20
1.750000
30
92.444000
70
192
0
VERTEX
8
OBJECT__78
10
22.850000
20
1.750000
30
92.444000
70
192
0
VERTEX
8
OBJECT__78
10
27.490000
20
0.000000
30
92.444000
70
192
0
VERTEX
8
OBJECT__78
10
22.850000
20
-7.500000
30
91.458000
70
192
0
VERTEX
8
OBJECT__78
10
28.600000
20
-5.150000
30
92.013000
70
192
0
VERTEX
8
OBJECT__78
10
27.490000
20
-1.750000
30
92.444000
70
192
0
VERTEX
8
OBJECT__78
10
68.849998
20
-7.500000
30
91.458000
70
192
0
VERTEX
8
OBJECT__78
10
61.450001
20
-5.150000
30
92.013000
70
192
0
VERTEX
8
OBJECT__78
10
61.450001
20
0.000000
30
92.500000
70
192
0
VERTEX
8
OBJECT__78
10
22.850000
20
-1.750000
30
92.444000
70
192
0
VERTEX
8
OBJECT__78
10
0
20
0
30
0
70
128
71
1
72
2
73
3
0
VERTEX
8
OBJECT__78
10
0
20
0
30
0
70
128
71
4
72
5
73
3
0
VERTEX
8
OBJECT__78
10
0
20
0
30
0
70
128
71
3
72
2
73
4
0
VERTEX
8
OBJECT__78
10
0
20
0
30
0
70
128
71
6
72
5
73
7
0
VERTEX
8
OBJECT__78
10
0
20
0
30
0
70
128
71
4
72
8
73
7
0
VERTEX
8
OBJECT__78
10
0
20
0
30
0
70
128
71
7
72
5
73
4
0
VERTEX
8
OBJECT__78
10
0
20
0
30
0
70
128
71
7
72
9
73
6
0
VERTEX
8
OBJECT__78
10
0
20
0
30
0
70
128
71
10
72
11
73
12
0
VERTEX
8
OBJECT__78
10
0
20
0
30
0
70
128
71
10
72
13
73
14
0
VERTEX
8
OBJECT__78
10
0
20
0
30
0
70
128
71
14
72
11
73
10
0
VERTEX
8
OBJECT__78
10
0
20
0
30
0
70
128
71
6
72
9
73
12
0
VERTEX
8
OBJECT__78
10
0
20
0
30
0
70
128
71
12
72
11
73
6
0
VERTEX
8
OBJECT__78
10
0
20
0
30
0
70
128
71
1
72
15
73
14
0
VERTEX
8
OBJECT__78
10
0
20
0
30
0
70
128
71
14
72
13
73
1
0
VERTEX
8
OBJECT__78
10
0
20
0
30
0
70
128
71
12
72
16
73
10
0
VERTEX
8
OBJECT__78
10
0
20
0
30
0
70
128
71
3
72
15
73
1
0
SEQEND
8
OBJECT__78
0
POLYLINE
8
OBJECT__79
66
1
70
64
71
5
72
3
62
253
0
VERTEX
8
OBJECT__79
10
22.850000
20
1.750000
30
91.099998
70
192
0
VERTEX
8
OBJECT__79
10
22.850000
20
-1.750000
30
91.099998
70
192
0
VERTEX
8
OBJECT__79
10
27.490000
20
0.000000
30
92.444000
70
192
0
VERTEX
8
OBJECT__79
10
27.490000
20
-1.750000
30
92.444000
70
192
0
VERTEX
8
OBJECT__79
10
27.490000
20
1.750000
30
92.444000
70
192
0
VERTEX
8
OBJECT__79
10
0
20
0
30
0
70
128
71
1
72
2
73
3
0
VERTEX
8
OBJECT__79
10
0
20
0
30
0
70
128
71
2
72
4
73
3
0
VERTEX
8
OBJECT__79
10
0
20
0
30
0
70
128
71
3
72
5
73
1
0
SEQEND
8
OBJECT__79
0
POLYLINE
8
OBJECT__80
66
1
70
64
71
3
72
1
62
253
0
VERTEX
8
OBJECT__80
10
27.490000
20
1.750000
30
92.444000
70
192
0
VERTEX
8
OBJECT__80
10
22.850000
20
1.750000
30
92.444000
70
192
0
VERTEX
8
OBJECT__80
10
22.850000
20
1.750000
30
91.099998
70
192
0
VERTEX
8
OBJECT__80
10
0
20
0
30
0
70
128
71
1
72
2
73
3
0
SEQEND
8
OBJECT__80
0
POLYLINE
8
OBJECT__81
66
1
70
64
71
3
72
1
62
253
0
VERTEX
8
OBJECT__81
10
22.850000
20
-1.750000
30
91.099998
70
192
0
VERTEX
8
OBJECT__81
10
22.850000
20
-1.750000
30
92.444000
70
192
0
VERTEX
8
OBJECT__81
10
27.490000
20
-1.750000
30
92.444000
70
192
0
VERTEX
8
OBJECT__81
10
0
20
0
30
0
70
128
71
1
72
2
73
3
0
SEQEND
8
OBJECT__81
0
POLYLINE
8
OBJECT__82
66
1
70
64
71
4
72
2
62
253
0
VERTEX
8
OBJECT__82
10
61.450001
20
-5.150000
30
84.000000
70
192
0
VERTEX
8
OBJECT__82
10
28.600000
20
-5.150000
30
84.000000
70
192
0
VERTEX
8
OBJECT__82
10
28.600000
20
-5.150000
30
92.013000
70
192
0
VERTEX
8
OBJECT__82
10
61.450001
20
-5.150000
30
92.013000
70
192
0
VERTEX
8
OBJECT__82
10
0
20
0
30
0
70
128
71
1
72
2
73
3
0
VERTEX
8
OBJECT__82
10
0
20
0
30
0
70
128
71
3
72
4
73
1
0
SEQEND
8
OBJECT__82
0
POLYLINE
8
OBJECT__83
66
1
70
64
71
4
72
2
62
253
0
VERTEX
8
OBJECT__83
10
61.450001
20
-5.150000
30
84.000000
70
192
0
VERTEX
8
OBJECT__83
10
61.450001
20
5.150000
30
84.000000
70
192
0
VERTEX
8
OBJECT__83
10
28.600000
20
5.150000
30
84.000000
70
192
0
VERTEX
8
OBJECT__83
10
28.600000
20
-5.150000
30
84.000000
70
192
0
VERTEX
8
OBJECT__83
10
0
20
0
30
0
70
128
71
1
72
2
73
3
0
VERTEX
8
OBJECT__83
10
0
20
0
30
0
70
128
71
3
72
4
73
1
0
SEQEND
8
OBJECT__83
0
POLYLINE
8
OBJECT__84
66
1
70
64
71
4
72
2
62
253
0
VERTEX
8
OBJECT__84
10
61.450001
20
5.150000
30
84.000000
70
192
0
VERTEX
8
OBJECT__84
10
61.450001
20
5.150000
30
92.013000
70
192
0
VERTEX
8
OBJECT__84
10
28.600000
20
5.150000
30
92.013000
70
192
0
VERTEX
8
OBJECT__84
10
28.600000
20
5.150000
30
84.000000
70
192
0
VERTEX
8
OBJECT__84
10
0
20
0
30
0
70
128
71
1
72
2
73
3
0
VERTEX
8
OBJECT__84
10
0
20
0
30
0
70
128
71
3
72
4
73
1
0
SEQEND
8
OBJECT__84
0
POLYLINE
8
OBJECT__85
66
1
70
64
71
22
72
22
62
253
0
VERTEX
8
OBJECT__85
10
24.205000
20
16.393999
30
54.465000
70
192
0
VERTEX
8
OBJECT__85
10
21.600000
20
16.393999
30
54.465000
70
192
0
VERTEX
8
OBJECT__85
10
21.600000
20
19.487000
30
65.000000
70
192
0
VERTEX
8
OBJECT__85
10
24.205000
20
8.095000
30
47.273998
70
192
0
VERTEX
8
OBJECT__85
10
21.600000
20
8.095000
30
47.273998
70
192
0
VERTEX
8
OBJECT__85
10
24.205000
20
-2.773000
30
45.710999
70
192
0
VERTEX
8
OBJECT__85
10
21.600000
20
-2.773000
30
45.710999
70
192
0
VERTEX
8
OBJECT__85
10
24.205000
20
-12.761000
30
50.272999
70
192
0
VERTEX
8
OBJECT__85
10
21.600000
20
-12.761000
30
50.272999
70
192
0
VERTEX
8
OBJECT__85
10
21.600000
20
-18.698000
30
59.509998
70
192
0
VERTEX
8
OBJECT__85
10
21.600000
20
-18.698000
30
70.489998
70
192
0
VERTEX
8
OBJECT__85
10
24.205000
20
-18.698000
30
59.509998
70
192
0
VERTEX
8
OBJECT__85
10
21.600000
20
-12.761000
30
79.726997
70
192
0
VERTEX
8
OBJECT__85
10
24.205000
20
-18.698000
30
70.489998
70
192
0
VERTEX
8
OBJECT__85
10
21.600000
20
-2.773000
30
84.289001
70
192
0
VERTEX
8
OBJECT__85
10
24.205000
20
-12.761000
30
79.726997
70
192
0
VERTEX
8
OBJECT__85
10
24.205000
20
8.095000
30
82.725998
70
192
0
VERTEX
8
OBJECT__85
10
21.600000
20
8.095000
30
82.725998
70
192
0
VERTEX
8
OBJECT__85
10
24.205000
20
16.393999
30
75.535004
70
192
0
VERTEX
8
OBJECT__85
10
21.600000
20
16.393999
30
75.535004
70
192
0
VERTEX
8
OBJECT__85
10
24.205000
20
19.487000
30
65.000000
70
192
0
VERTEX
8
OBJECT__85
10
24.205000
20
-2.773000
30
84.289001
70
192
0
VERTEX
8
OBJECT__85
10
0
20
0
30
0
70
128
71
1
72
2
73
3
0
VERTEX
8
OBJECT__85
10
0
20
0
30
0
70
128
71
4
72
5
73
2
0
VERTEX
8
OBJECT__85
10
0
20
0
30
0
70
128
71
6
72
7
73
5
0
VERTEX
8
OBJECT__85
10
0
20
0
30
0
70
128
71
8
72
9
73
7
0
VERTEX
8
OBJECT__85
10
0
20
0
30
0
70
128
71
10
72
9
73
8
0
VERTEX
8
OBJECT__85
10
0
20
0
30
0
70
128
71
11
72
10
73
12
0
VERTEX
8
OBJECT__85
10
0
20
0
30
0
70
128
71
13
72
11
73
14
0
VERTEX
8
OBJECT__85
10
0
20
0
30
0
70
128
71
15
72
13
73
16
0
VERTEX
8
OBJECT__85
10
0
20
0
30
0
70
128
71
17
72
18
73
15
0
VERTEX
8
OBJECT__85
10
0
20
0
30
0
70
128
71
19
72
20
73
18
0
VERTEX
8
OBJECT__85
10
0
20
0
30
0
70
128
71
21
72
3
73
20
0
VERTEX
8
OBJECT__85
10
0
20
0
30
0
70
128
71
20
72
19
73
21
0
VERTEX
8
OBJECT__85
10
0
20
0
30
0
70
128
71
18
72
17
73
19
0
VERTEX
8
OBJECT__85
10
0
20
0
30
0
70
128
71
15
72
22
73
17
0
VERTEX
8
OBJECT__85
10
0
20
0
30
0
70
128
71
16
72
22
73
15
0
VERTEX
8
OBJECT__85
10
0
20
0
30
0
70
128
71
14
72
16
73
13
0
VERTEX
8
OBJECT__85
10
0
20
0
30
0
70
128
71
12
72
14
73
11
0
VERTEX
8
OBJECT__85
10
0
20
0
30
0
70
128
71
8
72
12
73
10
0
VERTEX
8
OBJECT__85
10
0
20
0
30
0
70
128
71
7
72
6
73
8
0
VERTEX
8
OBJECT__85
10
0
20
0
30
0
70
128
71
5
72
4
73
6
0
VERTEX
8
OBJECT__85
10
0
20
0
30
0
70
128
71
2
72
1
73
4
0
VERTEX
8
OBJECT__85
10
0
20
0
30
0
70
128
71
3
72
21
73
1
0
SEQEND
8
OBJECT__85
0
POLYLINE
8
OBJECT__86
66
1
70
64
71
23
72
23
62
253
0
VERTEX
8
OBJECT__86
10
21.600000
20
-24.000000
30
65.000000
70
192
0
VERTEX
8
OBJECT__86
10
21.600000
20
-20.785000
30
53.000000
70
192
0
VERTEX
8
OBJECT__86
10
21.600000
20
-18.698000
30
59.509998
70
192
0
VERTEX
8
OBJECT__86
10
21.600000
20
0.000000
30
89.000000
70
192
0
VERTEX
8
OBJECT__86
10
21.600000
20
-2.773000
30
84.289001
70
192
0
VERTEX
8
OBJECT__86
10
21.600000
20
8.095000
30
82.725998
70
192
0
VERTEX
8
OBJECT__86
10
21.600000
20
-12.000000
30
85.785004
70
192
0
VERTEX
8
OBJECT__86
10
21.600000
20
-12.761000
30
79.726997
70
192
0
VERTEX
8
OBJECT__86
10
21.600000
20
-20.785000
30
77.000000
70
192
0
VERTEX
8
OBJECT__86
10
21.600000
20
-18.698000
30
70.489998
70
192
0
VERTEX
8
OBJECT__86
10
21.600000
20
20.785000
30
77.000000
70
192
0
VERTEX
8
OBJECT__86
10
21.600000
20
16.393999
30
75.535004
70
192
0
VERTEX
8
OBJECT__86
10
21.600000
20
19.487000
30
65.000000
70
192
0
VERTEX
8
OBJECT__86
10
21.600000
20
12.000000
30
85.785004
70
192
0
VERTEX
8
OBJECT__86
10
21.600000
20
0.000000
30
41.000000
70
192
0
VERTEX
8
OBJECT__86
10
21.600000
20
12.000000
30
44.215000
70
192
0
VERTEX
8
OBJECT__86
10
21.600000
20
8.095000
30
47.273998
70
192
0
VERTEX
8
OBJECT__86
10
21.600000
20
20.785000
30
53.000000
70
192
0
VERTEX
8
OBJECT__86
10
21.600000
20
16.393999
30
54.465000
70
192
0
VERTEX
8
OBJECT__86
10
21.600000
20
24.000000
30
65.000000
70
192
0
VERTEX
8
OBJECT__86
10
21.600000
20
-12.000000
30
44.215000
70
192
0
VERTEX
8
OBJECT__86
10
21.600000
20
-12.761000
30
50.272999
70
192
0
VERTEX
8
OBJECT__86
10
21.600000
20
-2.773000
30
45.710999
70
192
0
VERTEX
8
OBJECT__86
10
0
20
0
30
0
70
128
71
1
72
2
73
3
0
VERTEX
8
OBJECT__86
10
0
20
0
30
0
70
128
71
4
72
5
73
6
0
VERTEX
8
OBJECT__86
10
0
20
0
30
0
70
128
71
7
72
8
73
5
0
VERTEX
8
OBJECT__86
10
0
20
0
30
0
70
128
71
9
72
10
73
8
0
VERTEX
8
OBJECT__86
10
0
20
0
30
0
70
128
71
3
72
10
73
1
0
VERTEX
8
OBJECT__86
10
0
20
0
30
0
70
128
71
11
72
12
73
13
0
VERTEX
8
OBJECT__86
10
0
20
0
30
0
70
128
71
14
72
6
73
12
0
VERTEX
8
OBJECT__86
10
0
20
0
30
0
70
128
71
5
72
4
73
7
0
VERTEX
8
OBJECT__86
10
0
20
0
30
0
70
128
71
10
72
9
73
1
0
VERTEX
8
OBJECT__86
10
0
20
0
30
0
70
128
71
15
72
16
73
17
0
VERTEX
8
OBJECT__86
10
0
20
0
30
0
70
128
71
16
72
18
73
19
0
VERTEX
8
OBJECT__86
10
0
20
0
30
0
70
128
71
18
72
20
73
13
0
VERTEX
8
OBJECT__86
10
0
20
0
30
0
70
128
71
12
72
11
73
14
0
VERTEX
8
OBJECT__86
10
0
20
0
30
0
70
128
71
8
72
7
73
9
0
VERTEX
8
OBJECT__86
10
0
20
0
30
0
70
128
71
2
72
21
73
22
0
VERTEX
8
OBJECT__86
10
0
20
0
30
0
70
128
71
19
72
17
73
16
0
VERTEX
8
OBJECT__86
10
0
20
0
30
0
70
128
71
13
72
20
73
11
0
VERTEX
8
OBJECT__86
10
0
20
0
30
0
70
128
71
22
72
3
73
2
0
VERTEX
8
OBJECT__86
10
0
20
0
30
0
70
128
71
21
72
15
73
23
0
VERTEX
8
OBJECT__86
10
0
20
0
30
0
70
128
71
13
72
19
73
18
0
VERTEX
8
OBJECT__86
10
0
20
0
30
0
70
128
71
23
72
22
73
21
0
VERTEX
8
OBJECT__86
10
0
20
0
30
0
70
128
71
6
72
14
73
4
0
VERTEX
8
OBJECT__86
10
0
20
0
30
0
70
128
71
17
72
23
73
15
0
SEQEND
8
OBJECT__86
0
POLYLINE
8
OBJECT__88
66
1
70
64
71
24
72
24
62
253
0
VERTEX
8
OBJECT__88
10
13.600000
20
25.799999
30
65.000000
70
192
0
VERTEX
8
OBJECT__88
10
21.600000
20
24.000000
30
65.000000
70
192
0
VERTEX
8
OBJECT__88
10
21.600000
20
20.785000
30
53.000000
70
192
0
VERTEX
8
OBJECT__88
10
13.600000
20
22.343000
30
52.099998
70
192
0
VERTEX
8
OBJECT__88
10
21.600000
20
12.000000
30
44.215000
70
192
0
VERTEX
8
OBJECT__88
10
13.600000
20
0.000000
30
39.200001
70
192
0
VERTEX
8
OBJECT__88
10
13.600000
20
12.900000
30
42.657001
70
192
0
VERTEX
8
OBJECT__88
10
13.600000
20
-12.900000
30
42.657001
70
192
0
VERTEX
8
OBJECT__88
10
21.600000
20
0.000000
30
41.000000
70
192
0
VERTEX
8
OBJECT__88
10
13.600000
20
-22.343000
30
52.099998
70
192
0
VERTEX
8
OBJECT__88
10
21.600000
20
-12.000000
30
44.215000
70
192
0
VERTEX
8
OBJECT__88
10
13.600000
20
-25.799999
30
65.000000
70
192
0
VERTEX
8
OBJECT__88
10
21.600000
20
-20.785000
30
53.000000
70
192
0
VERTEX
8
OBJECT__88
10
13.600000
20
-22.343000
30
77.900002
70
192
0
VERTEX
8
OBJECT__88
10
21.600000
20
-24.000000
30
65.000000
70
192
0
VERTEX
8
OBJECT__88
10
13.600000
20
-12.900000
30
87.343002
70
192
0
VERTEX
8
OBJECT__88
10
21.600000
20
-20.785000
30
77.000000
70
192
0
VERTEX
8
OBJECT__88
10
13.600000
20
0.000000
30
90.800003
70
192
0
VERTEX
8
OBJECT__88
10
21.600000
20
-12.000000
30
85.785004
70
192
0
VERTEX
8
OBJECT__88
10
21.600000
20
0.000000
30
89.000000
70
192
0
VERTEX
8
OBJECT__88
10
21.600000
20
12.000000
30
85.785004
70
192
0
VERTEX
8
OBJECT__88
10
13.600000
20
12.900000
30
87.343002
70
192
0
VERTEX
8
OBJECT__88
10
21.600000
20
20.785000
30
77.000000
70
192
0
VERTEX
8
OBJECT__88
10
13.600000
20
22.343000
30
77.900002
70
192
0
VERTEX
8
OBJECT__88
10
0
20
0
30
0
70
128
71
1
72
2
73
3
0
VERTEX
8
OBJECT__88
10
0
20
0
30
0
70
128
71
4
72
3
73
5
0
VERTEX
8
OBJECT__88
10
0
20
0
30
0
70
128
71
6
72
7
73
5
0
VERTEX
8
OBJECT__88
10
0
20
0
30
0
70
128
71
8
72
6
73
9
0
VERTEX
8
OBJECT__88
10
0
20
0
30
0
70
128
71
10
72
8
73
11
0
VERTEX
8
OBJECT__88
10
0
20
0
30
0
70
128
71
12
72
10
73
13
0
VERTEX
8
OBJECT__88
10
0
20
0
30
0
70
128
71
14
72
12
73
15
0
VERTEX
8
OBJECT__88
10
0
20
0
30
0
70
128
71
16
72
14
73
17
0
VERTEX
8
OBJECT__88
10
0
20
0
30
0
70
128
71
18
72
16
73
19
0
VERTEX
8
OBJECT__88
10
0
20
0
30
0
70
128
71
18
72
20
73
21
0
VERTEX
8
OBJECT__88
10
0
20
0
30
0
70
128
71
22
72
21
73
23
0
VERTEX
8
OBJECT__88
10
0
20
0
30
0
70
128
71
24
72
23
73
2
0
VERTEX
8
OBJECT__88
10
0
20
0
30
0
70
128
71
2
72
1
73
24
0
VERTEX
8
OBJECT__88
10
0
20
0
30
0
70
128
71
23
72
24
73
22
0
VERTEX
8
OBJECT__88
10
0
20
0
30
0
70
128
71
21
72
22
73
18
0
VERTEX
8
OBJECT__88
10
0
20
0
30
0
70
128
71
19
72
20
73
18
0
VERTEX
8
OBJECT__88
10
0
20
0
30
0
70
128
71
17
72
19
73
16
0
VERTEX
8
OBJECT__88
10
0
20
0
30
0
70
128
71
15
72
17
73
14
0
VERTEX
8
OBJECT__88
10
0
20
0
30
0
70
128
71
13
72
15
73
12
0
VERTEX
8
OBJECT__88
10
0
20
0
30
0
70
128
71
11
72
13
73
10
0
VERTEX
8
OBJECT__88
10
0
20
0
30
0
70
128
71
9
72
11
73
8
0
VERTEX
8
OBJECT__88
10
0
20
0
30
0
70
128
71
5
72
9
73
6
0
VERTEX
8
OBJECT__88
10
0
20
0
30
0
70
128
71
5
72
7
73
4
0
VERTEX
8
OBJECT__88
10
0
20
0
30
0
70
128
71
3
72
4
73
1
0
SEQEND
8
OBJECT__88
0
POLYLINE
8
OBJECT__89
66
1
70
64
71
12
72
10
62
253
0
VERTEX
8
OBJECT__89
10
9.525000
20
0.000000
30
91.750000
70
192
0
VERTEX
8
OBJECT__89
10
9.525000
20
-23.166000
30
78.375000
70
192
0
VERTEX
8
OBJECT__89
10
9.525000
20
-26.750000
30
65.000000
70
192
0
VERTEX
8
OBJECT__89
10
9.525000
20
13.375000
30
41.834000
70
192
0
VERTEX
8
OBJECT__89
10
9.525000
20
23.166000
30
51.625000
70
192
0
VERTEX
8
OBJECT__89
10
9.525000
20
26.750000
30
65.000000
70
192
0
VERTEX
8
OBJECT__89
10
9.525000
20
-13.375000
30
88.166000
70
192
0
VERTEX
8
OBJECT__89
10
9.525000
20
23.166000
30
78.375000
70
192
0
VERTEX
8
OBJECT__89
10
9.525000
20
0.000000
30
38.250000
70
192
0
VERTEX
8
OBJECT__89
10
9.525000
20
-23.166000
30
51.625000
70
192
0
VERTEX
8
OBJECT__89
10
9.525000
20
-13.375000
30
41.834000
70
192
0
VERTEX
8
OBJECT__89
10
9.525000
20
13.375000
30
88.166000
70
192
0
VERTEX
8
OBJECT__89
10
0
20
0
30
0
70
128
71
1
72
2
73
3
0
VERTEX
8
OBJECT__89
10
0
20
0
30
0
70
128
71
4
72
5
73
6
0
VERTEX
8
OBJECT__89
10
0
20
0
30
0
70
128
71
1
72
7
73
2
0
VERTEX
8
OBJECT__89
10
0
20
0
30
0
70
128
71
8
72
9
73
4
0
VERTEX
8
OBJECT__89
10
0
20
0
30
0
70
128
71
8
72
10
73
11
0
VERTEX
8
OBJECT__89
10
0
20
0
30
0
70
128
71
10
72
12
73
1
0
VERTEX
8
OBJECT__89
10
0
20
0
30
0
70
128
71
11
72
9
73
8
0
VERTEX
8
OBJECT__89
10
0
20
0
30
0
70
128
71
10
72
8
73
12
0
VERTEX
8
OBJECT__89
10
0
20
0
30
0
70
128
71
3
72
10
73
1
0
VERTEX
8
OBJECT__89
10
0
20
0
30
0
70
128
71
6
72
8
73
4
0
SEQEND
8
OBJECT__89
0
POLYLINE
8
OBJECT__90
66
1
70
64
71
24
72
24
62
253
0
VERTEX
8
OBJECT__90
10
9.525000
20
-23.166000
30
78.375000
70
192
0
VERTEX
8
OBJECT__90
10
13.300000
20
-23.166000
30
78.375000
70
192
0
VERTEX
8
OBJECT__90
10
13.300000
20
-26.750000
30
65.000000
70
192
0
VERTEX
8
OBJECT__90
10
13.300000
20
-13.375000
30
88.166000
70
192
0
VERTEX
8
OBJECT__90
10
13.300000
20
0.000000
30
91.750000
70
192
0
VERTEX
8
OBJECT__90
10
9.525000
20
-13.375000
30
88.166000
70
192
0
VERTEX
8
OBJECT__90
10
13.300000
20
13.375000
30
88.166000
70
192
0
VERTEX
8
OBJECT__90
10
9.525000
20
0.000000
30
91.750000
70
192
0
VERTEX
8
OBJECT__90
10
13.300000
20
23.166000
30
78.375000
70
192
0
VERTEX
8
OBJECT__90
10
9.525000
20
13.375000
30
88.166000
70
192
0
VERTEX
8
OBJECT__90
10
9.525000
20
26.750000
30
65.000000
70
192
0
VERTEX
8
OBJECT__90
10
13.300000
20
26.750000
30
65.000000
70
192
0
VERTEX
8
OBJECT__90
10
9.525000
20
23.166000
30
51.625000
70
192
0
VERTEX
8
OBJECT__90
10
13.300000
20
23.166000
30
51.625000
70
192
0
VERTEX
8
OBJECT__90
10
9.525000
20
13.375000
30
41.834000
70
192
0
VERTEX
8
OBJECT__90
10
13.300000
20
13.375000
30
41.834000
70
192
0
VERTEX
8
OBJECT__90
10
9.525000
20
0.000000
30
38.250000
70
192
0
VERTEX
8
OBJECT__90
10
13.300000
20
0.000000
30
38.250000
70
192
0
VERTEX
8
OBJECT__90
10
9.525000
20
-13.375000
30
41.834000
70
192
0
VERTEX
8
OBJECT__90
10
13.300000
20
-13.375000
30
41.834000
70
192
0
VERTEX
8
OBJECT__90
10
9.525000
20
-23.166000
30
51.625000
70
192
0
VERTEX
8
OBJECT__90
10
13.300000
20
-23.166000
30
51.625000
70
192
0
VERTEX
8
OBJECT__90
10
9.525000
20
-26.750000
30
65.000000
70
192
0
VERTEX
8
OBJECT__90
10
9.525000
20
23.166000
30
78.375000
70
192
0
VERTEX
8
OBJECT__90
10
0
20
0
30
0
70
128
71
1
72
2
73
3
0
VERTEX
8
OBJECT__90
10
0
20
0
30
0
70
128
71
4
72
2
73
1
0
VERTEX
8
OBJECT__90
10
0
20
0
30
0
70
128
71
5
72
4
73
6
0
VERTEX
8
OBJECT__90
10
0
20
0
30
0
70
128
71
7
72
5
73
8
0
VERTEX
8
OBJECT__90
10
0
20
0
30
0
70
128
71
9
72
7
73
10
0
VERTEX
8
OBJECT__90
10
0
20
0
30
0
70
128
71
11
72
12
73
9
0
VERTEX
8
OBJECT__90
10
0
20
0
30
0
70
128
71
13
72
14
73
12
0
VERTEX
8
OBJECT__90
10
0
20
0
30
0
70
128
71
15
72
16
73
14
0
VERTEX
8
OBJECT__90
10
0
20
0
30
0
70
128
71
17
72
18
73
16
0
VERTEX
8
OBJECT__90
10
0
20
0
30
0
70
128
71
19
72
20
73
18
0
VERTEX
8
OBJECT__90
10
0
20
0
30
0
70
128
71
21
72
22
73
20
0
VERTEX
8
OBJECT__90
10
0
20
0
30
0
70
128
71
23
72
3
73
22
0
VERTEX
8
OBJECT__90
10
0
20
0
30
0
70
128
71
22
72
21
73
23
0
VERTEX
8
OBJECT__90
10
0
20
0
30
0
70
128
71
20
72
19
73
21
0
VERTEX
8
OBJECT__90
10
0
20
0
30
0
70
128
71
18
72
17
73
19
0
VERTEX
8
OBJECT__90
10
0
20
0
30
0
70
128
71
16
72
15
73
17
0
VERTEX
8
OBJECT__90
10
0
20
0
30
0
70
128
71
14
72
13
73
15
0
VERTEX
8
OBJECT__90
10
0
20
0
30
0
70
128
71
12
72
11
73
13
0
VERTEX
8
OBJECT__90
10
0
20
0
30
0
70
128
71
9
72
24
73
11
0
VERTEX
8
OBJECT__90
10
0
20
0
30
0
70
128
71
10
72
24
73
9
0
VERTEX
8
OBJECT__90
10
0
20
0
30
0
70
128
71
8
72
10
73
7
0
VERTEX
8
OBJECT__90
10
0
20
0
30
0
70
128
71
6
72
8
73
5
0
VERTEX
8
OBJECT__90
10
0
20
0
30
0
70
128
71
1
72
6
73
4
0
VERTEX
8
OBJECT__90
10
0
20
0
30
0
70
128
71
3
72
23
73
1
0
SEQEND
8
OBJECT__90
0
POLYLINE
8
OBJECT__92
66
1
70
64
71
28
72
30
62
253
0
VERTEX
8
OBJECT__92
10
13.300000
20
-13.375000
30
3.166000
70
192
0
VERTEX
8
OBJECT__92
10
13.300000
20
0.000000
30
6.750000
70
192
0
VERTEX
8
OBJECT__92
10
13.300000
20
0.000000
30
38.250000
70
192
0
VERTEX
8
OBJECT__92
10
13.300000
20
-13.375000
30
41.834000
70
192
0
VERTEX
8
OBJECT__92
10
13.300000
20
13.375000
30
41.834000
70
192
0
VERTEX
8
OBJECT__92
10
13.300000
20
13.375000
30
3.166000
70
192
0
VERTEX
8
OBJECT__92
10
13.300000
20
-23.166000
30
51.625000
70
192
0
VERTEX
8
OBJECT__92
10
13.300000
20
-23.166000
30
-6.625000
70
192
0
VERTEX
8
OBJECT__92
10
13.300000
20
23.166000
30
51.625000
70
192
0
VERTEX
8
OBJECT__92
10
13.300000
20
85.500000
30
117.000000
70
192
0
VERTEX
8
OBJECT__92
10
13.300000
20
26.750000
30
65.000000
70
192
0
VERTEX
8
OBJECT__92
10
13.300000
20
-85.500000
30
-79.500000
70
192
0
VERTEX
8
OBJECT__92
10
13.300000
20
-26.750000
30
-20.000000
70
192
0
VERTEX
8
OBJECT__92
10
13.300000
20
-13.375000
30
-43.166000
70
192
0
VERTEX
8
OBJECT__92
10
13.300000
20
-23.166000
30
-33.375000
70
192
0
VERTEX
8
OBJECT__92
10
13.300000
20
85.500000
30
-79.500000
70
192
0
VERTEX
8
OBJECT__92
10
13.300000
20
13.375000
30
-43.166000
70
192
0
VERTEX
8
OBJECT__92
10
13.300000
20
0.000000
30
-46.750000
70
192
0
VERTEX
8
OBJECT__92
10
13.300000
20
-85.500000
30
117.000000
70
192
0
VERTEX
8
OBJECT__92
10
13.300000
20
-26.750000
30
65.000000
70
192
0
VERTEX
8
OBJECT__92
10
13.300000
20
-23.166000
30
78.375000
70
192
0
VERTEX
8
OBJECT__92
10
13.300000
20
0.000000
30
91.750000
70
192
0
VERTEX
8
OBJECT__92
10
13.300000
20
13.375000
30
88.166000
70
192
0
VERTEX
8
OBJECT__92
10
13.300000
20
-13.375000
30
88.166000
70
192
0
VERTEX
8
OBJECT__92
10
13.300000
20
23.166000
30
-33.375000
70
192
0
VERTEX
8
OBJECT__92
10
13.300000
20
26.750000
30
-20.000000
70
192
0
VERTEX
8
OBJECT__92
10
13.300000
20
23.166000
30
-6.625000
70
192
0
VERTEX
8
OBJECT__92
10
13.300000
20
23.166000
30
78.375000
70
192
0
VERTEX
8
OBJECT__92
10
0
20
0
30
0
70
128
71
1
72
2
73
3
0
VERTEX
8
OBJECT__92
10
0
20
0
30
0
70
128
71
3
72
4
73
1
0
VERTEX
8
OBJECT__92
10
0
20
0
30
0
70
128
71
5
72
3
73
2
0
VERTEX
8
OBJECT__92
10
0
20
0
30
0
70
128
71
2
72
6
73
5
0
VERTEX
8
OBJECT__92
10
0
20
0
30
0
70
128
71
7
72
8
73
1
0
VERTEX
8
OBJECT__92
10
0
20
0
30
0
70
128
71
6
72
9
73
5
0
VERTEX
8
OBJECT__92
10
0
20
0
30
0
70
128
71
10
72
11
73
9
0
VERTEX
8
OBJECT__92
10
0
20
0
30
0
70
128
71
12
72
13
73
8
0
VERTEX
8
OBJECT__92
10
0
20
0
30
0
70
128
71
12
72
14
73
15
0
VERTEX
8
OBJECT__92
10
0
20
0
30
0
70
128
71
16
72
17
73
18
0
VERTEX
8
OBJECT__92
10
0
20
0
30
0
70
128
71
19
72
20
73
21
0
VERTEX
8
OBJECT__92
10
0
20
0
30
0
70
128
71
12
72
7
73
20
0
VERTEX
8
OBJECT__92
10
0
20
0
30
0
70
128
71
9
72
6
73
10
0
VERTEX
8
OBJECT__92
10
0
20
0
30
0
70
128
71
15
72
13
73
12
0
VERTEX
8
OBJECT__92
10
0
20
0
30
0
70
128
71
18
72
12
73
16
0
VERTEX
8
OBJECT__92
10
0
20
0
30
0
70
128
71
10
72
22
73
23
0
VERTEX
8
OBJECT__92
10
0
20
0
30
0
70
128
71
19
72
24
73
22
0
VERTEX
8
OBJECT__92
10
0
20
0
30
0
70
128
71
20
72
19
73
12
0
VERTEX
8
OBJECT__92
10
0
20
0
30
0
70
128
71
8
72
7
73
12
0
VERTEX
8
OBJECT__92
10
0
20
0
30
0
70
128
71
16
72
25
73
17
0
VERTEX
8
OBJECT__92
10
0
20
0
30
0
70
128
71
22
72
10
73
19
0
VERTEX
8
OBJECT__92
10
0
20
0
30
0
70
128
71
4
72
7
73
1
0
VERTEX
8
OBJECT__92
10
0
20
0
30
0
70
128
71
16
72
26
73
25
0
VERTEX
8
OBJECT__92
10
0
20
0
30
0
70
128
71
10
72
27
73
26
0
VERTEX
8
OBJECT__92
10
0
20
0
30
0
70
128
71
23
72
28
73
10
0
VERTEX
8
OBJECT__92
10
0
20
0
30
0
70
128
71
18
72
14
73
12
0
VERTEX
8
OBJECT__92
10
0
20
0
30
0
70
128
71
10
72
6
73
27
0
VERTEX
8
OBJECT__92
10
0
20
0
30
0
70
128
71
21
72
24
73
19
0
VERTEX
8
OBJECT__92
10
0
20
0
30
0
70
128
71
28
72
11
73
10
0
VERTEX
8
OBJECT__92
10
0
20
0
30
0
70
128
71
26
72
16
73
10
0
SEQEND
8
OBJECT__92
0
POLYLINE
8
OBJECT__93
66
1
70
64
71
4
72
2
62
253
0
VERTEX
8
OBJECT__93
10
0.000000
20
-85.500000
30
117.000000
70
192
0
VERTEX
8
OBJECT__93
10
13.300000
20
-85.500000
30
117.000000
70
192
0
VERTEX
8
OBJECT__93
10
13.300000
20
85.500000
30
117.000000
70
192
0
VERTEX
8
OBJECT__93
10
0.000000
20
85.500000
30
117.000000
70
192
0
VERTEX
8
OBJECT__93
10
0
20
0
30
0
70
128
71
1
72
2
73
3
0
VERTEX
8
OBJECT__93
10
0
20
0
30
0
70
128
71
3
72
4
73
1
0
SEQEND
8
OBJECT__93
0
POLYLINE
8
OBJECT__94
66
1
70
64
71
4
72
2
62
253
0
VERTEX
8
OBJECT__94
10
0.000000
20
85.500000
30
-79.500000
70
192
0
VERTEX
8
OBJECT__94
10
0.000000
20
-85.500000
30
-79.500000
70
192
0
VERTEX
8
OBJECT__94
10
0.000000
20
-85.500000
30
117.000000
70
192
0
VERTEX
8
OBJECT__94
10
0.000000
20
85.500000
30
117.000000
70
192
0
VERTEX
8
OBJECT__94
10
0
20
0
30
0
70
128
71
1
72
2
73
3
0
VERTEX
8
OBJECT__94
10
0
20
0
30
0
70
128
71
3
72
4
73
1
0
SEQEND
8
OBJECT__94
0
POLYLINE
8
OBJECT__95
66
1
70
64
71
4
72
2
62
253
0
VERTEX
8
OBJECT__95
10
0.000000
20
85.500000
30
117.000000
70
192
0
VERTEX
8
OBJECT__95
10
13.300000
20
85.500000
30
117.000000
70
192
0
VERTEX
8
OBJECT__95
10
13.300000
20
85.500000
30
-79.500000
70
192
0
VERTEX
8
OBJECT__95
10
0.000000
20
85.500000
30
-79.500000
70
192
0
VERTEX
8
OBJECT__95
10
0
20
0
30
0
70
128
71
1
72
2
73
3
0
VERTEX
8
OBJECT__95
10
0
20
0
30
0
70
128
71
3
72
4
73
1
0
SEQEND
8
OBJECT__95
0
POLYLINE
8
OBJECT__96
66
1
70
64
71
4
72
2
62
253
0
VERTEX
8
OBJECT__96
10
0.000000
20
-85.500000
30
-79.500000
70
192
0
VERTEX
8
OBJECT__96
10
0.000000
20
85.500000
30
-79.500000
70
192
0
VERTEX
8
OBJECT__96
10
13.300000
20
85.500000
30
-79.500000
70
192
0
VERTEX
8
OBJECT__96
10
13.300000
20
-85.500000
30
-79.500000
70
192
0
VERTEX
8
OBJECT__96
10
0
20
0
30
0
70
128
71
1
72
2
73
3
0
VERTEX
8
OBJECT__96
10
0
20
0
30
0
70
128
71
3
72
4
73
1
0
SEQEND
8
OBJECT__96
0
POLYLINE
8
OBJECT__97
66
1
70
64
71
4
72
2
62
253
0
VERTEX
8
OBJECT__97
10
0.000000
20
-85.500000
30
117.000000
70
192
0
VERTEX
8
OBJECT__97
10
0.000000
20
-85.500000
30
-79.500000
70
192
0
VERTEX
8
OBJECT__97
10
13.300000
20
-85.500000
30
-79.500000
70
192
0
VERTEX
8
OBJECT__97
10
13.300000
20
-85.500000
30
117.000000
70
192
0
VERTEX
8
OBJECT__97
10
0
20
0
30
0
70
128
71
1
72
2
73
3
0
VERTEX
8
OBJECT__97
10
0
20
0
30
0
70
128
71
3
72
4
73
1
0
SEQEND
8
OBJECT__97
0
POLYLINE
8
OBJECT__98
66
1
70
64
71
24
72
24
62
253
0
VERTEX
8
OBJECT__98
10
9.525000
20
-23.166000
30
-6.625000
70
192
0
VERTEX
8
OBJECT__98
10
13.300000
20
-23.166000
30
-6.625000
70
192
0
VERTEX
8
OBJECT__98
10
13.300000
20
-26.750000
30
-20.000000
70
192
0
VERTEX
8
OBJECT__98
10
13.300000
20
-13.375000
30
3.166000
70
192
0
VERTEX
8
OBJECT__98
10
13.300000
20
0.000000
30
6.750000
70
192
0
VERTEX
8
OBJECT__98
10
9.525000
20
-13.375000
30
3.166000
70
192
0
VERTEX
8
OBJECT__98
10
13.300000
20
13.375000
30
3.166000
70
192
0
VERTEX
8
OBJECT__98
10
9.525000
20
0.000000
30
6.750000
70
192
0
VERTEX
8
OBJECT__98
10
13.300000
20
23.166000
30
-6.625000
70
192
0
VERTEX
8
OBJECT__98
10
9.525000
20
13.375000
30
3.166000
70
192
0
VERTEX
8
OBJECT__98
10
9.525000
20
26.750000
30
-20.000000
70
192
0
VERTEX
8
OBJECT__98
10
13.300000
20
26.750000
30
-20.000000
70
192
0
VERTEX
8
OBJECT__98
10
9.525000
20
23.166000
30
-33.375000
70
192
0
VERTEX
8
OBJECT__98
10
13.300000
20
23.166000
30
-33.375000
70
192
0
VERTEX
8
OBJECT__98
10
9.525000
20
13.375000
30
-43.166000
70
192
0
VERTEX
8
OBJECT__98
10
13.300000
20
13.375000
30
-43.166000
70
192
0
VERTEX
8
OBJECT__98
10
9.525000
20
0.000000
30
-46.750000
70
192
0
VERTEX
8
OBJECT__98
10
13.300000
20
0.000000
30
-46.750000
70
192
0
VERTEX
8
OBJECT__98
10
9.525000
20
-13.375000
30
-43.166000
70
192
0
VERTEX
8
OBJECT__98
10
13.300000
20
-13.375000
30
-43.166000
70
192
0
VERTEX
8
OBJECT__98
10
9.525000
20
-23.166000
30
-33.375000
70
192
0
VERTEX
8
OBJECT__98
10
13.300000
20
-23.166000
30
-33.375000
70
192
0
VERTEX
8
OBJECT__98
10
9.525000
20
-26.750000
30
-20.000000
70
192
0
VERTEX
8
OBJECT__98
10
9.525000
20
23.166000
30
-6.625000
70
192
0
VERTEX
8
OBJECT__98
10
0
20
0
30
0
70
128
71
1
72
2
73
3
0
VERTEX
8
OBJECT__98
10
0
20
0
30
0
70
128
71
4
72
2
73
1
0
VERTEX
8
OBJECT__98
10
0
20
0
30
0
70
128
71
5
72
4
73
6
0
VERTEX
8
OBJECT__98
10
0
20
0
30
0
70
128
71
7
72
5
73
8
0
VERTEX
8
OBJECT__98
10
0
20
0
30
0
70
128
71
9
72
7
73
10
0
VERTEX
8
OBJECT__98
10
0
20
0
30
0
70
128
71
11
72
12
73
9
0
VERTEX
8
OBJECT__98
10
0
20
0
30
0
70
128
71
13
72
14
73
12
0
VERTEX
8
OBJECT__98
10
0
20
0
30
0
70
128
71
15
72
16
73
14
0
VERTEX
8
OBJECT__98
10
0
20
0
30
0
70
128
71
17
72
18
73
16
0
VERTEX
8
OBJECT__98
10
0
20
0
30
0
70
128
71
19
72
20
73
18
0
VERTEX
8
OBJECT__98
10
0
20
0
30
0
70
128
71
21
72
22
73
20
0
VERTEX
8
OBJECT__98
10
0
20
0
30
0
70
128
71
23
72
3
73
22
0
VERTEX
8
OBJECT__98
10
0
20
0
30
0
70
128
71
22
72
21
73
23
0
VERTEX
8
OBJECT__98
10
0
20
0
30
0
70
128
71
20
72
19
73
21
0
VERTEX
8
OBJECT__98
10
0
20
0
30
0
70
128
71
18
72
17
73
19
0
VERTEX
8
OBJECT__98
10
0
20
0
30
0
70
128
71
16
72
15
73
17
0
VERTEX
8
OBJECT__98
10
0
20
0
30
0
70
128
71
14
72
13
73
15
0
VERTEX
8
OBJECT__98
10
0
20
0
30
0
70
128
71
12
72
11
73
13
0
VERTEX
8
OBJECT__98
10
0
20
0
30
0
70
128
71
9
72
24
73
11
0
VERTEX
8
OBJECT__98
10
0
20
0
30
0
70
128
71
10
72
24
73
9
0
VERTEX
8
OBJECT__98
10
0
20
0
30
0
70
128
71
8
72
10
73
7
0
VERTEX
8
OBJECT__98
10
0
20
0
30
0
70
128
71
6
72
8
73
5
0
VERTEX
8
OBJECT__98
10
0
20
0
30
0
70
128
71
1
72
6
73
4
0
VERTEX
8
OBJECT__98
10
0
20
0
30
0
70
128
71
3
72
23
73
1
0
SEQEND
8
OBJECT__98
0
POLYLINE
8
OBJECT__99
66
1
70
64
71
12
72
10
62
253
0
VERTEX
8
OBJECT__99
10
9.525000
20
-13.375000
30
3.166000
70
192
0
VERTEX
8
OBJECT__99
10
9.525000
20
-26.750000
30
-20.000000
70
192
0
VERTEX
8
OBJECT__99
10
9.525000
20
-23.166000
30
-33.375000
70
192
0
VERTEX
8
OBJECT__99
10
9.525000
20
23.166000
30
-6.625000
70
192
0
VERTEX
8
OBJECT__99
10
9.525000
20
13.375000
30
-43.166000
70
192
0
VERTEX
8
OBJECT__99
10
9.525000
20
23.166000
30
-33.375000
70
192
0
VERTEX
8
OBJECT__99
10
9.525000
20
-23.166000
30
-6.625000
70
192
0
VERTEX
8
OBJECT__99
10
9.525000
20
26.750000
30
-20.000000
70
192
0
VERTEX
8
OBJECT__99
10
9.525000
20
13.375000
30
3.166000
70
192
0
VERTEX
8
OBJECT__99
10
9.525000
20
-13.375000
30
-43.166000
70
192
0
VERTEX
8
OBJECT__99
10
9.525000
20
0.000000
30
-46.750000
70
192
0
VERTEX
8
OBJECT__99
10
9.525000
20
0.000000
30
6.750000
70
192
0
VERTEX
8
OBJECT__99
10
0
20
0
30
0
70
128
71
1
72
2
73
3
0
VERTEX
8
OBJECT__99
10
0
20
0
30
0
70
128
71
4
72
5
73
6
0
VERTEX
8
OBJECT__99
10
0
20
0
30
0
70
128
71
1
72
7
73
2
0
VERTEX
8
OBJECT__99
10
0
20
0
30
0
70
128
71
6
72
8
73
4
0
VERTEX
8
OBJECT__99
10
0
20
0
30
0
70
128
71
9
72
10
73
11
0
VERTEX
8
OBJECT__99
10
0
20
0
30
0
70
128
71
10
72
12
73
1
0
VERTEX
8
OBJECT__99
10
0
20
0
30
0
70
128
71
11
72
5
73
9
0
VERTEX
8
OBJECT__99
10
0
20
0
30
0
70
128
71
10
72
9
73
12
0
VERTEX
8
OBJECT__99
10
0
20
0
30
0
70
128
71
3
72
10
73
1
0
VERTEX
8
OBJECT__99
10
0
20
0
30
0
70
128
71
4
72
9
73
5
0
SEQEND
8
OBJECT__99
0
POLYLINE
8
OBJECT__100
66
1
70
64
71
62
72
79
62
253
0
VERTEX
8
OBJECT__100
10
13.014000
20
0.000000
30
90.664001
70
192
0
VERTEX
8
OBJECT__100
10
13.600000
20
0.000000
30
89.250000
70
192
0
VERTEX
8
OBJECT__100
10
13.600000
20
8.760000
30
87.612000
70
192
0
VERTEX
8
OBJECT__100
10
13.014000
20
17.290001
30
83.966003
70
192
0
VERTEX
8
OBJECT__100
10
13.014000
20
9.271000
30
88.931000
70
192
0
VERTEX
8
OBJECT__100
10
13.014000
20
22.974001
30
76.440002
70
192
0
VERTEX
8
OBJECT__100
10
13.600000
20
16.337000
30
82.920998
70
192
0
VERTEX
8
OBJECT__100
10
13.014000
20
25.555000
30
67.367996
70
192
0
VERTEX
8
OBJECT__100
10
13.600000
20
21.708000
30
75.808998
70
192
0
VERTEX
8
OBJECT__100
10
13.600000
20
24.146999
30
67.237999
70
192
0
VERTEX
8
OBJECT__100
10
13.600000
20
23.323999
30
58.363998
70
192
0
VERTEX
8
OBJECT__100
10
13.014000
20
24.684000
30
57.977001
70
192
0
VERTEX
8
OBJECT__100
10
13.600000
20
19.351999
30
50.386002
70
192
0
VERTEX
8
OBJECT__100
10
13.014000
20
13.510000
30
43.180000
70
192
0
VERTEX
8
OBJECT__100
10
13.014000
20
20.480000
30
49.534000
70
192
0
VERTEX
8
OBJECT__100
10
13.014000
20
4.716000
30
39.772999
70
192
0
VERTEX
8
OBJECT__100
10
13.600000
20
12.766000
30
44.382000
70
192
0
VERTEX
8
OBJECT__100
10
13.600000
20
4.456000
30
41.162998
70
192
0
VERTEX
8
OBJECT__100
10
13.600000
20
-4.456000
30
41.162998
70
192
0
VERTEX
8
OBJECT__100
10
13.014000
20
-13.510000
30
43.180000
70
192
0
VERTEX
8
OBJECT__100
10
13.014000
20
-4.716000
30
39.772999
70
192
0
VERTEX
8
OBJECT__100
10
13.014000
20
-20.480000
30
49.534000
70
192
0
VERTEX
8
OBJECT__100
10
13.600000
20
-12.766000
30
44.382000
70
192
0
VERTEX
8
OBJECT__100
10
13.600000
20
-19.351999
30
50.386002
70
192
0
VERTEX
8
OBJECT__100
10
13.600000
20
-23.323999
30
58.363998
70
192
0
VERTEX
8
OBJECT__100
10
13.014000
20
-25.555000
30
67.367996
70
192
0
VERTEX
8
OBJECT__100
10
13.014000
20
-24.684000
30
57.977001
70
192
0
VERTEX
8
OBJECT__100
10
13.014000
20
-22.974001
30
76.440002
70
192
0
VERTEX
8
OBJECT__100
10
13.600000
20
-24.146999
30
67.237999
70
192
0
VERTEX
8
OBJECT__100
10
13.014000
20
-17.290001
30
83.966003
70
192
0
VERTEX
8
OBJECT__100
10
13.600000
20
-21.708000
30
75.808998
70
192
0
VERTEX
8
OBJECT__100
10
13.014000
20
-9.271000
30
88.931000
70
192
0
VERTEX
8
OBJECT__100
10
13.600000
20
-16.337000
30
82.920998
70
192
0
VERTEX
8
OBJECT__100
10
13.600000
20
-8.760000
30
87.612000
70
192
0
VERTEX
8
OBJECT__100
10
11.600000
20
0.000000
30
91.250000
70
192
0
VERTEX
8
OBJECT__100
10
11.600000
20
17.684999
30
84.399002
70
192
0
VERTEX
8
OBJECT__100
10
11.600000
20
12.896000
30
87.363998
70
192
0
VERTEX
8
OBJECT__100
10
11.600000
20
22.535000
30
77.975998
70
192
0
VERTEX
8
OBJECT__100
10
11.600000
20
23.497999
30
76.700996
70
192
0
VERTEX
8
OBJECT__100
10
11.600000
20
25.247999
30
57.816002
70
192
0
VERTEX
8
OBJECT__100
10
11.600000
20
25.916000
30
65.030998
70
192
0
VERTEX
8
OBJECT__100
10
11.600000
20
22.378000
30
52.051998
70
192
0
VERTEX
8
OBJECT__100
10
11.600000
20
20.948000
30
49.181000
70
192
0
VERTEX
8
OBJECT__100
10
11.600000
20
4.823000
30
39.196999
70
192
0
VERTEX
8
OBJECT__100
10
11.600000
20
13.076000
30
42.394001
70
192
0
VERTEX
8
OBJECT__100
10
11.600000
20
-4.823000
30
39.196999
70
192
0
VERTEX
8
OBJECT__100
10
11.600000
20
0.000000
30
39.196999
70
192
0
VERTEX
8
OBJECT__100
10
11.600000
20
-13.076000
30
42.394001
70
192
0
VERTEX
8
OBJECT__100
10
11.600000
20
-13.819000
30
42.681999
70
192
0
VERTEX
8
OBJECT__100
10
11.600000
20
-20.948000
30
49.181000
70
192
0
VERTEX
8
OBJECT__100
10
11.600000
20
-25.247999
30
57.816002
70
192
0
VERTEX
8
OBJECT__100
10
11.600000
20
-22.378000
30
52.051998
70
192
0
VERTEX
8
OBJECT__100
10
11.600000
20
-25.916000
30
65.030998
70
192
0
VERTEX
8
OBJECT__100
10
11.600000
20
-26.138000
30
67.421997
70
192
0
VERTEX
8
OBJECT__100
10
11.600000
20
-23.497999
30
76.700996
70
192
0
VERTEX
8
OBJECT__100
10
11.600000
20
-17.684999
30
84.399002
70
192
0
VERTEX
8
OBJECT__100
10
11.600000
20
-22.535000
30
77.975998
70
192
0
VERTEX
8
OBJECT__100
10
11.600000
20
-12.896000
30
87.363998
70
192
0
VERTEX
8
OBJECT__100
10
11.600000
20
-9.483000
30
89.476997
70
192
0
VERTEX
8
OBJECT__100
10
11.600000
20
13.819000
30
42.681999
70
192
0
VERTEX
8
OBJECT__100
10
11.600000
20
26.138000
30
67.421997
70
192
0
VERTEX
8
OBJECT__100
10
11.600000
20
9.483000
30
89.476997
70
192
0
VERTEX
8
OBJECT__100
10
0
20
0
30
0
70
128
71
1
72
2
73
3
0
VERTEX
8
OBJECT__100
10
0
20
0
30
0
70
128
71
4
72
5
73
3
0
VERTEX
8
OBJECT__100
10
0
20
0
30
0
70
128
71
6
72
4
73
7
0
VERTEX
8
OBJECT__100
10
0
20
0
30
0
70
128
71
8
72
6
73
9
0
VERTEX
8
OBJECT__100
10
0
20
0
30
0
70
128
71
8
72
10
73
11
0
VERTEX
8
OBJECT__100
10
0
20
0
30
0
70
128
71
12
72
11
73
13
0
VERTEX
8
OBJECT__100
10
0
20
0
30
0
70
128
71
14
72
15
73
13
0
VERTEX
8
OBJECT__100
10
0
20
0
30
0
70
128
71
16
72
14
73
17
0
VERTEX
8
OBJECT__100
10
0
20
0
30
0
70
128
71
16
72
18
73
19
0
VERTEX
8
OBJECT__100
10
0
20
0
30
0
70
128
71
20
72
21
73
19
0
VERTEX
8
OBJECT__100
10
0
20
0
30
0
70
128
71
22
72
20
73
23
0
VERTEX
8
OBJECT__100
10
0
20
0
30
0
70
128
71
22
72
24
73
25
0
VERTEX
8
OBJECT__100
10
0
20
0
30
0
70
128
71
26
72
27
73
25
0
VERTEX
8
OBJECT__100
10
0
20
0
30
0
70
128
71
28
72
26
73
29
0
VERTEX
8
OBJECT__100
10
0
20
0
30
0
70
128
71
30
72
28
73
31
0
VERTEX
8
OBJECT__100
10
0
20
0
30
0
70
128
71
32
72
30
73
33
0
VERTEX
8
OBJECT__100
10
0
20
0
30
0
70
128
71
32
72
34
73
2
0
VERTEX
8
OBJECT__100
10
0
20
0
30
0
70
128
71
35
72
1
73
5
0
VERTEX
8
OBJECT__100
10
0
20
0
30
0
70
128
71
4
72
36
73
37
0
VERTEX
8
OBJECT__100
10
0
20
0
30
0
70
128
71
37
72
5
73
4
0
VERTEX
8
OBJECT__100
10
0
20
0
30
0
70
128
71
4
72
6
73
38
0
VERTEX
8
OBJECT__100
10
0
20
0
30
0
70
128
71
6
72
39
73
38
0
VERTEX
8
OBJECT__100
10
0
20
0
30
0
70
128
71
39
72
6
73
8
0
VERTEX
8
OBJECT__100
10
0
20
0
30
0
70
128
71
12
72
40
73
41
0
VERTEX
8
OBJECT__100
10
0
20
0
30
0
70
128
71
41
72
8
73
12
0
VERTEX
8
OBJECT__100
10
0
20
0
30
0
70
128
71
12
72
15
73
42
0
VERTEX
8
OBJECT__100
10
0
20
0
30
0
70
128
71
15
72
43
73
42
0
VERTEX
8
OBJECT__100
10
0
20
0
30
0
70
128
71
43
72
15
73
14
0
VERTEX
8
OBJECT__100
10
0
20
0
30
0
70
128
71
16
72
44
73
45
0
VERTEX
8
OBJECT__100
10
0
20
0
30
0
70
128
71
45
72
14
73
16
0
VERTEX
8
OBJECT__100
10
0
20
0
30
0
70
128
71
21
72
46
73
47
0
VERTEX
8
OBJECT__100
10
0
20
0
30
0
70
128
71
47
72
16
73
21
0
VERTEX
8
OBJECT__100
10
0
20
0
30
0
70
128
71
21
72
20
73
48
0
VERTEX
8
OBJECT__100
10
0
20
0
30
0
70
128
71
20
72
49
73
48
0
VERTEX
8
OBJECT__100
10
0
20
0
30
0
70
128
71
50
72
49
73
20
0
VERTEX
8
OBJECT__100
10
0
20
0
30
0
70
128
71
27
72
51
73
52
0
VERTEX
8
OBJECT__100
10
0
20
0
30
0
70
128
71
52
72
22
73
27
0
VERTEX
8
OBJECT__100
10
0
20
0
30
0
70
128
71
27
72
26
73
53
0
VERTEX
8
OBJECT__100
10
0
20
0
30
0
70
128
71
26
72
54
73
53
0
VERTEX
8
OBJECT__100
10
0
20
0
30
0
70
128
71
55
72
54
73
26
0
VERTEX
8
OBJECT__100
10
0
20
0
30
0
70
128
71
30
72
56
73
57
0
VERTEX
8
OBJECT__100
10
0
20
0
30
0
70
128
71
57
72
28
73
30
0
VERTEX
8
OBJECT__100
10
0
20
0
30
0
70
128
71
30
72
32
73
58
0
VERTEX
8
OBJECT__100
10
0
20
0
30
0
70
128
71
32
72
59
73
58
0
VERTEX
8
OBJECT__100
10
0
20
0
30
0
70
128
71
59
72
32
73
1
0
VERTEX
8
OBJECT__100
10
0
20
0
30
0
70
128
71
1
72
35
73
59
0
VERTEX
8
OBJECT__100
10
0
20
0
30
0
70
128
71
58
72
56
73
30
0
VERTEX
8
OBJECT__100
10
0
20
0
30
0
70
128
71
57
72
55
73
28
0
VERTEX
8
OBJECT__100
10
0
20
0
30
0
70
128
71
26
72
28
73
55
0
VERTEX
8
OBJECT__100
10
0
20
0
30
0
70
128
71
53
72
51
73
27
0
VERTEX
8
OBJECT__100
10
0
20
0
30
0
70
128
71
52
72
50
73
22
0
VERTEX
8
OBJECT__100
10
0
20
0
30
0
70
128
71
20
72
22
73
50
0
VERTEX
8
OBJECT__100
10
0
20
0
30
0
70
128
71
48
72
46
73
21
0
VERTEX
8
OBJECT__100
10
0
20
0
30
0
70
128
71
47
72
44
73
16
0
VERTEX
8
OBJECT__100
10
0
20
0
30
0
70
128
71
45
72
60
73
14
0
VERTEX
8
OBJECT__100
10
0
20
0
30
0
70
128
71
14
72
60
73
43
0
VERTEX
8
OBJECT__100
10
0
20
0
30
0
70
128
71
42
72
40
73
12
0
VERTEX
8
OBJECT__100
10
0
20
0
30
0
70
128
71
41
72
61
73
8
0
VERTEX
8
OBJECT__100
10
0
20
0
30
0
70
128
71
8
72
61
73
39
0
VERTEX
8
OBJECT__100
10
0
20
0
30
0
70
128
71
38
72
36
73
4
0
VERTEX
8
OBJECT__100
10
0
20
0
30
0
70
128
71
37
72
62
73
5
0
VERTEX
8
OBJECT__100
10
0
20
0
30
0
70
128
71
5
72
62
73
35
0
VERTEX
8
OBJECT__100
10
0
20
0
30
0
70
128
71
2
72
1
73
32
0
VERTEX
8
OBJECT__100
10
0
20
0
30
0
70
128
71
33
72
34
73
32
0
VERTEX
8
OBJECT__100
10
0
20
0
30
0
70
128
71
31
72
33
73
30
0
VERTEX
8
OBJECT__100
10
0
20
0
30
0
70
128
71
29
72
31
73
28
0
VERTEX
8
OBJECT__100
10
0
20
0
30
0
70
128
71
25
72
29
73
26
0
VERTEX
8
OBJECT__100
10
0
20
0
30
0
70
128
71
25
72
27
73
22
0
VERTEX
8
OBJECT__100
10
0
20
0
30
0
70
128
71
23
72
24
73
22
0
VERTEX
8
OBJECT__100
10
0
20
0
30
0
70
128
71
19
72
23
73
20
0
VERTEX
8
OBJECT__100
10
0
20
0
30
0
70
128
71
19
72
21
73
16
0
VERTEX
8
OBJECT__100
10
0
20
0
30
0
70
128
71
17
72
18
73
16
0
VERTEX
8
OBJECT__100
10
0
20
0
30
0
70
128
71
13
72
17
73
14
0
VERTEX
8
OBJECT__100
10
0
20
0
30
0
70
128
71
13
72
15
73
12
0
VERTEX
8
OBJECT__100
10
0
20
0
30
0
70
128
71
11
72
12
73
8
0
VERTEX
8
OBJECT__100
10
0
20
0
30
0
70
128
71
9
72
10
73
8
0
VERTEX
8
OBJECT__100
10
0
20
0
30
0
70
128
71
7
72
9
73
6
0
VERTEX
8
OBJECT__100
10
0
20
0
30
0
70
128
71
3
72
7
73
4
0
VERTEX
8
OBJECT__100
10
0
20
0
30
0
70
128
71
3
72
5
73
1
0
SEQEND
8
OBJECT__100
0
POLYLINE
8
OBJECT__101
66
1
70
64
71
40
72
40
62
253
0
VERTEX
8
OBJECT__101
10
2.149000
20
0.000000
30
91.250000
70
192
0
VERTEX
8
OBJECT__101
10
11.600000
20
0.000000
30
91.250000
70
192
0
VERTEX
8
OBJECT__101
10
11.600000
20
9.483000
30
89.476997
70
192
0
VERTEX
8
OBJECT__101
10
2.149000
20
13.125000
30
87.733002
70
192
0
VERTEX
8
OBJECT__101
10
2.149000
20
22.733000
30
78.125000
70
192
0
VERTEX
8
OBJECT__101
10
11.600000
20
17.684999
30
84.399002
70
192
0
VERTEX
8
OBJECT__101
10
11.600000
20
12.896000
30
87.363998
70
192
0
VERTEX
8
OBJECT__101
10
11.600000
20
23.497999
30
76.700996
70
192
0
VERTEX
8
OBJECT__101
10
11.600000
20
26.138000
30
67.421997
70
192
0
VERTEX
8
OBJECT__101
10
2.149000
20
26.250000
30
65.000000
70
192
0
VERTEX
8
OBJECT__101
10
11.600000
20
22.535000
30
77.975998
70
192
0
VERTEX
8
OBJECT__101
10
11.600000
20
25.916000
30
65.030998
70
192
0
VERTEX
8
OBJECT__101
10
11.600000
20
25.247999
30
57.816002
70
192
0
VERTEX
8
OBJECT__101
10
2.149000
20
22.733000
30
51.875000
70
192
0
VERTEX
8
OBJECT__101
10
2.149000
20
13.125000
30
42.266998
70
192
0
VERTEX
8
OBJECT__101
10
11.600000
20
20.948000
30
49.181000
70
192
0
VERTEX
8
OBJECT__101
10
11.600000
20
22.378000
30
52.051998
70
192
0
VERTEX
8
OBJECT__101
10
11.600000
20
13.819000
30
42.681999
70
192
0
VERTEX
8
OBJECT__101
10
11.600000
20
13.076000
30
42.394001
70
192
0
VERTEX
8
OBJECT__101
10
11.600000
20
4.823000
30
39.196999
70
192
0
VERTEX
8
OBJECT__101
10
2.149000
20
0.000000
30
38.750000
70
192
0
VERTEX
8
OBJECT__101
10
2.149000
20
-13.125000
30
42.266998
70
192
0
VERTEX
8
OBJECT__101
10
11.600000
20
-4.823000
30
39.196999
70
192
0
VERTEX
8
OBJECT__101
10
11.600000
20
0.000000
30
39.196999
70
192
0
VERTEX
8
OBJECT__101
10
11.600000
20
-13.819000
30
42.681999
70
192
0
VERTEX
8
OBJECT__101
10
11.600000
20
-20.948000
30
49.181000
70
192
0
VERTEX
8
OBJECT__101
10
2.149000
20
-22.733000
30
51.875000
70
192
0
VERTEX
8
OBJECT__101
10
11.600000
20
-13.076000
30
42.394001
70
192
0
VERTEX
8
OBJECT__101
10
2.149000
20
-26.250000
30
65.000000
70
192
0
VERTEX
8
OBJECT__101
10
11.600000
20
-25.247999
30
57.816002
70
192
0
VERTEX
8
OBJECT__101
10
11.600000
20
-22.378000
30
52.051998
70
192
0
VERTEX
8
OBJECT__101
10
2.149000
20
-22.733000
30
78.125000
70
192
0
VERTEX
8
OBJECT__101
10
11.600000
20
-26.138000
30
67.421997
70
192
0
VERTEX
8
OBJECT__101
10
11.600000
20
-25.916000
30
65.030998
70
192
0
VERTEX
8
OBJECT__101
10
11.600000
20
-23.497999
30
76.700996
70
192
0
VERTEX
8
OBJECT__101
10
11.600000
20
-22.535000
30
77.975998
70
192
0
VERTEX
8
OBJECT__101
10
11.600000
20
-17.684999
30
84.399002
70
192
0
VERTEX
8
OBJECT__101
10
2.149000
20
-13.125000
30
87.733002
70
192
0
VERTEX
8
OBJECT__101
10
11.600000
20
-9.483000
30
89.476997
70
192
0
VERTEX
8
OBJECT__101
10
11.600000
20
-12.896000
30
87.363998
70
192
0
VERTEX
8
OBJECT__101
10
0
20
0
30
0
70
128
71
1
72
2
73
3
0
VERTEX
8
OBJECT__101
10
0
20
0
30
0
70
128
71
3
72
4
73
1
0
VERTEX
8
OBJECT__101
10
0
20
0
30
0
70
128
71
5
72
4
73
6
0
VERTEX
8
OBJECT__101
10
0
20
0
30
0
70
128
71
4
72
7
73
6
0
VERTEX
8
OBJECT__101
10
0
20
0
30
0
70
128
71
5
72
8
73
9
0
VERTEX
8
OBJECT__101
10
0
20
0
30
0
70
128
71
9
72
10
73
5
0
VERTEX
8
OBJECT__101
10
0
20
0
30
0
70
128
71
5
72
11
73
8
0
VERTEX
8
OBJECT__101
10
0
20
0
30
0
70
128
71
10
72
12
73
13
0
VERTEX
8
OBJECT__101
10
0
20
0
30
0
70
128
71
13
72
14
73
10
0
VERTEX
8
OBJECT__101
10
0
20
0
30
0
70
128
71
15
72
14
73
16
0
VERTEX
8
OBJECT__101
10
0
20
0
30
0
70
128
71
14
72
17
73
16
0
VERTEX
8
OBJECT__101
10
0
20
0
30
0
70
128
71
16
72
18
73
15
0
VERTEX
8
OBJECT__101
10
0
20
0
30
0
70
128
71
15
72
19
73
20
0
VERTEX
8
OBJECT__101
10
0
20
0
30
0
70
128
71
20
72
21
73
15
0
VERTEX
8
OBJECT__101
10
0
20
0
30
0
70
128
71
22
72
21
73
23
0
VERTEX
8
OBJECT__101
10
0
20
0
30
0
70
128
71
21
72
24
73
23
0
VERTEX
8
OBJECT__101
10
0
20
0
30
0
70
128
71
22
72
25
73
26
0
VERTEX
8
OBJECT__101
10
0
20
0
30
0
70
128
71
26
72
27
73
22
0
VERTEX
8
OBJECT__101
10
0
20
0
30
0
70
128
71
22
72
28
73
25
0
VERTEX
8
OBJECT__101
10
0
20
0
30
0
70
128
71
29
72
27
73
30
0
VERTEX
8
OBJECT__101
10
0
20
0
30
0
70
128
71
27
72
31
73
30
0
VERTEX
8
OBJECT__101
10
0
20
0
30
0
70
128
71
32
72
29
73
33
0
VERTEX
8
OBJECT__101
10
0
20
0
30
0
70
128
71
29
72
34
73
33
0
VERTEX
8
OBJECT__101
10
0
20
0
30
0
70
128
71
33
72
35
73
32
0
VERTEX
8
OBJECT__101
10
0
20
0
30
0
70
128
71
32
72
36
73
37
0
VERTEX
8
OBJECT__101
10
0
20
0
30
0
70
128
71
37
72
38
73
32
0
VERTEX
8
OBJECT__101
10
0
20
0
30
0
70
128
71
1
72
38
73
39
0
VERTEX
8
OBJECT__101
10
0
20
0
30
0
70
128
71
38
72
40
73
39
0
VERTEX
8
OBJECT__101
10
0
20
0
30
0
70
128
71
39
72
2
73
1
0
VERTEX
8
OBJECT__101
10
0
20
0
30
0
70
128
71
37
72
40
73
38
0
VERTEX
8
OBJECT__101
10
0
20
0
30
0
70
128
71
35
72
36
73
32
0
VERTEX
8
OBJECT__101
10
0
20
0
30
0
70
128
71
30
72
34
73
29
0
VERTEX
8
OBJECT__101
10
0
20
0
30
0
70
128
71
26
72
31
73
27
0
VERTEX
8
OBJECT__101
10
0
20
0
30
0
70
128
71
23
72
28
73
22
0
VERTEX
8
OBJECT__101
10
0
20
0
30
0
70
128
71
20
72
24
73
21
0
VERTEX
8
OBJECT__101
10
0
20
0
30
0
70
128
71
18
72
19
73
15
0
VERTEX
8
OBJECT__101
10
0
20
0
30
0
70
128
71
13
72
17
73
14
0
VERTEX
8
OBJECT__101
10
0
20
0
30
0
70
128
71
9
72
12
73
10
0
VERTEX
8
OBJECT__101
10
0
20
0
30
0
70
128
71
6
72
11
73
5
0
VERTEX
8
OBJECT__101
10
0
20
0
30
0
70
128
71
3
72
7
73
4
0
SEQEND
8
OBJECT__101
0
POLYLINE
8
OBJECT__103
66
1
70
64
71
62
72
79
62
253
0
VERTEX
8
OBJECT__103
10
13.214000
20
-25.664000
30
-20.000000
70
192
0
VERTEX
8
OBJECT__103
10
13.800000
20
-24.250000
30
-20.000000
70
192
0
VERTEX
8
OBJECT__103
10
13.800000
20
-22.612000
30
-11.240000
70
192
0
VERTEX
8
OBJECT__103
10
13.214000
20
-23.931000
30
-10.729000
70
192
0
VERTEX
8
OBJECT__103
10
13.800000
20
-17.921000
30
-3.663000
70
192
0
VERTEX
8
OBJECT__103
10
13.214000
20
-18.966000
30
-2.710000
70
192
0
VERTEX
8
OBJECT__103
10
13.800000
20
-10.809000
30
1.708000
70
192
0
VERTEX
8
OBJECT__103
10
13.214000
20
-2.368000
30
5.555000
70
192
0
VERTEX
8
OBJECT__103
10
13.214000
20
-11.440000
30
2.974000
70
192
0
VERTEX
8
OBJECT__103
10
13.214000
20
7.023000
30
4.684000
70
192
0
VERTEX
8
OBJECT__103
10
13.800000
20
-2.238000
30
4.147000
70
192
0
VERTEX
8
OBJECT__103
10
13.800000
20
6.636000
30
3.324000
70
192
0
VERTEX
8
OBJECT__103
10
13.800000
20
14.614000
30
-0.648000
70
192
0
VERTEX
8
OBJECT__103
10
13.214000
20
21.820000
30
-6.490000
70
192
0
VERTEX
8
OBJECT__103
10
13.214000
20
15.466000
30
0.480000
70
192
0
VERTEX
8
OBJECT__103
10
13.214000
20
25.226999
30
-15.284000
70
192
0
VERTEX
8
OBJECT__103
10
13.800000
20
20.618000
30
-7.234000
70
192
0
VERTEX
8
OBJECT__103
10
13.214000
20
25.226999
30
-24.716000
70
192
0
VERTEX
8
OBJECT__103
10
13.800000
20
23.837000
30
-15.544000
70
192
0
VERTEX
8
OBJECT__103
10
13.214000
20
21.820000
30
-33.509998
70
192
0
VERTEX
8
OBJECT__103
10
13.800000
20
23.837000
30
-24.455999
70
192
0
VERTEX
8
OBJECT__103
10
13.214000
20
15.466000
30
-40.480000
70
192
0
VERTEX
8
OBJECT__103
10
13.800000
20
20.618000
30
-32.765999
70
192
0
VERTEX
8
OBJECT__103
10
13.214000
20
7.023000
30
-44.683998
70
192
0
VERTEX
8
OBJECT__103
10
13.800000
20
14.614000
30
-39.352001
70
192
0
VERTEX
8
OBJECT__103
10
13.800000
20
6.636000
30
-43.324001
70
192
0
VERTEX
8
OBJECT__103
10
13.800000
20
-2.238000
30
-44.146999
70
192
0
VERTEX
8
OBJECT__103
10
13.214000
20
-11.440000
30
-42.973999
70
192
0
VERTEX
8
OBJECT__103
10
13.214000
20
-2.368000
30
-45.555000
70
192
0
VERTEX
8
OBJECT__103
10
13.800000
20
-10.809000
30
-41.708000
70
192
0
VERTEX
8
OBJECT__103
10
13.800000
20
-17.921000
30
-36.337002
70
192
0
VERTEX
8
OBJECT__103
10
13.214000
20
-18.966000
30
-37.290001
70
192
0
VERTEX
8
OBJECT__103
10
13.800000
20
-22.612000
30
-28.760000
70
192
0
VERTEX
8
OBJECT__103
10
13.214000
20
-23.931000
30
-29.271000
70
192
0
VERTEX
8
OBJECT__103
10
11.800000
20
-26.250000
30
-20.000000
70
192
0
VERTEX
8
OBJECT__103
10
11.800000
20
-19.399000
30
-2.315000
70
192
0
VERTEX
8
OBJECT__103
10
11.800000
20
-22.364000
30
-7.104000
70
192
0
VERTEX
8
OBJECT__103
10
11.800000
20
-12.976000
30
2.535000
70
192
0
VERTEX
8
OBJECT__103
10
11.800000
20
-11.701000
30
3.498000
70
192
0
VERTEX
8
OBJECT__103
10
11.800000
20
7.184000
30
5.248000
70
192
0
VERTEX
8
OBJECT__103
10
11.800000
20
-0.031000
30
5.916000
70
192
0
VERTEX
8
OBJECT__103
10
11.800000
20
12.948000
30
2.378000
70
192
0
VERTEX
8
OBJECT__103
10
11.800000
20
15.819000
30
0.948000
70
192
0
VERTEX
8
OBJECT__103
10
11.800000
20
25.802999
30
-15.177000
70
192
0
VERTEX
8
OBJECT__103
10
11.800000
20
22.606001
30
-6.924000
70
192
0
VERTEX
8
OBJECT__103
10
11.800000
20
25.802999
30
-24.823000
70
192
0
VERTEX
8
OBJECT__103
10
11.800000
20
25.802999
30
-20.000000
70
192
0
VERTEX
8
OBJECT__103
10
11.800000
20
22.606001
30
-33.076000
70
192
0
VERTEX
8
OBJECT__103
10
11.800000
20
22.318001
30
-33.819000
70
192
0
VERTEX
8
OBJECT__103
10
11.800000
20
7.184000
30
-45.248001
70
192
0
VERTEX
8
OBJECT__103
10
11.800000
20
12.948000
30
-42.377998
70
192
0
VERTEX
8
OBJECT__103
10
11.800000
20
-0.031000
30
-45.916000
70
192
0
VERTEX
8
OBJECT__103
10
11.800000
20
-2.422000
30
-46.138000
70
192
0
VERTEX
8
OBJECT__103
10
11.800000
20
-19.399000
30
-37.685001
70
192
0
VERTEX
8
OBJECT__103
10
11.800000
20
-12.976000
30
-42.535000
70
192
0
VERTEX
8
OBJECT__103
10
11.800000
20
-22.364000
30
-32.896000
70
192
0
VERTEX
8
OBJECT__103
10
11.800000
20
-24.476999
30
-29.483000
70
192
0
VERTEX
8
OBJECT__103
10
11.800000
20
-11.701000
30
-43.498001
70
192
0
VERTEX
8
OBJECT__103
10
11.800000
20
15.819000
30
-40.948002
70
192
0
VERTEX
8
OBJECT__103
10
11.800000
20
22.318001
30
-6.181000
70
192
0
VERTEX
8
OBJECT__103
10
11.800000
20
-2.422000
30
6.138000
70
192
0
VERTEX
8
OBJECT__103
10
11.800000
20
-24.476999
30
-10.517000
70
192
0
VERTEX
8
OBJECT__103
10
0
20
0
30
0
70
128
71
1
72
2
73
3
0
VERTEX
8
OBJECT__103
10
0
20
0
30
0
70
128
71
4
72
3
73
5
0
VERTEX
8
OBJECT__103
10
0
20
0
30
0
70
128
71
6
72
5
73
7
0
VERTEX
8
OBJECT__103
10
0
20
0
30
0
70
128
71
8
72
9
73
7
0
VERTEX
8
OBJECT__103
10
0
20
0
30
0
70
128
71
10
72
8
73
11
0
VERTEX
8
OBJECT__103
10
0
20
0
30
0
70
128
71
10
72
12
73
13
0
VERTEX
8
OBJECT__103
10
0
20
0
30
0
70
128
71
14
72
15
73
13
0
VERTEX
8
OBJECT__103
10
0
20
0
30
0
70
128
71
16
72
14
73
17
0
VERTEX
8
OBJECT__103
10
0
20
0
30
0
70
128
71
18
72
16
73
19
0
VERTEX
8
OBJECT__103
10
0
20
0
30
0
70
128
71
20
72
18
73
21
0
VERTEX
8
OBJECT__103
10
0
20
0
30
0
70
128
71
22
72
20
73
23
0
VERTEX
8
OBJECT__103
10
0
20
0
30
0
70
128
71
24
72
22
73
25
0
VERTEX
8
OBJECT__103
10
0
20
0
30
0
70
128
71
24
72
26
73
27
0
VERTEX
8
OBJECT__103
10
0
20
0
30
0
70
128
71
28
72
29
73
27
0
VERTEX
8
OBJECT__103
10
0
20
0
30
0
70
128
71
28
72
30
73
31
0
VERTEX
8
OBJECT__103
10
0
20
0
30
0
70
128
71
32
72
31
73
33
0
VERTEX
8
OBJECT__103
10
0
20
0
30
0
70
128
71
34
72
33
73
2
0
VERTEX
8
OBJECT__103
10
0
20
0
30
0
70
128
71
35
72
1
73
4
0
VERTEX
8
OBJECT__103
10
0
20
0
30
0
70
128
71
6
72
36
73
37
0
VERTEX
8
OBJECT__103
10
0
20
0
30
0
70
128
71
37
72
4
73
6
0
VERTEX
8
OBJECT__103
10
0
20
0
30
0
70
128
71
6
72
9
73
38
0
VERTEX
8
OBJECT__103
10
0
20
0
30
0
70
128
71
9
72
39
73
38
0
VERTEX
8
OBJECT__103
10
0
20
0
30
0
70
128
71
39
72
9
73
8
0
VERTEX
8
OBJECT__103
10
0
20
0
30
0
70
128
71
10
72
40
73
41
0
VERTEX
8
OBJECT__103
10
0
20
0
30
0
70
128
71
41
72
8
73
10
0
VERTEX
8
OBJECT__103
10
0
20
0
30
0
70
128
71
10
72
15
73
42
0
VERTEX
8
OBJECT__103
10
0
20
0
30
0
70
128
71
15
72
43
73
42
0
VERTEX
8
OBJECT__103
10
0
20
0
30
0
70
128
71
43
72
15
73
14
0
VERTEX
8
OBJECT__103
10
0
20
0
30
0
70
128
71
16
72
44
73
45
0
VERTEX
8
OBJECT__103
10
0
20
0
30
0
70
128
71
45
72
14
73
16
0
VERTEX
8
OBJECT__103
10
0
20
0
30
0
70
128
71
18
72
46
73
47
0
VERTEX
8
OBJECT__103
10
0
20
0
30
0
70
128
71
47
72
16
73
18
0
VERTEX
8
OBJECT__103
10
0
20
0
30
0
70
128
71
18
72
20
73
48
0
VERTEX
8
OBJECT__103
10
0
20
0
30
0
70
128
71
20
72
49
73
48
0
VERTEX
8
OBJECT__103
10
0
20
0
30
0
70
128
71
49
72
20
73
22
0
VERTEX
8
OBJECT__103
10
0
20
0
30
0
70
128
71
24
72
50
73
51
0
VERTEX
8
OBJECT__103
10
0
20
0
30
0
70
128
71
51
72
22
73
24
0
VERTEX
8
OBJECT__103
10
0
20
0
30
0
70
128
71
24
72
29
73
52
0
VERTEX
8
OBJECT__103
10
0
20
0
30
0
70
128
71
29
72
53
73
52
0
VERTEX
8
OBJECT__103
10
0
20
0
30
0
70
128
71
53
72
29
73
28
0
VERTEX
8
OBJECT__103
10
0
20
0
30
0
70
128
71
32
72
54
73
55
0
VERTEX
8
OBJECT__103
10
0
20
0
30
0
70
128
71
55
72
28
73
32
0
VERTEX
8
OBJECT__103
10
0
20
0
30
0
70
128
71
32
72
34
73
56
0
VERTEX
8
OBJECT__103
10
0
20
0
30
0
70
128
71
34
72
57
73
56
0
VERTEX
8
OBJECT__103
10
0
20
0
30
0
70
128
71
57
72
34
73
1
0
VERTEX
8
OBJECT__103
10
0
20
0
30
0
70
128
71
1
72
35
73
57
0
VERTEX
8
OBJECT__103
10
0
20
0
30
0
70
128
71
56
72
54
73
32
0
VERTEX
8
OBJECT__103
10
0
20
0
30
0
70
128
71
55
72
58
73
28
0
VERTEX
8
OBJECT__103
10
0
20
0
30
0
70
128
71
28
72
58
73
53
0
VERTEX
8
OBJECT__103
10
0
20
0
30
0
70
128
71
52
72
50
73
24
0
VERTEX
8
OBJECT__103
10
0
20
0
30
0
70
128
71
51
72
59
73
22
0
VERTEX
8
OBJECT__103
10
0
20
0
30
0
70
128
71
22
72
59
73
49
0
VERTEX
8
OBJECT__103
10
0
20
0
30
0
70
128
71
48
72
46
73
18
0
VERTEX
8
OBJECT__103
10
0
20
0
30
0
70
128
71
47
72
44
73
16
0
VERTEX
8
OBJECT__103
10
0
20
0
30
0
70
128
71
45
72
60
73
14
0
VERTEX
8
OBJECT__103
10
0
20
0
30
0
70
128
71
14
72
60
73
43
0
VERTEX
8
OBJECT__103
10
0
20
0
30
0
70
128
71
42
72
40
73
10
0
VERTEX
8
OBJECT__103
10
0
20
0
30
0
70
128
71
41
72
61
73
8
0
VERTEX
8
OBJECT__103
10
0
20
0
30
0
70
128
71
8
72
61
73
39
0
VERTEX
8
OBJECT__103
10
0
20
0
30
0
70
128
71
38
72
36
73
6
0
VERTEX
8
OBJECT__103
10
0
20
0
30
0
70
128
71
37
72
62
73
4
0
VERTEX
8
OBJECT__103
10
0
20
0
30
0
70
128
71
4
72
62
73
35
0
VERTEX
8
OBJECT__103
10
0
20
0
30
0
70
128
71
2
72
1
73
34
0
VERTEX
8
OBJECT__103
10
0
20
0
30
0
70
128
71
33
72
34
73
32
0
VERTEX
8
OBJECT__103
10
0
20
0
30
0
70
128
71
31
72
32
73
28
0
VERTEX
8
OBJECT__103
10
0
20
0
30
0
70
128
71
27
72
30
73
28
0
VERTEX
8
OBJECT__103
10
0
20
0
30
0
70
128
71
27
72
29
73
24
0
VERTEX
8
OBJECT__103
10
0
20
0
30
0
70
128
71
25
72
26
73
24
0
VERTEX
8
OBJECT__103
10
0
20
0
30
0
70
128
71
23
72
25
73
22
0
VERTEX
8
OBJECT__103
10
0
20
0
30
0
70
128
71
21
72
23
73
20
0
VERTEX
8
OBJECT__103
10
0
20
0
30
0
70
128
71
19
72
21
73
18
0
VERTEX
8
OBJECT__103
10
0
20
0
30
0
70
128
71
17
72
19
73
16
0
VERTEX
8
OBJECT__103
10
0
20
0
30
0
70
128
71
13
72
17
73
14
0
VERTEX
8
OBJECT__103
10
0
20
0
30
0
70
128
71
13
72
15
73
10
0
VERTEX
8
OBJECT__103
10
0
20
0
30
0
70
128
71
11
72
12
73
10
0
VERTEX
8
OBJECT__103
10
0
20
0
30
0
70
128
71
7
72
11
73
8
0
VERTEX
8
OBJECT__103
10
0
20
0
30
0
70
128
71
7
72
9
73
6
0
VERTEX
8
OBJECT__103
10
0
20
0
30
0
70
128
71
5
72
6
73
4
0
VERTEX
8
OBJECT__103
10
0
20
0
30
0
70
128
71
3
72
4
73
1
0
SEQEND
8
OBJECT__103
0
POLYLINE
8
OBJECT__104
66
1
70
64
71
40
72
40
62
253
0
VERTEX
8
OBJECT__104
10
2.349000
20
-26.250000
30
-20.000000
70
192
0
VERTEX
8
OBJECT__104
10
11.800000
20
-26.250000
30
-20.000000
70
192
0
VERTEX
8
OBJECT__104
10
11.800000
20
-24.476999
30
-10.517000
70
192
0
VERTEX
8
OBJECT__104
10
2.349000
20
-22.733000
30
-6.875000
70
192
0
VERTEX
8
OBJECT__104
10
2.349000
20
-13.125000
30
2.733000
70
192
0
VERTEX
8
OBJECT__104
10
11.800000
20
-19.399000
30
-2.315000
70
192
0
VERTEX
8
OBJECT__104
10
11.800000
20
-22.364000
30
-7.104000
70
192
0
VERTEX
8
OBJECT__104
10
11.800000
20
-11.701000
30
3.498000
70
192
0
VERTEX
8
OBJECT__104
10
11.800000
20
-2.422000
30
6.138000
70
192
0
VERTEX
8
OBJECT__104
10
11.800000
20
-12.976000
30
2.535000
70
192
0
VERTEX
8
OBJECT__104
10
2.349000
20
0.000000
30
6.250000
70
192
0
VERTEX
8
OBJECT__104
10
11.800000
20
-0.031000
30
5.916000
70
192
0
VERTEX
8
OBJECT__104
10
11.800000
20
7.184000
30
5.248000
70
192
0
VERTEX
8
OBJECT__104
10
2.349000
20
13.125000
30
2.733000
70
192
0
VERTEX
8
OBJECT__104
10
2.349000
20
22.733000
30
-6.875000
70
192
0
VERTEX
8
OBJECT__104
10
11.800000
20
15.819000
30
0.948000
70
192
0
VERTEX
8
OBJECT__104
10
11.800000
20
22.318001
30
-6.181000
70
192
0
VERTEX
8
OBJECT__104
10
11.800000
20
12.948000
30
2.378000
70
192
0
VERTEX
8
OBJECT__104
10
11.800000
20
22.606001
30
-6.924000
70
192
0
VERTEX
8
OBJECT__104
10
11.800000
20
25.802999
30
-15.177000
70
192
0
VERTEX
8
OBJECT__104
10
2.349000
20
26.250000
30
-20.000000
70
192
0
VERTEX
8
OBJECT__104
10
2.349000
20
22.733000
30
-33.125000
70
192
0
VERTEX
8
OBJECT__104
10
11.800000
20
25.802999
30
-24.823000
70
192
0
VERTEX
8
OBJECT__104
10
11.800000
20
25.802999
30
-20.000000
70
192
0
VERTEX
8
OBJECT__104
10
11.800000
20
22.318001
30
-33.819000
70
192
0
VERTEX
8
OBJECT__104
10
11.800000
20
15.819000
30
-40.948002
70
192
0
VERTEX
8
OBJECT__104
10
11.800000
20
22.606001
30
-33.076000
70
192
0
VERTEX
8
OBJECT__104
10
2.349000
20
13.125000
30
-42.733002
70
192
0
VERTEX
8
OBJECT__104
10
2.349000
20
0.000000
30
-46.250000
70
192
0
VERTEX
8
OBJECT__104
10
11.800000
20
7.184000
30
-45.248001
70
192
0
VERTEX
8
OBJECT__104
10
11.800000
20
12.948000
30
-42.377998
70
192
0
VERTEX
8
OBJECT__104
10
2.349000
20
-13.125000
30
-42.733002
70
192
0
VERTEX
8
OBJECT__104
10
11.800000
20
-2.422000
30
-46.138000
70
192
0
VERTEX
8
OBJECT__104
10
11.800000
20
-11.701000
30
-43.498001
70
192
0
VERTEX
8
OBJECT__104
10
11.800000
20
-0.031000
30
-45.916000
70
192
0
VERTEX
8
OBJECT__104
10
11.800000
20
-12.976000
30
-42.535000
70
192
0
VERTEX
8
OBJECT__104
10
11.800000
20
-19.399000
30
-37.685001
70
192
0
VERTEX
8
OBJECT__104
10
2.349000
20
-22.733000
30
-33.125000
70
192
0
VERTEX
8
OBJECT__104
10
11.800000
20
-24.476999
30
-29.483000
70
192
0
VERTEX
8
OBJECT__104
10
11.800000
20
-22.364000
30
-32.896000
70
192
0
VERTEX
8
OBJECT__104
10
0
20
0
30
0
70
128
71
1
72
2
73
3
0
VERTEX
8
OBJECT__104
10
0
20
0
30
0
70
128
71
3
72
4
73
1
0
VERTEX
8
OBJECT__104
10
0
20
0
30
0
70
128
71
5
72
4
73
6
0
VERTEX
8
OBJECT__104
10
0
20
0
30
0
70
128
71
4
72
7
73
6
0
VERTEX
8
OBJECT__104
10
0
20
0
30
0
70
128
71
5
72
8
73
9
0
VERTEX
8
OBJECT__104
10
0
20
0
30
0
70
128
71
5
72
10
73
8
0
VERTEX
8
OBJECT__104
10
0
20
0
30
0
70
128
71
9
72
11
73
5
0
VERTEX
8
OBJECT__104
10
0
20
0
30
0
70
128
71
11
72
12
73
13
0
VERTEX
8
OBJECT__104
10
0
20
0
30
0
70
128
71
13
72
14
73
11
0
VERTEX
8
OBJECT__104
10
0
20
0
30
0
70
128
71
15
72
14
73
16
0
VERTEX
8
OBJECT__104
10
0
20
0
30
0
70
128
71
16
72
17
73
15
0
VERTEX
8
OBJECT__104
10
0
20
0
30
0
70
128
71
14
72
18
73
16
0
VERTEX
8
OBJECT__104
10
0
20
0
30
0
70
128
71
15
72
19
73
20
0
VERTEX
8
OBJECT__104
10
0
20
0
30
0
70
128
71
20
72
21
73
15
0
VERTEX
8
OBJECT__104
10
0
20
0
30
0
70
128
71
22
72
21
73
23
0
VERTEX
8
OBJECT__104
10
0
20
0
30
0
70
128
71
21
72
24
73
23
0
VERTEX
8
OBJECT__104
10
0
20
0
30
0
70
128
71
22
72
25
73
26
0
VERTEX
8
OBJECT__104
10
0
20
0
30
0
70
128
71
22
72
27
73
25
0
VERTEX
8
OBJECT__104
10
0
20
0
30
0
70
128
71
26
72
28
73
22
0
VERTEX
8
OBJECT__104
10
0
20
0
30
0
70
128
71
29
72
28
73
30
0
VERTEX
8
OBJECT__104
10
0
20
0
30
0
70
128
71
28
72
31
73
30
0
VERTEX
8
OBJECT__104
10
0
20
0
30
0
70
128
71
32
72
29
73
33
0
VERTEX
8
OBJECT__104
10
0
20
0
30
0
70
128
71
33
72
34
73
32
0
VERTEX
8
OBJECT__104
10
0
20
0
30
0
70
128
71
29
72
35
73
33
0
VERTEX
8
OBJECT__104
10
0
20
0
30
0
70
128
71
32
72
36
73
37
0
VERTEX
8
OBJECT__104
10
0
20
0
30
0
70
128
71
37
72
38
73
32
0
VERTEX
8
OBJECT__104
10
0
20
0
30
0
70
128
71
1
72
38
73
39
0
VERTEX
8
OBJECT__104
10
0
20
0
30
0
70
128
71
38
72
40
73
39
0
VERTEX
8
OBJECT__104
10
0
20
0
30
0
70
128
71
39
72
2
73
1
0
VERTEX
8
OBJECT__104
10
0
20
0
30
0
70
128
71
37
72
40
73
38
0
VERTEX
8
OBJECT__104
10
0
20
0
30
0
70
128
71
34
72
36
73
32
0
VERTEX
8
OBJECT__104
10
0
20
0
30
0
70
128
71
30
72
35
73
29
0
VERTEX
8
OBJECT__104
10
0
20
0
30
0
70
128
71
26
72
31
73
28
0
VERTEX
8
OBJECT__104
10
0
20
0
30
0
70
128
71
23
72
27
73
22
0
VERTEX
8
OBJECT__104
10
0
20
0
30
0
70
128
71
20
72
24
73
21
0
VERTEX
8
OBJECT__104
10
0
20
0
30
0
70
128
71
17
72
19
73
15
0
VERTEX
8
OBJECT__104
10
0
20
0
30
0
70
128
71
13
72
18
73
14
0
VERTEX
8
OBJECT__104
10
0
20
0
30
0
70
128
71
9
72
12
73
11
0
VERTEX
8
OBJECT__104
10
0
20
0
30
0
70
128
71
6
72
10
73
5
0
VERTEX
8
OBJECT__104
10
0
20
0
30
0
70
128
71
3
72
7
73
4
0
SEQEND
8
OBJECT__104
0
POLYLINE
8
OBJECT__106
66
1
70
64
71
4
72
2
62
253
0
VERTEX
8
OBJECT__106
10
73.050003
20
7.400000
30
90.405998
70
192
0
VERTEX
8
OBJECT__106
10
73.050003
20
7.400000
30
76.546997
70
192
0
VERTEX
8
OBJECT__106
10
68.849998
20
7.400000
30
76.546997
70
192
0
VERTEX
8
OBJECT__106
10
68.849998
20
7.400000
30
90.405998
70
192
0
VERTEX
8
OBJECT__106
10
0
20
0
30
0
70
128
71
1
72
2
73
3
0
VERTEX
8
OBJECT__106
10
0
20
0
30
0
70
128
71
3
72
4
73
1
0
SEQEND
8
OBJECT__106
0
POLYLINE
8
OBJECT__107
66
1
70
64
71
6
72
4
62
253
0
VERTEX
8
OBJECT__107
10
68.849998
20
9.088000
30
70.247002
70
192
0
VERTEX
8
OBJECT__107
10
73.050003
20
9.088000
30
70.247002
70
192
0
VERTEX
8
OBJECT__107
10
73.050003
20
13.700000
30
65.635002
70
192
0
VERTEX
8
OBJECT__107
10
73.050003
20
7.400000
30
76.546997
70
192
0
VERTEX
8
OBJECT__107
10
68.849998
20
7.400000
30
76.546997
70
192
0
VERTEX
8
OBJECT__107
10
68.849998
20
13.700000
30
65.635002
70
192
0
VERTEX
8
OBJECT__107
10
0
20
0
30
0
70
128
71
1
72
2
73
3
0
VERTEX
8
OBJECT__107
10
0
20
0
30
0
70
128
71
4
72
2
73
1
0
VERTEX
8
OBJECT__107
10
0
20
0
30
0
70
128
71
1
72
5
73
4
0
VERTEX
8
OBJECT__107
10
0
20
0
30
0
70
128
71
3
72
6
73
1
0
SEQEND
8
OBJECT__107
0
POLYLINE
8
OBJECT__109
66
1
70
64
71
4
72
2
62
253
0
VERTEX
8
OBJECT__109
10
68.849998
20
13.700000
30
65.635002
70
192
0
VERTEX
8
OBJECT__109
10
73.050003
20
13.700000
30
65.635002
70
192
0
VERTEX
8
OBJECT__109
10
73.050003
20
25.702000
30
58.705002
70
192
0
VERTEX
8
OBJECT__109
10
68.849998
20
25.702000
30
58.705002
70
192
0
VERTEX
8
OBJECT__109
10
0
20
0
30
0
70
128
71
1
72
2
73
3
0
VERTEX
8
OBJECT__109
10
0
20
0
30
0
70
128
71
3
72
4
73
1
0
SEQEND
8
OBJECT__109
0
POLYLINE
8
OBJECT__110
66
1
70
64
71
4
72
2
62
253
0
VERTEX
8
OBJECT__110
10
73.050003
20
25.702000
30
58.705002
70
192
0
VERTEX
8
OBJECT__110
10
73.050003
20
26.164000
30
57.566002
70
192
0
VERTEX
8
OBJECT__110
10
68.849998
20
26.164000
30
57.566002
70
192
0
VERTEX
8
OBJECT__110
10
68.849998
20
25.702000
30
58.705002
70
192
0
VERTEX
8
OBJECT__110
10
0
20
0
30
0
70
128
71
1
72
2
73
3
0
VERTEX
8
OBJECT__110
10
0
20
0
30
0
70
128
71
3
72
4
73
1
0
SEQEND
8
OBJECT__110
0
POLYLINE
8
OBJECT__111
66
1
70
64
71
4
72
2
62
253
0
VERTEX
8
OBJECT__111
10
73.050003
20
26.164000
30
57.566002
70
192
0
VERTEX
8
OBJECT__111
10
73.050003
20
19.520000
30
46.057999
70
192
0
VERTEX
8
OBJECT__111
10
68.849998
20
19.520000
30
46.057999
70
192
0
VERTEX
8
OBJECT__111
10
68.849998
20
26.164000
30
57.566002
70
192
0
VERTEX
8
OBJECT__111
10
0
20
0
30
0
70
128
71
1
72
2
73
3
0
VERTEX
8
OBJECT__111
10
0
20
0
30
0
70
128
71
3
72
4
73
1
0
SEQEND
8
OBJECT__111
0
POLYLINE
8
OBJECT__112
66
1
70
64
71
4
72
2
62
253
0
VERTEX
8
OBJECT__112
10
73.050003
20
19.520000
30
46.057999
70
192
0
VERTEX
8
OBJECT__112
10
73.050003
20
18.302000
30
45.888000
70
192
0
VERTEX
8
OBJECT__112
10
68.849998
20
18.302000
30
45.888000
70
192
0
VERTEX
8
OBJECT__112
10
68.849998
20
19.520000
30
46.057999
70
192
0
VERTEX
8
OBJECT__112
10
0
20
0
30
0
70
128
71
1
72
2
73
3
0
VERTEX
8
OBJECT__112
10
0
20
0
30
0
70
128
71
3
72
4
73
1
0
SEQEND
8
OBJECT__112
0
POLYLINE
8
OBJECT__113
66
1
70
64
71
4
72
2
62
253
0
VERTEX
8
OBJECT__113
10
73.050003
20
18.302000
30
45.888000
70
192
0
VERTEX
8
OBJECT__113
10
73.050003
20
6.300000
30
52.818001
70
192
0
VERTEX
8
OBJECT__113
10
68.849998
20
6.300000
30
52.818001
70
192
0
VERTEX
8
OBJECT__113
10
68.849998
20
18.302000
30
45.888000
70
192
0
VERTEX
8
OBJECT__113
10
0
20
0
30
0
70
128
71
1
72
2
73
3
0
VERTEX
8
OBJECT__113
10
0
20
0
30
0
70
128
71
3
72
4
73
1
0
SEQEND
8
OBJECT__113
0
POLYLINE
8
OBJECT__114
66
1
70
64
71
6
72
4
62
253
0
VERTEX
8
OBJECT__114
10
68.849998
20
0.000000
30
54.506001
70
192
0
VERTEX
8
OBJECT__114
10
73.050003
20
0.000000
30
54.506001
70
192
0
VERTEX
8
OBJECT__114
10
73.050003
20
-6.300000
30
52.818001
70
192
0
VERTEX
8
OBJECT__114
10
73.050003
20
6.300000
30
52.818001
70
192
0
VERTEX
8
OBJECT__114
10
68.849998
20
6.300000
30
52.818001
70
192
0
VERTEX
8
OBJECT__114
10
68.849998
20
-6.300000
30
52.818001
70
192
0
VERTEX
8
OBJECT__114
10
0
20
0
30
0
70
128
71
1
72
2
73
3
0
VERTEX
8
OBJECT__114
10
0
20
0
30
0
70
128
71
4
72
2
73
1
0
VERTEX
8
OBJECT__114
10
0
20
0
30
0
70
128
71
1
72
5
73
4
0
VERTEX
8
OBJECT__114
10
0
20
0
30
0
70
128
71
3
72
6
73
1
0
SEQEND
8
OBJECT__114
0
POLYLINE
8
OBJECT__115
66
1
70
64
71
4
72
2
62
253
0
VERTEX
8
OBJECT__115
10
68.849998
20
-6.300000
30
52.818001
70
192
0
VERTEX
8
OBJECT__115
10
73.050003
20
-6.300000
30
52.818001
70
192
0
VERTEX
8
OBJECT__115
10
73.050003
20
-18.302000
30
45.888000
70
192
0
VERTEX
8
OBJECT__115
10
68.849998
20
-18.302000
30
45.888000
70
192
0
VERTEX
8
OBJECT__115
10
0
20
0
30
0
70
128
71
1
72
2
73
3
0
VERTEX
8
OBJECT__115
10
0
20
0
30
0
70
128
71
3
72
4
73
1
0
SEQEND
8
OBJECT__115
0
POLYLINE
8
OBJECT__116
66
1
70
64
71
4
72
2
62
253
0
VERTEX
8
OBJECT__116
10
73.050003
20
-18.302000
30
45.888000
70
192
0
VERTEX
8
OBJECT__116
10
73.050003
20
-19.520000
30
46.057999
70
192
0
VERTEX
8
OBJECT__116
10
68.849998
20
-19.520000
30
46.057999
70
192
0
VERTEX
8
OBJECT__116
10
68.849998
20
-18.302000
30
45.888000
70
192
0
VERTEX
8
OBJECT__116
10
0
20
0
30
0
70
128
71
1
72
2
73
3
0
VERTEX
8
OBJECT__116
10
0
20
0
30
0
70
128
71
3
72
4
73
1
0
SEQEND
8
OBJECT__116
0
POLYLINE
8
OBJECT__117
66
1
70
64
71
4
72
2
62
253
0
VERTEX
8
OBJECT__117
10
68.849998
20
-19.520000
30
46.057999
70
192
0
VERTEX
8
OBJECT__117
10
73.050003
20
-19.520000
30
46.057999
70
192
0
VERTEX
8
OBJECT__117
10
73.050003
20
-26.164000
30
57.566002
70
192
0
VERTEX
8
OBJECT__117
10
68.849998
20
-26.164000
30
57.566002
70
192
0
VERTEX
8
OBJECT__117
10
0
20
0
30
0
70
128
71
1
72
2
73
3
0
VERTEX
8
OBJECT__117
10
0
20
0
30
0
70
128
71
3
72
4
73
1
0
SEQEND
8
OBJECT__117
0
POLYLINE
8
OBJECT__118
66
1
70
64
71
4
72
2
62
253
0
VERTEX
8
OBJECT__118
10
68.849998
20
-26.164000
30
57.566002
70
192
0
VERTEX
8
OBJECT__118
10
73.050003
20
-26.164000
30
57.566002
70
192
0
VERTEX
8
OBJECT__118
10
73.050003
20
-25.702000
30
58.705002
70
192
0
VERTEX
8
OBJECT__118
10
68.849998
20
-25.702000
30
58.705002
70
192
0
VERTEX
8
OBJECT__118
10
0
20
0
30
0
70
128
71
1
72
2
73
3
0
VERTEX
8
OBJECT__118
10
0
20
0
30
0
70
128
71
3
72
4
73
1
0
SEQEND
8
OBJECT__118
0
POLYLINE
8
OBJECT__119
66
1
70
64
71
4
72
2
62
253
0
VERTEX
8
OBJECT__119
10
68.849998
20
-13.700000
30
65.635002
70
192
0
VERTEX
8
OBJECT__119
10
68.849998
20
-25.702000
30
58.705002
70
192
0
VERTEX
8
OBJECT__119
10
73.050003
20
-25.702000
30
58.705002
70
192
0
VERTEX
8
OBJECT__119
10
73.050003
20
-13.700000
30
65.635002
70
192
0
VERTEX
8
OBJECT__119
10
0
20
0
30
0
70
128
71
1
72
2
73
3
0
VERTEX
8
OBJECT__119
10
0
20
0
30
0
70
128
71
3
72
4
73
1
0
SEQEND
8
OBJECT__119
0
POLYLINE
8
OBJECT__120
66
1
70
64
71
6
72
4
62
253
0
VERTEX
8
OBJECT__120
10
73.050003
20
-9.088000
30
70.247002
70
192
0
VERTEX
8
OBJECT__120
10
73.050003
20
-7.400000
30
76.546997
70
192
0
VERTEX
8
OBJECT__120
10
68.849998
20
-7.400000
30
76.546997
70
192
0
VERTEX
8
OBJECT__120
10
68.849998
20
-13.700000
30
65.635002
70
192
0
VERTEX
8
OBJECT__120
10
73.050003
20
-13.700000
30
65.635002
70
192
0
VERTEX
8
OBJECT__120
10
68.849998
20
-9.088000
30
70.247002
70
192
0
VERTEX
8
OBJECT__120
10
0
20
0
30
0
70
128
71
1
72
2
73
3
0
VERTEX
8
OBJECT__120
10
0
20
0
30
0
70
128
71
4
72
5
73
1
0
VERTEX
8
OBJECT__120
10
0
20
0
30
0
70
128
71
1
72
6
73
4
0
VERTEX
8
OBJECT__120
10
0
20
0
30
0
70
128
71
3
72
6
73
1
0
SEQEND
8
OBJECT__120
0
POLYLINE
8
OBJECT__121
66
1
70
64
71
4
72
2
62
253
0
VERTEX
8
OBJECT__121
10
68.849998
20
-7.400000
30
76.546997
70
192
0
VERTEX
8
OBJECT__121
10
73.050003
20
-7.400000
30
76.546997
70
192
0
VERTEX
8
OBJECT__121
10
73.050003
20
-7.400000
30
90.405998
70
192
0
VERTEX
8
OBJECT__121
10
68.849998
20
-7.400000
30
90.405998
70
192
0
VERTEX
8
OBJECT__121
10
0
20
0
30
0
70
128
71
1
72
2
73
3
0
VERTEX
8
OBJECT__121
10
0
20
0
30
0
70
128
71
3
72
4
73
1
0
SEQEND
8
OBJECT__121
0
POLYLINE
8
OBJECT__122
66
1
70
64
71
21
72
19
62
253
0
VERTEX
8
OBJECT__122
10
73.050003
20
7.400000
30
90.405998
70
192
0
VERTEX
8
OBJECT__122
10
73.050003
20
-7.400000
30
90.405998
70
192
0
VERTEX
8
OBJECT__122
10
73.050003
20
-7.400000
30
76.546997
70
192
0
VERTEX
8
OBJECT__122
10
73.050003
20
6.644000
30
91.375999
70
192
0
VERTEX
8
OBJECT__122
10
73.050003
20
-6.644000
30
91.375999
70
192
0
VERTEX
8
OBJECT__122
10
73.050003
20
25.702000
30
58.705002
70
192
0
VERTEX
8
OBJECT__122
10
73.050003
20
18.302000
30
45.888000
70
192
0
VERTEX
8
OBJECT__122
10
73.050003
20
19.520000
30
46.057999
70
192
0
VERTEX
8
OBJECT__122
10
73.050003
20
13.700000
30
65.635002
70
192
0
VERTEX
8
OBJECT__122
10
73.050003
20
-19.520000
30
46.057999
70
192
0
VERTEX
8
OBJECT__122
10
73.050003
20
-13.700000
30
65.635002
70
192
0
VERTEX
8
OBJECT__122
10
73.050003
20
-25.702000
30
58.705002
70
192
0
VERTEX
8
OBJECT__122
10
73.050003
20
9.088000
30
70.247002
70
192
0
VERTEX
8
OBJECT__122
10
73.050003
20
-9.088000
30
70.247002
70
192
0
VERTEX
8
OBJECT__122
10
73.050003
20
7.400000
30
76.546997
70
192
0
VERTEX
8
OBJECT__122
10
73.050003
20
0.000000
30
54.506001
70
192
0
VERTEX
8
OBJECT__122
10
73.050003
20
6.300000
30
52.818001
70
192
0
VERTEX
8
OBJECT__122
10
73.050003
20
-18.302000
30
45.888000
70
192
0
VERTEX
8
OBJECT__122
10
73.050003
20
-6.300000
30
52.818001
70
192
0
VERTEX
8
OBJECT__122
10
73.050003
20
26.164000
30
57.566002
70
192
0
VERTEX
8
OBJECT__122
10
73.050003
20
-26.164000
30
57.566002
70
192
0
VERTEX
8
OBJECT__122
10
0
20
0
30
0
70
128
71
1
72
2
73
3
0
VERTEX
8
OBJECT__122
10
0
20
0
30
0
70
128
71
1
72
4
73
5
0
VERTEX
8
OBJECT__122
10
0
20
0
30
0
70
128
71
6
72
7
73
8
0
VERTEX
8
OBJECT__122
10
0
20
0
30
0
70
128
71
7
72
6
73
9
0
VERTEX
8
OBJECT__122
10
0
20
0
30
0
70
128
71
10
72
11
73
12
0
VERTEX
8
OBJECT__122
10
0
20
0
30
0
70
128
71
13
72
14
73
11
0
VERTEX
8
OBJECT__122
10
0
20
0
30
0
70
128
71
14
72
13
73
15
0
VERTEX
8
OBJECT__122
10
0
20
0
30
0
70
128
71
5
72
2
73
1
0
VERTEX
8
OBJECT__122
10
0
20
0
30
0
70
128
71
13
72
16
73
17
0
VERTEX
8
OBJECT__122
10
0
20
0
30
0
70
128
71
9
72
17
73
7
0
VERTEX
8
OBJECT__122
10
0
20
0
30
0
70
128
71
10
72
18
73
19
0
VERTEX
8
OBJECT__122
10
0
20
0
30
0
70
128
71
11
72
10
73
13
0
VERTEX
8
OBJECT__122
10
0
20
0
30
0
70
128
71
3
72
15
73
1
0
VERTEX
8
OBJECT__122
10
0
20
0
30
0
70
128
71
8
72
20
73
6
0
VERTEX
8
OBJECT__122
10
0
20
0
30
0
70
128
71
19
72
13
73
10
0
VERTEX
8
OBJECT__122
10
0
20
0
30
0
70
128
71
15
72
3
73
14
0
VERTEX
8
OBJECT__122
10
0
20
0
30
0
70
128
71
19
72
16
73
13
0
VERTEX
8
OBJECT__122
10
0
20
0
30
0
70
128
71
17
72
9
73
13
0
VERTEX
8
OBJECT__122
10
0
20
0
30
0
70
128
71
12
72
21
73
10
0
SEQEND
8
OBJECT__122
0
POLYLINE
8
OBJECT__123
66
1
70
64
71
4
72
2
62
253
0
VERTEX
8
OBJECT__123
10
68.849998
20
-7.400000
30
90.405998
70
192
0
VERTEX
8
OBJECT__123
10
73.050003
20
-7.400000
30
90.405998
70
192
0
VERTEX
8
OBJECT__123
10
73.050003
20
-6.644000
30
91.375999
70
192
0
VERTEX
8
OBJECT__123
10
68.849998
20
-6.644000
30
91.375999
70
192
0
VERTEX
8
OBJECT__123
10
0
20
0
30
0
70
128
71
1
72
2
73
3
0
VERTEX
8
OBJECT__123
10
0
20
0
30
0
70
128
71
3
72
4
73
1
0
SEQEND
8
OBJECT__123
0
POLYLINE
8
OBJECT__124
66
1
70
64
71
4
72
2
62
253
0
VERTEX
8
OBJECT__124
10
68.849998
20
-6.644000
30
91.375999
70
192
0
VERTEX
8
OBJECT__124
10
73.050003
20
-6.644000
30
91.375999
70
192
0
VERTEX
8
OBJECT__124
10
73.050003
20
6.644000
30
91.375999
70
192
0
VERTEX
8
OBJECT__124
10
68.849998
20
6.644000
30
91.375999
70
192
0
VERTEX
8
OBJECT__124
10
0
20
0
30
0
70
128
71
1
72
2
73
3
0
VERTEX
8
OBJECT__124
10
0
20
0
30
0
70
128
71
3
72
4
73
1
0
SEQEND
8
OBJECT__124
0
POLYLINE
8
OBJECT__125
66
1
70
64
71
4
72
2
62
253
0
VERTEX
8
OBJECT__125
10
73.050003
20
6.644000
30
91.375999
70
192
0
VERTEX
8
OBJECT__125
10
73.050003
20
7.400000
30
90.405998
70
192
0
VERTEX
8
OBJECT__125
10
68.849998
20
7.400000
30
90.405998
70
192
0
VERTEX
8
OBJECT__125
10
68.849998
20
6.644000
30
91.375999
70
192
0
VERTEX
8
OBJECT__125
10
0
20
0
30
0
70
128
71
1
72
2
73
3
0
VERTEX
8
OBJECT__125
10
0
20
0
30
0
70
128
71
3
72
4
73
1
0
SEQEND
8
OBJECT__125
0
ENDSEC
0
EOF
