999
Converted by 3D Exploration 
999
XDimension Software, LLC
999
http://www.xdsoft.com/explorer/
0
SECTION
2
HEADER
9
$ACADVER
1
AC1008
9
$UCSORG
10
0.0
20
0.0
30
0.0
9
$UCSXDIR
10
1.0
20
0.0
30
0.0
9
$TILEMODE
70
1
9
$UCSYDIR
10
0.0
20
1.0
30
0.0
9
$EXTMIN
10
0.000000
20
-25.000000
30
-25.000000
9
$EXTMAX
10
69.414001
20
25.000000
30
25.000000
0
ENDSEC
0
SECTION
2
TABLES
0
TABLE
2
LTYPE
70
1
0
LTYPE
2
CONTINUOUS
70
64
3
Solid line
72
65
73
0
40
0.0
0
ENDTAB
0
TABLE
2
LAYER
70
25
0
LAYER
2
OBJECT__0
70
0
62
253
6
CONTINUOUS
0
LAYER
2
OBJECT__1
70
0
62
253
6
CONTINUOUS
0
LAYER
2
OBJECT__3
70
0
62
253
6
CONTINUOUS
0
LAYER
2
OBJECT__4
70
0
62
253
6
CONTINUOUS
0
LAYER
2
OBJECT__5
70
0
62
253
6
CONTINUOUS
0
LAYER
2
OBJECT__6
70
0
62
253
6
CONTINUOUS
0
LAYER
2
OBJECT__7
70
0
62
253
6
CONTINUOUS
0
LAYER
2
OBJECT__8
70
0
62
253
6
CONTINUOUS
0
LAYER
2
OBJECT__10
70
0
62
253
6
CONTINUOUS
0
LAYER
2
OBJECT__11
70
0
62
253
6
CONTINUOUS
0
LAYER
2
OBJECT__12
70
0
62
253
6
CONTINUOUS
0
LAYER
2
OBJECT__13
70
0
62
253
6
CONTINUOUS
0
LAYER
2
OBJECT__14
70
0
62
253
6
CONTINUOUS
0
LAYER
2
OBJECT__15
70
0
62
253
6
CONTINUOUS
0
LAYER
2
OBJECT__17
70
0
62
253
6
CONTINUOUS
0
LAYER
2
OBJECT__18
70
0
62
253
6
CONTINUOUS
0
LAYER
2
OBJECT__19
70
0
62
253
6
CONTINUOUS
0
LAYER
2
OBJECT__20
70
0
62
253
6
CONTINUOUS
0
LAYER
2
OBJECT__21
70
0
62
253
6
CONTINUOUS
0
LAYER
2
OBJECT__22
70
0
62
253
6
CONTINUOUS
0
LAYER
2
OBJECT__23
70
0
62
253
6
CONTINUOUS
0
LAYER
2
OBJECT__24
70
0
62
253
6
CONTINUOUS
0
ENDTAB
0
TABLE
2
STYLE
70
1
0
STYLE
2
STANDARD
70
0
40
0.0
41
1.0
50
0.0
71
0
42
0.2
3
txt
4
1
0
ENDTAB
0
TABLE
2
UCS
70
0
0
ENDTAB
0
ENDSEC
0
SECTION
2
ENTITIES
0
POLYLINE
8
OBJECT__0
66
1
70
64
71
4
72
2
62
253
0
VERTEX
8
OBJECT__0
10
0.000000
20
25.000000
30
25.000000
70
192
0
VERTEX
8
OBJECT__0
10
0.000000
20
-25.000000
30
25.000000
70
192
0
VERTEX
8
OBJECT__0
10
8.000000
20
-25.000000
30
25.000000
70
192
0
VERTEX
8
OBJECT__0
10
8.000000
20
25.000000
30
25.000000
70
192
0
VERTEX
8
OBJECT__0
10
0
20
0
30
0
70
128
71
1
72
2
73
3
0
VERTEX
8
OBJECT__0
10
0
20
0
30
0
70
128
71
3
72
4
73
1
0
SEQEND
8
OBJECT__0
0
POLYLINE
8
OBJECT__1
66
1
70
64
71
4
72
2
62
253
0
VERTEX
8
OBJECT__1
10
8.000000
20
25.000000
30
25.000000
70
192
0
VERTEX
8
OBJECT__1
10
8.000000
20
25.000000
30
-25.000000
70
192
0
VERTEX
8
OBJECT__1
10
0.000000
20
25.000000
30
-25.000000
70
192
0
VERTEX
8
OBJECT__1
10
0.000000
20
25.000000
30
25.000000
70
192
0
VERTEX
8
OBJECT__1
10
0
20
0
30
0
70
128
71
1
72
2
73
3
0
VERTEX
8
OBJECT__1
10
0
20
0
30
0
70
128
71
3
72
4
73
1
0
SEQEND
8
OBJECT__1
0
POLYLINE
8
OBJECT__3
66
1
70
64
71
4
72
2
62
253
0
VERTEX
8
OBJECT__3
10
8.000000
20
25.000000
30
-25.000000
70
192
0
VERTEX
8
OBJECT__3
10
8.000000
20
-25.000000
30
-25.000000
70
192
0
VERTEX
8
OBJECT__3
10
0.000000
20
-25.000000
30
-25.000000
70
192
0
VERTEX
8
OBJECT__3
10
0.000000
20
25.000000
30
-25.000000
70
192
0
VERTEX
8
OBJECT__3
10
0
20
0
30
0
70
128
71
1
72
2
73
3
0
VERTEX
8
OBJECT__3
10
0
20
0
30
0
70
128
71
3
72
4
73
1
0
SEQEND
8
OBJECT__3
0
POLYLINE
8
OBJECT__4
66
1
70
64
71
4
72
2
62
253
0
VERTEX
8
OBJECT__4
10
8.000000
20
-25.000000
30
-25.000000
70
192
0
VERTEX
8
OBJECT__4
10
8.000000
20
-25.000000
30
25.000000
70
192
0
VERTEX
8
OBJECT__4
10
0.000000
20
-25.000000
30
25.000000
70
192
0
VERTEX
8
OBJECT__4
10
0.000000
20
-25.000000
30
-25.000000
70
192
0
VERTEX
8
OBJECT__4
10
0
20
0
30
0
70
128
71
1
72
2
73
3
0
VERTEX
8
OBJECT__4
10
0
20
0
30
0
70
128
71
3
72
4
73
1
0
SEQEND
8
OBJECT__4
0
POLYLINE
8
OBJECT__5
66
1
70
64
71
4
72
2
62
253
0
VERTEX
8
OBJECT__5
10
8.000000
20
-25.000000
30
-25.000000
70
192
0
VERTEX
8
OBJECT__5
10
8.000000
20
25.000000
30
-25.000000
70
192
0
VERTEX
8
OBJECT__5
10
8.000000
20
25.000000
30
25.000000
70
192
0
VERTEX
8
OBJECT__5
10
8.000000
20
-25.000000
30
25.000000
70
192
0
VERTEX
8
OBJECT__5
10
0
20
0
30
0
70
128
71
1
72
2
73
3
0
VERTEX
8
OBJECT__5
10
0
20
0
30
0
70
128
71
3
72
4
73
1
0
SEQEND
8
OBJECT__5
0
POLYLINE
8
OBJECT__6
66
1
70
64
71
4
72
2
62
253
0
VERTEX
8
OBJECT__6
10
0.000000
20
-25.000000
30
25.000000
70
192
0
VERTEX
8
OBJECT__6
10
0.000000
20
25.000000
30
25.000000
70
192
0
VERTEX
8
OBJECT__6
10
0.000000
20
25.000000
30
-25.000000
70
192
0
VERTEX
8
OBJECT__6
10
0.000000
20
-25.000000
30
-25.000000
70
192
0
VERTEX
8
OBJECT__6
10
0
20
0
30
0
70
128
71
1
72
2
73
3
0
VERTEX
8
OBJECT__6
10
0
20
0
30
0
70
128
71
3
72
4
73
1
0
SEQEND
8
OBJECT__6
0
POLYLINE
8
OBJECT__7
66
1
70
64
71
28
72
26
62
253
0
VERTEX
8
OBJECT__7
10
66.850998
20
11.724000
30
10.493000
70
192
0
VERTEX
8
OBJECT__7
10
66.850998
20
10.047000
30
11.978000
70
192
0
VERTEX
8
OBJECT__7
10
66.924004
20
9.000000
30
9.680000
70
192
0
VERTEX
8
OBJECT__7
10
66.949997
20
9.000000
30
8.133000
70
192
0
VERTEX
8
OBJECT__7
10
66.850998
20
13.577000
30
7.833000
70
192
0
VERTEX
8
OBJECT__7
10
66.971001
20
9.000000
30
6.857000
70
192
0
VERTEX
8
OBJECT__7
10
66.987999
20
9.000000
30
4.924000
70
192
0
VERTEX
8
OBJECT__7
10
66.850998
20
13.907000
30
7.359000
70
192
0
VERTEX
8
OBJECT__7
10
66.850998
20
15.270000
30
3.791000
70
192
0
VERTEX
8
OBJECT__7
10
66.850998
20
15.401000
30
2.721000
70
192
0
VERTEX
8
OBJECT__7
10
67.012001
20
9.000000
30
2.256000
70
192
0
VERTEX
8
OBJECT__7
10
66.850998
20
15.734000
30
0.000000
70
192
0
VERTEX
8
OBJECT__7
10
67.014999
20
9.000000
30
1.916000
70
192
0
VERTEX
8
OBJECT__7
10
67.014999
20
9.000000
30
0.000000
70
192
0
VERTEX
8
OBJECT__7
10
67.014999
20
9.000000
30
-1.790000
70
192
0
VERTEX
8
OBJECT__7
10
66.850998
20
15.401000
30
-2.721000
70
192
0
VERTEX
8
OBJECT__7
10
67.012001
20
9.000000
30
-2.249000
70
192
0
VERTEX
8
OBJECT__7
10
66.850998
20
15.270000
30
-3.791000
70
192
0
VERTEX
8
OBJECT__7
10
66.998001
20
9.000000
30
-4.569000
70
192
0
VERTEX
8
OBJECT__7
10
66.995003
20
9.000000
30
-4.785000
70
192
0
VERTEX
8
OBJECT__7
10
66.850998
20
13.577000
30
-7.833000
70
192
0
VERTEX
8
OBJECT__7
10
66.949997
20
9.000000
30
-8.145000
70
192
0
VERTEX
8
OBJECT__7
10
66.850998
20
11.724000
30
-10.493000
70
192
0
VERTEX
8
OBJECT__7
10
66.942001
20
9.000000
30
-8.738000
70
192
0
VERTEX
8
OBJECT__7
10
66.850998
20
9.000000
30
-12.906000
70
192
0
VERTEX
8
OBJECT__7
10
66.850998
20
10.047000
30
-11.978000
70
192
0
VERTEX
8
OBJECT__7
10
66.850998
20
13.907000
30
-7.359000
70
192
0
VERTEX
8
OBJECT__7
10
66.850998
20
9.000000
30
12.906000
70
192
0
VERTEX
8
OBJECT__7
10
0
20
0
30
0
70
128
71
1
72
2
73
3
0
VERTEX
8
OBJECT__7
10
0
20
0
30
0
70
128
71
3
72
4
73
1
0
VERTEX
8
OBJECT__7
10
0
20
0
30
0
70
128
71
5
72
1
73
4
0
VERTEX
8
OBJECT__7
10
0
20
0
30
0
70
128
71
4
72
6
73
5
0
VERTEX
8
OBJECT__7
10
0
20
0
30
0
70
128
71
7
72
8
73
5
0
VERTEX
8
OBJECT__7
10
0
20
0
30
0
70
128
71
9
72
8
73
7
0
VERTEX
8
OBJECT__7
10
0
20
0
30
0
70
128
71
10
72
9
73
11
0
VERTEX
8
OBJECT__7
10
0
20
0
30
0
70
128
71
12
72
10
73
13
0
VERTEX
8
OBJECT__7
10
0
20
0
30
0
70
128
71
13
72
14
73
12
0
VERTEX
8
OBJECT__7
10
0
20
0
30
0
70
128
71
12
72
14
73
15
0
VERTEX
8
OBJECT__7
10
0
20
0
30
0
70
128
71
16
72
15
73
17
0
VERTEX
8
OBJECT__7
10
0
20
0
30
0
70
128
71
17
72
18
73
16
0
VERTEX
8
OBJECT__7
10
0
20
0
30
0
70
128
71
18
72
19
73
20
0
VERTEX
8
OBJECT__7
10
0
20
0
30
0
70
128
71
18
72
17
73
19
0
VERTEX
8
OBJECT__7
10
0
20
0
30
0
70
128
71
21
72
20
73
22
0
VERTEX
8
OBJECT__7
10
0
20
0
30
0
70
128
71
22
72
23
73
21
0
VERTEX
8
OBJECT__7
10
0
20
0
30
0
70
128
71
23
72
22
73
24
0
VERTEX
8
OBJECT__7
10
0
20
0
30
0
70
128
71
24
72
25
73
26
0
VERTEX
8
OBJECT__7
10
0
20
0
30
0
70
128
71
24
72
26
73
23
0
VERTEX
8
OBJECT__7
10
0
20
0
30
0
70
128
71
21
72
27
73
20
0
VERTEX
8
OBJECT__7
10
0
20
0
30
0
70
128
71
20
72
27
73
18
0
VERTEX
8
OBJECT__7
10
0
20
0
30
0
70
128
71
15
72
16
73
12
0
VERTEX
8
OBJECT__7
10
0
20
0
30
0
70
128
71
11
72
13
73
10
0
VERTEX
8
OBJECT__7
10
0
20
0
30
0
70
128
71
7
72
11
73
9
0
VERTEX
8
OBJECT__7
10
0
20
0
30
0
70
128
71
6
72
7
73
5
0
VERTEX
8
OBJECT__7
10
0
20
0
30
0
70
128
71
2
72
28
73
3
0
SEQEND
8
OBJECT__7
0
POLYLINE
8
OBJECT__8
66
1
70
64
71
19
72
17
62
253
0
VERTEX
8
OBJECT__8
10
61.039001
20
9.000000
30
1.626000
70
192
0
VERTEX
8
OBJECT__8
10
66.971001
20
9.000000
30
6.857000
70
192
0
VERTEX
8
OBJECT__8
10
66.949997
20
9.000000
30
8.133000
70
192
0
VERTEX
8
OBJECT__8
10
66.987999
20
9.000000
30
4.924000
70
192
0
VERTEX
8
OBJECT__8
10
62.047001
20
9.000000
30
12.957000
70
192
0
VERTEX
8
OBJECT__8
10
66.924004
20
9.000000
30
9.680000
70
192
0
VERTEX
8
OBJECT__8
10
67.012001
20
9.000000
30
2.256000
70
192
0
VERTEX
8
OBJECT__8
10
60.891998
20
9.000000
30
0.081000
70
192
0
VERTEX
8
OBJECT__8
10
67.012001
20
9.000000
30
-2.249000
70
192
0
VERTEX
8
OBJECT__8
10
67.014999
20
9.000000
30
-1.790000
70
192
0
VERTEX
8
OBJECT__8
10
66.995003
20
9.000000
30
-4.785000
70
192
0
VERTEX
8
OBJECT__8
10
66.998001
20
9.000000
30
-4.569000
70
192
0
VERTEX
8
OBJECT__8
10
59.527000
20
9.000000
30
-12.984000
70
192
0
VERTEX
8
OBJECT__8
10
66.949997
20
9.000000
30
-8.145000
70
192
0
VERTEX
8
OBJECT__8
10
66.850998
20
9.000000
30
-12.906000
70
192
0
VERTEX
8
OBJECT__8
10
66.942001
20
9.000000
30
-8.738000
70
192
0
VERTEX
8
OBJECT__8
10
67.014999
20
9.000000
30
0.000000
70
192
0
VERTEX
8
OBJECT__8
10
67.014999
20
9.000000
30
1.916000
70
192
0
VERTEX
8
OBJECT__8
10
66.850998
20
9.000000
30
12.906000
70
192
0
VERTEX
8
OBJECT__8
10
0
20
0
30
0
70
128
71
1
72
2
73
3
0
VERTEX
8
OBJECT__8
10
0
20
0
30
0
70
128
71
1
72
4
73
2
0
VERTEX
8
OBJECT__8
10
0
20
0
30
0
70
128
71
5
72
3
73
6
0
VERTEX
8
OBJECT__8
10
0
20
0
30
0
70
128
71
1
72
7
73
4
0
VERTEX
8
OBJECT__8
10
0
20
0
30
0
70
128
71
8
72
9
73
10
0
VERTEX
8
OBJECT__8
10
0
20
0
30
0
70
128
71
8
72
11
73
12
0
VERTEX
8
OBJECT__8
10
0
20
0
30
0
70
128
71
13
72
14
73
11
0
VERTEX
8
OBJECT__8
10
0
20
0
30
0
70
128
71
13
72
15
73
16
0
VERTEX
8
OBJECT__8
10
0
20
0
30
0
70
128
71
3
72
5
73
1
0
VERTEX
8
OBJECT__8
10
0
20
0
30
0
70
128
71
12
72
9
73
8
0
VERTEX
8
OBJECT__8
10
0
20
0
30
0
70
128
71
16
72
14
73
13
0
VERTEX
8
OBJECT__8
10
0
20
0
30
0
70
128
71
17
72
18
73
1
0
VERTEX
8
OBJECT__8
10
0
20
0
30
0
70
128
71
1
72
18
73
7
0
VERTEX
8
OBJECT__8
10
0
20
0
30
0
70
128
71
11
72
8
73
13
0
VERTEX
8
OBJECT__8
10
0
20
0
30
0
70
128
71
6
72
19
73
5
0
VERTEX
8
OBJECT__8
10
0
20
0
30
0
70
128
71
1
72
8
73
17
0
VERTEX
8
OBJECT__8
10
0
20
0
30
0
70
128
71
10
72
17
73
8
0
SEQEND
8
OBJECT__8
0
POLYLINE
8
OBJECT__10
66
1
70
64
71
100
72
98
62
253
0
VERTEX
8
OBJECT__10
10
58.125000
20
10.889000
30
11.459000
70
192
0
VERTEX
8
OBJECT__10
10
60.891998
20
9.000000
30
0.081000
70
192
0
VERTEX
8
OBJECT__10
10
61.039001
20
9.000000
30
1.626000
70
192
0
VERTEX
8
OBJECT__10
10
57.780998
20
9.702000
30
-12.485000
70
192
0
VERTEX
8
OBJECT__10
10
59.063000
20
9.228000
30
-12.827000
70
192
0
VERTEX
8
OBJECT__10
10
58.761002
20
10.725000
30
11.609000
70
192
0
VERTEX
8
OBJECT__10
10
61.547001
20
9.355000
30
12.708000
70
192
0
VERTEX
8
OBJECT__10
10
60.137001
20
10.149000
30
12.095000
70
192
0
VERTEX
8
OBJECT__10
10
62.047001
20
9.000000
30
12.957000
70
192
0
VERTEX
8
OBJECT__10
10
59.969002
20
10.244000
30
12.022000
70
192
0
VERTEX
8
OBJECT__10
10
55.639999
20
11.324000
30
11.065000
70
192
0
VERTEX
8
OBJECT__10
10
54.050999
20
11.306000
30
11.102000
70
192
0
VERTEX
8
OBJECT__10
10
54.930000
20
10.124000
30
-12.180000
70
192
0
VERTEX
8
OBJECT__10
10
57.136002
20
11.145000
30
11.226000
70
192
0
VERTEX
8
OBJECT__10
10
56.426998
20
10.017000
30
-12.251000
70
192
0
VERTEX
8
OBJECT__10
10
57.630001
20
9.758000
30
-12.445000
70
192
0
VERTEX
8
OBJECT__10
10
53.665001
20
10.029000
30
-12.272000
70
192
0
VERTEX
8
OBJECT__10
10
53.505001
20
11.244000
30
11.172000
70
192
0
VERTEX
8
OBJECT__10
10
53.601002
20
10.025000
30
-12.277000
70
192
0
VERTEX
8
OBJECT__10
10
53.193001
20
11.209000
30
11.211000
70
192
0
VERTEX
8
OBJECT__10
10
51.620998
20
10.861000
30
11.568000
70
192
0
VERTEX
8
OBJECT__10
10
52.091000
20
9.682000
30
-12.566000
70
192
0
VERTEX
8
OBJECT__10
10
50.088001
20
10.292000
30
12.094000
70
192
0
VERTEX
8
OBJECT__10
10
49.909000
20
10.209000
30
12.166000
70
192
0
VERTEX
8
OBJECT__10
10
49.854000
20
10.183000
30
12.188000
70
192
0
VERTEX
8
OBJECT__10
10
49.108002
20
9.752000
30
12.531000
70
192
0
VERTEX
8
OBJECT__10
10
49.792999
20
8.615000
30
-13.342000
70
192
0
VERTEX
8
OBJECT__10
10
51.217999
20
9.363000
30
-12.814000
70
192
0
VERTEX
8
OBJECT__10
10
49.724998
20
8.579000
30
-13.367000
70
192
0
VERTEX
8
OBJECT__10
10
46.888000
20
8.140000
30
13.668000
70
192
0
VERTEX
8
OBJECT__10
10
45.882000
20
7.049000
30
14.271000
70
192
0
VERTEX
8
OBJECT__10
10
48.298000
20
9.283000
30
12.904000
70
192
0
VERTEX
8
OBJECT__10
10
45.611000
20
6.652000
30
14.445000
70
192
0
VERTEX
8
OBJECT__10
10
46.867001
20
5.761000
30
-14.811000
70
192
0
VERTEX
8
OBJECT__10
10
47.326000
20
6.433000
30
-14.545000
70
192
0
VERTEX
8
OBJECT__10
10
48.368000
20
7.539000
30
-13.994000
70
192
0
VERTEX
8
OBJECT__10
10
46.645000
20
5.437000
30
-14.939000
70
192
0
VERTEX
8
OBJECT__10
10
44.285999
20
4.398000
30
15.312000
70
192
0
VERTEX
8
OBJECT__10
10
43.737999
20
2.788000
30
15.690000
70
192
0
VERTEX
8
OBJECT__10
10
44.807999
20
5.446000
30
14.961000
70
192
0
VERTEX
8
OBJECT__10
10
44.872002
20
5.574000
30
14.919000
70
192
0
VERTEX
8
OBJECT__10
10
43.659000
20
2.364000
30
15.745000
70
192
0
VERTEX
8
OBJECT__10
10
45.264000
20
2.029000
30
-15.788000
70
192
0
VERTEX
8
OBJECT__10
10
45.276001
20
2.124000
30
-15.780000
70
192
0
VERTEX
8
OBJECT__10
10
45.728001
20
3.657000
30
-15.493000
70
192
0
VERTEX
8
OBJECT__10
10
46.396000
20
5.072000
30
-15.083000
70
192
0
VERTEX
8
OBJECT__10
10
43.419998
20
-0.893000
30
15.914000
70
192
0
VERTEX
8
OBJECT__10
10
43.647999
20
-2.366000
30
15.753000
70
192
0
VERTEX
8
OBJECT__10
10
45.279999
20
-2.025000
30
-15.778000
70
192
0
VERTEX
8
OBJECT__10
10
45.125999
20
-1.211000
30
-15.878000
70
192
0
VERTEX
8
OBJECT__10
10
43.407001
20
0.000000
30
15.923000
70
192
0
VERTEX
8
OBJECT__10
10
43.391998
20
-0.403000
30
15.934000
70
192
0
VERTEX
8
OBJECT__10
10
45.062000
20
0.396000
30
-15.919000
70
192
0
VERTEX
8
OBJECT__10
10
43.455002
20
1.253000
30
15.889000
70
192
0
VERTEX
8
OBJECT__10
10
45.077000
20
0.000000
30
-15.909000
70
192
0
VERTEX
8
OBJECT__10
10
44.827000
20
-5.442000
30
14.951000
70
192
0
VERTEX
8
OBJECT__10
10
45.926998
20
-4.142000
30
-15.368000
70
192
0
VERTEX
8
OBJECT__10
10
45.386002
20
-2.588000
30
-15.710000
70
192
0
VERTEX
8
OBJECT__10
10
46.479000
20
-5.215000
30
-15.033000
70
192
0
VERTEX
8
OBJECT__10
10
46.638000
20
-5.438000
30
-14.942000
70
192
0
VERTEX
8
OBJECT__10
10
44.992001
20
-5.777000
30
14.840000
70
192
0
VERTEX
8
OBJECT__10
10
45.612000
20
-6.650000
30
14.445000
70
192
0
VERTEX
8
OBJECT__10
10
46.867001
20
-5.760000
30
-14.811000
70
192
0
VERTEX
8
OBJECT__10
10
43.671001
20
-2.516000
30
15.737000
70
192
0
VERTEX
8
OBJECT__10
10
44.158001
20
-4.086000
30
15.399000
70
192
0
VERTEX
8
OBJECT__10
10
48.417000
20
-7.584000
30
-13.969000
70
192
0
VERTEX
8
OBJECT__10
10
47.471001
20
-6.608000
30
-14.465000
70
192
0
VERTEX
8
OBJECT__10
10
49.737999
20
-8.588000
30
-13.362000
70
192
0
VERTEX
8
OBJECT__10
10
48.700001
20
-9.547000
30
12.705000
70
192
0
VERTEX
8
OBJECT__10
10
49.104000
20
-9.757000
30
12.531000
70
192
0
VERTEX
8
OBJECT__10
10
45.981998
20
-7.170000
30
14.210000
70
192
0
VERTEX
8
OBJECT__10
10
47.230000
20
-8.452000
30
13.473000
70
192
0
VERTEX
8
OBJECT__10
10
49.792999
20
-8.617000
30
-13.341000
70
192
0
VERTEX
8
OBJECT__10
10
53.270000
20
-11.220000
30
11.199000
70
192
0
VERTEX
8
OBJECT__10
10
51.396999
20
-9.436000
30
-12.759000
70
192
0
VERTEX
8
OBJECT__10
10
51.188000
20
-9.350000
30
-12.824000
70
192
0
VERTEX
8
OBJECT__10
10
52.844002
20
-9.884000
30
-12.398000
70
192
0
VERTEX
8
OBJECT__10
10
53.506001
20
-11.238000
30
11.178000
70
192
0
VERTEX
8
OBJECT__10
10
53.667000
20
-10.019000
30
-12.280000
70
192
0
VERTEX
8
OBJECT__10
10
49.960999
20
-10.204000
30
12.160000
70
192
0
VERTEX
8
OBJECT__10
10
50.355000
20
-10.409000
30
11.990000
70
192
0
VERTEX
8
OBJECT__10
10
52.012001
20
-10.968000
30
11.461000
70
192
0
VERTEX
8
OBJECT__10
10
55.514999
20
-10.110000
30
-12.185000
70
192
0
VERTEX
8
OBJECT__10
10
54.015999
20
-10.076000
30
-12.230000
70
192
0
VERTEX
8
OBJECT__10
10
54.867001
20
-11.342000
30
11.056000
70
192
0
VERTEX
8
OBJECT__10
10
56.185001
20
-11.281000
30
11.102000
70
192
0
VERTEX
8
OBJECT__10
10
56.772999
20
-9.959000
30
-12.295000
70
192
0
VERTEX
8
OBJECT__10
10
57.740002
20
-11.017000
30
11.344000
70
192
0
VERTEX
8
OBJECT__10
10
58.125000
20
-10.894000
30
11.454000
70
192
0
VERTEX
8
OBJECT__10
10
57.777000
20
-9.686000
30
-12.497000
70
192
0
VERTEX
8
OBJECT__10
10
61.039001
20
-9.000000
30
1.626000
70
192
0
VERTEX
8
OBJECT__10
10
59.438000
20
-10.474000
30
11.827000
70
192
0
VERTEX
8
OBJECT__10
10
60.103001
20
-10.147000
30
12.093000
70
192
0
VERTEX
8
OBJECT__10
10
60.946999
20
-9.732000
30
12.429000
70
192
0
VERTEX
8
OBJECT__10
10
58.278999
20
-9.550000
30
-12.599000
70
192
0
VERTEX
8
OBJECT__10
10
59.702999
20
-9.000000
30
-11.443000
70
192
0
VERTEX
8
OBJECT__10
10
59.527000
20
-9.000000
30
-12.984000
70
192
0
VERTEX
8
OBJECT__10
10
59.125999
20
-9.199000
30
-12.847000
70
192
0
VERTEX
8
OBJECT__10
10
62.047001
20
-9.000000
30
12.957000
70
192
0
VERTEX
8
OBJECT__10
10
59.527000
20
9.000000
30
-12.984000
70
192
0
VERTEX
8
OBJECT__10
10
0
20
0
30
0
70
128
71
1
72
2
73
3
0
VERTEX
8
OBJECT__10
10
0
20
0
30
0
70
128
71
4
72
5
73
2
0
VERTEX
8
OBJECT__10
10
0
20
0
30
0
70
128
71
2
72
1
73
4
0
VERTEX
8
OBJECT__10
10
0
20
0
30
0
70
128
71
3
72
6
73
1
0
VERTEX
8
OBJECT__10
10
0
20
0
30
0
70
128
71
3
72
7
73
8
0
VERTEX
8
OBJECT__10
10
0
20
0
30
0
70
128
71
3
72
9
73
7
0
VERTEX
8
OBJECT__10
10
0
20
0
30
0
70
128
71
8
72
10
73
3
0
VERTEX
8
OBJECT__10
10
0
20
0
30
0
70
128
71
10
72
6
73
3
0
VERTEX
8
OBJECT__10
10
0
20
0
30
0
70
128
71
11
72
12
73
13
0
VERTEX
8
OBJECT__10
10
0
20
0
30
0
70
128
71
14
72
11
73
15
0
VERTEX
8
OBJECT__10
10
0
20
0
30
0
70
128
71
15
72
16
73
14
0
VERTEX
8
OBJECT__10
10
0
20
0
30
0
70
128
71
4
72
1
73
14
0
VERTEX
8
OBJECT__10
10
0
20
0
30
0
70
128
71
16
72
4
73
14
0
VERTEX
8
OBJECT__10
10
0
20
0
30
0
70
128
71
17
72
13
73
12
0
VERTEX
8
OBJECT__10
10
0
20
0
30
0
70
128
71
12
72
18
73
17
0
VERTEX
8
OBJECT__10
10
0
20
0
30
0
70
128
71
19
72
17
73
18
0
VERTEX
8
OBJECT__10
10
0
20
0
30
0
70
128
71
18
72
20
73
19
0
VERTEX
8
OBJECT__10
10
0
20
0
30
0
70
128
71
20
72
21
73
19
0
VERTEX
8
OBJECT__10
10
0
20
0
30
0
70
128
71
22
72
19
73
23
0
VERTEX
8
OBJECT__10
10
0
20
0
30
0
70
128
71
23
72
24
73
22
0
VERTEX
8
OBJECT__10
10
0
20
0
30
0
70
128
71
24
72
25
73
22
0
VERTEX
8
OBJECT__10
10
0
20
0
30
0
70
128
71
26
72
27
73
28
0
VERTEX
8
OBJECT__10
10
0
20
0
30
0
70
128
71
28
72
22
73
26
0
VERTEX
8
OBJECT__10
10
0
20
0
30
0
70
128
71
25
72
26
73
22
0
VERTEX
8
OBJECT__10
10
0
20
0
30
0
70
128
71
29
72
30
73
31
0
VERTEX
8
OBJECT__10
10
0
20
0
30
0
70
128
71
29
72
32
73
30
0
VERTEX
8
OBJECT__10
10
0
20
0
30
0
70
128
71
29
72
27
73
26
0
VERTEX
8
OBJECT__10
10
0
20
0
30
0
70
128
71
26
72
32
73
29
0
VERTEX
8
OBJECT__10
10
0
20
0
30
0
70
128
71
33
72
34
73
35
0
VERTEX
8
OBJECT__10
10
0
20
0
30
0
70
128
71
35
72
36
73
33
0
VERTEX
8
OBJECT__10
10
0
20
0
30
0
70
128
71
36
72
29
73
33
0
VERTEX
8
OBJECT__10
10
0
20
0
30
0
70
128
71
37
72
38
73
39
0
VERTEX
8
OBJECT__10
10
0
20
0
30
0
70
128
71
37
72
40
73
38
0
VERTEX
8
OBJECT__10
10
0
20
0
30
0
70
128
71
37
72
34
73
33
0
VERTEX
8
OBJECT__10
10
0
20
0
30
0
70
128
71
33
72
41
73
37
0
VERTEX
8
OBJECT__10
10
0
20
0
30
0
70
128
71
41
72
40
73
37
0
VERTEX
8
OBJECT__10
10
0
20
0
30
0
70
128
71
42
72
43
73
44
0
VERTEX
8
OBJECT__10
10
0
20
0
30
0
70
128
71
44
72
45
73
42
0
VERTEX
8
OBJECT__10
10
0
20
0
30
0
70
128
71
45
72
46
73
42
0
VERTEX
8
OBJECT__10
10
0
20
0
30
0
70
128
71
46
72
37
73
42
0
VERTEX
8
OBJECT__10
10
0
20
0
30
0
70
128
71
47
72
48
73
49
0
VERTEX
8
OBJECT__10
10
0
20
0
30
0
70
128
71
50
72
51
73
52
0
VERTEX
8
OBJECT__10
10
0
20
0
30
0
70
128
71
52
72
47
73
50
0
VERTEX
8
OBJECT__10
10
0
20
0
30
0
70
128
71
53
72
43
73
42
0
VERTEX
8
OBJECT__10
10
0
20
0
30
0
70
128
71
54
72
55
73
53
0
VERTEX
8
OBJECT__10
10
0
20
0
30
0
70
128
71
51
72
50
73
55
0
VERTEX
8
OBJECT__10
10
0
20
0
30
0
70
128
71
55
72
54
73
51
0
VERTEX
8
OBJECT__10
10
0
20
0
30
0
70
128
71
42
72
54
73
53
0
VERTEX
8
OBJECT__10
10
0
20
0
30
0
70
128
71
56
72
57
73
58
0
VERTEX
8
OBJECT__10
10
0
20
0
30
0
70
128
71
56
72
59
73
57
0
VERTEX
8
OBJECT__10
10
0
20
0
30
0
70
128
71
56
72
60
73
59
0
VERTEX
8
OBJECT__10
10
0
20
0
30
0
70
128
71
60
72
61
73
62
0
VERTEX
8
OBJECT__10
10
0
20
0
30
0
70
128
71
60
72
56
73
61
0
VERTEX
8
OBJECT__10
10
0
20
0
30
0
70
128
71
62
72
63
73
60
0
VERTEX
8
OBJECT__10
10
0
20
0
30
0
70
128
71
49
72
48
73
64
0
VERTEX
8
OBJECT__10
10
0
20
0
30
0
70
128
71
64
72
65
73
49
0
VERTEX
8
OBJECT__10
10
0
20
0
30
0
70
128
71
65
72
56
73
49
0
VERTEX
8
OBJECT__10
10
0
20
0
30
0
70
128
71
62
72
66
73
67
0
VERTEX
8
OBJECT__10
10
0
20
0
30
0
70
128
71
62
72
68
73
66
0
VERTEX
8
OBJECT__10
10
0
20
0
30
0
70
128
71
68
72
69
73
70
0
VERTEX
8
OBJECT__10
10
0
20
0
30
0
70
128
71
68
72
62
73
71
0
VERTEX
8
OBJECT__10
10
0
20
0
30
0
70
128
71
71
72
72
73
68
0
VERTEX
8
OBJECT__10
10
0
20
0
30
0
70
128
71
72
72
69
73
68
0
VERTEX
8
OBJECT__10
10
0
20
0
30
0
70
128
71
70
72
73
73
68
0
VERTEX
8
OBJECT__10
10
0
20
0
30
0
70
128
71
74
72
75
73
76
0
VERTEX
8
OBJECT__10
10
0
20
0
30
0
70
128
71
74
72
77
73
75
0
VERTEX
8
OBJECT__10
10
0
20
0
30
0
70
128
71
74
72
78
73
79
0
VERTEX
8
OBJECT__10
10
0
20
0
30
0
70
128
71
79
72
77
73
74
0
VERTEX
8
OBJECT__10
10
0
20
0
30
0
70
128
71
73
72
70
73
80
0
VERTEX
8
OBJECT__10
10
0
20
0
30
0
70
128
71
80
72
81
73
73
0
VERTEX
8
OBJECT__10
10
0
20
0
30
0
70
128
71
81
72
82
73
73
0
VERTEX
8
OBJECT__10
10
0
20
0
30
0
70
128
71
82
72
74
73
73
0
VERTEX
8
OBJECT__10
10
0
20
0
30
0
70
128
71
83
72
84
73
85
0
VERTEX
8
OBJECT__10
10
0
20
0
30
0
70
128
71
84
72
78
73
85
0
VERTEX
8
OBJECT__10
10
0
20
0
30
0
70
128
71
85
72
86
73
83
0
VERTEX
8
OBJECT__10
10
0
20
0
30
0
70
128
71
87
72
83
73
86
0
VERTEX
8
OBJECT__10
10
0
20
0
30
0
70
128
71
86
72
88
73
87
0
VERTEX
8
OBJECT__10
10
0
20
0
30
0
70
128
71
89
72
90
73
87
0
VERTEX
8
OBJECT__10
10
0
20
0
30
0
70
128
71
88
72
89
73
87
0
VERTEX
8
OBJECT__10
10
0
20
0
30
0
70
128
71
91
72
92
73
93
0
VERTEX
8
OBJECT__10
10
0
20
0
30
0
70
128
71
93
72
94
73
91
0
VERTEX
8
OBJECT__10
10
0
20
0
30
0
70
128
71
90
72
89
73
91
0
VERTEX
8
OBJECT__10
10
0
20
0
30
0
70
128
71
89
72
92
73
91
0
VERTEX
8
OBJECT__10
10
0
20
0
30
0
70
128
71
91
72
95
73
90
0
VERTEX
8
OBJECT__10
10
0
20
0
30
0
70
128
71
95
72
91
73
96
0
VERTEX
8
OBJECT__10
10
0
20
0
30
0
70
128
71
96
72
97
73
98
0
VERTEX
8
OBJECT__10
10
0
20
0
30
0
70
128
71
96
72
98
73
95
0
VERTEX
8
OBJECT__10
10
0
20
0
30
0
70
128
71
94
72
99
73
91
0
VERTEX
8
OBJECT__10
10
0
20
0
30
0
70
128
71
84
72
79
73
78
0
VERTEX
8
OBJECT__10
10
0
20
0
30
0
70
128
71
76
72
73
73
74
0
VERTEX
8
OBJECT__10
10
0
20
0
30
0
70
128
71
67
72
63
73
62
0
VERTEX
8
OBJECT__10
10
0
20
0
30
0
70
128
71
58
72
49
73
56
0
VERTEX
8
OBJECT__10
10
0
20
0
30
0
70
128
71
49
72
50
73
47
0
VERTEX
8
OBJECT__10
10
0
20
0
30
0
70
128
71
39
72
42
73
37
0
VERTEX
8
OBJECT__10
10
0
20
0
30
0
70
128
71
31
72
33
73
29
0
VERTEX
8
OBJECT__10
10
0
20
0
30
0
70
128
71
21
72
23
73
19
0
VERTEX
8
OBJECT__10
10
0
20
0
30
0
70
128
71
13
72
15
73
11
0
VERTEX
8
OBJECT__10
10
0
20
0
30
0
70
128
71
5
72
100
73
2
0
SEQEND
8
OBJECT__10
0
POLYLINE
8
OBJECT__11
66
1
70
64
71
144
72
144
62
253
0
VERTEX
8
OBJECT__11
10
2.000000
20
-14.116000
30
-8.150000
70
192
0
VERTEX
8
OBJECT__11
10
2.000000
20
-10.477000
30
-12.487000
70
192
0
VERTEX
8
OBJECT__11
10
66.850998
20
-11.724000
30
-10.493000
70
192
0
VERTEX
8
OBJECT__11
10
66.850998
20
-10.047000
30
-11.978000
70
192
0
VERTEX
8
OBJECT__11
10
66.850998
20
-13.907000
30
-7.359000
70
192
0
VERTEX
8
OBJECT__11
10
66.850998
20
-15.270000
30
-3.791000
70
192
0
VERTEX
8
OBJECT__11
10
2.000000
20
-16.052000
30
-2.830000
70
192
0
VERTEX
8
OBJECT__11
10
66.850998
20
-13.577000
30
-7.833000
70
192
0
VERTEX
8
OBJECT__11
10
66.850998
20
-15.401000
30
-2.721000
70
192
0
VERTEX
8
OBJECT__11
10
66.850998
20
-15.734000
30
0.000000
70
192
0
VERTEX
8
OBJECT__11
10
2.000000
20
-16.052000
30
2.830000
70
192
0
VERTEX
8
OBJECT__11
10
2.000000
20
-14.116000
30
8.150000
70
192
0
VERTEX
8
OBJECT__11
10
66.850998
20
-15.270000
30
3.791000
70
192
0
VERTEX
8
OBJECT__11
10
66.850998
20
-15.401000
30
2.721000
70
192
0
VERTEX
8
OBJECT__11
10
66.850998
20
-13.907000
30
7.359000
70
192
0
VERTEX
8
OBJECT__11
10
2.000000
20
14.116000
30
8.150000
70
192
0
VERTEX
8
OBJECT__11
10
66.850998
20
13.907000
30
7.359000
70
192
0
VERTEX
8
OBJECT__11
10
66.850998
20
15.270000
30
3.791000
70
192
0
VERTEX
8
OBJECT__11
10
2.000000
20
16.052000
30
2.830000
70
192
0
VERTEX
8
OBJECT__11
10
66.850998
20
13.577000
30
7.833000
70
192
0
VERTEX
8
OBJECT__11
10
66.850998
20
15.401000
30
2.721000
70
192
0
VERTEX
8
OBJECT__11
10
66.850998
20
15.734000
30
0.000000
70
192
0
VERTEX
8
OBJECT__11
10
2.000000
20
16.052000
30
-2.830000
70
192
0
VERTEX
8
OBJECT__11
10
2.000000
20
14.116000
30
-8.150000
70
192
0
VERTEX
8
OBJECT__11
10
66.850998
20
15.270000
30
-3.791000
70
192
0
VERTEX
8
OBJECT__11
10
66.850998
20
15.401000
30
-2.721000
70
192
0
VERTEX
8
OBJECT__11
10
66.850998
20
13.907000
30
-7.359000
70
192
0
VERTEX
8
OBJECT__11
10
66.850998
20
13.577000
30
-7.833000
70
192
0
VERTEX
8
OBJECT__11
10
66.850998
20
11.724000
30
-10.493000
70
192
0
VERTEX
8
OBJECT__11
10
2.000000
20
10.477000
30
-12.487000
70
192
0
VERTEX
8
OBJECT__11
10
2.000000
20
5.575000
30
-15.317000
70
192
0
VERTEX
8
OBJECT__11
10
47.326000
20
6.433000
30
-14.545000
70
192
0
VERTEX
8
OBJECT__11
10
46.867001
20
5.761000
30
-14.811000
70
192
0
VERTEX
8
OBJECT__11
10
48.368000
20
7.539000
30
-13.994000
70
192
0
VERTEX
8
OBJECT__11
10
49.724998
20
8.579000
30
-13.367000
70
192
0
VERTEX
8
OBJECT__11
10
51.217999
20
9.363000
30
-12.814000
70
192
0
VERTEX
8
OBJECT__11
10
49.792999
20
8.615000
30
-13.342000
70
192
0
VERTEX
8
OBJECT__11
10
52.091000
20
9.682000
30
-12.566000
70
192
0
VERTEX
8
OBJECT__11
10
53.601002
20
10.025000
30
-12.277000
70
192
0
VERTEX
8
OBJECT__11
10
66.850998
20
10.047000
30
-11.978000
70
192
0
VERTEX
8
OBJECT__11
10
54.930000
20
10.124000
30
-12.180000
70
192
0
VERTEX
8
OBJECT__11
10
53.665001
20
10.029000
30
-12.272000
70
192
0
VERTEX
8
OBJECT__11
10
46.645000
20
5.437000
30
-14.939000
70
192
0
VERTEX
8
OBJECT__11
10
59.063000
20
9.228000
30
-12.827000
70
192
0
VERTEX
8
OBJECT__11
10
57.780998
20
9.702000
30
-12.485000
70
192
0
VERTEX
8
OBJECT__11
10
66.850998
20
9.000000
30
-12.906000
70
192
0
VERTEX
8
OBJECT__11
10
59.527000
20
9.000000
30
-12.984000
70
192
0
VERTEX
8
OBJECT__11
10
57.630001
20
9.758000
30
-12.445000
70
192
0
VERTEX
8
OBJECT__11
10
56.426998
20
10.017000
30
-12.251000
70
192
0
VERTEX
8
OBJECT__11
10
45.276001
20
2.124000
30
-15.780000
70
192
0
VERTEX
8
OBJECT__11
10
45.264000
20
2.029000
30
-15.788000
70
192
0
VERTEX
8
OBJECT__11
10
2.000000
20
0.000000
30
-16.299999
70
192
0
VERTEX
8
OBJECT__11
10
45.062000
20
0.396000
30
-15.919000
70
192
0
VERTEX
8
OBJECT__11
10
46.396000
20
5.072000
30
-15.083000
70
192
0
VERTEX
8
OBJECT__11
10
45.728001
20
3.657000
30
-15.493000
70
192
0
VERTEX
8
OBJECT__11
10
2.000000
20
-5.575000
30
-15.317000
70
192
0
VERTEX
8
OBJECT__11
10
45.386002
20
-2.588000
30
-15.710000
70
192
0
VERTEX
8
OBJECT__11
10
45.926998
20
-4.142000
30
-15.368000
70
192
0
VERTEX
8
OBJECT__11
10
46.479000
20
-5.215000
30
-15.033000
70
192
0
VERTEX
8
OBJECT__11
10
45.125999
20
-1.211000
30
-15.878000
70
192
0
VERTEX
8
OBJECT__11
10
45.279999
20
-2.025000
30
-15.778000
70
192
0
VERTEX
8
OBJECT__11
10
45.077000
20
0.000000
30
-15.909000
70
192
0
VERTEX
8
OBJECT__11
10
59.125999
20
-9.199000
30
-12.847000
70
192
0
VERTEX
8
OBJECT__11
10
59.527000
20
-9.000000
30
-12.984000
70
192
0
VERTEX
8
OBJECT__11
10
58.278999
20
-9.550000
30
-12.599000
70
192
0
VERTEX
8
OBJECT__11
10
56.772999
20
-9.959000
30
-12.295000
70
192
0
VERTEX
8
OBJECT__11
10
57.777000
20
-9.686000
30
-12.497000
70
192
0
VERTEX
8
OBJECT__11
10
55.514999
20
-10.110000
30
-12.185000
70
192
0
VERTEX
8
OBJECT__11
10
54.015999
20
-10.076000
30
-12.230000
70
192
0
VERTEX
8
OBJECT__11
10
52.844002
20
-9.884000
30
-12.398000
70
192
0
VERTEX
8
OBJECT__11
10
53.667000
20
-10.019000
30
-12.280000
70
192
0
VERTEX
8
OBJECT__11
10
49.737999
20
-8.588000
30
-13.362000
70
192
0
VERTEX
8
OBJECT__11
10
49.792999
20
-8.617000
30
-13.341000
70
192
0
VERTEX
8
OBJECT__11
10
51.188000
20
-9.350000
30
-12.824000
70
192
0
VERTEX
8
OBJECT__11
10
51.396999
20
-9.436000
30
-12.759000
70
192
0
VERTEX
8
OBJECT__11
10
46.638000
20
-5.438000
30
-14.942000
70
192
0
VERTEX
8
OBJECT__11
10
46.867001
20
-5.760000
30
-14.811000
70
192
0
VERTEX
8
OBJECT__11
10
47.471001
20
-6.608000
30
-14.465000
70
192
0
VERTEX
8
OBJECT__11
10
48.417000
20
-7.584000
30
-13.969000
70
192
0
VERTEX
8
OBJECT__11
10
66.850998
20
-10.047000
30
11.978000
70
192
0
VERTEX
8
OBJECT__11
10
66.850998
20
-9.000000
30
12.906000
70
192
0
VERTEX
8
OBJECT__11
10
62.047001
20
-9.000000
30
12.957000
70
192
0
VERTEX
8
OBJECT__11
10
60.946999
20
-9.732000
30
12.429000
70
192
0
VERTEX
8
OBJECT__11
10
50.355000
20
-10.409000
30
11.990000
70
192
0
VERTEX
8
OBJECT__11
10
49.960999
20
-10.204000
30
12.160000
70
192
0
VERTEX
8
OBJECT__11
10
53.270000
20
-11.220000
30
11.199000
70
192
0
VERTEX
8
OBJECT__11
10
52.012001
20
-10.968000
30
11.461000
70
192
0
VERTEX
8
OBJECT__11
10
66.850998
20
-13.577000
30
7.833000
70
192
0
VERTEX
8
OBJECT__11
10
54.867001
20
-11.342000
30
11.056000
70
192
0
VERTEX
8
OBJECT__11
10
53.506001
20
-11.238000
30
11.178000
70
192
0
VERTEX
8
OBJECT__11
10
57.740002
20
-11.017000
30
11.344000
70
192
0
VERTEX
8
OBJECT__11
10
56.185001
20
-11.281000
30
11.102000
70
192
0
VERTEX
8
OBJECT__11
10
59.438000
20
-10.474000
30
11.827000
70
192
0
VERTEX
8
OBJECT__11
10
58.125000
20
-10.894000
30
11.454000
70
192
0
VERTEX
8
OBJECT__11
10
66.850998
20
-11.724000
30
10.493000
70
192
0
VERTEX
8
OBJECT__11
10
60.103001
20
-10.147000
30
12.093000
70
192
0
VERTEX
8
OBJECT__11
10
2.000000
20
-10.477000
30
12.487000
70
192
0
VERTEX
8
OBJECT__11
10
44.992001
20
-5.777000
30
14.840000
70
192
0
VERTEX
8
OBJECT__11
10
44.827000
20
-5.442000
30
14.951000
70
192
0
VERTEX
8
OBJECT__11
10
45.981998
20
-7.170000
30
14.210000
70
192
0
VERTEX
8
OBJECT__11
10
45.612000
20
-6.650000
30
14.445000
70
192
0
VERTEX
8
OBJECT__11
10
47.230000
20
-8.452000
30
13.473000
70
192
0
VERTEX
8
OBJECT__11
10
48.700001
20
-9.547000
30
12.705000
70
192
0
VERTEX
8
OBJECT__11
10
49.104000
20
-9.757000
30
12.531000
70
192
0
VERTEX
8
OBJECT__11
10
2.000000
20
-5.575000
30
15.317000
70
192
0
VERTEX
8
OBJECT__11
10
43.419998
20
-0.893000
30
15.914000
70
192
0
VERTEX
8
OBJECT__11
10
43.391998
20
-0.403000
30
15.934000
70
192
0
VERTEX
8
OBJECT__11
10
43.671001
20
-2.516000
30
15.737000
70
192
0
VERTEX
8
OBJECT__11
10
43.647999
20
-2.366000
30
15.753000
70
192
0
VERTEX
8
OBJECT__11
10
2.000000
20
0.000000
30
16.299999
70
192
0
VERTEX
8
OBJECT__11
10
44.158001
20
-4.086000
30
15.399000
70
192
0
VERTEX
8
OBJECT__11
10
2.000000
20
5.575000
30
15.317000
70
192
0
VERTEX
8
OBJECT__11
10
43.737999
20
2.788000
30
15.690000
70
192
0
VERTEX
8
OBJECT__11
10
44.285999
20
4.398000
30
15.312000
70
192
0
VERTEX
8
OBJECT__11
10
43.455002
20
1.253000
30
15.889000
70
192
0
VERTEX
8
OBJECT__11
10
43.659000
20
2.364000
30
15.745000
70
192
0
VERTEX
8
OBJECT__11
10
43.407001
20
0.000000
30
15.923000
70
192
0
VERTEX
8
OBJECT__11
10
2.000000
20
10.477000
30
12.487000
70
192
0
VERTEX
8
OBJECT__11
10
48.298000
20
9.283000
30
12.904000
70
192
0
VERTEX
8
OBJECT__11
10
49.108002
20
9.752000
30
12.531000
70
192
0
VERTEX
8
OBJECT__11
10
49.854000
20
10.183000
30
12.188000
70
192
0
VERTEX
8
OBJECT__11
10
44.872002
20
5.574000
30
14.919000
70
192
0
VERTEX
8
OBJECT__11
10
45.611000
20
6.652000
30
14.445000
70
192
0
VERTEX
8
OBJECT__11
10
44.807999
20
5.446000
30
14.961000
70
192
0
VERTEX
8
OBJECT__11
10
45.882000
20
7.049000
30
14.271000
70
192
0
VERTEX
8
OBJECT__11
10
46.888000
20
8.140000
30
13.668000
70
192
0
VERTEX
8
OBJECT__11
10
66.850998
20
11.724000
30
10.493000
70
192
0
VERTEX
8
OBJECT__11
10
59.969002
20
10.244000
30
12.022000
70
192
0
VERTEX
8
OBJECT__11
10
60.137001
20
10.149000
30
12.095000
70
192
0
VERTEX
8
OBJECT__11
10
66.850998
20
10.047000
30
11.978000
70
192
0
VERTEX
8
OBJECT__11
10
58.761002
20
10.725000
30
11.609000
70
192
0
VERTEX
8
OBJECT__11
10
57.136002
20
11.145000
30
11.226000
70
192
0
VERTEX
8
OBJECT__11
10
58.125000
20
10.889000
30
11.459000
70
192
0
VERTEX
8
OBJECT__11
10
55.639999
20
11.324000
30
11.065000
70
192
0
VERTEX
8
OBJECT__11
10
53.193001
20
11.209000
30
11.211000
70
192
0
VERTEX
8
OBJECT__11
10
53.505001
20
11.244000
30
11.172000
70
192
0
VERTEX
8
OBJECT__11
10
54.050999
20
11.306000
30
11.102000
70
192
0
VERTEX
8
OBJECT__11
10
51.620998
20
10.861000
30
11.568000
70
192
0
VERTEX
8
OBJECT__11
10
49.909000
20
10.209000
30
12.166000
70
192
0
VERTEX
8
OBJECT__11
10
50.088001
20
10.292000
30
12.094000
70
192
0
VERTEX
8
OBJECT__11
10
61.547001
20
9.355000
30
12.708000
70
192
0
VERTEX
8
OBJECT__11
10
62.047001
20
9.000000
30
12.957000
70
192
0
VERTEX
8
OBJECT__11
10
66.850998
20
9.000000
30
12.906000
70
192
0
VERTEX
8
OBJECT__11
10
66.850998
20
-9.000000
30
-12.906000
70
192
0
VERTEX
8
OBJECT__11
10
0
20
0
30
0
70
128
71
1
72
2
73
3
0
VERTEX
8
OBJECT__11
10
0
20
0
30
0
70
128
71
2
72
4
73
3
0
VERTEX
8
OBJECT__11
10
0
20
0
30
0
70
128
71
1
72
5
73
6
0
VERTEX
8
OBJECT__11
10
0
20
0
30
0
70
128
71
6
72
7
73
1
0
VERTEX
8
OBJECT__11
10
0
20
0
30
0
70
128
71
1
72
8
73
5
0
VERTEX
8
OBJECT__11
10
0
20
0
30
0
70
128
71
7
72
9
73
10
0
VERTEX
8
OBJECT__11
10
0
20
0
30
0
70
128
71
10
72
11
73
7
0
VERTEX
8
OBJECT__11
10
0
20
0
30
0
70
128
71
12
72
11
73
13
0
VERTEX
8
OBJECT__11
10
0
20
0
30
0
70
128
71
11
72
14
73
13
0
VERTEX
8
OBJECT__11
10
0
20
0
30
0
70
128
71
13
72
15
73
12
0
VERTEX
8
OBJECT__11
10
0
20
0
30
0
70
128
71
16
72
17
73
18
0
VERTEX
8
OBJECT__11
10
0
20
0
30
0
70
128
71
18
72
19
73
16
0
VERTEX
8
OBJECT__11
10
0
20
0
30
0
70
128
71
16
72
20
73
17
0
VERTEX
8
OBJECT__11
10
0
20
0
30
0
70
128
71
19
72
21
73
22
0
VERTEX
8
OBJECT__11
10
0
20
0
30
0
70
128
71
22
72
23
73
19
0
VERTEX
8
OBJECT__11
10
0
20
0
30
0
70
128
71
24
72
23
73
25
0
VERTEX
8
OBJECT__11
10
0
20
0
30
0
70
128
71
23
72
26
73
25
0
VERTEX
8
OBJECT__11
10
0
20
0
30
0
70
128
71
25
72
27
73
24
0
VERTEX
8
OBJECT__11
10
0
20
0
30
0
70
128
71
24
72
28
73
29
0
VERTEX
8
OBJECT__11
10
0
20
0
30
0
70
128
71
29
72
30
73
24
0
VERTEX
8
OBJECT__11
10
0
20
0
30
0
70
128
71
31
72
32
73
33
0
VERTEX
8
OBJECT__11
10
0
20
0
30
0
70
128
71
31
72
34
73
32
0
VERTEX
8
OBJECT__11
10
0
20
0
30
0
70
128
71
31
72
35
73
34
0
VERTEX
8
OBJECT__11
10
0
20
0
30
0
70
128
71
31
72
36
73
37
0
VERTEX
8
OBJECT__11
10
0
20
0
30
0
70
128
71
31
72
38
73
36
0
VERTEX
8
OBJECT__11
10
0
20
0
30
0
70
128
71
31
72
39
73
38
0
VERTEX
8
OBJECT__11
10
0
20
0
30
0
70
128
71
37
72
35
73
31
0
VERTEX
8
OBJECT__11
10
0
20
0
30
0
70
128
71
30
72
40
73
41
0
VERTEX
8
OBJECT__11
10
0
20
0
30
0
70
128
71
30
72
42
73
39
0
VERTEX
8
OBJECT__11
10
0
20
0
30
0
70
128
71
39
72
31
73
30
0
VERTEX
8
OBJECT__11
10
0
20
0
30
0
70
128
71
41
72
42
73
30
0
VERTEX
8
OBJECT__11
10
0
20
0
30
0
70
128
71
33
72
43
73
31
0
VERTEX
8
OBJECT__11
10
0
20
0
30
0
70
128
71
40
72
44
73
45
0
VERTEX
8
OBJECT__11
10
0
20
0
30
0
70
128
71
40
72
46
73
47
0
VERTEX
8
OBJECT__11
10
0
20
0
30
0
70
128
71
47
72
44
73
40
0
VERTEX
8
OBJECT__11
10
0
20
0
30
0
70
128
71
45
72
48
73
40
0
VERTEX
8
OBJECT__11
10
0
20
0
30
0
70
128
71
48
72
49
73
40
0
VERTEX
8
OBJECT__11
10
0
20
0
30
0
70
128
71
49
72
41
73
40
0
VERTEX
8
OBJECT__11
10
0
20
0
30
0
70
128
71
31
72
50
73
51
0
VERTEX
8
OBJECT__11
10
0
20
0
30
0
70
128
71
51
72
52
73
31
0
VERTEX
8
OBJECT__11
10
0
20
0
30
0
70
128
71
51
72
53
73
52
0
VERTEX
8
OBJECT__11
10
0
20
0
30
0
70
128
71
31
72
43
73
54
0
VERTEX
8
OBJECT__11
10
0
20
0
30
0
70
128
71
54
72
55
73
31
0
VERTEX
8
OBJECT__11
10
0
20
0
30
0
70
128
71
55
72
50
73
31
0
VERTEX
8
OBJECT__11
10
0
20
0
30
0
70
128
71
56
72
57
73
58
0
VERTEX
8
OBJECT__11
10
0
20
0
30
0
70
128
71
58
72
59
73
56
0
VERTEX
8
OBJECT__11
10
0
20
0
30
0
70
128
71
56
72
60
73
61
0
VERTEX
8
OBJECT__11
10
0
20
0
30
0
70
128
71
61
72
57
73
56
0
VERTEX
8
OBJECT__11
10
0
20
0
30
0
70
128
71
52
72
62
73
60
0
VERTEX
8
OBJECT__11
10
0
20
0
30
0
70
128
71
60
72
56
73
52
0
VERTEX
8
OBJECT__11
10
0
20
0
30
0
70
128
71
4
72
63
73
64
0
VERTEX
8
OBJECT__11
10
0
20
0
30
0
70
128
71
4
72
65
73
63
0
VERTEX
8
OBJECT__11
10
0
20
0
30
0
70
128
71
4
72
66
73
67
0
VERTEX
8
OBJECT__11
10
0
20
0
30
0
70
128
71
67
72
65
73
4
0
VERTEX
8
OBJECT__11
10
0
20
0
30
0
70
128
71
4
72
68
73
66
0
VERTEX
8
OBJECT__11
10
0
20
0
30
0
70
128
71
2
72
69
73
68
0
VERTEX
8
OBJECT__11
10
0
20
0
30
0
70
128
71
2
72
70
73
71
0
VERTEX
8
OBJECT__11
10
0
20
0
30
0
70
128
71
2
72
72
73
73
0
VERTEX
8
OBJECT__11
10
0
20
0
30
0
70
128
71
73
72
74
73
2
0
VERTEX
8
OBJECT__11
10
0
20
0
30
0
70
128
71
74
72
75
73
2
0
VERTEX
8
OBJECT__11
10
0
20
0
30
0
70
128
71
2
72
56
73
76
0
VERTEX
8
OBJECT__11
10
0
20
0
30
0
70
128
71
76
72
77
73
2
0
VERTEX
8
OBJECT__11
10
0
20
0
30
0
70
128
71
77
72
78
73
2
0
VERTEX
8
OBJECT__11
10
0
20
0
30
0
70
128
71
78
72
79
73
2
0
VERTEX
8
OBJECT__11
10
0
20
0
30
0
70
128
71
79
72
72
73
2
0
VERTEX
8
OBJECT__11
10
0
20
0
30
0
70
128
71
75
72
70
73
2
0
VERTEX
8
OBJECT__11
10
0
20
0
30
0
70
128
71
71
72
69
73
2
0
VERTEX
8
OBJECT__11
10
0
20
0
30
0
70
128
71
68
72
4
73
2
0
VERTEX
8
OBJECT__11
10
0
20
0
30
0
70
128
71
80
72
81
73
82
0
VERTEX
8
OBJECT__11
10
0
20
0
30
0
70
128
71
82
72
83
73
80
0
VERTEX
8
OBJECT__11
10
0
20
0
30
0
70
128
71
12
72
84
73
85
0
VERTEX
8
OBJECT__11
10
0
20
0
30
0
70
128
71
12
72
86
73
87
0
VERTEX
8
OBJECT__11
10
0
20
0
30
0
70
128
71
87
72
84
73
12
0
VERTEX
8
OBJECT__11
10
0
20
0
30
0
70
128
71
88
72
89
73
90
0
VERTEX
8
OBJECT__11
10
0
20
0
30
0
70
128
71
90
72
12
73
88
0
VERTEX
8
OBJECT__11
10
0
20
0
30
0
70
128
71
90
72
86
73
12
0
VERTEX
8
OBJECT__11
10
0
20
0
30
0
70
128
71
88
72
91
73
92
0
VERTEX
8
OBJECT__11
10
0
20
0
30
0
70
128
71
92
72
89
73
88
0
VERTEX
8
OBJECT__11
10
0
20
0
30
0
70
128
71
88
72
93
73
94
0
VERTEX
8
OBJECT__11
10
0
20
0
30
0
70
128
71
95
72
80
73
96
0
VERTEX
8
OBJECT__11
10
0
20
0
30
0
70
128
71
93
72
88
73
95
0
VERTEX
8
OBJECT__11
10
0
20
0
30
0
70
128
71
96
72
93
73
95
0
VERTEX
8
OBJECT__11
10
0
20
0
30
0
70
128
71
94
72
91
73
88
0
VERTEX
8
OBJECT__11
10
0
20
0
30
0
70
128
71
97
72
98
73
99
0
VERTEX
8
OBJECT__11
10
0
20
0
30
0
70
128
71
97
72
100
73
101
0
VERTEX
8
OBJECT__11
10
0
20
0
30
0
70
128
71
97
72
102
73
100
0
VERTEX
8
OBJECT__11
10
0
20
0
30
0
70
128
71
101
72
98
73
97
0
VERTEX
8
OBJECT__11
10
0
20
0
30
0
70
128
71
97
72
103
73
102
0
VERTEX
8
OBJECT__11
10
0
20
0
30
0
70
128
71
97
72
85
73
104
0
VERTEX
8
OBJECT__11
10
0
20
0
30
0
70
128
71
104
72
103
73
97
0
VERTEX
8
OBJECT__11
10
0
20
0
30
0
70
128
71
105
72
106
73
107
0
VERTEX
8
OBJECT__11
10
0
20
0
30
0
70
128
71
105
72
108
73
109
0
VERTEX
8
OBJECT__11
10
0
20
0
30
0
70
128
71
109
72
106
73
105
0
VERTEX
8
OBJECT__11
10
0
20
0
30
0
70
128
71
107
72
110
73
105
0
VERTEX
8
OBJECT__11
10
0
20
0
30
0
70
128
71
105
72
111
73
108
0
VERTEX
8
OBJECT__11
10
0
20
0
30
0
70
128
71
105
72
99
73
111
0
VERTEX
8
OBJECT__11
10
0
20
0
30
0
70
128
71
112
72
113
73
114
0
VERTEX
8
OBJECT__11
10
0
20
0
30
0
70
128
71
112
72
115
73
116
0
VERTEX
8
OBJECT__11
10
0
20
0
30
0
70
128
71
116
72
113
73
112
0
VERTEX
8
OBJECT__11
10
0
20
0
30
0
70
128
71
110
72
117
73
115
0
VERTEX
8
OBJECT__11
10
0
20
0
30
0
70
128
71
115
72
112
73
110
0
VERTEX
8
OBJECT__11
10
0
20
0
30
0
70
128
71
118
72
119
73
120
0
VERTEX
8
OBJECT__11
10
0
20
0
30
0
70
128
71
120
72
121
73
118
0
VERTEX
8
OBJECT__11
10
0
20
0
30
0
70
128
71
118
72
122
73
123
0
VERTEX
8
OBJECT__11
10
0
20
0
30
0
70
128
71
118
72
112
73
124
0
VERTEX
8
OBJECT__11
10
0
20
0
30
0
70
128
71
124
72
122
73
118
0
VERTEX
8
OBJECT__11
10
0
20
0
30
0
70
128
71
123
72
125
73
118
0
VERTEX
8
OBJECT__11
10
0
20
0
30
0
70
128
71
125
72
126
73
118
0
VERTEX
8
OBJECT__11
10
0
20
0
30
0
70
128
71
126
72
119
73
118
0
VERTEX
8
OBJECT__11
10
0
20
0
30
0
70
128
71
127
72
128
73
129
0
VERTEX
8
OBJECT__11
10
0
20
0
30
0
70
128
71
129
72
130
73
127
0
VERTEX
8
OBJECT__11
10
0
20
0
30
0
70
128
71
20
72
131
73
128
0
VERTEX
8
OBJECT__11
10
0
20
0
30
0
70
128
71
20
72
132
73
133
0
VERTEX
8
OBJECT__11
10
0
20
0
30
0
70
128
71
133
72
131
73
20
0
VERTEX
8
OBJECT__11
10
0
20
0
30
0
70
128
71
20
72
134
73
132
0
VERTEX
8
OBJECT__11
10
0
20
0
30
0
70
128
71
16
72
135
73
136
0
VERTEX
8
OBJECT__11
10
0
20
0
30
0
70
128
71
136
72
20
73
16
0
VERTEX
8
OBJECT__11
10
0
20
0
30
0
70
128
71
136
72
137
73
20
0
VERTEX
8
OBJECT__11
10
0
20
0
30
0
70
128
71
16
72
138
73
135
0
VERTEX
8
OBJECT__11
10
0
20
0
30
0
70
128
71
16
72
118
73
139
0
VERTEX
8
OBJECT__11
10
0
20
0
30
0
70
128
71
139
72
140
73
16
0
VERTEX
8
OBJECT__11
10
0
20
0
30
0
70
128
71
140
72
138
73
16
0
VERTEX
8
OBJECT__11
10
0
20
0
30
0
70
128
71
137
72
134
73
20
0
VERTEX
8
OBJECT__11
10
0
20
0
30
0
70
128
71
130
72
141
73
142
0
VERTEX
8
OBJECT__11
10
0
20
0
30
0
70
128
71
130
72
129
73
141
0
VERTEX
8
OBJECT__11
10
0
20
0
30
0
70
128
71
142
72
143
73
130
0
VERTEX
8
OBJECT__11
10
0
20
0
30
0
70
128
71
127
72
20
73
128
0
VERTEX
8
OBJECT__11
10
0
20
0
30
0
70
128
71
121
72
139
73
118
0
VERTEX
8
OBJECT__11
10
0
20
0
30
0
70
128
71
114
72
124
73
112
0
VERTEX
8
OBJECT__11
10
0
20
0
30
0
70
128
71
107
72
117
73
110
0
VERTEX
8
OBJECT__11
10
0
20
0
30
0
70
128
71
99
72
105
73
97
0
VERTEX
8
OBJECT__11
10
0
20
0
30
0
70
128
71
85
72
97
73
12
0
VERTEX
8
OBJECT__11
10
0
20
0
30
0
70
128
71
83
72
96
73
80
0
VERTEX
8
OBJECT__11
10
0
20
0
30
0
70
128
71
64
72
144
73
4
0
VERTEX
8
OBJECT__11
10
0
20
0
30
0
70
128
71
59
72
76
73
56
0
VERTEX
8
OBJECT__11
10
0
20
0
30
0
70
128
71
53
72
62
73
52
0
VERTEX
8
OBJECT__11
10
0
20
0
30
0
70
128
71
29
72
40
73
30
0
VERTEX
8
OBJECT__11
10
0
20
0
30
0
70
128
71
27
72
28
73
24
0
VERTEX
8
OBJECT__11
10
0
20
0
30
0
70
128
71
22
72
26
73
23
0
VERTEX
8
OBJECT__11
10
0
20
0
30
0
70
128
71
18
72
21
73
19
0
VERTEX
8
OBJECT__11
10
0
20
0
30
0
70
128
71
15
72
88
73
12
0
VERTEX
8
OBJECT__11
10
0
20
0
30
0
70
128
71
10
72
14
73
11
0
VERTEX
8
OBJECT__11
10
0
20
0
30
0
70
128
71
6
72
9
73
7
0
VERTEX
8
OBJECT__11
10
0
20
0
30
0
70
128
71
3
72
8
73
1
0
SEQEND
8
OBJECT__11
0
POLYLINE
8
OBJECT__12
66
1
70
64
71
19
72
17
62
253
0
VERTEX
8
OBJECT__12
10
59.702999
20
-9.000000
30
-11.443000
70
192
0
VERTEX
8
OBJECT__12
10
66.987999
20
-9.000000
30
-4.924000
70
192
0
VERTEX
8
OBJECT__12
10
66.971001
20
-9.000000
30
-6.857000
70
192
0
VERTEX
8
OBJECT__12
10
61.039001
20
-9.000000
30
1.626000
70
192
0
VERTEX
8
OBJECT__12
10
67.012001
20
-9.000000
30
-2.256000
70
192
0
VERTEX
8
OBJECT__12
10
66.949997
20
-9.000000
30
-8.133000
70
192
0
VERTEX
8
OBJECT__12
10
66.924004
20
-9.000000
30
-9.680000
70
192
0
VERTEX
8
OBJECT__12
10
67.014999
20
-9.000000
30
0.000000
70
192
0
VERTEX
8
OBJECT__12
10
67.014999
20
-9.000000
30
-1.916000
70
192
0
VERTEX
8
OBJECT__12
10
66.995003
20
-9.000000
30
4.785000
70
192
0
VERTEX
8
OBJECT__12
10
66.998001
20
-9.000000
30
4.569000
70
192
0
VERTEX
8
OBJECT__12
10
62.047001
20
-9.000000
30
12.957000
70
192
0
VERTEX
8
OBJECT__12
10
66.949997
20
-9.000000
30
8.145000
70
192
0
VERTEX
8
OBJECT__12
10
66.850998
20
-9.000000
30
12.906000
70
192
0
VERTEX
8
OBJECT__12
10
66.942001
20
-9.000000
30
8.738000
70
192
0
VERTEX
8
OBJECT__12
10
67.014999
20
-9.000000
30
1.790000
70
192
0
VERTEX
8
OBJECT__12
10
67.012001
20
-9.000000
30
2.249000
70
192
0
VERTEX
8
OBJECT__12
10
66.850998
20
-9.000000
30
-12.906000
70
192
0
VERTEX
8
OBJECT__12
10
59.527000
20
-9.000000
30
-12.984000
70
192
0
VERTEX
8
OBJECT__12
10
0
20
0
30
0
70
128
71
1
72
2
73
3
0
VERTEX
8
OBJECT__12
10
0
20
0
30
0
70
128
71
4
72
5
73
2
0
VERTEX
8
OBJECT__12
10
0
20
0
30
0
70
128
71
1
72
6
73
7
0
VERTEX
8
OBJECT__12
10
0
20
0
30
0
70
128
71
2
72
1
73
4
0
VERTEX
8
OBJECT__12
10
0
20
0
30
0
70
128
71
4
72
8
73
9
0
VERTEX
8
OBJECT__12
10
0
20
0
30
0
70
128
71
4
72
10
73
11
0
VERTEX
8
OBJECT__12
10
0
20
0
30
0
70
128
71
4
72
12
73
13
0
VERTEX
8
OBJECT__12
10
0
20
0
30
0
70
128
71
12
72
14
73
15
0
VERTEX
8
OBJECT__12
10
0
20
0
30
0
70
128
71
3
72
6
73
1
0
VERTEX
8
OBJECT__12
10
0
20
0
30
0
70
128
71
4
72
16
73
8
0
VERTEX
8
OBJECT__12
10
0
20
0
30
0
70
128
71
11
72
17
73
4
0
VERTEX
8
OBJECT__12
10
0
20
0
30
0
70
128
71
15
72
13
73
12
0
VERTEX
8
OBJECT__12
10
0
20
0
30
0
70
128
71
9
72
5
73
4
0
VERTEX
8
OBJECT__12
10
0
20
0
30
0
70
128
71
13
72
10
73
4
0
VERTEX
8
OBJECT__12
10
0
20
0
30
0
70
128
71
18
72
19
73
1
0
VERTEX
8
OBJECT__12
10
0
20
0
30
0
70
128
71
7
72
18
73
1
0
VERTEX
8
OBJECT__12
10
0
20
0
30
0
70
128
71
17
72
16
73
4
0
SEQEND
8
OBJECT__12
0
POLYLINE
8
OBJECT__13
66
1
70
64
71
28
72
26
62
253
0
VERTEX
8
OBJECT__13
10
66.850998
20
-11.724000
30
-10.493000
70
192
0
VERTEX
8
OBJECT__13
10
66.850998
20
-10.047000
30
-11.978000
70
192
0
VERTEX
8
OBJECT__13
10
66.924004
20
-9.000000
30
-9.680000
70
192
0
VERTEX
8
OBJECT__13
10
66.949997
20
-9.000000
30
-8.133000
70
192
0
VERTEX
8
OBJECT__13
10
66.850998
20
-13.577000
30
-7.833000
70
192
0
VERTEX
8
OBJECT__13
10
66.971001
20
-9.000000
30
-6.857000
70
192
0
VERTEX
8
OBJECT__13
10
66.987999
20
-9.000000
30
-4.924000
70
192
0
VERTEX
8
OBJECT__13
10
66.850998
20
-13.907000
30
-7.359000
70
192
0
VERTEX
8
OBJECT__13
10
66.850998
20
-15.270000
30
-3.791000
70
192
0
VERTEX
8
OBJECT__13
10
66.850998
20
-15.401000
30
-2.721000
70
192
0
VERTEX
8
OBJECT__13
10
67.012001
20
-9.000000
30
-2.256000
70
192
0
VERTEX
8
OBJECT__13
10
66.850998
20
-15.734000
30
0.000000
70
192
0
VERTEX
8
OBJECT__13
10
67.014999
20
-9.000000
30
-1.916000
70
192
0
VERTEX
8
OBJECT__13
10
67.014999
20
-9.000000
30
0.000000
70
192
0
VERTEX
8
OBJECT__13
10
67.014999
20
-9.000000
30
1.790000
70
192
0
VERTEX
8
OBJECT__13
10
66.850998
20
-15.401000
30
2.721000
70
192
0
VERTEX
8
OBJECT__13
10
67.012001
20
-9.000000
30
2.249000
70
192
0
VERTEX
8
OBJECT__13
10
66.850998
20
-15.270000
30
3.791000
70
192
0
VERTEX
8
OBJECT__13
10
66.998001
20
-9.000000
30
4.569000
70
192
0
VERTEX
8
OBJECT__13
10
66.995003
20
-9.000000
30
4.785000
70
192
0
VERTEX
8
OBJECT__13
10
66.850998
20
-13.577000
30
7.833000
70
192
0
VERTEX
8
OBJECT__13
10
66.949997
20
-9.000000
30
8.145000
70
192
0
VERTEX
8
OBJECT__13
10
66.850998
20
-11.724000
30
10.493000
70
192
0
VERTEX
8
OBJECT__13
10
66.942001
20
-9.000000
30
8.738000
70
192
0
VERTEX
8
OBJECT__13
10
66.850998
20
-9.000000
30
12.906000
70
192
0
VERTEX
8
OBJECT__13
10
66.850998
20
-10.047000
30
11.978000
70
192
0
VERTEX
8
OBJECT__13
10
66.850998
20
-13.907000
30
7.359000
70
192
0
VERTEX
8
OBJECT__13
10
66.850998
20
-9.000000
30
-12.906000
70
192
0
VERTEX
8
OBJECT__13
10
0
20
0
30
0
70
128
71
1
72
2
73
3
0
VERTEX
8
OBJECT__13
10
0
20
0
30
0
70
128
71
3
72
4
73
1
0
VERTEX
8
OBJECT__13
10
0
20
0
30
0
70
128
71
5
72
1
73
4
0
VERTEX
8
OBJECT__13
10
0
20
0
30
0
70
128
71
4
72
6
73
5
0
VERTEX
8
OBJECT__13
10
0
20
0
30
0
70
128
71
7
72
8
73
5
0
VERTEX
8
OBJECT__13
10
0
20
0
30
0
70
128
71
9
72
8
73
7
0
VERTEX
8
OBJECT__13
10
0
20
0
30
0
70
128
71
10
72
9
73
11
0
VERTEX
8
OBJECT__13
10
0
20
0
30
0
70
128
71
12
72
10
73
13
0
VERTEX
8
OBJECT__13
10
0
20
0
30
0
70
128
71
13
72
14
73
12
0
VERTEX
8
OBJECT__13
10
0
20
0
30
0
70
128
71
12
72
14
73
15
0
VERTEX
8
OBJECT__13
10
0
20
0
30
0
70
128
71
16
72
15
73
17
0
VERTEX
8
OBJECT__13
10
0
20
0
30
0
70
128
71
17
72
18
73
16
0
VERTEX
8
OBJECT__13
10
0
20
0
30
0
70
128
71
18
72
19
73
20
0
VERTEX
8
OBJECT__13
10
0
20
0
30
0
70
128
71
18
72
17
73
19
0
VERTEX
8
OBJECT__13
10
0
20
0
30
0
70
128
71
21
72
20
73
22
0
VERTEX
8
OBJECT__13
10
0
20
0
30
0
70
128
71
22
72
23
73
21
0
VERTEX
8
OBJECT__13
10
0
20
0
30
0
70
128
71
23
72
22
73
24
0
VERTEX
8
OBJECT__13
10
0
20
0
30
0
70
128
71
24
72
25
73
26
0
VERTEX
8
OBJECT__13
10
0
20
0
30
0
70
128
71
24
72
26
73
23
0
VERTEX
8
OBJECT__13
10
0
20
0
30
0
70
128
71
21
72
27
73
20
0
VERTEX
8
OBJECT__13
10
0
20
0
30
0
70
128
71
20
72
27
73
18
0
VERTEX
8
OBJECT__13
10
0
20
0
30
0
70
128
71
15
72
16
73
12
0
VERTEX
8
OBJECT__13
10
0
20
0
30
0
70
128
71
11
72
13
73
10
0
VERTEX
8
OBJECT__13
10
0
20
0
30
0
70
128
71
7
72
11
73
9
0
VERTEX
8
OBJECT__13
10
0
20
0
30
0
70
128
71
6
72
7
73
5
0
VERTEX
8
OBJECT__13
10
0
20
0
30
0
70
128
71
2
72
28
73
3
0
SEQEND
8
OBJECT__13
0
POLYLINE
8
OBJECT__14
66
1
70
64
71
28
72
26
62
253
0
VERTEX
8
OBJECT__14
10
67.245003
20
11.956000
30
-10.530000
70
192
0
VERTEX
8
OBJECT__14
10
67.245003
20
10.178000
30
-12.135000
70
192
0
VERTEX
8
OBJECT__14
10
67.319000
20
9.250000
30
-9.730000
70
192
0
VERTEX
8
OBJECT__14
10
67.344002
20
9.250000
30
-8.224000
70
192
0
VERTEX
8
OBJECT__14
10
67.245003
20
13.743000
30
-7.928000
70
192
0
VERTEX
8
OBJECT__14
10
67.365997
20
9.250000
30
-6.892000
70
192
0
VERTEX
8
OBJECT__14
10
67.383003
20
9.250000
30
-4.988000
70
192
0
VERTEX
8
OBJECT__14
10
67.245003
20
14.122000
30
-7.377000
70
192
0
VERTEX
8
OBJECT__14
10
67.245003
20
15.473000
30
-3.798000
70
192
0
VERTEX
8
OBJECT__14
10
67.245003
20
15.599000
30
-2.756000
70
192
0
VERTEX
8
OBJECT__14
10
67.406998
20
9.250000
30
-2.293000
70
192
0
VERTEX
8
OBJECT__14
10
67.245003
20
15.932000
30
0.000000
70
192
0
VERTEX
8
OBJECT__14
10
67.410004
20
9.250000
30
-1.926000
70
192
0
VERTEX
8
OBJECT__14
10
67.411003
20
9.250000
30
0.000000
70
192
0
VERTEX
8
OBJECT__14
10
67.411003
20
9.250000
30
1.799000
70
192
0
VERTEX
8
OBJECT__14
10
67.245003
20
15.599000
30
2.756000
70
192
0
VERTEX
8
OBJECT__14
10
67.407997
20
9.250000
30
2.285000
70
192
0
VERTEX
8
OBJECT__14
10
67.245003
20
15.473000
30
3.798000
70
192
0
VERTEX
8
OBJECT__14
10
67.392998
20
9.250000
30
4.593000
70
192
0
VERTEX
8
OBJECT__14
10
67.389000
20
9.250000
30
4.859000
70
192
0
VERTEX
8
OBJECT__14
10
67.245003
20
13.743000
30
7.928000
70
192
0
VERTEX
8
OBJECT__14
10
67.344002
20
9.250000
30
8.230000
70
192
0
VERTEX
8
OBJECT__14
10
67.245003
20
11.956000
30
10.530000
70
192
0
VERTEX
8
OBJECT__14
10
67.336998
20
9.250000
30
8.783000
70
192
0
VERTEX
8
OBJECT__14
10
67.245003
20
9.250000
30
12.972000
70
192
0
VERTEX
8
OBJECT__14
10
67.245003
20
10.178000
30
12.135000
70
192
0
VERTEX
8
OBJECT__14
10
67.245003
20
14.122000
30
7.377000
70
192
0
VERTEX
8
OBJECT__14
10
67.245003
20
9.250000
30
-12.972000
70
192
0
VERTEX
8
OBJECT__14
10
0
20
0
30
0
70
128
71
1
72
2
73
3
0
VERTEX
8
OBJECT__14
10
0
20
0
30
0
70
128
71
3
72
4
73
1
0
VERTEX
8
OBJECT__14
10
0
20
0
30
0
70
128
71
5
72
1
73
4
0
VERTEX
8
OBJECT__14
10
0
20
0
30
0
70
128
71
4
72
6
73
5
0
VERTEX
8
OBJECT__14
10
0
20
0
30
0
70
128
71
7
72
8
73
5
0
VERTEX
8
OBJECT__14
10
0
20
0
30
0
70
128
71
9
72
8
73
7
0
VERTEX
8
OBJECT__14
10
0
20
0
30
0
70
128
71
10
72
9
73
11
0
VERTEX
8
OBJECT__14
10
0
20
0
30
0
70
128
71
12
72
10
73
13
0
VERTEX
8
OBJECT__14
10
0
20
0
30
0
70
128
71
13
72
14
73
12
0
VERTEX
8
OBJECT__14
10
0
20
0
30
0
70
128
71
12
72
14
73
15
0
VERTEX
8
OBJECT__14
10
0
20
0
30
0
70
128
71
16
72
15
73
17
0
VERTEX
8
OBJECT__14
10
0
20
0
30
0
70
128
71
17
72
18
73
16
0
VERTEX
8
OBJECT__14
10
0
20
0
30
0
70
128
71
18
72
19
73
20
0
VERTEX
8
OBJECT__14
10
0
20
0
30
0
70
128
71
18
72
17
73
19
0
VERTEX
8
OBJECT__14
10
0
20
0
30
0
70
128
71
21
72
20
73
22
0
VERTEX
8
OBJECT__14
10
0
20
0
30
0
70
128
71
22
72
23
73
21
0
VERTEX
8
OBJECT__14
10
0
20
0
30
0
70
128
71
23
72
22
73
24
0
VERTEX
8
OBJECT__14
10
0
20
0
30
0
70
128
71
24
72
25
73
26
0
VERTEX
8
OBJECT__14
10
0
20
0
30
0
70
128
71
24
72
26
73
23
0
VERTEX
8
OBJECT__14
10
0
20
0
30
0
70
128
71
21
72
27
73
20
0
VERTEX
8
OBJECT__14
10
0
20
0
30
0
70
128
71
20
72
27
73
18
0
VERTEX
8
OBJECT__14
10
0
20
0
30
0
70
128
71
15
72
16
73
12
0
VERTEX
8
OBJECT__14
10
0
20
0
30
0
70
128
71
11
72
13
73
10
0
VERTEX
8
OBJECT__14
10
0
20
0
30
0
70
128
71
7
72
11
73
9
0
VERTEX
8
OBJECT__14
10
0
20
0
30
0
70
128
71
6
72
7
73
5
0
VERTEX
8
OBJECT__14
10
0
20
0
30
0
70
128
71
2
72
28
73
3
0
SEQEND
8
OBJECT__14
0
POLYLINE
8
OBJECT__15
66
1
70
64
71
149
72
149
62
253
0
VERTEX
8
OBJECT__15
10
11.800000
20
-14.217000
30
-8.208000
70
192
0
VERTEX
8
OBJECT__15
10
11.800000
20
-16.167000
30
-2.851000
70
192
0
VERTEX
8
OBJECT__15
10
67.245003
20
-15.473000
30
-3.798000
70
192
0
VERTEX
8
OBJECT__15
10
67.245003
20
-15.599000
30
-2.756000
70
192
0
VERTEX
8
OBJECT__15
10
67.245003
20
-14.122000
30
-7.377000
70
192
0
VERTEX
8
OBJECT__15
10
11.800000
20
-16.167000
30
2.851000
70
192
0
VERTEX
8
OBJECT__15
10
67.245003
20
-15.932000
30
0.000000
70
192
0
VERTEX
8
OBJECT__15
10
67.245003
20
-15.599000
30
2.756000
70
192
0
VERTEX
8
OBJECT__15
10
11.800000
20
-14.217000
30
8.208000
70
192
0
VERTEX
8
OBJECT__15
10
67.245003
20
-14.122000
30
7.377000
70
192
0
VERTEX
8
OBJECT__15
10
67.245003
20
-15.473000
30
3.798000
70
192
0
VERTEX
8
OBJECT__15
10
67.245003
20
-13.743000
30
7.928000
70
192
0
VERTEX
8
OBJECT__15
10
11.800000
20
14.217000
30
8.208000
70
192
0
VERTEX
8
OBJECT__15
10
11.800000
20
16.167000
30
2.851000
70
192
0
VERTEX
8
OBJECT__15
10
67.245003
20
15.473000
30
3.798000
70
192
0
VERTEX
8
OBJECT__15
10
67.245003
20
15.599000
30
2.756000
70
192
0
VERTEX
8
OBJECT__15
10
67.245003
20
14.122000
30
7.377000
70
192
0
VERTEX
8
OBJECT__15
10
11.800000
20
16.167000
30
-2.851000
70
192
0
VERTEX
8
OBJECT__15
10
67.245003
20
15.932000
30
0.000000
70
192
0
VERTEX
8
OBJECT__15
10
67.245003
20
15.599000
30
-2.756000
70
192
0
VERTEX
8
OBJECT__15
10
11.800000
20
14.217000
30
-8.208000
70
192
0
VERTEX
8
OBJECT__15
10
67.245003
20
14.122000
30
-7.377000
70
192
0
VERTEX
8
OBJECT__15
10
67.245003
20
15.473000
30
-3.798000
70
192
0
VERTEX
8
OBJECT__15
10
67.245003
20
13.743000
30
-7.928000
70
192
0
VERTEX
8
OBJECT__15
10
67.245003
20
10.178000
30
12.135000
70
192
0
VERTEX
8
OBJECT__15
10
67.245003
20
9.250000
30
12.972000
70
192
0
VERTEX
8
OBJECT__15
10
63.611000
20
9.250000
30
13.011000
70
192
0
VERTEX
8
OBJECT__15
10
48.308998
20
10.427000
30
12.265000
70
192
0
VERTEX
8
OBJECT__15
10
48.205002
20
10.345000
30
12.329000
70
192
0
VERTEX
8
OBJECT__15
10
49.830002
20
11.286000
30
11.460000
70
192
0
VERTEX
8
OBJECT__15
10
48.992001
20
10.812000
30
11.904000
70
192
0
VERTEX
8
OBJECT__15
10
51.821999
20
12.034000
30
10.646000
70
192
0
VERTEX
8
OBJECT__15
10
51.431999
20
11.917000
30
10.781000
70
192
0
VERTEX
8
OBJECT__15
10
53.333000
20
12.359000
30
10.246000
70
192
0
VERTEX
8
OBJECT__15
10
54.604000
20
12.486000
30
10.074000
70
192
0
VERTEX
8
OBJECT__15
10
53.936001
20
12.419000
30
10.164000
70
192
0
VERTEX
8
OBJECT__15
10
67.245003
20
13.743000
30
7.928000
70
192
0
VERTEX
8
OBJECT__15
10
56.146000
20
12.464000
30
10.078000
70
192
0
VERTEX
8
OBJECT__15
10
59.115002
20
11.872000
30
10.731000
70
192
0
VERTEX
8
OBJECT__15
10
59.112000
20
11.873000
30
10.730000
70
192
0
VERTEX
8
OBJECT__15
10
67.245003
20
11.956000
30
10.530000
70
192
0
VERTEX
8
OBJECT__15
10
62.327000
20
10.268000
30
12.237000
70
192
0
VERTEX
8
OBJECT__15
10
62.293999
20
10.295000
30
12.217000
70
192
0
VERTEX
8
OBJECT__15
10
60.647999
20
11.252000
30
11.361000
70
192
0
VERTEX
8
OBJECT__15
10
57.480999
20
12.291000
30
10.271000
70
192
0
VERTEX
8
OBJECT__15
10
11.800000
20
10.552000
30
12.576000
70
192
0
VERTEX
8
OBJECT__15
10
44.562000
20
6.558000
30
14.737000
70
192
0
VERTEX
8
OBJECT__15
10
44.018002
20
5.511000
30
15.142000
70
192
0
VERTEX
8
OBJECT__15
10
45.451000
20
7.819000
30
14.100000
70
192
0
VERTEX
8
OBJECT__15
10
45.118999
20
7.347000
30
14.338000
70
192
0
VERTEX
8
OBJECT__15
10
46.758999
20
9.216000
30
13.215000
70
192
0
VERTEX
8
OBJECT__15
10
11.800000
20
5.615000
30
15.426000
70
192
0
VERTEX
8
OBJECT__15
10
42.835999
20
1.813000
30
16.042999
70
192
0
VERTEX
8
OBJECT__15
10
42.706001
20
0.000000
30
16.145000
70
192
0
VERTEX
8
OBJECT__15
10
43.209000
20
3.517000
30
15.754000
70
192
0
VERTEX
8
OBJECT__15
10
43.007000
20
2.598000
30
15.910000
70
192
0
VERTEX
8
OBJECT__15
10
43.723000
20
4.944000
30
15.362000
70
192
0
VERTEX
8
OBJECT__15
10
11.800000
20
-5.615000
30
15.426000
70
192
0
VERTEX
8
OBJECT__15
10
43.195000
20
-3.472000
30
15.764000
70
192
0
VERTEX
8
OBJECT__15
10
43.783001
20
-5.081000
30
15.316000
70
192
0
VERTEX
8
OBJECT__15
10
42.826000
20
-1.746000
30
16.051001
70
192
0
VERTEX
8
OBJECT__15
10
43.007999
20
-2.598000
30
15.910000
70
192
0
VERTEX
8
OBJECT__15
10
42.703999
20
-0.029000
30
16.146999
70
192
0
VERTEX
8
OBJECT__15
10
11.800000
20
0.000000
30
16.416000
70
192
0
VERTEX
8
OBJECT__15
10
44.000000
20
-5.516000
30
15.154000
70
192
0
VERTEX
8
OBJECT__15
10
11.800000
20
-10.552000
30
12.576000
70
192
0
VERTEX
8
OBJECT__15
10
45.254002
20
-7.567000
30
14.238000
70
192
0
VERTEX
8
OBJECT__15
10
46.437000
20
-8.910000
30
13.426000
70
192
0
VERTEX
8
OBJECT__15
10
46.926998
20
-9.367000
30
13.106000
70
192
0
VERTEX
8
OBJECT__15
10
44.279999
20
-6.077000
30
14.944000
70
192
0
VERTEX
8
OBJECT__15
10
45.112999
20
-7.352000
30
14.341000
70
192
0
VERTEX
8
OBJECT__15
10
67.245003
20
-11.956000
30
10.530000
70
192
0
VERTEX
8
OBJECT__15
10
61.466999
20
-10.817000
30
11.766000
70
192
0
VERTEX
8
OBJECT__15
10
62.287998
20
-10.261000
30
12.228000
70
192
0
VERTEX
8
OBJECT__15
10
67.245003
20
-10.178000
30
12.135000
70
192
0
VERTEX
8
OBJECT__15
10
58.952000
20
-11.925000
30
10.675000
70
192
0
VERTEX
8
OBJECT__15
10
59.110001
20
-11.868000
30
10.734000
70
192
0
VERTEX
8
OBJECT__15
10
59.903000
20
-11.583000
30
11.033000
70
192
0
VERTEX
8
OBJECT__15
10
57.444000
20
-12.298000
30
10.264000
70
192
0
VERTEX
8
OBJECT__15
10
56.179001
20
-12.462000
30
10.081000
70
192
0
VERTEX
8
OBJECT__15
10
54.638000
20
-12.487000
30
10.071000
70
192
0
VERTEX
8
OBJECT__15
10
53.285000
20
-12.352000
30
10.255000
70
192
0
VERTEX
8
OBJECT__15
10
53.936001
20
-12.417000
30
10.167000
70
192
0
VERTEX
8
OBJECT__15
10
48.458000
20
-10.523000
30
12.180000
70
192
0
VERTEX
8
OBJECT__15
10
48.992001
20
-10.811000
30
11.905000
70
192
0
VERTEX
8
OBJECT__15
10
48.217999
20
-10.342000
30
12.325000
70
192
0
VERTEX
8
OBJECT__15
10
50.138000
20
-11.428000
30
11.315000
70
192
0
VERTEX
8
OBJECT__15
10
51.653000
20
-11.985000
30
10.703000
70
192
0
VERTEX
8
OBJECT__15
10
62.938999
20
-9.819000
30
12.595000
70
192
0
VERTEX
8
OBJECT__15
10
63.611000
20
-9.250000
30
13.011000
70
192
0
VERTEX
8
OBJECT__15
10
67.245003
20
-10.178000
30
-12.135000
70
192
0
VERTEX
8
OBJECT__15
10
67.245003
20
-9.250000
30
-12.972000
70
192
0
VERTEX
8
OBJECT__15
10
60.380001
20
-9.250000
30
-13.046000
70
192
0
VERTEX
8
OBJECT__15
10
59.737999
20
-9.581000
30
-12.811000
70
192
0
VERTEX
8
OBJECT__15
10
58.185001
20
-10.172000
30
-12.365000
70
192
0
VERTEX
8
OBJECT__15
10
54.259998
20
-10.558000
30
-12.083000
70
192
0
VERTEX
8
OBJECT__15
10
52.814999
20
-10.322000
30
-12.301000
70
192
0
VERTEX
8
OBJECT__15
10
67.245003
20
-13.743000
30
-7.928000
70
192
0
VERTEX
8
OBJECT__15
10
55.473999
20
-10.597000
30
-12.035000
70
192
0
VERTEX
8
OBJECT__15
10
57.027000
20
-10.442000
30
-12.151000
70
192
0
VERTEX
8
OBJECT__15
10
56.195999
20
-10.525000
30
-12.089000
70
192
0
VERTEX
8
OBJECT__15
10
67.245003
20
-11.956000
30
-10.530000
70
192
0
VERTEX
8
OBJECT__15
10
57.660000
20
-10.294000
30
-12.268000
70
192
0
VERTEX
8
OBJECT__15
10
11.800000
20
-5.615000
30
-15.426000
70
192
0
VERTEX
8
OBJECT__15
10
47.132999
20
-6.872000
30
-14.569000
70
192
0
VERTEX
8
OBJECT__15
10
46.345001
20
-5.821000
30
-15.027000
70
192
0
VERTEX
8
OBJECT__15
10
48.390999
20
-8.120000
30
-13.899000
70
192
0
VERTEX
8
OBJECT__15
10
48.088001
20
-7.820000
30
-14.060000
70
192
0
VERTEX
8
OBJECT__15
10
49.752998
20
-9.091000
30
-13.269000
70
192
0
VERTEX
8
OBJECT__15
10
51.210999
20
-9.820000
30
-12.724000
70
192
0
VERTEX
8
OBJECT__15
10
52.741001
20
-10.310000
30
-12.312000
70
192
0
VERTEX
8
OBJECT__15
10
51.855999
20
-10.026000
30
-12.550000
70
192
0
VERTEX
8
OBJECT__15
10
11.800000
20
-10.552000
30
-12.576000
70
192
0
VERTEX
8
OBJECT__15
10
46.174000
20
-5.508000
30
-15.132000
70
192
0
VERTEX
8
OBJECT__15
10
11.800000
20
0.000000
30
-16.416000
70
192
0
VERTEX
8
OBJECT__15
10
44.709999
20
-1.499000
30
-16.059000
70
192
0
VERTEX
8
OBJECT__15
10
45.522999
20
-4.318000
30
-15.533000
70
192
0
VERTEX
8
OBJECT__15
10
45.509998
20
-4.285000
30
-15.541000
70
192
0
VERTEX
8
OBJECT__15
10
45.069000
20
-3.107000
30
-15.824000
70
192
0
VERTEX
8
OBJECT__15
10
11.800000
20
5.615000
30
-15.426000
70
192
0
VERTEX
8
OBJECT__15
10
45.305000
20
3.793000
30
-15.671000
70
192
0
VERTEX
8
OBJECT__15
10
45.533001
20
4.274000
30
-15.528000
70
192
0
VERTEX
8
OBJECT__15
10
44.757000
20
1.797000
30
-16.028000
70
192
0
VERTEX
8
OBJECT__15
10
44.841000
20
2.231000
30
-15.973000
70
192
0
VERTEX
8
OBJECT__15
10
44.605000
20
0.176000
30
-16.129000
70
192
0
VERTEX
8
OBJECT__15
10
46.005001
20
5.267000
30
-15.233000
70
192
0
VERTEX
8
OBJECT__15
10
44.616001
20
0.000000
30
-16.122000
70
192
0
VERTEX
8
OBJECT__15
10
11.800000
20
10.552000
30
-12.576000
70
192
0
VERTEX
8
OBJECT__15
10
51.097000
20
9.772000
30
-12.761000
70
192
0
VERTEX
8
OBJECT__15
10
51.856998
20
10.023000
30
-12.552000
70
192
0
VERTEX
8
OBJECT__15
10
52.681999
20
10.296000
30
-12.325000
70
192
0
VERTEX
8
OBJECT__15
10
47.042000
20
6.764000
30
-14.620000
70
192
0
VERTEX
8
OBJECT__15
10
48.081001
20
7.827000
30
-14.060000
70
192
0
VERTEX
8
OBJECT__15
10
46.172001
20
5.508000
30
-15.134000
70
192
0
VERTEX
8
OBJECT__15
10
48.248001
20
7.999000
30
-13.970000
70
192
0
VERTEX
8
OBJECT__15
10
49.669998
20
9.041000
30
-13.305000
70
192
0
VERTEX
8
OBJECT__15
10
67.245003
20
11.956000
30
-10.530000
70
192
0
VERTEX
8
OBJECT__15
10
56.668999
20
10.498000
30
-12.107000
70
192
0
VERTEX
8
OBJECT__15
10
57.618000
20
10.294000
30
-12.268000
70
192
0
VERTEX
8
OBJECT__15
10
67.245003
20
10.178000
30
-12.135000
70
192
0
VERTEX
8
OBJECT__15
10
55.443001
20
10.597000
30
-12.035000
70
192
0
VERTEX
8
OBJECT__15
10
56.196999
20
10.536000
30
-12.079000
70
192
0
VERTEX
8
OBJECT__15
10
53.889999
20
10.518000
30
-12.122000
70
192
0
VERTEX
8
OBJECT__15
10
52.824001
20
10.322000
30
-12.301000
70
192
0
VERTEX
8
OBJECT__15
10
58.893002
20
9.937000
30
-12.547000
70
192
0
VERTEX
8
OBJECT__15
10
60.380001
20
9.250000
30
-13.046000
70
192
0
VERTEX
8
OBJECT__15
10
58.179001
20
10.174000
30
-12.364000
70
192
0
VERTEX
8
OBJECT__15
10
67.245003
20
9.250000
30
-12.972000
70
192
0
VERTEX
8
OBJECT__15
10
67.245003
20
-9.250000
30
12.972000
70
192
0
VERTEX
8
OBJECT__15
10
0
20
0
30
0
70
128
71
1
72
2
73
3
0
VERTEX
8
OBJECT__15
10
0
20
0
30
0
70
128
71
2
72
4
73
3
0
VERTEX
8
OBJECT__15
10
0
20
0
30
0
70
128
71
3
72
5
73
1
0
VERTEX
8
OBJECT__15
10
0
20
0
30
0
70
128
71
2
72
6
73
7
0
VERTEX
8
OBJECT__15
10
0
20
0
30
0
70
128
71
6
72
8
73
7
0
VERTEX
8
OBJECT__15
10
0
20
0
30
0
70
128
71
9
72
10
73
11
0
VERTEX
8
OBJECT__15
10
0
20
0
30
0
70
128
71
11
72
6
73
9
0
VERTEX
8
OBJECT__15
10
0
20
0
30
0
70
128
71
9
72
12
73
10
0
VERTEX
8
OBJECT__15
10
0
20
0
30
0
70
128
71
13
72
14
73
15
0
VERTEX
8
OBJECT__15
10
0
20
0
30
0
70
128
71
14
72
16
73
15
0
VERTEX
8
OBJECT__15
10
0
20
0
30
0
70
128
71
15
72
17
73
13
0
VERTEX
8
OBJECT__15
10
0
20
0
30
0
70
128
71
14
72
18
73
19
0
VERTEX
8
OBJECT__15
10
0
20
0
30
0
70
128
71
18
72
20
73
19
0
VERTEX
8
OBJECT__15
10
0
20
0
30
0
70
128
71
21
72
22
73
23
0
VERTEX
8
OBJECT__15
10
0
20
0
30
0
70
128
71
23
72
18
73
21
0
VERTEX
8
OBJECT__15
10
0
20
0
30
0
70
128
71
21
72
24
73
22
0
VERTEX
8
OBJECT__15
10
0
20
0
30
0
70
128
71
25
72
26
73
27
0
VERTEX
8
OBJECT__15
10
0
20
0
30
0
70
128
71
13
72
28
73
29
0
VERTEX
8
OBJECT__15
10
0
20
0
30
0
70
128
71
13
72
30
73
31
0
VERTEX
8
OBJECT__15
10
0
20
0
30
0
70
128
71
31
72
28
73
13
0
VERTEX
8
OBJECT__15
10
0
20
0
30
0
70
128
71
13
72
32
73
33
0
VERTEX
8
OBJECT__15
10
0
20
0
30
0
70
128
71
13
72
34
73
32
0
VERTEX
8
OBJECT__15
10
0
20
0
30
0
70
128
71
33
72
30
73
13
0
VERTEX
8
OBJECT__15
10
0
20
0
30
0
70
128
71
13
72
35
73
36
0
VERTEX
8
OBJECT__15
10
0
20
0
30
0
70
128
71
36
72
34
73
13
0
VERTEX
8
OBJECT__15
10
0
20
0
30
0
70
128
71
37
72
38
73
35
0
VERTEX
8
OBJECT__15
10
0
20
0
30
0
70
128
71
35
72
13
73
37
0
VERTEX
8
OBJECT__15
10
0
20
0
30
0
70
128
71
37
72
39
73
40
0
VERTEX
8
OBJECT__15
10
0
20
0
30
0
70
128
71
41
72
25
73
42
0
VERTEX
8
OBJECT__15
10
0
20
0
30
0
70
128
71
43
72
37
73
41
0
VERTEX
8
OBJECT__15
10
0
20
0
30
0
70
128
71
42
72
43
73
41
0
VERTEX
8
OBJECT__15
10
0
20
0
30
0
70
128
71
43
72
44
73
37
0
VERTEX
8
OBJECT__15
10
0
20
0
30
0
70
128
71
44
72
39
73
37
0
VERTEX
8
OBJECT__15
10
0
20
0
30
0
70
128
71
40
72
45
73
37
0
VERTEX
8
OBJECT__15
10
0
20
0
30
0
70
128
71
45
72
38
73
37
0
VERTEX
8
OBJECT__15
10
0
20
0
30
0
70
128
71
46
72
47
73
48
0
VERTEX
8
OBJECT__15
10
0
20
0
30
0
70
128
71
46
72
49
73
50
0
VERTEX
8
OBJECT__15
10
0
20
0
30
0
70
128
71
50
72
47
73
46
0
VERTEX
8
OBJECT__15
10
0
20
0
30
0
70
128
71
46
72
51
73
49
0
VERTEX
8
OBJECT__15
10
0
20
0
30
0
70
128
71
46
72
29
73
51
0
VERTEX
8
OBJECT__15
10
0
20
0
30
0
70
128
71
52
72
53
73
54
0
VERTEX
8
OBJECT__15
10
0
20
0
30
0
70
128
71
52
72
55
73
56
0
VERTEX
8
OBJECT__15
10
0
20
0
30
0
70
128
71
52
72
48
73
57
0
VERTEX
8
OBJECT__15
10
0
20
0
30
0
70
128
71
57
72
55
73
52
0
VERTEX
8
OBJECT__15
10
0
20
0
30
0
70
128
71
56
72
53
73
52
0
VERTEX
8
OBJECT__15
10
0
20
0
30
0
70
128
71
58
72
59
73
60
0
VERTEX
8
OBJECT__15
10
0
20
0
30
0
70
128
71
58
72
61
73
62
0
VERTEX
8
OBJECT__15
10
0
20
0
30
0
70
128
71
62
72
59
73
58
0
VERTEX
8
OBJECT__15
10
0
20
0
30
0
70
128
71
58
72
63
73
61
0
VERTEX
8
OBJECT__15
10
0
20
0
30
0
70
128
71
64
72
54
73
63
0
VERTEX
8
OBJECT__15
10
0
20
0
30
0
70
128
71
63
72
58
73
64
0
VERTEX
8
OBJECT__15
10
0
20
0
30
0
70
128
71
60
72
65
73
58
0
VERTEX
8
OBJECT__15
10
0
20
0
30
0
70
128
71
66
72
67
73
68
0
VERTEX
8
OBJECT__15
10
0
20
0
30
0
70
128
71
68
72
69
73
66
0
VERTEX
8
OBJECT__15
10
0
20
0
30
0
70
128
71
66
72
70
73
71
0
VERTEX
8
OBJECT__15
10
0
20
0
30
0
70
128
71
66
72
58
73
65
0
VERTEX
8
OBJECT__15
10
0
20
0
30
0
70
128
71
65
72
70
73
66
0
VERTEX
8
OBJECT__15
10
0
20
0
30
0
70
128
71
71
72
67
73
66
0
VERTEX
8
OBJECT__15
10
0
20
0
30
0
70
128
71
72
72
73
73
74
0
VERTEX
8
OBJECT__15
10
0
20
0
30
0
70
128
71
74
72
75
73
72
0
VERTEX
8
OBJECT__15
10
0
20
0
30
0
70
128
71
12
72
76
73
77
0
VERTEX
8
OBJECT__15
10
0
20
0
30
0
70
128
71
77
72
78
73
12
0
VERTEX
8
OBJECT__15
10
0
20
0
30
0
70
128
71
78
72
73
73
12
0
VERTEX
8
OBJECT__15
10
0
20
0
30
0
70
128
71
12
72
79
73
76
0
VERTEX
8
OBJECT__15
10
0
20
0
30
0
70
128
71
12
72
80
73
79
0
VERTEX
8
OBJECT__15
10
0
20
0
30
0
70
128
71
12
72
9
73
81
0
VERTEX
8
OBJECT__15
10
0
20
0
30
0
70
128
71
81
72
80
73
12
0
VERTEX
8
OBJECT__15
10
0
20
0
30
0
70
128
71
9
72
82
73
83
0
VERTEX
8
OBJECT__15
10
0
20
0
30
0
70
128
71
9
72
84
73
85
0
VERTEX
8
OBJECT__15
10
0
20
0
30
0
70
128
71
9
72
66
73
86
0
VERTEX
8
OBJECT__15
10
0
20
0
30
0
70
128
71
86
72
84
73
9
0
VERTEX
8
OBJECT__15
10
0
20
0
30
0
70
128
71
85
72
87
73
9
0
VERTEX
8
OBJECT__15
10
0
20
0
30
0
70
128
71
87
72
88
73
9
0
VERTEX
8
OBJECT__15
10
0
20
0
30
0
70
128
71
88
72
82
73
9
0
VERTEX
8
OBJECT__15
10
0
20
0
30
0
70
128
71
83
72
81
73
9
0
VERTEX
8
OBJECT__15
10
0
20
0
30
0
70
128
71
75
72
89
73
90
0
VERTEX
8
OBJECT__15
10
0
20
0
30
0
70
128
71
75
72
74
73
89
0
VERTEX
8
OBJECT__15
10
0
20
0
30
0
70
128
71
91
72
92
73
93
0
VERTEX
8
OBJECT__15
10
0
20
0
30
0
70
128
71
93
72
94
73
91
0
VERTEX
8
OBJECT__15
10
0
20
0
30
0
70
128
71
94
72
95
73
91
0
VERTEX
8
OBJECT__15
10
0
20
0
30
0
70
128
71
1
72
96
73
97
0
VERTEX
8
OBJECT__15
10
0
20
0
30
0
70
128
71
98
72
99
73
96
0
VERTEX
8
OBJECT__15
10
0
20
0
30
0
70
128
71
96
72
1
73
98
0
VERTEX
8
OBJECT__15
10
0
20
0
30
0
70
128
71
98
72
100
73
101
0
VERTEX
8
OBJECT__15
10
0
20
0
30
0
70
128
71
102
72
91
73
103
0
VERTEX
8
OBJECT__15
10
0
20
0
30
0
70
128
71
100
72
98
73
102
0
VERTEX
8
OBJECT__15
10
0
20
0
30
0
70
128
71
103
72
100
73
102
0
VERTEX
8
OBJECT__15
10
0
20
0
30
0
70
128
71
101
72
99
73
98
0
VERTEX
8
OBJECT__15
10
0
20
0
30
0
70
128
71
104
72
105
73
106
0
VERTEX
8
OBJECT__15
10
0
20
0
30
0
70
128
71
104
72
107
73
108
0
VERTEX
8
OBJECT__15
10
0
20
0
30
0
70
128
71
108
72
105
73
104
0
VERTEX
8
OBJECT__15
10
0
20
0
30
0
70
128
71
104
72
109
73
107
0
VERTEX
8
OBJECT__15
10
0
20
0
30
0
70
128
71
104
72
110
73
109
0
VERTEX
8
OBJECT__15
10
0
20
0
30
0
70
128
71
104
72
111
73
112
0
VERTEX
8
OBJECT__15
10
0
20
0
30
0
70
128
71
112
72
110
73
104
0
VERTEX
8
OBJECT__15
10
0
20
0
30
0
70
128
71
113
72
97
73
111
0
VERTEX
8
OBJECT__15
10
0
20
0
30
0
70
128
71
111
72
104
73
113
0
VERTEX
8
OBJECT__15
10
0
20
0
30
0
70
128
71
106
72
114
73
104
0
VERTEX
8
OBJECT__15
10
0
20
0
30
0
70
128
71
115
72
104
73
116
0
VERTEX
8
OBJECT__15
10
0
20
0
30
0
70
128
71
104
72
117
73
118
0
VERTEX
8
OBJECT__15
10
0
20
0
30
0
70
128
71
104
72
114
73
117
0
VERTEX
8
OBJECT__15
10
0
20
0
30
0
70
128
71
118
72
119
73
104
0
VERTEX
8
OBJECT__15
10
0
20
0
30
0
70
128
71
119
72
116
73
104
0
VERTEX
8
OBJECT__15
10
0
20
0
30
0
70
128
71
120
72
121
73
122
0
VERTEX
8
OBJECT__15
10
0
20
0
30
0
70
128
71
120
72
123
73
124
0
VERTEX
8
OBJECT__15
10
0
20
0
30
0
70
128
71
120
72
115
73
125
0
VERTEX
8
OBJECT__15
10
0
20
0
30
0
70
128
71
125
72
123
73
120
0
VERTEX
8
OBJECT__15
10
0
20
0
30
0
70
128
71
124
72
121
73
120
0
VERTEX
8
OBJECT__15
10
0
20
0
30
0
70
128
71
122
72
126
73
120
0
VERTEX
8
OBJECT__15
10
0
20
0
30
0
70
128
71
127
72
125
73
115
0
VERTEX
8
OBJECT__15
10
0
20
0
30
0
70
128
71
128
72
129
73
130
0
VERTEX
8
OBJECT__15
10
0
20
0
30
0
70
128
71
130
72
131
73
128
0
VERTEX
8
OBJECT__15
10
0
20
0
30
0
70
128
71
128
72
132
73
133
0
VERTEX
8
OBJECT__15
10
0
20
0
30
0
70
128
71
128
72
120
73
134
0
VERTEX
8
OBJECT__15
10
0
20
0
30
0
70
128
71
134
72
132
73
128
0
VERTEX
8
OBJECT__15
10
0
20
0
30
0
70
128
71
133
72
135
73
128
0
VERTEX
8
OBJECT__15
10
0
20
0
30
0
70
128
71
135
72
136
73
128
0
VERTEX
8
OBJECT__15
10
0
20
0
30
0
70
128
71
136
72
129
73
128
0
VERTEX
8
OBJECT__15
10
0
20
0
30
0
70
128
71
137
72
138
73
139
0
VERTEX
8
OBJECT__15
10
0
20
0
30
0
70
128
71
139
72
140
73
137
0
VERTEX
8
OBJECT__15
10
0
20
0
30
0
70
128
71
24
72
141
73
142
0
VERTEX
8
OBJECT__15
10
0
20
0
30
0
70
128
71
142
72
138
73
24
0
VERTEX
8
OBJECT__15
10
0
20
0
30
0
70
128
71
24
72
21
73
143
0
VERTEX
8
OBJECT__15
10
0
20
0
30
0
70
128
71
21
72
128
73
144
0
VERTEX
8
OBJECT__15
10
0
20
0
30
0
70
128
71
144
72
143
73
21
0
VERTEX
8
OBJECT__15
10
0
20
0
30
0
70
128
71
143
72
141
73
24
0
VERTEX
8
OBJECT__15
10
0
20
0
30
0
70
128
71
140
72
145
73
146
0
VERTEX
8
OBJECT__15
10
0
20
0
30
0
70
128
71
140
72
147
73
145
0
VERTEX
8
OBJECT__15
10
0
20
0
30
0
70
128
71
140
72
139
73
147
0
VERTEX
8
OBJECT__15
10
0
20
0
30
0
70
128
71
146
72
148
73
140
0
VERTEX
8
OBJECT__15
10
0
20
0
30
0
70
128
71
137
72
24
73
138
0
VERTEX
8
OBJECT__15
10
0
20
0
30
0
70
128
71
131
72
144
73
128
0
VERTEX
8
OBJECT__15
10
0
20
0
30
0
70
128
71
126
72
134
73
120
0
VERTEX
8
OBJECT__15
10
0
20
0
30
0
70
128
71
116
72
127
73
115
0
VERTEX
8
OBJECT__15
10
0
20
0
30
0
70
128
71
97
72
113
73
1
0
VERTEX
8
OBJECT__15
10
0
20
0
30
0
70
128
71
95
72
103
73
91
0
VERTEX
8
OBJECT__15
10
0
20
0
30
0
70
128
71
90
72
149
73
75
0
VERTEX
8
OBJECT__15
10
0
20
0
30
0
70
128
71
72
72
12
73
73
0
VERTEX
8
OBJECT__15
10
0
20
0
30
0
70
128
71
69
72
86
73
66
0
VERTEX
8
OBJECT__15
10
0
20
0
30
0
70
128
71
54
72
64
73
52
0
VERTEX
8
OBJECT__15
10
0
20
0
30
0
70
128
71
48
72
52
73
46
0
VERTEX
8
OBJECT__15
10
0
20
0
30
0
70
128
71
29
72
46
73
13
0
VERTEX
8
OBJECT__15
10
0
20
0
30
0
70
128
71
27
72
42
73
25
0
VERTEX
8
OBJECT__15
10
0
20
0
30
0
70
128
71
23
72
20
73
18
0
VERTEX
8
OBJECT__15
10
0
20
0
30
0
70
128
71
19
72
16
73
14
0
VERTEX
8
OBJECT__15
10
0
20
0
30
0
70
128
71
17
72
37
73
13
0
VERTEX
8
OBJECT__15
10
0
20
0
30
0
70
128
71
11
72
8
73
6
0
VERTEX
8
OBJECT__15
10
0
20
0
30
0
70
128
71
7
72
4
73
2
0
VERTEX
8
OBJECT__15
10
0
20
0
30
0
70
128
71
5
72
98
73
1
0
SEQEND
8
OBJECT__15
0
POLYLINE
8
OBJECT__17
66
1
70
64
71
28
72
26
62
253
0
VERTEX
8
OBJECT__17
10
67.245003
20
-11.956000
30
10.530000
70
192
0
VERTEX
8
OBJECT__17
10
67.245003
20
-10.178000
30
12.135000
70
192
0
VERTEX
8
OBJECT__17
10
67.319000
20
-9.250000
30
9.730000
70
192
0
VERTEX
8
OBJECT__17
10
67.344002
20
-9.250000
30
8.224000
70
192
0
VERTEX
8
OBJECT__17
10
67.245003
20
-13.743000
30
7.928000
70
192
0
VERTEX
8
OBJECT__17
10
67.365997
20
-9.250000
30
6.892000
70
192
0
VERTEX
8
OBJECT__17
10
67.383003
20
-9.250000
30
4.988000
70
192
0
VERTEX
8
OBJECT__17
10
67.245003
20
-14.122000
30
7.377000
70
192
0
VERTEX
8
OBJECT__17
10
67.245003
20
-15.473000
30
3.798000
70
192
0
VERTEX
8
OBJECT__17
10
67.245003
20
-15.599000
30
2.756000
70
192
0
VERTEX
8
OBJECT__17
10
67.406998
20
-9.250000
30
2.293000
70
192
0
VERTEX
8
OBJECT__17
10
67.245003
20
-15.932000
30
0.000000
70
192
0
VERTEX
8
OBJECT__17
10
67.410004
20
-9.250000
30
1.926000
70
192
0
VERTEX
8
OBJECT__17
10
67.411003
20
-9.250000
30
0.000000
70
192
0
VERTEX
8
OBJECT__17
10
67.411003
20
-9.250000
30
-1.799000
70
192
0
VERTEX
8
OBJECT__17
10
67.245003
20
-15.599000
30
-2.756000
70
192
0
VERTEX
8
OBJECT__17
10
67.407997
20
-9.250000
30
-2.285000
70
192
0
VERTEX
8
OBJECT__17
10
67.245003
20
-15.473000
30
-3.798000
70
192
0
VERTEX
8
OBJECT__17
10
67.392998
20
-9.250000
30
-4.593000
70
192
0
VERTEX
8
OBJECT__17
10
67.389000
20
-9.250000
30
-4.859000
70
192
0
VERTEX
8
OBJECT__17
10
67.245003
20
-13.743000
30
-7.928000
70
192
0
VERTEX
8
OBJECT__17
10
67.344002
20
-9.250000
30
-8.230000
70
192
0
VERTEX
8
OBJECT__17
10
67.245003
20
-11.956000
30
-10.530000
70
192
0
VERTEX
8
OBJECT__17
10
67.336998
20
-9.250000
30
-8.783000
70
192
0
VERTEX
8
OBJECT__17
10
67.245003
20
-9.250000
30
-12.972000
70
192
0
VERTEX
8
OBJECT__17
10
67.245003
20
-10.178000
30
-12.135000
70
192
0
VERTEX
8
OBJECT__17
10
67.245003
20
-14.122000
30
-7.377000
70
192
0
VERTEX
8
OBJECT__17
10
67.245003
20
-9.250000
30
12.972000
70
192
0
VERTEX
8
OBJECT__17
10
0
20
0
30
0
70
128
71
1
72
2
73
3
0
VERTEX
8
OBJECT__17
10
0
20
0
30
0
70
128
71
3
72
4
73
1
0
VERTEX
8
OBJECT__17
10
0
20
0
30
0
70
128
71
5
72
1
73
4
0
VERTEX
8
OBJECT__17
10
0
20
0
30
0
70
128
71
4
72
6
73
5
0
VERTEX
8
OBJECT__17
10
0
20
0
30
0
70
128
71
7
72
8
73
5
0
VERTEX
8
OBJECT__17
10
0
20
0
30
0
70
128
71
9
72
8
73
7
0
VERTEX
8
OBJECT__17
10
0
20
0
30
0
70
128
71
10
72
9
73
11
0
VERTEX
8
OBJECT__17
10
0
20
0
30
0
70
128
71
12
72
10
73
13
0
VERTEX
8
OBJECT__17
10
0
20
0
30
0
70
128
71
13
72
14
73
12
0
VERTEX
8
OBJECT__17
10
0
20
0
30
0
70
128
71
12
72
14
73
15
0
VERTEX
8
OBJECT__17
10
0
20
0
30
0
70
128
71
16
72
15
73
17
0
VERTEX
8
OBJECT__17
10
0
20
0
30
0
70
128
71
17
72
18
73
16
0
VERTEX
8
OBJECT__17
10
0
20
0
30
0
70
128
71
18
72
19
73
20
0
VERTEX
8
OBJECT__17
10
0
20
0
30
0
70
128
71
18
72
17
73
19
0
VERTEX
8
OBJECT__17
10
0
20
0
30
0
70
128
71
21
72
20
73
22
0
VERTEX
8
OBJECT__17
10
0
20
0
30
0
70
128
71
22
72
23
73
21
0
VERTEX
8
OBJECT__17
10
0
20
0
30
0
70
128
71
23
72
22
73
24
0
VERTEX
8
OBJECT__17
10
0
20
0
30
0
70
128
71
24
72
25
73
26
0
VERTEX
8
OBJECT__17
10
0
20
0
30
0
70
128
71
24
72
26
73
23
0
VERTEX
8
OBJECT__17
10
0
20
0
30
0
70
128
71
21
72
27
73
20
0
VERTEX
8
OBJECT__17
10
0
20
0
30
0
70
128
71
20
72
27
73
18
0
VERTEX
8
OBJECT__17
10
0
20
0
30
0
70
128
71
15
72
16
73
12
0
VERTEX
8
OBJECT__17
10
0
20
0
30
0
70
128
71
11
72
13
73
10
0
VERTEX
8
OBJECT__17
10
0
20
0
30
0
70
128
71
7
72
11
73
9
0
VERTEX
8
OBJECT__17
10
0
20
0
30
0
70
128
71
6
72
7
73
5
0
VERTEX
8
OBJECT__17
10
0
20
0
30
0
70
128
71
2
72
28
73
3
0
SEQEND
8
OBJECT__17
0
POLYLINE
8
OBJECT__18
66
1
70
64
71
88
72
86
62
253
0
VERTEX
8
OBJECT__18
10
58.799999
20
9.971000
30
-14.993000
70
192
0
VERTEX
8
OBJECT__18
10
60.299000
20
9.295000
30
-15.406000
70
192
0
VERTEX
8
OBJECT__18
10
60.380001
20
9.250000
30
-13.046000
70
192
0
VERTEX
8
OBJECT__18
10
58.893002
20
9.937000
30
-12.547000
70
192
0
VERTEX
8
OBJECT__18
10
57.286999
20
10.393000
30
-14.720000
70
192
0
VERTEX
8
OBJECT__18
10
58.179001
20
10.174000
30
-12.364000
70
192
0
VERTEX
8
OBJECT__18
10
57.618000
20
10.294000
30
-12.268000
70
192
0
VERTEX
8
OBJECT__18
10
56.668999
20
10.498000
30
-12.107000
70
192
0
VERTEX
8
OBJECT__18
10
56.195000
20
10.527000
30
-14.636000
70
192
0
VERTEX
8
OBJECT__18
10
56.196999
20
10.536000
30
-12.079000
70
192
0
VERTEX
8
OBJECT__18
10
55.443001
20
10.597000
30
-12.035000
70
192
0
VERTEX
8
OBJECT__18
10
55.693001
20
10.589000
30
-14.597000
70
192
0
VERTEX
8
OBJECT__18
10
53.994999
20
10.531000
30
-14.657000
70
192
0
VERTEX
8
OBJECT__18
10
52.383999
20
10.218000
30
-14.894000
70
192
0
VERTEX
8
OBJECT__18
10
52.681999
20
10.296000
30
-12.325000
70
192
0
VERTEX
8
OBJECT__18
10
52.824001
20
10.322000
30
-12.301000
70
192
0
VERTEX
8
OBJECT__18
10
53.889999
20
10.518000
30
-12.122000
70
192
0
VERTEX
8
OBJECT__18
10
51.856998
20
10.023000
30
-12.552000
70
192
0
VERTEX
8
OBJECT__18
10
51.853001
20
10.038000
30
-15.020000
70
192
0
VERTEX
8
OBJECT__18
10
51.097000
20
9.772000
30
-12.761000
70
192
0
VERTEX
8
OBJECT__18
10
51.214001
20
9.820000
30
-15.171000
70
192
0
VERTEX
8
OBJECT__18
10
49.669998
20
9.041000
30
-13.305000
70
192
0
VERTEX
8
OBJECT__18
10
48.248001
20
7.999000
30
-13.970000
70
192
0
VERTEX
8
OBJECT__18
10
48.599998
20
8.292000
30
-16.083000
70
192
0
VERTEX
8
OBJECT__18
10
49.664001
20
9.037000
30
-15.666000
70
192
0
VERTEX
8
OBJECT__18
10
48.081001
20
7.827000
30
-14.060000
70
192
0
VERTEX
8
OBJECT__18
10
48.075001
20
7.832000
30
-16.313999
70
192
0
VERTEX
8
OBJECT__18
10
45.771000
20
4.836000
30
-17.462999
70
192
0
VERTEX
8
OBJECT__18
10
46.419998
20
5.877000
30
-17.118999
70
192
0
VERTEX
8
OBJECT__18
10
46.005001
20
5.267000
30
-15.233000
70
192
0
VERTEX
8
OBJECT__18
10
45.533001
20
4.274000
30
-15.528000
70
192
0
VERTEX
8
OBJECT__18
10
45.535999
20
4.274000
30
-17.594000
70
192
0
VERTEX
8
OBJECT__18
10
46.707001
20
6.338000
30
-16.966999
70
192
0
VERTEX
8
OBJECT__18
10
47.849998
20
7.634000
30
-16.413000
70
192
0
VERTEX
8
OBJECT__18
10
47.042000
20
6.764000
30
-14.620000
70
192
0
VERTEX
8
OBJECT__18
10
46.172001
20
5.508000
30
-15.134000
70
192
0
VERTEX
8
OBJECT__18
10
44.616001
20
0.001000
30
-16.122000
70
192
0
VERTEX
8
OBJECT__18
10
44.620998
20
-0.001000
30
-18.120001
70
192
0
VERTEX
8
OBJECT__18
10
44.605000
20
0.176000
30
-16.129000
70
192
0
VERTEX
8
OBJECT__18
10
44.695999
20
1.395000
30
-18.075001
70
192
0
VERTEX
8
OBJECT__18
10
44.757000
20
1.797000
30
-16.028000
70
192
0
VERTEX
8
OBJECT__18
10
44.741001
20
1.703000
30
-18.049000
70
192
0
VERTEX
8
OBJECT__18
10
45.132999
20
3.308000
30
-17.820999
70
192
0
VERTEX
8
OBJECT__18
10
44.841000
20
2.231000
30
-15.973000
70
192
0
VERTEX
8
OBJECT__18
10
45.305000
20
3.793000
30
-15.671000
70
192
0
VERTEX
8
OBJECT__18
10
45.069000
20
-3.107000
30
-15.824000
70
192
0
VERTEX
8
OBJECT__18
10
45.509998
20
-4.285000
30
-15.541000
70
192
0
VERTEX
8
OBJECT__18
10
45.528000
20
-4.277000
30
-17.599001
70
192
0
VERTEX
8
OBJECT__18
10
44.773998
20
-1.894000
30
-18.028999
70
192
0
VERTEX
8
OBJECT__18
10
44.709999
20
-1.499000
30
-16.059000
70
192
0
VERTEX
8
OBJECT__18
10
45.203999
20
-3.517000
30
-17.780001
70
192
0
VERTEX
8
OBJECT__18
10
44.606998
20
-0.258000
30
-18.128000
70
192
0
VERTEX
8
OBJECT__18
10
47.132999
20
-6.872000
30
-14.569000
70
192
0
VERTEX
8
OBJECT__18
10
48.088001
20
-7.820000
30
-14.060000
70
192
0
VERTEX
8
OBJECT__18
10
48.091999
20
-7.813000
30
-16.313999
70
192
0
VERTEX
8
OBJECT__18
10
47.557999
20
-7.342000
30
-16.549000
70
192
0
VERTEX
8
OBJECT__18
10
46.641998
20
-6.250000
30
-17.000000
70
192
0
VERTEX
8
OBJECT__18
10
46.345001
20
-5.821000
30
-15.027000
70
192
0
VERTEX
8
OBJECT__18
10
46.415001
20
-5.878000
30
-17.121000
70
192
0
VERTEX
8
OBJECT__18
10
46.174000
20
-5.508000
30
-15.132000
70
192
0
VERTEX
8
OBJECT__18
10
45.522999
20
-4.318000
30
-15.533000
70
192
0
VERTEX
8
OBJECT__18
10
45.735001
20
-4.765000
30
-17.482000
70
192
0
VERTEX
8
OBJECT__18
10
48.874001
20
-8.503000
30
-15.970000
70
192
0
VERTEX
8
OBJECT__18
10
50.417000
20
-9.458000
30
-15.408000
70
192
0
VERTEX
8
OBJECT__18
10
48.390999
20
-8.120000
30
-13.899000
70
192
0
VERTEX
8
OBJECT__18
10
49.752998
20
-9.091000
30
-13.269000
70
192
0
VERTEX
8
OBJECT__18
10
51.210999
20
-9.820000
30
-12.724000
70
192
0
VERTEX
8
OBJECT__18
10
51.849998
20
-10.049000
30
-15.013000
70
192
0
VERTEX
8
OBJECT__18
10
51.855999
20
-10.026000
30
-12.550000
70
192
0
VERTEX
8
OBJECT__18
10
53.438999
20
-10.452000
30
-14.719000
70
192
0
VERTEX
8
OBJECT__18
10
51.931000
20
-10.082000
30
-14.991000
70
192
0
VERTEX
8
OBJECT__18
10
52.741001
20
-10.310000
30
-12.312000
70
192
0
VERTEX
8
OBJECT__18
10
52.814999
20
-10.322000
30
-12.301000
70
192
0
VERTEX
8
OBJECT__18
10
54.259998
20
-10.558000
30
-12.083000
70
192
0
VERTEX
8
OBJECT__18
10
55.039001
20
-10.599000
30
-14.597000
70
192
0
VERTEX
8
OBJECT__18
10
55.473999
20
-10.597000
30
-12.035000
70
192
0
VERTEX
8
OBJECT__18
10
56.196999
20
-10.525000
30
-14.638000
70
192
0
VERTEX
8
OBJECT__18
10
56.195999
20
-10.525000
30
-12.089000
70
192
0
VERTEX
8
OBJECT__18
10
57.027000
20
-10.442000
30
-12.151000
70
192
0
VERTEX
8
OBJECT__18
10
56.709999
20
-10.492000
30
-14.656000
70
192
0
VERTEX
8
OBJECT__18
10
57.660000
20
-10.294000
30
-12.268000
70
192
0
VERTEX
8
OBJECT__18
10
58.185001
20
-10.172000
30
-12.365000
70
192
0
VERTEX
8
OBJECT__18
10
59.737999
20
-9.581000
30
-12.811000
70
192
0
VERTEX
8
OBJECT__18
10
59.467999
20
-9.704000
30
-15.160000
70
192
0
VERTEX
8
OBJECT__18
10
58.313999
20
-10.133000
30
-14.889000
70
192
0
VERTEX
8
OBJECT__18
10
60.380001
20
-9.250000
30
-13.046000
70
192
0
VERTEX
8
OBJECT__18
10
60.380001
20
-9.250000
30
-15.432000
70
192
0
VERTEX
8
OBJECT__18
10
60.380001
20
9.250000
30
-15.432000
70
192
0
VERTEX
8
OBJECT__18
10
0
20
0
30
0
70
128
71
1
72
2
73
3
0
VERTEX
8
OBJECT__18
10
0
20
0
30
0
70
128
71
3
72
4
73
1
0
VERTEX
8
OBJECT__18
10
0
20
0
30
0
70
128
71
5
72
1
73
4
0
VERTEX
8
OBJECT__18
10
0
20
0
30
0
70
128
71
4
72
6
73
5
0
VERTEX
8
OBJECT__18
10
0
20
0
30
0
70
128
71
6
72
7
73
5
0
VERTEX
8
OBJECT__18
10
0
20
0
30
0
70
128
71
8
72
9
73
5
0
VERTEX
8
OBJECT__18
10
0
20
0
30
0
70
128
71
5
72
7
73
8
0
VERTEX
8
OBJECT__18
10
0
20
0
30
0
70
128
71
8
72
10
73
9
0
VERTEX
8
OBJECT__18
10
0
20
0
30
0
70
128
71
10
72
11
73
12
0
VERTEX
8
OBJECT__18
10
0
20
0
30
0
70
128
71
13
72
12
73
11
0
VERTEX
8
OBJECT__18
10
0
20
0
30
0
70
128
71
14
72
13
73
15
0
VERTEX
8
OBJECT__18
10
0
20
0
30
0
70
128
71
13
72
16
73
15
0
VERTEX
8
OBJECT__18
10
0
20
0
30
0
70
128
71
13
72
17
73
16
0
VERTEX
8
OBJECT__18
10
0
20
0
30
0
70
128
71
18
72
19
73
14
0
VERTEX
8
OBJECT__18
10
0
20
0
30
0
70
128
71
15
72
18
73
14
0
VERTEX
8
OBJECT__18
10
0
20
0
30
0
70
128
71
11
72
17
73
13
0
VERTEX
8
OBJECT__18
10
0
20
0
30
0
70
128
71
20
72
21
73
19
0
VERTEX
8
OBJECT__18
10
0
20
0
30
0
70
128
71
21
72
20
73
22
0
VERTEX
8
OBJECT__18
10
0
20
0
30
0
70
128
71
23
72
24
73
25
0
VERTEX
8
OBJECT__18
10
0
20
0
30
0
70
128
71
25
72
22
73
23
0
VERTEX
8
OBJECT__18
10
0
20
0
30
0
70
128
71
26
72
27
73
24
0
VERTEX
8
OBJECT__18
10
0
20
0
30
0
70
128
71
23
72
26
73
24
0
VERTEX
8
OBJECT__18
10
0
20
0
30
0
70
128
71
22
72
25
73
21
0
VERTEX
8
OBJECT__18
10
0
20
0
30
0
70
128
71
28
72
29
73
30
0
VERTEX
8
OBJECT__18
10
0
20
0
30
0
70
128
71
31
72
32
73
28
0
VERTEX
8
OBJECT__18
10
0
20
0
30
0
70
128
71
33
72
34
73
35
0
VERTEX
8
OBJECT__18
10
0
20
0
30
0
70
128
71
36
72
29
73
33
0
VERTEX
8
OBJECT__18
10
0
20
0
30
0
70
128
71
35
72
36
73
33
0
VERTEX
8
OBJECT__18
10
0
20
0
30
0
70
128
71
35
72
34
73
27
0
VERTEX
8
OBJECT__18
10
0
20
0
30
0
70
128
71
27
72
26
73
35
0
VERTEX
8
OBJECT__18
10
0
20
0
30
0
70
128
71
36
72
30
73
29
0
VERTEX
8
OBJECT__18
10
0
20
0
30
0
70
128
71
39
72
38
73
40
0
VERTEX
8
OBJECT__18
10
0
20
0
30
0
70
128
71
40
72
41
73
39
0
VERTEX
8
OBJECT__18
10
0
20
0
30
0
70
128
71
42
72
43
73
44
0
VERTEX
8
OBJECT__18
10
0
20
0
30
0
70
128
71
45
72
44
73
43
0
VERTEX
8
OBJECT__18
10
0
20
0
30
0
70
128
71
43
72
32
73
45
0
VERTEX
8
OBJECT__18
10
0
20
0
30
0
70
128
71
44
72
41
73
42
0
VERTEX
8
OBJECT__18
10
0
20
0
30
0
70
128
71
32
72
31
73
45
0
VERTEX
8
OBJECT__18
10
0
20
0
30
0
70
128
71
40
72
42
73
41
0
VERTEX
8
OBJECT__18
10
0
20
0
30
0
70
128
71
46
72
47
73
48
0
VERTEX
8
OBJECT__18
10
0
20
0
30
0
70
128
71
49
72
50
73
46
0
VERTEX
8
OBJECT__18
10
0
20
0
30
0
70
128
71
46
72
51
73
49
0
VERTEX
8
OBJECT__18
10
0
20
0
30
0
70
128
71
37
72
49
73
52
0
VERTEX
8
OBJECT__18
10
0
20
0
30
0
70
128
71
37
72
52
73
38
0
VERTEX
8
OBJECT__18
10
0
20
0
30
0
70
128
71
37
72
50
73
49
0
VERTEX
8
OBJECT__18
10
0
20
0
30
0
70
128
71
53
72
54
73
55
0
VERTEX
8
OBJECT__18
10
0
20
0
30
0
70
128
71
56
72
57
73
58
0
VERTEX
8
OBJECT__18
10
0
20
0
30
0
70
128
71
58
72
53
73
56
0
VERTEX
8
OBJECT__18
10
0
20
0
30
0
70
128
71
57
72
59
73
60
0
VERTEX
8
OBJECT__18
10
0
20
0
30
0
70
128
71
61
72
60
73
59
0
VERTEX
8
OBJECT__18
10
0
20
0
30
0
70
128
71
59
72
62
73
61
0
VERTEX
8
OBJECT__18
10
0
20
0
30
0
70
128
71
60
72
58
73
57
0
VERTEX
8
OBJECT__18
10
0
20
0
30
0
70
128
71
62
72
48
73
47
0
VERTEX
8
OBJECT__18
10
0
20
0
30
0
70
128
71
47
72
61
73
62
0
VERTEX
8
OBJECT__18
10
0
20
0
30
0
70
128
71
63
72
55
73
54
0
VERTEX
8
OBJECT__18
10
0
20
0
30
0
70
128
71
64
72
63
73
65
0
VERTEX
8
OBJECT__18
10
0
20
0
30
0
70
128
71
65
72
66
73
64
0
VERTEX
8
OBJECT__18
10
0
20
0
30
0
70
128
71
67
72
68
73
64
0
VERTEX
8
OBJECT__18
10
0
20
0
30
0
70
128
71
64
72
66
73
67
0
VERTEX
8
OBJECT__18
10
0
20
0
30
0
70
128
71
67
72
69
73
68
0
VERTEX
8
OBJECT__18
10
0
20
0
30
0
70
128
71
70
72
71
73
69
0
VERTEX
8
OBJECT__18
10
0
20
0
30
0
70
128
71
69
72
72
73
70
0
VERTEX
8
OBJECT__18
10
0
20
0
30
0
70
128
71
72
72
73
73
70
0
VERTEX
8
OBJECT__18
10
0
20
0
30
0
70
128
71
74
72
75
73
70
0
VERTEX
8
OBJECT__18
10
0
20
0
30
0
70
128
71
70
72
73
73
74
0
VERTEX
8
OBJECT__18
10
0
20
0
30
0
70
128
71
74
72
76
73
75
0
VERTEX
8
OBJECT__18
10
0
20
0
30
0
70
128
71
77
72
75
73
76
0
VERTEX
8
OBJECT__18
10
0
20
0
30
0
70
128
71
76
72
78
73
77
0
VERTEX
8
OBJECT__18
10
0
20
0
30
0
70
128
71
78
72
79
73
80
0
VERTEX
8
OBJECT__18
10
0
20
0
30
0
70
128
71
80
72
81
73
82
0
VERTEX
8
OBJECT__18
10
0
20
0
30
0
70
128
71
80
72
79
73
81
0
VERTEX
8
OBJECT__18
10
0
20
0
30
0
70
128
71
83
72
84
73
85
0
VERTEX
8
OBJECT__18
10
0
20
0
30
0
70
128
71
84
72
83
73
86
0
VERTEX
8
OBJECT__18
10
0
20
0
30
0
70
128
71
86
72
87
73
84
0
VERTEX
8
OBJECT__18
10
0
20
0
30
0
70
128
71
85
72
82
73
83
0
VERTEX
8
OBJECT__18
10
0
20
0
30
0
70
128
71
82
72
85
73
80
0
VERTEX
8
OBJECT__18
10
0
20
0
30
0
70
128
71
80
72
77
73
78
0
VERTEX
8
OBJECT__18
10
0
20
0
30
0
70
128
71
71
72
68
73
69
0
VERTEX
8
OBJECT__18
10
0
20
0
30
0
70
128
71
54
72
65
73
63
0
VERTEX
8
OBJECT__18
10
0
20
0
30
0
70
128
71
55
72
56
73
53
0
VERTEX
8
OBJECT__18
10
0
20
0
30
0
70
128
71
48
72
51
73
46
0
VERTEX
8
OBJECT__18
10
0
20
0
30
0
70
128
71
38
72
39
73
37
0
VERTEX
8
OBJECT__18
10
0
20
0
30
0
70
128
71
30
72
31
73
28
0
VERTEX
8
OBJECT__18
10
0
20
0
30
0
70
128
71
19
72
18
73
20
0
VERTEX
8
OBJECT__18
10
0
20
0
30
0
70
128
71
12
72
9
73
10
0
VERTEX
8
OBJECT__18
10
0
20
0
30
0
70
128
71
2
72
88
73
3
0
SEQEND
8
OBJECT__18
0
POLYLINE
8
OBJECT__19
66
1
70
64
71
107
72
105
62
253
0
VERTEX
8
OBJECT__19
10
61.952000
20
-10.522000
30
14.578000
70
192
0
VERTEX
8
OBJECT__19
10
63.611000
20
-9.250000
30
15.400000
70
192
0
VERTEX
8
OBJECT__19
10
63.611000
20
-9.250000
30
13.011000
70
192
0
VERTEX
8
OBJECT__19
10
62.938999
20
-9.819000
30
12.595000
70
192
0
VERTEX
8
OBJECT__19
10
60.403999
20
-11.367000
30
13.946000
70
192
0
VERTEX
8
OBJECT__19
10
62.287998
20
-10.261000
30
12.228000
70
192
0
VERTEX
8
OBJECT__19
10
61.466999
20
-10.817000
30
11.766000
70
192
0
VERTEX
8
OBJECT__19
10
59.903000
20
-11.583000
30
11.033000
70
192
0
VERTEX
8
OBJECT__19
10
59.105000
20
-11.854000
30
13.546000
70
192
0
VERTEX
8
OBJECT__19
10
59.110001
20
-11.868000
30
10.734000
70
192
0
VERTEX
8
OBJECT__19
10
58.470001
20
-12.066000
30
13.370000
70
192
0
VERTEX
8
OBJECT__19
10
58.765999
20
-11.981000
30
13.441000
70
192
0
VERTEX
8
OBJECT__19
10
58.952000
20
-11.925000
30
10.675000
70
192
0
VERTEX
8
OBJECT__19
10
56.861000
20
-12.390000
30
13.089000
70
192
0
VERTEX
8
OBJECT__19
10
57.444000
20
-12.298000
30
10.264000
70
192
0
VERTEX
8
OBJECT__19
10
56.179001
20
-12.462000
30
10.081000
70
192
0
VERTEX
8
OBJECT__19
10
55.360001
20
-12.499000
30
13.003000
70
192
0
VERTEX
8
OBJECT__19
10
54.638000
20
-12.487000
30
10.071000
70
192
0
VERTEX
8
OBJECT__19
10
53.936001
20
-12.417000
30
10.167000
70
192
0
VERTEX
8
OBJECT__19
10
53.935001
20
-12.422000
30
13.093000
70
192
0
VERTEX
8
OBJECT__19
10
53.285000
20
-12.352000
30
10.255000
70
192
0
VERTEX
8
OBJECT__19
10
53.702999
20
-12.410000
30
13.108000
70
192
0
VERTEX
8
OBJECT__19
10
51.653000
20
-11.985000
30
10.703000
70
192
0
VERTEX
8
OBJECT__19
10
52.236000
20
-12.143000
30
13.373000
70
192
0
VERTEX
8
OBJECT__19
10
50.138000
20
-11.428000
30
11.315000
70
192
0
VERTEX
8
OBJECT__19
10
50.521000
20
-11.590000
30
13.875000
70
192
0
VERTEX
8
OBJECT__19
10
48.992001
20
-10.811000
30
11.905000
70
192
0
VERTEX
8
OBJECT__19
10
48.986000
20
-10.820000
30
14.494000
70
192
0
VERTEX
8
OBJECT__19
10
45.810001
20
-8.247000
30
16.134001
70
192
0
VERTEX
8
OBJECT__19
10
45.254002
20
-7.567000
30
14.238000
70
192
0
VERTEX
8
OBJECT__19
10
45.112999
20
-7.352000
30
14.341000
70
192
0
VERTEX
8
OBJECT__19
10
48.458000
20
-10.523000
30
12.180000
70
192
0
VERTEX
8
OBJECT__19
10
48.217999
20
-10.342000
30
12.325000
70
192
0
VERTEX
8
OBJECT__19
10
46.437000
20
-8.910000
30
13.426000
70
192
0
VERTEX
8
OBJECT__19
10
46.187000
20
-8.616000
30
15.922000
70
192
0
VERTEX
8
OBJECT__19
10
48.720001
20
-10.687000
30
14.601000
70
192
0
VERTEX
8
OBJECT__19
10
46.926998
20
-9.367000
30
13.106000
70
192
0
VERTEX
8
OBJECT__19
10
47.154999
20
-9.564000
30
15.376000
70
192
0
VERTEX
8
OBJECT__19
10
43.088001
20
-2.983000
30
17.881001
70
192
0
VERTEX
8
OBJECT__19
10
43.453999
20
-4.265000
30
17.632000
70
192
0
VERTEX
8
OBJECT__19
10
43.195000
20
-3.472000
30
15.764000
70
192
0
VERTEX
8
OBJECT__19
10
43.007999
20
-2.598000
30
15.910000
70
192
0
VERTEX
8
OBJECT__19
10
42.979000
20
-2.604000
30
17.955999
70
192
0
VERTEX
8
OBJECT__19
10
43.855000
20
-5.240000
30
17.363001
70
192
0
VERTEX
8
OBJECT__19
10
44.721001
20
-6.809000
30
16.802000
70
192
0
VERTEX
8
OBJECT__19
10
44.000000
20
-5.516000
30
15.154000
70
192
0
VERTEX
8
OBJECT__19
10
44.279999
20
-6.077000
30
14.944000
70
192
0
VERTEX
8
OBJECT__19
10
45.125000
20
-7.342000
30
16.554001
70
192
0
VERTEX
8
OBJECT__19
10
43.783001
20
-5.081000
30
15.316000
70
192
0
VERTEX
8
OBJECT__19
10
42.835999
20
1.813000
30
16.042999
70
192
0
VERTEX
8
OBJECT__19
10
42.988998
20
2.602000
30
17.948999
70
192
0
VERTEX
8
OBJECT__19
10
42.740002
20
0.956000
30
18.121000
70
192
0
VERTEX
8
OBJECT__19
10
42.729000
20
-0.800000
30
18.129000
70
192
0
VERTEX
8
OBJECT__19
10
42.703999
20
-0.029000
30
16.146999
70
192
0
VERTEX
8
OBJECT__19
10
42.706001
20
0.000000
30
16.145000
70
192
0
VERTEX
8
OBJECT__19
10
42.973999
20
-2.586000
30
17.959000
70
192
0
VERTEX
8
OBJECT__19
10
42.826000
20
-1.746000
30
16.051001
70
192
0
VERTEX
8
OBJECT__19
10
44.201000
20
5.933000
30
17.136000
70
192
0
VERTEX
8
OBJECT__19
10
44.018002
20
5.511000
30
15.142000
70
192
0
VERTEX
8
OBJECT__19
10
44.562000
20
6.558000
30
14.737000
70
192
0
VERTEX
8
OBJECT__19
10
43.723000
20
4.944000
30
15.362000
70
192
0
VERTEX
8
OBJECT__19
10
45.111000
20
7.353000
30
16.559000
70
192
0
VERTEX
8
OBJECT__19
10
43.535000
20
4.482000
30
17.577000
70
192
0
VERTEX
8
OBJECT__19
10
43.209000
20
3.517000
30
15.754000
70
192
0
VERTEX
8
OBJECT__19
10
43.007000
20
2.598000
30
15.910000
70
192
0
VERTEX
8
OBJECT__19
10
43.080002
20
2.984000
30
17.886000
70
192
0
VERTEX
8
OBJECT__19
10
43.013000
20
2.763000
30
17.931999
70
192
0
VERTEX
8
OBJECT__19
10
48.522999
20
10.565000
30
14.691000
70
192
0
VERTEX
8
OBJECT__19
10
47.029999
20
9.457000
30
15.443000
70
192
0
VERTEX
8
OBJECT__19
10
46.758999
20
9.216000
30
13.215000
70
192
0
VERTEX
8
OBJECT__19
10
46.358002
20
8.832000
30
15.816000
70
192
0
VERTEX
8
OBJECT__19
10
45.451000
20
7.819000
30
14.100000
70
192
0
VERTEX
8
OBJECT__19
10
46.173000
20
8.619000
30
15.925000
70
192
0
VERTEX
8
OBJECT__19
10
48.990002
20
10.814000
30
14.495000
70
192
0
VERTEX
8
OBJECT__19
10
48.205002
20
10.345000
30
12.329000
70
192
0
VERTEX
8
OBJECT__19
10
48.308998
20
10.427000
30
12.265000
70
192
0
VERTEX
8
OBJECT__19
10
48.992001
20
10.812000
30
11.904000
70
192
0
VERTEX
8
OBJECT__19
10
45.214001
20
7.514000
30
16.493999
70
192
0
VERTEX
8
OBJECT__19
10
45.118999
20
7.347000
30
14.338000
70
192
0
VERTEX
8
OBJECT__19
10
49.830002
20
11.286000
30
11.460000
70
192
0
VERTEX
8
OBJECT__19
10
50.492001
20
11.578000
30
13.885000
70
192
0
VERTEX
8
OBJECT__19
10
50.146000
20
11.431000
30
14.010000
70
192
0
VERTEX
8
OBJECT__19
10
52.084999
20
12.105000
30
13.409000
70
192
0
VERTEX
8
OBJECT__19
10
51.431999
20
11.917000
30
10.781000
70
192
0
VERTEX
8
OBJECT__19
10
53.756001
20
12.416000
30
13.102000
70
192
0
VERTEX
8
OBJECT__19
10
51.821999
20
12.034000
30
10.646000
70
192
0
VERTEX
8
OBJECT__19
10
53.333000
20
12.359000
30
10.246000
70
192
0
VERTEX
8
OBJECT__19
10
53.936001
20
12.419000
30
10.164000
70
192
0
VERTEX
8
OBJECT__19
10
53.935001
20
12.425000
30
13.091000
70
192
0
VERTEX
8
OBJECT__19
10
55.407001
20
12.498000
30
13.003000
70
192
0
VERTEX
8
OBJECT__19
10
54.604000
20
12.486000
30
10.074000
70
192
0
VERTEX
8
OBJECT__19
10
57.042000
20
12.364000
30
13.111000
70
192
0
VERTEX
8
OBJECT__19
10
56.146000
20
12.464000
30
10.078000
70
192
0
VERTEX
8
OBJECT__19
10
57.235001
20
12.334000
30
13.137000
70
192
0
VERTEX
8
OBJECT__19
10
57.480999
20
12.291000
30
10.271000
70
192
0
VERTEX
8
OBJECT__19
10
59.112000
20
11.873000
30
10.730000
70
192
0
VERTEX
8
OBJECT__19
10
58.910999
20
11.938000
30
13.479000
70
192
0
VERTEX
8
OBJECT__19
10
59.109001
20
11.865000
30
13.539000
70
192
0
VERTEX
8
OBJECT__19
10
60.647999
20
11.252000
30
11.361000
70
192
0
VERTEX
8
OBJECT__19
10
60.105000
20
11.499000
30
13.841000
70
192
0
VERTEX
8
OBJECT__19
10
59.115002
20
11.872000
30
10.731000
70
192
0
VERTEX
8
OBJECT__19
10
62.293999
20
10.295000
30
12.217000
70
192
0
VERTEX
8
OBJECT__19
10
61.783001
20
10.628000
30
14.503000
70
192
0
VERTEX
8
OBJECT__19
10
62.327000
20
10.268000
30
12.237000
70
192
0
VERTEX
8
OBJECT__19
10
63.611000
20
9.250000
30
13.011000
70
192
0
VERTEX
8
OBJECT__19
10
63.611000
20
9.250000
30
15.400000
70
192
0
VERTEX
8
OBJECT__19
10
63.327000
20
9.500000
30
15.249000
70
192
0
VERTEX
8
OBJECT__19
10
0
20
0
30
0
70
128
71
1
72
2
73
3
0
VERTEX
8
OBJECT__19
10
0
20
0
30
0
70
128
71
3
72
4
73
1
0
VERTEX
8
OBJECT__19
10
0
20
0
30
0
70
128
71
5
72
1
73
6
0
VERTEX
8
OBJECT__19
10
0
20
0
30
0
70
128
71
6
72
7
73
5
0
VERTEX
8
OBJECT__19
10
0
20
0
30
0
70
128
71
8
72
9
73
5
0
VERTEX
8
OBJECT__19
10
0
20
0
30
0
70
128
71
5
72
7
73
8
0
VERTEX
8
OBJECT__19
10
0
20
0
30
0
70
128
71
8
72
10
73
9
0
VERTEX
8
OBJECT__19
10
0
20
0
30
0
70
128
71
11
72
12
73
10
0
VERTEX
8
OBJECT__19
10
0
20
0
30
0
70
128
71
10
72
13
73
11
0
VERTEX
8
OBJECT__19
10
0
20
0
30
0
70
128
71
14
72
11
73
13
0
VERTEX
8
OBJECT__19
10
0
20
0
30
0
70
128
71
13
72
15
73
14
0
VERTEX
8
OBJECT__19
10
0
20
0
30
0
70
128
71
16
72
17
73
14
0
VERTEX
8
OBJECT__19
10
0
20
0
30
0
70
128
71
14
72
15
73
16
0
VERTEX
8
OBJECT__19
10
0
20
0
30
0
70
128
71
16
72
18
73
17
0
VERTEX
8
OBJECT__19
10
0
20
0
30
0
70
128
71
17
72
18
73
19
0
VERTEX
8
OBJECT__19
10
0
20
0
30
0
70
128
71
19
72
20
73
17
0
VERTEX
8
OBJECT__19
10
0
20
0
30
0
70
128
71
19
72
21
73
22
0
VERTEX
8
OBJECT__19
10
0
20
0
30
0
70
128
71
21
72
23
73
24
0
VERTEX
8
OBJECT__19
10
0
20
0
30
0
70
128
71
24
72
23
73
25
0
VERTEX
8
OBJECT__19
10
0
20
0
30
0
70
128
71
26
72
25
73
27
0
VERTEX
8
OBJECT__19
10
0
20
0
30
0
70
128
71
27
72
28
73
26
0
VERTEX
8
OBJECT__19
10
0
20
0
30
0
70
128
71
25
72
26
73
24
0
VERTEX
8
OBJECT__19
10
0
20
0
30
0
70
128
71
24
72
22
73
21
0
VERTEX
8
OBJECT__19
10
0
20
0
30
0
70
128
71
29
72
30
73
31
0
VERTEX
8
OBJECT__19
10
0
20
0
30
0
70
128
71
28
72
32
73
33
0
VERTEX
8
OBJECT__19
10
0
20
0
30
0
70
128
71
28
72
27
73
32
0
VERTEX
8
OBJECT__19
10
0
20
0
30
0
70
128
71
34
72
30
73
35
0
VERTEX
8
OBJECT__19
10
0
20
0
30
0
70
128
71
30
72
29
73
35
0
VERTEX
8
OBJECT__19
10
0
20
0
30
0
70
128
71
36
72
33
73
37
0
VERTEX
8
OBJECT__19
10
0
20
0
30
0
70
128
71
37
72
38
73
36
0
VERTEX
8
OBJECT__19
10
0
20
0
30
0
70
128
71
37
72
34
73
38
0
VERTEX
8
OBJECT__19
10
0
20
0
30
0
70
128
71
35
72
38
73
34
0
VERTEX
8
OBJECT__19
10
0
20
0
30
0
70
128
71
33
72
36
73
28
0
VERTEX
8
OBJECT__19
10
0
20
0
30
0
70
128
71
39
72
40
73
41
0
VERTEX
8
OBJECT__19
10
0
20
0
30
0
70
128
71
42
72
43
73
39
0
VERTEX
8
OBJECT__19
10
0
20
0
30
0
70
128
71
41
72
40
73
44
0
VERTEX
8
OBJECT__19
10
0
20
0
30
0
70
128
71
44
72
45
73
46
0
VERTEX
8
OBJECT__19
10
0
20
0
30
0
70
128
71
45
72
47
73
46
0
VERTEX
8
OBJECT__19
10
0
20
0
30
0
70
128
71
47
72
45
73
48
0
VERTEX
8
OBJECT__19
10
0
20
0
30
0
70
128
71
48
72
31
73
47
0
VERTEX
8
OBJECT__19
10
0
20
0
30
0
70
128
71
46
72
49
73
44
0
VERTEX
8
OBJECT__19
10
0
20
0
30
0
70
128
71
44
72
49
73
41
0
VERTEX
8
OBJECT__19
10
0
20
0
30
0
70
128
71
50
72
51
73
52
0
VERTEX
8
OBJECT__19
10
0
20
0
30
0
70
128
71
52
72
53
73
54
0
VERTEX
8
OBJECT__19
10
0
20
0
30
0
70
128
71
54
72
55
73
52
0
VERTEX
8
OBJECT__19
10
0
20
0
30
0
70
128
71
53
72
56
73
57
0
VERTEX
8
OBJECT__19
10
0
20
0
30
0
70
128
71
42
72
57
73
56
0
VERTEX
8
OBJECT__19
10
0
20
0
30
0
70
128
71
56
72
43
73
42
0
VERTEX
8
OBJECT__19
10
0
20
0
30
0
70
128
71
57
72
54
73
53
0
VERTEX
8
OBJECT__19
10
0
20
0
30
0
70
128
71
52
72
55
73
50
0
VERTEX
8
OBJECT__19
10
0
20
0
30
0
70
128
71
58
72
59
73
60
0
VERTEX
8
OBJECT__19
10
0
20
0
30
0
70
128
71
58
72
61
73
59
0
VERTEX
8
OBJECT__19
10
0
20
0
30
0
70
128
71
60
72
62
73
58
0
VERTEX
8
OBJECT__19
10
0
20
0
30
0
70
128
71
63
72
64
73
61
0
VERTEX
8
OBJECT__19
10
0
20
0
30
0
70
128
71
61
72
58
73
63
0
VERTEX
8
OBJECT__19
10
0
20
0
30
0
70
128
71
65
72
66
73
67
0
VERTEX
8
OBJECT__19
10
0
20
0
30
0
70
128
71
66
72
65
73
64
0
VERTEX
8
OBJECT__19
10
0
20
0
30
0
70
128
71
64
72
63
73
66
0
VERTEX
8
OBJECT__19
10
0
20
0
30
0
70
128
71
67
72
51
73
65
0
VERTEX
8
OBJECT__19
10
0
20
0
30
0
70
128
71
68
72
69
73
70
0
VERTEX
8
OBJECT__19
10
0
20
0
30
0
70
128
71
70
72
69
73
71
0
VERTEX
8
OBJECT__19
10
0
20
0
30
0
70
128
71
71
72
72
73
70
0
VERTEX
8
OBJECT__19
10
0
20
0
30
0
70
128
71
71
72
73
73
72
0
VERTEX
8
OBJECT__19
10
0
20
0
30
0
70
128
71
74
72
68
73
75
0
VERTEX
8
OBJECT__19
10
0
20
0
30
0
70
128
71
75
72
76
73
74
0
VERTEX
8
OBJECT__19
10
0
20
0
30
0
70
128
71
76
72
77
73
74
0
VERTEX
8
OBJECT__19
10
0
20
0
30
0
70
128
71
73
72
78
73
79
0
VERTEX
8
OBJECT__19
10
0
20
0
30
0
70
128
71
79
72
72
73
73
0
VERTEX
8
OBJECT__19
10
0
20
0
30
0
70
128
71
78
72
62
73
79
0
VERTEX
8
OBJECT__19
10
0
20
0
30
0
70
128
71
80
72
81
73
82
0
VERTEX
8
OBJECT__19
10
0
20
0
30
0
70
128
71
82
72
77
73
80
0
VERTEX
8
OBJECT__19
10
0
20
0
30
0
70
128
71
83
72
81
73
80
0
VERTEX
8
OBJECT__19
10
0
20
0
30
0
70
128
71
80
72
84
73
83
0
VERTEX
8
OBJECT__19
10
0
20
0
30
0
70
128
71
85
72
83
73
86
0
VERTEX
8
OBJECT__19
10
0
20
0
30
0
70
128
71
83
72
84
73
86
0
VERTEX
8
OBJECT__19
10
0
20
0
30
0
70
128
71
86
72
87
73
85
0
VERTEX
8
OBJECT__19
10
0
20
0
30
0
70
128
71
88
72
89
73
85
0
VERTEX
8
OBJECT__19
10
0
20
0
30
0
70
128
71
85
72
87
73
88
0
VERTEX
8
OBJECT__19
10
0
20
0
30
0
70
128
71
90
72
89
73
88
0
VERTEX
8
OBJECT__19
10
0
20
0
30
0
70
128
71
88
72
91
73
90
0
VERTEX
8
OBJECT__19
10
0
20
0
30
0
70
128
71
92
72
90
73
93
0
VERTEX
8
OBJECT__19
10
0
20
0
30
0
70
128
71
94
72
95
73
96
0
VERTEX
8
OBJECT__19
10
0
20
0
30
0
70
128
71
96
72
97
73
94
0
VERTEX
8
OBJECT__19
10
0
20
0
30
0
70
128
71
94
72
92
73
95
0
VERTEX
8
OBJECT__19
10
0
20
0
30
0
70
128
71
96
72
98
73
97
0
VERTEX
8
OBJECT__19
10
0
20
0
30
0
70
128
71
93
72
95
73
92
0
VERTEX
8
OBJECT__19
10
0
20
0
30
0
70
128
71
99
72
100
73
98
0
VERTEX
8
OBJECT__19
10
0
20
0
30
0
70
128
71
98
72
96
73
101
0
VERTEX
8
OBJECT__19
10
0
20
0
30
0
70
128
71
100
72
99
73
102
0
VERTEX
8
OBJECT__19
10
0
20
0
30
0
70
128
71
102
72
103
73
100
0
VERTEX
8
OBJECT__19
10
0
20
0
30
0
70
128
71
103
72
104
73
105
0
VERTEX
8
OBJECT__19
10
0
20
0
30
0
70
128
71
105
72
106
73
107
0
VERTEX
8
OBJECT__19
10
0
20
0
30
0
70
128
71
105
72
107
73
103
0
VERTEX
8
OBJECT__19
10
0
20
0
30
0
70
128
71
102
72
104
73
103
0
VERTEX
8
OBJECT__19
10
0
20
0
30
0
70
128
71
98
72
101
73
99
0
VERTEX
8
OBJECT__19
10
0
20
0
30
0
70
128
71
91
72
93
73
90
0
VERTEX
8
OBJECT__19
10
0
20
0
30
0
70
128
71
82
72
74
73
77
0
VERTEX
8
OBJECT__19
10
0
20
0
30
0
70
128
71
70
72
75
73
68
0
VERTEX
8
OBJECT__19
10
0
20
0
30
0
70
128
71
60
72
79
73
62
0
VERTEX
8
OBJECT__19
10
0
20
0
30
0
70
128
71
50
72
65
73
51
0
VERTEX
8
OBJECT__19
10
0
20
0
30
0
70
128
71
41
72
42
73
39
0
VERTEX
8
OBJECT__19
10
0
20
0
30
0
70
128
71
31
72
48
73
29
0
VERTEX
8
OBJECT__19
10
0
20
0
30
0
70
128
71
22
72
20
73
19
0
VERTEX
8
OBJECT__19
10
0
20
0
30
0
70
128
71
12
72
9
73
10
0
VERTEX
8
OBJECT__19
10
0
20
0
30
0
70
128
71
4
72
6
73
1
0
SEQEND
8
OBJECT__19
0
POLYLINE
8
OBJECT__20
66
1
70
64
71
36
72
34
62
253
0
VERTEX
8
OBJECT__20
10
67.406998
20
-9.250000
30
2.293000
70
192
0
VERTEX
8
OBJECT__20
10
67.383003
20
-9.250000
30
4.988000
70
192
0
VERTEX
8
OBJECT__20
10
69.400002
20
-9.250000
30
3.836000
70
192
0
VERTEX
8
OBJECT__20
10
67.389000
20
-9.250000
30
-4.859000
70
192
0
VERTEX
8
OBJECT__20
10
69.375999
20
-9.250000
30
-6.082000
70
192
0
VERTEX
8
OBJECT__20
10
69.369003
20
-9.250000
30
-6.713000
70
192
0
VERTEX
8
OBJECT__20
10
69.313004
20
-9.250000
30
-9.863000
70
192
0
VERTEX
8
OBJECT__20
10
67.336998
20
-9.250000
30
-8.783000
70
192
0
VERTEX
8
OBJECT__20
10
67.344002
20
-9.250000
30
-8.230000
70
192
0
VERTEX
8
OBJECT__20
10
69.373001
20
-9.250000
30
6.149000
70
192
0
VERTEX
8
OBJECT__20
10
67.411003
20
-9.250000
30
0.000000
70
192
0
VERTEX
8
OBJECT__20
10
67.410004
20
-9.250000
30
1.926000
70
192
0
VERTEX
8
OBJECT__20
10
69.410004
20
-9.250000
30
1.093000
70
192
0
VERTEX
8
OBJECT__20
10
69.414001
20
-9.250000
30
0.000000
70
192
0
VERTEX
8
OBJECT__20
10
69.410004
20
-9.250000
30
-1.093000
70
192
0
VERTEX
8
OBJECT__20
10
67.392998
20
-9.250000
30
-4.593000
70
192
0
VERTEX
8
OBJECT__20
10
67.407997
20
-9.250000
30
-2.285000
70
192
0
VERTEX
8
OBJECT__20
10
69.401001
20
-9.250000
30
-3.374000
70
192
0
VERTEX
8
OBJECT__20
10
67.319000
20
-9.250000
30
9.730000
70
192
0
VERTEX
8
OBJECT__20
10
67.245003
20
-9.250000
30
12.972000
70
192
0
VERTEX
8
OBJECT__20
10
69.281998
20
-9.250000
30
11.508000
70
192
0
VERTEX
8
OBJECT__20
10
69.314003
20
-9.250000
30
9.854000
70
192
0
VERTEX
8
OBJECT__20
10
69.356003
20
-9.250000
30
7.672000
70
192
0
VERTEX
8
OBJECT__20
10
67.344002
20
-9.250000
30
8.224000
70
192
0
VERTEX
8
OBJECT__20
10
69.401001
20
-9.250000
30
3.374000
70
192
0
VERTEX
8
OBJECT__20
10
67.411003
20
-9.250000
30
-1.799000
70
192
0
VERTEX
8
OBJECT__20
10
69.400002
20
-9.250000
30
-3.836000
70
192
0
VERTEX
8
OBJECT__20
10
69.179001
20
-9.250000
30
15.343000
70
192
0
VERTEX
8
OBJECT__20
10
67.365997
20
-9.250000
30
6.892000
70
192
0
VERTEX
8
OBJECT__20
10
69.292999
20
-9.250000
30
-11.029000
70
192
0
VERTEX
8
OBJECT__20
10
67.245003
20
-9.250000
30
-12.972000
70
192
0
VERTEX
8
OBJECT__20
10
69.179001
20
-9.250000
30
-15.343000
70
192
0
VERTEX
8
OBJECT__20
10
63.611000
20
-9.250000
30
15.400000
70
192
0
VERTEX
8
OBJECT__20
10
60.380001
20
-9.250000
30
-15.432000
70
192
0
VERTEX
8
OBJECT__20
10
60.380001
20
-9.250000
30
-13.046000
70
192
0
VERTEX
8
OBJECT__20
10
63.611000
20
-9.250000
30
13.011000
70
192
0
VERTEX
8
OBJECT__20
10
0
20
0
30
0
70
128
71
1
72
2
73
3
0
VERTEX
8
OBJECT__20
10
0
20
0
30
0
70
128
71
4
72
5
73
6
0
VERTEX
8
OBJECT__20
10
0
20
0
30
0
70
128
71
7
72
8
73
9
0
VERTEX
8
OBJECT__20
10
0
20
0
30
0
70
128
71
2
72
10
73
3
0
VERTEX
8
OBJECT__20
10
0
20
0
30
0
70
128
71
11
72
12
73
13
0
VERTEX
8
OBJECT__20
10
0
20
0
30
0
70
128
71
11
72
14
73
15
0
VERTEX
8
OBJECT__20
10
0
20
0
30
0
70
128
71
16
72
17
73
18
0
VERTEX
8
OBJECT__20
10
0
20
0
30
0
70
128
71
15
72
18
73
17
0
VERTEX
8
OBJECT__20
10
0
20
0
30
0
70
128
71
9
72
6
73
7
0
VERTEX
8
OBJECT__20
10
0
20
0
30
0
70
128
71
19
72
20
73
21
0
VERTEX
8
OBJECT__20
10
0
20
0
30
0
70
128
71
22
72
23
73
24
0
VERTEX
8
OBJECT__20
10
0
20
0
30
0
70
128
71
3
72
25
73
1
0
VERTEX
8
OBJECT__20
10
0
20
0
30
0
70
128
71
15
72
26
73
11
0
VERTEX
8
OBJECT__20
10
0
20
0
30
0
70
128
71
17
72
26
73
15
0
VERTEX
8
OBJECT__20
10
0
20
0
30
0
70
128
71
4
72
27
73
5
0
VERTEX
8
OBJECT__20
10
0
20
0
30
0
70
128
71
20
72
28
73
21
0
VERTEX
8
OBJECT__20
10
0
20
0
30
0
70
128
71
23
72
29
73
24
0
VERTEX
8
OBJECT__20
10
0
20
0
30
0
70
128
71
29
72
23
73
10
0
VERTEX
8
OBJECT__20
10
0
20
0
30
0
70
128
71
13
72
12
73
1
0
VERTEX
8
OBJECT__20
10
0
20
0
30
0
70
128
71
18
72
27
73
16
0
VERTEX
8
OBJECT__20
10
0
20
0
30
0
70
128
71
6
72
9
73
4
0
VERTEX
8
OBJECT__20
10
0
20
0
30
0
70
128
71
8
72
7
73
30
0
VERTEX
8
OBJECT__20
10
0
20
0
30
0
70
128
71
24
72
19
73
22
0
VERTEX
8
OBJECT__20
10
0
20
0
30
0
70
128
71
1
72
25
73
13
0
VERTEX
8
OBJECT__20
10
0
20
0
30
0
70
128
71
4
72
16
73
27
0
VERTEX
8
OBJECT__20
10
0
20
0
30
0
70
128
71
30
72
31
73
8
0
VERTEX
8
OBJECT__20
10
0
20
0
30
0
70
128
71
2
72
29
73
10
0
VERTEX
8
OBJECT__20
10
0
20
0
30
0
70
128
71
30
72
32
73
31
0
VERTEX
8
OBJECT__20
10
0
20
0
30
0
70
128
71
33
72
28
73
20
0
VERTEX
8
OBJECT__20
10
0
20
0
30
0
70
128
71
13
72
14
73
11
0
VERTEX
8
OBJECT__20
10
0
20
0
30
0
70
128
71
21
72
22
73
19
0
VERTEX
8
OBJECT__20
10
0
20
0
30
0
70
128
71
34
72
35
73
31
0
VERTEX
8
OBJECT__20
10
0
20
0
30
0
70
128
71
31
72
32
73
34
0
VERTEX
8
OBJECT__20
10
0
20
0
30
0
70
128
71
20
72
36
73
33
0
SEQEND
8
OBJECT__20
0
POLYLINE
8
OBJECT__21
66
1
70
64
71
31
72
29
62
253
0
VERTEX
8
OBJECT__21
10
69.179001
20
-12.361000
30
-12.968000
70
192
0
VERTEX
8
OBJECT__21
10
69.179001
20
-10.939000
30
-14.053000
70
192
0
VERTEX
8
OBJECT__21
10
69.292999
20
-9.250000
30
-11.029000
70
192
0
VERTEX
8
OBJECT__21
10
69.313004
20
-9.250000
30
-9.863000
70
192
0
VERTEX
8
OBJECT__21
10
69.369003
20
-9.250000
30
-6.713000
70
192
0
VERTEX
8
OBJECT__21
10
69.179001
20
-15.004000
30
-9.790000
70
192
0
VERTEX
8
OBJECT__21
10
69.179001
20
-14.997000
30
-9.798000
70
192
0
VERTEX
8
OBJECT__21
10
69.375999
20
-9.250000
30
-6.082000
70
192
0
VERTEX
8
OBJECT__21
10
69.179001
20
-16.849001
30
-6.090000
70
192
0
VERTEX
8
OBJECT__21
10
69.400002
20
-9.250000
30
-3.836000
70
192
0
VERTEX
8
OBJECT__21
10
69.179001
20
-17.796000
30
-2.067000
70
192
0
VERTEX
8
OBJECT__21
10
69.179001
20
-17.253000
30
-4.371000
70
192
0
VERTEX
8
OBJECT__21
10
69.401001
20
-9.250000
30
-3.374000
70
192
0
VERTEX
8
OBJECT__21
10
69.410004
20
-9.250000
30
-1.093000
70
192
0
VERTEX
8
OBJECT__21
10
69.414001
20
-9.250000
30
0.000000
70
192
0
VERTEX
8
OBJECT__21
10
69.179001
20
-17.796000
30
1.479000
70
192
0
VERTEX
8
OBJECT__21
10
69.410004
20
-9.250000
30
1.093000
70
192
0
VERTEX
8
OBJECT__21
10
69.179001
20
-17.796000
30
2.067000
70
192
0
VERTEX
8
OBJECT__21
10
69.401001
20
-9.250000
30
3.374000
70
192
0
VERTEX
8
OBJECT__21
10
69.179001
20
-16.849001
30
6.090000
70
192
0
VERTEX
8
OBJECT__21
10
69.400002
20
-9.250000
30
3.836000
70
192
0
VERTEX
8
OBJECT__21
10
69.179001
20
-16.319000
30
7.153000
70
192
0
VERTEX
8
OBJECT__21
10
69.373001
20
-9.250000
30
6.149000
70
192
0
VERTEX
8
OBJECT__21
10
69.179001
20
-15.004000
30
9.790000
70
192
0
VERTEX
8
OBJECT__21
10
69.356003
20
-9.250000
30
7.672000
70
192
0
VERTEX
8
OBJECT__21
10
69.179001
20
-13.106000
30
12.072000
70
192
0
VERTEX
8
OBJECT__21
10
69.314003
20
-9.250000
30
9.854000
70
192
0
VERTEX
8
OBJECT__21
10
69.179001
20
-12.361000
30
12.968000
70
192
0
VERTEX
8
OBJECT__21
10
69.281998
20
-9.250000
30
11.508000
70
192
0
VERTEX
8
OBJECT__21
10
69.179001
20
-9.250000
30
15.343000
70
192
0
VERTEX
8
OBJECT__21
10
69.179001
20
-9.250000
30
-15.343000
70
192
0
VERTEX
8
OBJECT__21
10
0
20
0
30
0
70
128
71
1
72
2
73
3
0
VERTEX
8
OBJECT__21
10
0
20
0
30
0
70
128
71
3
72
4
73
1
0
VERTEX
8
OBJECT__21
10
0
20
0
30
0
70
128
71
5
72
6
73
7
0
VERTEX
8
OBJECT__21
10
0
20
0
30
0
70
128
71
7
72
4
73
5
0
VERTEX
8
OBJECT__21
10
0
20
0
30
0
70
128
71
5
72
8
73
6
0
VERTEX
8
OBJECT__21
10
0
20
0
30
0
70
128
71
7
72
1
73
4
0
VERTEX
8
OBJECT__21
10
0
20
0
30
0
70
128
71
9
72
6
73
8
0
VERTEX
8
OBJECT__21
10
0
20
0
30
0
70
128
71
8
72
10
73
9
0
VERTEX
8
OBJECT__21
10
0
20
0
30
0
70
128
71
11
72
12
73
13
0
VERTEX
8
OBJECT__21
10
0
20
0
30
0
70
128
71
13
72
14
73
11
0
VERTEX
8
OBJECT__21
10
0
20
0
30
0
70
128
71
11
72
14
73
15
0
VERTEX
8
OBJECT__21
10
0
20
0
30
0
70
128
71
15
72
16
73
11
0
VERTEX
8
OBJECT__21
10
0
20
0
30
0
70
128
71
17
72
18
73
16
0
VERTEX
8
OBJECT__21
10
0
20
0
30
0
70
128
71
18
72
17
73
19
0
VERTEX
8
OBJECT__21
10
0
20
0
30
0
70
128
71
20
72
19
73
21
0
VERTEX
8
OBJECT__21
10
0
20
0
30
0
70
128
71
22
72
21
73
23
0
VERTEX
8
OBJECT__21
10
0
20
0
30
0
70
128
71
23
72
24
73
22
0
VERTEX
8
OBJECT__21
10
0
20
0
30
0
70
128
71
24
72
23
73
25
0
VERTEX
8
OBJECT__21
10
0
20
0
30
0
70
128
71
26
72
25
73
27
0
VERTEX
8
OBJECT__21
10
0
20
0
30
0
70
128
71
27
72
28
73
26
0
VERTEX
8
OBJECT__21
10
0
20
0
30
0
70
128
71
28
72
27
73
29
0
VERTEX
8
OBJECT__21
10
0
20
0
30
0
70
128
71
29
72
30
73
28
0
VERTEX
8
OBJECT__21
10
0
20
0
30
0
70
128
71
25
72
26
73
24
0
VERTEX
8
OBJECT__21
10
0
20
0
30
0
70
128
71
21
72
22
73
20
0
VERTEX
8
OBJECT__21
10
0
20
0
30
0
70
128
71
19
72
20
73
18
0
VERTEX
8
OBJECT__21
10
0
20
0
30
0
70
128
71
15
72
17
73
16
0
VERTEX
8
OBJECT__21
10
0
20
0
30
0
70
128
71
12
72
9
73
13
0
VERTEX
8
OBJECT__21
10
0
20
0
30
0
70
128
71
10
72
13
73
9
0
VERTEX
8
OBJECT__21
10
0
20
0
30
0
70
128
71
2
72
31
73
3
0
SEQEND
8
OBJECT__21
0
POLYLINE
8
OBJECT__22
66
1
70
64
71
146
72
146
62
253
0
VERTEX
8
OBJECT__22
10
2.204000
20
-15.488000
30
-10.119000
70
192
0
VERTEX
8
OBJECT__22
10
2.204000
20
-11.363000
30
-14.599000
70
192
0
VERTEX
8
OBJECT__22
10
69.179001
20
-12.361000
30
-12.968000
70
192
0
VERTEX
8
OBJECT__22
10
69.179001
20
-10.939000
30
-14.053000
70
192
0
VERTEX
8
OBJECT__22
10
2.204000
20
-17.934000
30
-4.541000
70
192
0
VERTEX
8
OBJECT__22
10
69.179001
20
-15.004000
30
-9.790000
70
192
0
VERTEX
8
OBJECT__22
10
69.179001
20
-16.849001
30
-6.090000
70
192
0
VERTEX
8
OBJECT__22
10
69.179001
20
-14.997000
30
-9.798000
70
192
0
VERTEX
8
OBJECT__22
10
69.179001
20
-17.253000
30
-4.371000
70
192
0
VERTEX
8
OBJECT__22
10
69.179001
20
-17.796000
30
1.479000
70
192
0
VERTEX
8
OBJECT__22
10
2.204000
20
-18.437000
30
1.528000
70
192
0
VERTEX
8
OBJECT__22
10
2.204000
20
-18.500000
30
0.000000
70
192
0
VERTEX
8
OBJECT__22
10
69.179001
20
-17.796000
30
-2.067000
70
192
0
VERTEX
8
OBJECT__22
10
69.179001
20
-17.796000
30
2.067000
70
192
0
VERTEX
8
OBJECT__22
10
69.179001
20
-16.849001
30
6.090000
70
192
0
VERTEX
8
OBJECT__22
10
2.204000
20
-16.941999
30
7.431000
70
192
0
VERTEX
8
OBJECT__22
10
2.204000
20
-13.611000
30
12.530000
70
192
0
VERTEX
8
OBJECT__22
10
69.179001
20
-15.004000
30
9.790000
70
192
0
VERTEX
8
OBJECT__22
10
69.179001
20
-16.319000
30
7.153000
70
192
0
VERTEX
8
OBJECT__22
10
2.204000
20
13.611000
30
12.530000
70
192
0
VERTEX
8
OBJECT__22
10
69.179001
20
13.106000
30
12.072000
70
192
0
VERTEX
8
OBJECT__22
10
69.179001
20
15.004000
30
9.790000
70
192
0
VERTEX
8
OBJECT__22
10
2.204000
20
16.941999
30
7.431000
70
192
0
VERTEX
8
OBJECT__22
10
2.204000
20
18.437000
30
1.528000
70
192
0
VERTEX
8
OBJECT__22
10
69.179001
20
16.849001
30
6.090000
70
192
0
VERTEX
8
OBJECT__22
10
69.179001
20
16.319000
30
7.153000
70
192
0
VERTEX
8
OBJECT__22
10
69.179001
20
17.796000
30
2.067000
70
192
0
VERTEX
8
OBJECT__22
10
69.179001
20
17.796000
30
1.479000
70
192
0
VERTEX
8
OBJECT__22
10
69.179001
20
17.796000
30
-2.067000
70
192
0
VERTEX
8
OBJECT__22
10
2.204000
20
17.934000
30
-4.541000
70
192
0
VERTEX
8
OBJECT__22
10
2.204000
20
15.488000
30
-10.119000
70
192
0
VERTEX
8
OBJECT__22
10
69.179001
20
16.849001
30
-6.090000
70
192
0
VERTEX
8
OBJECT__22
10
69.179001
20
17.253000
30
-4.371000
70
192
0
VERTEX
8
OBJECT__22
10
69.179001
20
15.004000
30
-9.790000
70
192
0
VERTEX
8
OBJECT__22
10
69.179001
20
14.997000
30
-9.798000
70
192
0
VERTEX
8
OBJECT__22
10
69.179001
20
12.361000
30
-12.968000
70
192
0
VERTEX
8
OBJECT__22
10
2.204000
20
11.363000
30
-14.599000
70
192
0
VERTEX
8
OBJECT__22
10
46.707001
20
6.338000
30
-16.966999
70
192
0
VERTEX
8
OBJECT__22
10
46.419998
20
5.877000
30
-17.118999
70
192
0
VERTEX
8
OBJECT__22
10
48.599998
20
8.292000
30
-16.083000
70
192
0
VERTEX
8
OBJECT__22
10
48.075001
20
7.832000
30
-16.313999
70
192
0
VERTEX
8
OBJECT__22
10
49.664001
20
9.037000
30
-15.666000
70
192
0
VERTEX
8
OBJECT__22
10
47.849998
20
7.634000
30
-16.413000
70
192
0
VERTEX
8
OBJECT__22
10
51.214001
20
9.820000
30
-15.171000
70
192
0
VERTEX
8
OBJECT__22
10
52.383999
20
10.218000
30
-14.894000
70
192
0
VERTEX
8
OBJECT__22
10
51.853001
20
10.038000
30
-15.020000
70
192
0
VERTEX
8
OBJECT__22
10
53.994999
20
10.531000
30
-14.657000
70
192
0
VERTEX
8
OBJECT__22
10
69.179001
20
10.939000
30
-14.053000
70
192
0
VERTEX
8
OBJECT__22
10
55.693001
20
10.589000
30
-14.597000
70
192
0
VERTEX
8
OBJECT__22
10
57.286999
20
10.393000
30
-14.720000
70
192
0
VERTEX
8
OBJECT__22
10
56.195000
20
10.527000
30
-14.636000
70
192
0
VERTEX
8
OBJECT__22
10
69.179001
20
9.250000
30
-15.343000
70
192
0
VERTEX
8
OBJECT__22
10
60.380001
20
9.250000
30
-15.432000
70
192
0
VERTEX
8
OBJECT__22
10
60.299000
20
9.295000
30
-15.406000
70
192
0
VERTEX
8
OBJECT__22
10
58.799999
20
9.971000
30
-14.993000
70
192
0
VERTEX
8
OBJECT__22
10
2.204000
20
0.000000
30
-18.500000
70
192
0
VERTEX
8
OBJECT__22
10
2.204000
20
6.007000
30
-17.497999
70
192
0
VERTEX
8
OBJECT__22
10
44.695999
20
1.395000
30
-18.075001
70
192
0
VERTEX
8
OBJECT__22
10
45.132999
20
3.308000
30
-17.820999
70
192
0
VERTEX
8
OBJECT__22
10
44.741001
20
1.703000
30
-18.049000
70
192
0
VERTEX
8
OBJECT__22
10
45.771000
20
4.836000
30
-17.462999
70
192
0
VERTEX
8
OBJECT__22
10
45.535999
20
4.274000
30
-17.594000
70
192
0
VERTEX
8
OBJECT__22
10
2.204000
20
-6.007000
30
-17.497999
70
192
0
VERTEX
8
OBJECT__22
10
45.203999
20
-3.517000
30
-17.780001
70
192
0
VERTEX
8
OBJECT__22
10
45.528000
20
-4.277000
30
-17.599001
70
192
0
VERTEX
8
OBJECT__22
10
44.773998
20
-1.894000
30
-18.028999
70
192
0
VERTEX
8
OBJECT__22
10
45.735001
20
-4.765000
30
-17.482000
70
192
0
VERTEX
8
OBJECT__22
10
44.606998
20
-0.258000
30
-18.128000
70
192
0
VERTEX
8
OBJECT__22
10
44.620998
20
0.000000
30
-18.120001
70
192
0
VERTEX
8
OBJECT__22
10
59.467999
20
-9.704000
30
-15.160000
70
192
0
VERTEX
8
OBJECT__22
10
60.380001
20
-9.250000
30
-15.432000
70
192
0
VERTEX
8
OBJECT__22
10
58.313999
20
-10.133000
30
-14.889000
70
192
0
VERTEX
8
OBJECT__22
10
56.709999
20
-10.492000
30
-14.656000
70
192
0
VERTEX
8
OBJECT__22
10
55.039001
20
-10.599000
30
-14.597000
70
192
0
VERTEX
8
OBJECT__22
10
56.196999
20
-10.525000
30
-14.638000
70
192
0
VERTEX
8
OBJECT__22
10
50.417000
20
-9.458000
30
-15.408000
70
192
0
VERTEX
8
OBJECT__22
10
51.849998
20
-10.049000
30
-15.013000
70
192
0
VERTEX
8
OBJECT__22
10
47.557999
20
-7.342000
30
-16.549000
70
192
0
VERTEX
8
OBJECT__22
10
48.091999
20
-7.813000
30
-16.313999
70
192
0
VERTEX
8
OBJECT__22
10
46.415001
20
-5.878000
30
-17.121000
70
192
0
VERTEX
8
OBJECT__22
10
46.641998
20
-6.250000
30
-17.000000
70
192
0
VERTEX
8
OBJECT__22
10
48.874001
20
-8.503000
30
-15.970000
70
192
0
VERTEX
8
OBJECT__22
10
51.931000
20
-10.082000
30
-14.991000
70
192
0
VERTEX
8
OBJECT__22
10
53.438999
20
-10.452000
30
-14.719000
70
192
0
VERTEX
8
OBJECT__22
10
47.154999
20
-9.564000
30
15.376000
70
192
0
VERTEX
8
OBJECT__22
10
46.187000
20
-8.616000
30
15.922000
70
192
0
VERTEX
8
OBJECT__22
10
48.720001
20
-10.687000
30
14.601000
70
192
0
VERTEX
8
OBJECT__22
10
50.521000
20
-11.590000
30
13.875000
70
192
0
VERTEX
8
OBJECT__22
10
48.986000
20
-10.820000
30
14.494000
70
192
0
VERTEX
8
OBJECT__22
10
53.702999
20
-12.410000
30
13.108000
70
192
0
VERTEX
8
OBJECT__22
10
52.236000
20
-12.143000
30
13.373000
70
192
0
VERTEX
8
OBJECT__22
10
55.360001
20
-12.499000
30
13.003000
70
192
0
VERTEX
8
OBJECT__22
10
53.935001
20
-12.422000
30
13.093000
70
192
0
VERTEX
8
OBJECT__22
10
69.179001
20
-13.106000
30
12.072000
70
192
0
VERTEX
8
OBJECT__22
10
60.403999
20
-11.367000
30
13.946000
70
192
0
VERTEX
8
OBJECT__22
10
59.105000
20
-11.854000
30
13.546000
70
192
0
VERTEX
8
OBJECT__22
10
58.765999
20
-11.981000
30
13.441000
70
192
0
VERTEX
8
OBJECT__22
10
58.470001
20
-12.066000
30
13.370000
70
192
0
VERTEX
8
OBJECT__22
10
69.179001
20
-12.361000
30
12.968000
70
192
0
VERTEX
8
OBJECT__22
10
69.179001
20
-9.250000
30
15.343000
70
192
0
VERTEX
8
OBJECT__22
10
63.611000
20
-9.250000
30
15.400000
70
192
0
VERTEX
8
OBJECT__22
10
61.952000
20
-10.522000
30
14.578000
70
192
0
VERTEX
8
OBJECT__22
10
56.861000
20
-12.390000
30
13.089000
70
192
0
VERTEX
8
OBJECT__22
10
2.204000
20
-8.805000
30
16.270000
70
192
0
VERTEX
8
OBJECT__22
10
43.453999
20
-4.265000
30
17.632000
70
192
0
VERTEX
8
OBJECT__22
10
43.088001
20
-2.983000
30
17.881001
70
192
0
VERTEX
8
OBJECT__22
10
44.721001
20
-6.809000
30
16.802000
70
192
0
VERTEX
8
OBJECT__22
10
43.855000
20
-5.240000
30
17.363001
70
192
0
VERTEX
8
OBJECT__22
10
45.810001
20
-8.247000
30
16.134001
70
192
0
VERTEX
8
OBJECT__22
10
45.125000
20
-7.342000
30
16.554001
70
192
0
VERTEX
8
OBJECT__22
10
2.204000
20
3.045000
30
18.247999
70
192
0
VERTEX
8
OBJECT__22
10
42.740002
20
0.956000
30
18.121000
70
192
0
VERTEX
8
OBJECT__22
10
42.988998
20
2.602000
30
17.948999
70
192
0
VERTEX
8
OBJECT__22
10
2.204000
20
-3.045000
30
18.247999
70
192
0
VERTEX
8
OBJECT__22
10
42.729000
20
-0.800000
30
18.129000
70
192
0
VERTEX
8
OBJECT__22
10
42.979000
20
-2.604000
30
17.955999
70
192
0
VERTEX
8
OBJECT__22
10
42.973999
20
-2.586000
30
17.959000
70
192
0
VERTEX
8
OBJECT__22
10
43.013000
20
2.763000
30
17.931999
70
192
0
VERTEX
8
OBJECT__22
10
2.204000
20
8.805000
30
16.270000
70
192
0
VERTEX
8
OBJECT__22
10
44.201000
20
5.933000
30
17.136000
70
192
0
VERTEX
8
OBJECT__22
10
45.111000
20
7.353000
30
16.559000
70
192
0
VERTEX
8
OBJECT__22
10
43.535000
20
4.482000
30
17.577000
70
192
0
VERTEX
8
OBJECT__22
10
43.080002
20
2.984000
30
17.886000
70
192
0
VERTEX
8
OBJECT__22
10
45.214001
20
7.514000
30
16.493999
70
192
0
VERTEX
8
OBJECT__22
10
69.179001
20
12.361000
30
12.968000
70
192
0
VERTEX
8
OBJECT__22
10
63.327000
20
9.500000
30
15.249000
70
192
0
VERTEX
8
OBJECT__22
10
63.611000
20
9.250000
30
15.400000
70
192
0
VERTEX
8
OBJECT__22
10
69.179001
20
9.250000
30
15.343000
70
192
0
VERTEX
8
OBJECT__22
10
61.783001
20
10.628000
30
14.503000
70
192
0
VERTEX
8
OBJECT__22
10
58.910999
20
11.938000
30
13.479000
70
192
0
VERTEX
8
OBJECT__22
10
59.109001
20
11.865000
30
13.539000
70
192
0
VERTEX
8
OBJECT__22
10
60.105000
20
11.499000
30
13.841000
70
192
0
VERTEX
8
OBJECT__22
10
57.042000
20
12.364000
30
13.111000
70
192
0
VERTEX
8
OBJECT__22
10
57.235001
20
12.334000
30
13.137000
70
192
0
VERTEX
8
OBJECT__22
10
55.407001
20
12.498000
30
13.003000
70
192
0
VERTEX
8
OBJECT__22
10
53.935001
20
12.425000
30
13.091000
70
192
0
VERTEX
8
OBJECT__22
10
53.756001
20
12.416000
30
13.102000
70
192
0
VERTEX
8
OBJECT__22
10
48.522999
20
10.565000
30
14.691000
70
192
0
VERTEX
8
OBJECT__22
10
48.990002
20
10.814000
30
14.495000
70
192
0
VERTEX
8
OBJECT__22
10
50.146000
20
11.431000
30
14.010000
70
192
0
VERTEX
8
OBJECT__22
10
50.492001
20
11.578000
30
13.885000
70
192
0
VERTEX
8
OBJECT__22
10
46.173000
20
8.619000
30
15.925000
70
192
0
VERTEX
8
OBJECT__22
10
46.358002
20
8.832000
30
15.816000
70
192
0
VERTEX
8
OBJECT__22
10
47.029999
20
9.457000
30
15.443000
70
192
0
VERTEX
8
OBJECT__22
10
52.084999
20
12.105000
30
13.409000
70
192
0
VERTEX
8
OBJECT__22
10
69.179001
20
-9.250000
30
-15.343000
70
192
0
VERTEX
8
OBJECT__22
10
0
20
0
30
0
70
128
71
1
72
2
73
3
0
VERTEX
8
OBJECT__22
10
0
20
0
30
0
70
128
71
2
72
4
73
3
0
VERTEX
8
OBJECT__22
10
0
20
0
30
0
70
128
71
5
72
6
73
7
0
VERTEX
8
OBJECT__22
10
0
20
0
30
0
70
128
71
1
72
8
73
6
0
VERTEX
8
OBJECT__22
10
0
20
0
30
0
70
128
71
6
72
5
73
1
0
VERTEX
8
OBJECT__22
10
0
20
0
30
0
70
128
71
7
72
9
73
5
0
VERTEX
8
OBJECT__22
10
0
20
0
30
0
70
128
71
10
72
11
73
12
0
VERTEX
8
OBJECT__22
10
0
20
0
30
0
70
128
71
5
72
9
73
13
0
VERTEX
8
OBJECT__22
10
0
20
0
30
0
70
128
71
13
72
12
73
5
0
VERTEX
8
OBJECT__22
10
0
20
0
30
0
70
128
71
11
72
14
73
15
0
VERTEX
8
OBJECT__22
10
0
20
0
30
0
70
128
71
15
72
16
73
11
0
VERTEX
8
OBJECT__22
10
0
20
0
30
0
70
128
71
11
72
10
73
14
0
VERTEX
8
OBJECT__22
10
0
20
0
30
0
70
128
71
17
72
16
73
18
0
VERTEX
8
OBJECT__22
10
0
20
0
30
0
70
128
71
16
72
19
73
18
0
VERTEX
8
OBJECT__22
10
0
20
0
30
0
70
128
71
20
72
21
73
22
0
VERTEX
8
OBJECT__22
10
0
20
0
30
0
70
128
71
22
72
23
73
20
0
VERTEX
8
OBJECT__22
10
0
20
0
30
0
70
128
71
24
72
23
73
25
0
VERTEX
8
OBJECT__22
10
0
20
0
30
0
70
128
71
23
72
26
73
25
0
VERTEX
8
OBJECT__22
10
0
20
0
30
0
70
128
71
25
72
27
73
24
0
VERTEX
8
OBJECT__22
10
0
20
0
30
0
70
128
71
24
72
28
73
29
0
VERTEX
8
OBJECT__22
10
0
20
0
30
0
70
128
71
29
72
30
73
24
0
VERTEX
8
OBJECT__22
10
0
20
0
30
0
70
128
71
31
72
30
73
32
0
VERTEX
8
OBJECT__22
10
0
20
0
30
0
70
128
71
30
72
33
73
32
0
VERTEX
8
OBJECT__22
10
0
20
0
30
0
70
128
71
32
72
34
73
31
0
VERTEX
8
OBJECT__22
10
0
20
0
30
0
70
128
71
31
72
35
73
36
0
VERTEX
8
OBJECT__22
10
0
20
0
30
0
70
128
71
36
72
37
73
31
0
VERTEX
8
OBJECT__22
10
0
20
0
30
0
70
128
71
37
72
38
73
39
0
VERTEX
8
OBJECT__22
10
0
20
0
30
0
70
128
71
37
72
40
73
41
0
VERTEX
8
OBJECT__22
10
0
20
0
30
0
70
128
71
37
72
42
73
40
0
VERTEX
8
OBJECT__22
10
0
20
0
30
0
70
128
71
41
72
43
73
37
0
VERTEX
8
OBJECT__22
10
0
20
0
30
0
70
128
71
37
72
44
73
42
0
VERTEX
8
OBJECT__22
10
0
20
0
30
0
70
128
71
43
72
38
73
37
0
VERTEX
8
OBJECT__22
10
0
20
0
30
0
70
128
71
37
72
45
73
46
0
VERTEX
8
OBJECT__22
10
0
20
0
30
0
70
128
71
46
72
44
73
37
0
VERTEX
8
OBJECT__22
10
0
20
0
30
0
70
128
71
37
72
47
73
45
0
VERTEX
8
OBJECT__22
10
0
20
0
30
0
70
128
71
37
72
48
73
49
0
VERTEX
8
OBJECT__22
10
0
20
0
30
0
70
128
71
49
72
47
73
37
0
VERTEX
8
OBJECT__22
10
0
20
0
30
0
70
128
71
48
72
50
73
51
0
VERTEX
8
OBJECT__22
10
0
20
0
30
0
70
128
71
48
72
52
73
53
0
VERTEX
8
OBJECT__22
10
0
20
0
30
0
70
128
71
53
72
54
73
48
0
VERTEX
8
OBJECT__22
10
0
20
0
30
0
70
128
71
54
72
55
73
48
0
VERTEX
8
OBJECT__22
10
0
20
0
30
0
70
128
71
55
72
50
73
48
0
VERTEX
8
OBJECT__22
10
0
20
0
30
0
70
128
71
51
72
49
73
48
0
VERTEX
8
OBJECT__22
10
0
20
0
30
0
70
128
71
56
72
57
73
58
0
VERTEX
8
OBJECT__22
10
0
20
0
30
0
70
128
71
57
72
59
73
60
0
VERTEX
8
OBJECT__22
10
0
20
0
30
0
70
128
71
60
72
58
73
57
0
VERTEX
8
OBJECT__22
10
0
20
0
30
0
70
128
71
57
72
61
73
62
0
VERTEX
8
OBJECT__22
10
0
20
0
30
0
70
128
71
62
72
59
73
57
0
VERTEX
8
OBJECT__22
10
0
20
0
30
0
70
128
71
57
72
39
73
61
0
VERTEX
8
OBJECT__22
10
0
20
0
30
0
70
128
71
63
72
64
73
65
0
VERTEX
8
OBJECT__22
10
0
20
0
30
0
70
128
71
63
72
66
73
64
0
VERTEX
8
OBJECT__22
10
0
20
0
30
0
70
128
71
65
72
67
73
63
0
VERTEX
8
OBJECT__22
10
0
20
0
30
0
70
128
71
63
72
56
73
68
0
VERTEX
8
OBJECT__22
10
0
20
0
30
0
70
128
71
68
72
66
73
63
0
VERTEX
8
OBJECT__22
10
0
20
0
30
0
70
128
71
69
72
68
73
56
0
VERTEX
8
OBJECT__22
10
0
20
0
30
0
70
128
71
4
72
70
73
71
0
VERTEX
8
OBJECT__22
10
0
20
0
30
0
70
128
71
4
72
72
73
70
0
VERTEX
8
OBJECT__22
10
0
20
0
30
0
70
128
71
4
72
73
73
72
0
VERTEX
8
OBJECT__22
10
0
20
0
30
0
70
128
71
4
72
74
73
75
0
VERTEX
8
OBJECT__22
10
0
20
0
30
0
70
128
71
4
72
2
73
74
0
VERTEX
8
OBJECT__22
10
0
20
0
30
0
70
128
71
75
72
73
73
4
0
VERTEX
8
OBJECT__22
10
0
20
0
30
0
70
128
71
2
72
76
73
77
0
VERTEX
8
OBJECT__22
10
0
20
0
30
0
70
128
71
2
72
78
73
79
0
VERTEX
8
OBJECT__22
10
0
20
0
30
0
70
128
71
2
72
63
73
80
0
VERTEX
8
OBJECT__22
10
0
20
0
30
0
70
128
71
80
72
81
73
2
0
VERTEX
8
OBJECT__22
10
0
20
0
30
0
70
128
71
81
72
78
73
2
0
VERTEX
8
OBJECT__22
10
0
20
0
30
0
70
128
71
79
72
82
73
2
0
VERTEX
8
OBJECT__22
10
0
20
0
30
0
70
128
71
82
72
76
73
2
0
VERTEX
8
OBJECT__22
10
0
20
0
30
0
70
128
71
77
72
83
73
2
0
VERTEX
8
OBJECT__22
10
0
20
0
30
0
70
128
71
83
72
84
73
2
0
VERTEX
8
OBJECT__22
10
0
20
0
30
0
70
128
71
84
72
74
73
2
0
VERTEX
8
OBJECT__22
10
0
20
0
30
0
70
128
71
17
72
85
73
86
0
VERTEX
8
OBJECT__22
10
0
20
0
30
0
70
128
71
17
72
87
73
85
0
VERTEX
8
OBJECT__22
10
0
20
0
30
0
70
128
71
17
72
88
73
89
0
VERTEX
8
OBJECT__22
10
0
20
0
30
0
70
128
71
89
72
87
73
17
0
VERTEX
8
OBJECT__22
10
0
20
0
30
0
70
128
71
17
72
90
73
91
0
VERTEX
8
OBJECT__22
10
0
20
0
30
0
70
128
71
91
72
88
73
17
0
VERTEX
8
OBJECT__22
10
0
20
0
30
0
70
128
71
17
72
92
73
93
0
VERTEX
8
OBJECT__22
10
0
20
0
30
0
70
128
71
17
72
94
73
92
0
VERTEX
8
OBJECT__22
10
0
20
0
30
0
70
128
71
93
72
90
73
17
0
VERTEX
8
OBJECT__22
10
0
20
0
30
0
70
128
71
94
72
95
73
96
0
VERTEX
8
OBJECT__22
10
0
20
0
30
0
70
128
71
96
72
97
73
94
0
VERTEX
8
OBJECT__22
10
0
20
0
30
0
70
128
71
97
72
98
73
94
0
VERTEX
8
OBJECT__22
10
0
20
0
30
0
70
128
71
99
72
100
73
101
0
VERTEX
8
OBJECT__22
10
0
20
0
30
0
70
128
71
102
72
94
73
99
0
VERTEX
8
OBJECT__22
10
0
20
0
30
0
70
128
71
101
72
102
73
99
0
VERTEX
8
OBJECT__22
10
0
20
0
30
0
70
128
71
102
72
95
73
94
0
VERTEX
8
OBJECT__22
10
0
20
0
30
0
70
128
71
98
72
103
73
94
0
VERTEX
8
OBJECT__22
10
0
20
0
30
0
70
128
71
103
72
92
73
94
0
VERTEX
8
OBJECT__22
10
0
20
0
30
0
70
128
71
104
72
105
73
106
0
VERTEX
8
OBJECT__22
10
0
20
0
30
0
70
128
71
104
72
107
73
108
0
VERTEX
8
OBJECT__22
10
0
20
0
30
0
70
128
71
108
72
105
73
104
0
VERTEX
8
OBJECT__22
10
0
20
0
30
0
70
128
71
104
72
109
73
110
0
VERTEX
8
OBJECT__22
10
0
20
0
30
0
70
128
71
110
72
107
73
104
0
VERTEX
8
OBJECT__22
10
0
20
0
30
0
70
128
71
104
72
86
73
109
0
VERTEX
8
OBJECT__22
10
0
20
0
30
0
70
128
71
111
72
112
73
113
0
VERTEX
8
OBJECT__22
10
0
20
0
30
0
70
128
71
111
72
114
73
115
0
VERTEX
8
OBJECT__22
10
0
20
0
30
0
70
128
71
114
72
106
73
116
0
VERTEX
8
OBJECT__22
10
0
20
0
30
0
70
128
71
116
72
117
73
114
0
VERTEX
8
OBJECT__22
10
0
20
0
30
0
70
128
71
117
72
115
73
114
0
VERTEX
8
OBJECT__22
10
0
20
0
30
0
70
128
71
115
72
112
73
111
0
VERTEX
8
OBJECT__22
10
0
20
0
30
0
70
128
71
113
72
118
73
111
0
VERTEX
8
OBJECT__22
10
0
20
0
30
0
70
128
71
119
72
120
73
121
0
VERTEX
8
OBJECT__22
10
0
20
0
30
0
70
128
71
119
72
122
73
120
0
VERTEX
8
OBJECT__22
10
0
20
0
30
0
70
128
71
119
72
111
73
123
0
VERTEX
8
OBJECT__22
10
0
20
0
30
0
70
128
71
123
72
122
73
119
0
VERTEX
8
OBJECT__22
10
0
20
0
30
0
70
128
71
121
72
124
73
119
0
VERTEX
8
OBJECT__22
10
0
20
0
30
0
70
128
71
125
72
126
73
127
0
VERTEX
8
OBJECT__22
10
0
20
0
30
0
70
128
71
127
72
128
73
125
0
VERTEX
8
OBJECT__22
10
0
20
0
30
0
70
128
71
21
72
129
73
126
0
VERTEX
8
OBJECT__22
10
0
20
0
30
0
70
128
71
21
72
130
73
131
0
VERTEX
8
OBJECT__22
10
0
20
0
30
0
70
128
71
131
72
132
73
21
0
VERTEX
8
OBJECT__22
10
0
20
0
30
0
70
128
71
132
72
129
73
21
0
VERTEX
8
OBJECT__22
10
0
20
0
30
0
70
128
71
21
72
133
73
134
0
VERTEX
8
OBJECT__22
10
0
20
0
30
0
70
128
71
21
72
135
73
133
0
VERTEX
8
OBJECT__22
10
0
20
0
30
0
70
128
71
134
72
130
73
21
0
VERTEX
8
OBJECT__22
10
0
20
0
30
0
70
128
71
136
72
135
73
21
0
VERTEX
8
OBJECT__22
10
0
20
0
30
0
70
128
71
21
72
137
73
136
0
VERTEX
8
OBJECT__22
10
0
20
0
30
0
70
128
71
21
72
20
73
137
0
VERTEX
8
OBJECT__22
10
0
20
0
30
0
70
128
71
20
72
138
73
139
0
VERTEX
8
OBJECT__22
10
0
20
0
30
0
70
128
71
139
72
140
73
20
0
VERTEX
8
OBJECT__22
10
0
20
0
30
0
70
128
71
140
72
141
73
20
0
VERTEX
8
OBJECT__22
10
0
20
0
30
0
70
128
71
20
72
119
73
142
0
VERTEX
8
OBJECT__22
10
0
20
0
30
0
70
128
71
142
72
143
73
20
0
VERTEX
8
OBJECT__22
10
0
20
0
30
0
70
128
71
143
72
144
73
20
0
VERTEX
8
OBJECT__22
10
0
20
0
30
0
70
128
71
144
72
138
73
20
0
VERTEX
8
OBJECT__22
10
0
20
0
30
0
70
128
71
141
72
145
73
20
0
VERTEX
8
OBJECT__22
10
0
20
0
30
0
70
128
71
145
72
137
73
20
0
VERTEX
8
OBJECT__22
10
0
20
0
30
0
70
128
71
125
72
21
73
126
0
VERTEX
8
OBJECT__22
10
0
20
0
30
0
70
128
71
124
72
142
73
119
0
VERTEX
8
OBJECT__22
10
0
20
0
30
0
70
128
71
118
72
123
73
111
0
VERTEX
8
OBJECT__22
10
0
20
0
30
0
70
128
71
106
72
114
73
104
0
VERTEX
8
OBJECT__22
10
0
20
0
30
0
70
128
71
86
72
104
73
17
0
VERTEX
8
OBJECT__22
10
0
20
0
30
0
70
128
71
71
72
146
73
4
0
VERTEX
8
OBJECT__22
10
0
20
0
30
0
70
128
71
67
72
80
73
63
0
VERTEX
8
OBJECT__22
10
0
20
0
30
0
70
128
71
58
72
69
73
56
0
VERTEX
8
OBJECT__22
10
0
20
0
30
0
70
128
71
39
72
57
73
37
0
VERTEX
8
OBJECT__22
10
0
20
0
30
0
70
128
71
36
72
48
73
37
0
VERTEX
8
OBJECT__22
10
0
20
0
30
0
70
128
71
34
72
35
73
31
0
VERTEX
8
OBJECT__22
10
0
20
0
30
0
70
128
71
29
72
33
73
30
0
VERTEX
8
OBJECT__22
10
0
20
0
30
0
70
128
71
27
72
28
73
24
0
VERTEX
8
OBJECT__22
10
0
20
0
30
0
70
128
71
22
72
26
73
23
0
VERTEX
8
OBJECT__22
10
0
20
0
30
0
70
128
71
18
72
94
73
17
0
VERTEX
8
OBJECT__22
10
0
20
0
30
0
70
128
71
15
72
19
73
16
0
VERTEX
8
OBJECT__22
10
0
20
0
30
0
70
128
71
12
72
13
73
10
0
VERTEX
8
OBJECT__22
10
0
20
0
30
0
70
128
71
3
72
8
73
1
0
SEQEND
8
OBJECT__22
0
POLYLINE
8
OBJECT__23
66
1
70
64
71
36
72
34
62
253
0
VERTEX
8
OBJECT__23
10
67.406998
20
9.250000
30
-2.293000
70
192
0
VERTEX
8
OBJECT__23
10
67.383003
20
9.250000
30
-4.988000
70
192
0
VERTEX
8
OBJECT__23
10
69.400002
20
9.250000
30
-3.836000
70
192
0
VERTEX
8
OBJECT__23
10
67.389000
20
9.250000
30
4.859000
70
192
0
VERTEX
8
OBJECT__23
10
69.375999
20
9.250000
30
6.082000
70
192
0
VERTEX
8
OBJECT__23
10
69.369003
20
9.250000
30
6.713000
70
192
0
VERTEX
8
OBJECT__23
10
69.313004
20
9.250000
30
9.863000
70
192
0
VERTEX
8
OBJECT__23
10
67.336998
20
9.250000
30
8.783000
70
192
0
VERTEX
8
OBJECT__23
10
67.344002
20
9.250000
30
8.230000
70
192
0
VERTEX
8
OBJECT__23
10
69.373001
20
9.250000
30
-6.149000
70
192
0
VERTEX
8
OBJECT__23
10
67.411003
20
9.250000
30
0.000000
70
192
0
VERTEX
8
OBJECT__23
10
67.410004
20
9.250000
30
-1.926000
70
192
0
VERTEX
8
OBJECT__23
10
69.410004
20
9.250000
30
-1.093000
70
192
0
VERTEX
8
OBJECT__23
10
69.414001
20
9.250000
30
0.000000
70
192
0
VERTEX
8
OBJECT__23
10
69.410004
20
9.250000
30
1.093000
70
192
0
VERTEX
8
OBJECT__23
10
67.392998
20
9.250000
30
4.593000
70
192
0
VERTEX
8
OBJECT__23
10
67.407997
20
9.250000
30
2.285000
70
192
0
VERTEX
8
OBJECT__23
10
69.401001
20
9.250000
30
3.374000
70
192
0
VERTEX
8
OBJECT__23
10
67.319000
20
9.250000
30
-9.730000
70
192
0
VERTEX
8
OBJECT__23
10
67.245003
20
9.250000
30
-12.972000
70
192
0
VERTEX
8
OBJECT__23
10
69.281998
20
9.250000
30
-11.508000
70
192
0
VERTEX
8
OBJECT__23
10
69.314003
20
9.250000
30
-9.854000
70
192
0
VERTEX
8
OBJECT__23
10
69.356003
20
9.250000
30
-7.672000
70
192
0
VERTEX
8
OBJECT__23
10
67.344002
20
9.250000
30
-8.224000
70
192
0
VERTEX
8
OBJECT__23
10
69.401001
20
9.250000
30
-3.374000
70
192
0
VERTEX
8
OBJECT__23
10
67.411003
20
9.250000
30
1.799000
70
192
0
VERTEX
8
OBJECT__23
10
69.400002
20
9.250000
30
3.836000
70
192
0
VERTEX
8
OBJECT__23
10
69.179001
20
9.250000
30
-15.343000
70
192
0
VERTEX
8
OBJECT__23
10
67.365997
20
9.250000
30
-6.892000
70
192
0
VERTEX
8
OBJECT__23
10
69.292999
20
9.250000
30
11.029000
70
192
0
VERTEX
8
OBJECT__23
10
67.245003
20
9.250000
30
12.972000
70
192
0
VERTEX
8
OBJECT__23
10
69.179001
20
9.250000
30
15.343000
70
192
0
VERTEX
8
OBJECT__23
10
60.380001
20
9.250000
30
-15.432000
70
192
0
VERTEX
8
OBJECT__23
10
63.611000
20
9.250000
30
15.400000
70
192
0
VERTEX
8
OBJECT__23
10
63.611000
20
9.250000
30
13.011000
70
192
0
VERTEX
8
OBJECT__23
10
60.380001
20
9.250000
30
-13.046000
70
192
0
VERTEX
8
OBJECT__23
10
0
20
0
30
0
70
128
71
1
72
2
73
3
0
VERTEX
8
OBJECT__23
10
0
20
0
30
0
70
128
71
4
72
5
73
6
0
VERTEX
8
OBJECT__23
10
0
20
0
30
0
70
128
71
7
72
8
73
9
0
VERTEX
8
OBJECT__23
10
0
20
0
30
0
70
128
71
2
72
10
73
3
0
VERTEX
8
OBJECT__23
10
0
20
0
30
0
70
128
71
11
72
12
73
13
0
VERTEX
8
OBJECT__23
10
0
20
0
30
0
70
128
71
11
72
14
73
15
0
VERTEX
8
OBJECT__23
10
0
20
0
30
0
70
128
71
16
72
17
73
18
0
VERTEX
8
OBJECT__23
10
0
20
0
30
0
70
128
71
15
72
18
73
17
0
VERTEX
8
OBJECT__23
10
0
20
0
30
0
70
128
71
9
72
6
73
7
0
VERTEX
8
OBJECT__23
10
0
20
0
30
0
70
128
71
19
72
20
73
21
0
VERTEX
8
OBJECT__23
10
0
20
0
30
0
70
128
71
22
72
23
73
24
0
VERTEX
8
OBJECT__23
10
0
20
0
30
0
70
128
71
3
72
25
73
1
0
VERTEX
8
OBJECT__23
10
0
20
0
30
0
70
128
71
15
72
26
73
11
0
VERTEX
8
OBJECT__23
10
0
20
0
30
0
70
128
71
17
72
26
73
15
0
VERTEX
8
OBJECT__23
10
0
20
0
30
0
70
128
71
4
72
27
73
5
0
VERTEX
8
OBJECT__23
10
0
20
0
30
0
70
128
71
20
72
28
73
21
0
VERTEX
8
OBJECT__23
10
0
20
0
30
0
70
128
71
23
72
29
73
24
0
VERTEX
8
OBJECT__23
10
0
20
0
30
0
70
128
71
29
72
23
73
10
0
VERTEX
8
OBJECT__23
10
0
20
0
30
0
70
128
71
13
72
12
73
1
0
VERTEX
8
OBJECT__23
10
0
20
0
30
0
70
128
71
18
72
27
73
16
0
VERTEX
8
OBJECT__23
10
0
20
0
30
0
70
128
71
6
72
9
73
4
0
VERTEX
8
OBJECT__23
10
0
20
0
30
0
70
128
71
8
72
7
73
30
0
VERTEX
8
OBJECT__23
10
0
20
0
30
0
70
128
71
24
72
19
73
22
0
VERTEX
8
OBJECT__23
10
0
20
0
30
0
70
128
71
1
72
25
73
13
0
VERTEX
8
OBJECT__23
10
0
20
0
30
0
70
128
71
4
72
16
73
27
0
VERTEX
8
OBJECT__23
10
0
20
0
30
0
70
128
71
30
72
31
73
8
0
VERTEX
8
OBJECT__23
10
0
20
0
30
0
70
128
71
2
72
29
73
10
0
VERTEX
8
OBJECT__23
10
0
20
0
30
0
70
128
71
30
72
32
73
31
0
VERTEX
8
OBJECT__23
10
0
20
0
30
0
70
128
71
33
72
28
73
20
0
VERTEX
8
OBJECT__23
10
0
20
0
30
0
70
128
71
13
72
14
73
11
0
VERTEX
8
OBJECT__23
10
0
20
0
30
0
70
128
71
21
72
22
73
19
0
VERTEX
8
OBJECT__23
10
0
20
0
30
0
70
128
71
34
72
35
73
31
0
VERTEX
8
OBJECT__23
10
0
20
0
30
0
70
128
71
31
72
32
73
34
0
VERTEX
8
OBJECT__23
10
0
20
0
30
0
70
128
71
20
72
36
73
33
0
SEQEND
8
OBJECT__23
0
POLYLINE
8
OBJECT__24
66
1
70
64
71
31
72
29
62
253
0
VERTEX
8
OBJECT__24
10
69.179001
20
12.361000
30
12.968000
70
192
0
VERTEX
8
OBJECT__24
10
69.179001
20
9.250000
30
15.343000
70
192
0
VERTEX
8
OBJECT__24
10
69.292999
20
9.250000
30
11.029000
70
192
0
VERTEX
8
OBJECT__24
10
69.179001
20
15.004000
30
9.790000
70
192
0
VERTEX
8
OBJECT__24
10
69.179001
20
13.106000
30
12.072000
70
192
0
VERTEX
8
OBJECT__24
10
69.313004
20
9.250000
30
9.863000
70
192
0
VERTEX
8
OBJECT__24
10
69.369003
20
9.250000
30
6.713000
70
192
0
VERTEX
8
OBJECT__24
10
69.375999
20
9.250000
30
6.082000
70
192
0
VERTEX
8
OBJECT__24
10
69.179001
20
16.319000
30
7.153000
70
192
0
VERTEX
8
OBJECT__24
10
69.179001
20
16.849001
30
6.090000
70
192
0
VERTEX
8
OBJECT__24
10
69.400002
20
9.250000
30
3.836000
70
192
0
VERTEX
8
OBJECT__24
10
69.401001
20
9.250000
30
3.374000
70
192
0
VERTEX
8
OBJECT__24
10
69.179001
20
17.796000
30
2.067000
70
192
0
VERTEX
8
OBJECT__24
10
69.179001
20
17.796000
30
-2.067000
70
192
0
VERTEX
8
OBJECT__24
10
69.179001
20
17.796000
30
1.479000
70
192
0
VERTEX
8
OBJECT__24
10
69.414001
20
9.250000
30
0.000000
70
192
0
VERTEX
8
OBJECT__24
10
69.410004
20
9.250000
30
1.093000
70
192
0
VERTEX
8
OBJECT__24
10
69.410004
20
9.250000
30
-1.093000
70
192
0
VERTEX
8
OBJECT__24
10
69.401001
20
9.250000
30
-3.374000
70
192
0
VERTEX
8
OBJECT__24
10
69.179001
20
16.849001
30
-6.090000
70
192
0
VERTEX
8
OBJECT__24
10
69.179001
20
17.253000
30
-4.371000
70
192
0
VERTEX
8
OBJECT__24
10
69.400002
20
9.250000
30
-3.836000
70
192
0
VERTEX
8
OBJECT__24
10
69.373001
20
9.250000
30
-6.149000
70
192
0
VERTEX
8
OBJECT__24
10
69.179001
20
14.997000
30
-9.798000
70
192
0
VERTEX
8
OBJECT__24
10
69.356003
20
9.250000
30
-7.672000
70
192
0
VERTEX
8
OBJECT__24
10
69.314003
20
9.250000
30
-9.854000
70
192
0
VERTEX
8
OBJECT__24
10
69.179001
20
12.361000
30
-12.968000
70
192
0
VERTEX
8
OBJECT__24
10
69.281998
20
9.250000
30
-11.508000
70
192
0
VERTEX
8
OBJECT__24
10
69.179001
20
9.250000
30
-15.343000
70
192
0
VERTEX
8
OBJECT__24
10
69.179001
20
10.939000
30
-14.053000
70
192
0
VERTEX
8
OBJECT__24
10
69.179001
20
15.004000
30
-9.790000
70
192
0
VERTEX
8
OBJECT__24
10
0
20
0
30
0
70
128
71
1
72
2
73
3
0
VERTEX
8
OBJECT__24
10
0
20
0
30
0
70
128
71
4
72
5
73
6
0
VERTEX
8
OBJECT__24
10
0
20
0
30
0
70
128
71
6
72
7
73
4
0
VERTEX
8
OBJECT__24
10
0
20
0
30
0
70
128
71
7
72
8
73
4
0
VERTEX
8
OBJECT__24
10
0
20
0
30
0
70
128
71
9
72
4
73
8
0
VERTEX
8
OBJECT__24
10
0
20
0
30
0
70
128
71
10
72
9
73
11
0
VERTEX
8
OBJECT__24
10
0
20
0
30
0
70
128
71
11
72
12
73
10
0
VERTEX
8
OBJECT__24
10
0
20
0
30
0
70
128
71
13
72
10
73
12
0
VERTEX
8
OBJECT__24
10
0
20
0
30
0
70
128
71
14
72
15
73
16
0
VERTEX
8
OBJECT__24
10
0
20
0
30
0
70
128
71
15
72
17
73
16
0
VERTEX
8
OBJECT__24
10
0
20
0
30
0
70
128
71
16
72
18
73
14
0
VERTEX
8
OBJECT__24
10
0
20
0
30
0
70
128
71
14
72
18
73
19
0
VERTEX
8
OBJECT__24
10
0
20
0
30
0
70
128
71
19
72
20
73
21
0
VERTEX
8
OBJECT__24
10
0
20
0
30
0
70
128
71
20
72
22
73
23
0
VERTEX
8
OBJECT__24
10
0
20
0
30
0
70
128
71
20
72
19
73
22
0
VERTEX
8
OBJECT__24
10
0
20
0
30
0
70
128
71
24
72
25
73
26
0
VERTEX
8
OBJECT__24
10
0
20
0
30
0
70
128
71
24
72
23
73
25
0
VERTEX
8
OBJECT__24
10
0
20
0
30
0
70
128
71
26
72
27
73
24
0
VERTEX
8
OBJECT__24
10
0
20
0
30
0
70
128
71
27
72
26
73
28
0
VERTEX
8
OBJECT__24
10
0
20
0
30
0
70
128
71
28
72
29
73
30
0
VERTEX
8
OBJECT__24
10
0
20
0
30
0
70
128
71
28
72
30
73
27
0
VERTEX
8
OBJECT__24
10
0
20
0
30
0
70
128
71
24
72
31
73
23
0
VERTEX
8
OBJECT__24
10
0
20
0
30
0
70
128
71
23
72
31
73
20
0
VERTEX
8
OBJECT__24
10
0
20
0
30
0
70
128
71
19
72
21
73
14
0
VERTEX
8
OBJECT__24
10
0
20
0
30
0
70
128
71
15
72
13
73
17
0
VERTEX
8
OBJECT__24
10
0
20
0
30
0
70
128
71
12
72
17
73
13
0
VERTEX
8
OBJECT__24
10
0
20
0
30
0
70
128
71
8
72
11
73
9
0
VERTEX
8
OBJECT__24
10
0
20
0
30
0
70
128
71
5
72
1
73
6
0
VERTEX
8
OBJECT__24
10
0
20
0
30
0
70
128
71
3
72
6
73
1
0
SEQEND
8
OBJECT__24
0
ENDSEC
0
EOF
