999
Converted by 3D Exploration 
999
XDimension Software, LLC
999
http://www.xdsoft.com/explorer/
0
SECTION
2
HEADER
9
$ACADVER
1
AC1008
9
$UCSORG
10
0.0
20
0.0
30
0.0
9
$UCSXDIR
10
1.0
20
0.0
30
0.0
9
$TILEMODE
70
1
9
$UCSYDIR
10
0.0
20
1.0
30
0.0
9
$EXTMIN
10
-0.004000
20
-18.500000
30
-18.500000
9
$EXTMAX
10
67.210999
20
18.500000
30
18.500000
0
ENDSEC
0
SECTION
2
TABLES
0
TABLE
2
LTYPE
70
1
0
LTYPE
2
CONTINUOUS
70
64
3
Solid line
72
65
73
0
40
0.0
0
ENDTAB
0
TABLE
2
LAYER
70
18
0
LAYER
2
OBJECT__0
70
0
62
253
6
CONTINUOUS
0
LAYER
2
OBJECT__1
70
0
62
253
6
CONTINUOUS
0
LAYER
2
OBJECT__3
70
0
62
253
6
CONTINUOUS
0
LAYER
2
OBJECT__4
70
0
62
253
6
CONTINUOUS
0
LAYER
2
OBJECT__5
70
0
62
253
6
CONTINUOUS
0
LAYER
2
OBJECT__6
70
0
62
253
6
CONTINUOUS
0
LAYER
2
OBJECT__7
70
0
62
253
6
CONTINUOUS
0
LAYER
2
OBJECT__8
70
0
62
253
6
CONTINUOUS
0
LAYER
2
OBJECT__9
70
0
62
253
6
CONTINUOUS
0
LAYER
2
OBJECT__11
70
0
62
253
6
CONTINUOUS
0
LAYER
2
OBJECT__12
70
0
62
253
6
CONTINUOUS
0
LAYER
2
OBJECT__13
70
0
62
253
6
CONTINUOUS
0
LAYER
2
OBJECT__14
70
0
62
253
6
CONTINUOUS
0
LAYER
2
OBJECT__15
70
0
62
253
6
CONTINUOUS
0
LAYER
2
OBJECT__16
70
0
62
253
6
CONTINUOUS
0
LAYER
2
OBJECT__17
70
0
62
253
6
CONTINUOUS
0
ENDTAB
0
TABLE
2
STYLE
70
1
0
STYLE
2
STANDARD
70
0
40
0.0
41
1.0
50
0.0
71
0
42
0.2
3
txt
4
1
0
ENDTAB
0
TABLE
2
UCS
70
0
0
ENDTAB
0
ENDSEC
0
SECTION
2
ENTITIES
0
POLYLINE
8
OBJECT__0
66
1
70
64
71
13
72
11
62
253
0
VERTEX
8
OBJECT__0
10
-0.004000
20
-10.809000
30
12.201000
70
192
0
VERTEX
8
OBJECT__0
10
-0.004000
20
15.241000
30
5.780000
70
192
0
VERTEX
8
OBJECT__0
10
-0.004000
20
16.181000
30
-1.965000
70
192
0
VERTEX
8
OBJECT__0
10
-0.004000
20
13.415000
30
-9.259000
70
192
0
VERTEX
8
OBJECT__0
10
-0.004000
20
-7.575000
30
-14.433000
70
192
0
VERTEX
8
OBJECT__0
10
-0.004000
20
-13.415000
30
-9.259000
70
192
0
VERTEX
8
OBJECT__0
10
-0.004000
20
7.575000
30
-14.433000
70
192
0
VERTEX
8
OBJECT__0
10
-0.004000
20
10.809000
30
12.201000
70
192
0
VERTEX
8
OBJECT__0
10
-0.004000
20
-3.901000
30
15.826000
70
192
0
VERTEX
8
OBJECT__0
10
-0.004000
20
0.000000
30
-16.299999
70
192
0
VERTEX
8
OBJECT__0
10
-0.004000
20
3.901000
30
15.826000
70
192
0
VERTEX
8
OBJECT__0
10
-0.004000
20
-16.181000
30
-1.965000
70
192
0
VERTEX
8
OBJECT__0
10
-0.004000
20
-15.241000
30
5.780000
70
192
0
VERTEX
8
OBJECT__0
10
0
20
0
30
0
70
128
71
1
72
2
73
3
0
VERTEX
8
OBJECT__0
10
0
20
0
30
0
70
128
71
4
72
5
73
6
0
VERTEX
8
OBJECT__0
10
0
20
0
30
0
70
128
71
5
72
4
73
7
0
VERTEX
8
OBJECT__0
10
0
20
0
30
0
70
128
71
1
72
8
73
2
0
VERTEX
8
OBJECT__0
10
0
20
0
30
0
70
128
71
8
72
1
73
9
0
VERTEX
8
OBJECT__0
10
0
20
0
30
0
70
128
71
7
72
10
73
5
0
VERTEX
8
OBJECT__0
10
0
20
0
30
0
70
128
71
9
72
11
73
8
0
VERTEX
8
OBJECT__0
10
0
20
0
30
0
70
128
71
6
72
12
73
4
0
VERTEX
8
OBJECT__0
10
0
20
0
30
0
70
128
71
4
72
13
73
1
0
VERTEX
8
OBJECT__0
10
0
20
0
30
0
70
128
71
3
72
4
73
1
0
VERTEX
8
OBJECT__0
10
0
20
0
30
0
70
128
71
12
72
13
73
4
0
SEQEND
8
OBJECT__0
0
POLYLINE
8
OBJECT__1
66
1
70
64
71
120
72
120
62
253
0
VERTEX
8
OBJECT__1
10
-0.004000
20
-13.415000
30
-9.259000
70
192
0
VERTEX
8
OBJECT__1
10
64.848000
20
-12.862000
30
-8.892000
70
192
0
VERTEX
8
OBJECT__1
10
64.848000
20
-14.913000
30
-5.016000
70
192
0
VERTEX
8
OBJECT__1
10
-0.004000
20
-16.181000
30
-1.965000
70
192
0
VERTEX
8
OBJECT__1
10
-0.004000
20
-15.241000
30
5.780000
70
192
0
VERTEX
8
OBJECT__1
10
64.848000
20
-15.734000
30
0.000000
70
192
0
VERTEX
8
OBJECT__1
10
64.848000
20
-15.429000
30
-1.865000
70
192
0
VERTEX
8
OBJECT__1
10
64.848000
20
-14.913000
30
5.016000
70
192
0
VERTEX
8
OBJECT__1
10
-0.004000
20
15.241000
30
5.780000
70
192
0
VERTEX
8
OBJECT__1
10
64.848000
20
14.913000
30
5.016000
70
192
0
VERTEX
8
OBJECT__1
10
64.848000
20
15.734000
30
0.000000
70
192
0
VERTEX
8
OBJECT__1
10
-0.004000
20
16.181000
30
-1.965000
70
192
0
VERTEX
8
OBJECT__1
10
64.848000
20
14.636000
30
5.539000
70
192
0
VERTEX
8
OBJECT__1
10
-0.004000
20
13.415000
30
-9.259000
70
192
0
VERTEX
8
OBJECT__1
10
64.848000
20
14.913000
30
-5.016000
70
192
0
VERTEX
8
OBJECT__1
10
64.848000
20
15.429000
30
-1.865000
70
192
0
VERTEX
8
OBJECT__1
10
46.363998
20
7.539000
30
-13.994000
70
192
0
VERTEX
8
OBJECT__1
10
46.219002
20
7.385000
30
-14.071000
70
192
0
VERTEX
8
OBJECT__1
10
47.207001
20
8.228000
30
-13.592000
70
192
0
VERTEX
8
OBJECT__1
10
49.547001
20
9.495000
30
-12.713000
70
192
0
VERTEX
8
OBJECT__1
10
49.214001
20
9.363000
30
-12.814000
70
192
0
VERTEX
8
OBJECT__1
10
48.716000
20
9.081000
30
-13.007000
70
192
0
VERTEX
8
OBJECT__1
10
51.598000
20
10.025000
30
-12.277000
70
192
0
VERTEX
8
OBJECT__1
10
64.848000
20
12.862000
30
-8.892000
70
192
0
VERTEX
8
OBJECT__1
10
52.366001
20
10.105000
30
-12.202000
70
192
0
VERTEX
8
OBJECT__1
10
54.424000
20
10.017000
30
-12.251000
70
192
0
VERTEX
8
OBJECT__1
10
54.256001
20
10.024000
30
-12.247000
70
192
0
VERTEX
8
OBJECT__1
10
64.848000
20
12.536000
30
-9.509000
70
192
0
VERTEX
8
OBJECT__1
10
64.848000
20
9.000000
30
-12.906000
70
192
0
VERTEX
8
OBJECT__1
10
57.522999
20
9.000000
30
-12.984000
70
192
0
VERTEX
8
OBJECT__1
10
57.060001
20
9.228000
30
-12.827000
70
192
0
VERTEX
8
OBJECT__1
10
55.063999
20
9.899000
30
-12.340000
70
192
0
VERTEX
8
OBJECT__1
10
-0.004000
20
0.000000
30
-16.299999
70
192
0
VERTEX
8
OBJECT__1
10
43.057999
20
0.396000
30
-15.919000
70
192
0
VERTEX
8
OBJECT__1
10
43.084999
20
0.002000
30
-15.902000
70
192
0
VERTEX
8
OBJECT__1
10
-0.004000
20
7.575000
30
-14.433000
70
192
0
VERTEX
8
OBJECT__1
10
43.165001
20
1.532000
30
-15.849000
70
192
0
VERTEX
8
OBJECT__1
10
45.321999
20
6.433000
30
-14.545000
70
192
0
VERTEX
8
OBJECT__1
10
44.608002
20
5.316000
30
-14.963000
70
192
0
VERTEX
8
OBJECT__1
10
44.101002
20
4.522000
30
-15.259000
70
192
0
VERTEX
8
OBJECT__1
10
43.723999
20
3.657000
30
-15.493000
70
192
0
VERTEX
8
OBJECT__1
10
-0.004000
20
-7.575000
30
-14.433000
70
192
0
VERTEX
8
OBJECT__1
10
44.476002
20
-5.215000
30
-15.033000
70
192
0
VERTEX
8
OBJECT__1
10
44.570000
20
-5.339000
30
-14.980000
70
192
0
VERTEX
8
OBJECT__1
10
43.382000
20
-2.588000
30
-15.710000
70
192
0
VERTEX
8
OBJECT__1
10
44.185001
20
-4.690000
30
-15.208000
70
192
0
VERTEX
8
OBJECT__1
10
45.891998
20
-7.079000
30
-14.237000
70
192
0
VERTEX
8
OBJECT__1
10
43.209999
20
-1.802000
30
-15.821000
70
192
0
VERTEX
8
OBJECT__1
10
43.084999
20
0.001000
30
-15.902000
70
192
0
VERTEX
8
OBJECT__1
10
64.848000
20
-12.536000
30
-9.509000
70
192
0
VERTEX
8
OBJECT__1
10
57.122002
20
-9.199000
30
-12.847000
70
192
0
VERTEX
8
OBJECT__1
10
57.522999
20
-9.000000
30
-12.984000
70
192
0
VERTEX
8
OBJECT__1
10
64.848000
20
-9.000000
30
-12.906000
70
192
0
VERTEX
8
OBJECT__1
10
56.811001
20
-9.339000
30
-12.750000
70
192
0
VERTEX
8
OBJECT__1
10
54.770000
20
-9.959000
30
-12.295000
70
192
0
VERTEX
8
OBJECT__1
10
54.068001
20
-10.064000
30
-12.217000
70
192
0
VERTEX
8
OBJECT__1
10
54.256001
20
-10.036000
30
-12.238000
70
192
0
VERTEX
8
OBJECT__1
10
51.403000
20
-9.995000
30
-12.303000
70
192
0
VERTEX
8
OBJECT__1
10
52.012001
20
-10.076000
30
-12.230000
70
192
0
VERTEX
8
OBJECT__1
10
49.393002
20
-9.436000
30
-12.759000
70
192
0
VERTEX
8
OBJECT__1
10
48.269001
20
-8.905000
30
-13.147000
70
192
0
VERTEX
8
OBJECT__1
10
48.700001
20
-9.108000
30
-12.998000
70
192
0
VERTEX
8
OBJECT__1
10
46.209999
20
-7.386000
30
-14.074000
70
192
0
VERTEX
8
OBJECT__1
10
46.414001
20
-7.584000
30
-13.969000
70
192
0
VERTEX
8
OBJECT__1
10
64.848000
20
-10.309000
30
11.648000
70
192
0
VERTEX
8
OBJECT__1
10
64.848000
20
-9.000000
30
12.906000
70
192
0
VERTEX
8
OBJECT__1
10
60.043999
20
-9.000000
30
12.957000
70
192
0
VERTEX
8
OBJECT__1
10
58.943001
20
-9.732000
30
12.429000
70
192
0
VERTEX
8
OBJECT__1
10
50.008999
20
-10.968000
30
11.461000
70
192
0
VERTEX
8
OBJECT__1
10
48.790001
20
-10.520000
30
11.875000
70
192
0
VERTEX
8
OBJECT__1
10
50.682999
20
-11.121000
30
11.305000
70
192
0
VERTEX
8
OBJECT__1
10
64.848000
20
-14.636000
30
5.539000
70
192
0
VERTEX
8
OBJECT__1
10
52.863998
20
-11.342000
30
11.056000
70
192
0
VERTEX
8
OBJECT__1
10
55.736000
20
-11.017000
30
11.344000
70
192
0
VERTEX
8
OBJECT__1
10
54.403999
20
-11.209000
30
11.169000
70
192
0
VERTEX
8
OBJECT__1
10
53.589001
20
-11.326000
30
11.063000
70
192
0
VERTEX
8
OBJECT__1
10
64.848000
20
-12.536000
30
9.509000
70
192
0
VERTEX
8
OBJECT__1
10
57.331001
20
-10.471000
30
11.819000
70
192
0
VERTEX
8
OBJECT__1
10
56.837002
20
-10.698000
30
11.633000
70
192
0
VERTEX
8
OBJECT__1
10
-0.004000
20
-10.809000
30
12.201000
70
192
0
VERTEX
8
OBJECT__1
10
42.154999
20
-4.086000
30
15.399000
70
192
0
VERTEX
8
OBJECT__1
10
42.077000
20
-3.810000
30
15.453000
70
192
0
VERTEX
8
OBJECT__1
10
43.978001
20
-7.170000
30
14.210000
70
192
0
VERTEX
8
OBJECT__1
10
43.294998
20
-6.148000
30
14.649000
70
192
0
VERTEX
8
OBJECT__1
10
44.726002
20
-7.986000
30
13.760000
70
192
0
VERTEX
8
OBJECT__1
10
42.671001
20
-5.214000
30
15.050000
70
192
0
VERTEX
8
OBJECT__1
10
46.695999
20
-9.547000
30
12.705000
70
192
0
VERTEX
8
OBJECT__1
10
47.769001
20
-10.144000
30
12.222000
70
192
0
VERTEX
8
OBJECT__1
10
48.145000
20
-10.282000
30
12.094000
70
192
0
VERTEX
8
OBJECT__1
10
-0.004000
20
3.901000
30
15.826000
70
192
0
VERTEX
8
OBJECT__1
10
-0.004000
20
-3.901000
30
15.826000
70
192
0
VERTEX
8
OBJECT__1
10
41.388000
20
-0.403000
30
15.934000
70
192
0
VERTEX
8
OBJECT__1
10
41.414001
20
-0.002000
30
15.915000
70
192
0
VERTEX
8
OBJECT__1
10
41.536999
20
1.862000
30
15.828000
70
192
0
VERTEX
8
OBJECT__1
10
41.734001
20
2.788000
30
15.690000
70
192
0
VERTEX
8
OBJECT__1
10
41.544998
20
-1.910000
30
15.823000
70
192
0
VERTEX
8
OBJECT__1
10
-0.004000
20
10.809000
30
12.201000
70
192
0
VERTEX
8
OBJECT__1
10
48.084000
20
10.292000
30
12.094000
70
192
0
VERTEX
8
OBJECT__1
10
48.134998
20
10.309000
30
12.078000
70
192
0
VERTEX
8
OBJECT__1
10
42.868999
20
5.574000
30
14.919000
70
192
0
VERTEX
8
OBJECT__1
10
43.287998
20
6.150000
30
14.653000
70
192
0
VERTEX
8
OBJECT__1
10
42.112000
20
3.803000
30
15.431000
70
192
0
VERTEX
8
OBJECT__1
10
42.544998
20
4.967000
30
15.135000
70
192
0
VERTEX
8
OBJECT__1
10
44.307999
20
7.550000
30
14.008000
70
192
0
VERTEX
8
OBJECT__1
10
44.883999
20
8.140000
30
13.668000
70
192
0
VERTEX
8
OBJECT__1
10
46.865002
20
9.651000
30
12.625000
70
192
0
VERTEX
8
OBJECT__1
10
64.848000
20
12.536000
30
9.509000
70
192
0
VERTEX
8
OBJECT__1
10
57.335999
20
10.514000
30
11.793000
70
192
0
VERTEX
8
OBJECT__1
10
57.423000
20
10.476000
30
11.825000
70
192
0
VERTEX
8
OBJECT__1
10
64.848000
20
10.309000
30
11.648000
70
192
0
VERTEX
8
OBJECT__1
10
55.132999
20
11.145000
30
11.226000
70
192
0
VERTEX
8
OBJECT__1
10
54.224998
20
11.276000
30
11.106000
70
192
0
VERTEX
8
OBJECT__1
10
54.410000
20
11.249000
30
11.130000
70
192
0
VERTEX
8
OBJECT__1
10
51.189999
20
11.209000
30
11.211000
70
192
0
VERTEX
8
OBJECT__1
10
52.047001
20
11.306000
30
11.102000
70
192
0
VERTEX
8
OBJECT__1
10
50.216999
20
11.020000
30
11.409000
70
192
0
VERTEX
8
OBJECT__1
10
48.757999
20
10.522000
30
11.877000
70
192
0
VERTEX
8
OBJECT__1
10
57.965000
20
10.244000
30
12.022000
70
192
0
VERTEX
8
OBJECT__1
10
60.043999
20
9.000000
30
12.957000
70
192
0
VERTEX
8
OBJECT__1
10
64.848000
20
9.000000
30
12.906000
70
192
0
VERTEX
8
OBJECT__1
10
0
20
0
30
0
70
128
71
1
72
2
73
3
0
VERTEX
8
OBJECT__1
10
0
20
0
30
0
70
128
71
3
72
4
73
1
0
VERTEX
8
OBJECT__1
10
0
20
0
30
0
70
128
71
5
72
4
73
6
0
VERTEX
8
OBJECT__1
10
0
20
0
30
0
70
128
71
4
72
7
73
6
0
VERTEX
8
OBJECT__1
10
0
20
0
30
0
70
128
71
6
72
8
73
5
0
VERTEX
8
OBJECT__1
10
0
20
0
30
0
70
128
71
9
72
10
73
11
0
VERTEX
8
OBJECT__1
10
0
20
0
30
0
70
128
71
11
72
12
73
9
0
VERTEX
8
OBJECT__1
10
0
20
0
30
0
70
128
71
9
72
13
73
10
0
VERTEX
8
OBJECT__1
10
0
20
0
30
0
70
128
71
14
72
12
73
15
0
VERTEX
8
OBJECT__1
10
0
20
0
30
0
70
128
71
12
72
16
73
15
0
VERTEX
8
OBJECT__1
10
0
20
0
30
0
70
128
71
14
72
17
73
18
0
VERTEX
8
OBJECT__1
10
0
20
0
30
0
70
128
71
14
72
19
73
17
0
VERTEX
8
OBJECT__1
10
0
20
0
30
0
70
128
71
14
72
20
73
21
0
VERTEX
8
OBJECT__1
10
0
20
0
30
0
70
128
71
21
72
22
73
14
0
VERTEX
8
OBJECT__1
10
0
20
0
30
0
70
128
71
22
72
19
73
14
0
VERTEX
8
OBJECT__1
10
0
20
0
30
0
70
128
71
14
72
23
73
20
0
VERTEX
8
OBJECT__1
10
0
20
0
30
0
70
128
71
14
72
24
73
25
0
VERTEX
8
OBJECT__1
10
0
20
0
30
0
70
128
71
25
72
23
73
14
0
VERTEX
8
OBJECT__1
10
0
20
0
30
0
70
128
71
24
72
26
73
27
0
VERTEX
8
OBJECT__1
10
0
20
0
30
0
70
128
71
28
72
29
73
30
0
VERTEX
8
OBJECT__1
10
0
20
0
30
0
70
128
71
31
72
24
73
28
0
VERTEX
8
OBJECT__1
10
0
20
0
30
0
70
128
71
30
72
31
73
28
0
VERTEX
8
OBJECT__1
10
0
20
0
30
0
70
128
71
31
72
32
73
24
0
VERTEX
8
OBJECT__1
10
0
20
0
30
0
70
128
71
32
72
26
73
24
0
VERTEX
8
OBJECT__1
10
0
20
0
30
0
70
128
71
27
72
25
73
24
0
VERTEX
8
OBJECT__1
10
0
20
0
30
0
70
128
71
33
72
34
73
35
0
VERTEX
8
OBJECT__1
10
0
20
0
30
0
70
128
71
36
72
37
73
34
0
VERTEX
8
OBJECT__1
10
0
20
0
30
0
70
128
71
36
72
38
73
39
0
VERTEX
8
OBJECT__1
10
0
20
0
30
0
70
128
71
39
72
40
73
36
0
VERTEX
8
OBJECT__1
10
0
20
0
30
0
70
128
71
40
72
41
73
36
0
VERTEX
8
OBJECT__1
10
0
20
0
30
0
70
128
71
41
72
37
73
36
0
VERTEX
8
OBJECT__1
10
0
20
0
30
0
70
128
71
34
72
33
73
36
0
VERTEX
8
OBJECT__1
10
0
20
0
30
0
70
128
71
36
72
18
73
38
0
VERTEX
8
OBJECT__1
10
0
20
0
30
0
70
128
71
42
72
43
73
44
0
VERTEX
8
OBJECT__1
10
0
20
0
30
0
70
128
71
42
72
45
73
46
0
VERTEX
8
OBJECT__1
10
0
20
0
30
0
70
128
71
46
72
43
73
42
0
VERTEX
8
OBJECT__1
10
0
20
0
30
0
70
128
71
44
72
47
73
42
0
VERTEX
8
OBJECT__1
10
0
20
0
30
0
70
128
71
42
72
48
73
45
0
VERTEX
8
OBJECT__1
10
0
20
0
30
0
70
128
71
42
72
33
73
49
0
VERTEX
8
OBJECT__1
10
0
20
0
30
0
70
128
71
49
72
48
73
42
0
VERTEX
8
OBJECT__1
10
0
20
0
30
0
70
128
71
50
72
51
73
52
0
VERTEX
8
OBJECT__1
10
0
20
0
30
0
70
128
71
52
72
53
73
50
0
VERTEX
8
OBJECT__1
10
0
20
0
30
0
70
128
71
2
72
54
73
51
0
VERTEX
8
OBJECT__1
10
0
20
0
30
0
70
128
71
2
72
55
73
54
0
VERTEX
8
OBJECT__1
10
0
20
0
30
0
70
128
71
2
72
56
73
57
0
VERTEX
8
OBJECT__1
10
0
20
0
30
0
70
128
71
57
72
55
73
2
0
VERTEX
8
OBJECT__1
10
0
20
0
30
0
70
128
71
1
72
58
73
59
0
VERTEX
8
OBJECT__1
10
0
20
0
30
0
70
128
71
1
72
60
73
58
0
VERTEX
8
OBJECT__1
10
0
20
0
30
0
70
128
71
59
72
2
73
1
0
VERTEX
8
OBJECT__1
10
0
20
0
30
0
70
128
71
59
72
56
73
2
0
VERTEX
8
OBJECT__1
10
0
20
0
30
0
70
128
71
1
72
61
73
62
0
VERTEX
8
OBJECT__1
10
0
20
0
30
0
70
128
71
1
72
42
73
63
0
VERTEX
8
OBJECT__1
10
0
20
0
30
0
70
128
71
63
72
64
73
1
0
VERTEX
8
OBJECT__1
10
0
20
0
30
0
70
128
71
64
72
61
73
1
0
VERTEX
8
OBJECT__1
10
0
20
0
30
0
70
128
71
62
72
60
73
1
0
VERTEX
8
OBJECT__1
10
0
20
0
30
0
70
128
71
65
72
66
73
67
0
VERTEX
8
OBJECT__1
10
0
20
0
30
0
70
128
71
67
72
68
73
65
0
VERTEX
8
OBJECT__1
10
0
20
0
30
0
70
128
71
5
72
69
73
70
0
VERTEX
8
OBJECT__1
10
0
20
0
30
0
70
128
71
5
72
71
73
69
0
VERTEX
8
OBJECT__1
10
0
20
0
30
0
70
128
71
72
72
73
73
71
0
VERTEX
8
OBJECT__1
10
0
20
0
30
0
70
128
71
71
72
5
73
72
0
VERTEX
8
OBJECT__1
10
0
20
0
30
0
70
128
71
72
72
74
73
75
0
VERTEX
8
OBJECT__1
10
0
20
0
30
0
70
128
71
75
72
76
73
72
0
VERTEX
8
OBJECT__1
10
0
20
0
30
0
70
128
71
76
72
73
73
72
0
VERTEX
8
OBJECT__1
10
0
20
0
30
0
70
128
71
77
72
65
73
78
0
VERTEX
8
OBJECT__1
10
0
20
0
30
0
70
128
71
79
72
72
73
77
0
VERTEX
8
OBJECT__1
10
0
20
0
30
0
70
128
71
78
72
79
73
77
0
VERTEX
8
OBJECT__1
10
0
20
0
30
0
70
128
71
79
72
74
73
72
0
VERTEX
8
OBJECT__1
10
0
20
0
30
0
70
128
71
80
72
81
73
82
0
VERTEX
8
OBJECT__1
10
0
20
0
30
0
70
128
71
80
72
83
73
84
0
VERTEX
8
OBJECT__1
10
0
20
0
30
0
70
128
71
80
72
85
73
83
0
VERTEX
8
OBJECT__1
10
0
20
0
30
0
70
128
71
84
72
86
73
80
0
VERTEX
8
OBJECT__1
10
0
20
0
30
0
70
128
71
80
72
87
73
85
0
VERTEX
8
OBJECT__1
10
0
20
0
30
0
70
128
71
86
72
81
73
80
0
VERTEX
8
OBJECT__1
10
0
20
0
30
0
70
128
71
80
72
88
73
87
0
VERTEX
8
OBJECT__1
10
0
20
0
30
0
70
128
71
80
72
70
73
89
0
VERTEX
8
OBJECT__1
10
0
20
0
30
0
70
128
71
89
72
88
73
80
0
VERTEX
8
OBJECT__1
10
0
20
0
30
0
70
128
71
90
72
91
73
92
0
VERTEX
8
OBJECT__1
10
0
20
0
30
0
70
128
71
92
72
93
73
90
0
VERTEX
8
OBJECT__1
10
0
20
0
30
0
70
128
71
93
72
94
73
90
0
VERTEX
8
OBJECT__1
10
0
20
0
30
0
70
128
71
94
72
95
73
90
0
VERTEX
8
OBJECT__1
10
0
20
0
30
0
70
128
71
91
72
82
73
96
0
VERTEX
8
OBJECT__1
10
0
20
0
30
0
70
128
71
96
72
92
73
91
0
VERTEX
8
OBJECT__1
10
0
20
0
30
0
70
128
71
97
72
98
73
99
0
VERTEX
8
OBJECT__1
10
0
20
0
30
0
70
128
71
97
72
100
73
101
0
VERTEX
8
OBJECT__1
10
0
20
0
30
0
70
128
71
97
72
90
73
102
0
VERTEX
8
OBJECT__1
10
0
20
0
30
0
70
128
71
102
72
103
73
97
0
VERTEX
8
OBJECT__1
10
0
20
0
30
0
70
128
71
103
72
100
73
97
0
VERTEX
8
OBJECT__1
10
0
20
0
30
0
70
128
71
101
72
104
73
97
0
VERTEX
8
OBJECT__1
10
0
20
0
30
0
70
128
71
104
72
105
73
97
0
VERTEX
8
OBJECT__1
10
0
20
0
30
0
70
128
71
105
72
106
73
97
0
VERTEX
8
OBJECT__1
10
0
20
0
30
0
70
128
71
106
72
98
73
97
0
VERTEX
8
OBJECT__1
10
0
20
0
30
0
70
128
71
107
72
108
73
109
0
VERTEX
8
OBJECT__1
10
0
20
0
30
0
70
128
71
109
72
110
73
107
0
VERTEX
8
OBJECT__1
10
0
20
0
30
0
70
128
71
13
72
111
73
108
0
VERTEX
8
OBJECT__1
10
0
20
0
30
0
70
128
71
13
72
112
73
113
0
VERTEX
8
OBJECT__1
10
0
20
0
30
0
70
128
71
113
72
111
73
13
0
VERTEX
8
OBJECT__1
10
0
20
0
30
0
70
128
71
9
72
114
73
115
0
VERTEX
8
OBJECT__1
10
0
20
0
30
0
70
128
71
9
72
116
73
114
0
VERTEX
8
OBJECT__1
10
0
20
0
30
0
70
128
71
9
72
97
73
117
0
VERTEX
8
OBJECT__1
10
0
20
0
30
0
70
128
71
117
72
116
73
9
0
VERTEX
8
OBJECT__1
10
0
20
0
30
0
70
128
71
115
72
13
73
9
0
VERTEX
8
OBJECT__1
10
0
20
0
30
0
70
128
71
115
72
112
73
13
0
VERTEX
8
OBJECT__1
10
0
20
0
30
0
70
128
71
110
72
118
73
119
0
VERTEX
8
OBJECT__1
10
0
20
0
30
0
70
128
71
110
72
109
73
118
0
VERTEX
8
OBJECT__1
10
0
20
0
30
0
70
128
71
119
72
120
73
110
0
VERTEX
8
OBJECT__1
10
0
20
0
30
0
70
128
71
107
72
13
73
108
0
VERTEX
8
OBJECT__1
10
0
20
0
30
0
70
128
71
99
72
117
73
97
0
VERTEX
8
OBJECT__1
10
0
20
0
30
0
70
128
71
95
72
102
73
90
0
VERTEX
8
OBJECT__1
10
0
20
0
30
0
70
128
71
82
72
91
73
80
0
VERTEX
8
OBJECT__1
10
0
20
0
30
0
70
128
71
70
72
80
73
5
0
VERTEX
8
OBJECT__1
10
0
20
0
30
0
70
128
71
68
72
78
73
65
0
VERTEX
8
OBJECT__1
10
0
20
0
30
0
70
128
71
50
72
2
73
51
0
VERTEX
8
OBJECT__1
10
0
20
0
30
0
70
128
71
47
72
63
73
42
0
VERTEX
8
OBJECT__1
10
0
20
0
30
0
70
128
71
35
72
49
73
33
0
VERTEX
8
OBJECT__1
10
0
20
0
30
0
70
128
71
18
72
36
73
14
0
VERTEX
8
OBJECT__1
10
0
20
0
30
0
70
128
71
15
72
24
73
14
0
VERTEX
8
OBJECT__1
10
0
20
0
30
0
70
128
71
11
72
16
73
12
0
VERTEX
8
OBJECT__1
10
0
20
0
30
0
70
128
71
8
72
72
73
5
0
VERTEX
8
OBJECT__1
10
0
20
0
30
0
70
128
71
3
72
7
73
4
0
SEQEND
8
OBJECT__1
0
POLYLINE
8
OBJECT__3
66
1
70
64
71
87
72
85
62
253
0
VERTEX
8
OBJECT__3
10
55.063999
20
9.899000
30
-12.340000
70
192
0
VERTEX
8
OBJECT__3
10
57.060001
20
9.228000
30
-12.827000
70
192
0
VERTEX
8
OBJECT__3
10
59.035000
20
9.000000
30
1.626000
70
192
0
VERTEX
8
OBJECT__3
10
60.043999
20
9.000000
30
12.957000
70
192
0
VERTEX
8
OBJECT__3
10
57.423000
20
10.476000
30
11.825000
70
192
0
VERTEX
8
OBJECT__3
10
57.335999
20
10.514000
30
11.793000
70
192
0
VERTEX
8
OBJECT__3
10
57.965000
20
10.244000
30
12.022000
70
192
0
VERTEX
8
OBJECT__3
10
54.424000
20
10.017000
30
-12.251000
70
192
0
VERTEX
8
OBJECT__3
10
55.132999
20
11.145000
30
11.226000
70
192
0
VERTEX
8
OBJECT__3
10
54.410000
20
11.249000
30
11.130000
70
192
0
VERTEX
8
OBJECT__3
10
54.256001
20
10.024000
30
-12.247000
70
192
0
VERTEX
8
OBJECT__3
10
54.224998
20
11.276000
30
11.106000
70
192
0
VERTEX
8
OBJECT__3
10
52.047001
20
11.306000
30
11.102000
70
192
0
VERTEX
8
OBJECT__3
10
52.366001
20
10.105000
30
-12.202000
70
192
0
VERTEX
8
OBJECT__3
10
51.598000
20
10.025000
30
-12.277000
70
192
0
VERTEX
8
OBJECT__3
10
50.216999
20
11.020000
30
11.409000
70
192
0
VERTEX
8
OBJECT__3
10
48.757999
20
10.522000
30
11.877000
70
192
0
VERTEX
8
OBJECT__3
10
51.189999
20
11.209000
30
11.211000
70
192
0
VERTEX
8
OBJECT__3
10
48.134998
20
10.309000
30
12.078000
70
192
0
VERTEX
8
OBJECT__3
10
48.716000
20
9.081000
30
-13.007000
70
192
0
VERTEX
8
OBJECT__3
10
49.214001
20
9.363000
30
-12.814000
70
192
0
VERTEX
8
OBJECT__3
10
49.547001
20
9.495000
30
-12.713000
70
192
0
VERTEX
8
OBJECT__3
10
44.608002
20
5.316000
30
-14.963000
70
192
0
VERTEX
8
OBJECT__3
10
44.883999
20
8.140000
30
13.668000
70
192
0
VERTEX
8
OBJECT__3
10
44.307999
20
7.550000
30
14.008000
70
192
0
VERTEX
8
OBJECT__3
10
46.865002
20
9.651000
30
12.625000
70
192
0
VERTEX
8
OBJECT__3
10
48.084000
20
10.292000
30
12.094000
70
192
0
VERTEX
8
OBJECT__3
10
47.207001
20
8.228000
30
-13.592000
70
192
0
VERTEX
8
OBJECT__3
10
45.321999
20
6.433000
30
-14.545000
70
192
0
VERTEX
8
OBJECT__3
10
46.219002
20
7.385000
30
-14.071000
70
192
0
VERTEX
8
OBJECT__3
10
46.363998
20
7.539000
30
-13.994000
70
192
0
VERTEX
8
OBJECT__3
10
43.084999
20
0.002000
30
-15.902000
70
192
0
VERTEX
8
OBJECT__3
10
41.734001
20
2.788000
30
15.690000
70
192
0
VERTEX
8
OBJECT__3
10
41.536999
20
1.862000
30
15.828000
70
192
0
VERTEX
8
OBJECT__3
10
42.112000
20
3.803000
30
15.431000
70
192
0
VERTEX
8
OBJECT__3
10
44.101002
20
4.522000
30
-15.259000
70
192
0
VERTEX
8
OBJECT__3
10
42.868999
20
5.574000
30
14.919000
70
192
0
VERTEX
8
OBJECT__3
10
42.544998
20
4.967000
30
15.135000
70
192
0
VERTEX
8
OBJECT__3
10
43.287998
20
6.150000
30
14.653000
70
192
0
VERTEX
8
OBJECT__3
10
43.057999
20
0.396000
30
-15.919000
70
192
0
VERTEX
8
OBJECT__3
10
43.165001
20
1.532000
30
-15.849000
70
192
0
VERTEX
8
OBJECT__3
10
43.723999
20
3.657000
30
-15.493000
70
192
0
VERTEX
8
OBJECT__3
10
42.077000
20
-3.810000
30
15.453000
70
192
0
VERTEX
8
OBJECT__3
10
43.382000
20
-2.588000
30
-15.710000
70
192
0
VERTEX
8
OBJECT__3
10
43.209999
20
-1.802000
30
-15.821000
70
192
0
VERTEX
8
OBJECT__3
10
44.185001
20
-4.690000
30
-15.208000
70
192
0
VERTEX
8
OBJECT__3
10
44.476002
20
-5.215000
30
-15.033000
70
192
0
VERTEX
8
OBJECT__3
10
42.671001
20
-5.214000
30
15.050000
70
192
0
VERTEX
8
OBJECT__3
10
43.294998
20
-6.148000
30
14.649000
70
192
0
VERTEX
8
OBJECT__3
10
42.154999
20
-4.086000
30
15.399000
70
192
0
VERTEX
8
OBJECT__3
10
44.570000
20
-5.339000
30
-14.980000
70
192
0
VERTEX
8
OBJECT__3
10
43.084999
20
0.001000
30
-15.902000
70
192
0
VERTEX
8
OBJECT__3
10
41.414001
20
-0.002000
30
15.915000
70
192
0
VERTEX
8
OBJECT__3
10
41.388000
20
-0.403000
30
15.934000
70
192
0
VERTEX
8
OBJECT__3
10
41.544998
20
-1.910000
30
15.823000
70
192
0
VERTEX
8
OBJECT__3
10
47.769001
20
-10.144000
30
12.222000
70
192
0
VERTEX
8
OBJECT__3
10
46.209999
20
-7.386000
30
-14.074000
70
192
0
VERTEX
8
OBJECT__3
10
45.891998
20
-7.079000
30
-14.237000
70
192
0
VERTEX
8
OBJECT__3
10
46.414001
20
-7.584000
30
-13.969000
70
192
0
VERTEX
8
OBJECT__3
10
48.269001
20
-8.905000
30
-13.147000
70
192
0
VERTEX
8
OBJECT__3
10
48.145000
20
-10.282000
30
12.094000
70
192
0
VERTEX
8
OBJECT__3
10
48.700001
20
-9.108000
30
-12.998000
70
192
0
VERTEX
8
OBJECT__3
10
43.978001
20
-7.170000
30
14.210000
70
192
0
VERTEX
8
OBJECT__3
10
44.726002
20
-7.986000
30
13.760000
70
192
0
VERTEX
8
OBJECT__3
10
46.695999
20
-9.547000
30
12.705000
70
192
0
VERTEX
8
OBJECT__3
10
51.403000
20
-9.995000
30
-12.303000
70
192
0
VERTEX
8
OBJECT__3
10
50.008999
20
-10.968000
30
11.461000
70
192
0
VERTEX
8
OBJECT__3
10
50.682999
20
-11.121000
30
11.305000
70
192
0
VERTEX
8
OBJECT__3
10
48.790001
20
-10.520000
30
11.875000
70
192
0
VERTEX
8
OBJECT__3
10
52.012001
20
-10.076000
30
-12.230000
70
192
0
VERTEX
8
OBJECT__3
10
49.393002
20
-9.436000
30
-12.759000
70
192
0
VERTEX
8
OBJECT__3
10
54.068001
20
-10.064000
30
-12.217000
70
192
0
VERTEX
8
OBJECT__3
10
52.863998
20
-11.342000
30
11.056000
70
192
0
VERTEX
8
OBJECT__3
10
53.589001
20
-11.326000
30
11.063000
70
192
0
VERTEX
8
OBJECT__3
10
54.403999
20
-11.209000
30
11.169000
70
192
0
VERTEX
8
OBJECT__3
10
54.256001
20
-10.036000
30
-12.238000
70
192
0
VERTEX
8
OBJECT__3
10
59.035000
20
-9.000000
30
1.626000
70
192
0
VERTEX
8
OBJECT__3
10
56.837002
20
-10.698000
30
11.633000
70
192
0
VERTEX
8
OBJECT__3
10
57.331001
20
-10.471000
30
11.819000
70
192
0
VERTEX
8
OBJECT__3
10
58.943001
20
-9.732000
30
12.429000
70
192
0
VERTEX
8
OBJECT__3
10
55.736000
20
-11.017000
30
11.344000
70
192
0
VERTEX
8
OBJECT__3
10
57.522999
20
-9.000000
30
-12.984000
70
192
0
VERTEX
8
OBJECT__3
10
54.770000
20
-9.959000
30
-12.295000
70
192
0
VERTEX
8
OBJECT__3
10
57.122002
20
-9.199000
30
-12.847000
70
192
0
VERTEX
8
OBJECT__3
10
56.811001
20
-9.339000
30
-12.750000
70
192
0
VERTEX
8
OBJECT__3
10
60.043999
20
-9.000000
30
12.957000
70
192
0
VERTEX
8
OBJECT__3
10
57.522999
20
9.000000
30
-12.984000
70
192
0
VERTEX
8
OBJECT__3
10
0
20
0
30
0
70
128
71
1
72
2
73
3
0
VERTEX
8
OBJECT__3
10
0
20
0
30
0
70
128
71
3
72
4
73
1
0
VERTEX
8
OBJECT__3
10
0
20
0
30
0
70
128
71
1
72
5
73
6
0
VERTEX
8
OBJECT__3
10
0
20
0
30
0
70
128
71
1
72
7
73
5
0
VERTEX
8
OBJECT__3
10
0
20
0
30
0
70
128
71
1
72
4
73
7
0
VERTEX
8
OBJECT__3
10
0
20
0
30
0
70
128
71
6
72
8
73
1
0
VERTEX
8
OBJECT__3
10
0
20
0
30
0
70
128
71
8
72
9
73
10
0
VERTEX
8
OBJECT__3
10
0
20
0
30
0
70
128
71
8
72
6
73
9
0
VERTEX
8
OBJECT__3
10
0
20
0
30
0
70
128
71
10
72
11
73
8
0
VERTEX
8
OBJECT__3
10
0
20
0
30
0
70
128
71
12
72
13
73
14
0
VERTEX
8
OBJECT__3
10
0
20
0
30
0
70
128
71
14
72
11
73
12
0
VERTEX
8
OBJECT__3
10
0
20
0
30
0
70
128
71
11
72
10
73
12
0
VERTEX
8
OBJECT__3
10
0
20
0
30
0
70
128
71
15
72
16
73
17
0
VERTEX
8
OBJECT__3
10
0
20
0
30
0
70
128
71
15
72
14
73
18
0
VERTEX
8
OBJECT__3
10
0
20
0
30
0
70
128
71
18
72
16
73
15
0
VERTEX
8
OBJECT__3
10
0
20
0
30
0
70
128
71
19
72
20
73
21
0
VERTEX
8
OBJECT__3
10
0
20
0
30
0
70
128
71
21
72
22
73
19
0
VERTEX
8
OBJECT__3
10
0
20
0
30
0
70
128
71
22
72
15
73
19
0
VERTEX
8
OBJECT__3
10
0
20
0
30
0
70
128
71
17
72
19
73
15
0
VERTEX
8
OBJECT__3
10
0
20
0
30
0
70
128
71
23
72
24
73
25
0
VERTEX
8
OBJECT__3
10
0
20
0
30
0
70
128
71
23
72
26
73
24
0
VERTEX
8
OBJECT__3
10
0
20
0
30
0
70
128
71
23
72
27
73
26
0
VERTEX
8
OBJECT__3
10
0
20
0
30
0
70
128
71
27
72
28
73
20
0
VERTEX
8
OBJECT__3
10
0
20
0
30
0
70
128
71
27
72
23
73
29
0
VERTEX
8
OBJECT__3
10
0
20
0
30
0
70
128
71
29
72
30
73
27
0
VERTEX
8
OBJECT__3
10
0
20
0
30
0
70
128
71
30
72
31
73
27
0
VERTEX
8
OBJECT__3
10
0
20
0
30
0
70
128
71
31
72
28
73
27
0
VERTEX
8
OBJECT__3
10
0
20
0
30
0
70
128
71
20
72
19
73
27
0
VERTEX
8
OBJECT__3
10
0
20
0
30
0
70
128
71
32
72
33
73
34
0
VERTEX
8
OBJECT__3
10
0
20
0
30
0
70
128
71
32
72
35
73
33
0
VERTEX
8
OBJECT__3
10
0
20
0
30
0
70
128
71
36
72
37
73
38
0
VERTEX
8
OBJECT__3
10
0
20
0
30
0
70
128
71
36
72
23
73
39
0
VERTEX
8
OBJECT__3
10
0
20
0
30
0
70
128
71
39
72
37
73
36
0
VERTEX
8
OBJECT__3
10
0
20
0
30
0
70
128
71
35
72
32
73
40
0
VERTEX
8
OBJECT__3
10
0
20
0
30
0
70
128
71
40
72
41
73
35
0
VERTEX
8
OBJECT__3
10
0
20
0
30
0
70
128
71
41
72
42
73
35
0
VERTEX
8
OBJECT__3
10
0
20
0
30
0
70
128
71
42
72
36
73
35
0
VERTEX
8
OBJECT__3
10
0
20
0
30
0
70
128
71
38
72
35
73
36
0
VERTEX
8
OBJECT__3
10
0
20
0
30
0
70
128
71
43
72
44
73
45
0
VERTEX
8
OBJECT__3
10
0
20
0
30
0
70
128
71
43
72
46
73
44
0
VERTEX
8
OBJECT__3
10
0
20
0
30
0
70
128
71
43
72
47
73
46
0
VERTEX
8
OBJECT__3
10
0
20
0
30
0
70
128
71
47
72
48
73
49
0
VERTEX
8
OBJECT__3
10
0
20
0
30
0
70
128
71
47
72
43
73
50
0
VERTEX
8
OBJECT__3
10
0
20
0
30
0
70
128
71
50
72
48
73
47
0
VERTEX
8
OBJECT__3
10
0
20
0
30
0
70
128
71
49
72
51
73
47
0
VERTEX
8
OBJECT__3
10
0
20
0
30
0
70
128
71
45
72
52
73
43
0
VERTEX
8
OBJECT__3
10
0
20
0
30
0
70
128
71
32
72
53
73
54
0
VERTEX
8
OBJECT__3
10
0
20
0
30
0
70
128
71
54
72
55
73
32
0
VERTEX
8
OBJECT__3
10
0
20
0
30
0
70
128
71
55
72
43
73
32
0
VERTEX
8
OBJECT__3
10
0
20
0
30
0
70
128
71
56
72
57
73
58
0
VERTEX
8
OBJECT__3
10
0
20
0
30
0
70
128
71
56
72
59
73
57
0
VERTEX
8
OBJECT__3
10
0
20
0
30
0
70
128
71
56
72
60
73
59
0
VERTEX
8
OBJECT__3
10
0
20
0
30
0
70
128
71
60
72
56
73
61
0
VERTEX
8
OBJECT__3
10
0
20
0
30
0
70
128
71
61
72
62
73
60
0
VERTEX
8
OBJECT__3
10
0
20
0
30
0
70
128
71
51
72
49
73
63
0
VERTEX
8
OBJECT__3
10
0
20
0
30
0
70
128
71
63
72
64
73
51
0
VERTEX
8
OBJECT__3
10
0
20
0
30
0
70
128
71
64
72
65
73
51
0
VERTEX
8
OBJECT__3
10
0
20
0
30
0
70
128
71
65
72
56
73
51
0
VERTEX
8
OBJECT__3
10
0
20
0
30
0
70
128
71
66
72
67
73
68
0
VERTEX
8
OBJECT__3
10
0
20
0
30
0
70
128
71
66
72
61
73
69
0
VERTEX
8
OBJECT__3
10
0
20
0
30
0
70
128
71
69
72
67
73
66
0
VERTEX
8
OBJECT__3
10
0
20
0
30
0
70
128
71
68
72
70
73
66
0
VERTEX
8
OBJECT__3
10
0
20
0
30
0
70
128
71
66
72
71
73
61
0
VERTEX
8
OBJECT__3
10
0
20
0
30
0
70
128
71
72
72
70
73
73
0
VERTEX
8
OBJECT__3
10
0
20
0
30
0
70
128
71
73
72
74
73
72
0
VERTEX
8
OBJECT__3
10
0
20
0
30
0
70
128
71
70
72
68
73
73
0
VERTEX
8
OBJECT__3
10
0
20
0
30
0
70
128
71
74
72
75
73
72
0
VERTEX
8
OBJECT__3
10
0
20
0
30
0
70
128
71
75
72
76
73
72
0
VERTEX
8
OBJECT__3
10
0
20
0
30
0
70
128
71
77
72
78
73
79
0
VERTEX
8
OBJECT__3
10
0
20
0
30
0
70
128
71
79
72
80
73
77
0
VERTEX
8
OBJECT__3
10
0
20
0
30
0
70
128
71
81
72
78
73
77
0
VERTEX
8
OBJECT__3
10
0
20
0
30
0
70
128
71
77
72
82
73
81
0
VERTEX
8
OBJECT__3
10
0
20
0
30
0
70
128
71
83
72
76
73
75
0
VERTEX
8
OBJECT__3
10
0
20
0
30
0
70
128
71
81
72
82
73
84
0
VERTEX
8
OBJECT__3
10
0
20
0
30
0
70
128
71
84
72
85
73
81
0
VERTEX
8
OBJECT__3
10
0
20
0
30
0
70
128
71
85
72
83
73
81
0
VERTEX
8
OBJECT__3
10
0
20
0
30
0
70
128
71
75
72
81
73
83
0
VERTEX
8
OBJECT__3
10
0
20
0
30
0
70
128
71
80
72
86
73
77
0
VERTEX
8
OBJECT__3
10
0
20
0
30
0
70
128
71
71
72
62
73
61
0
VERTEX
8
OBJECT__3
10
0
20
0
30
0
70
128
71
58
72
51
73
56
0
VERTEX
8
OBJECT__3
10
0
20
0
30
0
70
128
71
52
72
32
73
43
0
VERTEX
8
OBJECT__3
10
0
20
0
30
0
70
128
71
34
72
53
73
32
0
VERTEX
8
OBJECT__3
10
0
20
0
30
0
70
128
71
25
72
39
73
23
0
VERTEX
8
OBJECT__3
10
0
20
0
30
0
70
128
71
13
72
18
73
14
0
VERTEX
8
OBJECT__3
10
0
20
0
30
0
70
128
71
2
72
87
73
3
0
SEQEND
8
OBJECT__3
0
POLYLINE
8
OBJECT__4
66
1
70
64
71
14
72
12
62
253
0
VERTEX
8
OBJECT__4
10
59.035000
20
9.000000
30
1.626000
70
192
0
VERTEX
8
OBJECT__4
10
65.000999
20
9.000000
30
-3.114000
70
192
0
VERTEX
8
OBJECT__4
10
65.011002
20
9.000000
30
-2.017000
70
192
0
VERTEX
8
OBJECT__4
10
57.522999
20
9.000000
30
-12.984000
70
192
0
VERTEX
8
OBJECT__4
10
64.963997
20
9.000000
30
-6.928000
70
192
0
VERTEX
8
OBJECT__4
10
65.000000
20
9.000000
30
3.119000
70
192
0
VERTEX
8
OBJECT__4
10
64.973000
20
9.000000
30
6.453000
70
192
0
VERTEX
8
OBJECT__4
10
65.012001
20
9.000000
30
0.000000
70
192
0
VERTEX
8
OBJECT__4
10
64.848000
20
9.000000
30
-12.906000
70
192
0
VERTEX
8
OBJECT__4
10
64.959000
20
9.000000
30
-7.462000
70
192
0
VERTEX
8
OBJECT__4
10
60.043999
20
9.000000
30
12.957000
70
192
0
VERTEX
8
OBJECT__4
10
64.963997
20
9.000000
30
6.915000
70
192
0
VERTEX
8
OBJECT__4
10
65.012001
20
9.000000
30
1.613000
70
192
0
VERTEX
8
OBJECT__4
10
64.848000
20
9.000000
30
12.906000
70
192
0
VERTEX
8
OBJECT__4
10
0
20
0
30
0
70
128
71
1
72
2
73
3
0
VERTEX
8
OBJECT__4
10
0
20
0
30
0
70
128
71
1
72
4
73
5
0
VERTEX
8
OBJECT__4
10
0
20
0
30
0
70
128
71
5
72
2
73
1
0
VERTEX
8
OBJECT__4
10
0
20
0
30
0
70
128
71
1
72
6
73
7
0
VERTEX
8
OBJECT__4
10
0
20
0
30
0
70
128
71
3
72
8
73
1
0
VERTEX
8
OBJECT__4
10
0
20
0
30
0
70
128
71
4
72
9
73
10
0
VERTEX
8
OBJECT__4
10
0
20
0
30
0
70
128
71
11
72
1
73
12
0
VERTEX
8
OBJECT__4
10
0
20
0
30
0
70
128
71
1
72
13
73
6
0
VERTEX
8
OBJECT__4
10
0
20
0
30
0
70
128
71
10
72
5
73
4
0
VERTEX
8
OBJECT__4
10
0
20
0
30
0
70
128
71
7
72
12
73
1
0
VERTEX
8
OBJECT__4
10
0
20
0
30
0
70
128
71
12
72
14
73
11
0
VERTEX
8
OBJECT__4
10
0
20
0
30
0
70
128
71
8
72
13
73
1
0
SEQEND
8
OBJECT__4
0
POLYLINE
8
OBJECT__5
66
1
70
64
71
14
72
12
62
253
0
VERTEX
8
OBJECT__5
10
59.035000
20
-9.000000
30
1.626000
70
192
0
VERTEX
8
OBJECT__5
10
65.000000
20
-9.000000
30
-3.119000
70
192
0
VERTEX
8
OBJECT__5
10
64.973000
20
-9.000000
30
-6.453000
70
192
0
VERTEX
8
OBJECT__5
10
57.522999
20
-9.000000
30
-12.984000
70
192
0
VERTEX
8
OBJECT__5
10
65.012001
20
-9.000000
30
0.000000
70
192
0
VERTEX
8
OBJECT__5
10
65.012001
20
-9.000000
30
-1.613000
70
192
0
VERTEX
8
OBJECT__5
10
60.043999
20
-9.000000
30
12.957000
70
192
0
VERTEX
8
OBJECT__5
10
64.848000
20
-9.000000
30
12.906000
70
192
0
VERTEX
8
OBJECT__5
10
64.959000
20
-9.000000
30
7.462000
70
192
0
VERTEX
8
OBJECT__5
10
64.963997
20
-9.000000
30
6.928000
70
192
0
VERTEX
8
OBJECT__5
10
65.000999
20
-9.000000
30
3.114000
70
192
0
VERTEX
8
OBJECT__5
10
65.011002
20
-9.000000
30
2.017000
70
192
0
VERTEX
8
OBJECT__5
10
64.963997
20
-9.000000
30
-6.915000
70
192
0
VERTEX
8
OBJECT__5
10
64.848000
20
-9.000000
30
-12.906000
70
192
0
VERTEX
8
OBJECT__5
10
0
20
0
30
0
70
128
71
1
72
2
73
3
0
VERTEX
8
OBJECT__5
10
0
20
0
30
0
70
128
71
3
72
4
73
1
0
VERTEX
8
OBJECT__5
10
0
20
0
30
0
70
128
71
1
72
5
73
6
0
VERTEX
8
OBJECT__5
10
0
20
0
30
0
70
128
71
7
72
8
73
9
0
VERTEX
8
OBJECT__5
10
0
20
0
30
0
70
128
71
6
72
2
73
1
0
VERTEX
8
OBJECT__5
10
0
20
0
30
0
70
128
71
1
72
10
73
11
0
VERTEX
8
OBJECT__5
10
0
20
0
30
0
70
128
71
9
72
1
73
7
0
VERTEX
8
OBJECT__5
10
0
20
0
30
0
70
128
71
1
72
12
73
5
0
VERTEX
8
OBJECT__5
10
0
20
0
30
0
70
128
71
9
72
10
73
1
0
VERTEX
8
OBJECT__5
10
0
20
0
30
0
70
128
71
3
72
13
73
4
0
VERTEX
8
OBJECT__5
10
0
20
0
30
0
70
128
71
13
72
14
73
4
0
VERTEX
8
OBJECT__5
10
0
20
0
30
0
70
128
71
11
72
12
73
1
0
SEQEND
8
OBJECT__5
0
POLYLINE
8
OBJECT__6
66
1
70
64
71
20
72
18
62
253
0
VERTEX
8
OBJECT__6
10
64.963997
20
9.000000
30
6.915000
70
192
0
VERTEX
8
OBJECT__6
10
64.848000
20
12.536000
30
9.509000
70
192
0
VERTEX
8
OBJECT__6
10
64.848000
20
10.309000
30
11.648000
70
192
0
VERTEX
8
OBJECT__6
10
64.848000
20
14.636000
30
5.539000
70
192
0
VERTEX
8
OBJECT__6
10
64.973000
20
9.000000
30
6.453000
70
192
0
VERTEX
8
OBJECT__6
10
65.000000
20
9.000000
30
3.119000
70
192
0
VERTEX
8
OBJECT__6
10
64.848000
20
14.913000
30
5.016000
70
192
0
VERTEX
8
OBJECT__6
10
64.848000
20
15.734000
30
0.000000
70
192
0
VERTEX
8
OBJECT__6
10
65.012001
20
9.000000
30
1.613000
70
192
0
VERTEX
8
OBJECT__6
10
64.848000
20
15.429000
30
-1.865000
70
192
0
VERTEX
8
OBJECT__6
10
65.011002
20
9.000000
30
-2.017000
70
192
0
VERTEX
8
OBJECT__6
10
65.000999
20
9.000000
30
-3.114000
70
192
0
VERTEX
8
OBJECT__6
10
65.012001
20
9.000000
30
0.000000
70
192
0
VERTEX
8
OBJECT__6
10
64.848000
20
14.913000
30
-5.016000
70
192
0
VERTEX
8
OBJECT__6
10
64.963997
20
9.000000
30
-6.928000
70
192
0
VERTEX
8
OBJECT__6
10
64.848000
20
12.536000
30
-9.509000
70
192
0
VERTEX
8
OBJECT__6
10
64.848000
20
12.862000
30
-8.892000
70
192
0
VERTEX
8
OBJECT__6
10
64.959000
20
9.000000
30
-7.462000
70
192
0
VERTEX
8
OBJECT__6
10
64.848000
20
9.000000
30
-12.906000
70
192
0
VERTEX
8
OBJECT__6
10
64.848000
20
9.000000
30
12.906000
70
192
0
VERTEX
8
OBJECT__6
10
0
20
0
30
0
70
128
71
1
72
2
73
3
0
VERTEX
8
OBJECT__6
10
0
20
0
30
0
70
128
71
4
72
2
73
1
0
VERTEX
8
OBJECT__6
10
0
20
0
30
0
70
128
71
1
72
5
73
4
0
VERTEX
8
OBJECT__6
10
0
20
0
30
0
70
128
71
6
72
7
73
4
0
VERTEX
8
OBJECT__6
10
0
20
0
30
0
70
128
71
8
72
7
73
6
0
VERTEX
8
OBJECT__6
10
0
20
0
30
0
70
128
71
6
72
9
73
8
0
VERTEX
8
OBJECT__6
10
0
20
0
30
0
70
128
71
10
72
11
73
12
0
VERTEX
8
OBJECT__6
10
0
20
0
30
0
70
128
71
10
72
13
73
11
0
VERTEX
8
OBJECT__6
10
0
20
0
30
0
70
128
71
12
72
14
73
10
0
VERTEX
8
OBJECT__6
10
0
20
0
30
0
70
128
71
14
72
12
73
15
0
VERTEX
8
OBJECT__6
10
0
20
0
30
0
70
128
71
15
72
16
73
17
0
VERTEX
8
OBJECT__6
10
0
20
0
30
0
70
128
71
16
72
15
73
18
0
VERTEX
8
OBJECT__6
10
0
20
0
30
0
70
128
71
18
72
19
73
16
0
VERTEX
8
OBJECT__6
10
0
20
0
30
0
70
128
71
15
72
17
73
14
0
VERTEX
8
OBJECT__6
10
0
20
0
30
0
70
128
71
10
72
8
73
13
0
VERTEX
8
OBJECT__6
10
0
20
0
30
0
70
128
71
9
72
13
73
8
0
VERTEX
8
OBJECT__6
10
0
20
0
30
0
70
128
71
5
72
6
73
4
0
VERTEX
8
OBJECT__6
10
0
20
0
30
0
70
128
71
3
72
20
73
1
0
SEQEND
8
OBJECT__6
0
POLYLINE
8
OBJECT__7
66
1
70
64
71
20
72
18
62
253
0
VERTEX
8
OBJECT__7
10
64.848000
20
-14.913000
30
-5.016000
70
192
0
VERTEX
8
OBJECT__7
10
64.848000
20
-12.862000
30
-8.892000
70
192
0
VERTEX
8
OBJECT__7
10
64.963997
20
-9.000000
30
-6.915000
70
192
0
VERTEX
8
OBJECT__7
10
64.973000
20
-9.000000
30
-6.453000
70
192
0
VERTEX
8
OBJECT__7
10
65.000000
20
-9.000000
30
-3.119000
70
192
0
VERTEX
8
OBJECT__7
10
64.848000
20
-15.429000
30
-1.865000
70
192
0
VERTEX
8
OBJECT__7
10
65.012001
20
-9.000000
30
-1.613000
70
192
0
VERTEX
8
OBJECT__7
10
65.012001
20
-9.000000
30
0.000000
70
192
0
VERTEX
8
OBJECT__7
10
64.848000
20
-15.734000
30
0.000000
70
192
0
VERTEX
8
OBJECT__7
10
65.011002
20
-9.000000
30
2.017000
70
192
0
VERTEX
8
OBJECT__7
10
65.000999
20
-9.000000
30
3.114000
70
192
0
VERTEX
8
OBJECT__7
10
64.848000
20
-14.636000
30
5.539000
70
192
0
VERTEX
8
OBJECT__7
10
64.963997
20
-9.000000
30
6.928000
70
192
0
VERTEX
8
OBJECT__7
10
64.848000
20
-12.536000
30
9.509000
70
192
0
VERTEX
8
OBJECT__7
10
64.959000
20
-9.000000
30
7.462000
70
192
0
VERTEX
8
OBJECT__7
10
64.848000
20
-9.000000
30
12.906000
70
192
0
VERTEX
8
OBJECT__7
10
64.848000
20
-10.309000
30
11.648000
70
192
0
VERTEX
8
OBJECT__7
10
64.848000
20
-14.913000
30
5.016000
70
192
0
VERTEX
8
OBJECT__7
10
64.848000
20
-12.536000
30
-9.509000
70
192
0
VERTEX
8
OBJECT__7
10
64.848000
20
-9.000000
30
-12.906000
70
192
0
VERTEX
8
OBJECT__7
10
0
20
0
30
0
70
128
71
1
72
2
73
3
0
VERTEX
8
OBJECT__7
10
0
20
0
30
0
70
128
71
3
72
4
73
1
0
VERTEX
8
OBJECT__7
10
0
20
0
30
0
70
128
71
4
72
5
73
1
0
VERTEX
8
OBJECT__7
10
0
20
0
30
0
70
128
71
6
72
1
73
5
0
VERTEX
8
OBJECT__7
10
0
20
0
30
0
70
128
71
5
72
7
73
6
0
VERTEX
8
OBJECT__7
10
0
20
0
30
0
70
128
71
8
72
9
73
6
0
VERTEX
8
OBJECT__7
10
0
20
0
30
0
70
128
71
9
72
10
73
11
0
VERTEX
8
OBJECT__7
10
0
20
0
30
0
70
128
71
9
72
8
73
10
0
VERTEX
8
OBJECT__7
10
0
20
0
30
0
70
128
71
12
72
11
73
13
0
VERTEX
8
OBJECT__7
10
0
20
0
30
0
70
128
71
13
72
14
73
12
0
VERTEX
8
OBJECT__7
10
0
20
0
30
0
70
128
71
14
72
13
73
15
0
VERTEX
8
OBJECT__7
10
0
20
0
30
0
70
128
71
15
72
16
73
17
0
VERTEX
8
OBJECT__7
10
0
20
0
30
0
70
128
71
15
72
17
73
14
0
VERTEX
8
OBJECT__7
10
0
20
0
30
0
70
128
71
12
72
18
73
11
0
VERTEX
8
OBJECT__7
10
0
20
0
30
0
70
128
71
11
72
18
73
9
0
VERTEX
8
OBJECT__7
10
0
20
0
30
0
70
128
71
7
72
8
73
6
0
VERTEX
8
OBJECT__7
10
0
20
0
30
0
70
128
71
2
72
19
73
3
0
VERTEX
8
OBJECT__7
10
0
20
0
30
0
70
128
71
3
72
19
73
20
0
SEQEND
8
OBJECT__7
0
POLYLINE
8
OBJECT__8
66
1
70
64
71
20
72
18
62
253
0
VERTEX
8
OBJECT__8
10
0.000000
20
14.967000
30
-10.874000
70
192
0
VERTEX
8
OBJECT__8
10
0.000000
20
17.594999
30
5.717000
70
192
0
VERTEX
8
OBJECT__8
10
0.000000
20
18.500000
30
0.000000
70
192
0
VERTEX
8
OBJECT__8
10
0.000000
20
10.874000
30
14.967000
70
192
0
VERTEX
8
OBJECT__8
10
0.000000
20
14.967000
30
10.874000
70
192
0
VERTEX
8
OBJECT__8
10
0.000000
20
0.000000
30
18.500000
70
192
0
VERTEX
8
OBJECT__8
10
0.000000
20
5.717000
30
17.594999
70
192
0
VERTEX
8
OBJECT__8
10
0.000000
20
-5.717000
30
-17.594999
70
192
0
VERTEX
8
OBJECT__8
10
0.000000
20
-10.874000
30
-14.967000
70
192
0
VERTEX
8
OBJECT__8
10
0.000000
20
-14.967000
30
-10.874000
70
192
0
VERTEX
8
OBJECT__8
10
0.000000
20
-17.594999
30
-5.717000
70
192
0
VERTEX
8
OBJECT__8
10
0.000000
20
5.717000
30
-17.594999
70
192
0
VERTEX
8
OBJECT__8
10
0.000000
20
0.000000
30
-18.500000
70
192
0
VERTEX
8
OBJECT__8
10
0.000000
20
-5.717000
30
17.594999
70
192
0
VERTEX
8
OBJECT__8
10
0.000000
20
-18.500000
30
0.000000
70
192
0
VERTEX
8
OBJECT__8
10
0.000000
20
-17.594999
30
5.717000
70
192
0
VERTEX
8
OBJECT__8
10
0.000000
20
10.874000
30
-14.967000
70
192
0
VERTEX
8
OBJECT__8
10
0.000000
20
-14.967000
30
10.874000
70
192
0
VERTEX
8
OBJECT__8
10
0.000000
20
-10.874000
30
14.967000
70
192
0
VERTEX
8
OBJECT__8
10
0.000000
20
17.594999
30
-5.717000
70
192
0
VERTEX
8
OBJECT__8
10
0
20
0
30
0
70
128
71
1
72
2
73
3
0
VERTEX
8
OBJECT__8
10
0
20
0
30
0
70
128
71
1
72
4
73
5
0
VERTEX
8
OBJECT__8
10
0
20
0
30
0
70
128
71
1
72
6
73
7
0
VERTEX
8
OBJECT__8
10
0
20
0
30
0
70
128
71
8
72
9
73
10
0
VERTEX
8
OBJECT__8
10
0
20
0
30
0
70
128
71
11
72
12
73
13
0
VERTEX
8
OBJECT__8
10
0
20
0
30
0
70
128
71
5
72
2
73
1
0
VERTEX
8
OBJECT__8
10
0
20
0
30
0
70
128
71
1
72
14
73
6
0
VERTEX
8
OBJECT__8
10
0
20
0
30
0
70
128
71
1
72
15
73
16
0
VERTEX
8
OBJECT__8
10
0
20
0
30
0
70
128
71
13
72
8
73
11
0
VERTEX
8
OBJECT__8
10
0
20
0
30
0
70
128
71
11
72
1
73
17
0
VERTEX
8
OBJECT__8
10
0
20
0
30
0
70
128
71
7
72
4
73
1
0
VERTEX
8
OBJECT__8
10
0
20
0
30
0
70
128
71
1
72
18
73
19
0
VERTEX
8
OBJECT__8
10
0
20
0
30
0
70
128
71
1
72
11
73
15
0
VERTEX
8
OBJECT__8
10
0
20
0
30
0
70
128
71
17
72
12
73
11
0
VERTEX
8
OBJECT__8
10
0
20
0
30
0
70
128
71
19
72
14
73
1
0
VERTEX
8
OBJECT__8
10
0
20
0
30
0
70
128
71
10
72
11
73
8
0
VERTEX
8
OBJECT__8
10
0
20
0
30
0
70
128
71
16
72
18
73
1
0
VERTEX
8
OBJECT__8
10
0
20
0
30
0
70
128
71
3
72
20
73
1
0
SEQEND
8
OBJECT__8
0
POLYLINE
8
OBJECT__9
66
1
70
64
71
164
72
164
62
253
0
VERTEX
8
OBJECT__9
10
0.000000
20
-14.967000
30
-10.874000
70
192
0
VERTEX
8
OBJECT__9
10
0.000000
20
-10.874000
30
-14.967000
70
192
0
VERTEX
8
OBJECT__9
10
66.974998
20
-12.058000
30
-13.250000
70
192
0
VERTEX
8
OBJECT__9
10
66.974998
20
-10.480000
30
-14.426000
70
192
0
VERTEX
8
OBJECT__9
10
0.000000
20
-17.594999
30
-5.717000
70
192
0
VERTEX
8
OBJECT__9
10
66.974998
20
-14.536000
30
-10.473000
70
192
0
VERTEX
8
OBJECT__9
10
66.974998
20
-16.386000
30
-7.244000
70
192
0
VERTEX
8
OBJECT__9
10
66.974998
20
-14.489000
30
-10.526000
70
192
0
VERTEX
8
OBJECT__9
10
66.974998
20
-16.945999
30
-5.506000
70
192
0
VERTEX
8
OBJECT__9
10
0.000000
20
-18.500000
30
0.000000
70
192
0
VERTEX
8
OBJECT__9
10
66.974998
20
-17.528999
30
-3.702000
70
192
0
VERTEX
8
OBJECT__9
10
66.974998
20
-17.916000
30
0.000000
70
192
0
VERTEX
8
OBJECT__9
10
66.974998
20
-17.528999
30
3.702000
70
192
0
VERTEX
8
OBJECT__9
10
0.000000
20
-17.594999
30
5.717000
70
192
0
VERTEX
8
OBJECT__9
10
0.000000
20
-14.967000
30
10.874000
70
192
0
VERTEX
8
OBJECT__9
10
66.974998
20
-16.386000
30
7.244000
70
192
0
VERTEX
8
OBJECT__9
10
66.974998
20
-16.945999
30
5.506000
70
192
0
VERTEX
8
OBJECT__9
10
66.974998
20
-14.536000
30
10.473000
70
192
0
VERTEX
8
OBJECT__9
10
0.000000
20
17.594999
30
5.717000
70
192
0
VERTEX
8
OBJECT__9
10
66.974998
20
14.536000
30
10.473000
70
192
0
VERTEX
8
OBJECT__9
10
66.974998
20
16.386000
30
7.244000
70
192
0
VERTEX
8
OBJECT__9
10
0.000000
20
14.967000
30
10.874000
70
192
0
VERTEX
8
OBJECT__9
10
66.974998
20
14.489000
30
10.526000
70
192
0
VERTEX
8
OBJECT__9
10
66.974998
20
16.945999
30
5.506000
70
192
0
VERTEX
8
OBJECT__9
10
0.000000
20
18.500000
30
0.000000
70
192
0
VERTEX
8
OBJECT__9
10
66.974998
20
17.528999
30
3.702000
70
192
0
VERTEX
8
OBJECT__9
10
66.974998
20
17.916000
30
0.000000
70
192
0
VERTEX
8
OBJECT__9
10
66.974998
20
17.528999
30
-3.702000
70
192
0
VERTEX
8
OBJECT__9
10
0.000000
20
17.594999
30
-5.717000
70
192
0
VERTEX
8
OBJECT__9
10
0.000000
20
14.967000
30
-10.874000
70
192
0
VERTEX
8
OBJECT__9
10
66.974998
20
16.386000
30
-7.244000
70
192
0
VERTEX
8
OBJECT__9
10
66.974998
20
16.945999
30
-5.506000
70
192
0
VERTEX
8
OBJECT__9
10
66.974998
20
14.536000
30
-10.473000
70
192
0
VERTEX
8
OBJECT__9
10
66.974998
20
14.489000
30
-10.526000
70
192
0
VERTEX
8
OBJECT__9
10
66.974998
20
12.058000
30
-13.250000
70
192
0
VERTEX
8
OBJECT__9
10
0.000000
20
10.874000
30
-14.967000
70
192
0
VERTEX
8
OBJECT__9
10
44.590000
20
6.453000
30
-16.922001
70
192
0
VERTEX
8
OBJECT__9
10
44.028000
20
5.594000
30
-17.218000
70
192
0
VERTEX
8
OBJECT__9
10
46.396999
20
8.292000
30
-16.083000
70
192
0
VERTEX
8
OBJECT__9
10
45.872002
20
7.832000
30
-16.313999
70
192
0
VERTEX
8
OBJECT__9
10
47.583000
20
9.111000
30
-15.622000
70
192
0
VERTEX
8
OBJECT__9
10
45.646000
20
7.634000
30
-16.413000
70
192
0
VERTEX
8
OBJECT__9
10
49.009998
20
9.820000
30
-15.171000
70
192
0
VERTEX
8
OBJECT__9
10
50.312000
20
10.253000
30
-14.868000
70
192
0
VERTEX
8
OBJECT__9
10
49.651001
20
10.033000
30
-15.022000
70
192
0
VERTEX
8
OBJECT__9
10
52.160000
20
10.567000
30
-14.627000
70
192
0
VERTEX
8
OBJECT__9
10
51.791000
20
10.531000
30
-14.657000
70
192
0
VERTEX
8
OBJECT__9
10
53.623001
20
10.582000
30
-14.601000
70
192
0
VERTEX
8
OBJECT__9
10
66.974998
20
10.480000
30
-14.426000
70
192
0
VERTEX
8
OBJECT__9
10
55.084000
20
10.393000
30
-14.720000
70
192
0
VERTEX
8
OBJECT__9
10
53.993000
20
10.534000
30
-14.631000
70
192
0
VERTEX
8
OBJECT__9
10
56.726002
20
9.924000
30
-15.023000
70
192
0
VERTEX
8
OBJECT__9
10
55.287998
20
10.350000
30
-14.748000
70
192
0
VERTEX
8
OBJECT__9
10
66.974998
20
9.250000
30
-15.343000
70
192
0
VERTEX
8
OBJECT__9
10
58.176998
20
9.250000
30
-15.432000
70
192
0
VERTEX
8
OBJECT__9
10
58.096001
20
9.295000
30
-15.406000
70
192
0
VERTEX
8
OBJECT__9
10
0.000000
20
5.717000
30
-17.594999
70
192
0
VERTEX
8
OBJECT__9
10
42.492001
20
1.395000
30
-18.075001
70
192
0
VERTEX
8
OBJECT__9
10
42.408001
20
0.000000
30
-18.125000
70
192
0
VERTEX
8
OBJECT__9
10
42.973000
20
3.439000
30
-17.796000
70
192
0
VERTEX
8
OBJECT__9
10
42.585999
20
1.977000
30
-18.020000
70
192
0
VERTEX
8
OBJECT__9
10
43.567001
20
4.836000
30
-17.462999
70
192
0
VERTEX
8
OBJECT__9
10
43.328999
20
4.275000
30
-17.596001
70
192
0
VERTEX
8
OBJECT__9
10
43.727001
20
5.135000
30
-17.375999
70
192
0
VERTEX
8
OBJECT__9
10
0.000000
20
-5.717000
30
-17.594999
70
192
0
VERTEX
8
OBJECT__9
10
42.955002
20
-3.386000
30
-17.806000
70
192
0
VERTEX
8
OBJECT__9
10
43.327000
20
-4.276000
30
-17.597000
70
192
0
VERTEX
8
OBJECT__9
10
42.401001
20
-0.120000
30
-18.129999
70
192
0
VERTEX
8
OBJECT__9
10
42.525002
20
-1.624000
30
-18.056000
70
192
0
VERTEX
8
OBJECT__9
10
42.570999
20
-1.894000
30
-18.028999
70
192
0
VERTEX
8
OBJECT__9
10
43.530998
20
-4.765000
30
-17.482000
70
192
0
VERTEX
8
OBJECT__9
10
0.000000
20
0.000000
30
-18.500000
70
192
0
VERTEX
8
OBJECT__9
10
44.029999
20
-5.594000
30
-17.216000
70
192
0
VERTEX
8
OBJECT__9
10
57.264000
20
-9.704000
30
-15.160000
70
192
0
VERTEX
8
OBJECT__9
10
58.176998
20
-9.250000
30
-15.432000
70
192
0
VERTEX
8
OBJECT__9
10
55.980000
20
-10.172000
30
-14.864000
70
192
0
VERTEX
8
OBJECT__9
10
54.162998
20
-10.536000
30
-14.628000
70
192
0
VERTEX
8
OBJECT__9
10
54.506001
20
-10.492000
30
-14.656000
70
192
0
VERTEX
8
OBJECT__9
10
52.702000
20
-10.596000
30
-14.600000
70
192
0
VERTEX
8
OBJECT__9
10
53.994999
20
-10.543000
30
-14.625000
70
192
0
VERTEX
8
OBJECT__9
10
49.598000
20
-10.039000
30
-15.021000
70
192
0
VERTEX
8
OBJECT__9
10
49.644001
20
-10.051000
30
-15.012000
70
192
0
VERTEX
8
OBJECT__9
10
51.042999
20
-10.418000
30
-14.746000
70
192
0
VERTEX
8
OBJECT__9
10
51.235001
20
-10.452000
30
-14.719000
70
192
0
VERTEX
8
OBJECT__9
10
46.554001
20
-8.415000
30
-16.018000
70
192
0
VERTEX
8
OBJECT__9
10
47.889000
20
-9.286000
30
-15.515000
70
192
0
VERTEX
8
OBJECT__9
10
48.213001
20
-9.458000
30
-15.408000
70
192
0
VERTEX
8
OBJECT__9
10
45.354000
20
-7.342000
30
-16.549000
70
192
0
VERTEX
8
OBJECT__9
10
45.884998
20
-7.817000
30
-16.313999
70
192
0
VERTEX
8
OBJECT__9
10
44.355000
20
-6.134000
30
-17.042999
70
192
0
VERTEX
8
OBJECT__9
10
66.974998
20
-10.480000
30
14.426000
70
192
0
VERTEX
8
OBJECT__9
10
66.974998
20
-9.250000
30
15.343000
70
192
0
VERTEX
8
OBJECT__9
10
61.408001
20
-9.250000
30
15.400000
70
192
0
VERTEX
8
OBJECT__9
10
60.029999
20
-10.336000
30
14.708000
70
192
0
VERTEX
8
OBJECT__9
10
59.749001
20
-10.522000
30
14.578000
70
192
0
VERTEX
8
OBJECT__9
10
46.515999
20
-10.687000
30
14.601000
70
192
0
VERTEX
8
OBJECT__9
10
46.442001
20
-10.635000
30
14.637000
70
192
0
VERTEX
8
OBJECT__9
10
46.931000
20
-10.928000
30
14.417000
70
192
0
VERTEX
8
OBJECT__9
10
48.455002
20
-11.644000
30
13.827000
70
192
0
VERTEX
8
OBJECT__9
10
47.952999
20
-11.408000
30
14.021000
70
192
0
VERTEX
8
OBJECT__9
10
50.032001
20
-12.143000
30
13.373000
70
192
0
VERTEX
8
OBJECT__9
10
51.636002
20
-12.425000
30
13.092000
70
192
0
VERTEX
8
OBJECT__9
10
66.974998
20
-14.489000
30
10.526000
70
192
0
VERTEX
8
OBJECT__9
10
52.604000
20
-12.472000
30
13.035000
70
192
0
VERTEX
8
OBJECT__9
10
53.157001
20
-12.499000
30
13.003000
70
192
0
VERTEX
8
OBJECT__9
10
58.334000
20
-11.305000
30
13.996000
70
192
0
VERTEX
8
OBJECT__9
10
57.313000
20
-11.709000
30
13.667000
70
192
0
VERTEX
8
OBJECT__9
10
56.846001
20
-11.894000
30
13.516000
70
192
0
VERTEX
8
OBJECT__9
10
56.266998
20
-12.066000
30
13.370000
70
192
0
VERTEX
8
OBJECT__9
10
66.974998
20
-12.058000
30
13.250000
70
192
0
VERTEX
8
OBJECT__9
10
59.667000
20
-10.567000
30
14.544000
70
192
0
VERTEX
8
OBJECT__9
10
54.793999
20
-12.371000
30
13.105000
70
192
0
VERTEX
8
OBJECT__9
10
0.000000
20
-10.874000
30
14.967000
70
192
0
VERTEX
8
OBJECT__9
10
42.599998
20
-6.935000
30
16.749001
70
192
0
VERTEX
8
OBJECT__9
10
41.833000
20
-5.603000
30
17.243999
70
192
0
VERTEX
8
OBJECT__9
10
43.799999
20
-8.463000
30
16.020000
70
192
0
VERTEX
8
OBJECT__9
10
43.606998
20
-8.247000
30
16.134001
70
192
0
VERTEX
8
OBJECT__9
10
45.075001
20
-9.666000
30
15.310000
70
192
0
VERTEX
8
OBJECT__9
10
44.035000
20
-8.684000
30
15.890000
70
192
0
VERTEX
8
OBJECT__9
10
0.000000
20
-5.717000
30
17.594999
70
192
0
VERTEX
8
OBJECT__9
10
40.553001
20
-1.148000
30
18.110001
70
192
0
VERTEX
8
OBJECT__9
10
40.526001
20
-0.800000
30
18.129000
70
192
0
VERTEX
8
OBJECT__9
10
40.800999
20
-2.729000
30
17.938000
70
192
0
VERTEX
8
OBJECT__9
10
0.000000
20
0.000000
30
18.500000
70
192
0
VERTEX
8
OBJECT__9
10
41.780998
20
-5.513000
30
17.277000
70
192
0
VERTEX
8
OBJECT__9
10
41.429001
20
-4.685000
30
17.511999
70
192
0
VERTEX
8
OBJECT__9
10
41.250000
20
-4.265000
30
17.632000
70
192
0
VERTEX
8
OBJECT__9
10
0.000000
20
5.717000
30
17.594999
70
192
0
VERTEX
8
OBJECT__9
10
41.278999
20
4.343000
30
17.612000
70
192
0
VERTEX
8
OBJECT__9
10
41.432999
20
4.683000
30
17.510000
70
192
0
VERTEX
8
OBJECT__9
10
40.526001
20
0.811000
30
18.128000
70
192
0
VERTEX
8
OBJECT__9
10
40.733002
20
2.401000
30
17.985001
70
192
0
VERTEX
8
OBJECT__9
10
40.808998
20
2.763000
30
17.931999
70
192
0
VERTEX
8
OBJECT__9
10
40.526001
20
0.000000
30
18.128000
70
192
0
VERTEX
8
OBJECT__9
10
0.000000
20
10.874000
30
14.967000
70
192
0
VERTEX
8
OBJECT__9
10
44.153999
20
8.832000
30
15.816000
70
192
0
VERTEX
8
OBJECT__9
10
44.826000
20
9.457000
30
15.443000
70
192
0
VERTEX
8
OBJECT__9
10
42.917999
20
7.389000
30
16.551001
70
192
0
VERTEX
8
OBJECT__9
10
44.032001
20
8.689000
30
15.889000
70
192
0
VERTEX
8
OBJECT__9
10
41.847000
20
5.600000
30
17.235001
70
192
0
VERTEX
8
OBJECT__9
10
41.998001
20
5.933000
30
17.136000
70
192
0
VERTEX
8
OBJECT__9
10
46.188999
20
10.482000
30
14.752000
70
192
0
VERTEX
8
OBJECT__9
10
66.974998
20
12.058000
30
13.250000
70
192
0
VERTEX
8
OBJECT__9
10
59.446999
20
10.709000
30
14.444000
70
192
0
VERTEX
8
OBJECT__9
10
59.652000
20
10.565000
30
14.541000
70
192
0
VERTEX
8
OBJECT__9
10
66.974998
20
10.480000
30
14.426000
70
192
0
VERTEX
8
OBJECT__9
10
57.901001
20
11.499000
30
13.841000
70
192
0
VERTEX
8
OBJECT__9
10
56.570999
20
11.979000
30
13.444000
70
192
0
VERTEX
8
OBJECT__9
10
57.313999
20
11.711000
30
13.666000
70
192
0
VERTEX
8
OBJECT__9
10
54.566002
20
12.402000
30
13.079000
70
192
0
VERTEX
8
OBJECT__9
10
55.030998
20
12.334000
30
13.137000
70
192
0
VERTEX
8
OBJECT__9
10
53.066002
20
12.500000
30
13.003000
70
192
0
VERTEX
8
OBJECT__9
10
51.551998
20
12.416000
30
13.102000
70
192
0
VERTEX
8
OBJECT__9
10
52.604000
20
12.474000
30
13.033000
70
192
0
VERTEX
8
OBJECT__9
10
49.745998
20
12.069000
30
13.443000
70
192
0
VERTEX
8
OBJECT__9
10
51.244999
20
12.376000
30
13.143000
70
192
0
VERTEX
8
OBJECT__9
10
47.660000
20
11.302000
30
14.117000
70
192
0
VERTEX
8
OBJECT__9
10
47.944000
20
11.427000
30
14.012000
70
192
0
VERTEX
8
OBJECT__9
10
46.460999
20
10.633000
30
14.635000
70
192
0
VERTEX
8
OBJECT__9
10
48.289001
20
11.578000
30
13.885000
70
192
0
VERTEX
8
OBJECT__9
10
60.880001
20
9.704000
30
15.123000
70
192
0
VERTEX
8
OBJECT__9
10
61.408001
20
9.250000
30
15.400000
70
192
0
VERTEX
8
OBJECT__9
10
66.974998
20
9.250000
30
15.343000
70
192
0
VERTEX
8
OBJECT__9
10
66.974998
20
-9.250000
30
-15.343000
70
192
0
VERTEX
8
OBJECT__9
10
0
20
0
30
0
70
128
71
1
72
2
73
3
0
VERTEX
8
OBJECT__9
10
0
20
0
30
0
70
128
71
2
72
4
73
3
0
VERTEX
8
OBJECT__9
10
0
20
0
30
0
70
128
71
5
72
6
73
7
0
VERTEX
8
OBJECT__9
10
0
20
0
30
0
70
128
71
1
72
8
73
6
0
VERTEX
8
OBJECT__9
10
0
20
0
30
0
70
128
71
6
72
5
73
1
0
VERTEX
8
OBJECT__9
10
0
20
0
30
0
70
128
71
7
72
9
73
5
0
VERTEX
8
OBJECT__9
10
0
20
0
30
0
70
128
71
10
72
5
73
11
0
VERTEX
8
OBJECT__9
10
0
20
0
30
0
70
128
71
5
72
9
73
11
0
VERTEX
8
OBJECT__9
10
0
20
0
30
0
70
128
71
10
72
12
73
13
0
VERTEX
8
OBJECT__9
10
0
20
0
30
0
70
128
71
13
72
14
73
10
0
VERTEX
8
OBJECT__9
10
0
20
0
30
0
70
128
71
15
72
14
73
16
0
VERTEX
8
OBJECT__9
10
0
20
0
30
0
70
128
71
14
72
17
73
16
0
VERTEX
8
OBJECT__9
10
0
20
0
30
0
70
128
71
16
72
18
73
15
0
VERTEX
8
OBJECT__9
10
0
20
0
30
0
70
128
71
19
72
20
73
21
0
VERTEX
8
OBJECT__9
10
0
20
0
30
0
70
128
71
22
72
23
73
20
0
VERTEX
8
OBJECT__9
10
0
20
0
30
0
70
128
71
20
72
19
73
22
0
VERTEX
8
OBJECT__9
10
0
20
0
30
0
70
128
71
21
72
24
73
19
0
VERTEX
8
OBJECT__9
10
0
20
0
30
0
70
128
71
25
72
19
73
26
0
VERTEX
8
OBJECT__9
10
0
20
0
30
0
70
128
71
19
72
24
73
26
0
VERTEX
8
OBJECT__9
10
0
20
0
30
0
70
128
71
25
72
27
73
28
0
VERTEX
8
OBJECT__9
10
0
20
0
30
0
70
128
71
28
72
29
73
25
0
VERTEX
8
OBJECT__9
10
0
20
0
30
0
70
128
71
30
72
29
73
31
0
VERTEX
8
OBJECT__9
10
0
20
0
30
0
70
128
71
29
72
32
73
31
0
VERTEX
8
OBJECT__9
10
0
20
0
30
0
70
128
71
31
72
33
73
30
0
VERTEX
8
OBJECT__9
10
0
20
0
30
0
70
128
71
30
72
34
73
35
0
VERTEX
8
OBJECT__9
10
0
20
0
30
0
70
128
71
35
72
36
73
30
0
VERTEX
8
OBJECT__9
10
0
20
0
30
0
70
128
71
36
72
37
73
38
0
VERTEX
8
OBJECT__9
10
0
20
0
30
0
70
128
71
36
72
39
73
40
0
VERTEX
8
OBJECT__9
10
0
20
0
30
0
70
128
71
36
72
41
73
39
0
VERTEX
8
OBJECT__9
10
0
20
0
30
0
70
128
71
40
72
42
73
36
0
VERTEX
8
OBJECT__9
10
0
20
0
30
0
70
128
71
42
72
37
73
36
0
VERTEX
8
OBJECT__9
10
0
20
0
30
0
70
128
71
36
72
43
73
41
0
VERTEX
8
OBJECT__9
10
0
20
0
30
0
70
128
71
36
72
44
73
45
0
VERTEX
8
OBJECT__9
10
0
20
0
30
0
70
128
71
45
72
43
73
36
0
VERTEX
8
OBJECT__9
10
0
20
0
30
0
70
128
71
36
72
46
73
47
0
VERTEX
8
OBJECT__9
10
0
20
0
30
0
70
128
71
47
72
44
73
36
0
VERTEX
8
OBJECT__9
10
0
20
0
30
0
70
128
71
36
72
48
73
46
0
VERTEX
8
OBJECT__9
10
0
20
0
30
0
70
128
71
36
72
49
73
48
0
VERTEX
8
OBJECT__9
10
0
20
0
30
0
70
128
71
49
72
50
73
51
0
VERTEX
8
OBJECT__9
10
0
20
0
30
0
70
128
71
49
72
52
73
53
0
VERTEX
8
OBJECT__9
10
0
20
0
30
0
70
128
71
53
72
50
73
49
0
VERTEX
8
OBJECT__9
10
0
20
0
30
0
70
128
71
49
72
54
73
55
0
VERTEX
8
OBJECT__9
10
0
20
0
30
0
70
128
71
55
72
56
73
49
0
VERTEX
8
OBJECT__9
10
0
20
0
30
0
70
128
71
56
72
52
73
49
0
VERTEX
8
OBJECT__9
10
0
20
0
30
0
70
128
71
51
72
48
73
49
0
VERTEX
8
OBJECT__9
10
0
20
0
30
0
70
128
71
57
72
58
73
59
0
VERTEX
8
OBJECT__9
10
0
20
0
30
0
70
128
71
57
72
60
73
61
0
VERTEX
8
OBJECT__9
10
0
20
0
30
0
70
128
71
61
72
58
73
57
0
VERTEX
8
OBJECT__9
10
0
20
0
30
0
70
128
71
57
72
62
73
63
0
VERTEX
8
OBJECT__9
10
0
20
0
30
0
70
128
71
57
72
64
73
62
0
VERTEX
8
OBJECT__9
10
0
20
0
30
0
70
128
71
57
72
38
73
64
0
VERTEX
8
OBJECT__9
10
0
20
0
30
0
70
128
71
63
72
60
73
57
0
VERTEX
8
OBJECT__9
10
0
20
0
30
0
70
128
71
65
72
66
73
67
0
VERTEX
8
OBJECT__9
10
0
20
0
30
0
70
128
71
65
72
68
73
69
0
VERTEX
8
OBJECT__9
10
0
20
0
30
0
70
128
71
69
72
70
73
65
0
VERTEX
8
OBJECT__9
10
0
20
0
30
0
70
128
71
70
72
66
73
65
0
VERTEX
8
OBJECT__9
10
0
20
0
30
0
70
128
71
67
72
71
73
65
0
VERTEX
8
OBJECT__9
10
0
20
0
30
0
70
128
71
59
72
65
73
72
0
VERTEX
8
OBJECT__9
10
0
20
0
30
0
70
128
71
59
72
68
73
65
0
VERTEX
8
OBJECT__9
10
0
20
0
30
0
70
128
71
71
72
73
73
65
0
VERTEX
8
OBJECT__9
10
0
20
0
30
0
70
128
71
4
72
74
73
75
0
VERTEX
8
OBJECT__9
10
0
20
0
30
0
70
128
71
4
72
76
73
74
0
VERTEX
8
OBJECT__9
10
0
20
0
30
0
70
128
71
4
72
77
73
78
0
VERTEX
8
OBJECT__9
10
0
20
0
30
0
70
128
71
4
72
2
73
79
0
VERTEX
8
OBJECT__9
10
0
20
0
30
0
70
128
71
79
72
80
73
4
0
VERTEX
8
OBJECT__9
10
0
20
0
30
0
70
128
71
80
72
77
73
4
0
VERTEX
8
OBJECT__9
10
0
20
0
30
0
70
128
71
78
72
76
73
4
0
VERTEX
8
OBJECT__9
10
0
20
0
30
0
70
128
71
2
72
81
73
82
0
VERTEX
8
OBJECT__9
10
0
20
0
30
0
70
128
71
82
72
83
73
2
0
VERTEX
8
OBJECT__9
10
0
20
0
30
0
70
128
71
83
72
84
73
2
0
VERTEX
8
OBJECT__9
10
0
20
0
30
0
70
128
71
2
72
85
73
86
0
VERTEX
8
OBJECT__9
10
0
20
0
30
0
70
128
71
86
72
87
73
2
0
VERTEX
8
OBJECT__9
10
0
20
0
30
0
70
128
71
2
72
88
73
89
0
VERTEX
8
OBJECT__9
10
0
20
0
30
0
70
128
71
2
72
65
73
73
0
VERTEX
8
OBJECT__9
10
0
20
0
30
0
70
128
71
73
72
90
73
2
0
VERTEX
8
OBJECT__9
10
0
20
0
30
0
70
128
71
90
72
88
73
2
0
VERTEX
8
OBJECT__9
10
0
20
0
30
0
70
128
71
89
72
85
73
2
0
VERTEX
8
OBJECT__9
10
0
20
0
30
0
70
128
71
87
72
81
73
2
0
VERTEX
8
OBJECT__9
10
0
20
0
30
0
70
128
71
84
72
79
73
2
0
VERTEX
8
OBJECT__9
10
0
20
0
30
0
70
128
71
91
72
92
73
93
0
VERTEX
8
OBJECT__9
10
0
20
0
30
0
70
128
71
93
72
94
73
91
0
VERTEX
8
OBJECT__9
10
0
20
0
30
0
70
128
71
94
72
95
73
91
0
VERTEX
8
OBJECT__9
10
0
20
0
30
0
70
128
71
15
72
96
73
97
0
VERTEX
8
OBJECT__9
10
0
20
0
30
0
70
128
71
15
72
98
73
96
0
VERTEX
8
OBJECT__9
10
0
20
0
30
0
70
128
71
15
72
99
73
100
0
VERTEX
8
OBJECT__9
10
0
20
0
30
0
70
128
71
100
72
98
73
15
0
VERTEX
8
OBJECT__9
10
0
20
0
30
0
70
128
71
15
72
101
73
99
0
VERTEX
8
OBJECT__9
10
0
20
0
30
0
70
128
71
15
72
102
73
101
0
VERTEX
8
OBJECT__9
10
0
20
0
30
0
70
128
71
103
72
104
73
102
0
VERTEX
8
OBJECT__9
10
0
20
0
30
0
70
128
71
103
72
105
73
104
0
VERTEX
8
OBJECT__9
10
0
20
0
30
0
70
128
71
102
72
15
73
103
0
VERTEX
8
OBJECT__9
10
0
20
0
30
0
70
128
71
103
72
106
73
107
0
VERTEX
8
OBJECT__9
10
0
20
0
30
0
70
128
71
107
72
108
73
103
0
VERTEX
8
OBJECT__9
10
0
20
0
30
0
70
128
71
108
72
109
73
103
0
VERTEX
8
OBJECT__9
10
0
20
0
30
0
70
128
71
110
72
91
73
111
0
VERTEX
8
OBJECT__9
10
0
20
0
30
0
70
128
71
106
72
103
73
110
0
VERTEX
8
OBJECT__9
10
0
20
0
30
0
70
128
71
111
72
106
73
110
0
VERTEX
8
OBJECT__9
10
0
20
0
30
0
70
128
71
109
72
112
73
103
0
VERTEX
8
OBJECT__9
10
0
20
0
30
0
70
128
71
112
72
105
73
103
0
VERTEX
8
OBJECT__9
10
0
20
0
30
0
70
128
71
113
72
114
73
115
0
VERTEX
8
OBJECT__9
10
0
20
0
30
0
70
128
71
113
72
116
73
117
0
VERTEX
8
OBJECT__9
10
0
20
0
30
0
70
128
71
113
72
118
73
119
0
VERTEX
8
OBJECT__9
10
0
20
0
30
0
70
128
71
119
72
116
73
113
0
VERTEX
8
OBJECT__9
10
0
20
0
30
0
70
128
71
117
72
114
73
113
0
VERTEX
8
OBJECT__9
10
0
20
0
30
0
70
128
71
113
72
97
73
118
0
VERTEX
8
OBJECT__9
10
0
20
0
30
0
70
128
71
120
72
121
73
122
0
VERTEX
8
OBJECT__9
10
0
20
0
30
0
70
128
71
120
72
123
73
121
0
VERTEX
8
OBJECT__9
10
0
20
0
30
0
70
128
71
122
72
124
73
120
0
VERTEX
8
OBJECT__9
10
0
20
0
30
0
70
128
71
120
72
115
73
125
0
VERTEX
8
OBJECT__9
10
0
20
0
30
0
70
128
71
125
72
126
73
120
0
VERTEX
8
OBJECT__9
10
0
20
0
30
0
70
128
71
126
72
127
73
120
0
VERTEX
8
OBJECT__9
10
0
20
0
30
0
70
128
71
127
72
123
73
120
0
VERTEX
8
OBJECT__9
10
0
20
0
30
0
70
128
71
128
72
129
73
130
0
VERTEX
8
OBJECT__9
10
0
20
0
30
0
70
128
71
128
72
131
73
132
0
VERTEX
8
OBJECT__9
10
0
20
0
30
0
70
128
71
132
72
133
73
128
0
VERTEX
8
OBJECT__9
10
0
20
0
30
0
70
128
71
124
72
134
73
131
0
VERTEX
8
OBJECT__9
10
0
20
0
30
0
70
128
71
131
72
128
73
124
0
VERTEX
8
OBJECT__9
10
0
20
0
30
0
70
128
71
133
72
129
73
128
0
VERTEX
8
OBJECT__9
10
0
20
0
30
0
70
128
71
135
72
136
73
137
0
VERTEX
8
OBJECT__9
10
0
20
0
30
0
70
128
71
135
72
138
73
139
0
VERTEX
8
OBJECT__9
10
0
20
0
30
0
70
128
71
139
72
136
73
135
0
VERTEX
8
OBJECT__9
10
0
20
0
30
0
70
128
71
135
72
128
73
140
0
VERTEX
8
OBJECT__9
10
0
20
0
30
0
70
128
71
140
72
141
73
135
0
VERTEX
8
OBJECT__9
10
0
20
0
30
0
70
128
71
141
72
138
73
135
0
VERTEX
8
OBJECT__9
10
0
20
0
30
0
70
128
71
137
72
142
73
135
0
VERTEX
8
OBJECT__9
10
0
20
0
30
0
70
128
71
143
72
144
73
145
0
VERTEX
8
OBJECT__9
10
0
20
0
30
0
70
128
71
145
72
146
73
143
0
VERTEX
8
OBJECT__9
10
0
20
0
30
0
70
128
71
23
72
147
73
144
0
VERTEX
8
OBJECT__9
10
0
20
0
30
0
70
128
71
23
72
148
73
149
0
VERTEX
8
OBJECT__9
10
0
20
0
30
0
70
128
71
149
72
147
73
23
0
VERTEX
8
OBJECT__9
10
0
20
0
30
0
70
128
71
23
72
150
73
151
0
VERTEX
8
OBJECT__9
10
0
20
0
30
0
70
128
71
23
72
152
73
150
0
VERTEX
8
OBJECT__9
10
0
20
0
30
0
70
128
71
151
72
148
73
23
0
VERTEX
8
OBJECT__9
10
0
20
0
30
0
70
128
71
22
72
153
73
154
0
VERTEX
8
OBJECT__9
10
0
20
0
30
0
70
128
71
154
72
23
73
22
0
VERTEX
8
OBJECT__9
10
0
20
0
30
0
70
128
71
154
72
152
73
23
0
VERTEX
8
OBJECT__9
10
0
20
0
30
0
70
128
71
22
72
155
73
156
0
VERTEX
8
OBJECT__9
10
0
20
0
30
0
70
128
71
156
72
153
73
22
0
VERTEX
8
OBJECT__9
10
0
20
0
30
0
70
128
71
22
72
157
73
158
0
VERTEX
8
OBJECT__9
10
0
20
0
30
0
70
128
71
22
72
135
73
159
0
VERTEX
8
OBJECT__9
10
0
20
0
30
0
70
128
71
159
72
157
73
22
0
VERTEX
8
OBJECT__9
10
0
20
0
30
0
70
128
71
158
72
160
73
22
0
VERTEX
8
OBJECT__9
10
0
20
0
30
0
70
128
71
160
72
155
73
22
0
VERTEX
8
OBJECT__9
10
0
20
0
30
0
70
128
71
146
72
161
73
162
0
VERTEX
8
OBJECT__9
10
0
20
0
30
0
70
128
71
146
72
145
73
161
0
VERTEX
8
OBJECT__9
10
0
20
0
30
0
70
128
71
162
72
163
73
146
0
VERTEX
8
OBJECT__9
10
0
20
0
30
0
70
128
71
143
72
23
73
144
0
VERTEX
8
OBJECT__9
10
0
20
0
30
0
70
128
71
142
72
159
73
135
0
VERTEX
8
OBJECT__9
10
0
20
0
30
0
70
128
71
130
72
140
73
128
0
VERTEX
8
OBJECT__9
10
0
20
0
30
0
70
128
71
122
72
134
73
124
0
VERTEX
8
OBJECT__9
10
0
20
0
30
0
70
128
71
115
72
120
73
113
0
VERTEX
8
OBJECT__9
10
0
20
0
30
0
70
128
71
97
72
113
73
15
0
VERTEX
8
OBJECT__9
10
0
20
0
30
0
70
128
71
95
72
111
73
91
0
VERTEX
8
OBJECT__9
10
0
20
0
30
0
70
128
71
75
72
164
73
4
0
VERTEX
8
OBJECT__9
10
0
20
0
30
0
70
128
71
59
72
72
73
57
0
VERTEX
8
OBJECT__9
10
0
20
0
30
0
70
128
71
38
72
57
73
36
0
VERTEX
8
OBJECT__9
10
0
20
0
30
0
70
128
71
35
72
49
73
36
0
VERTEX
8
OBJECT__9
10
0
20
0
30
0
70
128
71
33
72
34
73
30
0
VERTEX
8
OBJECT__9
10
0
20
0
30
0
70
128
71
28
72
32
73
29
0
VERTEX
8
OBJECT__9
10
0
20
0
30
0
70
128
71
26
72
27
73
25
0
VERTEX
8
OBJECT__9
10
0
20
0
30
0
70
128
71
18
72
103
73
15
0
VERTEX
8
OBJECT__9
10
0
20
0
30
0
70
128
71
13
72
17
73
14
0
VERTEX
8
OBJECT__9
10
0
20
0
30
0
70
128
71
11
72
12
73
10
0
VERTEX
8
OBJECT__9
10
0
20
0
30
0
70
128
71
3
72
8
73
1
0
SEQEND
8
OBJECT__9
0
POLYLINE
8
OBJECT__11
66
1
70
64
71
32
72
30
62
253
0
VERTEX
8
OBJECT__11
10
66.974998
20
12.058000
30
13.250000
70
192
0
VERTEX
8
OBJECT__11
10
66.974998
20
10.480000
30
14.426000
70
192
0
VERTEX
8
OBJECT__11
10
67.088997
20
9.250000
30
11.029000
70
192
0
VERTEX
8
OBJECT__11
10
67.101997
20
9.250000
30
10.284000
70
192
0
VERTEX
8
OBJECT__11
10
66.974998
20
14.489000
30
10.526000
70
192
0
VERTEX
8
OBJECT__11
10
67.166000
20
9.250000
30
6.713000
70
192
0
VERTEX
8
OBJECT__11
10
67.166000
20
9.250000
30
6.669000
70
192
0
VERTEX
8
OBJECT__11
10
66.974998
20
14.536000
30
10.473000
70
192
0
VERTEX
8
OBJECT__11
10
66.974998
20
16.386000
30
7.244000
70
192
0
VERTEX
8
OBJECT__11
10
66.974998
20
16.945999
30
5.506000
70
192
0
VERTEX
8
OBJECT__11
10
67.193001
20
9.250000
30
4.105000
70
192
0
VERTEX
8
OBJECT__11
10
66.974998
20
17.528999
30
3.702000
70
192
0
VERTEX
8
OBJECT__11
10
67.195999
20
9.250000
30
3.836000
70
192
0
VERTEX
8
OBJECT__11
10
67.203003
20
9.250000
30
1.995000
70
192
0
VERTEX
8
OBJECT__11
10
66.974998
20
17.916000
30
0.000000
70
192
0
VERTEX
8
OBJECT__11
10
67.210999
20
9.250000
30
0.000000
70
192
0
VERTEX
8
OBJECT__11
10
67.203003
20
9.250000
30
-1.995000
70
192
0
VERTEX
8
OBJECT__11
10
66.974998
20
17.528999
30
-3.702000
70
192
0
VERTEX
8
OBJECT__11
10
67.195999
20
9.250000
30
-3.836000
70
192
0
VERTEX
8
OBJECT__11
10
66.974998
20
16.945999
30
-5.506000
70
192
0
VERTEX
8
OBJECT__11
10
67.193001
20
9.250000
30
-4.111000
70
192
0
VERTEX
8
OBJECT__11
10
66.974998
20
16.386000
30
-7.244000
70
192
0
VERTEX
8
OBJECT__11
10
67.162003
20
9.250000
30
-6.759000
70
192
0
VERTEX
8
OBJECT__11
10
66.974998
20
14.489000
30
-10.526000
70
192
0
VERTEX
8
OBJECT__11
10
67.152000
20
9.250000
30
-7.672000
70
192
0
VERTEX
8
OBJECT__11
10
67.101997
20
9.250000
30
-10.302000
70
192
0
VERTEX
8
OBJECT__11
10
66.974998
20
12.058000
30
-13.250000
70
192
0
VERTEX
8
OBJECT__11
10
67.078003
20
9.250000
30
-11.508000
70
192
0
VERTEX
8
OBJECT__11
10
66.974998
20
9.250000
30
-15.343000
70
192
0
VERTEX
8
OBJECT__11
10
66.974998
20
10.480000
30
-14.426000
70
192
0
VERTEX
8
OBJECT__11
10
66.974998
20
14.536000
30
-10.473000
70
192
0
VERTEX
8
OBJECT__11
10
66.974998
20
9.250000
30
15.343000
70
192
0
VERTEX
8
OBJECT__11
10
0
20
0
30
0
70
128
71
1
72
2
73
3
0
VERTEX
8
OBJECT__11
10
0
20
0
30
0
70
128
71
3
72
4
73
1
0
VERTEX
8
OBJECT__11
10
0
20
0
30
0
70
128
71
5
72
1
73
4
0
VERTEX
8
OBJECT__11
10
0
20
0
30
0
70
128
71
4
72
6
73
5
0
VERTEX
8
OBJECT__11
10
0
20
0
30
0
70
128
71
7
72
8
73
5
0
VERTEX
8
OBJECT__11
10
0
20
0
30
0
70
128
71
9
72
8
73
7
0
VERTEX
8
OBJECT__11
10
0
20
0
30
0
70
128
71
10
72
9
73
11
0
VERTEX
8
OBJECT__11
10
0
20
0
30
0
70
128
71
12
72
10
73
13
0
VERTEX
8
OBJECT__11
10
0
20
0
30
0
70
128
71
13
72
14
73
12
0
VERTEX
8
OBJECT__11
10
0
20
0
30
0
70
128
71
15
72
12
73
14
0
VERTEX
8
OBJECT__11
10
0
20
0
30
0
70
128
71
15
72
16
73
17
0
VERTEX
8
OBJECT__11
10
0
20
0
30
0
70
128
71
18
72
17
73
19
0
VERTEX
8
OBJECT__11
10
0
20
0
30
0
70
128
71
20
72
19
73
21
0
VERTEX
8
OBJECT__11
10
0
20
0
30
0
70
128
71
21
72
22
73
20
0
VERTEX
8
OBJECT__11
10
0
20
0
30
0
70
128
71
22
72
21
73
23
0
VERTEX
8
OBJECT__11
10
0
20
0
30
0
70
128
71
24
72
25
73
26
0
VERTEX
8
OBJECT__11
10
0
20
0
30
0
70
128
71
24
72
23
73
25
0
VERTEX
8
OBJECT__11
10
0
20
0
30
0
70
128
71
26
72
27
73
24
0
VERTEX
8
OBJECT__11
10
0
20
0
30
0
70
128
71
27
72
26
73
28
0
VERTEX
8
OBJECT__11
10
0
20
0
30
0
70
128
71
28
72
29
73
30
0
VERTEX
8
OBJECT__11
10
0
20
0
30
0
70
128
71
28
72
30
73
27
0
VERTEX
8
OBJECT__11
10
0
20
0
30
0
70
128
71
24
72
31
73
23
0
VERTEX
8
OBJECT__11
10
0
20
0
30
0
70
128
71
23
72
31
73
22
0
VERTEX
8
OBJECT__11
10
0
20
0
30
0
70
128
71
19
72
20
73
18
0
VERTEX
8
OBJECT__11
10
0
20
0
30
0
70
128
71
17
72
18
73
15
0
VERTEX
8
OBJECT__11
10
0
20
0
30
0
70
128
71
14
72
16
73
15
0
VERTEX
8
OBJECT__11
10
0
20
0
30
0
70
128
71
11
72
13
73
10
0
VERTEX
8
OBJECT__11
10
0
20
0
30
0
70
128
71
7
72
11
73
9
0
VERTEX
8
OBJECT__11
10
0
20
0
30
0
70
128
71
6
72
7
73
5
0
VERTEX
8
OBJECT__11
10
0
20
0
30
0
70
128
71
2
72
32
73
3
0
SEQEND
8
OBJECT__11
0
POLYLINE
8
OBJECT__12
66
1
70
64
71
32
72
30
62
253
0
VERTEX
8
OBJECT__12
10
66.974998
20
-12.058000
30
-13.250000
70
192
0
VERTEX
8
OBJECT__12
10
66.974998
20
-10.480000
30
-14.426000
70
192
0
VERTEX
8
OBJECT__12
10
67.088997
20
-9.250000
30
-11.029000
70
192
0
VERTEX
8
OBJECT__12
10
67.101997
20
-9.250000
30
-10.284000
70
192
0
VERTEX
8
OBJECT__12
10
66.974998
20
-14.489000
30
-10.526000
70
192
0
VERTEX
8
OBJECT__12
10
67.166000
20
-9.250000
30
-6.713000
70
192
0
VERTEX
8
OBJECT__12
10
67.166000
20
-9.250000
30
-6.669000
70
192
0
VERTEX
8
OBJECT__12
10
66.974998
20
-14.536000
30
-10.473000
70
192
0
VERTEX
8
OBJECT__12
10
66.974998
20
-16.386000
30
-7.244000
70
192
0
VERTEX
8
OBJECT__12
10
66.974998
20
-16.945999
30
-5.506000
70
192
0
VERTEX
8
OBJECT__12
10
67.193001
20
-9.250000
30
-4.105000
70
192
0
VERTEX
8
OBJECT__12
10
66.974998
20
-17.528999
30
-3.702000
70
192
0
VERTEX
8
OBJECT__12
10
67.195999
20
-9.250000
30
-3.836000
70
192
0
VERTEX
8
OBJECT__12
10
67.203003
20
-9.250000
30
-1.995000
70
192
0
VERTEX
8
OBJECT__12
10
66.974998
20
-17.916000
30
0.000000
70
192
0
VERTEX
8
OBJECT__12
10
67.210999
20
-9.250000
30
0.000000
70
192
0
VERTEX
8
OBJECT__12
10
67.203003
20
-9.250000
30
1.995000
70
192
0
VERTEX
8
OBJECT__12
10
66.974998
20
-17.528999
30
3.702000
70
192
0
VERTEX
8
OBJECT__12
10
67.195999
20
-9.250000
30
3.836000
70
192
0
VERTEX
8
OBJECT__12
10
66.974998
20
-16.945999
30
5.506000
70
192
0
VERTEX
8
OBJECT__12
10
67.193001
20
-9.250000
30
4.111000
70
192
0
VERTEX
8
OBJECT__12
10
66.974998
20
-16.386000
30
7.244000
70
192
0
VERTEX
8
OBJECT__12
10
67.162003
20
-9.250000
30
6.759000
70
192
0
VERTEX
8
OBJECT__12
10
66.974998
20
-14.489000
30
10.526000
70
192
0
VERTEX
8
OBJECT__12
10
67.152000
20
-9.250000
30
7.672000
70
192
0
VERTEX
8
OBJECT__12
10
67.101997
20
-9.250000
30
10.302000
70
192
0
VERTEX
8
OBJECT__12
10
66.974998
20
-12.058000
30
13.250000
70
192
0
VERTEX
8
OBJECT__12
10
67.078003
20
-9.250000
30
11.508000
70
192
0
VERTEX
8
OBJECT__12
10
66.974998
20
-9.250000
30
15.343000
70
192
0
VERTEX
8
OBJECT__12
10
66.974998
20
-10.480000
30
14.426000
70
192
0
VERTEX
8
OBJECT__12
10
66.974998
20
-14.536000
30
10.473000
70
192
0
VERTEX
8
OBJECT__12
10
66.974998
20
-9.250000
30
-15.343000
70
192
0
VERTEX
8
OBJECT__12
10
0
20
0
30
0
70
128
71
1
72
2
73
3
0
VERTEX
8
OBJECT__12
10
0
20
0
30
0
70
128
71
3
72
4
73
1
0
VERTEX
8
OBJECT__12
10
0
20
0
30
0
70
128
71
5
72
1
73
4
0
VERTEX
8
OBJECT__12
10
0
20
0
30
0
70
128
71
4
72
6
73
5
0
VERTEX
8
OBJECT__12
10
0
20
0
30
0
70
128
71
7
72
8
73
5
0
VERTEX
8
OBJECT__12
10
0
20
0
30
0
70
128
71
9
72
8
73
7
0
VERTEX
8
OBJECT__12
10
0
20
0
30
0
70
128
71
10
72
9
73
11
0
VERTEX
8
OBJECT__12
10
0
20
0
30
0
70
128
71
12
72
10
73
13
0
VERTEX
8
OBJECT__12
10
0
20
0
30
0
70
128
71
13
72
14
73
12
0
VERTEX
8
OBJECT__12
10
0
20
0
30
0
70
128
71
15
72
12
73
14
0
VERTEX
8
OBJECT__12
10
0
20
0
30
0
70
128
71
15
72
16
73
17
0
VERTEX
8
OBJECT__12
10
0
20
0
30
0
70
128
71
18
72
17
73
19
0
VERTEX
8
OBJECT__12
10
0
20
0
30
0
70
128
71
20
72
19
73
21
0
VERTEX
8
OBJECT__12
10
0
20
0
30
0
70
128
71
21
72
22
73
20
0
VERTEX
8
OBJECT__12
10
0
20
0
30
0
70
128
71
22
72
21
73
23
0
VERTEX
8
OBJECT__12
10
0
20
0
30
0
70
128
71
24
72
25
73
26
0
VERTEX
8
OBJECT__12
10
0
20
0
30
0
70
128
71
24
72
23
73
25
0
VERTEX
8
OBJECT__12
10
0
20
0
30
0
70
128
71
26
72
27
73
24
0
VERTEX
8
OBJECT__12
10
0
20
0
30
0
70
128
71
27
72
26
73
28
0
VERTEX
8
OBJECT__12
10
0
20
0
30
0
70
128
71
28
72
29
73
30
0
VERTEX
8
OBJECT__12
10
0
20
0
30
0
70
128
71
28
72
30
73
27
0
VERTEX
8
OBJECT__12
10
0
20
0
30
0
70
128
71
24
72
31
73
23
0
VERTEX
8
OBJECT__12
10
0
20
0
30
0
70
128
71
23
72
31
73
22
0
VERTEX
8
OBJECT__12
10
0
20
0
30
0
70
128
71
19
72
20
73
18
0
VERTEX
8
OBJECT__12
10
0
20
0
30
0
70
128
71
17
72
18
73
15
0
VERTEX
8
OBJECT__12
10
0
20
0
30
0
70
128
71
14
72
16
73
15
0
VERTEX
8
OBJECT__12
10
0
20
0
30
0
70
128
71
11
72
13
73
10
0
VERTEX
8
OBJECT__12
10
0
20
0
30
0
70
128
71
7
72
11
73
9
0
VERTEX
8
OBJECT__12
10
0
20
0
30
0
70
128
71
6
72
7
73
5
0
VERTEX
8
OBJECT__12
10
0
20
0
30
0
70
128
71
2
72
32
73
3
0
SEQEND
8
OBJECT__12
0
POLYLINE
8
OBJECT__13
66
1
70
64
71
24
72
22
62
253
0
VERTEX
8
OBJECT__13
10
65.209999
20
-9.250000
30
0.000000
70
192
0
VERTEX
8
OBJECT__13
10
65.041000
20
-9.250000
30
12.972000
70
192
0
VERTEX
8
OBJECT__13
10
67.162003
20
-9.250000
30
6.759000
70
192
0
VERTEX
8
OBJECT__13
10
67.101997
20
-9.250000
30
10.302000
70
192
0
VERTEX
8
OBJECT__13
10
67.152000
20
-9.250000
30
7.672000
70
192
0
VERTEX
8
OBJECT__13
10
67.203003
20
-9.250000
30
-1.995000
70
192
0
VERTEX
8
OBJECT__13
10
67.195999
20
-9.250000
30
-3.836000
70
192
0
VERTEX
8
OBJECT__13
10
67.193001
20
-9.250000
30
4.111000
70
192
0
VERTEX
8
OBJECT__13
10
67.195999
20
-9.250000
30
3.836000
70
192
0
VERTEX
8
OBJECT__13
10
66.974998
20
-9.250000
30
15.343000
70
192
0
VERTEX
8
OBJECT__13
10
67.078003
20
-9.250000
30
11.508000
70
192
0
VERTEX
8
OBJECT__13
10
65.041000
20
-9.250000
30
-12.972000
70
192
0
VERTEX
8
OBJECT__13
10
67.101997
20
-9.250000
30
-10.284000
70
192
0
VERTEX
8
OBJECT__13
10
67.088997
20
-9.250000
30
-11.029000
70
192
0
VERTEX
8
OBJECT__13
10
67.166000
20
-9.250000
30
-6.669000
70
192
0
VERTEX
8
OBJECT__13
10
67.166000
20
-9.250000
30
-6.713000
70
192
0
VERTEX
8
OBJECT__13
10
67.193001
20
-9.250000
30
-4.105000
70
192
0
VERTEX
8
OBJECT__13
10
67.210999
20
-9.250000
30
0.000000
70
192
0
VERTEX
8
OBJECT__13
10
67.203003
20
-9.250000
30
1.995000
70
192
0
VERTEX
8
OBJECT__13
10
61.408001
20
-9.250000
30
15.400000
70
192
0
VERTEX
8
OBJECT__13
10
66.974998
20
-9.250000
30
-15.343000
70
192
0
VERTEX
8
OBJECT__13
10
58.176998
20
-9.250000
30
-15.432000
70
192
0
VERTEX
8
OBJECT__13
10
58.176998
20
-9.250000
30
-13.046000
70
192
0
VERTEX
8
OBJECT__13
10
61.408001
20
-9.250000
30
13.011000
70
192
0
VERTEX
8
OBJECT__13
10
0
20
0
30
0
70
128
71
1
72
2
73
3
0
VERTEX
8
OBJECT__13
10
0
20
0
30
0
70
128
71
2
72
4
73
5
0
VERTEX
8
OBJECT__13
10
0
20
0
30
0
70
128
71
1
72
6
73
7
0
VERTEX
8
OBJECT__13
10
0
20
0
30
0
70
128
71
1
72
8
73
9
0
VERTEX
8
OBJECT__13
10
0
20
0
30
0
70
128
71
5
72
3
73
2
0
VERTEX
8
OBJECT__13
10
0
20
0
30
0
70
128
71
2
72
10
73
11
0
VERTEX
8
OBJECT__13
10
0
20
0
30
0
70
128
71
12
72
13
73
14
0
VERTEX
8
OBJECT__13
10
0
20
0
30
0
70
128
71
12
72
15
73
16
0
VERTEX
8
OBJECT__13
10
0
20
0
30
0
70
128
71
1
72
17
73
15
0
VERTEX
8
OBJECT__13
10
0
20
0
30
0
70
128
71
1
72
18
73
6
0
VERTEX
8
OBJECT__13
10
0
20
0
30
0
70
128
71
9
72
19
73
1
0
VERTEX
8
OBJECT__13
10
0
20
0
30
0
70
128
71
11
72
4
73
2
0
VERTEX
8
OBJECT__13
10
0
20
0
30
0
70
128
71
16
72
13
73
12
0
VERTEX
8
OBJECT__13
10
0
20
0
30
0
70
128
71
7
72
17
73
1
0
VERTEX
8
OBJECT__13
10
0
20
0
30
0
70
128
71
3
72
8
73
1
0
VERTEX
8
OBJECT__13
10
0
20
0
30
0
70
128
71
15
72
12
73
1
0
VERTEX
8
OBJECT__13
10
0
20
0
30
0
70
128
71
20
72
10
73
2
0
VERTEX
8
OBJECT__13
10
0
20
0
30
0
70
128
71
14
72
21
73
12
0
VERTEX
8
OBJECT__13
10
0
20
0
30
0
70
128
71
19
72
18
73
1
0
VERTEX
8
OBJECT__13
10
0
20
0
30
0
70
128
71
22
72
23
73
12
0
VERTEX
8
OBJECT__13
10
0
20
0
30
0
70
128
71
12
72
21
73
22
0
VERTEX
8
OBJECT__13
10
0
20
0
30
0
70
128
71
2
72
24
73
20
0
SEQEND
8
OBJECT__13
0
POLYLINE
8
OBJECT__14
66
1
70
64
71
24
72
22
62
253
0
VERTEX
8
OBJECT__14
10
65.209999
20
9.250000
30
0.000000
70
192
0
VERTEX
8
OBJECT__14
10
65.041000
20
9.250000
30
-12.972000
70
192
0
VERTEX
8
OBJECT__14
10
67.162003
20
9.250000
30
-6.759000
70
192
0
VERTEX
8
OBJECT__14
10
67.101997
20
9.250000
30
-10.302000
70
192
0
VERTEX
8
OBJECT__14
10
67.152000
20
9.250000
30
-7.672000
70
192
0
VERTEX
8
OBJECT__14
10
67.203003
20
9.250000
30
1.995000
70
192
0
VERTEX
8
OBJECT__14
10
67.195999
20
9.250000
30
3.836000
70
192
0
VERTEX
8
OBJECT__14
10
67.193001
20
9.250000
30
-4.111000
70
192
0
VERTEX
8
OBJECT__14
10
67.195999
20
9.250000
30
-3.836000
70
192
0
VERTEX
8
OBJECT__14
10
66.974998
20
9.250000
30
-15.343000
70
192
0
VERTEX
8
OBJECT__14
10
67.078003
20
9.250000
30
-11.508000
70
192
0
VERTEX
8
OBJECT__14
10
65.041000
20
9.250000
30
12.972000
70
192
0
VERTEX
8
OBJECT__14
10
67.101997
20
9.250000
30
10.284000
70
192
0
VERTEX
8
OBJECT__14
10
67.088997
20
9.250000
30
11.029000
70
192
0
VERTEX
8
OBJECT__14
10
67.166000
20
9.250000
30
6.669000
70
192
0
VERTEX
8
OBJECT__14
10
67.166000
20
9.250000
30
6.713000
70
192
0
VERTEX
8
OBJECT__14
10
67.193001
20
9.250000
30
4.105000
70
192
0
VERTEX
8
OBJECT__14
10
67.210999
20
9.250000
30
0.000000
70
192
0
VERTEX
8
OBJECT__14
10
67.203003
20
9.250000
30
-1.995000
70
192
0
VERTEX
8
OBJECT__14
10
66.974998
20
9.250000
30
15.343000
70
192
0
VERTEX
8
OBJECT__14
10
61.408001
20
9.250000
30
15.400000
70
192
0
VERTEX
8
OBJECT__14
10
61.408001
20
9.250000
30
13.011000
70
192
0
VERTEX
8
OBJECT__14
10
58.176998
20
9.250000
30
-15.432000
70
192
0
VERTEX
8
OBJECT__14
10
58.176998
20
9.250000
30
-13.046000
70
192
0
VERTEX
8
OBJECT__14
10
0
20
0
30
0
70
128
71
1
72
2
73
3
0
VERTEX
8
OBJECT__14
10
0
20
0
30
0
70
128
71
2
72
4
73
5
0
VERTEX
8
OBJECT__14
10
0
20
0
30
0
70
128
71
1
72
6
73
7
0
VERTEX
8
OBJECT__14
10
0
20
0
30
0
70
128
71
1
72
8
73
9
0
VERTEX
8
OBJECT__14
10
0
20
0
30
0
70
128
71
5
72
3
73
2
0
VERTEX
8
OBJECT__14
10
0
20
0
30
0
70
128
71
2
72
10
73
11
0
VERTEX
8
OBJECT__14
10
0
20
0
30
0
70
128
71
12
72
13
73
14
0
VERTEX
8
OBJECT__14
10
0
20
0
30
0
70
128
71
12
72
15
73
16
0
VERTEX
8
OBJECT__14
10
0
20
0
30
0
70
128
71
1
72
17
73
15
0
VERTEX
8
OBJECT__14
10
0
20
0
30
0
70
128
71
1
72
18
73
6
0
VERTEX
8
OBJECT__14
10
0
20
0
30
0
70
128
71
9
72
19
73
1
0
VERTEX
8
OBJECT__14
10
0
20
0
30
0
70
128
71
11
72
4
73
2
0
VERTEX
8
OBJECT__14
10
0
20
0
30
0
70
128
71
16
72
13
73
12
0
VERTEX
8
OBJECT__14
10
0
20
0
30
0
70
128
71
7
72
17
73
1
0
VERTEX
8
OBJECT__14
10
0
20
0
30
0
70
128
71
3
72
8
73
1
0
VERTEX
8
OBJECT__14
10
0
20
0
30
0
70
128
71
15
72
12
73
1
0
VERTEX
8
OBJECT__14
10
0
20
0
30
0
70
128
71
14
72
20
73
12
0
VERTEX
8
OBJECT__14
10
0
20
0
30
0
70
128
71
21
72
22
73
12
0
VERTEX
8
OBJECT__14
10
0
20
0
30
0
70
128
71
23
72
10
73
2
0
VERTEX
8
OBJECT__14
10
0
20
0
30
0
70
128
71
12
72
20
73
21
0
VERTEX
8
OBJECT__14
10
0
20
0
30
0
70
128
71
19
72
18
73
1
0
VERTEX
8
OBJECT__14
10
0
20
0
30
0
70
128
71
2
72
24
73
23
0
SEQEND
8
OBJECT__14
0
POLYLINE
8
OBJECT__15
66
1
70
64
71
148
72
148
62
253
0
VERTEX
8
OBJECT__15
10
9.596000
20
-13.743000
30
-8.979000
70
192
0
VERTEX
8
OBJECT__15
10
9.596000
20
-15.914000
30
-4.030000
70
192
0
VERTEX
8
OBJECT__15
10
65.041000
20
-15.445000
30
-3.911000
70
192
0
VERTEX
8
OBJECT__15
10
9.596000
20
-16.360001
30
1.356000
70
192
0
VERTEX
8
OBJECT__15
10
65.041000
20
-15.878000
30
1.316000
70
192
0
VERTEX
8
OBJECT__15
10
9.596000
20
-15.034000
30
6.594000
70
192
0
VERTEX
8
OBJECT__15
10
65.041000
20
-14.590000
30
6.400000
70
192
0
VERTEX
8
OBJECT__15
10
9.596000
20
15.034000
30
6.594000
70
192
0
VERTEX
8
OBJECT__15
10
9.596000
20
16.360001
30
1.356000
70
192
0
VERTEX
8
OBJECT__15
10
65.041000
20
15.878000
30
1.316000
70
192
0
VERTEX
8
OBJECT__15
10
9.596000
20
15.914000
30
-4.030000
70
192
0
VERTEX
8
OBJECT__15
10
65.041000
20
15.445000
30
-3.911000
70
192
0
VERTEX
8
OBJECT__15
10
9.596000
20
13.743000
30
-8.979000
70
192
0
VERTEX
8
OBJECT__15
10
65.041000
20
13.338000
30
-8.714000
70
192
0
VERTEX
8
OBJECT__15
10
65.041000
20
11.722000
30
10.791000
70
192
0
VERTEX
8
OBJECT__15
10
58.270000
20
11.335000
30
11.280000
70
192
0
VERTEX
8
OBJECT__15
10
57.313000
20
11.707000
30
10.898000
70
192
0
VERTEX
8
OBJECT__15
10
59.960999
20
10.383000
30
12.143000
70
192
0
VERTEX
8
OBJECT__15
10
58.445000
20
11.252000
30
11.361000
70
192
0
VERTEX
8
OBJECT__15
10
65.041000
20
9.250000
30
12.972000
70
192
0
VERTEX
8
OBJECT__15
10
61.408001
20
9.250000
30
13.011000
70
192
0
VERTEX
8
OBJECT__15
10
48.951000
20
11.826000
30
10.885000
70
192
0
VERTEX
8
OBJECT__15
10
48.949001
20
11.825000
30
10.886000
70
192
0
VERTEX
8
OBJECT__15
10
49.618000
20
12.034000
30
10.646000
70
192
0
VERTEX
8
OBJECT__15
10
51.000999
20
12.339000
30
10.272000
70
192
0
VERTEX
8
OBJECT__15
10
65.041000
20
14.590000
30
6.400000
70
192
0
VERTEX
8
OBJECT__15
10
52.400002
20
12.486000
30
10.074000
70
192
0
VERTEX
8
OBJECT__15
10
53.814999
20
12.473000
30
10.069000
70
192
0
VERTEX
8
OBJECT__15
10
52.603001
20
12.484000
30
10.073000
70
192
0
VERTEX
8
OBJECT__15
10
57.153000
20
11.770000
30
10.834000
70
192
0
VERTEX
8
OBJECT__15
10
56.779999
20
11.915000
30
10.686000
70
192
0
VERTEX
8
OBJECT__15
10
55.277000
20
12.291000
30
10.271000
70
192
0
VERTEX
8
OBJECT__15
10
9.596000
20
12.078000
30
11.118000
70
192
0
VERTEX
8
OBJECT__15
10
43.247002
20
7.819000
30
14.100000
70
192
0
VERTEX
8
OBJECT__15
10
43.144001
20
7.671000
30
14.174000
70
192
0
VERTEX
8
OBJECT__15
10
44.438999
20
9.109000
30
13.290000
70
192
0
VERTEX
8
OBJECT__15
10
44.042000
20
8.679000
30
13.560000
70
192
0
VERTEX
8
OBJECT__15
10
46.105000
20
10.427000
30
12.265000
70
192
0
VERTEX
8
OBJECT__15
10
45.805000
20
10.222000
30
12.439000
70
192
0
VERTEX
8
OBJECT__15
10
47.493999
20
11.222000
30
11.524000
70
192
0
VERTEX
8
OBJECT__15
10
47.951000
20
11.411000
30
11.324000
70
192
0
VERTEX
8
OBJECT__15
10
9.596000
20
7.813000
30
14.438000
70
192
0
VERTEX
8
OBJECT__15
10
40.965000
20
3.379000
30
15.785000
70
192
0
VERTEX
8
OBJECT__15
10
40.811001
20
2.654000
30
15.905000
70
192
0
VERTEX
8
OBJECT__15
10
41.519001
20
4.944000
30
15.362000
70
192
0
VERTEX
8
OBJECT__15
10
41.428001
20
4.687000
30
15.431000
70
192
0
VERTEX
8
OBJECT__15
10
42.280998
20
6.430000
30
14.794000
70
192
0
VERTEX
8
OBJECT__15
10
9.596000
20
-2.702000
30
16.191999
70
192
0
VERTEX
8
OBJECT__15
10
40.622002
20
-1.746000
30
16.051001
70
192
0
VERTEX
8
OBJECT__15
10
40.674000
20
-2.077000
30
16.011000
70
192
0
VERTEX
8
OBJECT__15
10
9.596000
20
0.000000
30
16.416000
70
192
0
VERTEX
8
OBJECT__15
10
40.500999
20
-0.172000
30
16.146000
70
192
0
VERTEX
8
OBJECT__15
10
9.596000
20
2.702000
30
16.191999
70
192
0
VERTEX
8
OBJECT__15
10
40.509998
20
0.000000
30
16.139000
70
192
0
VERTEX
8
OBJECT__15
10
40.577999
20
1.393000
30
16.086000
70
192
0
VERTEX
8
OBJECT__15
10
40.632000
20
1.813000
30
16.042999
70
192
0
VERTEX
8
OBJECT__15
10
9.596000
20
-7.813000
30
14.438000
70
192
0
VERTEX
8
OBJECT__15
10
41.578999
20
-5.081000
30
15.316000
70
192
0
VERTEX
8
OBJECT__15
10
42.226002
20
-6.338000
30
14.834000
70
192
0
VERTEX
8
OBJECT__15
10
41.033001
20
-3.610000
30
15.733000
70
192
0
VERTEX
8
OBJECT__15
10
41.431999
20
-4.685000
30
15.429000
70
192
0
VERTEX
8
OBJECT__15
10
40.808998
20
-2.654000
30
15.906000
70
192
0
VERTEX
8
OBJECT__15
10
9.596000
20
-12.078000
30
11.118000
70
192
0
VERTEX
8
OBJECT__15
10
47.935001
20
-11.428000
30
11.315000
70
192
0
VERTEX
8
OBJECT__15
10
47.943001
20
-11.431000
30
11.312000
70
192
0
VERTEX
8
OBJECT__15
10
43.141998
20
-7.686000
30
14.174000
70
192
0
VERTEX
8
OBJECT__15
10
44.034000
20
-8.687000
30
13.563000
70
192
0
VERTEX
8
OBJECT__15
10
44.233002
20
-8.910000
30
13.426000
70
192
0
VERTEX
8
OBJECT__15
10
44.963001
20
-9.574000
30
12.953000
70
192
0
VERTEX
8
OBJECT__15
10
43.133999
20
-7.674000
30
14.180000
70
192
0
VERTEX
8
OBJECT__15
10
46.387001
20
-10.607000
30
12.105000
70
192
0
VERTEX
8
OBJECT__15
10
56.748001
20
-11.925000
30
10.675000
70
192
0
VERTEX
8
OBJECT__15
10
57.162998
20
-11.770000
30
10.835000
70
192
0
VERTEX
8
OBJECT__15
10
55.368999
20
-12.274000
30
10.291000
70
192
0
VERTEX
8
OBJECT__15
10
53.976002
20
-12.462000
30
10.081000
70
192
0
VERTEX
8
OBJECT__15
10
52.562000
20
-12.492000
30
10.063000
70
192
0
VERTEX
8
OBJECT__15
10
52.603001
20
-12.491000
30
10.064000
70
192
0
VERTEX
8
OBJECT__15
10
51.081001
20
-12.352000
30
10.255000
70
192
0
VERTEX
8
OBJECT__15
10
49.021000
20
-11.821000
30
10.882000
70
192
0
VERTEX
8
OBJECT__15
10
49.581001
20
-12.023000
30
10.658000
70
192
0
VERTEX
8
OBJECT__15
10
65.041000
20
-11.722000
30
10.791000
70
192
0
VERTEX
8
OBJECT__15
10
60.735001
20
-9.819000
30
12.595000
70
192
0
VERTEX
8
OBJECT__15
10
61.408001
20
-9.250000
30
13.011000
70
192
0
VERTEX
8
OBJECT__15
10
59.391998
20
-10.742000
30
11.833000
70
192
0
VERTEX
8
OBJECT__15
10
57.971001
20
-11.469000
30
11.148000
70
192
0
VERTEX
8
OBJECT__15
10
57.314999
20
-11.713000
30
10.894000
70
192
0
VERTEX
8
OBJECT__15
10
65.041000
20
-9.786000
30
-12.573000
70
192
0
VERTEX
8
OBJECT__15
10
65.041000
20
-9.250000
30
-12.972000
70
192
0
VERTEX
8
OBJECT__15
10
58.176998
20
-9.250000
30
-13.046000
70
192
0
VERTEX
8
OBJECT__15
10
57.410000
20
-9.639000
30
-12.769000
70
192
0
VERTEX
8
OBJECT__15
10
9.596000
20
-10.083000
30
-12.955000
70
192
0
VERTEX
8
OBJECT__15
10
50.285000
20
-10.246000
30
-12.368000
70
192
0
VERTEX
8
OBJECT__15
10
49.652000
20
-10.030000
30
-12.547000
70
192
0
VERTEX
8
OBJECT__15
10
50.536999
20
-10.310000
30
-12.312000
70
192
0
VERTEX
8
OBJECT__15
10
49.181000
20
-9.870000
30
-12.681000
70
192
0
VERTEX
8
OBJECT__15
10
51.928001
20
-10.546000
30
-12.095000
70
192
0
VERTEX
8
OBJECT__15
10
65.041000
20
-13.338000
30
-8.714000
70
192
0
VERTEX
8
OBJECT__15
10
53.270000
20
-10.597000
30
-12.035000
70
192
0
VERTEX
8
OBJECT__15
10
54.695999
20
-10.463000
30
-12.134000
70
192
0
VERTEX
8
OBJECT__15
10
53.993000
20
-10.529000
30
-12.085000
70
192
0
VERTEX
8
OBJECT__15
10
56.904999
20
-9.828000
30
-12.626000
70
192
0
VERTEX
8
OBJECT__15
10
55.980999
20
-10.172000
30
-12.365000
70
192
0
VERTEX
8
OBJECT__15
10
9.596000
20
-5.330000
30
-15.527000
70
192
0
VERTEX
8
OBJECT__15
10
44.929001
20
-6.872000
30
-14.569000
70
192
0
VERTEX
8
OBJECT__15
10
44.064999
20
-5.702000
30
-15.073000
70
192
0
VERTEX
8
OBJECT__15
10
46.075001
20
-8.025000
30
-13.955000
70
192
0
VERTEX
8
OBJECT__15
10
45.877998
20
-7.827000
30
-14.061000
70
192
0
VERTEX
8
OBJECT__15
10
47.549000
20
-9.091000
30
-13.269000
70
192
0
VERTEX
8
OBJECT__15
10
47.370998
20
-8.982000
30
-13.345000
70
192
0
VERTEX
8
OBJECT__15
10
48.882000
20
-9.767000
30
-12.765000
70
192
0
VERTEX
8
OBJECT__15
10
43.810001
20
-5.229000
30
-15.230000
70
192
0
VERTEX
8
OBJECT__15
10
9.596000
20
0.000000
30
-16.416000
70
192
0
VERTEX
8
OBJECT__15
10
42.465000
20
-1.170000
30
-16.087000
70
192
0
VERTEX
8
OBJECT__15
10
42.827000
20
-2.977000
30
-15.849000
70
192
0
VERTEX
8
OBJECT__15
10
42.506001
20
-1.499000
30
-16.059000
70
192
0
VERTEX
8
OBJECT__15
10
43.319000
20
-4.318000
30
-15.533000
70
192
0
VERTEX
8
OBJECT__15
10
43.306999
20
-4.285000
30
-15.541000
70
192
0
VERTEX
8
OBJECT__15
10
9.596000
20
5.330000
30
-15.527000
70
192
0
VERTEX
8
OBJECT__15
10
43.152000
20
3.920000
30
-15.640000
70
192
0
VERTEX
8
OBJECT__15
10
43.323002
20
4.277000
30
-15.532000
70
192
0
VERTEX
8
OBJECT__15
10
42.553001
20
1.797000
30
-16.028000
70
192
0
VERTEX
8
OBJECT__15
10
42.699001
20
2.500000
30
-15.932000
70
192
0
VERTEX
8
OBJECT__15
10
42.404999
20
0.311000
30
-16.127001
70
192
0
VERTEX
8
OBJECT__15
10
42.417000
20
0.000000
30
-16.118999
70
192
0
VERTEX
8
OBJECT__15
10
9.596000
20
10.083000
30
-12.955000
70
192
0
VERTEX
8
OBJECT__15
10
47.466000
20
9.041000
30
-13.305000
70
192
0
VERTEX
8
OBJECT__15
10
47.622002
20
9.135000
30
-13.239000
70
192
0
VERTEX
8
OBJECT__15
10
46.043999
20
7.999000
30
-13.970000
70
192
0
VERTEX
8
OBJECT__15
10
44.931000
20
6.875000
30
-14.567000
70
192
0
VERTEX
8
OBJECT__15
10
45.875999
20
7.829000
30
-14.061000
70
192
0
VERTEX
8
OBJECT__15
10
43.785000
20
5.233000
30
-15.243000
70
192
0
VERTEX
8
OBJECT__15
10
43.800999
20
5.267000
30
-15.233000
70
192
0
VERTEX
8
OBJECT__15
10
44.004002
20
5.606000
30
-15.110000
70
192
0
VERTEX
8
OBJECT__15
10
49.021000
20
9.825000
30
-12.720000
70
192
0
VERTEX
8
OBJECT__15
10
56.819000
20
9.888000
30
-12.584000
70
192
0
VERTEX
8
OBJECT__15
10
56.945999
20
9.828000
30
-12.627000
70
192
0
VERTEX
8
OBJECT__15
10
55.974998
20
10.174000
30
-12.364000
70
192
0
VERTEX
8
OBJECT__15
10
54.594002
20
10.479000
30
-12.122000
70
192
0
VERTEX
8
OBJECT__15
10
53.238998
20
10.597000
30
-12.035000
70
192
0
VERTEX
8
OBJECT__15
10
53.993000
20
10.532000
30
-12.083000
70
192
0
VERTEX
8
OBJECT__15
10
51.813999
20
10.533000
30
-12.107000
70
192
0
VERTEX
8
OBJECT__15
10
49.161999
20
9.870000
30
-12.681000
70
192
0
VERTEX
8
OBJECT__15
10
49.652000
20
10.029000
30
-12.549000
70
192
0
VERTEX
8
OBJECT__15
10
50.478001
20
10.296000
30
-12.325000
70
192
0
VERTEX
8
OBJECT__15
10
65.041000
20
9.786000
30
-12.573000
70
192
0
VERTEX
8
OBJECT__15
10
58.176998
20
9.250000
30
-13.046000
70
192
0
VERTEX
8
OBJECT__15
10
65.041000
20
9.250000
30
-12.972000
70
192
0
VERTEX
8
OBJECT__15
10
65.041000
20
-9.250000
30
12.972000
70
192
0
VERTEX
8
OBJECT__15
10
0
20
0
30
0
70
128
71
1
72
2
73
3
0
VERTEX
8
OBJECT__15
10
0
20
0
30
0
70
128
71
2
72
4
73
5
0
VERTEX
8
OBJECT__15
10
0
20
0
30
0
70
128
71
4
72
6
73
7
0
VERTEX
8
OBJECT__15
10
0
20
0
30
0
70
128
71
8
72
9
73
10
0
VERTEX
8
OBJECT__15
10
0
20
0
30
0
70
128
71
9
72
11
73
12
0
VERTEX
8
OBJECT__15
10
0
20
0
30
0
70
128
71
11
72
13
73
14
0
VERTEX
8
OBJECT__15
10
0
20
0
30
0
70
128
71
15
72
16
73
17
0
VERTEX
8
OBJECT__15
10
0
20
0
30
0
70
128
71
15
72
18
73
19
0
VERTEX
8
OBJECT__15
10
0
20
0
30
0
70
128
71
19
72
16
73
15
0
VERTEX
8
OBJECT__15
10
0
20
0
30
0
70
128
71
15
72
20
73
21
0
VERTEX
8
OBJECT__15
10
0
20
0
30
0
70
128
71
21
72
18
73
15
0
VERTEX
8
OBJECT__15
10
0
20
0
30
0
70
128
71
8
72
22
73
23
0
VERTEX
8
OBJECT__15
10
0
20
0
30
0
70
128
71
8
72
24
73
22
0
VERTEX
8
OBJECT__15
10
0
20
0
30
0
70
128
71
8
72
25
73
24
0
VERTEX
8
OBJECT__15
10
0
20
0
30
0
70
128
71
8
72
26
73
27
0
VERTEX
8
OBJECT__15
10
0
20
0
30
0
70
128
71
27
72
25
73
8
0
VERTEX
8
OBJECT__15
10
0
20
0
30
0
70
128
71
26
72
28
73
29
0
VERTEX
8
OBJECT__15
10
0
20
0
30
0
70
128
71
29
72
27
73
26
0
VERTEX
8
OBJECT__15
10
0
20
0
30
0
70
128
71
26
72
15
73
30
0
VERTEX
8
OBJECT__15
10
0
20
0
30
0
70
128
71
30
72
31
73
26
0
VERTEX
8
OBJECT__15
10
0
20
0
30
0
70
128
71
31
72
32
73
26
0
VERTEX
8
OBJECT__15
10
0
20
0
30
0
70
128
71
32
72
28
73
26
0
VERTEX
8
OBJECT__15
10
0
20
0
30
0
70
128
71
33
72
34
73
35
0
VERTEX
8
OBJECT__15
10
0
20
0
30
0
70
128
71
33
72
36
73
37
0
VERTEX
8
OBJECT__15
10
0
20
0
30
0
70
128
71
37
72
34
73
33
0
VERTEX
8
OBJECT__15
10
0
20
0
30
0
70
128
71
33
72
38
73
39
0
VERTEX
8
OBJECT__15
10
0
20
0
30
0
70
128
71
33
72
40
73
38
0
VERTEX
8
OBJECT__15
10
0
20
0
30
0
70
128
71
39
72
36
73
33
0
VERTEX
8
OBJECT__15
10
0
20
0
30
0
70
128
71
33
72
23
73
41
0
VERTEX
8
OBJECT__15
10
0
20
0
30
0
70
128
71
41
72
40
73
33
0
VERTEX
8
OBJECT__15
10
0
20
0
30
0
70
128
71
42
72
43
73
44
0
VERTEX
8
OBJECT__15
10
0
20
0
30
0
70
128
71
42
72
45
73
46
0
VERTEX
8
OBJECT__15
10
0
20
0
30
0
70
128
71
42
72
35
73
47
0
VERTEX
8
OBJECT__15
10
0
20
0
30
0
70
128
71
47
72
45
73
42
0
VERTEX
8
OBJECT__15
10
0
20
0
30
0
70
128
71
46
72
43
73
42
0
VERTEX
8
OBJECT__15
10
0
20
0
30
0
70
128
71
48
72
49
73
50
0
VERTEX
8
OBJECT__15
10
0
20
0
30
0
70
128
71
48
72
51
73
52
0
VERTEX
8
OBJECT__15
10
0
20
0
30
0
70
128
71
52
72
49
73
48
0
VERTEX
8
OBJECT__15
10
0
20
0
30
0
70
128
71
53
72
54
73
52
0
VERTEX
8
OBJECT__15
10
0
20
0
30
0
70
128
71
53
72
55
73
54
0
VERTEX
8
OBJECT__15
10
0
20
0
30
0
70
128
71
53
72
56
73
55
0
VERTEX
8
OBJECT__15
10
0
20
0
30
0
70
128
71
53
72
44
73
56
0
VERTEX
8
OBJECT__15
10
0
20
0
30
0
70
128
71
52
72
51
73
53
0
VERTEX
8
OBJECT__15
10
0
20
0
30
0
70
128
71
57
72
58
73
59
0
VERTEX
8
OBJECT__15
10
0
20
0
30
0
70
128
71
57
72
60
73
61
0
VERTEX
8
OBJECT__15
10
0
20
0
30
0
70
128
71
61
72
58
73
57
0
VERTEX
8
OBJECT__15
10
0
20
0
30
0
70
128
71
57
72
48
73
62
0
VERTEX
8
OBJECT__15
10
0
20
0
30
0
70
128
71
62
72
60
73
57
0
VERTEX
8
OBJECT__15
10
0
20
0
30
0
70
128
71
63
72
64
73
65
0
VERTEX
8
OBJECT__15
10
0
20
0
30
0
70
128
71
63
72
66
73
67
0
VERTEX
8
OBJECT__15
10
0
20
0
30
0
70
128
71
67
72
68
73
63
0
VERTEX
8
OBJECT__15
10
0
20
0
30
0
70
128
71
68
72
69
73
63
0
VERTEX
8
OBJECT__15
10
0
20
0
30
0
70
128
71
63
72
57
73
70
0
VERTEX
8
OBJECT__15
10
0
20
0
30
0
70
128
71
70
72
66
73
63
0
VERTEX
8
OBJECT__15
10
0
20
0
30
0
70
128
71
69
72
71
73
63
0
VERTEX
8
OBJECT__15
10
0
20
0
30
0
70
128
71
71
72
64
73
63
0
VERTEX
8
OBJECT__15
10
0
20
0
30
0
70
128
71
7
72
72
73
73
0
VERTEX
8
OBJECT__15
10
0
20
0
30
0
70
128
71
7
72
74
73
72
0
VERTEX
8
OBJECT__15
10
0
20
0
30
0
70
128
71
7
72
75
73
74
0
VERTEX
8
OBJECT__15
10
0
20
0
30
0
70
128
71
7
72
76
73
77
0
VERTEX
8
OBJECT__15
10
0
20
0
30
0
70
128
71
77
72
75
73
7
0
VERTEX
8
OBJECT__15
10
0
20
0
30
0
70
128
71
6
72
78
73
76
0
VERTEX
8
OBJECT__15
10
0
20
0
30
0
70
128
71
6
72
63
73
79
0
VERTEX
8
OBJECT__15
10
0
20
0
30
0
70
128
71
79
72
80
73
6
0
VERTEX
8
OBJECT__15
10
0
20
0
30
0
70
128
71
80
72
78
73
6
0
VERTEX
8
OBJECT__15
10
0
20
0
30
0
70
128
71
76
72
7
73
6
0
VERTEX
8
OBJECT__15
10
0
20
0
30
0
70
128
71
81
72
82
73
83
0
VERTEX
8
OBJECT__15
10
0
20
0
30
0
70
128
71
81
72
84
73
82
0
VERTEX
8
OBJECT__15
10
0
20
0
30
0
70
128
71
81
72
85
73
84
0
VERTEX
8
OBJECT__15
10
0
20
0
30
0
70
128
71
81
72
73
73
86
0
VERTEX
8
OBJECT__15
10
0
20
0
30
0
70
128
71
86
72
85
73
81
0
VERTEX
8
OBJECT__15
10
0
20
0
30
0
70
128
71
87
72
88
73
89
0
VERTEX
8
OBJECT__15
10
0
20
0
30
0
70
128
71
89
72
90
73
87
0
VERTEX
8
OBJECT__15
10
0
20
0
30
0
70
128
71
91
72
92
73
93
0
VERTEX
8
OBJECT__15
10
0
20
0
30
0
70
128
71
1
72
94
73
92
0
VERTEX
8
OBJECT__15
10
0
20
0
30
0
70
128
71
92
72
91
73
1
0
VERTEX
8
OBJECT__15
10
0
20
0
30
0
70
128
71
93
72
95
73
91
0
VERTEX
8
OBJECT__15
10
0
20
0
30
0
70
128
71
1
72
96
73
94
0
VERTEX
8
OBJECT__15
10
0
20
0
30
0
70
128
71
97
72
98
73
96
0
VERTEX
8
OBJECT__15
10
0
20
0
30
0
70
128
71
96
72
1
73
97
0
VERTEX
8
OBJECT__15
10
0
20
0
30
0
70
128
71
97
72
99
73
100
0
VERTEX
8
OBJECT__15
10
0
20
0
30
0
70
128
71
97
72
87
73
101
0
VERTEX
8
OBJECT__15
10
0
20
0
30
0
70
128
71
101
72
102
73
97
0
VERTEX
8
OBJECT__15
10
0
20
0
30
0
70
128
71
102
72
99
73
97
0
VERTEX
8
OBJECT__15
10
0
20
0
30
0
70
128
71
100
72
98
73
97
0
VERTEX
8
OBJECT__15
10
0
20
0
30
0
70
128
71
103
72
104
73
105
0
VERTEX
8
OBJECT__15
10
0
20
0
30
0
70
128
71
103
72
106
73
107
0
VERTEX
8
OBJECT__15
10
0
20
0
30
0
70
128
71
107
72
104
73
103
0
VERTEX
8
OBJECT__15
10
0
20
0
30
0
70
128
71
103
72
108
73
109
0
VERTEX
8
OBJECT__15
10
0
20
0
30
0
70
128
71
103
72
110
73
108
0
VERTEX
8
OBJECT__15
10
0
20
0
30
0
70
128
71
109
72
106
73
103
0
VERTEX
8
OBJECT__15
10
0
20
0
30
0
70
128
71
91
72
95
73
110
0
VERTEX
8
OBJECT__15
10
0
20
0
30
0
70
128
71
110
72
103
73
91
0
VERTEX
8
OBJECT__15
10
0
20
0
30
0
70
128
71
105
72
111
73
103
0
VERTEX
8
OBJECT__15
10
0
20
0
30
0
70
128
71
112
72
103
73
113
0
VERTEX
8
OBJECT__15
10
0
20
0
30
0
70
128
71
103
72
114
73
115
0
VERTEX
8
OBJECT__15
10
0
20
0
30
0
70
128
71
115
72
113
73
103
0
VERTEX
8
OBJECT__15
10
0
20
0
30
0
70
128
71
103
72
116
73
117
0
VERTEX
8
OBJECT__15
10
0
20
0
30
0
70
128
71
117
72
114
73
103
0
VERTEX
8
OBJECT__15
10
0
20
0
30
0
70
128
71
103
72
111
73
116
0
VERTEX
8
OBJECT__15
10
0
20
0
30
0
70
128
71
118
72
119
73
120
0
VERTEX
8
OBJECT__15
10
0
20
0
30
0
70
128
71
118
72
121
73
122
0
VERTEX
8
OBJECT__15
10
0
20
0
30
0
70
128
71
118
72
112
73
123
0
VERTEX
8
OBJECT__15
10
0
20
0
30
0
70
128
71
123
72
121
73
118
0
VERTEX
8
OBJECT__15
10
0
20
0
30
0
70
128
71
122
72
119
73
118
0
VERTEX
8
OBJECT__15
10
0
20
0
30
0
70
128
71
124
72
123
73
112
0
VERTEX
8
OBJECT__15
10
0
20
0
30
0
70
128
71
125
72
126
73
127
0
VERTEX
8
OBJECT__15
10
0
20
0
30
0
70
128
71
125
72
128
73
126
0
VERTEX
8
OBJECT__15
10
0
20
0
30
0
70
128
71
125
72
129
73
130
0
VERTEX
8
OBJECT__15
10
0
20
0
30
0
70
128
71
125
72
118
73
131
0
VERTEX
8
OBJECT__15
10
0
20
0
30
0
70
128
71
131
72
132
73
125
0
VERTEX
8
OBJECT__15
10
0
20
0
30
0
70
128
71
132
72
133
73
125
0
VERTEX
8
OBJECT__15
10
0
20
0
30
0
70
128
71
133
72
129
73
125
0
VERTEX
8
OBJECT__15
10
0
20
0
30
0
70
128
71
130
72
128
73
125
0
VERTEX
8
OBJECT__15
10
0
20
0
30
0
70
128
71
127
72
134
73
125
0
VERTEX
8
OBJECT__15
10
0
20
0
30
0
70
128
71
14
72
135
73
136
0
VERTEX
8
OBJECT__15
10
0
20
0
30
0
70
128
71
14
72
137
73
135
0
VERTEX
8
OBJECT__15
10
0
20
0
30
0
70
128
71
14
72
138
73
137
0
VERTEX
8
OBJECT__15
10
0
20
0
30
0
70
128
71
14
72
139
73
140
0
VERTEX
8
OBJECT__15
10
0
20
0
30
0
70
128
71
140
72
138
73
14
0
VERTEX
8
OBJECT__15
10
0
20
0
30
0
70
128
71
14
72
13
73
141
0
VERTEX
8
OBJECT__15
10
0
20
0
30
0
70
128
71
13
72
125
73
142
0
VERTEX
8
OBJECT__15
10
0
20
0
30
0
70
128
71
142
72
143
73
13
0
VERTEX
8
OBJECT__15
10
0
20
0
30
0
70
128
71
143
72
144
73
13
0
VERTEX
8
OBJECT__15
10
0
20
0
30
0
70
128
71
144
72
141
73
13
0
VERTEX
8
OBJECT__15
10
0
20
0
30
0
70
128
71
141
72
139
73
14
0
VERTEX
8
OBJECT__15
10
0
20
0
30
0
70
128
71
145
72
136
73
146
0
VERTEX
8
OBJECT__15
10
0
20
0
30
0
70
128
71
146
72
147
73
145
0
VERTEX
8
OBJECT__15
10
0
20
0
30
0
70
128
71
136
72
145
73
14
0
VERTEX
8
OBJECT__15
10
0
20
0
30
0
70
128
71
134
72
142
73
125
0
VERTEX
8
OBJECT__15
10
0
20
0
30
0
70
128
71
120
72
131
73
118
0
VERTEX
8
OBJECT__15
10
0
20
0
30
0
70
128
71
113
72
124
73
112
0
VERTEX
8
OBJECT__15
10
0
20
0
30
0
70
128
71
90
72
101
73
87
0
VERTEX
8
OBJECT__15
10
0
20
0
30
0
70
128
71
83
72
148
73
81
0
VERTEX
8
OBJECT__15
10
0
20
0
30
0
70
128
71
73
72
81
73
7
0
VERTEX
8
OBJECT__15
10
0
20
0
30
0
70
128
71
65
72
79
73
63
0
VERTEX
8
OBJECT__15
10
0
20
0
30
0
70
128
71
59
72
70
73
57
0
VERTEX
8
OBJECT__15
10
0
20
0
30
0
70
128
71
50
72
62
73
48
0
VERTEX
8
OBJECT__15
10
0
20
0
30
0
70
128
71
44
72
53
73
42
0
VERTEX
8
OBJECT__15
10
0
20
0
30
0
70
128
71
35
72
42
73
33
0
VERTEX
8
OBJECT__15
10
0
20
0
30
0
70
128
71
23
72
33
73
8
0
VERTEX
8
OBJECT__15
10
0
20
0
30
0
70
128
71
17
72
30
73
15
0
VERTEX
8
OBJECT__15
10
0
20
0
30
0
70
128
71
14
72
12
73
11
0
VERTEX
8
OBJECT__15
10
0
20
0
30
0
70
128
71
12
72
10
73
9
0
VERTEX
8
OBJECT__15
10
0
20
0
30
0
70
128
71
10
72
26
73
8
0
VERTEX
8
OBJECT__15
10
0
20
0
30
0
70
128
71
7
72
5
73
4
0
VERTEX
8
OBJECT__15
10
0
20
0
30
0
70
128
71
5
72
3
73
2
0
VERTEX
8
OBJECT__15
10
0
20
0
30
0
70
128
71
3
72
97
73
1
0
SEQEND
8
OBJECT__15
0
POLYLINE
8
OBJECT__16
66
1
70
64
71
100
72
98
62
253
0
VERTEX
8
OBJECT__16
10
56.726002
20
9.924000
30
-15.023000
70
192
0
VERTEX
8
OBJECT__16
10
58.096001
20
9.295000
30
-15.406000
70
192
0
VERTEX
8
OBJECT__16
10
58.176998
20
9.250000
30
-13.046000
70
192
0
VERTEX
8
OBJECT__16
10
56.945999
20
9.828000
30
-12.627000
70
192
0
VERTEX
8
OBJECT__16
10
55.287998
20
10.350000
30
-14.748000
70
192
0
VERTEX
8
OBJECT__16
10
56.819000
20
9.888000
30
-12.584000
70
192
0
VERTEX
8
OBJECT__16
10
55.974998
20
10.174000
30
-12.364000
70
192
0
VERTEX
8
OBJECT__16
10
55.084000
20
10.393000
30
-14.720000
70
192
0
VERTEX
8
OBJECT__16
10
54.594002
20
10.479000
30
-12.122000
70
192
0
VERTEX
8
OBJECT__16
10
53.993000
20
10.534000
30
-14.631000
70
192
0
VERTEX
8
OBJECT__16
10
53.993000
20
10.532000
30
-12.083000
70
192
0
VERTEX
8
OBJECT__16
10
53.238998
20
10.597000
30
-12.035000
70
192
0
VERTEX
8
OBJECT__16
10
51.813999
20
10.533000
30
-12.107000
70
192
0
VERTEX
8
OBJECT__16
10
52.160000
20
10.567000
30
-14.627000
70
192
0
VERTEX
8
OBJECT__16
10
53.623001
20
10.582000
30
-14.601000
70
192
0
VERTEX
8
OBJECT__16
10
51.791000
20
10.531000
30
-14.657000
70
192
0
VERTEX
8
OBJECT__16
10
50.478001
20
10.296000
30
-12.325000
70
192
0
VERTEX
8
OBJECT__16
10
50.312000
20
10.253000
30
-14.868000
70
192
0
VERTEX
8
OBJECT__16
10
49.652000
20
10.029000
30
-12.549000
70
192
0
VERTEX
8
OBJECT__16
10
49.651001
20
10.033000
30
-15.022000
70
192
0
VERTEX
8
OBJECT__16
10
49.161999
20
9.870000
30
-12.681000
70
192
0
VERTEX
8
OBJECT__16
10
49.021000
20
9.825000
30
-12.720000
70
192
0
VERTEX
8
OBJECT__16
10
47.583000
20
9.111000
30
-15.622000
70
192
0
VERTEX
8
OBJECT__16
10
49.009998
20
9.820000
30
-15.171000
70
192
0
VERTEX
8
OBJECT__16
10
47.622002
20
9.135000
30
-13.239000
70
192
0
VERTEX
8
OBJECT__16
10
46.043999
20
7.999000
30
-13.970000
70
192
0
VERTEX
8
OBJECT__16
10
46.396999
20
8.292000
30
-16.083000
70
192
0
VERTEX
8
OBJECT__16
10
47.466000
20
9.041000
30
-13.305000
70
192
0
VERTEX
8
OBJECT__16
10
45.875999
20
7.829000
30
-14.061000
70
192
0
VERTEX
8
OBJECT__16
10
45.872002
20
7.832000
30
-16.313999
70
192
0
VERTEX
8
OBJECT__16
10
43.785000
20
5.233000
30
-15.243000
70
192
0
VERTEX
8
OBJECT__16
10
43.323002
20
4.277000
30
-15.532000
70
192
0
VERTEX
8
OBJECT__16
10
43.727001
20
5.135000
30
-17.375999
70
192
0
VERTEX
8
OBJECT__16
10
43.328999
20
4.275000
30
-17.596001
70
192
0
VERTEX
8
OBJECT__16
10
43.567001
20
4.836000
30
-17.462999
70
192
0
VERTEX
8
OBJECT__16
10
44.028000
20
5.594000
30
-17.218000
70
192
0
VERTEX
8
OBJECT__16
10
43.800999
20
5.267000
30
-15.233000
70
192
0
VERTEX
8
OBJECT__16
10
44.590000
20
6.453000
30
-16.922001
70
192
0
VERTEX
8
OBJECT__16
10
44.004002
20
5.606000
30
-15.110000
70
192
0
VERTEX
8
OBJECT__16
10
44.931000
20
6.875000
30
-14.567000
70
192
0
VERTEX
8
OBJECT__16
10
45.646000
20
7.634000
30
-16.413000
70
192
0
VERTEX
8
OBJECT__16
10
42.417000
20
0.001000
30
-16.118999
70
192
0
VERTEX
8
OBJECT__16
10
42.408001
20
0.000000
30
-18.125000
70
192
0
VERTEX
8
OBJECT__16
10
42.404999
20
0.311000
30
-16.127001
70
192
0
VERTEX
8
OBJECT__16
10
42.492001
20
1.395000
30
-18.075001
70
192
0
VERTEX
8
OBJECT__16
10
42.553001
20
1.797000
30
-16.028000
70
192
0
VERTEX
8
OBJECT__16
10
42.585999
20
1.977000
30
-18.020000
70
192
0
VERTEX
8
OBJECT__16
10
42.973000
20
3.439000
30
-17.796000
70
192
0
VERTEX
8
OBJECT__16
10
42.699001
20
2.500000
30
-15.932000
70
192
0
VERTEX
8
OBJECT__16
10
43.152000
20
3.920000
30
-15.640000
70
192
0
VERTEX
8
OBJECT__16
10
42.827000
20
-2.977000
30
-15.849000
70
192
0
VERTEX
8
OBJECT__16
10
43.306999
20
-4.285000
30
-15.541000
70
192
0
VERTEX
8
OBJECT__16
10
43.327000
20
-4.276000
30
-17.597000
70
192
0
VERTEX
8
OBJECT__16
10
42.570999
20
-1.894000
30
-18.028999
70
192
0
VERTEX
8
OBJECT__16
10
42.506001
20
-1.499000
30
-16.059000
70
192
0
VERTEX
8
OBJECT__16
10
42.955002
20
-3.386000
30
-17.806000
70
192
0
VERTEX
8
OBJECT__16
10
42.525002
20
-1.624000
30
-18.056000
70
192
0
VERTEX
8
OBJECT__16
10
42.465000
20
-1.170000
30
-16.087000
70
192
0
VERTEX
8
OBJECT__16
10
42.401001
20
-0.120000
30
-18.129999
70
192
0
VERTEX
8
OBJECT__16
10
44.929001
20
-6.872000
30
-14.569000
70
192
0
VERTEX
8
OBJECT__16
10
45.877998
20
-7.827000
30
-14.061000
70
192
0
VERTEX
8
OBJECT__16
10
45.884998
20
-7.817000
30
-16.313999
70
192
0
VERTEX
8
OBJECT__16
10
45.354000
20
-7.342000
30
-16.549000
70
192
0
VERTEX
8
OBJECT__16
10
44.355000
20
-6.134000
30
-17.042999
70
192
0
VERTEX
8
OBJECT__16
10
44.064999
20
-5.702000
30
-15.073000
70
192
0
VERTEX
8
OBJECT__16
10
43.319000
20
-4.318000
30
-15.533000
70
192
0
VERTEX
8
OBJECT__16
10
43.810001
20
-5.229000
30
-15.230000
70
192
0
VERTEX
8
OBJECT__16
10
44.029999
20
-5.594000
30
-17.216000
70
192
0
VERTEX
8
OBJECT__16
10
43.530998
20
-4.765000
30
-17.482000
70
192
0
VERTEX
8
OBJECT__16
10
46.554001
20
-8.415000
30
-16.018000
70
192
0
VERTEX
8
OBJECT__16
10
47.889000
20
-9.286000
30
-15.515000
70
192
0
VERTEX
8
OBJECT__16
10
46.075001
20
-8.025000
30
-13.955000
70
192
0
VERTEX
8
OBJECT__16
10
47.370998
20
-8.982000
30
-13.345000
70
192
0
VERTEX
8
OBJECT__16
10
48.213001
20
-9.458000
30
-15.408000
70
192
0
VERTEX
8
OBJECT__16
10
47.549000
20
-9.091000
30
-13.269000
70
192
0
VERTEX
8
OBJECT__16
10
48.882000
20
-9.767000
30
-12.765000
70
192
0
VERTEX
8
OBJECT__16
10
49.598000
20
-10.039000
30
-15.021000
70
192
0
VERTEX
8
OBJECT__16
10
49.181000
20
-9.870000
30
-12.681000
70
192
0
VERTEX
8
OBJECT__16
10
49.652000
20
-10.030000
30
-12.547000
70
192
0
VERTEX
8
OBJECT__16
10
49.644001
20
-10.051000
30
-15.012000
70
192
0
VERTEX
8
OBJECT__16
10
51.042999
20
-10.418000
30
-14.746000
70
192
0
VERTEX
8
OBJECT__16
10
50.285000
20
-10.246000
30
-12.368000
70
192
0
VERTEX
8
OBJECT__16
10
50.536999
20
-10.310000
30
-12.312000
70
192
0
VERTEX
8
OBJECT__16
10
51.235001
20
-10.452000
30
-14.719000
70
192
0
VERTEX
8
OBJECT__16
10
51.928001
20
-10.546000
30
-12.095000
70
192
0
VERTEX
8
OBJECT__16
10
52.702000
20
-10.596000
30
-14.600000
70
192
0
VERTEX
8
OBJECT__16
10
53.270000
20
-10.597000
30
-12.035000
70
192
0
VERTEX
8
OBJECT__16
10
53.994999
20
-10.543000
30
-14.625000
70
192
0
VERTEX
8
OBJECT__16
10
53.993000
20
-10.529000
30
-12.085000
70
192
0
VERTEX
8
OBJECT__16
10
54.695999
20
-10.463000
30
-12.134000
70
192
0
VERTEX
8
OBJECT__16
10
54.506001
20
-10.492000
30
-14.656000
70
192
0
VERTEX
8
OBJECT__16
10
54.162998
20
-10.536000
30
-14.628000
70
192
0
VERTEX
8
OBJECT__16
10
55.980999
20
-10.172000
30
-12.365000
70
192
0
VERTEX
8
OBJECT__16
10
55.980000
20
-10.172000
30
-14.864000
70
192
0
VERTEX
8
OBJECT__16
10
56.904999
20
-9.828000
30
-12.626000
70
192
0
VERTEX
8
OBJECT__16
10
57.410000
20
-9.639000
30
-12.769000
70
192
0
VERTEX
8
OBJECT__16
10
57.264000
20
-9.704000
30
-15.160000
70
192
0
VERTEX
8
OBJECT__16
10
58.176998
20
-9.250000
30
-13.046000
70
192
0
VERTEX
8
OBJECT__16
10
58.176998
20
-9.250000
30
-15.432000
70
192
0
VERTEX
8
OBJECT__16
10
58.176998
20
9.250000
30
-15.432000
70
192
0
VERTEX
8
OBJECT__16
10
0
20
0
30
0
70
128
71
1
72
2
73
3
0
VERTEX
8
OBJECT__16
10
0
20
0
30
0
70
128
71
3
72
4
73
1
0
VERTEX
8
OBJECT__16
10
0
20
0
30
0
70
128
71
5
72
1
73
6
0
VERTEX
8
OBJECT__16
10
0
20
0
30
0
70
128
71
1
72
4
73
6
0
VERTEX
8
OBJECT__16
10
0
20
0
30
0
70
128
71
7
72
8
73
5
0
VERTEX
8
OBJECT__16
10
0
20
0
30
0
70
128
71
9
72
10
73
8
0
VERTEX
8
OBJECT__16
10
0
20
0
30
0
70
128
71
8
72
7
73
9
0
VERTEX
8
OBJECT__16
10
0
20
0
30
0
70
128
71
9
72
11
73
10
0
VERTEX
8
OBJECT__16
10
0
20
0
30
0
70
128
71
6
72
7
73
5
0
VERTEX
8
OBJECT__16
10
0
20
0
30
0
70
128
71
12
72
13
73
14
0
VERTEX
8
OBJECT__16
10
0
20
0
30
0
70
128
71
15
72
11
73
12
0
VERTEX
8
OBJECT__16
10
0
20
0
30
0
70
128
71
16
72
13
73
17
0
VERTEX
8
OBJECT__16
10
0
20
0
30
0
70
128
71
17
72
18
73
16
0
VERTEX
8
OBJECT__16
10
0
20
0
30
0
70
128
71
17
72
19
73
18
0
VERTEX
8
OBJECT__16
10
0
20
0
30
0
70
128
71
16
72
14
73
13
0
VERTEX
8
OBJECT__16
10
0
20
0
30
0
70
128
71
19
72
20
73
18
0
VERTEX
8
OBJECT__16
10
0
20
0
30
0
70
128
71
14
72
15
73
12
0
VERTEX
8
OBJECT__16
10
0
20
0
30
0
70
128
71
20
72
21
73
22
0
VERTEX
8
OBJECT__16
10
0
20
0
30
0
70
128
71
20
72
19
73
21
0
VERTEX
8
OBJECT__16
10
0
20
0
30
0
70
128
71
23
72
24
73
25
0
VERTEX
8
OBJECT__16
10
0
20
0
30
0
70
128
71
24
72
22
73
25
0
VERTEX
8
OBJECT__16
10
0
20
0
30
0
70
128
71
26
72
27
73
23
0
VERTEX
8
OBJECT__16
10
0
20
0
30
0
70
128
71
23
72
28
73
26
0
VERTEX
8
OBJECT__16
10
0
20
0
30
0
70
128
71
29
72
30
73
27
0
VERTEX
8
OBJECT__16
10
0
20
0
30
0
70
128
71
26
72
29
73
27
0
VERTEX
8
OBJECT__16
10
0
20
0
30
0
70
128
71
25
72
28
73
23
0
VERTEX
8
OBJECT__16
10
0
20
0
30
0
70
128
71
31
72
32
73
33
0
VERTEX
8
OBJECT__16
10
0
20
0
30
0
70
128
71
32
72
34
73
35
0
VERTEX
8
OBJECT__16
10
0
20
0
30
0
70
128
71
35
72
33
73
32
0
VERTEX
8
OBJECT__16
10
0
20
0
30
0
70
128
71
36
72
37
73
31
0
VERTEX
8
OBJECT__16
10
0
20
0
30
0
70
128
71
36
72
38
73
39
0
VERTEX
8
OBJECT__16
10
0
20
0
30
0
70
128
71
40
72
39
73
38
0
VERTEX
8
OBJECT__16
10
0
20
0
30
0
70
128
71
38
72
41
73
40
0
VERTEX
8
OBJECT__16
10
0
20
0
30
0
70
128
71
40
72
41
73
30
0
VERTEX
8
OBJECT__16
10
0
20
0
30
0
70
128
71
30
72
29
73
40
0
VERTEX
8
OBJECT__16
10
0
20
0
30
0
70
128
71
39
72
37
73
36
0
VERTEX
8
OBJECT__16
10
0
20
0
30
0
70
128
71
44
72
43
73
45
0
VERTEX
8
OBJECT__16
10
0
20
0
30
0
70
128
71
45
72
46
73
44
0
VERTEX
8
OBJECT__16
10
0
20
0
30
0
70
128
71
47
72
48
73
49
0
VERTEX
8
OBJECT__16
10
0
20
0
30
0
70
128
71
50
72
49
73
48
0
VERTEX
8
OBJECT__16
10
0
20
0
30
0
70
128
71
48
72
34
73
50
0
VERTEX
8
OBJECT__16
10
0
20
0
30
0
70
128
71
49
72
46
73
47
0
VERTEX
8
OBJECT__16
10
0
20
0
30
0
70
128
71
34
72
32
73
50
0
VERTEX
8
OBJECT__16
10
0
20
0
30
0
70
128
71
45
72
47
73
46
0
VERTEX
8
OBJECT__16
10
0
20
0
30
0
70
128
71
51
72
52
73
53
0
VERTEX
8
OBJECT__16
10
0
20
0
30
0
70
128
71
54
72
55
73
51
0
VERTEX
8
OBJECT__16
10
0
20
0
30
0
70
128
71
51
72
56
73
54
0
VERTEX
8
OBJECT__16
10
0
20
0
30
0
70
128
71
57
72
58
73
55
0
VERTEX
8
OBJECT__16
10
0
20
0
30
0
70
128
71
42
72
59
73
43
0
VERTEX
8
OBJECT__16
10
0
20
0
30
0
70
128
71
42
72
57
73
59
0
VERTEX
8
OBJECT__16
10
0
20
0
30
0
70
128
71
42
72
58
73
57
0
VERTEX
8
OBJECT__16
10
0
20
0
30
0
70
128
71
54
72
57
73
55
0
VERTEX
8
OBJECT__16
10
0
20
0
30
0
70
128
71
60
72
61
73
62
0
VERTEX
8
OBJECT__16
10
0
20
0
30
0
70
128
71
63
72
64
73
65
0
VERTEX
8
OBJECT__16
10
0
20
0
30
0
70
128
71
65
72
60
73
63
0
VERTEX
8
OBJECT__16
10
0
20
0
30
0
70
128
71
66
72
67
73
68
0
VERTEX
8
OBJECT__16
10
0
20
0
30
0
70
128
71
64
72
68
73
67
0
VERTEX
8
OBJECT__16
10
0
20
0
30
0
70
128
71
67
72
65
73
64
0
VERTEX
8
OBJECT__16
10
0
20
0
30
0
70
128
71
68
72
69
73
66
0
VERTEX
8
OBJECT__16
10
0
20
0
30
0
70
128
71
69
72
53
73
52
0
VERTEX
8
OBJECT__16
10
0
20
0
30
0
70
128
71
52
72
66
73
69
0
VERTEX
8
OBJECT__16
10
0
20
0
30
0
70
128
71
70
72
62
73
61
0
VERTEX
8
OBJECT__16
10
0
20
0
30
0
70
128
71
71
72
70
73
72
0
VERTEX
8
OBJECT__16
10
0
20
0
30
0
70
128
71
72
72
73
73
71
0
VERTEX
8
OBJECT__16
10
0
20
0
30
0
70
128
71
74
72
71
73
73
0
VERTEX
8
OBJECT__16
10
0
20
0
30
0
70
128
71
73
72
75
73
74
0
VERTEX
8
OBJECT__16
10
0
20
0
30
0
70
128
71
76
72
77
73
74
0
VERTEX
8
OBJECT__16
10
0
20
0
30
0
70
128
71
74
72
75
73
76
0
VERTEX
8
OBJECT__16
10
0
20
0
30
0
70
128
71
76
72
78
73
77
0
VERTEX
8
OBJECT__16
10
0
20
0
30
0
70
128
71
78
72
79
73
80
0
VERTEX
8
OBJECT__16
10
0
20
0
30
0
70
128
71
80
72
77
73
78
0
VERTEX
8
OBJECT__16
10
0
20
0
30
0
70
128
71
81
72
80
73
79
0
VERTEX
8
OBJECT__16
10
0
20
0
30
0
70
128
71
79
72
82
73
81
0
VERTEX
8
OBJECT__16
10
0
20
0
30
0
70
128
71
83
72
84
73
81
0
VERTEX
8
OBJECT__16
10
0
20
0
30
0
70
128
71
85
72
86
73
84
0
VERTEX
8
OBJECT__16
10
0
20
0
30
0
70
128
71
84
72
83
73
85
0
VERTEX
8
OBJECT__16
10
0
20
0
30
0
70
128
71
85
72
87
73
86
0
VERTEX
8
OBJECT__16
10
0
20
0
30
0
70
128
71
88
72
86
73
87
0
VERTEX
8
OBJECT__16
10
0
20
0
30
0
70
128
71
87
72
89
73
88
0
VERTEX
8
OBJECT__16
10
0
20
0
30
0
70
128
71
90
72
91
73
92
0
VERTEX
8
OBJECT__16
10
0
20
0
30
0
70
128
71
91
72
90
73
93
0
VERTEX
8
OBJECT__16
10
0
20
0
30
0
70
128
71
93
72
94
73
91
0
VERTEX
8
OBJECT__16
10
0
20
0
30
0
70
128
71
92
72
89
73
90
0
VERTEX
8
OBJECT__16
10
0
20
0
30
0
70
128
71
94
72
95
73
96
0
VERTEX
8
OBJECT__16
10
0
20
0
30
0
70
128
71
94
72
93
73
95
0
VERTEX
8
OBJECT__16
10
0
20
0
30
0
70
128
71
97
72
96
73
98
0
VERTEX
8
OBJECT__16
10
0
20
0
30
0
70
128
71
98
72
99
73
97
0
VERTEX
8
OBJECT__16
10
0
20
0
30
0
70
128
71
96
72
97
73
94
0
VERTEX
8
OBJECT__16
10
0
20
0
30
0
70
128
71
92
72
88
73
89
0
VERTEX
8
OBJECT__16
10
0
20
0
30
0
70
128
71
82
72
83
73
81
0
VERTEX
8
OBJECT__16
10
0
20
0
30
0
70
128
71
61
72
72
73
70
0
VERTEX
8
OBJECT__16
10
0
20
0
30
0
70
128
71
62
72
63
73
60
0
VERTEX
8
OBJECT__16
10
0
20
0
30
0
70
128
71
53
72
56
73
51
0
VERTEX
8
OBJECT__16
10
0
20
0
30
0
70
128
71
43
72
44
73
42
0
VERTEX
8
OBJECT__16
10
0
20
0
30
0
70
128
71
33
72
36
73
31
0
VERTEX
8
OBJECT__16
10
0
20
0
30
0
70
128
71
22
72
24
73
20
0
VERTEX
8
OBJECT__16
10
0
20
0
30
0
70
128
71
15
72
10
73
11
0
VERTEX
8
OBJECT__16
10
0
20
0
30
0
70
128
71
2
72
100
73
3
0
SEQEND
8
OBJECT__16
0
POLYLINE
8
OBJECT__17
66
1
70
64
71
122
72
120
62
253
0
VERTEX
8
OBJECT__17
10
60.029999
20
-10.336000
30
14.708000
70
192
0
VERTEX
8
OBJECT__17
10
61.408001
20
-9.250000
30
15.400000
70
192
0
VERTEX
8
OBJECT__17
10
61.408001
20
-9.250000
30
13.011000
70
192
0
VERTEX
8
OBJECT__17
10
60.735001
20
-9.819000
30
12.595000
70
192
0
VERTEX
8
OBJECT__17
10
59.749001
20
-10.522000
30
14.578000
70
192
0
VERTEX
8
OBJECT__17
10
59.391998
20
-10.742000
30
11.833000
70
192
0
VERTEX
8
OBJECT__17
10
58.334000
20
-11.305000
30
13.996000
70
192
0
VERTEX
8
OBJECT__17
10
59.667000
20
-10.567000
30
14.544000
70
192
0
VERTEX
8
OBJECT__17
10
57.971001
20
-11.469000
30
11.148000
70
192
0
VERTEX
8
OBJECT__17
10
57.313000
20
-11.709000
30
13.667000
70
192
0
VERTEX
8
OBJECT__17
10
57.314999
20
-11.713000
30
10.894000
70
192
0
VERTEX
8
OBJECT__17
10
56.266998
20
-12.066000
30
13.370000
70
192
0
VERTEX
8
OBJECT__17
10
56.846001
20
-11.894000
30
13.516000
70
192
0
VERTEX
8
OBJECT__17
10
57.162998
20
-11.770000
30
10.835000
70
192
0
VERTEX
8
OBJECT__17
10
56.748001
20
-11.925000
30
10.675000
70
192
0
VERTEX
8
OBJECT__17
10
54.793999
20
-12.371000
30
13.105000
70
192
0
VERTEX
8
OBJECT__17
10
55.368999
20
-12.274000
30
10.291000
70
192
0
VERTEX
8
OBJECT__17
10
53.976002
20
-12.462000
30
10.081000
70
192
0
VERTEX
8
OBJECT__17
10
53.157001
20
-12.499000
30
13.003000
70
192
0
VERTEX
8
OBJECT__17
10
52.603001
20
-12.491000
30
10.064000
70
192
0
VERTEX
8
OBJECT__17
10
52.604000
20
-12.472000
30
13.035000
70
192
0
VERTEX
8
OBJECT__17
10
52.562000
20
-12.492000
30
10.063000
70
192
0
VERTEX
8
OBJECT__17
10
51.081001
20
-12.352000
30
10.255000
70
192
0
VERTEX
8
OBJECT__17
10
51.636002
20
-12.425000
30
13.092000
70
192
0
VERTEX
8
OBJECT__17
10
49.581001
20
-12.023000
30
10.658000
70
192
0
VERTEX
8
OBJECT__17
10
50.032001
20
-12.143000
30
13.373000
70
192
0
VERTEX
8
OBJECT__17
10
49.021000
20
-11.821000
30
10.882000
70
192
0
VERTEX
8
OBJECT__17
10
47.943001
20
-11.431000
30
11.312000
70
192
0
VERTEX
8
OBJECT__17
10
47.952999
20
-11.408000
30
14.021000
70
192
0
VERTEX
8
OBJECT__17
10
48.455002
20
-11.644000
30
13.827000
70
192
0
VERTEX
8
OBJECT__17
10
46.387001
20
-10.607000
30
12.105000
70
192
0
VERTEX
8
OBJECT__17
10
46.931000
20
-10.928000
30
14.417000
70
192
0
VERTEX
8
OBJECT__17
10
47.935001
20
-11.428000
30
11.315000
70
192
0
VERTEX
8
OBJECT__17
10
45.075001
20
-9.666000
30
15.310000
70
192
0
VERTEX
8
OBJECT__17
10
44.233002
20
-8.910000
30
13.426000
70
192
0
VERTEX
8
OBJECT__17
10
44.034000
20
-8.687000
30
13.563000
70
192
0
VERTEX
8
OBJECT__17
10
46.442001
20
-10.635000
30
14.637000
70
192
0
VERTEX
8
OBJECT__17
10
44.963001
20
-9.574000
30
12.953000
70
192
0
VERTEX
8
OBJECT__17
10
46.515999
20
-10.687000
30
14.601000
70
192
0
VERTEX
8
OBJECT__17
10
44.035000
20
-8.684000
30
15.890000
70
192
0
VERTEX
8
OBJECT__17
10
41.780998
20
-5.513000
30
17.277000
70
192
0
VERTEX
8
OBJECT__17
10
41.578999
20
-5.081000
30
15.316000
70
192
0
VERTEX
8
OBJECT__17
10
41.431999
20
-4.685000
30
15.429000
70
192
0
VERTEX
8
OBJECT__17
10
41.429001
20
-4.685000
30
17.511999
70
192
0
VERTEX
8
OBJECT__17
10
42.599998
20
-6.935000
30
16.749001
70
192
0
VERTEX
8
OBJECT__17
10
42.226002
20
-6.338000
30
14.834000
70
192
0
VERTEX
8
OBJECT__17
10
43.606998
20
-8.247000
30
16.134001
70
192
0
VERTEX
8
OBJECT__17
10
43.133999
20
-7.674000
30
14.180000
70
192
0
VERTEX
8
OBJECT__17
10
43.141998
20
-7.686000
30
14.174000
70
192
0
VERTEX
8
OBJECT__17
10
43.799999
20
-8.463000
30
16.020000
70
192
0
VERTEX
8
OBJECT__17
10
41.833000
20
-5.603000
30
17.243999
70
192
0
VERTEX
8
OBJECT__17
10
40.500999
20
-0.172000
30
16.146000
70
192
0
VERTEX
8
OBJECT__17
10
40.526001
20
-0.800000
30
18.129000
70
192
0
VERTEX
8
OBJECT__17
10
40.553001
20
-1.148000
30
18.110001
70
192
0
VERTEX
8
OBJECT__17
10
40.526001
20
0.000000
30
18.128000
70
192
0
VERTEX
8
OBJECT__17
10
40.800999
20
-2.729000
30
17.938000
70
192
0
VERTEX
8
OBJECT__17
10
40.674000
20
-2.077000
30
16.011000
70
192
0
VERTEX
8
OBJECT__17
10
40.622002
20
-1.746000
30
16.051001
70
192
0
VERTEX
8
OBJECT__17
10
41.250000
20
-4.265000
30
17.632000
70
192
0
VERTEX
8
OBJECT__17
10
41.033001
20
-3.610000
30
15.733000
70
192
0
VERTEX
8
OBJECT__17
10
40.808998
20
-2.654000
30
15.906000
70
192
0
VERTEX
8
OBJECT__17
10
40.965000
20
3.379000
30
15.785000
70
192
0
VERTEX
8
OBJECT__17
10
41.428001
20
4.687000
30
15.431000
70
192
0
VERTEX
8
OBJECT__17
10
41.432999
20
4.683000
30
17.510000
70
192
0
VERTEX
8
OBJECT__17
10
40.808998
20
2.763000
30
17.931999
70
192
0
VERTEX
8
OBJECT__17
10
40.811001
20
2.654000
30
15.905000
70
192
0
VERTEX
8
OBJECT__17
10
40.733002
20
2.401000
30
17.985001
70
192
0
VERTEX
8
OBJECT__17
10
40.632000
20
1.813000
30
16.042999
70
192
0
VERTEX
8
OBJECT__17
10
40.526001
20
0.811000
30
18.128000
70
192
0
VERTEX
8
OBJECT__17
10
40.577999
20
1.393000
30
16.086000
70
192
0
VERTEX
8
OBJECT__17
10
40.509998
20
0.000000
30
16.139000
70
192
0
VERTEX
8
OBJECT__17
10
41.278999
20
4.343000
30
17.612000
70
192
0
VERTEX
8
OBJECT__17
10
42.917999
20
7.389000
30
16.551001
70
192
0
VERTEX
8
OBJECT__17
10
42.280998
20
6.430000
30
14.794000
70
192
0
VERTEX
8
OBJECT__17
10
43.144001
20
7.671000
30
14.174000
70
192
0
VERTEX
8
OBJECT__17
10
44.032001
20
8.689000
30
15.889000
70
192
0
VERTEX
8
OBJECT__17
10
43.247002
20
7.819000
30
14.100000
70
192
0
VERTEX
8
OBJECT__17
10
41.998001
20
5.933000
30
17.136000
70
192
0
VERTEX
8
OBJECT__17
10
41.519001
20
4.944000
30
15.362000
70
192
0
VERTEX
8
OBJECT__17
10
41.847000
20
5.600000
30
17.235001
70
192
0
VERTEX
8
OBJECT__17
10
46.188999
20
10.482000
30
14.752000
70
192
0
VERTEX
8
OBJECT__17
10
44.826000
20
9.457000
30
15.443000
70
192
0
VERTEX
8
OBJECT__17
10
44.438999
20
9.109000
30
13.290000
70
192
0
VERTEX
8
OBJECT__17
10
44.153999
20
8.832000
30
15.816000
70
192
0
VERTEX
8
OBJECT__17
10
44.042000
20
8.679000
30
13.560000
70
192
0
VERTEX
8
OBJECT__17
10
46.105000
20
10.427000
30
12.265000
70
192
0
VERTEX
8
OBJECT__17
10
47.493999
20
11.222000
30
11.524000
70
192
0
VERTEX
8
OBJECT__17
10
47.660000
20
11.302000
30
14.117000
70
192
0
VERTEX
8
OBJECT__17
10
46.460999
20
10.633000
30
14.635000
70
192
0
VERTEX
8
OBJECT__17
10
45.805000
20
10.222000
30
12.439000
70
192
0
VERTEX
8
OBJECT__17
10
47.951000
20
11.411000
30
11.324000
70
192
0
VERTEX
8
OBJECT__17
10
47.944000
20
11.427000
30
14.012000
70
192
0
VERTEX
8
OBJECT__17
10
49.745998
20
12.069000
30
13.443000
70
192
0
VERTEX
8
OBJECT__17
10
48.289001
20
11.578000
30
13.885000
70
192
0
VERTEX
8
OBJECT__17
10
48.949001
20
11.825000
30
10.886000
70
192
0
VERTEX
8
OBJECT__17
10
48.951000
20
11.826000
30
10.885000
70
192
0
VERTEX
8
OBJECT__17
10
51.244999
20
12.376000
30
13.143000
70
192
0
VERTEX
8
OBJECT__17
10
49.618000
20
12.034000
30
10.646000
70
192
0
VERTEX
8
OBJECT__17
10
51.000999
20
12.339000
30
10.272000
70
192
0
VERTEX
8
OBJECT__17
10
51.551998
20
12.416000
30
13.102000
70
192
0
VERTEX
8
OBJECT__17
10
52.400002
20
12.486000
30
10.074000
70
192
0
VERTEX
8
OBJECT__17
10
52.604000
20
12.474000
30
13.033000
70
192
0
VERTEX
8
OBJECT__17
10
52.603001
20
12.484000
30
10.073000
70
192
0
VERTEX
8
OBJECT__17
10
53.814999
20
12.473000
30
10.069000
70
192
0
VERTEX
8
OBJECT__17
10
55.277000
20
12.291000
30
10.271000
70
192
0
VERTEX
8
OBJECT__17
10
54.566002
20
12.402000
30
13.079000
70
192
0
VERTEX
8
OBJECT__17
10
53.066002
20
12.500000
30
13.003000
70
192
0
VERTEX
8
OBJECT__17
10
55.030998
20
12.334000
30
13.137000
70
192
0
VERTEX
8
OBJECT__17
10
56.779999
20
11.915000
30
10.686000
70
192
0
VERTEX
8
OBJECT__17
10
56.570999
20
11.979000
30
13.444000
70
192
0
VERTEX
8
OBJECT__17
10
57.153000
20
11.770000
30
10.834000
70
192
0
VERTEX
8
OBJECT__17
10
57.313000
20
11.707000
30
10.898000
70
192
0
VERTEX
8
OBJECT__17
10
57.313999
20
11.711000
30
13.666000
70
192
0
VERTEX
8
OBJECT__17
10
58.270000
20
11.335000
30
11.280000
70
192
0
VERTEX
8
OBJECT__17
10
58.445000
20
11.252000
30
11.361000
70
192
0
VERTEX
8
OBJECT__17
10
57.901001
20
11.499000
30
13.841000
70
192
0
VERTEX
8
OBJECT__17
10
59.960999
20
10.383000
30
12.143000
70
192
0
VERTEX
8
OBJECT__17
10
61.408001
20
9.250000
30
13.011000
70
192
0
VERTEX
8
OBJECT__17
10
60.880001
20
9.704000
30
15.123000
70
192
0
VERTEX
8
OBJECT__17
10
59.652000
20
10.565000
30
14.541000
70
192
0
VERTEX
8
OBJECT__17
10
61.408001
20
9.250000
30
15.400000
70
192
0
VERTEX
8
OBJECT__17
10
59.446999
20
10.709000
30
14.444000
70
192
0
VERTEX
8
OBJECT__17
10
0
20
0
30
0
70
128
71
1
72
2
73
3
0
VERTEX
8
OBJECT__17
10
0
20
0
30
0
70
128
71
4
72
5
73
1
0
VERTEX
8
OBJECT__17
10
0
20
0
30
0
70
128
71
6
72
7
73
8
0
VERTEX
8
OBJECT__17
10
0
20
0
30
0
70
128
71
8
72
4
73
6
0
VERTEX
8
OBJECT__17
10
0
20
0
30
0
70
128
71
8
72
5
73
4
0
VERTEX
8
OBJECT__17
10
0
20
0
30
0
70
128
71
9
72
10
73
7
0
VERTEX
8
OBJECT__17
10
0
20
0
30
0
70
128
71
7
72
6
73
9
0
VERTEX
8
OBJECT__17
10
0
20
0
30
0
70
128
71
9
72
11
73
10
0
VERTEX
8
OBJECT__17
10
0
20
0
30
0
70
128
71
12
72
13
73
11
0
VERTEX
8
OBJECT__17
10
0
20
0
30
0
70
128
71
11
72
14
73
12
0
VERTEX
8
OBJECT__17
10
0
20
0
30
0
70
128
71
14
72
15
73
12
0
VERTEX
8
OBJECT__17
10
0
20
0
30
0
70
128
71
16
72
12
73
15
0
VERTEX
8
OBJECT__17
10
0
20
0
30
0
70
128
71
15
72
17
73
16
0
VERTEX
8
OBJECT__17
10
0
20
0
30
0
70
128
71
18
72
19
73
16
0
VERTEX
8
OBJECT__17
10
0
20
0
30
0
70
128
71
16
72
17
73
18
0
VERTEX
8
OBJECT__17
10
0
20
0
30
0
70
128
71
18
72
20
73
19
0
VERTEX
8
OBJECT__17
10
0
20
0
30
0
70
128
71
20
72
21
73
19
0
VERTEX
8
OBJECT__17
10
0
20
0
30
0
70
128
71
22
72
23
73
24
0
VERTEX
8
OBJECT__17
10
0
20
0
30
0
70
128
71
21
72
20
73
22
0
VERTEX
8
OBJECT__17
10
0
20
0
30
0
70
128
71
24
72
23
73
25
0
VERTEX
8
OBJECT__17
10
0
20
0
30
0
70
128
71
26
72
27
73
28
0
VERTEX
8
OBJECT__17
10
0
20
0
30
0
70
128
71
26
72
25
73
27
0
VERTEX
8
OBJECT__17
10
0
20
0
30
0
70
128
71
28
72
29
73
30
0
VERTEX
8
OBJECT__17
10
0
20
0
30
0
70
128
71
28
72
30
73
26
0
VERTEX
8
OBJECT__17
10
0
20
0
30
0
70
128
71
25
72
26
73
24
0
VERTEX
8
OBJECT__17
10
0
20
0
30
0
70
128
71
31
72
32
73
29
0
VERTEX
8
OBJECT__17
10
0
20
0
30
0
70
128
71
29
72
28
73
33
0
VERTEX
8
OBJECT__17
10
0
20
0
30
0
70
128
71
34
72
35
73
36
0
VERTEX
8
OBJECT__17
10
0
20
0
30
0
70
128
71
34
72
37
73
38
0
VERTEX
8
OBJECT__17
10
0
20
0
30
0
70
128
71
31
72
38
73
37
0
VERTEX
8
OBJECT__17
10
0
20
0
30
0
70
128
71
37
72
39
73
31
0
VERTEX
8
OBJECT__17
10
0
20
0
30
0
70
128
71
38
72
35
73
34
0
VERTEX
8
OBJECT__17
10
0
20
0
30
0
70
128
71
39
72
32
73
31
0
VERTEX
8
OBJECT__17
10
0
20
0
30
0
70
128
71
36
72
40
73
34
0
VERTEX
8
OBJECT__17
10
0
20
0
30
0
70
128
71
41
72
42
73
43
0
VERTEX
8
OBJECT__17
10
0
20
0
30
0
70
128
71
43
72
44
73
41
0
VERTEX
8
OBJECT__17
10
0
20
0
30
0
70
128
71
45
72
46
73
42
0
VERTEX
8
OBJECT__17
10
0
20
0
30
0
70
128
71
47
72
48
73
46
0
VERTEX
8
OBJECT__17
10
0
20
0
30
0
70
128
71
47
72
49
73
48
0
VERTEX
8
OBJECT__17
10
0
20
0
30
0
70
128
71
49
72
50
73
40
0
VERTEX
8
OBJECT__17
10
0
20
0
30
0
70
128
71
49
72
47
73
50
0
VERTEX
8
OBJECT__17
10
0
20
0
30
0
70
128
71
40
72
36
73
49
0
VERTEX
8
OBJECT__17
10
0
20
0
30
0
70
128
71
46
72
45
73
47
0
VERTEX
8
OBJECT__17
10
0
20
0
30
0
70
128
71
42
72
51
73
45
0
VERTEX
8
OBJECT__17
10
0
20
0
30
0
70
128
71
52
72
53
73
54
0
VERTEX
8
OBJECT__17
10
0
20
0
30
0
70
128
71
52
72
55
73
53
0
VERTEX
8
OBJECT__17
10
0
20
0
30
0
70
128
71
56
72
57
73
58
0
VERTEX
8
OBJECT__17
10
0
20
0
30
0
70
128
71
56
72
59
73
60
0
VERTEX
8
OBJECT__17
10
0
20
0
30
0
70
128
71
60
72
61
73
56
0
VERTEX
8
OBJECT__17
10
0
20
0
30
0
70
128
71
61
72
57
73
56
0
VERTEX
8
OBJECT__17
10
0
20
0
30
0
70
128
71
58
72
54
73
56
0
VERTEX
8
OBJECT__17
10
0
20
0
30
0
70
128
71
60
72
59
73
44
0
VERTEX
8
OBJECT__17
10
0
20
0
30
0
70
128
71
44
72
43
73
60
0
VERTEX
8
OBJECT__17
10
0
20
0
30
0
70
128
71
54
72
58
73
52
0
VERTEX
8
OBJECT__17
10
0
20
0
30
0
70
128
71
62
72
63
73
64
0
VERTEX
8
OBJECT__17
10
0
20
0
30
0
70
128
71
65
72
66
73
62
0
VERTEX
8
OBJECT__17
10
0
20
0
30
0
70
128
71
66
72
65
73
67
0
VERTEX
8
OBJECT__17
10
0
20
0
30
0
70
128
71
67
72
68
73
66
0
VERTEX
8
OBJECT__17
10
0
20
0
30
0
70
128
71
67
72
69
73
70
0
VERTEX
8
OBJECT__17
10
0
20
0
30
0
70
128
71
70
72
68
73
67
0
VERTEX
8
OBJECT__17
10
0
20
0
30
0
70
128
71
71
72
70
73
69
0
VERTEX
8
OBJECT__17
10
0
20
0
30
0
70
128
71
69
72
55
73
71
0
VERTEX
8
OBJECT__17
10
0
20
0
30
0
70
128
71
62
72
72
73
65
0
VERTEX
8
OBJECT__17
10
0
20
0
30
0
70
128
71
73
72
74
73
75
0
VERTEX
8
OBJECT__17
10
0
20
0
30
0
70
128
71
75
72
76
73
73
0
VERTEX
8
OBJECT__17
10
0
20
0
30
0
70
128
71
75
72
77
73
76
0
VERTEX
8
OBJECT__17
10
0
20
0
30
0
70
128
71
78
72
79
73
74
0
VERTEX
8
OBJECT__17
10
0
20
0
30
0
70
128
71
74
72
73
73
78
0
VERTEX
8
OBJECT__17
10
0
20
0
30
0
70
128
71
78
72
80
73
79
0
VERTEX
8
OBJECT__17
10
0
20
0
30
0
70
128
71
80
72
64
73
63
0
VERTEX
8
OBJECT__17
10
0
20
0
30
0
70
128
71
63
72
79
73
80
0
VERTEX
8
OBJECT__17
10
0
20
0
30
0
70
128
71
81
72
82
73
83
0
VERTEX
8
OBJECT__17
10
0
20
0
30
0
70
128
71
82
72
84
73
85
0
VERTEX
8
OBJECT__17
10
0
20
0
30
0
70
128
71
85
72
83
73
82
0
VERTEX
8
OBJECT__17
10
0
20
0
30
0
70
128
71
84
72
76
73
85
0
VERTEX
8
OBJECT__17
10
0
20
0
30
0
70
128
71
86
72
87
73
88
0
VERTEX
8
OBJECT__17
10
0
20
0
30
0
70
128
71
89
72
90
73
86
0
VERTEX
8
OBJECT__17
10
0
20
0
30
0
70
128
71
88
72
89
73
86
0
VERTEX
8
OBJECT__17
10
0
20
0
30
0
70
128
71
89
72
81
73
90
0
VERTEX
8
OBJECT__17
10
0
20
0
30
0
70
128
71
87
72
91
73
92
0
VERTEX
8
OBJECT__17
10
0
20
0
30
0
70
128
71
92
72
88
73
87
0
VERTEX
8
OBJECT__17
10
0
20
0
30
0
70
128
71
93
72
94
73
91
0
VERTEX
8
OBJECT__17
10
0
20
0
30
0
70
128
71
91
72
95
73
93
0
VERTEX
8
OBJECT__17
10
0
20
0
30
0
70
128
71
95
72
96
73
93
0
VERTEX
8
OBJECT__17
10
0
20
0
30
0
70
128
71
97
72
93
73
98
0
VERTEX
8
OBJECT__17
10
0
20
0
30
0
70
128
71
93
72
96
73
98
0
VERTEX
8
OBJECT__17
10
0
20
0
30
0
70
128
71
99
72
100
73
97
0
VERTEX
8
OBJECT__17
10
0
20
0
30
0
70
128
71
101
72
102
73
100
0
VERTEX
8
OBJECT__17
10
0
20
0
30
0
70
128
71
100
72
99
73
101
0
VERTEX
8
OBJECT__17
10
0
20
0
30
0
70
128
71
101
72
103
73
102
0
VERTEX
8
OBJECT__17
10
0
20
0
30
0
70
128
71
98
72
99
73
97
0
VERTEX
8
OBJECT__17
10
0
20
0
30
0
70
128
71
104
72
105
73
106
0
VERTEX
8
OBJECT__17
10
0
20
0
30
0
70
128
71
107
72
103
73
104
0
VERTEX
8
OBJECT__17
10
0
20
0
30
0
70
128
71
108
72
105
73
109
0
VERTEX
8
OBJECT__17
10
0
20
0
30
0
70
128
71
109
72
110
73
108
0
VERTEX
8
OBJECT__17
10
0
20
0
30
0
70
128
71
109
72
111
73
110
0
VERTEX
8
OBJECT__17
10
0
20
0
30
0
70
128
71
108
72
106
73
105
0
VERTEX
8
OBJECT__17
10
0
20
0
30
0
70
128
71
110
72
111
73
112
0
VERTEX
8
OBJECT__17
10
0
20
0
30
0
70
128
71
112
72
113
73
110
0
VERTEX
8
OBJECT__17
10
0
20
0
30
0
70
128
71
106
72
107
73
104
0
VERTEX
8
OBJECT__17
10
0
20
0
30
0
70
128
71
113
72
114
73
115
0
VERTEX
8
OBJECT__17
10
0
20
0
30
0
70
128
71
113
72
112
73
114
0
VERTEX
8
OBJECT__17
10
0
20
0
30
0
70
128
71
116
72
115
73
117
0
VERTEX
8
OBJECT__17
10
0
20
0
30
0
70
128
71
118
72
119
73
120
0
VERTEX
8
OBJECT__17
10
0
20
0
30
0
70
128
71
120
72
117
73
118
0
VERTEX
8
OBJECT__17
10
0
20
0
30
0
70
128
71
118
72
121
73
119
0
VERTEX
8
OBJECT__17
10
0
20
0
30
0
70
128
71
120
72
122
73
117
0
VERTEX
8
OBJECT__17
10
0
20
0
30
0
70
128
71
117
72
122
73
116
0
VERTEX
8
OBJECT__17
10
0
20
0
30
0
70
128
71
115
72
116
73
113
0
VERTEX
8
OBJECT__17
10
0
20
0
30
0
70
128
71
107
72
102
73
103
0
VERTEX
8
OBJECT__17
10
0
20
0
30
0
70
128
71
94
72
92
73
91
0
VERTEX
8
OBJECT__17
10
0
20
0
30
0
70
128
71
83
72
90
73
81
0
VERTEX
8
OBJECT__17
10
0
20
0
30
0
70
128
71
77
72
85
73
76
0
VERTEX
8
OBJECT__17
10
0
20
0
30
0
70
128
71
64
72
72
73
62
0
VERTEX
8
OBJECT__17
10
0
20
0
30
0
70
128
71
52
72
71
73
55
0
VERTEX
8
OBJECT__17
10
0
20
0
30
0
70
128
71
41
72
51
73
42
0
VERTEX
8
OBJECT__17
10
0
20
0
30
0
70
128
71
29
72
33
73
31
0
VERTEX
8
OBJECT__17
10
0
20
0
30
0
70
128
71
24
72
21
73
22
0
VERTEX
8
OBJECT__17
10
0
20
0
30
0
70
128
71
13
72
10
73
11
0
VERTEX
8
OBJECT__17
10
0
20
0
30
0
70
128
71
3
72
4
73
1
0
SEQEND
8
OBJECT__17
0
ENDSEC
0
EOF
