999
Converted by 3D Exploration 
999
XDimension Software, LLC
999
http://www.xdsoft.com/explorer/
0
SECTION
2
HEADER
9
$ACADVER
1
AC1008
9
$UCSORG
10
0.0
20
0.0
30
0.0
9
$UCSXDIR
10
1.0
20
0.0
30
0.0
9
$TILEMODE
70
1
9
$UCSYDIR
10
0.0
20
1.0
30
0.0
9
$EXTMIN
10
0.000000
20
-78.000000
30
-78.000000
9
$EXTMAX
10
24.469999
20
78.000000
30
98.500000
0
ENDSEC
0
SECTION
2
TABLES
0
TABLE
2
LTYPE
70
1
0
LTYPE
2
CONTINUOUS
70
64
3
Solid line
72
65
73
0
40
0.0
0
ENDTAB
0
TABLE
2
LAYER
70
36
0
LAYER
2
OBJECT__0
70
0
62
253
6
CONTINUOUS
0
LAYER
2
OBJECT__1
70
0
62
253
6
CONTINUOUS
0
LAYER
2
OBJECT__3
70
0
62
253
6
CONTINUOUS
0
LAYER
2
OBJECT__4
70
0
62
253
6
CONTINUOUS
0
LAYER
2
OBJECT__5
70
0
62
253
6
CONTINUOUS
0
LAYER
2
OBJECT__6
70
0
62
253
6
CONTINUOUS
0
LAYER
2
OBJECT__7
70
0
62
253
6
CONTINUOUS
0
LAYER
2
OBJECT__8
70
0
62
253
6
CONTINUOUS
0
LAYER
2
OBJECT__9
70
0
62
253
6
CONTINUOUS
0
LAYER
2
OBJECT__10
70
0
62
253
6
CONTINUOUS
0
LAYER
2
OBJECT__11
70
0
62
253
6
CONTINUOUS
0
LAYER
2
OBJECT__12
70
0
62
253
6
CONTINUOUS
0
LAYER
2
OBJECT__13
70
0
62
253
6
CONTINUOUS
0
LAYER
2
OBJECT__14
70
0
62
253
6
CONTINUOUS
0
LAYER
2
OBJECT__15
70
0
62
253
6
CONTINUOUS
0
LAYER
2
OBJECT__16
70
0
62
253
6
CONTINUOUS
0
LAYER
2
OBJECT__17
70
0
62
253
6
CONTINUOUS
0
LAYER
2
OBJECT__18
70
0
62
253
6
CONTINUOUS
0
LAYER
2
OBJECT__19
70
0
62
253
6
CONTINUOUS
0
LAYER
2
OBJECT__20
70
0
62
253
6
CONTINUOUS
0
LAYER
2
OBJECT__21
70
0
62
253
6
CONTINUOUS
0
LAYER
2
OBJECT__22
70
0
62
253
6
CONTINUOUS
0
LAYER
2
OBJECT__23
70
0
62
253
6
CONTINUOUS
0
LAYER
2
OBJECT__24
70
0
62
253
6
CONTINUOUS
0
LAYER
2
OBJECT__26
70
0
62
253
6
CONTINUOUS
0
LAYER
2
OBJECT__27
70
0
62
253
6
CONTINUOUS
0
LAYER
2
OBJECT__28
70
0
62
253
6
CONTINUOUS
0
LAYER
2
OBJECT__29
70
0
62
253
6
CONTINUOUS
0
LAYER
2
OBJECT__30
70
0
62
253
6
CONTINUOUS
0
LAYER
2
OBJECT__31
70
0
62
253
6
CONTINUOUS
0
LAYER
2
OBJECT__32
70
0
62
253
6
CONTINUOUS
0
LAYER
2
OBJECT__33
70
0
62
253
6
CONTINUOUS
0
LAYER
2
OBJECT__34
70
0
62
253
6
CONTINUOUS
0
LAYER
2
OBJECT__35
70
0
62
253
6
CONTINUOUS
0
ENDTAB
0
TABLE
2
STYLE
70
1
0
STYLE
2
STANDARD
70
0
40
0.0
41
1.0
50
0.0
71
0
42
0.2
3
txt
4
1
0
ENDTAB
0
TABLE
2
UCS
70
0
0
ENDTAB
0
ENDSEC
0
SECTION
2
ENTITIES
0
POLYLINE
8
OBJECT__0
66
1
70
64
71
14
72
12
62
253
0
VERTEX
8
OBJECT__0
10
6.861000
20
-32.632000
30
15.715000
70
192
0
VERTEX
8
OBJECT__0
10
6.861000
20
-36.217999
30
0.000000
70
192
0
VERTEX
8
OBJECT__0
10
6.861000
20
-32.632000
30
-15.715000
70
192
0
VERTEX
8
OBJECT__0
10
6.861000
20
-22.582001
30
-28.316999
70
192
0
VERTEX
8
OBJECT__0
10
6.861000
20
-8.059000
30
35.310001
70
192
0
VERTEX
8
OBJECT__0
10
6.861000
20
-22.582001
30
28.316999
70
192
0
VERTEX
8
OBJECT__0
10
6.861000
20
22.582001
30
28.316999
70
192
0
VERTEX
8
OBJECT__0
10
6.861000
20
32.632000
30
-15.715000
70
192
0
VERTEX
8
OBJECT__0
10
6.861000
20
36.217999
30
0.000000
70
192
0
VERTEX
8
OBJECT__0
10
6.861000
20
8.059000
30
-35.310001
70
192
0
VERTEX
8
OBJECT__0
10
6.861000
20
22.582001
30
-28.316999
70
192
0
VERTEX
8
OBJECT__0
10
6.861000
20
8.059000
30
35.310001
70
192
0
VERTEX
8
OBJECT__0
10
6.861000
20
-8.059000
30
-35.310001
70
192
0
VERTEX
8
OBJECT__0
10
6.861000
20
32.632000
30
15.715000
70
192
0
VERTEX
8
OBJECT__0
10
0
20
0
30
0
70
128
71
1
72
2
73
3
0
VERTEX
8
OBJECT__0
10
0
20
0
30
0
70
128
71
4
72
5
73
6
0
VERTEX
8
OBJECT__0
10
0
20
0
30
0
70
128
71
7
72
8
73
9
0
VERTEX
8
OBJECT__0
10
0
20
0
30
0
70
128
71
7
72
10
73
11
0
VERTEX
8
OBJECT__0
10
0
20
0
30
0
70
128
71
6
72
1
73
4
0
VERTEX
8
OBJECT__0
10
0
20
0
30
0
70
128
71
4
72
7
73
12
0
VERTEX
8
OBJECT__0
10
0
20
0
30
0
70
128
71
11
72
8
73
7
0
VERTEX
8
OBJECT__0
10
0
20
0
30
0
70
128
71
7
72
4
73
13
0
VERTEX
8
OBJECT__0
10
0
20
0
30
0
70
128
71
12
72
5
73
4
0
VERTEX
8
OBJECT__0
10
0
20
0
30
0
70
128
71
13
72
10
73
7
0
VERTEX
8
OBJECT__0
10
0
20
0
30
0
70
128
71
9
72
14
73
7
0
VERTEX
8
OBJECT__0
10
0
20
0
30
0
70
128
71
3
72
4
73
1
0
SEQEND
8
OBJECT__0
0
POLYLINE
8
OBJECT__1
66
1
70
64
71
28
72
28
62
253
0
VERTEX
8
OBJECT__1
10
10.000000
20
-32.660000
30
-15.728000
70
192
0
VERTEX
8
OBJECT__1
10
10.000000
20
-22.601999
30
-28.341000
70
192
0
VERTEX
8
OBJECT__1
10
6.861000
20
-22.582001
30
-28.316999
70
192
0
VERTEX
8
OBJECT__1
10
10.000000
20
-8.066000
30
-35.341000
70
192
0
VERTEX
8
OBJECT__1
10
6.861000
20
-8.059000
30
-35.310001
70
192
0
VERTEX
8
OBJECT__1
10
10.000000
20
8.066000
30
-35.341000
70
192
0
VERTEX
8
OBJECT__1
10
6.861000
20
8.059000
30
-35.310001
70
192
0
VERTEX
8
OBJECT__1
10
10.000000
20
22.601999
30
-28.341000
70
192
0
VERTEX
8
OBJECT__1
10
6.861000
20
22.582001
30
-28.316999
70
192
0
VERTEX
8
OBJECT__1
10
10.000000
20
32.660000
30
-15.728000
70
192
0
VERTEX
8
OBJECT__1
10
6.861000
20
32.632000
30
-15.715000
70
192
0
VERTEX
8
OBJECT__1
10
10.000000
20
36.250000
30
0.000000
70
192
0
VERTEX
8
OBJECT__1
10
6.861000
20
36.217999
30
0.000000
70
192
0
VERTEX
8
OBJECT__1
10
10.000000
20
32.660000
30
15.728000
70
192
0
VERTEX
8
OBJECT__1
10
6.861000
20
32.632000
30
15.715000
70
192
0
VERTEX
8
OBJECT__1
10
10.000000
20
22.601999
30
28.341000
70
192
0
VERTEX
8
OBJECT__1
10
6.861000
20
22.582001
30
28.316999
70
192
0
VERTEX
8
OBJECT__1
10
10.000000
20
8.066000
30
35.341000
70
192
0
VERTEX
8
OBJECT__1
10
6.861000
20
8.059000
30
35.310001
70
192
0
VERTEX
8
OBJECT__1
10
10.000000
20
-8.066000
30
35.341000
70
192
0
VERTEX
8
OBJECT__1
10
6.861000
20
-8.059000
30
35.310001
70
192
0
VERTEX
8
OBJECT__1
10
10.000000
20
-22.601999
30
28.341000
70
192
0
VERTEX
8
OBJECT__1
10
6.861000
20
-22.582001
30
28.316999
70
192
0
VERTEX
8
OBJECT__1
10
10.000000
20
-32.660000
30
15.728000
70
192
0
VERTEX
8
OBJECT__1
10
6.861000
20
-32.632000
30
15.715000
70
192
0
VERTEX
8
OBJECT__1
10
10.000000
20
-36.248001
30
0.000000
70
192
0
VERTEX
8
OBJECT__1
10
6.861000
20
-32.632000
30
-15.715000
70
192
0
VERTEX
8
OBJECT__1
10
6.861000
20
-36.217999
30
0.000000
70
192
0
VERTEX
8
OBJECT__1
10
0
20
0
30
0
70
128
71
1
72
2
73
3
0
VERTEX
8
OBJECT__1
10
0
20
0
30
0
70
128
71
2
72
4
73
5
0
VERTEX
8
OBJECT__1
10
0
20
0
30
0
70
128
71
4
72
6
73
7
0
VERTEX
8
OBJECT__1
10
0
20
0
30
0
70
128
71
6
72
8
73
9
0
VERTEX
8
OBJECT__1
10
0
20
0
30
0
70
128
71
8
72
10
73
11
0
VERTEX
8
OBJECT__1
10
0
20
0
30
0
70
128
71
10
72
12
73
13
0
VERTEX
8
OBJECT__1
10
0
20
0
30
0
70
128
71
12
72
14
73
15
0
VERTEX
8
OBJECT__1
10
0
20
0
30
0
70
128
71
14
72
16
73
17
0
VERTEX
8
OBJECT__1
10
0
20
0
30
0
70
128
71
16
72
18
73
19
0
VERTEX
8
OBJECT__1
10
0
20
0
30
0
70
128
71
18
72
20
73
21
0
VERTEX
8
OBJECT__1
10
0
20
0
30
0
70
128
71
20
72
22
73
23
0
VERTEX
8
OBJECT__1
10
0
20
0
30
0
70
128
71
22
72
24
73
25
0
VERTEX
8
OBJECT__1
10
0
20
0
30
0
70
128
71
26
72
1
73
27
0
VERTEX
8
OBJECT__1
10
0
20
0
30
0
70
128
71
26
72
28
73
25
0
VERTEX
8
OBJECT__1
10
0
20
0
30
0
70
128
71
25
72
24
73
26
0
VERTEX
8
OBJECT__1
10
0
20
0
30
0
70
128
71
27
72
28
73
26
0
VERTEX
8
OBJECT__1
10
0
20
0
30
0
70
128
71
25
72
23
73
22
0
VERTEX
8
OBJECT__1
10
0
20
0
30
0
70
128
71
23
72
21
73
20
0
VERTEX
8
OBJECT__1
10
0
20
0
30
0
70
128
71
21
72
19
73
18
0
VERTEX
8
OBJECT__1
10
0
20
0
30
0
70
128
71
19
72
17
73
16
0
VERTEX
8
OBJECT__1
10
0
20
0
30
0
70
128
71
17
72
15
73
14
0
VERTEX
8
OBJECT__1
10
0
20
0
30
0
70
128
71
15
72
13
73
12
0
VERTEX
8
OBJECT__1
10
0
20
0
30
0
70
128
71
13
72
11
73
10
0
VERTEX
8
OBJECT__1
10
0
20
0
30
0
70
128
71
11
72
9
73
8
0
VERTEX
8
OBJECT__1
10
0
20
0
30
0
70
128
71
9
72
7
73
6
0
VERTEX
8
OBJECT__1
10
0
20
0
30
0
70
128
71
7
72
5
73
4
0
VERTEX
8
OBJECT__1
10
0
20
0
30
0
70
128
71
5
72
3
73
2
0
VERTEX
8
OBJECT__1
10
0
20
0
30
0
70
128
71
3
72
27
73
1
0
SEQEND
8
OBJECT__1
0
POLYLINE
8
OBJECT__3
66
1
70
64
71
64
72
64
62
253
0
VERTEX
8
OBJECT__3
10
10.000000
20
32.660000
30
15.728000
70
192
0
VERTEX
8
OBJECT__3
10
10.000000
20
36.250000
30
0.000000
70
192
0
VERTEX
8
OBJECT__3
10
10.331000
20
35.964001
30
4.544000
70
192
0
VERTEX
8
OBJECT__3
10
10.352000
20
34.207001
30
11.998000
70
192
0
VERTEX
8
OBJECT__3
10
10.328000
20
36.250000
30
0.000000
70
192
0
VERTEX
8
OBJECT__3
10
10.000000
20
22.601999
30
28.341000
70
192
0
VERTEX
8
OBJECT__3
10
10.406000
20
28.306999
30
22.643999
70
192
0
VERTEX
8
OBJECT__3
10
10.428000
20
25.245001
30
26.014000
70
192
0
VERTEX
8
OBJECT__3
10
10.370000
20
32.432999
30
16.191999
70
192
0
VERTEX
8
OBJECT__3
10
10.368000
20
32.633999
30
15.717000
70
192
0
VERTEX
8
OBJECT__3
10
10.458000
20
19.216000
30
30.738001
70
192
0
VERTEX
8
OBJECT__3
10
10.472000
20
15.211000
30
32.903999
70
192
0
VERTEX
8
OBJECT__3
10
10.442000
20
22.476999
30
28.183001
70
192
0
VERTEX
8
OBJECT__3
10
10.000000
20
8.066000
30
35.341000
70
192
0
VERTEX
8
OBJECT__3
10
10.000000
20
-8.066000
30
35.341000
70
192
0
VERTEX
8
OBJECT__3
10
10.491000
20
3.462000
30
36.084000
70
192
0
VERTEX
8
OBJECT__3
10
10.491000
20
-4.196000
30
36.006001
70
192
0
VERTEX
8
OBJECT__3
10
10.487000
20
8.063000
30
35.330002
70
192
0
VERTEX
8
OBJECT__3
10
10.487000
20
7.959000
30
35.365002
70
192
0
VERTEX
8
OBJECT__3
10
10.000000
20
-22.601999
30
28.341000
70
192
0
VERTEX
8
OBJECT__3
10
10.470000
20
-15.877000
30
32.588001
70
192
0
VERTEX
8
OBJECT__3
10
10.486000
20
-8.677000
30
35.195999
70
192
0
VERTEX
8
OBJECT__3
10
10.456000
20
-19.837999
30
30.340000
70
192
0
VERTEX
8
OBJECT__3
10
10.487000
20
-8.060000
30
35.307999
70
192
0
VERTEX
8
OBJECT__3
10
10.000000
20
-32.660000
30
15.728000
70
192
0
VERTEX
8
OBJECT__3
10
10.403000
20
-28.761999
30
22.063999
70
192
0
VERTEX
8
OBJECT__3
10
10.442000
20
-22.475000
30
28.186001
70
192
0
VERTEX
8
OBJECT__3
10
10.424000
20
-25.768999
30
25.495001
70
192
0
VERTEX
8
OBJECT__3
10
10.000000
20
-36.248001
30
0.000000
70
192
0
VERTEX
8
OBJECT__3
10
10.330000
20
-36.049000
30
3.811000
70
192
0
VERTEX
8
OBJECT__3
10
10.330000
20
-36.049000
30
0.000000
70
192
0
VERTEX
8
OBJECT__3
10
10.368000
20
-32.640999
30
15.716000
70
192
0
VERTEX
8
OBJECT__3
10
10.367000
20
-32.756001
30
15.528000
70
192
0
VERTEX
8
OBJECT__3
10
10.349000
20
-34.444000
30
11.299000
70
192
0
VERTEX
8
OBJECT__3
10
10.000000
20
-32.660000
30
-15.728000
70
192
0
VERTEX
8
OBJECT__3
10
10.339000
20
-35.286999
30
-8.300000
70
192
0
VERTEX
8
OBJECT__3
10
10.367000
20
-32.756001
30
-15.528000
70
192
0
VERTEX
8
OBJECT__3
10
10.330000
20
-36.049000
30
-3.810000
70
192
0
VERTEX
8
OBJECT__3
10
10.368000
20
-32.648998
30
-15.722000
70
192
0
VERTEX
8
OBJECT__3
10
10.000000
20
-22.601999
30
-28.341000
70
192
0
VERTEX
8
OBJECT__3
10
10.388000
20
-30.551001
30
-19.511999
70
192
0
VERTEX
8
OBJECT__3
10
10.424000
20
-25.770000
30
-25.495001
70
192
0
VERTEX
8
OBJECT__3
10
10.444000
20
-22.370001
30
-28.524000
70
192
0
VERTEX
8
OBJECT__3
10
10.470000
20
-15.878000
30
-32.587002
70
192
0
VERTEX
8
OBJECT__3
10
10.000000
20
-8.066000
30
-35.341000
70
192
0
VERTEX
8
OBJECT__3
10
10.443000
20
-22.590000
30
-28.327999
70
192
0
VERTEX
8
OBJECT__3
10
10.481000
20
-11.668000
30
-34.320999
70
192
0
VERTEX
8
OBJECT__3
10
10.000000
20
8.066000
30
-35.341000
70
192
0
VERTEX
8
OBJECT__3
10
10.492000
20
0.350000
30
-36.248001
70
192
0
VERTEX
8
OBJECT__3
10
10.487000
20
7.958000
30
-35.366001
70
192
0
VERTEX
8
OBJECT__3
10
10.491000
20
-4.197000
30
-36.006001
70
192
0
VERTEX
8
OBJECT__3
10
10.486000
20
-8.022000
30
-35.143002
70
192
0
VERTEX
8
OBJECT__3
10
10.479000
20
12.329000
30
-34.089001
70
192
0
VERTEX
8
OBJECT__3
10
10.458000
20
19.216000
30
-30.738001
70
192
0
VERTEX
8
OBJECT__3
10
10.000000
20
22.601999
30
-28.341000
70
192
0
VERTEX
8
OBJECT__3
10
10.487000
20
8.064000
30
-35.334999
70
192
0
VERTEX
8
OBJECT__3
10
10.000000
20
32.660000
30
-15.728000
70
192
0
VERTEX
8
OBJECT__3
10
10.406000
20
28.306999
30
-22.645000
70
192
0
VERTEX
8
OBJECT__3
10
10.443000
20
22.587999
30
-28.322001
70
192
0
VERTEX
8
OBJECT__3
10
10.441000
20
22.917999
30
-28.086000
70
192
0
VERTEX
8
OBJECT__3
10
10.385000
20
30.922001
30
-18.917999
70
192
0
VERTEX
8
OBJECT__3
10
10.337000
20
35.441002
30
-7.617000
70
192
0
VERTEX
8
OBJECT__3
10
10.369000
20
32.477001
30
-15.642000
70
192
0
VERTEX
8
OBJECT__3
10
10.352000
20
34.206001
30
-11.999000
70
192
0
VERTEX
8
OBJECT__3
10
0
20
0
30
0
70
128
71
1
72
2
73
3
0
VERTEX
8
OBJECT__3
10
0
20
0
30
0
70
128
71
3
72
4
73
1
0
VERTEX
8
OBJECT__3
10
0
20
0
30
0
70
128
71
2
72
5
73
3
0
VERTEX
8
OBJECT__3
10
0
20
0
30
0
70
128
71
6
72
7
73
8
0
VERTEX
8
OBJECT__3
10
0
20
0
30
0
70
128
71
1
72
9
73
7
0
VERTEX
8
OBJECT__3
10
0
20
0
30
0
70
128
71
7
72
6
73
1
0
VERTEX
8
OBJECT__3
10
0
20
0
30
0
70
128
71
1
72
10
73
9
0
VERTEX
8
OBJECT__3
10
0
20
0
30
0
70
128
71
6
72
11
73
12
0
VERTEX
8
OBJECT__3
10
0
20
0
30
0
70
128
71
6
72
13
73
11
0
VERTEX
8
OBJECT__3
10
0
20
0
30
0
70
128
71
12
72
14
73
6
0
VERTEX
8
OBJECT__3
10
0
20
0
30
0
70
128
71
15
72
14
73
16
0
VERTEX
8
OBJECT__3
10
0
20
0
30
0
70
128
71
16
72
17
73
15
0
VERTEX
8
OBJECT__3
10
0
20
0
30
0
70
128
71
14
72
18
73
19
0
VERTEX
8
OBJECT__3
10
0
20
0
30
0
70
128
71
19
72
16
73
14
0
VERTEX
8
OBJECT__3
10
0
20
0
30
0
70
128
71
20
72
15
73
21
0
VERTEX
8
OBJECT__3
10
0
20
0
30
0
70
128
71
15
72
22
73
21
0
VERTEX
8
OBJECT__3
10
0
20
0
30
0
70
128
71
21
72
23
73
20
0
VERTEX
8
OBJECT__3
10
0
20
0
30
0
70
128
71
15
72
24
73
22
0
VERTEX
8
OBJECT__3
10
0
20
0
30
0
70
128
71
25
72
20
73
26
0
VERTEX
8
OBJECT__3
10
0
20
0
30
0
70
128
71
20
72
27
73
28
0
VERTEX
8
OBJECT__3
10
0
20
0
30
0
70
128
71
28
72
26
73
20
0
VERTEX
8
OBJECT__3
10
0
20
0
30
0
70
128
71
29
72
25
73
30
0
VERTEX
8
OBJECT__3
10
0
20
0
30
0
70
128
71
30
72
31
73
29
0
VERTEX
8
OBJECT__3
10
0
20
0
30
0
70
128
71
25
72
32
73
33
0
VERTEX
8
OBJECT__3
10
0
20
0
30
0
70
128
71
33
72
34
73
25
0
VERTEX
8
OBJECT__3
10
0
20
0
30
0
70
128
71
34
72
30
73
25
0
VERTEX
8
OBJECT__3
10
0
20
0
30
0
70
128
71
35
72
36
73
37
0
VERTEX
8
OBJECT__3
10
0
20
0
30
0
70
128
71
35
72
38
73
36
0
VERTEX
8
OBJECT__3
10
0
20
0
30
0
70
128
71
29
72
31
73
38
0
VERTEX
8
OBJECT__3
10
0
20
0
30
0
70
128
71
38
72
35
73
29
0
VERTEX
8
OBJECT__3
10
0
20
0
30
0
70
128
71
37
72
39
73
35
0
VERTEX
8
OBJECT__3
10
0
20
0
30
0
70
128
71
40
72
35
73
41
0
VERTEX
8
OBJECT__3
10
0
20
0
30
0
70
128
71
41
72
42
73
40
0
VERTEX
8
OBJECT__3
10
0
20
0
30
0
70
128
71
35
72
39
73
41
0
VERTEX
8
OBJECT__3
10
0
20
0
30
0
70
128
71
40
72
43
73
44
0
VERTEX
8
OBJECT__3
10
0
20
0
30
0
70
128
71
44
72
45
73
40
0
VERTEX
8
OBJECT__3
10
0
20
0
30
0
70
128
71
40
72
46
73
43
0
VERTEX
8
OBJECT__3
10
0
20
0
30
0
70
128
71
44
72
47
73
45
0
VERTEX
8
OBJECT__3
10
0
20
0
30
0
70
128
71
48
72
49
73
50
0
VERTEX
8
OBJECT__3
10
0
20
0
30
0
70
128
71
45
72
51
73
49
0
VERTEX
8
OBJECT__3
10
0
20
0
30
0
70
128
71
45
72
52
73
51
0
VERTEX
8
OBJECT__3
10
0
20
0
30
0
70
128
71
49
72
48
73
45
0
VERTEX
8
OBJECT__3
10
0
20
0
30
0
70
128
71
48
72
53
73
54
0
VERTEX
8
OBJECT__3
10
0
20
0
30
0
70
128
71
54
72
55
73
48
0
VERTEX
8
OBJECT__3
10
0
20
0
30
0
70
128
71
48
72
56
73
53
0
VERTEX
8
OBJECT__3
10
0
20
0
30
0
70
128
71
57
72
55
73
58
0
VERTEX
8
OBJECT__3
10
0
20
0
30
0
70
128
71
55
72
59
73
60
0
VERTEX
8
OBJECT__3
10
0
20
0
30
0
70
128
71
60
72
58
73
55
0
VERTEX
8
OBJECT__3
10
0
20
0
30
0
70
128
71
58
72
61
73
57
0
VERTEX
8
OBJECT__3
10
0
20
0
30
0
70
128
71
2
72
62
73
5
0
VERTEX
8
OBJECT__3
10
0
20
0
30
0
70
128
71
57
72
63
73
64
0
VERTEX
8
OBJECT__3
10
0
20
0
30
0
70
128
71
64
72
2
73
57
0
VERTEX
8
OBJECT__3
10
0
20
0
30
0
70
128
71
64
72
62
73
2
0
VERTEX
8
OBJECT__3
10
0
20
0
30
0
70
128
71
61
72
63
73
57
0
VERTEX
8
OBJECT__3
10
0
20
0
30
0
70
128
71
54
72
59
73
55
0
VERTEX
8
OBJECT__3
10
0
20
0
30
0
70
128
71
50
72
56
73
48
0
VERTEX
8
OBJECT__3
10
0
20
0
30
0
70
128
71
47
72
52
73
45
0
VERTEX
8
OBJECT__3
10
0
20
0
30
0
70
128
71
42
72
46
73
40
0
VERTEX
8
OBJECT__3
10
0
20
0
30
0
70
128
71
26
72
32
73
25
0
VERTEX
8
OBJECT__3
10
0
20
0
30
0
70
128
71
23
72
27
73
20
0
VERTEX
8
OBJECT__3
10
0
20
0
30
0
70
128
71
17
72
24
73
15
0
VERTEX
8
OBJECT__3
10
0
20
0
30
0
70
128
71
12
72
18
73
14
0
VERTEX
8
OBJECT__3
10
0
20
0
30
0
70
128
71
8
72
13
73
6
0
VERTEX
8
OBJECT__3
10
0
20
0
30
0
70
128
71
4
72
10
73
1
0
SEQEND
8
OBJECT__3
0
POLYLINE
8
OBJECT__4
66
1
70
64
71
90
72
90
62
253
0
VERTEX
8
OBJECT__4
10
10.827000
20
36.762001
30
-0.001000
70
192
0
VERTEX
8
OBJECT__4
10
10.328000
20
36.250000
30
-0.001000
70
192
0
VERTEX
8
OBJECT__4
10
10.337000
20
35.441002
30
-7.617000
70
192
0
VERTEX
8
OBJECT__4
10
10.837000
20
35.941002
30
-7.723000
70
192
0
VERTEX
8
OBJECT__4
10
10.352000
20
34.206001
30
-11.999000
70
192
0
VERTEX
8
OBJECT__4
10
10.852000
20
34.688999
30
-12.167000
70
192
0
VERTEX
8
OBJECT__4
10
10.369000
20
32.477001
30
-15.642000
70
192
0
VERTEX
8
OBJECT__4
10
10.885000
20
31.358000
30
-19.181999
70
192
0
VERTEX
8
OBJECT__4
10
10.385000
20
30.922001
30
-18.917999
70
192
0
VERTEX
8
OBJECT__4
10
10.406000
20
28.306999
30
-22.645000
70
192
0
VERTEX
8
OBJECT__4
10
10.906000
20
28.705999
30
-22.961000
70
192
0
VERTEX
8
OBJECT__4
10
10.441000
20
22.917999
30
-28.086000
70
192
0
VERTEX
8
OBJECT__4
10
10.958000
20
19.486000
30
-31.167999
70
192
0
VERTEX
8
OBJECT__4
10
10.941000
20
23.240999
30
-28.479000
70
192
0
VERTEX
8
OBJECT__4
10
10.443000
20
22.587999
30
-28.322001
70
192
0
VERTEX
8
OBJECT__4
10
10.458000
20
19.216000
30
-30.738001
70
192
0
VERTEX
8
OBJECT__4
10
10.479000
20
12.329000
30
-34.089001
70
192
0
VERTEX
8
OBJECT__4
10
10.979000
20
12.503000
30
-34.566002
70
192
0
VERTEX
8
OBJECT__4
10
10.487000
20
8.064000
30
-35.334999
70
192
0
VERTEX
8
OBJECT__4
10
10.987000
20
8.070000
30
-35.861000
70
192
0
VERTEX
8
OBJECT__4
10
10.487000
20
7.958000
30
-35.366001
70
192
0
VERTEX
8
OBJECT__4
10
10.492000
20
0.350000
30
-36.248001
70
192
0
VERTEX
8
OBJECT__4
10
10.491000
20
-4.197000
30
-36.006001
70
192
0
VERTEX
8
OBJECT__4
10
10.991000
20
-4.256000
30
-36.509998
70
192
0
VERTEX
8
OBJECT__4
10
10.992000
20
0.000000
30
-36.737000
70
192
0
VERTEX
8
OBJECT__4
10
10.486000
20
-8.022000
30
-35.143002
70
192
0
VERTEX
8
OBJECT__4
10
10.981000
20
-11.832000
30
-34.800999
70
192
0
VERTEX
8
OBJECT__4
10
10.970000
20
-16.101999
30
-33.042999
70
192
0
VERTEX
8
OBJECT__4
10
10.481000
20
-11.668000
30
-34.320999
70
192
0
VERTEX
8
OBJECT__4
10
10.944000
20
-22.686001
30
-28.923000
70
192
0
VERTEX
8
OBJECT__4
10
10.470000
20
-15.878000
30
-32.587002
70
192
0
VERTEX
8
OBJECT__4
10
10.924000
20
-26.132999
30
-25.851000
70
192
0
VERTEX
8
OBJECT__4
10
10.443000
20
-22.590000
30
-28.327999
70
192
0
VERTEX
8
OBJECT__4
10
10.444000
20
-22.370001
30
-28.524000
70
192
0
VERTEX
8
OBJECT__4
10
10.888000
20
-30.982000
30
-19.784000
70
192
0
VERTEX
8
OBJECT__4
10
10.424000
20
-25.770000
30
-25.495001
70
192
0
VERTEX
8
OBJECT__4
10
10.388000
20
-30.551001
30
-19.511999
70
192
0
VERTEX
8
OBJECT__4
10
10.368000
20
-32.648998
30
-15.722000
70
192
0
VERTEX
8
OBJECT__4
10
10.867000
20
-33.217999
30
-15.745000
70
192
0
VERTEX
8
OBJECT__4
10
10.839000
20
-35.785000
30
-8.416000
70
192
0
VERTEX
8
OBJECT__4
10
10.367000
20
-32.756001
30
-15.528000
70
192
0
VERTEX
8
OBJECT__4
10
10.830000
20
-36.557999
30
-3.863000
70
192
0
VERTEX
8
OBJECT__4
10
10.339000
20
-35.286999
30
-8.300000
70
192
0
VERTEX
8
OBJECT__4
10
10.830000
20
-36.557999
30
0.000000
70
192
0
VERTEX
8
OBJECT__4
10
10.330000
20
-36.049000
30
-3.810000
70
192
0
VERTEX
8
OBJECT__4
10
10.330000
20
-36.049000
30
0.000000
70
192
0
VERTEX
8
OBJECT__4
10
10.330000
20
-36.049000
30
3.811000
70
192
0
VERTEX
8
OBJECT__4
10
10.830000
20
-36.557999
30
3.864000
70
192
0
VERTEX
8
OBJECT__4
10
10.349000
20
-34.444000
30
11.299000
70
192
0
VERTEX
8
OBJECT__4
10
10.849000
20
-34.930000
30
11.457000
70
192
0
VERTEX
8
OBJECT__4
10
10.367000
20
-32.756001
30
15.528000
70
192
0
VERTEX
8
OBJECT__4
10
10.903000
20
-29.167999
30
22.372000
70
192
0
VERTEX
8
OBJECT__4
10
10.867000
20
-33.217999
30
15.745000
70
192
0
VERTEX
8
OBJECT__4
10
10.368000
20
-32.640999
30
15.716000
70
192
0
VERTEX
8
OBJECT__4
10
10.403000
20
-28.761999
30
22.063999
70
192
0
VERTEX
8
OBJECT__4
10
10.424000
20
-25.768999
30
25.495001
70
192
0
VERTEX
8
OBJECT__4
10
10.924000
20
-26.132999
30
25.851999
70
192
0
VERTEX
8
OBJECT__4
10
10.442000
20
-22.475000
30
28.186001
70
192
0
VERTEX
8
OBJECT__4
10
10.956000
20
-20.118000
30
30.764000
70
192
0
VERTEX
8
OBJECT__4
10
10.456000
20
-19.837999
30
30.340000
70
192
0
VERTEX
8
OBJECT__4
10
10.470000
20
-15.877000
30
32.588001
70
192
0
VERTEX
8
OBJECT__4
10
10.970000
20
-16.101000
30
33.043999
70
192
0
VERTEX
8
OBJECT__4
10
10.486000
20
-8.677000
30
35.195999
70
192
0
VERTEX
8
OBJECT__4
10
10.991000
20
-4.255000
30
36.509998
70
192
0
VERTEX
8
OBJECT__4
10
10.986000
20
-8.799000
30
35.688999
70
192
0
VERTEX
8
OBJECT__4
10
10.487000
20
-8.060000
30
35.307999
70
192
0
VERTEX
8
OBJECT__4
10
10.491000
20
-4.196000
30
36.006001
70
192
0
VERTEX
8
OBJECT__4
10
10.491000
20
3.462000
30
36.084000
70
192
0
VERTEX
8
OBJECT__4
10
10.991000
20
0.000000
30
36.554001
70
192
0
VERTEX
8
OBJECT__4
10
10.991000
20
3.511000
30
36.589001
70
192
0
VERTEX
8
OBJECT__4
10
10.987000
20
8.071000
30
35.861000
70
192
0
VERTEX
8
OBJECT__4
10
10.972000
20
15.425000
30
33.365002
70
192
0
VERTEX
8
OBJECT__4
10
10.487000
20
8.063000
30
35.330002
70
192
0
VERTEX
8
OBJECT__4
10
10.487000
20
7.959000
30
35.365002
70
192
0
VERTEX
8
OBJECT__4
10
10.958000
20
19.487000
30
31.167999
70
192
0
VERTEX
8
OBJECT__4
10
10.472000
20
15.211000
30
32.903999
70
192
0
VERTEX
8
OBJECT__4
10
10.458000
20
19.216000
30
30.738001
70
192
0
VERTEX
8
OBJECT__4
10
10.442000
20
22.476999
30
28.183001
70
192
0
VERTEX
8
OBJECT__4
10
10.928000
20
25.601000
30
26.378000
70
192
0
VERTEX
8
OBJECT__4
10
10.906000
20
28.705999
30
22.961000
70
192
0
VERTEX
8
OBJECT__4
10
10.428000
20
25.245001
30
26.014000
70
192
0
VERTEX
8
OBJECT__4
10
10.870000
20
32.890999
30
16.417999
70
192
0
VERTEX
8
OBJECT__4
10
10.406000
20
28.306999
30
22.643999
70
192
0
VERTEX
8
OBJECT__4
10
10.852000
20
34.689999
30
12.166000
70
192
0
VERTEX
8
OBJECT__4
10
10.368000
20
32.633999
30
15.717000
70
192
0
VERTEX
8
OBJECT__4
10
10.370000
20
32.432999
30
16.191999
70
192
0
VERTEX
8
OBJECT__4
10
10.831000
20
36.472000
30
4.607000
70
192
0
VERTEX
8
OBJECT__4
10
10.352000
20
34.207001
30
11.998000
70
192
0
VERTEX
8
OBJECT__4
10
10.331000
20
35.964001
30
4.544000
70
192
0
VERTEX
8
OBJECT__4
10
10.992000
20
0.355000
30
-36.756001
70
192
0
VERTEX
8
OBJECT__4
10
0
20
0
30
0
70
128
71
1
72
2
73
3
0
VERTEX
8
OBJECT__4
10
0
20
0
30
0
70
128
71
4
72
3
73
5
0
VERTEX
8
OBJECT__4
10
0
20
0
30
0
70
128
71
6
72
5
73
7
0
VERTEX
8
OBJECT__4
10
0
20
0
30
0
70
128
71
7
72
8
73
6
0
VERTEX
8
OBJECT__4
10
0
20
0
30
0
70
128
71
8
72
9
73
10
0
VERTEX
8
OBJECT__4
10
0
20
0
30
0
70
128
71
11
72
10
73
12
0
VERTEX
8
OBJECT__4
10
0
20
0
30
0
70
128
71
13
72
14
73
15
0
VERTEX
8
OBJECT__4
10
0
20
0
30
0
70
128
71
14
72
12
73
15
0
VERTEX
8
OBJECT__4
10
0
20
0
30
0
70
128
71
13
72
16
73
17
0
VERTEX
8
OBJECT__4
10
0
20
0
30
0
70
128
71
18
72
17
73
19
0
VERTEX
8
OBJECT__4
10
0
20
0
30
0
70
128
71
19
72
20
73
18
0
VERTEX
8
OBJECT__4
10
0
20
0
30
0
70
128
71
20
72
21
73
22
0
VERTEX
8
OBJECT__4
10
0
20
0
30
0
70
128
71
23
72
24
73
25
0
VERTEX
8
OBJECT__4
10
0
20
0
30
0
70
128
71
25
72
22
73
23
0
VERTEX
8
OBJECT__4
10
0
20
0
30
0
70
128
71
24
72
23
73
26
0
VERTEX
8
OBJECT__4
10
0
20
0
30
0
70
128
71
26
72
27
73
24
0
VERTEX
8
OBJECT__4
10
0
20
0
30
0
70
128
71
28
72
27
73
29
0
VERTEX
8
OBJECT__4
10
0
20
0
30
0
70
128
71
30
72
28
73
31
0
VERTEX
8
OBJECT__4
10
0
20
0
30
0
70
128
71
32
72
30
73
33
0
VERTEX
8
OBJECT__4
10
0
20
0
30
0
70
128
71
30
72
34
73
33
0
VERTEX
8
OBJECT__4
10
0
20
0
30
0
70
128
71
35
72
32
73
36
0
VERTEX
8
OBJECT__4
10
0
20
0
30
0
70
128
71
35
72
37
73
38
0
VERTEX
8
OBJECT__4
10
0
20
0
30
0
70
128
71
38
72
39
73
35
0
VERTEX
8
OBJECT__4
10
0
20
0
30
0
70
128
71
40
72
39
73
41
0
VERTEX
8
OBJECT__4
10
0
20
0
30
0
70
128
71
42
72
40
73
43
0
VERTEX
8
OBJECT__4
10
0
20
0
30
0
70
128
71
44
72
42
73
45
0
VERTEX
8
OBJECT__4
10
0
20
0
30
0
70
128
71
44
72
46
73
47
0
VERTEX
8
OBJECT__4
10
0
20
0
30
0
70
128
71
47
72
48
73
44
0
VERTEX
8
OBJECT__4
10
0
20
0
30
0
70
128
71
48
72
47
73
49
0
VERTEX
8
OBJECT__4
10
0
20
0
30
0
70
128
71
50
72
49
73
51
0
VERTEX
8
OBJECT__4
10
0
20
0
30
0
70
128
71
52
72
53
73
54
0
VERTEX
8
OBJECT__4
10
0
20
0
30
0
70
128
71
53
72
51
73
54
0
VERTEX
8
OBJECT__4
10
0
20
0
30
0
70
128
71
52
72
55
73
56
0
VERTEX
8
OBJECT__4
10
0
20
0
30
0
70
128
71
57
72
56
73
58
0
VERTEX
8
OBJECT__4
10
0
20
0
30
0
70
128
71
58
72
59
73
57
0
VERTEX
8
OBJECT__4
10
0
20
0
30
0
70
128
71
59
72
60
73
61
0
VERTEX
8
OBJECT__4
10
0
20
0
30
0
70
128
71
62
72
61
73
63
0
VERTEX
8
OBJECT__4
10
0
20
0
30
0
70
128
71
64
72
65
73
66
0
VERTEX
8
OBJECT__4
10
0
20
0
30
0
70
128
71
65
72
63
73
66
0
VERTEX
8
OBJECT__4
10
0
20
0
30
0
70
128
71
67
72
68
73
69
0
VERTEX
8
OBJECT__4
10
0
20
0
30
0
70
128
71
68
72
70
73
69
0
VERTEX
8
OBJECT__4
10
0
20
0
30
0
70
128
71
71
72
70
73
68
0
VERTEX
8
OBJECT__4
10
0
20
0
30
0
70
128
71
72
72
71
73
73
0
VERTEX
8
OBJECT__4
10
0
20
0
30
0
70
128
71
71
72
74
73
73
0
VERTEX
8
OBJECT__4
10
0
20
0
30
0
70
128
71
75
72
72
73
76
0
VERTEX
8
OBJECT__4
10
0
20
0
30
0
70
128
71
75
72
77
73
78
0
VERTEX
8
OBJECT__4
10
0
20
0
30
0
70
128
71
78
72
79
73
75
0
VERTEX
8
OBJECT__4
10
0
20
0
30
0
70
128
71
80
72
79
73
81
0
VERTEX
8
OBJECT__4
10
0
20
0
30
0
70
128
71
82
72
80
73
83
0
VERTEX
8
OBJECT__4
10
0
20
0
30
0
70
128
71
84
72
82
73
85
0
VERTEX
8
OBJECT__4
10
0
20
0
30
0
70
128
71
82
72
86
73
85
0
VERTEX
8
OBJECT__4
10
0
20
0
30
0
70
128
71
87
72
84
73
88
0
VERTEX
8
OBJECT__4
10
0
20
0
30
0
70
128
71
1
72
87
73
89
0
VERTEX
8
OBJECT__4
10
0
20
0
30
0
70
128
71
89
72
2
73
1
0
VERTEX
8
OBJECT__4
10
0
20
0
30
0
70
128
71
88
72
89
73
87
0
VERTEX
8
OBJECT__4
10
0
20
0
30
0
70
128
71
85
72
88
73
84
0
VERTEX
8
OBJECT__4
10
0
20
0
30
0
70
128
71
83
72
86
73
82
0
VERTEX
8
OBJECT__4
10
0
20
0
30
0
70
128
71
81
72
83
73
80
0
VERTEX
8
OBJECT__4
10
0
20
0
30
0
70
128
71
78
72
81
73
79
0
VERTEX
8
OBJECT__4
10
0
20
0
30
0
70
128
71
76
72
77
73
75
0
VERTEX
8
OBJECT__4
10
0
20
0
30
0
70
128
71
73
72
76
73
72
0
VERTEX
8
OBJECT__4
10
0
20
0
30
0
70
128
71
68
72
74
73
71
0
VERTEX
8
OBJECT__4
10
0
20
0
30
0
70
128
71
69
72
64
73
67
0
VERTEX
8
OBJECT__4
10
0
20
0
30
0
70
128
71
66
72
67
73
64
0
VERTEX
8
OBJECT__4
10
0
20
0
30
0
70
128
71
63
72
65
73
62
0
VERTEX
8
OBJECT__4
10
0
20
0
30
0
70
128
71
61
72
62
73
59
0
VERTEX
8
OBJECT__4
10
0
20
0
30
0
70
128
71
58
72
60
73
59
0
VERTEX
8
OBJECT__4
10
0
20
0
30
0
70
128
71
56
72
57
73
52
0
VERTEX
8
OBJECT__4
10
0
20
0
30
0
70
128
71
54
72
55
73
52
0
VERTEX
8
OBJECT__4
10
0
20
0
30
0
70
128
71
51
72
53
73
50
0
VERTEX
8
OBJECT__4
10
0
20
0
30
0
70
128
71
49
72
50
73
48
0
VERTEX
8
OBJECT__4
10
0
20
0
30
0
70
128
71
45
72
46
73
44
0
VERTEX
8
OBJECT__4
10
0
20
0
30
0
70
128
71
43
72
45
73
42
0
VERTEX
8
OBJECT__4
10
0
20
0
30
0
70
128
71
41
72
43
73
40
0
VERTEX
8
OBJECT__4
10
0
20
0
30
0
70
128
71
38
72
41
73
39
0
VERTEX
8
OBJECT__4
10
0
20
0
30
0
70
128
71
36
72
37
73
35
0
VERTEX
8
OBJECT__4
10
0
20
0
30
0
70
128
71
33
72
36
73
32
0
VERTEX
8
OBJECT__4
10
0
20
0
30
0
70
128
71
31
72
34
73
30
0
VERTEX
8
OBJECT__4
10
0
20
0
30
0
70
128
71
29
72
31
73
28
0
VERTEX
8
OBJECT__4
10
0
20
0
30
0
70
128
71
26
72
29
73
27
0
VERTEX
8
OBJECT__4
10
0
20
0
30
0
70
128
71
25
72
90
73
22
0
VERTEX
8
OBJECT__4
10
0
20
0
30
0
70
128
71
22
72
90
73
20
0
VERTEX
8
OBJECT__4
10
0
20
0
30
0
70
128
71
19
72
21
73
20
0
VERTEX
8
OBJECT__4
10
0
20
0
30
0
70
128
71
17
72
18
73
13
0
VERTEX
8
OBJECT__4
10
0
20
0
30
0
70
128
71
15
72
16
73
13
0
VERTEX
8
OBJECT__4
10
0
20
0
30
0
70
128
71
12
72
14
73
11
0
VERTEX
8
OBJECT__4
10
0
20
0
30
0
70
128
71
10
72
11
73
8
0
VERTEX
8
OBJECT__4
10
0
20
0
30
0
70
128
71
7
72
9
73
8
0
VERTEX
8
OBJECT__4
10
0
20
0
30
0
70
128
71
5
72
6
73
4
0
VERTEX
8
OBJECT__4
10
0
20
0
30
0
70
128
71
3
72
4
73
1
0
SEQEND
8
OBJECT__4
0
POLYLINE
8
OBJECT__5
66
1
70
64
71
82
72
86
62
253
0
VERTEX
8
OBJECT__5
10
9.427000
20
73.068001
30
-47.369999
70
192
0
VERTEX
8
OBJECT__5
10
9.314000
20
70.946999
30
-93.457001
70
192
0
VERTEX
8
OBJECT__5
10
9.315000
20
71.952003
30
-92.452003
70
192
0
VERTEX
8
OBJECT__5
10
9.313000
20
71.387001
30
-93.405998
70
192
0
VERTEX
8
OBJECT__5
10
9.311000
20
72.009003
30
-93.148003
70
192
0
VERTEX
8
OBJECT__5
10
9.311000
20
72.513000
30
-92.698997
70
192
0
VERTEX
8
OBJECT__5
10
9.312000
20
72.841003
30
-92.110001
70
192
0
VERTEX
8
OBJECT__5
10
9.314000
20
72.957001
30
-91.447998
70
192
0
VERTEX
8
OBJECT__5
10
10.809000
20
0.000000
30
-47.379002
70
192
0
VERTEX
8
OBJECT__5
10
9.471000
20
7.663000
30
-93.611000
70
192
0
VERTEX
8
OBJECT__5
10
9.465000
20
0.000000
30
-93.605003
70
192
0
VERTEX
8
OBJECT__5
10
10.979000
20
12.503000
30
-34.566002
70
192
0
VERTEX
8
OBJECT__5
10
10.885000
20
31.358000
30
-19.181999
70
192
0
VERTEX
8
OBJECT__5
10
10.906000
20
28.705999
30
-22.961000
70
192
0
VERTEX
8
OBJECT__5
10
10.941000
20
23.240999
30
-28.479000
70
192
0
VERTEX
8
OBJECT__5
10
10.958000
20
19.486000
30
-31.167999
70
192
0
VERTEX
8
OBJECT__5
10
9.516000
20
73.154999
30
-12.842000
70
192
0
VERTEX
8
OBJECT__5
10
10.852000
20
34.688999
30
-12.167000
70
192
0
VERTEX
8
OBJECT__5
10
10.987000
20
8.070000
30
-35.861000
70
192
0
VERTEX
8
OBJECT__5
10
10.837000
20
35.941002
30
-7.723000
70
192
0
VERTEX
8
OBJECT__5
10
10.992000
20
0.355000
30
-36.756001
70
192
0
VERTEX
8
OBJECT__5
10
9.507000
20
73.147003
30
0.000000
70
192
0
VERTEX
8
OBJECT__5
10
10.827000
20
36.762001
30
0.000000
70
192
0
VERTEX
8
OBJECT__5
10
9.483000
20
73.122002
30
39.301998
70
192
0
VERTEX
8
OBJECT__5
10
10.852000
20
34.689999
30
12.166000
70
192
0
VERTEX
8
OBJECT__5
10
9.314000
20
72.957001
30
91.447998
70
192
0
VERTEX
8
OBJECT__5
10
10.928000
20
25.601000
30
26.378000
70
192
0
VERTEX
8
OBJECT__5
10
10.906000
20
28.705999
30
22.961000
70
192
0
VERTEX
8
OBJECT__5
10
10.958000
20
19.487000
30
31.167999
70
192
0
VERTEX
8
OBJECT__5
10
9.311000
20
72.198997
30
93.013000
70
192
0
VERTEX
8
OBJECT__5
10
9.312000
20
71.610001
30
93.341003
70
192
0
VERTEX
8
OBJECT__5
10
9.313000
20
72.905998
30
91.887001
70
192
0
VERTEX
8
OBJECT__5
10
9.311000
20
72.648003
30
92.510002
70
192
0
VERTEX
8
OBJECT__5
10
9.314000
20
70.946999
30
93.457001
70
192
0
VERTEX
8
OBJECT__5
10
9.442000
20
31.642000
30
93.582001
70
192
0
VERTEX
8
OBJECT__5
10
10.972000
20
15.425000
30
33.365002
70
192
0
VERTEX
8
OBJECT__5
10
10.987000
20
8.071000
30
35.861000
70
192
0
VERTEX
8
OBJECT__5
10
9.465000
20
0.000000
30
93.605003
70
192
0
VERTEX
8
OBJECT__5
10
10.991000
20
3.511000
30
36.589001
70
192
0
VERTEX
8
OBJECT__5
10
10.809000
20
0.000000
30
47.379002
70
192
0
VERTEX
8
OBJECT__5
10
10.991000
20
0.000000
30
36.554001
70
192
0
VERTEX
8
OBJECT__5
10
10.870000
20
32.890999
30
16.417999
70
192
0
VERTEX
8
OBJECT__5
10
10.831000
20
36.472000
30
4.607000
70
192
0
VERTEX
8
OBJECT__5
10
9.457000
20
-73.096001
30
47.369999
70
192
0
VERTEX
8
OBJECT__5
10
9.471000
20
-7.663000
30
93.611000
70
192
0
VERTEX
8
OBJECT__5
10
9.315000
20
-71.952003
30
92.452003
70
192
0
VERTEX
8
OBJECT__5
10
9.314000
20
-70.946999
30
93.457001
70
192
0
VERTEX
8
OBJECT__5
10
9.312000
20
-71.610001
30
93.341003
70
192
0
VERTEX
8
OBJECT__5
10
9.311000
20
-72.198997
30
93.013000
70
192
0
VERTEX
8
OBJECT__5
10
9.311000
20
-72.648003
30
92.510002
70
192
0
VERTEX
8
OBJECT__5
10
9.313000
20
-72.905998
30
91.887001
70
192
0
VERTEX
8
OBJECT__5
10
9.314000
20
-72.957001
30
91.447998
70
192
0
VERTEX
8
OBJECT__5
10
10.970000
20
-16.101000
30
33.043999
70
192
0
VERTEX
8
OBJECT__5
10
10.986000
20
-8.799000
30
35.688999
70
192
0
VERTEX
8
OBJECT__5
10
10.903000
20
-29.167999
30
22.372000
70
192
0
VERTEX
8
OBJECT__5
10
10.924000
20
-26.132999
30
25.851999
70
192
0
VERTEX
8
OBJECT__5
10
10.956000
20
-20.118000
30
30.764000
70
192
0
VERTEX
8
OBJECT__5
10
9.483000
20
-73.122002
30
39.301998
70
192
0
VERTEX
8
OBJECT__5
10
10.867000
20
-33.217999
30
15.745000
70
192
0
VERTEX
8
OBJECT__5
10
10.849000
20
-34.930000
30
11.457000
70
192
0
VERTEX
8
OBJECT__5
10
10.991000
20
-4.255000
30
36.509998
70
192
0
VERTEX
8
OBJECT__5
10
9.507000
20
-73.147003
30
0.000000
70
192
0
VERTEX
8
OBJECT__5
10
10.830000
20
-36.557999
30
3.864000
70
192
0
VERTEX
8
OBJECT__5
10
10.830000
20
-36.557999
30
0.000000
70
192
0
VERTEX
8
OBJECT__5
10
9.516000
20
-73.154999
30
-12.842000
70
192
0
VERTEX
8
OBJECT__5
10
10.830000
20
-36.557999
30
-3.863000
70
192
0
VERTEX
8
OBJECT__5
10
10.839000
20
-35.785000
30
-8.416000
70
192
0
VERTEX
8
OBJECT__5
10
9.314000
20
-72.957001
30
-91.447998
70
192
0
VERTEX
8
OBJECT__5
10
10.888000
20
-30.982000
30
-19.784000
70
192
0
VERTEX
8
OBJECT__5
10
10.867000
20
-33.217999
30
-15.745000
70
192
0
VERTEX
8
OBJECT__5
10
10.924000
20
-26.132999
30
-25.851000
70
192
0
VERTEX
8
OBJECT__5
10
9.313000
20
-71.387001
30
-93.405998
70
192
0
VERTEX
8
OBJECT__5
10
9.314000
20
-70.946999
30
-93.457001
70
192
0
VERTEX
8
OBJECT__5
10
9.311000
20
-72.513000
30
-92.698997
70
192
0
VERTEX
8
OBJECT__5
10
9.311000
20
-72.009003
30
-93.148003
70
192
0
VERTEX
8
OBJECT__5
10
9.312000
20
-72.841003
30
-92.110001
70
192
0
VERTEX
8
OBJECT__5
10
9.442000
20
-31.642000
30
-93.582001
70
192
0
VERTEX
8
OBJECT__5
10
10.970000
20
-16.101999
30
-33.042999
70
192
0
VERTEX
8
OBJECT__5
10
10.944000
20
-22.686001
30
-28.923000
70
192
0
VERTEX
8
OBJECT__5
10
10.981000
20
-11.832000
30
-34.800999
70
192
0
VERTEX
8
OBJECT__5
10
10.991000
20
-4.256000
30
-36.509998
70
192
0
VERTEX
8
OBJECT__5
10
10.992000
20
0.000000
30
-36.737000
70
192
0
VERTEX
8
OBJECT__5
10
0
20
0
30
0
70
128
71
1
72
2
73
3
0
VERTEX
8
OBJECT__5
10
0
20
0
30
0
70
128
71
3
72
4
73
5
0
VERTEX
8
OBJECT__5
10
0
20
0
30
0
70
128
71
3
72
2
73
4
0
VERTEX
8
OBJECT__5
10
0
20
0
30
0
70
128
71
3
72
6
73
7
0
VERTEX
8
OBJECT__5
10
0
20
0
30
0
70
128
71
7
72
8
73
3
0
VERTEX
8
OBJECT__5
10
0
20
0
30
0
70
128
71
5
72
6
73
3
0
VERTEX
8
OBJECT__5
10
0
20
0
30
0
70
128
71
1
72
9
73
10
0
VERTEX
8
OBJECT__5
10
0
20
0
30
0
70
128
71
10
72
2
73
1
0
VERTEX
8
OBJECT__5
10
0
20
0
30
0
70
128
71
9
72
11
73
10
0
VERTEX
8
OBJECT__5
10
0
20
0
30
0
70
128
71
9
72
1
73
12
0
VERTEX
8
OBJECT__5
10
0
20
0
30
0
70
128
71
1
72
13
73
14
0
VERTEX
8
OBJECT__5
10
0
20
0
30
0
70
128
71
14
72
15
73
1
0
VERTEX
8
OBJECT__5
10
0
20
0
30
0
70
128
71
15
72
16
73
1
0
VERTEX
8
OBJECT__5
10
0
20
0
30
0
70
128
71
1
72
17
73
18
0
VERTEX
8
OBJECT__5
10
0
20
0
30
0
70
128
71
18
72
13
73
1
0
VERTEX
8
OBJECT__5
10
0
20
0
30
0
70
128
71
16
72
12
73
1
0
VERTEX
8
OBJECT__5
10
0
20
0
30
0
70
128
71
12
72
19
73
9
0
VERTEX
8
OBJECT__5
10
0
20
0
30
0
70
128
71
17
72
20
73
18
0
VERTEX
8
OBJECT__5
10
0
20
0
30
0
70
128
71
19
72
21
73
9
0
VERTEX
8
OBJECT__5
10
0
20
0
30
0
70
128
71
23
72
17
73
22
0
VERTEX
8
OBJECT__5
10
0
20
0
30
0
70
128
71
23
72
20
73
17
0
VERTEX
8
OBJECT__5
10
0
20
0
30
0
70
128
71
22
72
24
73
25
0
VERTEX
8
OBJECT__5
10
0
20
0
30
0
70
128
71
26
72
27
73
28
0
VERTEX
8
OBJECT__5
10
0
20
0
30
0
70
128
71
29
72
30
73
31
0
VERTEX
8
OBJECT__5
10
0
20
0
30
0
70
128
71
29
72
32
73
33
0
VERTEX
8
OBJECT__5
10
0
20
0
30
0
70
128
71
33
72
30
73
29
0
VERTEX
8
OBJECT__5
10
0
20
0
30
0
70
128
71
29
72
27
73
26
0
VERTEX
8
OBJECT__5
10
0
20
0
30
0
70
128
71
26
72
32
73
29
0
VERTEX
8
OBJECT__5
10
0
20
0
30
0
70
128
71
29
72
34
73
35
0
VERTEX
8
OBJECT__5
10
0
20
0
30
0
70
128
71
35
72
36
73
29
0
VERTEX
8
OBJECT__5
10
0
20
0
30
0
70
128
71
31
72
34
73
29
0
VERTEX
8
OBJECT__5
10
0
20
0
30
0
70
128
71
35
72
37
73
36
0
VERTEX
8
OBJECT__5
10
0
20
0
30
0
70
128
71
38
72
39
73
37
0
VERTEX
8
OBJECT__5
10
0
20
0
30
0
70
128
71
37
72
35
73
38
0
VERTEX
8
OBJECT__5
10
0
20
0
30
0
70
128
71
28
72
24
73
26
0
VERTEX
8
OBJECT__5
10
0
20
0
30
0
70
128
71
39
72
38
73
40
0
VERTEX
8
OBJECT__5
10
0
20
0
30
0
70
128
71
40
72
41
73
39
0
VERTEX
8
OBJECT__5
10
0
20
0
30
0
70
128
71
28
72
42
73
24
0
VERTEX
8
OBJECT__5
10
0
20
0
30
0
70
128
71
42
72
25
73
24
0
VERTEX
8
OBJECT__5
10
0
20
0
30
0
70
128
71
25
72
43
73
22
0
VERTEX
8
OBJECT__5
10
0
20
0
30
0
70
128
71
44
72
40
73
45
0
VERTEX
8
OBJECT__5
10
0
20
0
30
0
70
128
71
46
72
47
73
48
0
VERTEX
8
OBJECT__5
10
0
20
0
30
0
70
128
71
46
72
49
73
50
0
VERTEX
8
OBJECT__5
10
0
20
0
30
0
70
128
71
50
72
51
73
46
0
VERTEX
8
OBJECT__5
10
0
20
0
30
0
70
128
71
51
72
52
73
46
0
VERTEX
8
OBJECT__5
10
0
20
0
30
0
70
128
71
45
72
47
73
46
0
VERTEX
8
OBJECT__5
10
0
20
0
30
0
70
128
71
46
72
52
73
45
0
VERTEX
8
OBJECT__5
10
0
20
0
30
0
70
128
71
48
72
49
73
46
0
VERTEX
8
OBJECT__5
10
0
20
0
30
0
70
128
71
40
72
38
73
45
0
VERTEX
8
OBJECT__5
10
0
20
0
30
0
70
128
71
44
72
53
73
54
0
VERTEX
8
OBJECT__5
10
0
20
0
30
0
70
128
71
44
72
55
73
56
0
VERTEX
8
OBJECT__5
10
0
20
0
30
0
70
128
71
56
72
57
73
44
0
VERTEX
8
OBJECT__5
10
0
20
0
30
0
70
128
71
55
72
44
73
58
0
VERTEX
8
OBJECT__5
10
0
20
0
30
0
70
128
71
58
72
59
73
55
0
VERTEX
8
OBJECT__5
10
0
20
0
30
0
70
128
71
57
72
53
73
44
0
VERTEX
8
OBJECT__5
10
0
20
0
30
0
70
128
71
54
72
40
73
44
0
VERTEX
8
OBJECT__5
10
0
20
0
30
0
70
128
71
58
72
60
73
59
0
VERTEX
8
OBJECT__5
10
0
20
0
30
0
70
128
71
54
72
61
73
40
0
VERTEX
8
OBJECT__5
10
0
20
0
30
0
70
128
71
62
72
63
73
60
0
VERTEX
8
OBJECT__5
10
0
20
0
30
0
70
128
71
60
72
58
73
62
0
VERTEX
8
OBJECT__5
10
0
20
0
30
0
70
128
71
62
72
64
73
63
0
VERTEX
8
OBJECT__5
10
0
20
0
30
0
70
128
71
62
72
65
73
66
0
VERTEX
8
OBJECT__5
10
0
20
0
30
0
70
128
71
65
72
67
73
66
0
VERTEX
8
OBJECT__5
10
0
20
0
30
0
70
128
71
68
72
69
73
70
0
VERTEX
8
OBJECT__5
10
0
20
0
30
0
70
128
71
71
72
72
73
73
0
VERTEX
8
OBJECT__5
10
0
20
0
30
0
70
128
71
71
72
74
73
75
0
VERTEX
8
OBJECT__5
10
0
20
0
30
0
70
128
71
71
72
68
73
76
0
VERTEX
8
OBJECT__5
10
0
20
0
30
0
70
128
71
76
72
74
73
71
0
VERTEX
8
OBJECT__5
10
0
20
0
30
0
70
128
71
75
72
72
73
71
0
VERTEX
8
OBJECT__5
10
0
20
0
30
0
70
128
71
73
72
77
73
78
0
VERTEX
8
OBJECT__5
10
0
20
0
30
0
70
128
71
78
72
79
73
73
0
VERTEX
8
OBJECT__5
10
0
20
0
30
0
70
128
71
77
72
80
73
78
0
VERTEX
8
OBJECT__5
10
0
20
0
30
0
70
128
71
77
72
11
73
81
0
VERTEX
8
OBJECT__5
10
0
20
0
30
0
70
128
71
81
72
80
73
77
0
VERTEX
8
OBJECT__5
10
0
20
0
30
0
70
128
71
73
72
79
73
71
0
VERTEX
8
OBJECT__5
10
0
20
0
30
0
70
128
71
81
72
11
73
9
0
VERTEX
8
OBJECT__5
10
0
20
0
30
0
70
128
71
9
72
82
73
81
0
VERTEX
8
OBJECT__5
10
0
20
0
30
0
70
128
71
71
72
69
73
68
0
VERTEX
8
OBJECT__5
10
0
20
0
30
0
70
128
71
70
72
65
73
68
0
VERTEX
8
OBJECT__5
10
0
20
0
30
0
70
128
71
70
72
67
73
65
0
VERTEX
8
OBJECT__5
10
0
20
0
30
0
70
128
71
66
72
64
73
62
0
VERTEX
8
OBJECT__5
10
0
20
0
30
0
70
128
71
61
72
41
73
40
0
VERTEX
8
OBJECT__5
10
0
20
0
30
0
70
128
71
45
72
52
73
44
0
VERTEX
8
OBJECT__5
10
0
20
0
30
0
70
128
71
43
72
23
73
22
0
VERTEX
8
OBJECT__5
10
0
20
0
30
0
70
128
71
21
72
82
73
9
0
VERTEX
8
OBJECT__5
10
0
20
0
30
0
70
128
71
3
72
8
73
1
0
SEQEND
8
OBJECT__5
0
POLYLINE
8
OBJECT__6
66
1
70
64
71
14
72
14
62
253
0
VERTEX
8
OBJECT__6
10
8.004000
20
76.508003
30
-12.841000
70
192
0
VERTEX
8
OBJECT__6
10
7.869000
20
76.440002
30
-91.441002
70
192
0
VERTEX
8
OBJECT__6
10
4.402000
20
77.922997
30
-91.424004
70
192
0
VERTEX
8
OBJECT__6
10
9.427000
20
73.068001
30
-47.369999
70
192
0
VERTEX
8
OBJECT__6
10
9.516000
20
73.154999
30
-12.842000
70
192
0
VERTEX
8
OBJECT__6
10
4.608000
20
77.919998
30
-12.839000
70
192
0
VERTEX
8
OBJECT__6
10
4.574000
20
77.919998
30
39.292000
70
192
0
VERTEX
8
OBJECT__6
10
7.982000
20
76.496002
30
39.299000
70
192
0
VERTEX
8
OBJECT__6
10
9.483000
20
73.122002
30
39.301998
70
192
0
VERTEX
8
OBJECT__6
10
9.507000
20
73.147003
30
0.000000
70
192
0
VERTEX
8
OBJECT__6
10
4.402000
20
77.922997
30
91.424004
70
192
0
VERTEX
8
OBJECT__6
10
7.869000
20
76.440002
30
91.441002
70
192
0
VERTEX
8
OBJECT__6
10
9.314000
20
72.957001
30
91.447998
70
192
0
VERTEX
8
OBJECT__6
10
9.314000
20
72.957001
30
-91.447998
70
192
0
VERTEX
8
OBJECT__6
10
0
20
0
30
0
70
128
71
1
72
2
73
3
0
VERTEX
8
OBJECT__6
10
0
20
0
30
0
70
128
71
2
72
1
73
4
0
VERTEX
8
OBJECT__6
10
0
20
0
30
0
70
128
71
1
72
5
73
4
0
VERTEX
8
OBJECT__6
10
0
20
0
30
0
70
128
71
1
72
6
73
7
0
VERTEX
8
OBJECT__6
10
0
20
0
30
0
70
128
71
8
72
9
73
10
0
VERTEX
8
OBJECT__6
10
0
20
0
30
0
70
128
71
10
72
1
73
8
0
VERTEX
8
OBJECT__6
10
0
20
0
30
0
70
128
71
8
72
7
73
11
0
VERTEX
8
OBJECT__6
10
0
20
0
30
0
70
128
71
12
72
13
73
9
0
VERTEX
8
OBJECT__6
10
0
20
0
30
0
70
128
71
9
72
8
73
12
0
VERTEX
8
OBJECT__6
10
0
20
0
30
0
70
128
71
11
72
12
73
8
0
VERTEX
8
OBJECT__6
10
0
20
0
30
0
70
128
71
10
72
5
73
1
0
VERTEX
8
OBJECT__6
10
0
20
0
30
0
70
128
71
7
72
8
73
1
0
VERTEX
8
OBJECT__6
10
0
20
0
30
0
70
128
71
4
72
14
73
2
0
VERTEX
8
OBJECT__6
10
0
20
0
30
0
70
128
71
3
72
6
73
1
0
SEQEND
8
OBJECT__6
0
POLYLINE
8
OBJECT__7
66
1
70
64
71
19
72
21
62
253
0
VERTEX
8
OBJECT__7
10
7.874000
20
76.119003
30
-93.255997
70
192
0
VERTEX
8
OBJECT__7
10
7.869000
20
76.440002
30
-91.441002
70
192
0
VERTEX
8
OBJECT__7
10
9.314000
20
72.957001
30
-91.447998
70
192
0
VERTEX
8
OBJECT__7
10
4.423000
20
77.528000
30
-93.739998
70
192
0
VERTEX
8
OBJECT__7
10
4.402000
20
77.922997
30
-91.424004
70
192
0
VERTEX
8
OBJECT__7
10
7.877000
20
75.222000
30
-94.864998
70
192
0
VERTEX
8
OBJECT__7
10
9.312000
20
72.841003
30
-92.110001
70
192
0
VERTEX
8
OBJECT__7
10
4.434000
20
76.389000
30
-95.795998
70
192
0
VERTEX
8
OBJECT__7
10
9.311000
20
72.513000
30
-92.698997
70
192
0
VERTEX
8
OBJECT__7
10
9.311000
20
72.009003
30
-93.148003
70
192
0
VERTEX
8
OBJECT__7
10
7.876000
20
73.847000
30
-96.089996
70
192
0
VERTEX
8
OBJECT__7
10
4.431000
20
74.634003
30
-97.358002
70
192
0
VERTEX
8
OBJECT__7
10
4.433000
20
75.815002
30
-96.306999
70
192
0
VERTEX
8
OBJECT__7
10
9.313000
20
71.387001
30
-93.405998
70
192
0
VERTEX
8
OBJECT__7
10
7.872000
20
72.146004
30
-96.797997
70
192
0
VERTEX
8
OBJECT__7
10
9.314000
20
70.946999
30
-93.457001
70
192
0
VERTEX
8
OBJECT__7
10
4.417000
20
72.461998
30
-98.251999
70
192
0
VERTEX
8
OBJECT__7
10
7.869000
20
70.940002
30
-96.940002
70
192
0
VERTEX
8
OBJECT__7
10
4.402000
20
70.924004
30
-98.422997
70
192
0
VERTEX
8
OBJECT__7
10
0
20
0
30
0
70
128
71
1
72
2
73
3
0
VERTEX
8
OBJECT__7
10
0
20
0
30
0
70
128
71
4
72
5
73
2
0
VERTEX
8
OBJECT__7
10
0
20
0
30
0
70
128
71
6
72
1
73
7
0
VERTEX
8
OBJECT__7
10
0
20
0
30
0
70
128
71
8
72
4
73
1
0
VERTEX
8
OBJECT__7
10
0
20
0
30
0
70
128
71
6
72
9
73
10
0
VERTEX
8
OBJECT__7
10
0
20
0
30
0
70
128
71
11
72
12
73
13
0
VERTEX
8
OBJECT__7
10
0
20
0
30
0
70
128
71
13
72
6
73
11
0
VERTEX
8
OBJECT__7
10
0
20
0
30
0
70
128
71
11
72
10
73
14
0
VERTEX
8
OBJECT__7
10
0
20
0
30
0
70
128
71
12
72
11
73
15
0
VERTEX
8
OBJECT__7
10
0
20
0
30
0
70
128
71
15
72
14
73
16
0
VERTEX
8
OBJECT__7
10
0
20
0
30
0
70
128
71
17
72
15
73
18
0
VERTEX
8
OBJECT__7
10
0
20
0
30
0
70
128
71
18
72
19
73
17
0
VERTEX
8
OBJECT__7
10
0
20
0
30
0
70
128
71
16
72
18
73
15
0
VERTEX
8
OBJECT__7
10
0
20
0
30
0
70
128
71
15
72
17
73
12
0
VERTEX
8
OBJECT__7
10
0
20
0
30
0
70
128
71
14
72
15
73
11
0
VERTEX
8
OBJECT__7
10
0
20
0
30
0
70
128
71
13
72
8
73
6
0
VERTEX
8
OBJECT__7
10
0
20
0
30
0
70
128
71
10
72
11
73
6
0
VERTEX
8
OBJECT__7
10
0
20
0
30
0
70
128
71
1
72
6
73
8
0
VERTEX
8
OBJECT__7
10
0
20
0
30
0
70
128
71
7
72
9
73
6
0
VERTEX
8
OBJECT__7
10
0
20
0
30
0
70
128
71
2
72
1
73
4
0
VERTEX
8
OBJECT__7
10
0
20
0
30
0
70
128
71
3
72
7
73
1
0
SEQEND
8
OBJECT__7
0
POLYLINE
8
OBJECT__8
66
1
70
64
71
19
72
21
62
253
0
VERTEX
8
OBJECT__8
10
7.874000
20
72.755997
30
96.620003
70
192
0
VERTEX
8
OBJECT__8
10
7.869000
20
70.940002
30
96.940002
70
192
0
VERTEX
8
OBJECT__8
10
9.314000
20
70.946999
30
93.457001
70
192
0
VERTEX
8
OBJECT__8
10
4.423000
20
73.239998
30
98.028000
70
192
0
VERTEX
8
OBJECT__8
10
4.402000
20
70.924004
30
98.422997
70
192
0
VERTEX
8
OBJECT__8
10
7.877000
20
74.364998
30
95.722000
70
192
0
VERTEX
8
OBJECT__8
10
9.312000
20
71.610001
30
93.341003
70
192
0
VERTEX
8
OBJECT__8
10
4.434000
20
75.295998
30
96.889000
70
192
0
VERTEX
8
OBJECT__8
10
9.311000
20
72.198997
30
93.013000
70
192
0
VERTEX
8
OBJECT__8
10
9.311000
20
72.648003
30
92.510002
70
192
0
VERTEX
8
OBJECT__8
10
7.876000
20
75.589996
30
94.347000
70
192
0
VERTEX
8
OBJECT__8
10
4.431000
20
76.858002
30
95.134003
70
192
0
VERTEX
8
OBJECT__8
10
4.433000
20
75.806999
30
96.315002
70
192
0
VERTEX
8
OBJECT__8
10
9.313000
20
72.905998
30
91.887001
70
192
0
VERTEX
8
OBJECT__8
10
7.873000
20
76.297997
30
92.646004
70
192
0
VERTEX
8
OBJECT__8
10
9.314000
20
72.957001
30
91.447998
70
192
0
VERTEX
8
OBJECT__8
10
4.417000
20
77.751999
30
92.961998
70
192
0
VERTEX
8
OBJECT__8
10
7.869000
20
76.440002
30
91.441002
70
192
0
VERTEX
8
OBJECT__8
10
4.402000
20
77.922997
30
91.424004
70
192
0
VERTEX
8
OBJECT__8
10
0
20
0
30
0
70
128
71
1
72
2
73
3
0
VERTEX
8
OBJECT__8
10
0
20
0
30
0
70
128
71
4
72
5
73
2
0
VERTEX
8
OBJECT__8
10
0
20
0
30
0
70
128
71
6
72
1
73
7
0
VERTEX
8
OBJECT__8
10
0
20
0
30
0
70
128
71
8
72
4
73
1
0
VERTEX
8
OBJECT__8
10
0
20
0
30
0
70
128
71
6
72
9
73
10
0
VERTEX
8
OBJECT__8
10
0
20
0
30
0
70
128
71
11
72
12
73
13
0
VERTEX
8
OBJECT__8
10
0
20
0
30
0
70
128
71
13
72
6
73
11
0
VERTEX
8
OBJECT__8
10
0
20
0
30
0
70
128
71
11
72
10
73
14
0
VERTEX
8
OBJECT__8
10
0
20
0
30
0
70
128
71
12
72
11
73
15
0
VERTEX
8
OBJECT__8
10
0
20
0
30
0
70
128
71
15
72
14
73
16
0
VERTEX
8
OBJECT__8
10
0
20
0
30
0
70
128
71
17
72
15
73
18
0
VERTEX
8
OBJECT__8
10
0
20
0
30
0
70
128
71
18
72
19
73
17
0
VERTEX
8
OBJECT__8
10
0
20
0
30
0
70
128
71
16
72
18
73
15
0
VERTEX
8
OBJECT__8
10
0
20
0
30
0
70
128
71
15
72
17
73
12
0
VERTEX
8
OBJECT__8
10
0
20
0
30
0
70
128
71
14
72
15
73
11
0
VERTEX
8
OBJECT__8
10
0
20
0
30
0
70
128
71
13
72
8
73
6
0
VERTEX
8
OBJECT__8
10
0
20
0
30
0
70
128
71
10
72
11
73
6
0
VERTEX
8
OBJECT__8
10
0
20
0
30
0
70
128
71
1
72
6
73
8
0
VERTEX
8
OBJECT__8
10
0
20
0
30
0
70
128
71
7
72
9
73
6
0
VERTEX
8
OBJECT__8
10
0
20
0
30
0
70
128
71
2
72
1
73
4
0
VERTEX
8
OBJECT__8
10
0
20
0
30
0
70
128
71
3
72
7
73
1
0
SEQEND
8
OBJECT__8
0
POLYLINE
8
OBJECT__9
66
1
70
64
71
6
72
4
62
253
0
VERTEX
8
OBJECT__9
10
0.000000
20
78.000000
30
91.500999
70
192
0
VERTEX
8
OBJECT__9
10
4.574000
20
77.919998
30
39.292000
70
192
0
VERTEX
8
OBJECT__9
10
4.608000
20
77.919998
30
-12.839000
70
192
0
VERTEX
8
OBJECT__9
10
0.000000
20
78.000000
30
-91.500999
70
192
0
VERTEX
8
OBJECT__9
10
4.402000
20
77.922997
30
91.424004
70
192
0
VERTEX
8
OBJECT__9
10
4.402000
20
77.922997
30
-91.424004
70
192
0
VERTEX
8
OBJECT__9
10
0
20
0
30
0
70
128
71
1
72
2
73
3
0
VERTEX
8
OBJECT__9
10
0
20
0
30
0
70
128
71
3
72
4
73
1
0
VERTEX
8
OBJECT__9
10
0
20
0
30
0
70
128
71
1
72
5
73
2
0
VERTEX
8
OBJECT__9
10
0
20
0
30
0
70
128
71
3
72
6
73
4
0
SEQEND
8
OBJECT__9
0
POLYLINE
8
OBJECT__10
66
1
70
64
71
11
72
9
62
253
0
VERTEX
8
OBJECT__10
10
0.000000
20
75.406998
30
-96.939003
70
192
0
VERTEX
8
OBJECT__10
10
4.431000
20
74.634003
30
-97.358002
70
192
0
VERTEX
8
OBJECT__10
10
4.417000
20
72.461998
30
-98.251999
70
192
0
VERTEX
8
OBJECT__10
10
0.000000
20
71.000999
30
-98.500000
70
192
0
VERTEX
8
OBJECT__10
10
4.433000
20
75.815002
30
-96.306999
70
192
0
VERTEX
8
OBJECT__10
10
0.000000
20
75.697998
30
-96.330002
70
192
0
VERTEX
8
OBJECT__10
10
0.000000
20
78.000000
30
-91.500999
70
192
0
VERTEX
8
OBJECT__10
10
4.423000
20
77.528000
30
-93.739998
70
192
0
VERTEX
8
OBJECT__10
10
4.402000
20
77.922997
30
-91.424004
70
192
0
VERTEX
8
OBJECT__10
10
4.434000
20
76.389000
30
-95.795998
70
192
0
VERTEX
8
OBJECT__10
10
4.402000
20
70.924004
30
-98.422997
70
192
0
VERTEX
8
OBJECT__10
10
0
20
0
30
0
70
128
71
1
72
2
73
3
0
VERTEX
8
OBJECT__10
10
0
20
0
30
0
70
128
71
3
72
4
73
1
0
VERTEX
8
OBJECT__10
10
0
20
0
30
0
70
128
71
5
72
2
73
1
0
VERTEX
8
OBJECT__10
10
0
20
0
30
0
70
128
71
1
72
6
73
5
0
VERTEX
8
OBJECT__10
10
0
20
0
30
0
70
128
71
6
72
7
73
8
0
VERTEX
8
OBJECT__10
10
0
20
0
30
0
70
128
71
7
72
9
73
8
0
VERTEX
8
OBJECT__10
10
0
20
0
30
0
70
128
71
8
72
10
73
6
0
VERTEX
8
OBJECT__10
10
0
20
0
30
0
70
128
71
10
72
5
73
6
0
VERTEX
8
OBJECT__10
10
0
20
0
30
0
70
128
71
3
72
11
73
4
0
SEQEND
8
OBJECT__10
0
POLYLINE
8
OBJECT__11
66
1
70
64
71
13
72
13
62
253
0
VERTEX
8
OBJECT__11
10
7.954000
20
-31.639000
30
-96.983002
70
192
0
VERTEX
8
OBJECT__11
10
7.869000
20
-70.940002
30
-96.940002
70
192
0
VERTEX
8
OBJECT__11
10
4.402000
20
-70.924004
30
-98.422997
70
192
0
VERTEX
8
OBJECT__11
10
9.442000
20
-31.642000
30
-93.582001
70
192
0
VERTEX
8
OBJECT__11
10
7.973000
20
7.662000
30
-96.992996
70
192
0
VERTEX
8
OBJECT__11
10
4.532000
20
-31.632000
30
-98.420998
70
192
0
VERTEX
8
OBJECT__11
10
9.465000
20
0.000000
30
-93.605003
70
192
0
VERTEX
8
OBJECT__11
10
9.471000
20
7.663000
30
-93.611000
70
192
0
VERTEX
8
OBJECT__11
10
4.562000
20
7.661000
30
-98.419998
70
192
0
VERTEX
8
OBJECT__11
10
4.402000
20
70.924004
30
-98.422997
70
192
0
VERTEX
8
OBJECT__11
10
7.869000
20
70.940002
30
-96.940002
70
192
0
VERTEX
8
OBJECT__11
10
9.314000
20
70.946999
30
-93.457001
70
192
0
VERTEX
8
OBJECT__11
10
9.314000
20
-70.946999
30
-93.457001
70
192
0
VERTEX
8
OBJECT__11
10
0
20
0
30
0
70
128
71
1
72
2
73
3
0
VERTEX
8
OBJECT__11
10
0
20
0
30
0
70
128
71
2
72
1
73
4
0
VERTEX
8
OBJECT__11
10
0
20
0
30
0
70
128
71
5
72
1
73
6
0
VERTEX
8
OBJECT__11
10
0
20
0
30
0
70
128
71
1
72
5
73
7
0
VERTEX
8
OBJECT__11
10
0
20
0
30
0
70
128
71
5
72
8
73
7
0
VERTEX
8
OBJECT__11
10
0
20
0
30
0
70
128
71
5
72
9
73
10
0
VERTEX
8
OBJECT__11
10
0
20
0
30
0
70
128
71
8
72
5
73
11
0
VERTEX
8
OBJECT__11
10
0
20
0
30
0
70
128
71
11
72
12
73
8
0
VERTEX
8
OBJECT__11
10
0
20
0
30
0
70
128
71
10
72
11
73
5
0
VERTEX
8
OBJECT__11
10
0
20
0
30
0
70
128
71
7
72
4
73
1
0
VERTEX
8
OBJECT__11
10
0
20
0
30
0
70
128
71
6
72
9
73
5
0
VERTEX
8
OBJECT__11
10
0
20
0
30
0
70
128
71
4
72
13
73
2
0
VERTEX
8
OBJECT__11
10
0
20
0
30
0
70
128
71
3
72
6
73
1
0
SEQEND
8
OBJECT__11
0
POLYLINE
8
OBJECT__12
66
1
70
64
71
6
72
4
62
253
0
VERTEX
8
OBJECT__12
10
0.000000
20
-71.000999
30
-98.500000
70
192
0
VERTEX
8
OBJECT__12
10
0.000000
20
71.000999
30
-98.500000
70
192
0
VERTEX
8
OBJECT__12
10
4.562000
20
7.661000
30
-98.419998
70
192
0
VERTEX
8
OBJECT__12
10
4.402000
20
70.924004
30
-98.422997
70
192
0
VERTEX
8
OBJECT__12
10
4.532000
20
-31.632000
30
-98.420998
70
192
0
VERTEX
8
OBJECT__12
10
4.402000
20
-70.924004
30
-98.422997
70
192
0
VERTEX
8
OBJECT__12
10
0
20
0
30
0
70
128
71
1
72
2
73
3
0
VERTEX
8
OBJECT__12
10
0
20
0
30
0
70
128
71
2
72
4
73
3
0
VERTEX
8
OBJECT__12
10
0
20
0
30
0
70
128
71
3
72
5
73
1
0
VERTEX
8
OBJECT__12
10
0
20
0
30
0
70
128
71
5
72
6
73
1
0
SEQEND
8
OBJECT__12
0
POLYLINE
8
OBJECT__13
66
1
70
64
71
19
72
21
62
253
0
VERTEX
8
OBJECT__13
10
4.423000
20
-77.528000
30
-93.739998
70
192
0
VERTEX
8
OBJECT__13
10
7.874000
20
-76.119003
30
-93.255997
70
192
0
VERTEX
8
OBJECT__13
10
7.869000
20
-76.440002
30
-91.441002
70
192
0
VERTEX
8
OBJECT__13
10
9.312000
20
-72.841003
30
-92.110001
70
192
0
VERTEX
8
OBJECT__13
10
9.314000
20
-72.957001
30
-91.447998
70
192
0
VERTEX
8
OBJECT__13
10
4.434000
20
-76.389000
30
-95.795998
70
192
0
VERTEX
8
OBJECT__13
10
7.877000
20
-75.222000
30
-94.864998
70
192
0
VERTEX
8
OBJECT__13
10
9.311000
20
-72.513000
30
-92.698997
70
192
0
VERTEX
8
OBJECT__13
10
7.876000
20
-73.847000
30
-96.089996
70
192
0
VERTEX
8
OBJECT__13
10
4.433000
20
-75.815002
30
-96.306999
70
192
0
VERTEX
8
OBJECT__13
10
9.311000
20
-72.009003
30
-93.148003
70
192
0
VERTEX
8
OBJECT__13
10
4.431000
20
-74.634003
30
-97.358002
70
192
0
VERTEX
8
OBJECT__13
10
4.417000
20
-72.461998
30
-98.251999
70
192
0
VERTEX
8
OBJECT__13
10
7.872000
20
-72.146004
30
-96.797997
70
192
0
VERTEX
8
OBJECT__13
10
9.313000
20
-71.387001
30
-93.405998
70
192
0
VERTEX
8
OBJECT__13
10
4.402000
20
-70.924004
30
-98.422997
70
192
0
VERTEX
8
OBJECT__13
10
7.869000
20
-70.940002
30
-96.940002
70
192
0
VERTEX
8
OBJECT__13
10
9.314000
20
-70.946999
30
-93.457001
70
192
0
VERTEX
8
OBJECT__13
10
4.402000
20
-77.922997
30
-91.424004
70
192
0
VERTEX
8
OBJECT__13
10
0
20
0
30
0
70
128
71
1
72
2
73
3
0
VERTEX
8
OBJECT__13
10
0
20
0
30
0
70
128
71
2
72
4
73
5
0
VERTEX
8
OBJECT__13
10
0
20
0
30
0
70
128
71
6
72
7
73
2
0
VERTEX
8
OBJECT__13
10
0
20
0
30
0
70
128
71
7
72
8
73
4
0
VERTEX
8
OBJECT__13
10
0
20
0
30
0
70
128
71
9
72
7
73
10
0
VERTEX
8
OBJECT__13
10
0
20
0
30
0
70
128
71
7
72
6
73
10
0
VERTEX
8
OBJECT__13
10
0
20
0
30
0
70
128
71
7
72
9
73
11
0
VERTEX
8
OBJECT__13
10
0
20
0
30
0
70
128
71
12
72
13
73
14
0
VERTEX
8
OBJECT__13
10
0
20
0
30
0
70
128
71
9
72
14
73
15
0
VERTEX
8
OBJECT__13
10
0
20
0
30
0
70
128
71
13
72
16
73
17
0
VERTEX
8
OBJECT__13
10
0
20
0
30
0
70
128
71
14
72
17
73
18
0
VERTEX
8
OBJECT__13
10
0
20
0
30
0
70
128
71
18
72
15
73
14
0
VERTEX
8
OBJECT__13
10
0
20
0
30
0
70
128
71
17
72
14
73
13
0
VERTEX
8
OBJECT__13
10
0
20
0
30
0
70
128
71
15
72
11
73
9
0
VERTEX
8
OBJECT__13
10
0
20
0
30
0
70
128
71
14
72
9
73
12
0
VERTEX
8
OBJECT__13
10
0
20
0
30
0
70
128
71
11
72
8
73
7
0
VERTEX
8
OBJECT__13
10
0
20
0
30
0
70
128
71
10
72
12
73
9
0
VERTEX
8
OBJECT__13
10
0
20
0
30
0
70
128
71
4
72
2
73
7
0
VERTEX
8
OBJECT__13
10
0
20
0
30
0
70
128
71
2
72
1
73
6
0
VERTEX
8
OBJECT__13
10
0
20
0
30
0
70
128
71
5
72
3
73
2
0
VERTEX
8
OBJECT__13
10
0
20
0
30
0
70
128
71
3
72
19
73
1
0
SEQEND
8
OBJECT__13
0
POLYLINE
8
OBJECT__14
66
1
70
64
71
11
72
9
62
253
0
VERTEX
8
OBJECT__14
10
0.000000
20
76.439003
30
95.906998
70
192
0
VERTEX
8
OBJECT__14
10
4.431000
20
76.858002
30
95.134003
70
192
0
VERTEX
8
OBJECT__14
10
4.417000
20
77.751999
30
92.961998
70
192
0
VERTEX
8
OBJECT__14
10
0.000000
20
78.000000
30
91.500999
70
192
0
VERTEX
8
OBJECT__14
10
4.433000
20
75.806999
30
96.315002
70
192
0
VERTEX
8
OBJECT__14
10
0.000000
20
75.830002
30
96.197998
70
192
0
VERTEX
8
OBJECT__14
10
0.000000
20
71.000999
30
98.500000
70
192
0
VERTEX
8
OBJECT__14
10
4.423000
20
73.239998
30
98.028000
70
192
0
VERTEX
8
OBJECT__14
10
4.402000
20
70.924004
30
98.422997
70
192
0
VERTEX
8
OBJECT__14
10
4.434000
20
75.295998
30
96.889000
70
192
0
VERTEX
8
OBJECT__14
10
4.402000
20
77.922997
30
91.424004
70
192
0
VERTEX
8
OBJECT__14
10
0
20
0
30
0
70
128
71
1
72
2
73
3
0
VERTEX
8
OBJECT__14
10
0
20
0
30
0
70
128
71
3
72
4
73
1
0
VERTEX
8
OBJECT__14
10
0
20
0
30
0
70
128
71
5
72
2
73
1
0
VERTEX
8
OBJECT__14
10
0
20
0
30
0
70
128
71
1
72
6
73
5
0
VERTEX
8
OBJECT__14
10
0
20
0
30
0
70
128
71
6
72
7
73
8
0
VERTEX
8
OBJECT__14
10
0
20
0
30
0
70
128
71
7
72
9
73
8
0
VERTEX
8
OBJECT__14
10
0
20
0
30
0
70
128
71
8
72
10
73
6
0
VERTEX
8
OBJECT__14
10
0
20
0
30
0
70
128
71
10
72
5
73
6
0
VERTEX
8
OBJECT__14
10
0
20
0
30
0
70
128
71
3
72
11
73
4
0
SEQEND
8
OBJECT__14
0
POLYLINE
8
OBJECT__15
66
1
70
64
71
13
72
13
62
253
0
VERTEX
8
OBJECT__15
10
7.954000
20
31.639000
30
96.983002
70
192
0
VERTEX
8
OBJECT__15
10
7.869000
20
70.940002
30
96.940002
70
192
0
VERTEX
8
OBJECT__15
10
4.402000
20
70.924004
30
98.422997
70
192
0
VERTEX
8
OBJECT__15
10
9.442000
20
31.642000
30
93.582001
70
192
0
VERTEX
8
OBJECT__15
10
7.973000
20
-7.662000
30
96.992996
70
192
0
VERTEX
8
OBJECT__15
10
4.532000
20
31.632000
30
98.420998
70
192
0
VERTEX
8
OBJECT__15
10
9.465000
20
0.000000
30
93.605003
70
192
0
VERTEX
8
OBJECT__15
10
9.471000
20
-7.663000
30
93.611000
70
192
0
VERTEX
8
OBJECT__15
10
4.562000
20
-7.661000
30
98.419998
70
192
0
VERTEX
8
OBJECT__15
10
4.402000
20
-70.924004
30
98.422997
70
192
0
VERTEX
8
OBJECT__15
10
7.869000
20
-70.940002
30
96.940002
70
192
0
VERTEX
8
OBJECT__15
10
9.314000
20
-70.946999
30
93.457001
70
192
0
VERTEX
8
OBJECT__15
10
9.314000
20
70.946999
30
93.457001
70
192
0
VERTEX
8
OBJECT__15
10
0
20
0
30
0
70
128
71
1
72
2
73
3
0
VERTEX
8
OBJECT__15
10
0
20
0
30
0
70
128
71
2
72
1
73
4
0
VERTEX
8
OBJECT__15
10
0
20
0
30
0
70
128
71
5
72
1
73
6
0
VERTEX
8
OBJECT__15
10
0
20
0
30
0
70
128
71
1
72
5
73
7
0
VERTEX
8
OBJECT__15
10
0
20
0
30
0
70
128
71
5
72
8
73
7
0
VERTEX
8
OBJECT__15
10
0
20
0
30
0
70
128
71
5
72
9
73
10
0
VERTEX
8
OBJECT__15
10
0
20
0
30
0
70
128
71
8
72
5
73
11
0
VERTEX
8
OBJECT__15
10
0
20
0
30
0
70
128
71
11
72
12
73
8
0
VERTEX
8
OBJECT__15
10
0
20
0
30
0
70
128
71
10
72
11
73
5
0
VERTEX
8
OBJECT__15
10
0
20
0
30
0
70
128
71
7
72
4
73
1
0
VERTEX
8
OBJECT__15
10
0
20
0
30
0
70
128
71
6
72
9
73
5
0
VERTEX
8
OBJECT__15
10
0
20
0
30
0
70
128
71
4
72
13
73
2
0
VERTEX
8
OBJECT__15
10
0
20
0
30
0
70
128
71
3
72
6
73
1
0
SEQEND
8
OBJECT__15
0
POLYLINE
8
OBJECT__16
66
1
70
64
71
6
72
4
62
253
0
VERTEX
8
OBJECT__16
10
0.000000
20
71.000999
30
98.500000
70
192
0
VERTEX
8
OBJECT__16
10
0.000000
20
-71.000999
30
98.500000
70
192
0
VERTEX
8
OBJECT__16
10
4.562000
20
-7.661000
30
98.419998
70
192
0
VERTEX
8
OBJECT__16
10
4.402000
20
-70.924004
30
98.422997
70
192
0
VERTEX
8
OBJECT__16
10
4.532000
20
31.632000
30
98.420998
70
192
0
VERTEX
8
OBJECT__16
10
4.402000
20
70.924004
30
98.422997
70
192
0
VERTEX
8
OBJECT__16
10
0
20
0
30
0
70
128
71
1
72
2
73
3
0
VERTEX
8
OBJECT__16
10
0
20
0
30
0
70
128
71
2
72
4
73
3
0
VERTEX
8
OBJECT__16
10
0
20
0
30
0
70
128
71
3
72
5
73
1
0
VERTEX
8
OBJECT__16
10
0
20
0
30
0
70
128
71
5
72
6
73
1
0
SEQEND
8
OBJECT__16
0
POLYLINE
8
OBJECT__17
66
1
70
64
71
19
72
21
62
253
0
VERTEX
8
OBJECT__17
10
4.423000
20
-73.239998
30
98.028000
70
192
0
VERTEX
8
OBJECT__17
10
7.874000
20
-72.755997
30
96.620003
70
192
0
VERTEX
8
OBJECT__17
10
7.869000
20
-70.940002
30
96.940002
70
192
0
VERTEX
8
OBJECT__17
10
9.312000
20
-71.610001
30
93.341003
70
192
0
VERTEX
8
OBJECT__17
10
9.314000
20
-70.946999
30
93.457001
70
192
0
VERTEX
8
OBJECT__17
10
4.434000
20
-75.295998
30
96.889000
70
192
0
VERTEX
8
OBJECT__17
10
7.877000
20
-74.364998
30
95.722000
70
192
0
VERTEX
8
OBJECT__17
10
9.311000
20
-72.198997
30
93.013000
70
192
0
VERTEX
8
OBJECT__17
10
7.876000
20
-75.589996
30
94.347000
70
192
0
VERTEX
8
OBJECT__17
10
4.433000
20
-75.806999
30
96.315002
70
192
0
VERTEX
8
OBJECT__17
10
9.311000
20
-72.648003
30
92.510002
70
192
0
VERTEX
8
OBJECT__17
10
4.431000
20
-76.858002
30
95.134003
70
192
0
VERTEX
8
OBJECT__17
10
4.417000
20
-77.751999
30
92.961998
70
192
0
VERTEX
8
OBJECT__17
10
7.873000
20
-76.297997
30
92.646004
70
192
0
VERTEX
8
OBJECT__17
10
9.313000
20
-72.905998
30
91.887001
70
192
0
VERTEX
8
OBJECT__17
10
4.402000
20
-77.922997
30
91.424004
70
192
0
VERTEX
8
OBJECT__17
10
7.869000
20
-76.440002
30
91.441002
70
192
0
VERTEX
8
OBJECT__17
10
9.314000
20
-72.957001
30
91.447998
70
192
0
VERTEX
8
OBJECT__17
10
4.402000
20
-70.924004
30
98.422997
70
192
0
VERTEX
8
OBJECT__17
10
0
20
0
30
0
70
128
71
1
72
2
73
3
0
VERTEX
8
OBJECT__17
10
0
20
0
30
0
70
128
71
2
72
4
73
5
0
VERTEX
8
OBJECT__17
10
0
20
0
30
0
70
128
71
6
72
7
73
2
0
VERTEX
8
OBJECT__17
10
0
20
0
30
0
70
128
71
7
72
8
73
4
0
VERTEX
8
OBJECT__17
10
0
20
0
30
0
70
128
71
9
72
7
73
10
0
VERTEX
8
OBJECT__17
10
0
20
0
30
0
70
128
71
7
72
6
73
10
0
VERTEX
8
OBJECT__17
10
0
20
0
30
0
70
128
71
7
72
9
73
11
0
VERTEX
8
OBJECT__17
10
0
20
0
30
0
70
128
71
12
72
13
73
14
0
VERTEX
8
OBJECT__17
10
0
20
0
30
0
70
128
71
9
72
14
73
15
0
VERTEX
8
OBJECT__17
10
0
20
0
30
0
70
128
71
13
72
16
73
17
0
VERTEX
8
OBJECT__17
10
0
20
0
30
0
70
128
71
14
72
17
73
18
0
VERTEX
8
OBJECT__17
10
0
20
0
30
0
70
128
71
18
72
15
73
14
0
VERTEX
8
OBJECT__17
10
0
20
0
30
0
70
128
71
17
72
14
73
13
0
VERTEX
8
OBJECT__17
10
0
20
0
30
0
70
128
71
15
72
11
73
9
0
VERTEX
8
OBJECT__17
10
0
20
0
30
0
70
128
71
14
72
9
73
12
0
VERTEX
8
OBJECT__17
10
0
20
0
30
0
70
128
71
11
72
8
73
7
0
VERTEX
8
OBJECT__17
10
0
20
0
30
0
70
128
71
10
72
12
73
9
0
VERTEX
8
OBJECT__17
10
0
20
0
30
0
70
128
71
4
72
2
73
7
0
VERTEX
8
OBJECT__17
10
0
20
0
30
0
70
128
71
2
72
1
73
6
0
VERTEX
8
OBJECT__17
10
0
20
0
30
0
70
128
71
5
72
3
73
2
0
VERTEX
8
OBJECT__17
10
0
20
0
30
0
70
128
71
3
72
19
73
1
0
SEQEND
8
OBJECT__17
0
POLYLINE
8
OBJECT__18
66
1
70
64
71
16
72
14
62
253
0
VERTEX
8
OBJECT__18
10
0.000000
20
71.000999
30
-98.500000
70
192
0
VERTEX
8
OBJECT__18
10
0.000000
20
78.000000
30
91.500999
70
192
0
VERTEX
8
OBJECT__18
10
0.000000
20
78.000000
30
-91.500999
70
192
0
VERTEX
8
OBJECT__18
10
0.000000
20
75.830002
30
96.197998
70
192
0
VERTEX
8
OBJECT__18
10
0.000000
20
76.439003
30
95.906998
70
192
0
VERTEX
8
OBJECT__18
10
0.000000
20
-71.000999
30
98.500000
70
192
0
VERTEX
8
OBJECT__18
10
0.000000
20
71.000999
30
98.500000
70
192
0
VERTEX
8
OBJECT__18
10
0.000000
20
-78.000000
30
91.500999
70
192
0
VERTEX
8
OBJECT__18
10
0.000000
20
-76.439003
30
95.906998
70
192
0
VERTEX
8
OBJECT__18
10
0.000000
20
-75.697998
30
-96.330002
70
192
0
VERTEX
8
OBJECT__18
10
0.000000
20
-78.000000
30
-91.500999
70
192
0
VERTEX
8
OBJECT__18
10
0.000000
20
75.697998
30
-96.330002
70
192
0
VERTEX
8
OBJECT__18
10
0.000000
20
-75.830002
30
96.197998
70
192
0
VERTEX
8
OBJECT__18
10
0.000000
20
-71.000999
30
-98.500000
70
192
0
VERTEX
8
OBJECT__18
10
0.000000
20
-75.406998
30
-96.939003
70
192
0
VERTEX
8
OBJECT__18
10
0.000000
20
75.406998
30
-96.939003
70
192
0
VERTEX
8
OBJECT__18
10
0
20
0
30
0
70
128
71
1
72
2
73
3
0
VERTEX
8
OBJECT__18
10
0
20
0
30
0
70
128
71
1
72
4
73
2
0
VERTEX
8
OBJECT__18
10
0
20
0
30
0
70
128
71
4
72
5
73
2
0
VERTEX
8
OBJECT__18
10
0
20
0
30
0
70
128
71
1
72
6
73
7
0
VERTEX
8
OBJECT__18
10
0
20
0
30
0
70
128
71
1
72
8
73
9
0
VERTEX
8
OBJECT__18
10
0
20
0
30
0
70
128
71
1
72
10
73
11
0
VERTEX
8
OBJECT__18
10
0
20
0
30
0
70
128
71
3
72
12
73
1
0
VERTEX
8
OBJECT__18
10
0
20
0
30
0
70
128
71
1
72
13
73
6
0
VERTEX
8
OBJECT__18
10
0
20
0
30
0
70
128
71
11
72
8
73
1
0
VERTEX
8
OBJECT__18
10
0
20
0
30
0
70
128
71
10
72
1
73
14
0
VERTEX
8
OBJECT__18
10
0
20
0
30
0
70
128
71
7
72
4
73
1
0
VERTEX
8
OBJECT__18
10
0
20
0
30
0
70
128
71
14
72
15
73
10
0
VERTEX
8
OBJECT__18
10
0
20
0
30
0
70
128
71
9
72
13
73
1
0
VERTEX
8
OBJECT__18
10
0
20
0
30
0
70
128
71
12
72
16
73
1
0
SEQEND
8
OBJECT__18
0
POLYLINE
8
OBJECT__19
66
1
70
64
71
6
72
4
62
253
0
VERTEX
8
OBJECT__19
10
0.000000
20
-78.000000
30
91.500999
70
192
0
VERTEX
8
OBJECT__19
10
0.000000
20
-78.000000
30
-91.500999
70
192
0
VERTEX
8
OBJECT__19
10
4.608000
20
-77.919998
30
-12.839000
70
192
0
VERTEX
8
OBJECT__19
10
4.402000
20
-77.922997
30
-91.424004
70
192
0
VERTEX
8
OBJECT__19
10
4.574000
20
-77.919998
30
39.292000
70
192
0
VERTEX
8
OBJECT__19
10
4.402000
20
-77.922997
30
91.424004
70
192
0
VERTEX
8
OBJECT__19
10
0
20
0
30
0
70
128
71
1
72
2
73
3
0
VERTEX
8
OBJECT__19
10
0
20
0
30
0
70
128
71
2
72
4
73
3
0
VERTEX
8
OBJECT__19
10
0
20
0
30
0
70
128
71
3
72
5
73
1
0
VERTEX
8
OBJECT__19
10
0
20
0
30
0
70
128
71
5
72
6
73
1
0
SEQEND
8
OBJECT__19
0
POLYLINE
8
OBJECT__20
66
1
70
64
71
11
72
9
62
253
0
VERTEX
8
OBJECT__20
10
4.433000
20
-75.815002
30
-96.306999
70
192
0
VERTEX
8
OBJECT__20
10
0.000000
20
-75.697998
30
-96.330002
70
192
0
VERTEX
8
OBJECT__20
10
0.000000
20
-75.406998
30
-96.939003
70
192
0
VERTEX
8
OBJECT__20
10
0.000000
20
-71.000999
30
-98.500000
70
192
0
VERTEX
8
OBJECT__20
10
4.417000
20
-72.461998
30
-98.251999
70
192
0
VERTEX
8
OBJECT__20
10
4.402000
20
-70.924004
30
-98.422997
70
192
0
VERTEX
8
OBJECT__20
10
4.431000
20
-74.634003
30
-97.358002
70
192
0
VERTEX
8
OBJECT__20
10
4.434000
20
-76.389000
30
-95.795998
70
192
0
VERTEX
8
OBJECT__20
10
4.423000
20
-77.528000
30
-93.739998
70
192
0
VERTEX
8
OBJECT__20
10
0.000000
20
-78.000000
30
-91.500999
70
192
0
VERTEX
8
OBJECT__20
10
4.402000
20
-77.922997
30
-91.424004
70
192
0
VERTEX
8
OBJECT__20
10
0
20
0
30
0
70
128
71
1
72
2
73
3
0
VERTEX
8
OBJECT__20
10
0
20
0
30
0
70
128
71
3
72
4
73
5
0
VERTEX
8
OBJECT__20
10
0
20
0
30
0
70
128
71
4
72
6
73
5
0
VERTEX
8
OBJECT__20
10
0
20
0
30
0
70
128
71
5
72
7
73
3
0
VERTEX
8
OBJECT__20
10
0
20
0
30
0
70
128
71
2
72
8
73
9
0
VERTEX
8
OBJECT__20
10
0
20
0
30
0
70
128
71
9
72
10
73
2
0
VERTEX
8
OBJECT__20
10
0
20
0
30
0
70
128
71
2
72
1
73
8
0
VERTEX
8
OBJECT__20
10
0
20
0
30
0
70
128
71
9
72
11
73
10
0
VERTEX
8
OBJECT__20
10
0
20
0
30
0
70
128
71
3
72
7
73
1
0
SEQEND
8
OBJECT__20
0
POLYLINE
8
OBJECT__21
66
1
70
64
71
11
72
9
62
253
0
VERTEX
8
OBJECT__21
10
4.433000
20
-75.806999
30
96.315002
70
192
0
VERTEX
8
OBJECT__21
10
0.000000
20
-75.830002
30
96.197998
70
192
0
VERTEX
8
OBJECT__21
10
0.000000
20
-76.439003
30
95.906998
70
192
0
VERTEX
8
OBJECT__21
10
0.000000
20
-78.000000
30
91.500999
70
192
0
VERTEX
8
OBJECT__21
10
4.417000
20
-77.751999
30
92.961998
70
192
0
VERTEX
8
OBJECT__21
10
4.402000
20
-77.922997
30
91.424004
70
192
0
VERTEX
8
OBJECT__21
10
4.431000
20
-76.858002
30
95.134003
70
192
0
VERTEX
8
OBJECT__21
10
4.434000
20
-75.295998
30
96.889000
70
192
0
VERTEX
8
OBJECT__21
10
4.423000
20
-73.239998
30
98.028000
70
192
0
VERTEX
8
OBJECT__21
10
0.000000
20
-71.000999
30
98.500000
70
192
0
VERTEX
8
OBJECT__21
10
4.402000
20
-70.924004
30
98.422997
70
192
0
VERTEX
8
OBJECT__21
10
0
20
0
30
0
70
128
71
1
72
2
73
3
0
VERTEX
8
OBJECT__21
10
0
20
0
30
0
70
128
71
3
72
4
73
5
0
VERTEX
8
OBJECT__21
10
0
20
0
30
0
70
128
71
4
72
6
73
5
0
VERTEX
8
OBJECT__21
10
0
20
0
30
0
70
128
71
5
72
7
73
3
0
VERTEX
8
OBJECT__21
10
0
20
0
30
0
70
128
71
2
72
8
73
9
0
VERTEX
8
OBJECT__21
10
0
20
0
30
0
70
128
71
9
72
10
73
2
0
VERTEX
8
OBJECT__21
10
0
20
0
30
0
70
128
71
2
72
1
73
8
0
VERTEX
8
OBJECT__21
10
0
20
0
30
0
70
128
71
9
72
11
73
10
0
VERTEX
8
OBJECT__21
10
0
20
0
30
0
70
128
71
3
72
7
73
1
0
SEQEND
8
OBJECT__21
0
POLYLINE
8
OBJECT__22
66
1
70
64
71
14
72
14
62
253
0
VERTEX
8
OBJECT__22
10
9.516000
20
-73.154999
30
-12.842000
70
192
0
VERTEX
8
OBJECT__22
10
8.004000
20
-76.508003
30
-12.841000
70
192
0
VERTEX
8
OBJECT__22
10
7.869000
20
-76.440002
30
-91.441002
70
192
0
VERTEX
8
OBJECT__22
10
4.608000
20
-77.919998
30
-12.839000
70
192
0
VERTEX
8
OBJECT__22
10
4.402000
20
-77.922997
30
-91.424004
70
192
0
VERTEX
8
OBJECT__22
10
7.982000
20
-76.496002
30
39.299000
70
192
0
VERTEX
8
OBJECT__22
10
9.507000
20
-73.147003
30
0.000000
70
192
0
VERTEX
8
OBJECT__22
10
4.574000
20
-77.919998
30
39.292000
70
192
0
VERTEX
8
OBJECT__22
10
7.869000
20
-76.440002
30
91.441002
70
192
0
VERTEX
8
OBJECT__22
10
9.457000
20
-73.096001
30
47.369999
70
192
0
VERTEX
8
OBJECT__22
10
9.483000
20
-73.122002
30
39.301998
70
192
0
VERTEX
8
OBJECT__22
10
4.402000
20
-77.922997
30
91.424004
70
192
0
VERTEX
8
OBJECT__22
10
9.314000
20
-72.957001
30
91.447998
70
192
0
VERTEX
8
OBJECT__22
10
9.314000
20
-72.957001
30
-91.447998
70
192
0
VERTEX
8
OBJECT__22
10
0
20
0
30
0
70
128
71
1
72
2
73
3
0
VERTEX
8
OBJECT__22
10
0
20
0
30
0
70
128
71
2
72
4
73
5
0
VERTEX
8
OBJECT__22
10
0
20
0
30
0
70
128
71
6
72
2
73
7
0
VERTEX
8
OBJECT__22
10
0
20
0
30
0
70
128
71
2
72
1
73
7
0
VERTEX
8
OBJECT__22
10
0
20
0
30
0
70
128
71
2
72
6
73
8
0
VERTEX
8
OBJECT__22
10
0
20
0
30
0
70
128
71
9
72
6
73
10
0
VERTEX
8
OBJECT__22
10
0
20
0
30
0
70
128
71
6
72
11
73
10
0
VERTEX
8
OBJECT__22
10
0
20
0
30
0
70
128
71
6
72
9
73
12
0
VERTEX
8
OBJECT__22
10
0
20
0
30
0
70
128
71
12
72
8
73
6
0
VERTEX
8
OBJECT__22
10
0
20
0
30
0
70
128
71
10
72
13
73
9
0
VERTEX
8
OBJECT__22
10
0
20
0
30
0
70
128
71
8
72
4
73
2
0
VERTEX
8
OBJECT__22
10
0
20
0
30
0
70
128
71
7
72
11
73
6
0
VERTEX
8
OBJECT__22
10
0
20
0
30
0
70
128
71
5
72
3
73
2
0
VERTEX
8
OBJECT__22
10
0
20
0
30
0
70
128
71
3
72
14
73
1
0
SEQEND
8
OBJECT__22
0
POLYLINE
8
OBJECT__23
66
1
70
64
71
46
72
46
62
253
0
VERTEX
8
OBJECT__23
10
7.650000
20
0.000000
30
-35.500000
70
192
0
VERTEX
8
OBJECT__23
10
11.420000
20
0.000000
30
-35.500000
70
192
0
VERTEX
8
OBJECT__23
10
11.420000
20
-10.970000
30
-33.763000
70
192
0
VERTEX
8
OBJECT__23
10
7.650000
20
-15.403000
30
-31.983999
70
192
0
VERTEX
8
OBJECT__23
10
7.650000
20
-27.754999
30
-22.134001
70
192
0
VERTEX
8
OBJECT__23
10
11.420000
20
-20.865999
30
-28.719999
70
192
0
VERTEX
8
OBJECT__23
10
11.420000
20
-15.209000
30
-31.603001
70
192
0
VERTEX
8
OBJECT__23
10
11.420000
20
-28.719999
30
-20.865999
70
192
0
VERTEX
8
OBJECT__23
10
11.420000
20
-33.763000
30
-10.970000
70
192
0
VERTEX
8
OBJECT__23
10
7.650000
20
-34.610001
30
-7.899000
70
192
0
VERTEX
8
OBJECT__23
10
11.420000
20
-27.604000
30
-21.983000
70
192
0
VERTEX
8
OBJECT__23
10
7.650000
20
-34.610001
30
7.899000
70
192
0
VERTEX
8
OBJECT__23
10
11.420000
20
-35.500000
30
0.000000
70
192
0
VERTEX
8
OBJECT__23
10
11.420000
20
-34.257999
30
-7.844000
70
192
0
VERTEX
8
OBJECT__23
10
7.650000
20
-27.754999
30
22.134001
70
192
0
VERTEX
8
OBJECT__23
10
11.420000
20
-33.763000
30
10.970000
70
192
0
VERTEX
8
OBJECT__23
10
11.420000
20
-28.719999
30
20.865999
70
192
0
VERTEX
8
OBJECT__23
10
11.420000
20
-34.257999
30
7.844000
70
192
0
VERTEX
8
OBJECT__23
10
11.420000
20
-27.604000
30
21.983000
70
192
0
VERTEX
8
OBJECT__23
10
11.420000
20
-20.865999
30
28.719999
70
192
0
VERTEX
8
OBJECT__23
10
7.650000
20
-15.403000
30
31.983999
70
192
0
VERTEX
8
OBJECT__23
10
7.650000
20
0.000000
30
35.500000
70
192
0
VERTEX
8
OBJECT__23
10
11.420000
20
-10.970000
30
33.763000
70
192
0
VERTEX
8
OBJECT__23
10
11.420000
20
-15.209000
30
31.603001
70
192
0
VERTEX
8
OBJECT__23
10
11.420000
20
0.000000
30
35.500000
70
192
0
VERTEX
8
OBJECT__23
10
11.420000
20
10.970000
30
33.763000
70
192
0
VERTEX
8
OBJECT__23
10
7.650000
20
15.403000
30
31.983999
70
192
0
VERTEX
8
OBJECT__23
10
7.650000
20
27.754999
30
22.134001
70
192
0
VERTEX
8
OBJECT__23
10
11.420000
20
20.865999
30
28.719999
70
192
0
VERTEX
8
OBJECT__23
10
11.420000
20
15.209000
30
31.603001
70
192
0
VERTEX
8
OBJECT__23
10
11.420000
20
28.719999
30
20.865999
70
192
0
VERTEX
8
OBJECT__23
10
11.420000
20
33.763000
30
10.970000
70
192
0
VERTEX
8
OBJECT__23
10
7.650000
20
34.610001
30
7.899000
70
192
0
VERTEX
8
OBJECT__23
10
11.420000
20
27.604000
30
21.983000
70
192
0
VERTEX
8
OBJECT__23
10
11.420000
20
34.257999
30
7.844000
70
192
0
VERTEX
8
OBJECT__23
10
11.420000
20
35.500000
30
0.000000
70
192
0
VERTEX
8
OBJECT__23
10
7.650000
20
34.610001
30
-7.899000
70
192
0
VERTEX
8
OBJECT__23
10
7.650000
20
27.754999
30
-22.134001
70
192
0
VERTEX
8
OBJECT__23
10
11.420000
20
33.763000
30
-10.970000
70
192
0
VERTEX
8
OBJECT__23
10
11.420000
20
28.719999
30
-20.865999
70
192
0
VERTEX
8
OBJECT__23
10
11.420000
20
34.257999
30
-7.844000
70
192
0
VERTEX
8
OBJECT__23
10
11.420000
20
27.604000
30
-21.983000
70
192
0
VERTEX
8
OBJECT__23
10
11.420000
20
20.865999
30
-28.719999
70
192
0
VERTEX
8
OBJECT__23
10
7.650000
20
15.403000
30
-31.983999
70
192
0
VERTEX
8
OBJECT__23
10
11.420000
20
10.970000
30
-33.763000
70
192
0
VERTEX
8
OBJECT__23
10
11.420000
20
15.209000
30
-31.603001
70
192
0
VERTEX
8
OBJECT__23
10
0
20
0
30
0
70
128
71
1
72
2
73
3
0
VERTEX
8
OBJECT__23
10
0
20
0
30
0
70
128
71
3
72
4
73
1
0
VERTEX
8
OBJECT__23
10
0
20
0
30
0
70
128
71
5
72
4
73
6
0
VERTEX
8
OBJECT__23
10
0
20
0
30
0
70
128
71
4
72
7
73
6
0
VERTEX
8
OBJECT__23
10
0
20
0
30
0
70
128
71
5
72
8
73
9
0
VERTEX
8
OBJECT__23
10
0
20
0
30
0
70
128
71
9
72
10
73
5
0
VERTEX
8
OBJECT__23
10
0
20
0
30
0
70
128
71
5
72
11
73
8
0
VERTEX
8
OBJECT__23
10
0
20
0
30
0
70
128
71
12
72
10
73
13
0
VERTEX
8
OBJECT__23
10
0
20
0
30
0
70
128
71
10
72
14
73
13
0
VERTEX
8
OBJECT__23
10
0
20
0
30
0
70
128
71
15
72
12
73
16
0
VERTEX
8
OBJECT__23
10
0
20
0
30
0
70
128
71
16
72
17
73
15
0
VERTEX
8
OBJECT__23
10
0
20
0
30
0
70
128
71
12
72
18
73
16
0
VERTEX
8
OBJECT__23
10
0
20
0
30
0
70
128
71
15
72
19
73
20
0
VERTEX
8
OBJECT__23
10
0
20
0
30
0
70
128
71
20
72
21
73
15
0
VERTEX
8
OBJECT__23
10
0
20
0
30
0
70
128
71
22
72
21
73
23
0
VERTEX
8
OBJECT__23
10
0
20
0
30
0
70
128
71
21
72
24
73
23
0
VERTEX
8
OBJECT__23
10
0
20
0
30
0
70
128
71
22
72
25
73
26
0
VERTEX
8
OBJECT__23
10
0
20
0
30
0
70
128
71
26
72
27
73
22
0
VERTEX
8
OBJECT__23
10
0
20
0
30
0
70
128
71
28
72
27
73
29
0
VERTEX
8
OBJECT__23
10
0
20
0
30
0
70
128
71
27
72
30
73
29
0
VERTEX
8
OBJECT__23
10
0
20
0
30
0
70
128
71
28
72
31
73
32
0
VERTEX
8
OBJECT__23
10
0
20
0
30
0
70
128
71
32
72
33
73
28
0
VERTEX
8
OBJECT__23
10
0
20
0
30
0
70
128
71
28
72
34
73
31
0
VERTEX
8
OBJECT__23
10
0
20
0
30
0
70
128
71
33
72
35
73
36
0
VERTEX
8
OBJECT__23
10
0
20
0
30
0
70
128
71
36
72
37
73
33
0
VERTEX
8
OBJECT__23
10
0
20
0
30
0
70
128
71
38
72
37
73
39
0
VERTEX
8
OBJECT__23
10
0
20
0
30
0
70
128
71
39
72
40
73
38
0
VERTEX
8
OBJECT__23
10
0
20
0
30
0
70
128
71
37
72
41
73
39
0
VERTEX
8
OBJECT__23
10
0
20
0
30
0
70
128
71
38
72
42
73
43
0
VERTEX
8
OBJECT__23
10
0
20
0
30
0
70
128
71
43
72
44
73
38
0
VERTEX
8
OBJECT__23
10
0
20
0
30
0
70
128
71
1
72
44
73
45
0
VERTEX
8
OBJECT__23
10
0
20
0
30
0
70
128
71
44
72
46
73
45
0
VERTEX
8
OBJECT__23
10
0
20
0
30
0
70
128
71
45
72
2
73
1
0
VERTEX
8
OBJECT__23
10
0
20
0
30
0
70
128
71
43
72
46
73
44
0
VERTEX
8
OBJECT__23
10
0
20
0
30
0
70
128
71
40
72
42
73
38
0
VERTEX
8
OBJECT__23
10
0
20
0
30
0
70
128
71
36
72
41
73
37
0
VERTEX
8
OBJECT__23
10
0
20
0
30
0
70
128
71
32
72
35
73
33
0
VERTEX
8
OBJECT__23
10
0
20
0
30
0
70
128
71
29
72
34
73
28
0
VERTEX
8
OBJECT__23
10
0
20
0
30
0
70
128
71
26
72
30
73
27
0
VERTEX
8
OBJECT__23
10
0
20
0
30
0
70
128
71
23
72
25
73
22
0
VERTEX
8
OBJECT__23
10
0
20
0
30
0
70
128
71
20
72
24
73
21
0
VERTEX
8
OBJECT__23
10
0
20
0
30
0
70
128
71
17
72
19
73
15
0
VERTEX
8
OBJECT__23
10
0
20
0
30
0
70
128
71
13
72
18
73
12
0
VERTEX
8
OBJECT__23
10
0
20
0
30
0
70
128
71
9
72
14
73
10
0
VERTEX
8
OBJECT__23
10
0
20
0
30
0
70
128
71
6
72
11
73
5
0
VERTEX
8
OBJECT__23
10
0
20
0
30
0
70
128
71
3
72
7
73
4
0
SEQEND
8
OBJECT__23
0
POLYLINE
8
OBJECT__24
66
1
70
64
71
107
72
140
62
253
0
VERTEX
8
OBJECT__24
10
22.965000
20
10.318000
30
7.497000
70
192
0
VERTEX
8
OBJECT__24
10
22.965000
20
12.130000
30
3.941000
70
192
0
VERTEX
8
OBJECT__24
10
18.534000
20
23.594000
30
7.666000
70
192
0
VERTEX
8
OBJECT__24
10
22.965000
20
12.754000
30
0.000000
70
192
0
VERTEX
8
OBJECT__24
10
18.534000
20
24.808001
30
0.000000
70
192
0
VERTEX
8
OBJECT__24
10
22.965000
20
12.130000
30
-3.941000
70
192
0
VERTEX
8
OBJECT__24
10
18.534000
20
23.594000
30
-7.666000
70
192
0
VERTEX
8
OBJECT__24
10
22.965000
20
10.318000
30
-7.497000
70
192
0
VERTEX
8
OBJECT__24
10
18.534000
20
20.070000
30
-14.582000
70
192
0
VERTEX
8
OBJECT__24
10
22.965000
20
7.497000
30
-10.318000
70
192
0
VERTEX
8
OBJECT__24
10
18.534000
20
14.582000
30
-20.070000
70
192
0
VERTEX
8
OBJECT__24
10
22.965000
20
3.941000
30
-12.130000
70
192
0
VERTEX
8
OBJECT__24
10
18.534000
20
7.666000
30
-23.594000
70
192
0
VERTEX
8
OBJECT__24
10
22.965000
20
0.000000
30
-12.754000
70
192
0
VERTEX
8
OBJECT__24
10
18.534000
20
0.000000
30
-24.808001
70
192
0
VERTEX
8
OBJECT__24
10
22.965000
20
-3.941000
30
-12.130000
70
192
0
VERTEX
8
OBJECT__24
10
18.534000
20
-7.666000
30
-23.594000
70
192
0
VERTEX
8
OBJECT__24
10
22.965000
20
-7.497000
30
-10.318000
70
192
0
VERTEX
8
OBJECT__24
10
18.534000
20
-14.582000
30
-20.070000
70
192
0
VERTEX
8
OBJECT__24
10
22.965000
20
-10.318000
30
-7.497000
70
192
0
VERTEX
8
OBJECT__24
10
18.534000
20
-20.070000
30
-14.582000
70
192
0
VERTEX
8
OBJECT__24
10
22.965000
20
-12.130000
30
-3.941000
70
192
0
VERTEX
8
OBJECT__24
10
18.534000
20
-23.594000
30
-7.666000
70
192
0
VERTEX
8
OBJECT__24
10
22.965000
20
-12.754000
30
0.000000
70
192
0
VERTEX
8
OBJECT__24
10
18.534000
20
-24.808001
30
0.000000
70
192
0
VERTEX
8
OBJECT__24
10
22.965000
20
-12.130000
30
3.941000
70
192
0
VERTEX
8
OBJECT__24
10
18.534000
20
-23.594000
30
7.666000
70
192
0
VERTEX
8
OBJECT__24
10
22.965000
20
-10.318000
30
7.497000
70
192
0
VERTEX
8
OBJECT__24
10
18.534000
20
-20.070000
30
14.582000
70
192
0
VERTEX
8
OBJECT__24
10
11.420000
20
28.719999
30
20.865999
70
192
0
VERTEX
8
OBJECT__24
10
18.534000
20
20.070000
30
14.582000
70
192
0
VERTEX
8
OBJECT__24
10
11.420000
20
34.257999
30
7.844000
70
192
0
VERTEX
8
OBJECT__24
10
11.420000
20
35.500000
30
0.000000
70
192
0
VERTEX
8
OBJECT__24
10
11.420000
20
34.257999
30
-7.844000
70
192
0
VERTEX
8
OBJECT__24
10
11.420000
20
33.763000
30
-10.970000
70
192
0
VERTEX
8
OBJECT__24
10
11.420000
20
28.719999
30
-20.865999
70
192
0
VERTEX
8
OBJECT__24
10
11.420000
20
27.604000
30
-21.983000
70
192
0
VERTEX
8
OBJECT__24
10
11.420000
20
20.865999
30
-28.719999
70
192
0
VERTEX
8
OBJECT__24
10
11.420000
20
15.209000
30
-31.603001
70
192
0
VERTEX
8
OBJECT__24
10
11.420000
20
10.970000
30
-33.763000
70
192
0
VERTEX
8
OBJECT__24
10
11.420000
20
0.000000
30
-35.500000
70
192
0
VERTEX
8
OBJECT__24
10
11.420000
20
-10.970000
30
-33.763000
70
192
0
VERTEX
8
OBJECT__24
10
11.420000
20
-20.865999
30
-28.719999
70
192
0
VERTEX
8
OBJECT__24
10
11.420000
20
-15.209000
30
-31.603001
70
192
0
VERTEX
8
OBJECT__24
10
11.420000
20
-27.604000
30
-21.983000
70
192
0
VERTEX
8
OBJECT__24
10
11.420000
20
-28.719999
30
-20.865999
70
192
0
VERTEX
8
OBJECT__24
10
11.420000
20
-33.763000
30
-10.970000
70
192
0
VERTEX
8
OBJECT__24
10
11.420000
20
-34.257999
30
-7.844000
70
192
0
VERTEX
8
OBJECT__24
10
11.420000
20
-35.500000
30
0.000000
70
192
0
VERTEX
8
OBJECT__24
10
11.420000
20
-34.257999
30
7.844000
70
192
0
VERTEX
8
OBJECT__24
10
11.420000
20
-33.763000
30
10.970000
70
192
0
VERTEX
8
OBJECT__24
10
21.471001
20
12.095000
30
13.170000
70
192
0
VERTEX
8
OBJECT__24
10
22.292999
20
8.987000
30
12.133000
70
192
0
VERTEX
8
OBJECT__24
10
19.184000
20
17.229000
30
15.959000
70
192
0
VERTEX
8
OBJECT__24
10
20.419001
20
14.775000
30
14.468000
70
192
0
VERTEX
8
OBJECT__24
10
18.518999
20
17.796000
30
17.257000
70
192
0
VERTEX
8
OBJECT__24
10
22.965000
20
7.497000
30
10.318000
70
192
0
VERTEX
8
OBJECT__24
10
22.721001
20
7.368000
30
11.593000
70
192
0
VERTEX
8
OBJECT__24
10
22.915001
20
6.045000
30
11.344000
70
192
0
VERTEX
8
OBJECT__24
10
24.469999
20
0.000000
30
0.000000
70
192
0
VERTEX
8
OBJECT__24
10
22.962000
20
5.724000
30
11.284000
70
192
0
VERTEX
8
OBJECT__24
10
23.212999
20
4.007000
30
10.961000
70
192
0
VERTEX
8
OBJECT__24
10
23.367001
20
0.009000
30
10.763000
70
192
0
VERTEX
8
OBJECT__24
10
23.403999
20
-0.960000
30
10.715000
70
192
0
VERTEX
8
OBJECT__24
10
23.110001
20
-4.916000
30
11.094000
70
192
0
VERTEX
8
OBJECT__24
10
22.958000
20
-5.709000
30
11.288000
70
192
0
VERTEX
8
OBJECT__24
10
23.205000
20
-3.632000
30
10.971000
70
192
0
VERTEX
8
OBJECT__24
10
22.965000
20
-7.497000
30
10.318000
70
192
0
VERTEX
8
OBJECT__24
10
22.895000
20
-6.037000
30
11.368000
70
192
0
VERTEX
8
OBJECT__24
10
21.146000
20
-13.002000
30
13.574000
70
192
0
VERTEX
8
OBJECT__24
10
22.194000
20
-9.692000
30
12.262000
70
192
0
VERTEX
8
OBJECT__24
10
22.348000
20
-8.888000
30
12.065000
70
192
0
VERTEX
8
OBJECT__24
10
19.184000
20
-17.229000
30
15.959000
70
192
0
VERTEX
8
OBJECT__24
10
18.687000
20
-17.950001
30
16.683001
70
192
0
VERTEX
8
OBJECT__24
10
11.420000
20
-27.604000
30
21.983000
70
192
0
VERTEX
8
OBJECT__24
10
17.927999
20
-18.389000
30
18.334999
70
192
0
VERTEX
8
OBJECT__24
10
17.551001
20
-17.229000
30
20.341000
70
192
0
VERTEX
8
OBJECT__24
10
11.420000
20
-20.865999
30
28.719999
70
192
0
VERTEX
8
OBJECT__24
10
11.420000
20
-28.719999
30
20.865999
70
192
0
VERTEX
8
OBJECT__24
10
18.532000
20
-18.040001
30
17.021000
70
192
0
VERTEX
8
OBJECT__24
10
18.007000
20
-18.343000
30
18.163000
70
192
0
VERTEX
8
OBJECT__24
10
18.010000
20
-7.976000
30
24.548000
70
192
0
VERTEX
8
OBJECT__24
10
11.420000
20
-10.970000
30
33.763000
70
192
0
VERTEX
8
OBJECT__24
10
11.420000
20
-15.209000
30
31.603001
70
192
0
VERTEX
8
OBJECT__24
10
17.656000
20
-15.494000
30
21.297001
70
192
0
VERTEX
8
OBJECT__24
10
17.840000
20
-12.429000
30
22.986000
70
192
0
VERTEX
8
OBJECT__24
10
11.420000
20
0.000000
30
35.500000
70
192
0
VERTEX
8
OBJECT__24
10
18.011999
20
-7.933000
30
24.563000
70
192
0
VERTEX
8
OBJECT__24
10
18.047001
20
-6.035000
30
24.888000
70
192
0
VERTEX
8
OBJECT__24
10
18.114000
20
-2.444000
30
25.503000
70
192
0
VERTEX
8
OBJECT__24
10
11.420000
20
10.970000
30
33.763000
70
192
0
VERTEX
8
OBJECT__24
10
18.115000
20
2.345000
30
25.511000
70
192
0
VERTEX
8
OBJECT__24
10
18.047001
20
6.035000
30
24.891001
70
192
0
VERTEX
8
OBJECT__24
10
18.114000
20
0.000000
30
25.507000
70
192
0
VERTEX
8
OBJECT__24
10
18.014000
20
7.836000
30
24.587999
70
192
0
VERTEX
8
OBJECT__24
10
11.420000
20
15.209000
30
31.603001
70
192
0
VERTEX
8
OBJECT__24
10
17.844000
20
12.350000
30
23.020000
70
192
0
VERTEX
8
OBJECT__24
10
17.655001
20
15.492000
30
21.294001
70
192
0
VERTEX
8
OBJECT__24
10
18.009001
20
7.973000
30
24.540001
70
192
0
VERTEX
8
OBJECT__24
10
17.854000
20
18.364000
30
18.555000
70
192
0
VERTEX
8
OBJECT__24
10
18.024000
20
18.218000
30
18.222000
70
192
0
VERTEX
8
OBJECT__24
10
11.420000
20
27.604000
30
21.983000
70
192
0
VERTEX
8
OBJECT__24
10
11.420000
20
20.865999
30
28.719999
70
192
0
VERTEX
8
OBJECT__24
10
17.551001
20
17.229000
30
20.341000
70
192
0
VERTEX
8
OBJECT__24
10
17.541000
20
17.500999
30
20.131001
70
192
0
VERTEX
8
OBJECT__24
10
23.229000
20
3.588000
30
10.941000
70
192
0
VERTEX
8
OBJECT__24
10
11.420000
20
33.763000
30
10.970000
70
192
0
VERTEX
8
OBJECT__24
10
0
20
0
30
0
70
128
71
1
72
2
73
3
0
VERTEX
8
OBJECT__24
10
0
20
0
30
0
70
128
71
2
72
4
73
5
0
VERTEX
8
OBJECT__24
10
0
20
0
30
0
70
128
71
4
72
6
73
7
0
VERTEX
8
OBJECT__24
10
0
20
0
30
0
70
128
71
6
72
8
73
9
0
VERTEX
8
OBJECT__24
10
0
20
0
30
0
70
128
71
8
72
10
73
11
0
VERTEX
8
OBJECT__24
10
0
20
0
30
0
70
128
71
10
72
12
73
13
0
VERTEX
8
OBJECT__24
10
0
20
0
30
0
70
128
71
12
72
14
73
15
0
VERTEX
8
OBJECT__24
10
0
20
0
30
0
70
128
71
14
72
16
73
17
0
VERTEX
8
OBJECT__24
10
0
20
0
30
0
70
128
71
16
72
18
73
19
0
VERTEX
8
OBJECT__24
10
0
20
0
30
0
70
128
71
18
72
20
73
21
0
VERTEX
8
OBJECT__24
10
0
20
0
30
0
70
128
71
20
72
22
73
23
0
VERTEX
8
OBJECT__24
10
0
20
0
30
0
70
128
71
22
72
24
73
25
0
VERTEX
8
OBJECT__24
10
0
20
0
30
0
70
128
71
24
72
26
73
27
0
VERTEX
8
OBJECT__24
10
0
20
0
30
0
70
128
71
26
72
28
73
29
0
VERTEX
8
OBJECT__24
10
0
20
0
30
0
70
128
71
30
72
31
73
3
0
VERTEX
8
OBJECT__24
10
0
20
0
30
0
70
128
71
32
72
3
73
5
0
VERTEX
8
OBJECT__24
10
0
20
0
30
0
70
128
71
5
72
33
73
32
0
VERTEX
8
OBJECT__24
10
0
20
0
30
0
70
128
71
34
72
33
73
5
0
VERTEX
8
OBJECT__24
10
0
20
0
30
0
70
128
71
7
72
35
73
34
0
VERTEX
8
OBJECT__24
10
0
20
0
30
0
70
128
71
36
72
35
73
7
0
VERTEX
8
OBJECT__24
10
0
20
0
30
0
70
128
71
37
72
9
73
11
0
VERTEX
8
OBJECT__24
10
0
20
0
30
0
70
128
71
11
72
38
73
37
0
VERTEX
8
OBJECT__24
10
0
20
0
30
0
70
128
71
11
72
13
73
39
0
VERTEX
8
OBJECT__24
10
0
20
0
30
0
70
128
71
13
72
40
73
39
0
VERTEX
8
OBJECT__24
10
0
20
0
30
0
70
128
71
41
72
40
73
13
0
VERTEX
8
OBJECT__24
10
0
20
0
30
0
70
128
71
42
72
41
73
15
0
VERTEX
8
OBJECT__24
10
0
20
0
30
0
70
128
71
19
72
43
73
44
0
VERTEX
8
OBJECT__24
10
0
20
0
30
0
70
128
71
44
72
17
73
19
0
VERTEX
8
OBJECT__24
10
0
20
0
30
0
70
128
71
45
72
43
73
19
0
VERTEX
8
OBJECT__24
10
0
20
0
30
0
70
128
71
21
72
46
73
45
0
VERTEX
8
OBJECT__24
10
0
20
0
30
0
70
128
71
47
72
46
73
21
0
VERTEX
8
OBJECT__24
10
0
20
0
30
0
70
128
71
48
72
23
73
25
0
VERTEX
8
OBJECT__24
10
0
20
0
30
0
70
128
71
25
72
49
73
48
0
VERTEX
8
OBJECT__24
10
0
20
0
30
0
70
128
71
50
72
49
73
25
0
VERTEX
8
OBJECT__24
10
0
20
0
30
0
70
128
71
27
72
51
73
50
0
VERTEX
8
OBJECT__24
10
0
20
0
30
0
70
128
71
51
72
27
73
29
0
VERTEX
8
OBJECT__24
10
0
20
0
30
0
70
128
71
1
72
52
73
53
0
VERTEX
8
OBJECT__24
10
0
20
0
30
0
70
128
71
31
72
54
73
55
0
VERTEX
8
OBJECT__24
10
0
20
0
30
0
70
128
71
55
72
1
73
31
0
VERTEX
8
OBJECT__24
10
0
20
0
30
0
70
128
71
55
72
52
73
1
0
VERTEX
8
OBJECT__24
10
0
20
0
30
0
70
128
71
31
72
56
73
54
0
VERTEX
8
OBJECT__24
10
0
20
0
30
0
70
128
71
57
72
58
73
59
0
VERTEX
8
OBJECT__24
10
0
20
0
30
0
70
128
71
57
72
53
73
58
0
VERTEX
8
OBJECT__24
10
0
20
0
30
0
70
128
71
60
72
57
73
61
0
VERTEX
8
OBJECT__24
10
0
20
0
30
0
70
128
71
61
72
62
73
60
0
VERTEX
8
OBJECT__24
10
0
20
0
30
0
70
128
71
60
72
63
73
64
0
VERTEX
8
OBJECT__24
10
0
20
0
30
0
70
128
71
60
72
65
73
66
0
VERTEX
8
OBJECT__24
10
0
20
0
30
0
70
128
71
60
72
67
73
65
0
VERTEX
8
OBJECT__24
10
0
20
0
30
0
70
128
71
68
72
66
73
69
0
VERTEX
8
OBJECT__24
10
0
20
0
30
0
70
128
71
29
72
28
73
70
0
VERTEX
8
OBJECT__24
10
0
20
0
30
0
70
128
71
28
72
71
73
70
0
VERTEX
8
OBJECT__24
10
0
20
0
30
0
70
128
71
28
72
68
73
72
0
VERTEX
8
OBJECT__24
10
0
20
0
30
0
70
128
71
72
72
71
73
28
0
VERTEX
8
OBJECT__24
10
0
20
0
30
0
70
128
71
70
72
73
73
29
0
VERTEX
8
OBJECT__24
10
0
20
0
30
0
70
128
71
73
72
74
73
29
0
VERTEX
8
OBJECT__24
10
0
20
0
30
0
70
128
71
75
72
76
73
77
0
VERTEX
8
OBJECT__24
10
0
20
0
30
0
70
128
71
77
72
78
73
75
0
VERTEX
8
OBJECT__24
10
0
20
0
30
0
70
128
71
75
72
79
73
76
0
VERTEX
8
OBJECT__24
10
0
20
0
30
0
70
128
71
29
72
80
73
81
0
VERTEX
8
OBJECT__24
10
0
20
0
30
0
70
128
71
81
72
79
73
29
0
VERTEX
8
OBJECT__24
10
0
20
0
30
0
70
128
71
81
72
76
73
79
0
VERTEX
8
OBJECT__24
10
0
20
0
30
0
70
128
71
82
72
83
73
84
0
VERTEX
8
OBJECT__24
10
0
20
0
30
0
70
128
71
84
72
78
73
85
0
VERTEX
8
OBJECT__24
10
0
20
0
30
0
70
128
71
85
72
86
73
84
0
VERTEX
8
OBJECT__24
10
0
20
0
30
0
70
128
71
87
72
88
73
89
0
VERTEX
8
OBJECT__24
10
0
20
0
30
0
70
128
71
83
72
82
73
88
0
VERTEX
8
OBJECT__24
10
0
20
0
30
0
70
128
71
88
72
87
73
83
0
VERTEX
8
OBJECT__24
10
0
20
0
30
0
70
128
71
89
72
90
73
87
0
VERTEX
8
OBJECT__24
10
0
20
0
30
0
70
128
71
91
72
87
73
92
0
VERTEX
8
OBJECT__24
10
0
20
0
30
0
70
128
71
92
72
93
73
91
0
VERTEX
8
OBJECT__24
10
0
20
0
30
0
70
128
71
87
72
94
73
92
0
VERTEX
8
OBJECT__24
10
0
20
0
30
0
70
128
71
93
72
95
73
91
0
VERTEX
8
OBJECT__24
10
0
20
0
30
0
70
128
71
96
72
97
73
98
0
VERTEX
8
OBJECT__24
10
0
20
0
30
0
70
128
71
99
72
97
73
96
0
VERTEX
8
OBJECT__24
10
0
20
0
30
0
70
128
71
96
72
91
73
99
0
VERTEX
8
OBJECT__24
10
0
20
0
30
0
70
128
71
31
72
30
73
100
0
VERTEX
8
OBJECT__24
10
0
20
0
30
0
70
128
71
100
72
101
73
31
0
VERTEX
8
OBJECT__24
10
0
20
0
30
0
70
128
71
100
72
30
73
102
0
VERTEX
8
OBJECT__24
10
0
20
0
30
0
70
128
71
103
72
104
73
105
0
VERTEX
8
OBJECT__24
10
0
20
0
30
0
70
128
71
103
72
98
73
104
0
VERTEX
8
OBJECT__24
10
0
20
0
30
0
70
128
71
105
72
102
73
103
0
VERTEX
8
OBJECT__24
10
0
20
0
30
0
70
128
71
102
72
105
73
100
0
VERTEX
8
OBJECT__24
10
0
20
0
30
0
70
128
71
101
72
56
73
31
0
VERTEX
8
OBJECT__24
10
0
20
0
30
0
70
128
71
98
72
103
73
96
0
VERTEX
8
OBJECT__24
10
0
20
0
30
0
70
128
71
95
72
99
73
91
0
VERTEX
8
OBJECT__24
10
0
20
0
30
0
70
128
71
90
72
94
73
87
0
VERTEX
8
OBJECT__24
10
0
20
0
30
0
70
128
71
84
72
86
73
82
0
VERTEX
8
OBJECT__24
10
0
20
0
30
0
70
128
71
77
72
85
73
78
0
VERTEX
8
OBJECT__24
10
0
20
0
30
0
70
128
71
74
72
80
73
29
0
VERTEX
8
OBJECT__24
10
0
20
0
30
0
70
128
71
69
72
72
73
68
0
VERTEX
8
OBJECT__24
10
0
20
0
30
0
70
128
71
66
72
68
73
60
0
VERTEX
8
OBJECT__24
10
0
20
0
30
0
70
128
71
64
72
67
73
60
0
VERTEX
8
OBJECT__24
10
0
20
0
30
0
70
128
71
63
72
60
73
106
0
VERTEX
8
OBJECT__24
10
0
20
0
30
0
70
128
71
62
72
106
73
60
0
VERTEX
8
OBJECT__24
10
0
20
0
30
0
70
128
71
59
72
61
73
57
0
VERTEX
8
OBJECT__24
10
0
20
0
30
0
70
128
71
53
72
57
73
1
0
VERTEX
8
OBJECT__24
10
0
20
0
30
0
70
128
71
29
72
79
73
51
0
VERTEX
8
OBJECT__24
10
0
20
0
30
0
70
128
71
25
72
27
73
50
0
VERTEX
8
OBJECT__24
10
0
20
0
30
0
70
128
71
48
72
47
73
23
0
VERTEX
8
OBJECT__24
10
0
20
0
30
0
70
128
71
21
72
23
73
47
0
VERTEX
8
OBJECT__24
10
0
20
0
30
0
70
128
71
19
72
21
73
45
0
VERTEX
8
OBJECT__24
10
0
20
0
30
0
70
128
71
44
72
42
73
17
0
VERTEX
8
OBJECT__24
10
0
20
0
30
0
70
128
71
15
72
17
73
42
0
VERTEX
8
OBJECT__24
10
0
20
0
30
0
70
128
71
13
72
15
73
41
0
VERTEX
8
OBJECT__24
10
0
20
0
30
0
70
128
71
39
72
38
73
11
0
VERTEX
8
OBJECT__24
10
0
20
0
30
0
70
128
71
37
72
36
73
9
0
VERTEX
8
OBJECT__24
10
0
20
0
30
0
70
128
71
7
72
9
73
36
0
VERTEX
8
OBJECT__24
10
0
20
0
30
0
70
128
71
5
72
7
73
34
0
VERTEX
8
OBJECT__24
10
0
20
0
30
0
70
128
71
32
72
107
73
3
0
VERTEX
8
OBJECT__24
10
0
20
0
30
0
70
128
71
3
72
107
73
30
0
VERTEX
8
OBJECT__24
10
0
20
0
30
0
70
128
71
29
72
27
73
26
0
VERTEX
8
OBJECT__24
10
0
20
0
30
0
70
128
71
27
72
25
73
24
0
VERTEX
8
OBJECT__24
10
0
20
0
30
0
70
128
71
25
72
23
73
22
0
VERTEX
8
OBJECT__24
10
0
20
0
30
0
70
128
71
23
72
21
73
20
0
VERTEX
8
OBJECT__24
10
0
20
0
30
0
70
128
71
21
72
19
73
18
0
VERTEX
8
OBJECT__24
10
0
20
0
30
0
70
128
71
19
72
17
73
16
0
VERTEX
8
OBJECT__24
10
0
20
0
30
0
70
128
71
17
72
15
73
14
0
VERTEX
8
OBJECT__24
10
0
20
0
30
0
70
128
71
15
72
13
73
12
0
VERTEX
8
OBJECT__24
10
0
20
0
30
0
70
128
71
13
72
11
73
10
0
VERTEX
8
OBJECT__24
10
0
20
0
30
0
70
128
71
11
72
9
73
8
0
VERTEX
8
OBJECT__24
10
0
20
0
30
0
70
128
71
9
72
7
73
6
0
VERTEX
8
OBJECT__24
10
0
20
0
30
0
70
128
71
7
72
5
73
4
0
VERTEX
8
OBJECT__24
10
0
20
0
30
0
70
128
71
5
72
3
73
2
0
VERTEX
8
OBJECT__24
10
0
20
0
30
0
70
128
71
3
72
31
73
1
0
VERTEX
8
OBJECT__24
10
0
20
0
30
0
70
128
71
68
72
28
73
60
0
VERTEX
8
OBJECT__24
10
0
20
0
30
0
70
128
71
28
72
26
73
60
0
VERTEX
8
OBJECT__24
10
0
20
0
30
0
70
128
71
26
72
24
73
60
0
VERTEX
8
OBJECT__24
10
0
20
0
30
0
70
128
71
24
72
22
73
60
0
VERTEX
8
OBJECT__24
10
0
20
0
30
0
70
128
71
22
72
20
73
60
0
VERTEX
8
OBJECT__24
10
0
20
0
30
0
70
128
71
20
72
18
73
60
0
VERTEX
8
OBJECT__24
10
0
20
0
30
0
70
128
71
18
72
16
73
60
0
VERTEX
8
OBJECT__24
10
0
20
0
30
0
70
128
71
16
72
14
73
60
0
VERTEX
8
OBJECT__24
10
0
20
0
30
0
70
128
71
14
72
12
73
60
0
VERTEX
8
OBJECT__24
10
0
20
0
30
0
70
128
71
12
72
10
73
60
0
VERTEX
8
OBJECT__24
10
0
20
0
30
0
70
128
71
10
72
8
73
60
0
VERTEX
8
OBJECT__24
10
0
20
0
30
0
70
128
71
8
72
6
73
60
0
VERTEX
8
OBJECT__24
10
0
20
0
30
0
70
128
71
6
72
4
73
60
0
VERTEX
8
OBJECT__24
10
0
20
0
30
0
70
128
71
4
72
2
73
60
0
VERTEX
8
OBJECT__24
10
0
20
0
30
0
70
128
71
2
72
1
73
60
0
VERTEX
8
OBJECT__24
10
0
20
0
30
0
70
128
71
1
72
57
73
60
0
SEQEND
8
OBJECT__24
0
POLYLINE
8
OBJECT__26
66
1
70
64
71
19
72
17
62
253
0
VERTEX
8
OBJECT__26
10
11.535000
20
6.054000
30
25.000000
70
192
0
VERTEX
8
OBJECT__26
10
18.009001
20
7.973000
30
24.540001
70
192
0
VERTEX
8
OBJECT__26
10
18.014000
20
7.836000
30
24.587999
70
192
0
VERTEX
8
OBJECT__26
10
11.535000
20
17.229000
30
20.341000
70
192
0
VERTEX
8
OBJECT__26
10
17.655001
20
15.492000
30
21.294001
70
192
0
VERTEX
8
OBJECT__26
10
17.844000
20
12.350000
30
23.020000
70
192
0
VERTEX
8
OBJECT__26
10
17.551001
20
17.229000
30
20.341000
70
192
0
VERTEX
8
OBJECT__26
10
11.535000
20
-6.054000
30
25.000000
70
192
0
VERTEX
8
OBJECT__26
10
18.114000
20
0.000000
30
25.507000
70
192
0
VERTEX
8
OBJECT__26
10
18.114000
20
-2.444000
30
25.503000
70
192
0
VERTEX
8
OBJECT__26
10
18.047001
20
6.035000
30
24.891001
70
192
0
VERTEX
8
OBJECT__26
10
18.115000
20
2.345000
30
25.511000
70
192
0
VERTEX
8
OBJECT__26
10
18.010000
20
-7.976000
30
24.548000
70
192
0
VERTEX
8
OBJECT__26
10
17.840000
20
-12.429000
30
22.986000
70
192
0
VERTEX
8
OBJECT__26
10
11.535000
20
-17.229000
30
20.341000
70
192
0
VERTEX
8
OBJECT__26
10
17.656000
20
-15.494000
30
21.297001
70
192
0
VERTEX
8
OBJECT__26
10
18.047001
20
-6.035000
30
24.888000
70
192
0
VERTEX
8
OBJECT__26
10
18.011999
20
-7.933000
30
24.563000
70
192
0
VERTEX
8
OBJECT__26
10
17.551001
20
-17.229000
30
20.341000
70
192
0
VERTEX
8
OBJECT__26
10
0
20
0
30
0
70
128
71
1
72
2
73
3
0
VERTEX
8
OBJECT__26
10
0
20
0
30
0
70
128
71
4
72
5
73
6
0
VERTEX
8
OBJECT__26
10
0
20
0
30
0
70
128
71
6
72
1
73
4
0
VERTEX
8
OBJECT__26
10
0
20
0
30
0
70
128
71
6
72
2
73
1
0
VERTEX
8
OBJECT__26
10
0
20
0
30
0
70
128
71
4
72
7
73
5
0
VERTEX
8
OBJECT__26
10
0
20
0
30
0
70
128
71
8
72
1
73
9
0
VERTEX
8
OBJECT__26
10
0
20
0
30
0
70
128
71
9
72
10
73
8
0
VERTEX
8
OBJECT__26
10
0
20
0
30
0
70
128
71
1
72
11
73
12
0
VERTEX
8
OBJECT__26
10
0
20
0
30
0
70
128
71
12
72
9
73
1
0
VERTEX
8
OBJECT__26
10
0
20
0
30
0
70
128
71
8
72
13
73
14
0
VERTEX
8
OBJECT__26
10
0
20
0
30
0
70
128
71
14
72
15
73
8
0
VERTEX
8
OBJECT__26
10
0
20
0
30
0
70
128
71
14
72
16
73
15
0
VERTEX
8
OBJECT__26
10
0
20
0
30
0
70
128
71
8
72
17
73
18
0
VERTEX
8
OBJECT__26
10
0
20
0
30
0
70
128
71
18
72
13
73
8
0
VERTEX
8
OBJECT__26
10
0
20
0
30
0
70
128
71
16
72
19
73
15
0
VERTEX
8
OBJECT__26
10
0
20
0
30
0
70
128
71
10
72
17
73
8
0
VERTEX
8
OBJECT__26
10
0
20
0
30
0
70
128
71
3
72
11
73
1
0
SEQEND
8
OBJECT__26
0
POLYLINE
8
OBJECT__27
66
1
70
64
71
9
72
7
62
253
0
VERTEX
8
OBJECT__27
10
11.535000
20
-18.395000
30
18.150000
70
192
0
VERTEX
8
OBJECT__27
10
11.535000
20
-17.229000
30
20.341000
70
192
0
VERTEX
8
OBJECT__27
10
17.551001
20
-17.229000
30
20.341000
70
192
0
VERTEX
8
OBJECT__27
10
17.927999
20
-18.389000
30
18.334999
70
192
0
VERTEX
8
OBJECT__27
10
11.535000
20
-17.229000
30
15.959000
70
192
0
VERTEX
8
OBJECT__27
10
18.007000
20
-18.343000
30
18.163000
70
192
0
VERTEX
8
OBJECT__27
10
18.532000
20
-18.040001
30
17.021000
70
192
0
VERTEX
8
OBJECT__27
10
18.687000
20
-17.950001
30
16.683001
70
192
0
VERTEX
8
OBJECT__27
10
19.184000
20
-17.229000
30
15.959000
70
192
0
VERTEX
8
OBJECT__27
10
0
20
0
30
0
70
128
71
1
72
2
73
3
0
VERTEX
8
OBJECT__27
10
0
20
0
30
0
70
128
71
3
72
4
73
1
0
VERTEX
8
OBJECT__27
10
0
20
0
30
0
70
128
71
5
72
1
73
6
0
VERTEX
8
OBJECT__27
10
0
20
0
30
0
70
128
71
6
72
7
73
5
0
VERTEX
8
OBJECT__27
10
0
20
0
30
0
70
128
71
7
72
8
73
5
0
VERTEX
8
OBJECT__27
10
0
20
0
30
0
70
128
71
8
72
9
73
5
0
VERTEX
8
OBJECT__27
10
0
20
0
30
0
70
128
71
4
72
6
73
1
0
SEQEND
8
OBJECT__27
0
POLYLINE
8
OBJECT__28
66
1
70
64
71
23
72
21
62
253
0
VERTEX
8
OBJECT__28
10
11.535000
20
-6.054000
30
11.300000
70
192
0
VERTEX
8
OBJECT__28
10
11.535000
20
-17.229000
30
15.959000
70
192
0
VERTEX
8
OBJECT__28
10
19.184000
20
-17.229000
30
15.959000
70
192
0
VERTEX
8
OBJECT__28
10
21.146000
20
-13.002000
30
13.574000
70
192
0
VERTEX
8
OBJECT__28
10
22.194000
20
-9.692000
30
12.262000
70
192
0
VERTEX
8
OBJECT__28
10
22.348000
20
-8.888000
30
12.065000
70
192
0
VERTEX
8
OBJECT__28
10
11.535000
20
6.054000
30
11.300000
70
192
0
VERTEX
8
OBJECT__28
10
23.229000
20
3.588000
30
10.941000
70
192
0
VERTEX
8
OBJECT__28
10
23.212999
20
4.007000
30
10.961000
70
192
0
VERTEX
8
OBJECT__28
10
22.962000
20
5.724000
30
11.284000
70
192
0
VERTEX
8
OBJECT__28
10
23.367001
20
0.009000
30
10.763000
70
192
0
VERTEX
8
OBJECT__28
10
23.205000
20
-3.632000
30
10.971000
70
192
0
VERTEX
8
OBJECT__28
10
23.403999
20
-0.960000
30
10.715000
70
192
0
VERTEX
8
OBJECT__28
10
22.958000
20
-5.709000
30
11.288000
70
192
0
VERTEX
8
OBJECT__28
10
23.110001
20
-4.916000
30
11.094000
70
192
0
VERTEX
8
OBJECT__28
10
22.895000
20
-6.037000
30
11.368000
70
192
0
VERTEX
8
OBJECT__28
10
20.419001
20
14.775000
30
14.468000
70
192
0
VERTEX
8
OBJECT__28
10
19.184000
20
17.229000
30
15.959000
70
192
0
VERTEX
8
OBJECT__28
10
22.292999
20
8.987000
30
12.133000
70
192
0
VERTEX
8
OBJECT__28
10
21.471001
20
12.095000
30
13.170000
70
192
0
VERTEX
8
OBJECT__28
10
22.915001
20
6.045000
30
11.344000
70
192
0
VERTEX
8
OBJECT__28
10
22.721001
20
7.368000
30
11.593000
70
192
0
VERTEX
8
OBJECT__28
10
11.535000
20
17.229000
30
15.959000
70
192
0
VERTEX
8
OBJECT__28
10
0
20
0
30
0
70
128
71
1
72
2
73
3
0
VERTEX
8
OBJECT__28
10
0
20
0
30
0
70
128
71
3
72
4
73
1
0
VERTEX
8
OBJECT__28
10
0
20
0
30
0
70
128
71
4
72
5
73
1
0
VERTEX
8
OBJECT__28
10
0
20
0
30
0
70
128
71
5
72
6
73
1
0
VERTEX
8
OBJECT__28
10
0
20
0
30
0
70
128
71
7
72
8
73
9
0
VERTEX
8
OBJECT__28
10
0
20
0
30
0
70
128
71
9
72
10
73
7
0
VERTEX
8
OBJECT__28
10
0
20
0
30
0
70
128
71
7
72
1
73
11
0
VERTEX
8
OBJECT__28
10
0
20
0
30
0
70
128
71
1
72
12
73
13
0
VERTEX
8
OBJECT__28
10
0
20
0
30
0
70
128
71
13
72
11
73
1
0
VERTEX
8
OBJECT__28
10
0
20
0
30
0
70
128
71
1
72
14
73
15
0
VERTEX
8
OBJECT__28
10
0
20
0
30
0
70
128
71
1
72
16
73
14
0
VERTEX
8
OBJECT__28
10
0
20
0
30
0
70
128
71
15
72
12
73
1
0
VERTEX
8
OBJECT__28
10
0
20
0
30
0
70
128
71
11
72
8
73
7
0
VERTEX
8
OBJECT__28
10
0
20
0
30
0
70
128
71
7
72
17
73
18
0
VERTEX
8
OBJECT__28
10
0
20
0
30
0
70
128
71
7
72
19
73
20
0
VERTEX
8
OBJECT__28
10
0
20
0
30
0
70
128
71
20
72
17
73
7
0
VERTEX
8
OBJECT__28
10
0
20
0
30
0
70
128
71
7
72
21
73
22
0
VERTEX
8
OBJECT__28
10
0
20
0
30
0
70
128
71
22
72
19
73
7
0
VERTEX
8
OBJECT__28
10
0
20
0
30
0
70
128
71
18
72
23
73
7
0
VERTEX
8
OBJECT__28
10
0
20
0
30
0
70
128
71
10
72
21
73
7
0
VERTEX
8
OBJECT__28
10
0
20
0
30
0
70
128
71
6
72
16
73
1
0
SEQEND
8
OBJECT__28
0
POLYLINE
8
OBJECT__29
66
1
70
64
71
9
72
7
62
253
0
VERTEX
8
OBJECT__29
10
11.535000
20
17.229000
30
15.959000
70
192
0
VERTEX
8
OBJECT__29
10
18.518999
20
17.796000
30
17.257000
70
192
0
VERTEX
8
OBJECT__29
10
18.024000
20
18.218000
30
18.222000
70
192
0
VERTEX
8
OBJECT__29
10
19.184000
20
17.229000
30
15.959000
70
192
0
VERTEX
8
OBJECT__29
10
11.535000
20
18.395000
30
18.150000
70
192
0
VERTEX
8
OBJECT__29
10
17.854000
20
18.364000
30
18.555000
70
192
0
VERTEX
8
OBJECT__29
10
17.541000
20
17.500999
30
20.131001
70
192
0
VERTEX
8
OBJECT__29
10
11.535000
20
17.229000
30
20.341000
70
192
0
VERTEX
8
OBJECT__29
10
17.551001
20
17.229000
30
20.341000
70
192
0
VERTEX
8
OBJECT__29
10
0
20
0
30
0
70
128
71
1
72
2
73
3
0
VERTEX
8
OBJECT__29
10
0
20
0
30
0
70
128
71
1
72
4
73
2
0
VERTEX
8
OBJECT__29
10
0
20
0
30
0
70
128
71
5
72
6
73
7
0
VERTEX
8
OBJECT__29
10
0
20
0
30
0
70
128
71
7
72
8
73
5
0
VERTEX
8
OBJECT__29
10
0
20
0
30
0
70
128
71
5
72
3
73
6
0
VERTEX
8
OBJECT__29
10
0
20
0
30
0
70
128
71
7
72
9
73
8
0
VERTEX
8
OBJECT__29
10
0
20
0
30
0
70
128
71
3
72
5
73
1
0
SEQEND
8
OBJECT__29
0
POLYLINE
8
OBJECT__30
66
1
70
64
71
20
72
20
62
253
0
VERTEX
8
OBJECT__30
10
11.535000
20
6.054000
30
25.000000
70
192
0
VERTEX
8
OBJECT__30
10
11.535000
20
5.912000
30
24.490000
70
192
0
VERTEX
8
OBJECT__30
10
11.535000
20
16.808001
30
19.896000
70
192
0
VERTEX
8
OBJECT__30
10
11.535000
20
-6.054000
30
25.000000
70
192
0
VERTEX
8
OBJECT__30
10
11.535000
20
-5.912000
30
24.490000
70
192
0
VERTEX
8
OBJECT__30
10
11.535000
20
-6.054000
30
11.300000
70
192
0
VERTEX
8
OBJECT__30
10
11.535000
20
-5.912000
30
11.810000
70
192
0
VERTEX
8
OBJECT__30
10
11.535000
20
-16.808001
30
16.403999
70
192
0
VERTEX
8
OBJECT__30
10
11.535000
20
6.054000
30
11.300000
70
192
0
VERTEX
8
OBJECT__30
10
11.535000
20
5.912000
30
11.810000
70
192
0
VERTEX
8
OBJECT__30
10
11.535000
20
-17.229000
30
20.341000
70
192
0
VERTEX
8
OBJECT__30
10
11.535000
20
-16.808001
30
19.896000
70
192
0
VERTEX
8
OBJECT__30
10
11.535000
20
17.229000
30
15.959000
70
192
0
VERTEX
8
OBJECT__30
10
11.535000
20
16.808001
30
16.403999
70
192
0
VERTEX
8
OBJECT__30
10
11.535000
20
18.395000
30
18.150000
70
192
0
VERTEX
8
OBJECT__30
10
11.535000
20
17.731001
30
18.150000
70
192
0
VERTEX
8
OBJECT__30
10
11.535000
20
17.229000
30
20.341000
70
192
0
VERTEX
8
OBJECT__30
10
11.535000
20
-18.395000
30
18.150000
70
192
0
VERTEX
8
OBJECT__30
10
11.535000
20
-17.731001
30
18.150000
70
192
0
VERTEX
8
OBJECT__30
10
11.535000
20
-17.229000
30
15.959000
70
192
0
VERTEX
8
OBJECT__30
10
0
20
0
30
0
70
128
71
1
72
2
73
3
0
VERTEX
8
OBJECT__30
10
0
20
0
30
0
70
128
71
1
72
4
73
5
0
VERTEX
8
OBJECT__30
10
0
20
0
30
0
70
128
71
6
72
7
73
8
0
VERTEX
8
OBJECT__30
10
0
20
0
30
0
70
128
71
6
72
9
73
10
0
VERTEX
8
OBJECT__30
10
0
20
0
30
0
70
128
71
5
72
2
73
1
0
VERTEX
8
OBJECT__30
10
0
20
0
30
0
70
128
71
4
72
11
73
12
0
VERTEX
8
OBJECT__30
10
0
20
0
30
0
70
128
71
10
72
7
73
6
0
VERTEX
8
OBJECT__30
10
0
20
0
30
0
70
128
71
9
72
13
73
14
0
VERTEX
8
OBJECT__30
10
0
20
0
30
0
70
128
71
12
72
5
73
4
0
VERTEX
8
OBJECT__30
10
0
20
0
30
0
70
128
71
14
72
10
73
9
0
VERTEX
8
OBJECT__30
10
0
20
0
30
0
70
128
71
13
72
15
73
16
0
VERTEX
8
OBJECT__30
10
0
20
0
30
0
70
128
71
3
72
17
73
1
0
VERTEX
8
OBJECT__30
10
0
20
0
30
0
70
128
71
11
72
18
73
19
0
VERTEX
8
OBJECT__30
10
0
20
0
30
0
70
128
71
20
72
8
73
19
0
VERTEX
8
OBJECT__30
10
0
20
0
30
0
70
128
71
16
72
14
73
13
0
VERTEX
8
OBJECT__30
10
0
20
0
30
0
70
128
71
19
72
12
73
11
0
VERTEX
8
OBJECT__30
10
0
20
0
30
0
70
128
71
8
72
20
73
6
0
VERTEX
8
OBJECT__30
10
0
20
0
30
0
70
128
71
19
72
18
73
20
0
VERTEX
8
OBJECT__30
10
0
20
0
30
0
70
128
71
3
72
16
73
17
0
VERTEX
8
OBJECT__30
10
0
20
0
30
0
70
128
71
16
72
15
73
17
0
SEQEND
8
OBJECT__30
0
POLYLINE
8
OBJECT__31
66
1
70
64
71
8
72
6
62
253
0
VERTEX
8
OBJECT__31
10
11.535000
20
17.731001
30
18.150000
70
192
0
VERTEX
8
OBJECT__31
10
11.535000
20
16.808001
30
19.896000
70
192
0
VERTEX
8
OBJECT__31
10
17.886000
20
16.808001
30
19.896000
70
192
0
VERTEX
8
OBJECT__31
10
11.535000
20
16.808001
30
16.403999
70
192
0
VERTEX
8
OBJECT__31
10
18.465000
20
17.662001
30
17.614000
70
192
0
VERTEX
8
OBJECT__31
10
18.802999
20
17.363001
30
16.958000
70
192
0
VERTEX
8
OBJECT__31
10
18.351000
20
17.493999
30
18.063000
70
192
0
VERTEX
8
OBJECT__31
10
19.183001
20
16.808001
30
16.403999
70
192
0
VERTEX
8
OBJECT__31
10
0
20
0
30
0
70
128
71
1
72
2
73
3
0
VERTEX
8
OBJECT__31
10
0
20
0
30
0
70
128
71
4
72
5
73
6
0
VERTEX
8
OBJECT__31
10
0
20
0
30
0
70
128
71
4
72
1
73
7
0
VERTEX
8
OBJECT__31
10
0
20
0
30
0
70
128
71
7
72
5
73
4
0
VERTEX
8
OBJECT__31
10
0
20
0
30
0
70
128
71
6
72
8
73
4
0
VERTEX
8
OBJECT__31
10
0
20
0
30
0
70
128
71
3
72
7
73
1
0
SEQEND
8
OBJECT__31
0
POLYLINE
8
OBJECT__32
66
1
70
64
71
22
72
20
62
253
0
VERTEX
8
OBJECT__32
10
11.535000
20
5.912000
30
11.810000
70
192
0
VERTEX
8
OBJECT__32
10
21.174000
20
12.450000
30
13.953000
70
192
0
VERTEX
8
OBJECT__32
10
22.108000
20
9.498000
30
12.771000
70
192
0
VERTEX
8
OBJECT__32
10
22.683001
20
6.505000
30
12.030000
70
192
0
VERTEX
8
OBJECT__32
10
11.535000
20
16.808001
30
16.403999
70
192
0
VERTEX
8
OBJECT__32
10
19.183001
20
16.808001
30
16.403999
70
192
0
VERTEX
8
OBJECT__32
10
21.111000
20
12.649000
30
14.033000
70
192
0
VERTEX
8
OBJECT__32
10
11.535000
20
-5.912000
30
11.810000
70
192
0
VERTEX
8
OBJECT__32
10
23.188000
20
-1.911000
30
11.377000
70
192
0
VERTEX
8
OBJECT__32
10
23.115000
20
-3.880000
30
11.472000
70
192
0
VERTEX
8
OBJECT__32
10
23.296000
20
1.014000
30
11.236000
70
192
0
VERTEX
8
OBJECT__32
10
23.231001
20
1.878000
30
11.321000
70
192
0
VERTEX
8
OBJECT__32
10
22.801001
20
5.895000
30
11.879000
70
192
0
VERTEX
8
OBJECT__32
10
23.011999
20
4.795000
30
11.606000
70
192
0
VERTEX
8
OBJECT__32
10
20.448999
20
-14.278000
30
14.857000
70
192
0
VERTEX
8
OBJECT__32
10
19.183001
20
-16.808001
30
16.403999
70
192
0
VERTEX
8
OBJECT__32
10
21.166000
20
-12.431000
30
13.961000
70
192
0
VERTEX
8
OBJECT__32
10
22.759001
20
-6.351000
30
11.935000
70
192
0
VERTEX
8
OBJECT__32
10
22.653000
20
-7.080000
30
12.071000
70
192
0
VERTEX
8
OBJECT__32
10
21.436001
20
-11.737000
30
13.624000
70
192
0
VERTEX
8
OBJECT__32
10
22.823000
20
-5.905000
30
11.851000
70
192
0
VERTEX
8
OBJECT__32
10
11.535000
20
-16.808001
30
16.403999
70
192
0
VERTEX
8
OBJECT__32
10
0
20
0
30
0
70
128
71
1
72
2
73
3
0
VERTEX
8
OBJECT__32
10
0
20
0
30
0
70
128
71
3
72
4
73
1
0
VERTEX
8
OBJECT__32
10
0
20
0
30
0
70
128
71
1
72
5
73
6
0
VERTEX
8
OBJECT__32
10
0
20
0
30
0
70
128
71
6
72
7
73
1
0
VERTEX
8
OBJECT__32
10
0
20
0
30
0
70
128
71
7
72
2
73
1
0
VERTEX
8
OBJECT__32
10
0
20
0
30
0
70
128
71
8
72
9
73
10
0
VERTEX
8
OBJECT__32
10
0
20
0
30
0
70
128
71
1
72
11
73
9
0
VERTEX
8
OBJECT__32
10
0
20
0
30
0
70
128
71
1
72
12
73
11
0
VERTEX
8
OBJECT__32
10
0
20
0
30
0
70
128
71
1
72
13
73
14
0
VERTEX
8
OBJECT__32
10
0
20
0
30
0
70
128
71
14
72
12
73
1
0
VERTEX
8
OBJECT__32
10
0
20
0
30
0
70
128
71
9
72
8
73
1
0
VERTEX
8
OBJECT__32
10
0
20
0
30
0
70
128
71
8
72
15
73
16
0
VERTEX
8
OBJECT__32
10
0
20
0
30
0
70
128
71
8
72
17
73
15
0
VERTEX
8
OBJECT__32
10
0
20
0
30
0
70
128
71
8
72
18
73
19
0
VERTEX
8
OBJECT__32
10
0
20
0
30
0
70
128
71
19
72
20
73
8
0
VERTEX
8
OBJECT__32
10
0
20
0
30
0
70
128
71
8
72
21
73
18
0
VERTEX
8
OBJECT__32
10
0
20
0
30
0
70
128
71
20
72
17
73
8
0
VERTEX
8
OBJECT__32
10
0
20
0
30
0
70
128
71
16
72
22
73
8
0
VERTEX
8
OBJECT__32
10
0
20
0
30
0
70
128
71
10
72
21
73
8
0
VERTEX
8
OBJECT__32
10
0
20
0
30
0
70
128
71
4
72
13
73
1
0
SEQEND
8
OBJECT__32
0
POLYLINE
8
OBJECT__33
66
1
70
64
71
8
72
6
62
253
0
VERTEX
8
OBJECT__33
10
11.535000
20
-16.808001
30
16.403999
70
192
0
VERTEX
8
OBJECT__33
10
19.183001
20
-16.808001
30
16.403999
70
192
0
VERTEX
8
OBJECT__33
10
18.267000
20
-17.586000
30
18.208000
70
192
0
VERTEX
8
OBJECT__33
10
11.535000
20
-17.731001
30
18.150000
70
192
0
VERTEX
8
OBJECT__33
10
18.127001
20
-17.705000
30
18.483999
70
192
0
VERTEX
8
OBJECT__33
10
17.879999
20
-17.009001
30
19.740999
70
192
0
VERTEX
8
OBJECT__33
10
11.535000
20
-16.808001
30
19.896000
70
192
0
VERTEX
8
OBJECT__33
10
17.886000
20
-16.808001
30
19.896000
70
192
0
VERTEX
8
OBJECT__33
10
0
20
0
30
0
70
128
71
1
72
2
73
3
0
VERTEX
8
OBJECT__33
10
0
20
0
30
0
70
128
71
4
72
5
73
6
0
VERTEX
8
OBJECT__33
10
0
20
0
30
0
70
128
71
6
72
7
73
4
0
VERTEX
8
OBJECT__33
10
0
20
0
30
0
70
128
71
4
72
3
73
5
0
VERTEX
8
OBJECT__33
10
0
20
0
30
0
70
128
71
6
72
8
73
7
0
VERTEX
8
OBJECT__33
10
0
20
0
30
0
70
128
71
3
72
4
73
1
0
SEQEND
8
OBJECT__33
0
POLYLINE
8
OBJECT__34
66
1
70
64
71
18
72
16
62
253
0
VERTEX
8
OBJECT__34
10
11.535000
20
-5.912000
30
24.490000
70
192
0
VERTEX
8
OBJECT__34
10
18.150999
20
-11.919000
30
22.589001
70
192
0
VERTEX
8
OBJECT__34
10
18.295000
20
-7.739000
30
24.059999
70
192
0
VERTEX
8
OBJECT__34
10
11.535000
20
-16.808001
30
19.896000
70
192
0
VERTEX
8
OBJECT__34
10
17.886000
20
-16.808001
30
19.896000
70
192
0
VERTEX
8
OBJECT__34
10
18.146999
20
-12.019000
30
22.552999
70
192
0
VERTEX
8
OBJECT__34
10
18.386000
20
-2.341000
30
24.989000
70
192
0
VERTEX
8
OBJECT__34
10
18.386999
20
2.205000
30
25.000000
70
192
0
VERTEX
8
OBJECT__34
10
18.357000
20
-4.031000
30
24.698000
70
192
0
VERTEX
8
OBJECT__34
10
11.535000
20
5.912000
30
24.490000
70
192
0
VERTEX
8
OBJECT__34
10
18.357000
20
4.031000
30
24.694000
70
192
0
VERTEX
8
OBJECT__34
10
18.326000
20
-5.893000
30
24.378000
70
192
0
VERTEX
8
OBJECT__34
10
11.535000
20
16.808001
30
19.896000
70
192
0
VERTEX
8
OBJECT__34
10
18.150999
20
11.920000
30
22.593000
70
192
0
VERTEX
8
OBJECT__34
10
18.298000
20
7.609000
30
24.094999
70
192
0
VERTEX
8
OBJECT__34
10
18.153000
20
11.885000
30
22.612000
70
192
0
VERTEX
8
OBJECT__34
10
18.326000
20
5.894000
30
24.382000
70
192
0
VERTEX
8
OBJECT__34
10
17.886000
20
16.808001
30
19.896000
70
192
0
VERTEX
8
OBJECT__34
10
0
20
0
30
0
70
128
71
1
72
2
73
3
0
VERTEX
8
OBJECT__34
10
0
20
0
30
0
70
128
71
4
72
5
73
6
0
VERTEX
8
OBJECT__34
10
0
20
0
30
0
70
128
71
6
72
1
73
4
0
VERTEX
8
OBJECT__34
10
0
20
0
30
0
70
128
71
6
72
2
73
1
0
VERTEX
8
OBJECT__34
10
0
20
0
30
0
70
128
71
1
72
7
73
8
0
VERTEX
8
OBJECT__34
10
0
20
0
30
0
70
128
71
1
72
9
73
7
0
VERTEX
8
OBJECT__34
10
0
20
0
30
0
70
128
71
8
72
10
73
1
0
VERTEX
8
OBJECT__34
10
0
20
0
30
0
70
128
71
8
72
11
73
10
0
VERTEX
8
OBJECT__34
10
0
20
0
30
0
70
128
71
1
72
12
73
9
0
VERTEX
8
OBJECT__34
10
0
20
0
30
0
70
128
71
13
72
10
73
14
0
VERTEX
8
OBJECT__34
10
0
20
0
30
0
70
128
71
10
72
15
73
16
0
VERTEX
8
OBJECT__34
10
0
20
0
30
0
70
128
71
10
72
17
73
15
0
VERTEX
8
OBJECT__34
10
0
20
0
30
0
70
128
71
16
72
14
73
10
0
VERTEX
8
OBJECT__34
10
0
20
0
30
0
70
128
71
14
72
18
73
13
0
VERTEX
8
OBJECT__34
10
0
20
0
30
0
70
128
71
11
72
17
73
10
0
VERTEX
8
OBJECT__34
10
0
20
0
30
0
70
128
71
3
72
12
73
1
0
SEQEND
8
OBJECT__34
0
POLYLINE
8
OBJECT__35
66
1
70
64
71
42
72
44
62
253
0
VERTEX
8
OBJECT__35
10
21.177999
20
3.014000
30
18.465000
70
192
0
VERTEX
8
OBJECT__35
10
21.177999
20
8.730000
30
16.547001
70
192
0
VERTEX
8
OBJECT__35
10
18.298000
20
7.609000
30
24.094999
70
192
0
VERTEX
8
OBJECT__35
10
18.150999
20
11.920000
30
22.593000
70
192
0
VERTEX
8
OBJECT__35
10
18.153000
20
11.885000
30
22.612000
70
192
0
VERTEX
8
OBJECT__35
10
18.326000
20
5.894000
30
24.382000
70
192
0
VERTEX
8
OBJECT__35
10
21.177999
20
-3.014000
30
18.465000
70
192
0
VERTEX
8
OBJECT__35
10
18.386999
20
2.205000
30
25.000000
70
192
0
VERTEX
8
OBJECT__35
10
18.386000
20
-2.341000
30
24.989000
70
192
0
VERTEX
8
OBJECT__35
10
18.357000
20
4.031000
30
24.694000
70
192
0
VERTEX
8
OBJECT__35
10
18.326000
20
-5.893000
30
24.378000
70
192
0
VERTEX
8
OBJECT__35
10
18.295000
20
-7.739000
30
24.059999
70
192
0
VERTEX
8
OBJECT__35
10
21.177999
20
-8.730000
30
16.547001
70
192
0
VERTEX
8
OBJECT__35
10
18.357000
20
-4.031000
30
24.698000
70
192
0
VERTEX
8
OBJECT__35
10
18.150999
20
-11.919000
30
22.589001
70
192
0
VERTEX
8
OBJECT__35
10
20.448999
20
-14.278000
30
14.857000
70
192
0
VERTEX
8
OBJECT__35
10
21.166000
20
-12.431000
30
13.961000
70
192
0
VERTEX
8
OBJECT__35
10
18.267000
20
-17.586000
30
18.208000
70
192
0
VERTEX
8
OBJECT__35
10
19.183001
20
-16.808001
30
16.403999
70
192
0
VERTEX
8
OBJECT__35
10
17.886000
20
-16.808001
30
19.896000
70
192
0
VERTEX
8
OBJECT__35
10
17.879999
20
-17.009001
30
19.740999
70
192
0
VERTEX
8
OBJECT__35
10
18.146999
20
-12.019000
30
22.552999
70
192
0
VERTEX
8
OBJECT__35
10
18.127001
20
-17.705000
30
18.483999
70
192
0
VERTEX
8
OBJECT__35
10
21.436001
20
-11.737000
30
13.624000
70
192
0
VERTEX
8
OBJECT__35
10
22.653000
20
-7.080000
30
12.071000
70
192
0
VERTEX
8
OBJECT__35
10
22.823000
20
-5.905000
30
11.851000
70
192
0
VERTEX
8
OBJECT__35
10
23.115000
20
-3.880000
30
11.472000
70
192
0
VERTEX
8
OBJECT__35
10
22.759001
20
-6.351000
30
11.935000
70
192
0
VERTEX
8
OBJECT__35
10
23.188000
20
-1.911000
30
11.377000
70
192
0
VERTEX
8
OBJECT__35
10
23.296000
20
1.014000
30
11.236000
70
192
0
VERTEX
8
OBJECT__35
10
22.801001
20
5.895000
30
11.879000
70
192
0
VERTEX
8
OBJECT__35
10
22.683001
20
6.505000
30
12.030000
70
192
0
VERTEX
8
OBJECT__35
10
23.231001
20
1.878000
30
11.321000
70
192
0
VERTEX
8
OBJECT__35
10
23.011999
20
4.795000
30
11.606000
70
192
0
VERTEX
8
OBJECT__35
10
22.108000
20
9.498000
30
12.771000
70
192
0
VERTEX
8
OBJECT__35
10
18.351000
20
17.493999
30
18.063000
70
192
0
VERTEX
8
OBJECT__35
10
17.886000
20
16.808001
30
19.896000
70
192
0
VERTEX
8
OBJECT__35
10
18.802999
20
17.363001
30
16.958000
70
192
0
VERTEX
8
OBJECT__35
10
18.465000
20
17.662001
30
17.614000
70
192
0
VERTEX
8
OBJECT__35
10
19.183001
20
16.808001
30
16.403999
70
192
0
VERTEX
8
OBJECT__35
10
21.111000
20
12.649000
30
14.033000
70
192
0
VERTEX
8
OBJECT__35
10
21.174000
20
12.450000
30
13.953000
70
192
0
VERTEX
8
OBJECT__35
10
0
20
0
30
0
70
128
71
1
72
2
73
3
0
VERTEX
8
OBJECT__35
10
0
20
0
30
0
70
128
71
2
72
4
73
5
0
VERTEX
8
OBJECT__35
10
0
20
0
30
0
70
128
71
5
72
3
73
2
0
VERTEX
8
OBJECT__35
10
0
20
0
30
0
70
128
71
3
72
6
73
1
0
VERTEX
8
OBJECT__35
10
0
20
0
30
0
70
128
71
7
72
1
73
8
0
VERTEX
8
OBJECT__35
10
0
20
0
30
0
70
128
71
8
72
9
73
7
0
VERTEX
8
OBJECT__35
10
0
20
0
30
0
70
128
71
1
72
10
73
8
0
VERTEX
8
OBJECT__35
10
0
20
0
30
0
70
128
71
7
72
11
73
12
0
VERTEX
8
OBJECT__35
10
0
20
0
30
0
70
128
71
12
72
13
73
7
0
VERTEX
8
OBJECT__35
10
0
20
0
30
0
70
128
71
7
72
14
73
11
0
VERTEX
8
OBJECT__35
10
0
20
0
30
0
70
128
71
15
72
16
73
17
0
VERTEX
8
OBJECT__35
10
0
20
0
30
0
70
128
71
15
72
18
73
19
0
VERTEX
8
OBJECT__35
10
0
20
0
30
0
70
128
71
19
72
16
73
15
0
VERTEX
8
OBJECT__35
10
0
20
0
30
0
70
128
71
18
72
20
73
21
0
VERTEX
8
OBJECT__35
10
0
20
0
30
0
70
128
71
18
72
22
73
20
0
VERTEX
8
OBJECT__35
10
0
20
0
30
0
70
128
71
18
72
15
73
22
0
VERTEX
8
OBJECT__35
10
0
20
0
30
0
70
128
71
21
72
23
73
18
0
VERTEX
8
OBJECT__35
10
0
20
0
30
0
70
128
71
13
72
24
73
25
0
VERTEX
8
OBJECT__35
10
0
20
0
30
0
70
128
71
13
72
17
73
24
0
VERTEX
8
OBJECT__35
10
0
20
0
30
0
70
128
71
7
72
26
73
27
0
VERTEX
8
OBJECT__35
10
0
20
0
30
0
70
128
71
7
72
13
73
28
0
VERTEX
8
OBJECT__35
10
0
20
0
30
0
70
128
71
28
72
26
73
7
0
VERTEX
8
OBJECT__35
10
0
20
0
30
0
70
128
71
1
72
7
73
29
0
VERTEX
8
OBJECT__35
10
0
20
0
30
0
70
128
71
29
72
30
73
1
0
VERTEX
8
OBJECT__35
10
0
20
0
30
0
70
128
71
1
72
31
73
32
0
VERTEX
8
OBJECT__35
10
0
20
0
30
0
70
128
71
1
72
33
73
34
0
VERTEX
8
OBJECT__35
10
0
20
0
30
0
70
128
71
34
72
31
73
1
0
VERTEX
8
OBJECT__35
10
0
20
0
30
0
70
128
71
2
72
32
73
35
0
VERTEX
8
OBJECT__35
10
0
20
0
30
0
70
128
71
2
72
36
73
37
0
VERTEX
8
OBJECT__35
10
0
20
0
30
0
70
128
71
2
72
38
73
39
0
VERTEX
8
OBJECT__35
10
0
20
0
30
0
70
128
71
2
72
40
73
38
0
VERTEX
8
OBJECT__35
10
0
20
0
30
0
70
128
71
2
72
41
73
40
0
VERTEX
8
OBJECT__35
10
0
20
0
30
0
70
128
71
2
72
42
73
41
0
VERTEX
8
OBJECT__35
10
0
20
0
30
0
70
128
71
39
72
36
73
2
0
VERTEX
8
OBJECT__35
10
0
20
0
30
0
70
128
71
37
72
4
73
2
0
VERTEX
8
OBJECT__35
10
0
20
0
30
0
70
128
71
35
72
42
73
2
0
VERTEX
8
OBJECT__35
10
0
20
0
30
0
70
128
71
32
72
2
73
1
0
VERTEX
8
OBJECT__35
10
0
20
0
30
0
70
128
71
30
72
33
73
1
0
VERTEX
8
OBJECT__35
10
0
20
0
30
0
70
128
71
27
72
29
73
7
0
VERTEX
8
OBJECT__35
10
0
20
0
30
0
70
128
71
25
72
28
73
13
0
VERTEX
8
OBJECT__35
10
0
20
0
30
0
70
128
71
17
72
13
73
15
0
VERTEX
8
OBJECT__35
10
0
20
0
30
0
70
128
71
12
72
15
73
13
0
VERTEX
8
OBJECT__35
10
0
20
0
30
0
70
128
71
9
72
14
73
7
0
VERTEX
8
OBJECT__35
10
0
20
0
30
0
70
128
71
6
72
10
73
1
0
SEQEND
8
OBJECT__35
0
ENDSEC
0
EOF
