999
Converted by 3D Exploration 
999
XDimension Software, LLC
999
http://www.xdsoft.com/explorer/
0
SECTION
2
HEADER
9
$ACADVER
1
AC1008
9
$UCSORG
10
0.0
20
0.0
30
0.0
9
$UCSXDIR
10
1.0
20
0.0
30
0.0
9
$TILEMODE
70
1
9
$UCSYDIR
10
0.0
20
1.0
30
0.0
9
$EXTMIN
10
-10.000000
20
-27.000000
30
-27.000000
9
$EXTMAX
10
34.799999
20
26.885000
30
27.000000
0
ENDSEC
0
SECTION
2
TABLES
0
TABLE
2
LTYPE
70
1
0
LTYPE
2
CONTINUOUS
70
64
3
Solid line
72
65
73
0
40
0.0
0
ENDTAB
0
TABLE
2
LAYER
70
16
0
LAYER
2
OBJECT__0
70
0
62
253
6
CONTINUOUS
0
LAYER
2
OBJECT__1
70
0
62
253
6
CONTINUOUS
0
LAYER
2
OBJECT__3
70
0
62
253
6
CONTINUOUS
0
LAYER
2
OBJECT__4
70
0
62
253
6
CONTINUOUS
0
LAYER
2
OBJECT__5
70
0
62
253
6
CONTINUOUS
0
LAYER
2
OBJECT__7
70
0
62
253
6
CONTINUOUS
0
LAYER
2
OBJECT__8
70
0
62
253
6
CONTINUOUS
0
LAYER
2
OBJECT__9
70
0
62
253
6
CONTINUOUS
0
LAYER
2
OBJECT__10
70
0
62
253
6
CONTINUOUS
0
LAYER
2
OBJECT__11
70
0
62
253
6
CONTINUOUS
0
LAYER
2
OBJECT__12
70
0
62
253
6
CONTINUOUS
0
LAYER
2
OBJECT__13
70
0
62
253
6
CONTINUOUS
0
LAYER
2
OBJECT__14
70
0
62
253
6
CONTINUOUS
0
LAYER
2
OBJECT__15
70
0
62
253
6
CONTINUOUS
0
ENDTAB
0
TABLE
2
STYLE
70
1
0
STYLE
2
STANDARD
70
0
40
0.0
41
1.0
50
0.0
71
0
42
0.2
3
txt
4
1
0
ENDTAB
0
TABLE
2
UCS
70
0
0
ENDTAB
0
ENDSEC
0
SECTION
2
ENTITIES
0
POLYLINE
8
OBJECT__0
66
1
70
64
71
36
72
36
62
253
0
VERTEX
8
OBJECT__0
10
-10.000000
20
-26.885000
30
2.491000
70
192
0
VERTEX
8
OBJECT__0
10
-10.000000
20
-24.169001
30
12.035000
70
192
0
VERTEX
8
OBJECT__0
10
-10.000000
20
-21.143000
30
7.695000
70
192
0
VERTEX
8
OBJECT__0
10
-10.000000
20
26.885000
30
2.491000
70
192
0
VERTEX
8
OBJECT__0
10
-10.000000
20
22.500000
30
0.000000
70
192
0
VERTEX
8
OBJECT__0
10
-10.000000
20
21.143000
30
7.695000
70
192
0
VERTEX
8
OBJECT__0
10
-10.000000
20
25.969000
30
-7.389000
70
192
0
VERTEX
8
OBJECT__0
10
-10.000000
20
21.143000
30
-7.695000
70
192
0
VERTEX
8
OBJECT__0
10
-10.000000
20
14.214000
30
-22.955999
70
192
0
VERTEX
8
OBJECT__0
10
-10.000000
20
11.250000
30
-19.486000
70
192
0
VERTEX
8
OBJECT__0
10
-10.000000
20
17.236000
30
-14.463000
70
192
0
VERTEX
8
OBJECT__0
10
-10.000000
20
4.961000
30
-26.540001
70
192
0
VERTEX
8
OBJECT__0
10
-10.000000
20
3.907000
30
-22.158001
70
192
0
VERTEX
8
OBJECT__0
10
-10.000000
20
-22.500000
30
0.000000
70
192
0
VERTEX
8
OBJECT__0
10
-10.000000
20
-27.000000
30
0.000000
70
192
0
VERTEX
8
OBJECT__0
10
-10.000000
20
-18.190001
30
19.952999
70
192
0
VERTEX
8
OBJECT__0
10
-10.000000
20
-17.236000
30
14.463000
70
192
0
VERTEX
8
OBJECT__0
10
-10.000000
20
-9.754000
30
25.177000
70
192
0
VERTEX
8
OBJECT__0
10
-10.000000
20
0.000000
30
27.000000
70
192
0
VERTEX
8
OBJECT__0
10
-10.000000
20
-3.907000
30
22.158001
70
192
0
VERTEX
8
OBJECT__0
10
-10.000000
20
21.546000
30
-16.271000
70
192
0
VERTEX
8
OBJECT__0
10
-10.000000
20
-4.961000
30
-26.540001
70
192
0
VERTEX
8
OBJECT__0
10
-10.000000
20
-3.907000
30
-22.158001
70
192
0
VERTEX
8
OBJECT__0
10
-10.000000
20
-11.250000
30
19.486000
70
192
0
VERTEX
8
OBJECT__0
10
-10.000000
20
3.907000
30
22.158001
70
192
0
VERTEX
8
OBJECT__0
10
-10.000000
20
9.754000
30
25.177000
70
192
0
VERTEX
8
OBJECT__0
10
-10.000000
20
11.250000
30
19.486000
70
192
0
VERTEX
8
OBJECT__0
10
-10.000000
20
-14.214000
30
-22.955999
70
192
0
VERTEX
8
OBJECT__0
10
-10.000000
20
-11.250000
30
-19.486000
70
192
0
VERTEX
8
OBJECT__0
10
-10.000000
20
-21.546000
30
-16.271000
70
192
0
VERTEX
8
OBJECT__0
10
-10.000000
20
-17.236000
30
-14.463000
70
192
0
VERTEX
8
OBJECT__0
10
-10.000000
20
18.190001
30
19.952999
70
192
0
VERTEX
8
OBJECT__0
10
-10.000000
20
17.236000
30
14.463000
70
192
0
VERTEX
8
OBJECT__0
10
-10.000000
20
24.169001
30
12.035000
70
192
0
VERTEX
8
OBJECT__0
10
-10.000000
20
-25.969000
30
-7.389000
70
192
0
VERTEX
8
OBJECT__0
10
-10.000000
20
-21.143000
30
-7.695000
70
192
0
VERTEX
8
OBJECT__0
10
0
20
0
30
0
70
128
71
1
72
2
73
3
0
VERTEX
8
OBJECT__0
10
0
20
0
30
0
70
128
71
4
72
5
73
6
0
VERTEX
8
OBJECT__0
10
0
20
0
30
0
70
128
71
7
72
8
73
5
0
VERTEX
8
OBJECT__0
10
0
20
0
30
0
70
128
71
9
72
10
73
11
0
VERTEX
8
OBJECT__0
10
0
20
0
30
0
70
128
71
12
72
13
73
10
0
VERTEX
8
OBJECT__0
10
0
20
0
30
0
70
128
71
14
72
15
73
1
0
VERTEX
8
OBJECT__0
10
0
20
0
30
0
70
128
71
2
72
16
73
17
0
VERTEX
8
OBJECT__0
10
0
20
0
30
0
70
128
71
18
72
19
73
20
0
VERTEX
8
OBJECT__0
10
0
20
0
30
0
70
128
71
5
72
4
73
7
0
VERTEX
8
OBJECT__0
10
0
20
0
30
0
70
128
71
21
72
11
73
8
0
VERTEX
8
OBJECT__0
10
0
20
0
30
0
70
128
71
10
72
9
73
12
0
VERTEX
8
OBJECT__0
10
0
20
0
30
0
70
128
71
12
72
22
73
23
0
VERTEX
8
OBJECT__0
10
0
20
0
30
0
70
128
71
17
72
3
73
2
0
VERTEX
8
OBJECT__0
10
0
20
0
30
0
70
128
71
16
72
18
73
24
0
VERTEX
8
OBJECT__0
10
0
20
0
30
0
70
128
71
19
72
25
73
20
0
VERTEX
8
OBJECT__0
10
0
20
0
30
0
70
128
71
26
72
27
73
25
0
VERTEX
8
OBJECT__0
10
0
20
0
30
0
70
128
71
8
72
7
73
21
0
VERTEX
8
OBJECT__0
10
0
20
0
30
0
70
128
71
23
72
13
73
12
0
VERTEX
8
OBJECT__0
10
0
20
0
30
0
70
128
71
22
72
28
73
29
0
VERTEX
8
OBJECT__0
10
0
20
0
30
0
70
128
71
28
72
30
73
31
0
VERTEX
8
OBJECT__0
10
0
20
0
30
0
70
128
71
24
72
17
73
16
0
VERTEX
8
OBJECT__0
10
0
20
0
30
0
70
128
71
25
72
19
73
26
0
VERTEX
8
OBJECT__0
10
0
20
0
30
0
70
128
71
32
72
33
73
27
0
VERTEX
8
OBJECT__0
10
0
20
0
30
0
70
128
71
34
72
6
73
33
0
VERTEX
8
OBJECT__0
10
0
20
0
30
0
70
128
71
11
72
21
73
9
0
VERTEX
8
OBJECT__0
10
0
20
0
30
0
70
128
71
31
72
29
73
28
0
VERTEX
8
OBJECT__0
10
0
20
0
30
0
70
128
71
20
72
24
73
18
0
VERTEX
8
OBJECT__0
10
0
20
0
30
0
70
128
71
33
72
32
73
34
0
VERTEX
8
OBJECT__0
10
0
20
0
30
0
70
128
71
29
72
23
73
22
0
VERTEX
8
OBJECT__0
10
0
20
0
30
0
70
128
71
30
72
35
73
36
0
VERTEX
8
OBJECT__0
10
0
20
0
30
0
70
128
71
27
72
26
73
32
0
VERTEX
8
OBJECT__0
10
0
20
0
30
0
70
128
71
36
72
31
73
30
0
VERTEX
8
OBJECT__0
10
0
20
0
30
0
70
128
71
6
72
34
73
4
0
VERTEX
8
OBJECT__0
10
0
20
0
30
0
70
128
71
14
72
36
73
35
0
VERTEX
8
OBJECT__0
10
0
20
0
30
0
70
128
71
35
72
15
73
14
0
VERTEX
8
OBJECT__0
10
0
20
0
30
0
70
128
71
3
72
14
73
1
0
SEQEND
8
OBJECT__0
0
POLYLINE
8
OBJECT__1
66
1
70
64
71
48
72
50
62
253
0
VERTEX
8
OBJECT__1
10
-10.000000
20
-9.754000
30
25.177000
70
192
0
VERTEX
8
OBJECT__1
10
0.000000
20
-9.754000
30
25.177000
70
192
0
VERTEX
8
OBJECT__1
10
0.000000
20
0.000000
30
27.000000
70
192
0
VERTEX
8
OBJECT__1
10
0.000000
20
-18.190001
30
19.952999
70
192
0
VERTEX
8
OBJECT__1
10
-10.000000
20
-24.169001
30
12.035000
70
192
0
VERTEX
8
OBJECT__1
10
0.000000
20
-24.169001
30
12.035000
70
192
0
VERTEX
8
OBJECT__1
10
-10.000000
20
-26.885000
30
2.491000
70
192
0
VERTEX
8
OBJECT__1
10
0.000000
20
-26.885000
30
2.491000
70
192
0
VERTEX
8
OBJECT__1
10
-10.000000
20
-25.969000
30
-7.389000
70
192
0
VERTEX
8
OBJECT__1
10
0.000000
20
-25.969000
30
-7.389000
70
192
0
VERTEX
8
OBJECT__1
10
0.000000
20
-27.000000
30
0.000000
70
192
0
VERTEX
8
OBJECT__1
10
-10.000000
20
-27.000000
30
0.000000
70
192
0
VERTEX
8
OBJECT__1
10
-10.000000
20
-21.546000
30
-16.271000
70
192
0
VERTEX
8
OBJECT__1
10
0.000000
20
-21.546000
30
-16.271000
70
192
0
VERTEX
8
OBJECT__1
10
0.000000
20
-14.214000
30
-22.955999
70
192
0
VERTEX
8
OBJECT__1
10
-10.000000
20
-14.214000
30
-22.955999
70
192
0
VERTEX
8
OBJECT__1
10
-10.000000
20
-4.961000
30
-26.540001
70
192
0
VERTEX
8
OBJECT__1
10
0.000000
20
-4.961000
30
-26.540001
70
192
0
VERTEX
8
OBJECT__1
10
0.000000
20
4.961000
30
-26.540001
70
192
0
VERTEX
8
OBJECT__1
10
-5.635000
20
2.169000
30
-26.913000
70
192
0
VERTEX
8
OBJECT__1
10
-6.100000
20
2.217000
30
-26.909000
70
192
0
VERTEX
8
OBJECT__1
10
-4.361000
20
1.396000
30
-26.964001
70
192
0
VERTEX
8
OBJECT__1
10
-3.906000
20
-0.530000
30
-26.995001
70
192
0
VERTEX
8
OBJECT__1
10
-3.850000
20
0.000000
30
-27.000000
70
192
0
VERTEX
8
OBJECT__1
10
-4.697000
20
-1.792000
30
-26.940001
70
192
0
VERTEX
8
OBJECT__1
10
-6.629000
20
-2.220000
30
-26.909000
70
192
0
VERTEX
8
OBJECT__1
10
-6.100000
20
-2.283000
30
-26.903000
70
192
0
VERTEX
8
OBJECT__1
10
-7.879000
20
-1.410000
30
-26.962999
70
192
0
VERTEX
8
OBJECT__1
10
-10.000000
20
4.961000
30
-26.540001
70
192
0
VERTEX
8
OBJECT__1
10
-8.294000
20
0.464000
30
-26.996000
70
192
0
VERTEX
8
OBJECT__1
10
-8.350000
20
0.000000
30
-27.000000
70
192
0
VERTEX
8
OBJECT__1
10
-7.503000
20
1.726000
30
-26.945000
70
192
0
VERTEX
8
OBJECT__1
10
0.000000
20
14.214000
30
-22.955999
70
192
0
VERTEX
8
OBJECT__1
10
-10.000000
20
14.214000
30
-22.955999
70
192
0
VERTEX
8
OBJECT__1
10
-10.000000
20
21.546000
30
-16.271000
70
192
0
VERTEX
8
OBJECT__1
10
0.000000
20
21.546000
30
-16.271000
70
192
0
VERTEX
8
OBJECT__1
10
-10.000000
20
25.969000
30
-7.389000
70
192
0
VERTEX
8
OBJECT__1
10
0.000000
20
25.969000
30
-7.389000
70
192
0
VERTEX
8
OBJECT__1
10
-10.000000
20
26.885000
30
2.491000
70
192
0
VERTEX
8
OBJECT__1
10
0.000000
20
26.885000
30
2.491000
70
192
0
VERTEX
8
OBJECT__1
10
-10.000000
20
24.169001
30
12.035000
70
192
0
VERTEX
8
OBJECT__1
10
0.000000
20
24.169001
30
12.035000
70
192
0
VERTEX
8
OBJECT__1
10
-10.000000
20
18.190001
30
19.952999
70
192
0
VERTEX
8
OBJECT__1
10
0.000000
20
18.190001
30
19.952999
70
192
0
VERTEX
8
OBJECT__1
10
-10.000000
20
9.754000
30
25.177000
70
192
0
VERTEX
8
OBJECT__1
10
0.000000
20
9.754000
30
25.177000
70
192
0
VERTEX
8
OBJECT__1
10
-10.000000
20
0.000000
30
27.000000
70
192
0
VERTEX
8
OBJECT__1
10
-10.000000
20
-18.190001
30
19.952999
70
192
0
VERTEX
8
OBJECT__1
10
0
20
0
30
0
70
128
71
1
72
2
73
3
0
VERTEX
8
OBJECT__1
10
0
20
0
30
0
70
128
71
4
72
2
73
1
0
VERTEX
8
OBJECT__1
10
0
20
0
30
0
70
128
71
5
72
6
73
4
0
VERTEX
8
OBJECT__1
10
0
20
0
30
0
70
128
71
7
72
8
73
6
0
VERTEX
8
OBJECT__1
10
0
20
0
30
0
70
128
71
9
72
10
73
11
0
VERTEX
8
OBJECT__1
10
0
20
0
30
0
70
128
71
8
72
7
73
12
0
VERTEX
8
OBJECT__1
10
0
20
0
30
0
70
128
71
12
72
11
73
8
0
VERTEX
8
OBJECT__1
10
0
20
0
30
0
70
128
71
13
72
14
73
10
0
VERTEX
8
OBJECT__1
10
0
20
0
30
0
70
128
71
15
72
14
73
13
0
VERTEX
8
OBJECT__1
10
0
20
0
30
0
70
128
71
16
72
17
73
18
0
VERTEX
8
OBJECT__1
10
0
20
0
30
0
70
128
71
19
72
20
73
21
0
VERTEX
8
OBJECT__1
10
0
20
0
30
0
70
128
71
19
72
22
73
20
0
VERTEX
8
OBJECT__1
10
0
20
0
30
0
70
128
71
18
72
23
73
24
0
VERTEX
8
OBJECT__1
10
0
20
0
30
0
70
128
71
24
72
19
73
18
0
VERTEX
8
OBJECT__1
10
0
20
0
30
0
70
128
71
18
72
25
73
23
0
VERTEX
8
OBJECT__1
10
0
20
0
30
0
70
128
71
17
72
26
73
27
0
VERTEX
8
OBJECT__1
10
0
20
0
30
0
70
128
71
27
72
18
73
17
0
VERTEX
8
OBJECT__1
10
0
20
0
30
0
70
128
71
17
72
28
73
26
0
VERTEX
8
OBJECT__1
10
0
20
0
30
0
70
128
71
29
72
30
73
31
0
VERTEX
8
OBJECT__1
10
0
20
0
30
0
70
128
71
31
72
17
73
29
0
VERTEX
8
OBJECT__1
10
0
20
0
30
0
70
128
71
29
72
32
73
30
0
VERTEX
8
OBJECT__1
10
0
20
0
30
0
70
128
71
31
72
28
73
17
0
VERTEX
8
OBJECT__1
10
0
20
0
30
0
70
128
71
27
72
25
73
18
0
VERTEX
8
OBJECT__1
10
0
20
0
30
0
70
128
71
29
72
21
73
32
0
VERTEX
8
OBJECT__1
10
0
20
0
30
0
70
128
71
24
72
22
73
19
0
VERTEX
8
OBJECT__1
10
0
20
0
30
0
70
128
71
33
72
19
73
29
0
VERTEX
8
OBJECT__1
10
0
20
0
30
0
70
128
71
34
72
35
73
36
0
VERTEX
8
OBJECT__1
10
0
20
0
30
0
70
128
71
37
72
38
73
36
0
VERTEX
8
OBJECT__1
10
0
20
0
30
0
70
128
71
39
72
40
73
38
0
VERTEX
8
OBJECT__1
10
0
20
0
30
0
70
128
71
41
72
42
73
40
0
VERTEX
8
OBJECT__1
10
0
20
0
30
0
70
128
71
43
72
44
73
42
0
VERTEX
8
OBJECT__1
10
0
20
0
30
0
70
128
71
43
72
45
73
46
0
VERTEX
8
OBJECT__1
10
0
20
0
30
0
70
128
71
46
72
45
73
47
0
VERTEX
8
OBJECT__1
10
0
20
0
30
0
70
128
71
47
72
3
73
46
0
VERTEX
8
OBJECT__1
10
0
20
0
30
0
70
128
71
46
72
44
73
43
0
VERTEX
8
OBJECT__1
10
0
20
0
30
0
70
128
71
42
72
41
73
43
0
VERTEX
8
OBJECT__1
10
0
20
0
30
0
70
128
71
40
72
39
73
41
0
VERTEX
8
OBJECT__1
10
0
20
0
30
0
70
128
71
38
72
37
73
39
0
VERTEX
8
OBJECT__1
10
0
20
0
30
0
70
128
71
36
72
35
73
37
0
VERTEX
8
OBJECT__1
10
0
20
0
30
0
70
128
71
36
72
33
73
34
0
VERTEX
8
OBJECT__1
10
0
20
0
30
0
70
128
71
29
72
34
73
33
0
VERTEX
8
OBJECT__1
10
0
20
0
30
0
70
128
71
21
72
29
73
19
0
VERTEX
8
OBJECT__1
10
0
20
0
30
0
70
128
71
18
72
15
73
16
0
VERTEX
8
OBJECT__1
10
0
20
0
30
0
70
128
71
13
72
16
73
15
0
VERTEX
8
OBJECT__1
10
0
20
0
30
0
70
128
71
10
72
9
73
13
0
VERTEX
8
OBJECT__1
10
0
20
0
30
0
70
128
71
11
72
12
73
9
0
VERTEX
8
OBJECT__1
10
0
20
0
30
0
70
128
71
6
72
5
73
7
0
VERTEX
8
OBJECT__1
10
0
20
0
30
0
70
128
71
4
72
48
73
5
0
VERTEX
8
OBJECT__1
10
0
20
0
30
0
70
128
71
1
72
48
73
4
0
VERTEX
8
OBJECT__1
10
0
20
0
30
0
70
128
71
3
72
47
73
1
0
SEQEND
8
OBJECT__1
0
POLYLINE
8
OBJECT__3
66
1
70
64
71
22
72
22
62
253
0
VERTEX
8
OBJECT__3
10
0.000000
20
0.000000
30
27.000000
70
192
0
VERTEX
8
OBJECT__3
10
0.000000
20
-3.000000
30
3.000000
70
192
0
VERTEX
8
OBJECT__3
10
0.000000
20
3.000000
30
3.000000
70
192
0
VERTEX
8
OBJECT__3
10
0.000000
20
-27.000000
30
0.000000
70
192
0
VERTEX
8
OBJECT__3
10
0.000000
20
-25.969000
30
-7.389000
70
192
0
VERTEX
8
OBJECT__3
10
0.000000
20
-3.000000
30
-3.000000
70
192
0
VERTEX
8
OBJECT__3
10
0.000000
20
-18.190001
30
19.952999
70
192
0
VERTEX
8
OBJECT__3
10
0.000000
20
-24.169001
30
12.035000
70
192
0
VERTEX
8
OBJECT__3
10
0.000000
20
3.000000
30
-3.000000
70
192
0
VERTEX
8
OBJECT__3
10
0.000000
20
4.961000
30
-26.540001
70
192
0
VERTEX
8
OBJECT__3
10
0.000000
20
14.214000
30
-22.955999
70
192
0
VERTEX
8
OBJECT__3
10
0.000000
20
9.754000
30
25.177000
70
192
0
VERTEX
8
OBJECT__3
10
0.000000
20
-26.885000
30
2.491000
70
192
0
VERTEX
8
OBJECT__3
10
0.000000
20
-4.961000
30
-26.540001
70
192
0
VERTEX
8
OBJECT__3
10
0.000000
20
26.885000
30
2.491000
70
192
0
VERTEX
8
OBJECT__3
10
0.000000
20
-9.754000
30
25.177000
70
192
0
VERTEX
8
OBJECT__3
10
0.000000
20
-14.214000
30
-22.955999
70
192
0
VERTEX
8
OBJECT__3
10
0.000000
20
25.969000
30
-7.389000
70
192
0
VERTEX
8
OBJECT__3
10
0.000000
20
-21.546000
30
-16.271000
70
192
0
VERTEX
8
OBJECT__3
10
0.000000
20
24.169001
30
12.035000
70
192
0
VERTEX
8
OBJECT__3
10
0.000000
20
21.546000
30
-16.271000
70
192
0
VERTEX
8
OBJECT__3
10
0.000000
20
18.190001
30
19.952999
70
192
0
VERTEX
8
OBJECT__3
10
0
20
0
30
0
70
128
71
1
72
2
73
3
0
VERTEX
8
OBJECT__3
10
0
20
0
30
0
70
128
71
4
72
5
73
6
0
VERTEX
8
OBJECT__3
10
0
20
0
30
0
70
128
71
2
72
7
73
8
0
VERTEX
8
OBJECT__3
10
0
20
0
30
0
70
128
71
9
72
10
73
11
0
VERTEX
8
OBJECT__3
10
0
20
0
30
0
70
128
71
10
72
9
73
6
0
VERTEX
8
OBJECT__3
10
0
20
0
30
0
70
128
71
3
72
12
73
1
0
VERTEX
8
OBJECT__3
10
0
20
0
30
0
70
128
71
6
72
2
73
4
0
VERTEX
8
OBJECT__3
10
0
20
0
30
0
70
128
71
8
72
13
73
2
0
VERTEX
8
OBJECT__3
10
0
20
0
30
0
70
128
71
6
72
14
73
10
0
VERTEX
8
OBJECT__3
10
0
20
0
30
0
70
128
71
15
72
3
73
9
0
VERTEX
8
OBJECT__3
10
0
20
0
30
0
70
128
71
1
72
16
73
2
0
VERTEX
8
OBJECT__3
10
0
20
0
30
0
70
128
71
13
72
4
73
2
0
VERTEX
8
OBJECT__3
10
0
20
0
30
0
70
128
71
6
72
17
73
14
0
VERTEX
8
OBJECT__3
10
0
20
0
30
0
70
128
71
9
72
18
73
15
0
VERTEX
8
OBJECT__3
10
0
20
0
30
0
70
128
71
5
72
19
73
6
0
VERTEX
8
OBJECT__3
10
0
20
0
30
0
70
128
71
6
72
19
73
17
0
VERTEX
8
OBJECT__3
10
0
20
0
30
0
70
128
71
15
72
20
73
3
0
VERTEX
8
OBJECT__3
10
0
20
0
30
0
70
128
71
11
72
21
73
9
0
VERTEX
8
OBJECT__3
10
0
20
0
30
0
70
128
71
9
72
21
73
18
0
VERTEX
8
OBJECT__3
10
0
20
0
30
0
70
128
71
20
72
22
73
3
0
VERTEX
8
OBJECT__3
10
0
20
0
30
0
70
128
71
16
72
7
73
2
0
VERTEX
8
OBJECT__3
10
0
20
0
30
0
70
128
71
3
72
22
73
12
0
SEQEND
8
OBJECT__3
0
POLYLINE
8
OBJECT__4
66
1
70
64
71
15
72
13
62
253
0
VERTEX
8
OBJECT__4
10
34.799999
20
8.774000
30
-2.003000
70
192
0
VERTEX
8
OBJECT__4
10
34.799999
20
0.000000
30
-9.000000
70
192
0
VERTEX
8
OBJECT__4
10
34.799999
20
3.905000
30
-8.109000
70
192
0
VERTEX
8
OBJECT__4
10
34.799999
20
-8.774000
30
2.003000
70
192
0
VERTEX
8
OBJECT__4
10
34.799999
20
0.000000
30
9.000000
70
192
0
VERTEX
8
OBJECT__4
10
34.799999
20
-3.905000
30
8.109000
70
192
0
VERTEX
8
OBJECT__4
10
34.799999
20
-3.905000
30
-8.109000
70
192
0
VERTEX
8
OBJECT__4
10
34.799999
20
3.905000
30
8.109000
70
192
0
VERTEX
8
OBJECT__4
10
34.799999
20
8.774000
30
2.003000
70
192
0
VERTEX
8
OBJECT__4
10
34.799999
20
7.036000
30
5.611000
70
192
0
VERTEX
8
OBJECT__4
10
34.799999
20
-7.036000
30
-5.611000
70
192
0
VERTEX
8
OBJECT__4
10
34.799999
20
-8.774000
30
-2.003000
70
192
0
VERTEX
8
OBJECT__4
10
34.799999
20
9.000000
30
0.000000
70
192
0
VERTEX
8
OBJECT__4
10
34.799999
20
7.036000
30
-5.611000
70
192
0
VERTEX
8
OBJECT__4
10
34.799999
20
-7.036000
30
5.611000
70
192
0
VERTEX
8
OBJECT__4
10
0
20
0
30
0
70
128
71
1
72
2
73
3
0
VERTEX
8
OBJECT__4
10
0
20
0
30
0
70
128
71
4
72
5
73
6
0
VERTEX
8
OBJECT__4
10
0
20
0
30
0
70
128
71
1
72
7
73
2
0
VERTEX
8
OBJECT__4
10
0
20
0
30
0
70
128
71
4
72
8
73
5
0
VERTEX
8
OBJECT__4
10
0
20
0
30
0
70
128
71
4
72
9
73
10
0
VERTEX
8
OBJECT__4
10
0
20
0
30
0
70
128
71
1
72
11
73
7
0
VERTEX
8
OBJECT__4
10
0
20
0
30
0
70
128
71
1
72
4
73
12
0
VERTEX
8
OBJECT__4
10
0
20
0
30
0
70
128
71
10
72
8
73
4
0
VERTEX
8
OBJECT__4
10
0
20
0
30
0
70
128
71
12
72
11
73
1
0
VERTEX
8
OBJECT__4
10
0
20
0
30
0
70
128
71
4
72
13
73
9
0
VERTEX
8
OBJECT__4
10
0
20
0
30
0
70
128
71
3
72
14
73
1
0
VERTEX
8
OBJECT__4
10
0
20
0
30
0
70
128
71
1
72
13
73
4
0
VERTEX
8
OBJECT__4
10
0
20
0
30
0
70
128
71
6
72
15
73
4
0
SEQEND
8
OBJECT__4
0
POLYLINE
8
OBJECT__5
66
1
70
64
71
54
72
54
62
253
0
VERTEX
8
OBJECT__5
10
22.799999
20
3.905000
30
-8.109000
70
192
0
VERTEX
8
OBJECT__5
10
34.799999
20
3.905000
30
-8.109000
70
192
0
VERTEX
8
OBJECT__5
10
34.799999
20
0.000000
30
-9.000000
70
192
0
VERTEX
8
OBJECT__5
10
22.799999
20
7.036000
30
-5.611000
70
192
0
VERTEX
8
OBJECT__5
10
34.799999
20
7.036000
30
-5.611000
70
192
0
VERTEX
8
OBJECT__5
10
22.799999
20
8.774000
30
-2.003000
70
192
0
VERTEX
8
OBJECT__5
10
34.799999
20
8.774000
30
-2.003000
70
192
0
VERTEX
8
OBJECT__5
10
22.799999
20
8.774000
30
2.003000
70
192
0
VERTEX
8
OBJECT__5
10
34.799999
20
9.000000
30
0.000000
70
192
0
VERTEX
8
OBJECT__5
10
34.799999
20
8.774000
30
2.003000
70
192
0
VERTEX
8
OBJECT__5
10
22.799999
20
-8.774000
30
-2.003000
70
192
0
VERTEX
8
OBJECT__5
10
34.799999
20
-8.774000
30
-2.003000
70
192
0
VERTEX
8
OBJECT__5
10
34.799999
20
-8.774000
30
2.003000
70
192
0
VERTEX
8
OBJECT__5
10
22.799999
20
-7.036000
30
-5.611000
70
192
0
VERTEX
8
OBJECT__5
10
34.799999
20
-7.036000
30
-5.611000
70
192
0
VERTEX
8
OBJECT__5
10
22.799999
20
-3.905000
30
-8.109000
70
192
0
VERTEX
8
OBJECT__5
10
34.799999
20
-3.905000
30
-8.109000
70
192
0
VERTEX
8
OBJECT__5
10
22.799999
20
0.000000
30
-9.000000
70
192
0
VERTEX
8
OBJECT__5
10
34.799999
20
-3.905000
30
8.109000
70
192
0
VERTEX
8
OBJECT__5
10
34.799999
20
0.000000
30
9.000000
70
192
0
VERTEX
8
OBJECT__5
10
28.802000
20
-1.458000
30
8.881000
70
192
0
VERTEX
8
OBJECT__5
10
28.862000
20
0.000000
30
9.000000
70
192
0
VERTEX
8
OBJECT__5
10
28.665001
20
-2.572000
30
8.625000
70
192
0
VERTEX
8
OBJECT__5
10
28.370001
20
-3.854000
30
8.133000
70
192
0
VERTEX
8
OBJECT__5
10
34.799999
20
-7.036000
30
5.611000
70
192
0
VERTEX
8
OBJECT__5
10
26.708000
20
-6.514000
30
6.211000
70
192
0
VERTEX
8
OBJECT__5
10
26.407000
20
-6.709000
30
5.983000
70
192
0
VERTEX
8
OBJECT__5
10
28.351000
20
-3.903000
30
8.106000
70
192
0
VERTEX
8
OBJECT__5
10
27.980000
20
-4.863000
30
7.573000
70
192
0
VERTEX
8
OBJECT__5
10
27.372999
20
-5.836000
30
6.852000
70
192
0
VERTEX
8
OBJECT__5
10
22.799999
20
-8.774000
30
2.003000
70
192
0
VERTEX
8
OBJECT__5
10
23.723000
20
-7.801000
30
4.488000
70
192
0
VERTEX
8
OBJECT__5
10
22.805000
20
-7.946000
30
4.227000
70
192
0
VERTEX
8
OBJECT__5
10
24.990999
20
-7.460000
30
5.035000
70
192
0
VERTEX
8
OBJECT__5
10
25.910999
20
-7.031000
30
5.607000
70
192
0
VERTEX
8
OBJECT__5
10
25.743000
20
-7.140000
30
5.479000
70
192
0
VERTEX
8
OBJECT__5
10
25.055000
20
7.437000
30
5.069000
70
192
0
VERTEX
8
OBJECT__5
10
25.908001
20
7.031000
30
5.608000
70
192
0
VERTEX
8
OBJECT__5
10
24.139000
20
7.710000
30
4.642000
70
192
0
VERTEX
8
OBJECT__5
10
22.799999
20
7.947000
30
4.225000
70
192
0
VERTEX
8
OBJECT__5
10
22.805000
20
7.946000
30
4.227000
70
192
0
VERTEX
8
OBJECT__5
10
34.799999
20
7.036000
30
5.611000
70
192
0
VERTEX
8
OBJECT__5
10
28.014999
20
4.788000
30
7.621000
70
192
0
VERTEX
8
OBJECT__5
10
28.337000
20
3.896000
30
8.093000
70
192
0
VERTEX
8
OBJECT__5
10
27.605000
20
5.518000
30
7.110000
70
192
0
VERTEX
8
OBJECT__5
10
26.871000
20
6.372000
30
6.356000
70
192
0
VERTEX
8
OBJECT__5
10
26.124001
20
6.929000
30
5.744000
70
192
0
VERTEX
8
OBJECT__5
10
26.410000
20
6.715000
30
5.978000
70
192
0
VERTEX
8
OBJECT__5
10
28.808001
20
1.386000
30
8.893000
70
192
0
VERTEX
8
OBJECT__5
10
28.858000
20
0.375000
30
8.992000
70
192
0
VERTEX
8
OBJECT__5
10
34.799999
20
3.905000
30
8.109000
70
192
0
VERTEX
8
OBJECT__5
10
28.625999
20
2.794000
30
8.555000
70
192
0
VERTEX
8
OBJECT__5
10
28.441000
20
3.608000
30
8.245000
70
192
0
VERTEX
8
OBJECT__5
10
22.799999
20
-7.947000
30
4.225000
70
192
0
VERTEX
8
OBJECT__5
10
0
20
0
30
0
70
128
71
1
72
2
73
3
0
VERTEX
8
OBJECT__5
10
0
20
0
30
0
70
128
71
4
72
5
73
2
0
VERTEX
8
OBJECT__5
10
0
20
0
30
0
70
128
71
6
72
7
73
5
0
VERTEX
8
OBJECT__5
10
0
20
0
30
0
70
128
71
6
72
8
73
9
0
VERTEX
8
OBJECT__5
10
0
20
0
30
0
70
128
71
8
72
10
73
9
0
VERTEX
8
OBJECT__5
10
0
20
0
30
0
70
128
71
11
72
12
73
13
0
VERTEX
8
OBJECT__5
10
0
20
0
30
0
70
128
71
14
72
15
73
12
0
VERTEX
8
OBJECT__5
10
0
20
0
30
0
70
128
71
16
72
17
73
15
0
VERTEX
8
OBJECT__5
10
0
20
0
30
0
70
128
71
18
72
3
73
17
0
VERTEX
8
OBJECT__5
10
0
20
0
30
0
70
128
71
19
72
20
73
21
0
VERTEX
8
OBJECT__5
10
0
20
0
30
0
70
128
71
20
72
22
73
21
0
VERTEX
8
OBJECT__5
10
0
20
0
30
0
70
128
71
21
72
23
73
19
0
VERTEX
8
OBJECT__5
10
0
20
0
30
0
70
128
71
23
72
24
73
19
0
VERTEX
8
OBJECT__5
10
0
20
0
30
0
70
128
71
25
72
26
73
27
0
VERTEX
8
OBJECT__5
10
0
20
0
30
0
70
128
71
25
72
19
73
28
0
VERTEX
8
OBJECT__5
10
0
20
0
30
0
70
128
71
28
72
29
73
25
0
VERTEX
8
OBJECT__5
10
0
20
0
30
0
70
128
71
29
72
30
73
25
0
VERTEX
8
OBJECT__5
10
0
20
0
30
0
70
128
71
30
72
26
73
25
0
VERTEX
8
OBJECT__5
10
0
20
0
30
0
70
128
71
31
72
32
73
33
0
VERTEX
8
OBJECT__5
10
0
20
0
30
0
70
128
71
13
72
34
73
32
0
VERTEX
8
OBJECT__5
10
0
20
0
30
0
70
128
71
13
72
25
73
35
0
VERTEX
8
OBJECT__5
10
0
20
0
30
0
70
128
71
35
72
36
73
13
0
VERTEX
8
OBJECT__5
10
0
20
0
30
0
70
128
71
36
72
34
73
13
0
VERTEX
8
OBJECT__5
10
0
20
0
30
0
70
128
71
32
72
31
73
13
0
VERTEX
8
OBJECT__5
10
0
20
0
30
0
70
128
71
10
72
37
73
38
0
VERTEX
8
OBJECT__5
10
0
20
0
30
0
70
128
71
10
72
8
73
39
0
VERTEX
8
OBJECT__5
10
0
20
0
30
0
70
128
71
39
72
37
73
10
0
VERTEX
8
OBJECT__5
10
0
20
0
30
0
70
128
71
8
72
40
73
41
0
VERTEX
8
OBJECT__5
10
0
20
0
30
0
70
128
71
41
72
39
73
8
0
VERTEX
8
OBJECT__5
10
0
20
0
30
0
70
128
71
42
72
43
73
44
0
VERTEX
8
OBJECT__5
10
0
20
0
30
0
70
128
71
42
72
45
73
43
0
VERTEX
8
OBJECT__5
10
0
20
0
30
0
70
128
71
42
72
46
73
45
0
VERTEX
8
OBJECT__5
10
0
20
0
30
0
70
128
71
42
72
47
73
48
0
VERTEX
8
OBJECT__5
10
0
20
0
30
0
70
128
71
48
72
46
73
42
0
VERTEX
8
OBJECT__5
10
0
20
0
30
0
70
128
71
42
72
38
73
47
0
VERTEX
8
OBJECT__5
10
0
20
0
30
0
70
128
71
20
72
49
73
50
0
VERTEX
8
OBJECT__5
10
0
20
0
30
0
70
128
71
51
72
52
73
49
0
VERTEX
8
OBJECT__5
10
0
20
0
30
0
70
128
71
49
72
20
73
51
0
VERTEX
8
OBJECT__5
10
0
20
0
30
0
70
128
71
51
72
53
73
52
0
VERTEX
8
OBJECT__5
10
0
20
0
30
0
70
128
71
51
72
44
73
53
0
VERTEX
8
OBJECT__5
10
0
20
0
30
0
70
128
71
50
72
22
73
20
0
VERTEX
8
OBJECT__5
10
0
20
0
30
0
70
128
71
44
72
51
73
42
0
VERTEX
8
OBJECT__5
10
0
20
0
30
0
70
128
71
38
72
42
73
10
0
VERTEX
8
OBJECT__5
10
0
20
0
30
0
70
128
71
33
72
54
73
31
0
VERTEX
8
OBJECT__5
10
0
20
0
30
0
70
128
71
27
72
35
73
25
0
VERTEX
8
OBJECT__5
10
0
20
0
30
0
70
128
71
24
72
28
73
19
0
VERTEX
8
OBJECT__5
10
0
20
0
30
0
70
128
71
17
72
16
73
18
0
VERTEX
8
OBJECT__5
10
0
20
0
30
0
70
128
71
15
72
14
73
16
0
VERTEX
8
OBJECT__5
10
0
20
0
30
0
70
128
71
12
72
11
73
14
0
VERTEX
8
OBJECT__5
10
0
20
0
30
0
70
128
71
13
72
31
73
11
0
VERTEX
8
OBJECT__5
10
0
20
0
30
0
70
128
71
9
72
7
73
6
0
VERTEX
8
OBJECT__5
10
0
20
0
30
0
70
128
71
5
72
4
73
6
0
VERTEX
8
OBJECT__5
10
0
20
0
30
0
70
128
71
2
72
1
73
4
0
VERTEX
8
OBJECT__5
10
0
20
0
30
0
70
128
71
3
72
18
73
1
0
SEQEND
8
OBJECT__5
0
POLYLINE
8
OBJECT__7
66
1
70
64
71
21
72
19
62
253
0
VERTEX
8
OBJECT__7
10
22.799999
20
7.376000
30
4.225000
70
192
0
VERTEX
8
OBJECT__7
10
22.799999
20
7.947000
30
4.225000
70
192
0
VERTEX
8
OBJECT__7
10
22.799999
20
8.774000
30
2.003000
70
192
0
VERTEX
8
OBJECT__7
10
22.799999
20
8.774000
30
-2.003000
70
192
0
VERTEX
8
OBJECT__7
10
22.799999
20
7.845000
30
-3.272000
70
192
0
VERTEX
8
OBJECT__7
10
22.799999
20
8.476000
30
0.637000
70
192
0
VERTEX
8
OBJECT__7
10
22.799999
20
7.036000
30
-5.611000
70
192
0
VERTEX
8
OBJECT__7
10
22.799999
20
5.511000
30
-6.472000
70
192
0
VERTEX
8
OBJECT__7
10
22.799999
20
0.000000
30
-9.000000
70
192
0
VERTEX
8
OBJECT__7
10
22.799999
20
-1.980000
30
-8.266000
70
192
0
VERTEX
8
OBJECT__7
10
22.799999
20
1.980000
30
-8.266000
70
192
0
VERTEX
8
OBJECT__7
10
22.799999
20
3.905000
30
-8.109000
70
192
0
VERTEX
8
OBJECT__7
10
22.799999
20
-3.905000
30
-8.109000
70
192
0
VERTEX
8
OBJECT__7
10
22.799999
20
-7.036000
30
-5.611000
70
192
0
VERTEX
8
OBJECT__7
10
22.799999
20
-5.511000
30
-6.472000
70
192
0
VERTEX
8
OBJECT__7
10
22.799999
20
-8.774000
30
-2.003000
70
192
0
VERTEX
8
OBJECT__7
10
22.799999
20
-8.774000
30
2.003000
70
192
0
VERTEX
8
OBJECT__7
10
22.799999
20
-8.476000
30
0.637000
70
192
0
VERTEX
8
OBJECT__7
10
22.799999
20
-7.376000
30
4.225000
70
192
0
VERTEX
8
OBJECT__7
10
22.799999
20
-7.845000
30
-3.272000
70
192
0
VERTEX
8
OBJECT__7
10
22.799999
20
-7.947000
30
4.225000
70
192
0
VERTEX
8
OBJECT__7
10
0
20
0
30
0
70
128
71
1
72
2
73
3
0
VERTEX
8
OBJECT__7
10
0
20
0
30
0
70
128
71
4
72
5
73
6
0
VERTEX
8
OBJECT__7
10
0
20
0
30
0
70
128
71
6
72
3
73
4
0
VERTEX
8
OBJECT__7
10
0
20
0
30
0
70
128
71
7
72
8
73
5
0
VERTEX
8
OBJECT__7
10
0
20
0
30
0
70
128
71
9
72
10
73
11
0
VERTEX
8
OBJECT__7
10
0
20
0
30
0
70
128
71
5
72
4
73
7
0
VERTEX
8
OBJECT__7
10
0
20
0
30
0
70
128
71
12
72
11
73
8
0
VERTEX
8
OBJECT__7
10
0
20
0
30
0
70
128
71
9
72
13
73
10
0
VERTEX
8
OBJECT__7
10
0
20
0
30
0
70
128
71
13
72
14
73
15
0
VERTEX
8
OBJECT__7
10
0
20
0
30
0
70
128
71
16
72
17
73
18
0
VERTEX
8
OBJECT__7
10
0
20
0
30
0
70
128
71
19
72
18
73
17
0
VERTEX
8
OBJECT__7
10
0
20
0
30
0
70
128
71
8
72
7
73
12
0
VERTEX
8
OBJECT__7
10
0
20
0
30
0
70
128
71
15
72
10
73
13
0
VERTEX
8
OBJECT__7
10
0
20
0
30
0
70
128
71
14
72
16
73
20
0
VERTEX
8
OBJECT__7
10
0
20
0
30
0
70
128
71
17
72
21
73
19
0
VERTEX
8
OBJECT__7
10
0
20
0
30
0
70
128
71
11
72
12
73
9
0
VERTEX
8
OBJECT__7
10
0
20
0
30
0
70
128
71
18
72
20
73
16
0
VERTEX
8
OBJECT__7
10
0
20
0
30
0
70
128
71
20
72
15
73
14
0
VERTEX
8
OBJECT__7
10
0
20
0
30
0
70
128
71
3
72
6
73
1
0
SEQEND
8
OBJECT__7
0
POLYLINE
8
OBJECT__8
66
1
70
64
71
20
72
18
62
253
0
VERTEX
8
OBJECT__8
10
22.799999
20
7.845000
30
-3.272000
70
192
0
VERTEX
8
OBJECT__8
10
21.799999
20
7.845000
30
-3.272000
70
192
0
VERTEX
8
OBJECT__8
10
21.799999
20
8.476000
30
0.637000
70
192
0
VERTEX
8
OBJECT__8
10
22.799999
20
5.511000
30
-6.472000
70
192
0
VERTEX
8
OBJECT__8
10
21.799999
20
5.511000
30
-6.472000
70
192
0
VERTEX
8
OBJECT__8
10
22.799999
20
1.980000
30
-8.266000
70
192
0
VERTEX
8
OBJECT__8
10
21.799999
20
1.980000
30
-8.266000
70
192
0
VERTEX
8
OBJECT__8
10
22.799999
20
-1.980000
30
-8.266000
70
192
0
VERTEX
8
OBJECT__8
10
21.799999
20
-1.980000
30
-8.266000
70
192
0
VERTEX
8
OBJECT__8
10
22.799999
20
-5.511000
30
-6.472000
70
192
0
VERTEX
8
OBJECT__8
10
21.799999
20
-5.511000
30
-6.472000
70
192
0
VERTEX
8
OBJECT__8
10
22.799999
20
-7.845000
30
-3.272000
70
192
0
VERTEX
8
OBJECT__8
10
21.799999
20
-7.845000
30
-3.272000
70
192
0
VERTEX
8
OBJECT__8
10
22.799999
20
-8.476000
30
0.637000
70
192
0
VERTEX
8
OBJECT__8
10
21.799999
20
-8.476000
30
0.637000
70
192
0
VERTEX
8
OBJECT__8
10
22.799999
20
-7.376000
30
4.225000
70
192
0
VERTEX
8
OBJECT__8
10
21.799999
20
-7.470000
30
4.056000
70
192
0
VERTEX
8
OBJECT__8
10
22.799999
20
8.476000
30
0.637000
70
192
0
VERTEX
8
OBJECT__8
10
21.799999
20
7.470000
30
4.056000
70
192
0
VERTEX
8
OBJECT__8
10
22.799999
20
7.376000
30
4.225000
70
192
0
VERTEX
8
OBJECT__8
10
0
20
0
30
0
70
128
71
1
72
2
73
3
0
VERTEX
8
OBJECT__8
10
0
20
0
30
0
70
128
71
4
72
5
73
2
0
VERTEX
8
OBJECT__8
10
0
20
0
30
0
70
128
71
6
72
7
73
5
0
VERTEX
8
OBJECT__8
10
0
20
0
30
0
70
128
71
8
72
9
73
7
0
VERTEX
8
OBJECT__8
10
0
20
0
30
0
70
128
71
10
72
11
73
9
0
VERTEX
8
OBJECT__8
10
0
20
0
30
0
70
128
71
12
72
13
73
11
0
VERTEX
8
OBJECT__8
10
0
20
0
30
0
70
128
71
14
72
15
73
13
0
VERTEX
8
OBJECT__8
10
0
20
0
30
0
70
128
71
14
72
16
73
17
0
VERTEX
8
OBJECT__8
10
0
20
0
30
0
70
128
71
18
72
3
73
19
0
VERTEX
8
OBJECT__8
10
0
20
0
30
0
70
128
71
19
72
20
73
18
0
VERTEX
8
OBJECT__8
10
0
20
0
30
0
70
128
71
17
72
15
73
14
0
VERTEX
8
OBJECT__8
10
0
20
0
30
0
70
128
71
13
72
12
73
14
0
VERTEX
8
OBJECT__8
10
0
20
0
30
0
70
128
71
11
72
10
73
12
0
VERTEX
8
OBJECT__8
10
0
20
0
30
0
70
128
71
9
72
8
73
10
0
VERTEX
8
OBJECT__8
10
0
20
0
30
0
70
128
71
7
72
6
73
8
0
VERTEX
8
OBJECT__8
10
0
20
0
30
0
70
128
71
5
72
4
73
6
0
VERTEX
8
OBJECT__8
10
0
20
0
30
0
70
128
71
2
72
1
73
4
0
VERTEX
8
OBJECT__8
10
0
20
0
30
0
70
128
71
3
72
18
73
1
0
SEQEND
8
OBJECT__8
0
POLYLINE
8
OBJECT__9
66
1
70
64
71
20
72
18
62
253
0
VERTEX
8
OBJECT__9
10
21.799999
20
-8.034000
30
4.056000
70
192
0
VERTEX
8
OBJECT__9
10
21.799999
20
-8.995000
30
0.302000
70
192
0
VERTEX
8
OBJECT__9
10
21.799999
20
-8.476000
30
0.637000
70
192
0
VERTEX
8
OBJECT__9
10
21.799999
20
-8.200000
30
-3.710000
70
192
0
VERTEX
8
OBJECT__9
10
21.799999
20
-7.845000
30
-3.272000
70
192
0
VERTEX
8
OBJECT__9
10
21.799999
20
-5.712000
30
-6.955000
70
192
0
VERTEX
8
OBJECT__9
10
21.799999
20
-5.511000
30
-6.472000
70
192
0
VERTEX
8
OBJECT__9
10
21.799999
20
-2.045000
30
-8.765000
70
192
0
VERTEX
8
OBJECT__9
10
21.799999
20
-1.980000
30
-8.266000
70
192
0
VERTEX
8
OBJECT__9
10
21.799999
20
2.045000
30
-8.765000
70
192
0
VERTEX
8
OBJECT__9
10
21.799999
20
1.980000
30
-8.266000
70
192
0
VERTEX
8
OBJECT__9
10
21.799999
20
5.712000
30
-6.955000
70
192
0
VERTEX
8
OBJECT__9
10
21.799999
20
5.511000
30
-6.472000
70
192
0
VERTEX
8
OBJECT__9
10
21.799999
20
8.200000
30
-3.710000
70
192
0
VERTEX
8
OBJECT__9
10
21.799999
20
7.845000
30
-3.272000
70
192
0
VERTEX
8
OBJECT__9
10
21.799999
20
8.995000
30
0.302000
70
192
0
VERTEX
8
OBJECT__9
10
21.799999
20
8.476000
30
0.637000
70
192
0
VERTEX
8
OBJECT__9
10
21.799999
20
8.034000
30
4.056000
70
192
0
VERTEX
8
OBJECT__9
10
21.799999
20
7.470000
30
4.056000
70
192
0
VERTEX
8
OBJECT__9
10
21.799999
20
-7.470000
30
4.056000
70
192
0
VERTEX
8
OBJECT__9
10
0
20
0
30
0
70
128
71
1
72
2
73
3
0
VERTEX
8
OBJECT__9
10
0
20
0
30
0
70
128
71
2
72
4
73
5
0
VERTEX
8
OBJECT__9
10
0
20
0
30
0
70
128
71
5
72
3
73
2
0
VERTEX
8
OBJECT__9
10
0
20
0
30
0
70
128
71
4
72
6
73
7
0
VERTEX
8
OBJECT__9
10
0
20
0
30
0
70
128
71
6
72
8
73
9
0
VERTEX
8
OBJECT__9
10
0
20
0
30
0
70
128
71
10
72
11
73
9
0
VERTEX
8
OBJECT__9
10
0
20
0
30
0
70
128
71
12
72
13
73
11
0
VERTEX
8
OBJECT__9
10
0
20
0
30
0
70
128
71
14
72
15
73
13
0
VERTEX
8
OBJECT__9
10
0
20
0
30
0
70
128
71
16
72
17
73
15
0
VERTEX
8
OBJECT__9
10
0
20
0
30
0
70
128
71
18
72
19
73
17
0
VERTEX
8
OBJECT__9
10
0
20
0
30
0
70
128
71
7
72
5
73
4
0
VERTEX
8
OBJECT__9
10
0
20
0
30
0
70
128
71
9
72
8
73
10
0
VERTEX
8
OBJECT__9
10
0
20
0
30
0
70
128
71
13
72
12
73
14
0
VERTEX
8
OBJECT__9
10
0
20
0
30
0
70
128
71
17
72
16
73
18
0
VERTEX
8
OBJECT__9
10
0
20
0
30
0
70
128
71
9
72
7
73
6
0
VERTEX
8
OBJECT__9
10
0
20
0
30
0
70
128
71
15
72
14
73
16
0
VERTEX
8
OBJECT__9
10
0
20
0
30
0
70
128
71
11
72
10
73
12
0
VERTEX
8
OBJECT__9
10
0
20
0
30
0
70
128
71
3
72
20
73
1
0
SEQEND
8
OBJECT__9
0
POLYLINE
8
OBJECT__10
66
1
70
64
71
22
72
20
62
253
0
VERTEX
8
OBJECT__10
10
19.799999
20
-8.200000
30
-3.710000
70
192
0
VERTEX
8
OBJECT__10
10
21.799999
20
-8.200000
30
-3.710000
70
192
0
VERTEX
8
OBJECT__10
10
21.799999
20
-8.995000
30
0.302000
70
192
0
VERTEX
8
OBJECT__10
10
19.799999
20
-5.712000
30
-6.955000
70
192
0
VERTEX
8
OBJECT__10
10
21.799999
20
-5.712000
30
-6.955000
70
192
0
VERTEX
8
OBJECT__10
10
19.799999
20
-2.045000
30
-8.765000
70
192
0
VERTEX
8
OBJECT__10
10
21.799999
20
-2.045000
30
-8.765000
70
192
0
VERTEX
8
OBJECT__10
10
19.799999
20
2.045000
30
-8.765000
70
192
0
VERTEX
8
OBJECT__10
10
21.799999
20
2.045000
30
-8.765000
70
192
0
VERTEX
8
OBJECT__10
10
19.799999
20
5.712000
30
-6.955000
70
192
0
VERTEX
8
OBJECT__10
10
21.799999
20
5.712000
30
-6.955000
70
192
0
VERTEX
8
OBJECT__10
10
19.799999
20
8.200000
30
-3.710000
70
192
0
VERTEX
8
OBJECT__10
10
21.799999
20
8.200000
30
-3.710000
70
192
0
VERTEX
8
OBJECT__10
10
19.799999
20
8.995000
30
0.302000
70
192
0
VERTEX
8
OBJECT__10
10
21.799999
20
8.995000
30
0.302000
70
192
0
VERTEX
8
OBJECT__10
10
19.799999
20
8.034000
30
4.056000
70
192
0
VERTEX
8
OBJECT__10
10
21.273001
20
8.056000
30
4.012000
70
192
0
VERTEX
8
OBJECT__10
10
21.799999
20
-8.034000
30
4.056000
70
192
0
VERTEX
8
OBJECT__10
10
20.327000
20
-8.056000
30
4.012000
70
192
0
VERTEX
8
OBJECT__10
10
19.799999
20
-8.995000
30
0.302000
70
192
0
VERTEX
8
OBJECT__10
10
19.799999
20
-8.034000
30
4.056000
70
192
0
VERTEX
8
OBJECT__10
10
21.799999
20
8.034000
30
4.056000
70
192
0
VERTEX
8
OBJECT__10
10
0
20
0
30
0
70
128
71
1
72
2
73
3
0
VERTEX
8
OBJECT__10
10
0
20
0
30
0
70
128
71
4
72
5
73
2
0
VERTEX
8
OBJECT__10
10
0
20
0
30
0
70
128
71
6
72
7
73
5
0
VERTEX
8
OBJECT__10
10
0
20
0
30
0
70
128
71
8
72
9
73
7
0
VERTEX
8
OBJECT__10
10
0
20
0
30
0
70
128
71
10
72
11
73
9
0
VERTEX
8
OBJECT__10
10
0
20
0
30
0
70
128
71
12
72
13
73
11
0
VERTEX
8
OBJECT__10
10
0
20
0
30
0
70
128
71
14
72
15
73
13
0
VERTEX
8
OBJECT__10
10
0
20
0
30
0
70
128
71
14
72
16
73
17
0
VERTEX
8
OBJECT__10
10
0
20
0
30
0
70
128
71
17
72
15
73
14
0
VERTEX
8
OBJECT__10
10
0
20
0
30
0
70
128
71
3
72
18
73
19
0
VERTEX
8
OBJECT__10
10
0
20
0
30
0
70
128
71
19
72
20
73
3
0
VERTEX
8
OBJECT__10
10
0
20
0
30
0
70
128
71
19
72
21
73
20
0
VERTEX
8
OBJECT__10
10
0
20
0
30
0
70
128
71
17
72
22
73
15
0
VERTEX
8
OBJECT__10
10
0
20
0
30
0
70
128
71
13
72
12
73
14
0
VERTEX
8
OBJECT__10
10
0
20
0
30
0
70
128
71
11
72
10
73
12
0
VERTEX
8
OBJECT__10
10
0
20
0
30
0
70
128
71
9
72
8
73
10
0
VERTEX
8
OBJECT__10
10
0
20
0
30
0
70
128
71
7
72
6
73
8
0
VERTEX
8
OBJECT__10
10
0
20
0
30
0
70
128
71
5
72
4
73
6
0
VERTEX
8
OBJECT__10
10
0
20
0
30
0
70
128
71
2
72
1
73
4
0
VERTEX
8
OBJECT__10
10
0
20
0
30
0
70
128
71
3
72
20
73
1
0
SEQEND
8
OBJECT__10
0
POLYLINE
8
OBJECT__11
66
1
70
64
71
20
72
18
62
253
0
VERTEX
8
OBJECT__11
10
19.799999
20
8.034000
30
4.056000
70
192
0
VERTEX
8
OBJECT__11
10
19.799999
20
8.995000
30
0.302000
70
192
0
VERTEX
8
OBJECT__11
10
19.799999
20
8.476000
30
0.637000
70
192
0
VERTEX
8
OBJECT__11
10
19.799999
20
8.200000
30
-3.710000
70
192
0
VERTEX
8
OBJECT__11
10
19.799999
20
7.845000
30
-3.272000
70
192
0
VERTEX
8
OBJECT__11
10
19.799999
20
2.045000
30
-8.765000
70
192
0
VERTEX
8
OBJECT__11
10
19.799999
20
-2.045000
30
-8.765000
70
192
0
VERTEX
8
OBJECT__11
10
19.799999
20
-1.980000
30
-8.266000
70
192
0
VERTEX
8
OBJECT__11
10
19.799999
20
-5.712000
30
-6.955000
70
192
0
VERTEX
8
OBJECT__11
10
19.799999
20
-5.511000
30
-6.472000
70
192
0
VERTEX
8
OBJECT__11
10
19.799999
20
5.712000
30
-6.955000
70
192
0
VERTEX
8
OBJECT__11
10
19.799999
20
5.511000
30
-6.472000
70
192
0
VERTEX
8
OBJECT__11
10
19.799999
20
-8.200000
30
-3.710000
70
192
0
VERTEX
8
OBJECT__11
10
19.799999
20
-7.845000
30
-3.272000
70
192
0
VERTEX
8
OBJECT__11
10
19.799999
20
-8.995000
30
0.302000
70
192
0
VERTEX
8
OBJECT__11
10
19.799999
20
-8.476000
30
0.637000
70
192
0
VERTEX
8
OBJECT__11
10
19.799999
20
-8.034000
30
4.056000
70
192
0
VERTEX
8
OBJECT__11
10
19.799999
20
-7.470000
30
4.056000
70
192
0
VERTEX
8
OBJECT__11
10
19.799999
20
1.980000
30
-8.266000
70
192
0
VERTEX
8
OBJECT__11
10
19.799999
20
7.470000
30
4.056000
70
192
0
VERTEX
8
OBJECT__11
10
0
20
0
30
0
70
128
71
1
72
2
73
3
0
VERTEX
8
OBJECT__11
10
0
20
0
30
0
70
128
71
2
72
4
73
5
0
VERTEX
8
OBJECT__11
10
0
20
0
30
0
70
128
71
6
72
7
73
8
0
VERTEX
8
OBJECT__11
10
0
20
0
30
0
70
128
71
9
72
10
73
8
0
VERTEX
8
OBJECT__11
10
0
20
0
30
0
70
128
71
5
72
3
73
2
0
VERTEX
8
OBJECT__11
10
0
20
0
30
0
70
128
71
4
72
11
73
12
0
VERTEX
8
OBJECT__11
10
0
20
0
30
0
70
128
71
8
72
7
73
9
0
VERTEX
8
OBJECT__11
10
0
20
0
30
0
70
128
71
13
72
14
73
10
0
VERTEX
8
OBJECT__11
10
0
20
0
30
0
70
128
71
15
72
16
73
14
0
VERTEX
8
OBJECT__11
10
0
20
0
30
0
70
128
71
17
72
18
73
16
0
VERTEX
8
OBJECT__11
10
0
20
0
30
0
70
128
71
12
72
5
73
4
0
VERTEX
8
OBJECT__11
10
0
20
0
30
0
70
128
71
11
72
6
73
19
0
VERTEX
8
OBJECT__11
10
0
20
0
30
0
70
128
71
10
72
9
73
13
0
VERTEX
8
OBJECT__11
10
0
20
0
30
0
70
128
71
16
72
15
73
17
0
VERTEX
8
OBJECT__11
10
0
20
0
30
0
70
128
71
19
72
12
73
11
0
VERTEX
8
OBJECT__11
10
0
20
0
30
0
70
128
71
14
72
13
73
15
0
VERTEX
8
OBJECT__11
10
0
20
0
30
0
70
128
71
8
72
19
73
6
0
VERTEX
8
OBJECT__11
10
0
20
0
30
0
70
128
71
3
72
20
73
1
0
SEQEND
8
OBJECT__11
0
POLYLINE
8
OBJECT__12
66
1
70
64
71
20
72
18
62
253
0
VERTEX
8
OBJECT__12
10
19.799999
20
7.845000
30
-3.272000
70
192
0
VERTEX
8
OBJECT__12
10
18.799999
20
7.845000
30
-3.272000
70
192
0
VERTEX
8
OBJECT__12
10
18.799999
20
8.476000
30
0.637000
70
192
0
VERTEX
8
OBJECT__12
10
19.799999
20
5.511000
30
-6.472000
70
192
0
VERTEX
8
OBJECT__12
10
18.799999
20
5.511000
30
-6.472000
70
192
0
VERTEX
8
OBJECT__12
10
19.799999
20
1.980000
30
-8.266000
70
192
0
VERTEX
8
OBJECT__12
10
18.799999
20
1.980000
30
-8.266000
70
192
0
VERTEX
8
OBJECT__12
10
19.799999
20
-1.980000
30
-8.266000
70
192
0
VERTEX
8
OBJECT__12
10
18.799999
20
-1.980000
30
-8.266000
70
192
0
VERTEX
8
OBJECT__12
10
19.799999
20
-5.511000
30
-6.472000
70
192
0
VERTEX
8
OBJECT__12
10
18.799999
20
-5.511000
30
-6.472000
70
192
0
VERTEX
8
OBJECT__12
10
19.799999
20
-7.845000
30
-3.272000
70
192
0
VERTEX
8
OBJECT__12
10
18.799999
20
-7.845000
30
-3.272000
70
192
0
VERTEX
8
OBJECT__12
10
19.799999
20
-8.476000
30
0.637000
70
192
0
VERTEX
8
OBJECT__12
10
18.799999
20
-8.476000
30
0.637000
70
192
0
VERTEX
8
OBJECT__12
10
19.799999
20
-7.470000
30
4.056000
70
192
0
VERTEX
8
OBJECT__12
10
18.799999
20
7.376000
30
4.225000
70
192
0
VERTEX
8
OBJECT__12
10
19.799999
20
7.470000
30
4.056000
70
192
0
VERTEX
8
OBJECT__12
10
19.799999
20
8.476000
30
0.637000
70
192
0
VERTEX
8
OBJECT__12
10
18.799999
20
-7.376000
30
4.225000
70
192
0
VERTEX
8
OBJECT__12
10
0
20
0
30
0
70
128
71
1
72
2
73
3
0
VERTEX
8
OBJECT__12
10
0
20
0
30
0
70
128
71
4
72
5
73
2
0
VERTEX
8
OBJECT__12
10
0
20
0
30
0
70
128
71
6
72
7
73
5
0
VERTEX
8
OBJECT__12
10
0
20
0
30
0
70
128
71
8
72
9
73
7
0
VERTEX
8
OBJECT__12
10
0
20
0
30
0
70
128
71
10
72
11
73
9
0
VERTEX
8
OBJECT__12
10
0
20
0
30
0
70
128
71
12
72
13
73
11
0
VERTEX
8
OBJECT__12
10
0
20
0
30
0
70
128
71
14
72
15
73
13
0
VERTEX
8
OBJECT__12
10
0
20
0
30
0
70
128
71
15
72
14
73
16
0
VERTEX
8
OBJECT__12
10
0
20
0
30
0
70
128
71
3
72
17
73
18
0
VERTEX
8
OBJECT__12
10
0
20
0
30
0
70
128
71
18
72
19
73
3
0
VERTEX
8
OBJECT__12
10
0
20
0
30
0
70
128
71
16
72
20
73
15
0
VERTEX
8
OBJECT__12
10
0
20
0
30
0
70
128
71
13
72
12
73
14
0
VERTEX
8
OBJECT__12
10
0
20
0
30
0
70
128
71
11
72
10
73
12
0
VERTEX
8
OBJECT__12
10
0
20
0
30
0
70
128
71
9
72
8
73
10
0
VERTEX
8
OBJECT__12
10
0
20
0
30
0
70
128
71
7
72
6
73
8
0
VERTEX
8
OBJECT__12
10
0
20
0
30
0
70
128
71
5
72
4
73
6
0
VERTEX
8
OBJECT__12
10
0
20
0
30
0
70
128
71
2
72
1
73
4
0
VERTEX
8
OBJECT__12
10
0
20
0
30
0
70
128
71
3
72
19
73
1
0
SEQEND
8
OBJECT__12
0
POLYLINE
8
OBJECT__13
66
1
70
64
71
76
72
76
62
253
0
VERTEX
8
OBJECT__13
10
28.351000
20
-3.903000
30
8.106000
70
192
0
VERTEX
8
OBJECT__13
10
28.337000
20
3.896000
30
8.093000
70
192
0
VERTEX
8
OBJECT__13
10
28.014999
20
4.788000
30
7.621000
70
192
0
VERTEX
8
OBJECT__13
10
27.605000
20
5.518000
30
7.110000
70
192
0
VERTEX
8
OBJECT__13
10
26.871000
20
6.372000
30
6.356000
70
192
0
VERTEX
8
OBJECT__13
10
28.858000
20
0.375000
30
8.992000
70
192
0
VERTEX
8
OBJECT__13
10
28.808001
20
1.386000
30
8.893000
70
192
0
VERTEX
8
OBJECT__13
10
28.625999
20
2.794000
30
8.555000
70
192
0
VERTEX
8
OBJECT__13
10
28.441000
20
3.608000
30
8.245000
70
192
0
VERTEX
8
OBJECT__13
10
28.620001
20
-1.952000
30
8.545000
70
192
0
VERTEX
8
OBJECT__13
10
28.370001
20
-3.854000
30
8.133000
70
192
0
VERTEX
8
OBJECT__13
10
28.665001
20
-2.572000
30
8.625000
70
192
0
VERTEX
8
OBJECT__13
10
28.802000
20
-1.458000
30
8.881000
70
192
0
VERTEX
8
OBJECT__13
10
28.862000
20
0.000000
30
9.000000
70
192
0
VERTEX
8
OBJECT__13
10
26.410000
20
6.715000
30
5.978000
70
192
0
VERTEX
8
OBJECT__13
10
27.372999
20
-5.836000
30
6.852000
70
192
0
VERTEX
8
OBJECT__13
10
27.980000
20
-4.863000
30
7.573000
70
192
0
VERTEX
8
OBJECT__13
10
26.708000
20
-6.514000
30
6.211000
70
192
0
VERTEX
8
OBJECT__13
10
26.407000
20
-6.709000
30
5.983000
70
192
0
VERTEX
8
OBJECT__13
10
22.805000
20
-7.946000
30
4.227000
70
192
0
VERTEX
8
OBJECT__13
10
25.908001
20
7.031000
30
5.608000
70
192
0
VERTEX
8
OBJECT__13
10
25.055000
20
7.437000
30
5.069000
70
192
0
VERTEX
8
OBJECT__13
10
24.139000
20
7.710000
30
4.642000
70
192
0
VERTEX
8
OBJECT__13
10
25.910999
20
-7.031000
30
5.607000
70
192
0
VERTEX
8
OBJECT__13
10
26.124001
20
6.929000
30
5.744000
70
192
0
VERTEX
8
OBJECT__13
10
24.990999
20
-7.460000
30
5.035000
70
192
0
VERTEX
8
OBJECT__13
10
25.743000
20
-7.140000
30
5.479000
70
192
0
VERTEX
8
OBJECT__13
10
23.723000
20
-7.801000
30
4.488000
70
192
0
VERTEX
8
OBJECT__13
10
22.805000
20
7.946000
30
4.227000
70
192
0
VERTEX
8
OBJECT__13
10
22.799999
20
-7.376000
30
4.225000
70
192
0
VERTEX
8
OBJECT__13
10
18.795000
20
7.946000
30
4.227000
70
192
0
VERTEX
8
OBJECT__13
10
18.795000
20
-7.946000
30
4.227000
70
192
0
VERTEX
8
OBJECT__13
10
18.799999
20
7.376000
30
4.225000
70
192
0
VERTEX
8
OBJECT__13
10
19.799999
20
7.470000
30
4.056000
70
192
0
VERTEX
8
OBJECT__13
10
21.799999
20
7.470000
30
4.056000
70
192
0
VERTEX
8
OBJECT__13
10
21.273001
20
8.056000
30
4.012000
70
192
0
VERTEX
8
OBJECT__13
10
21.799999
20
8.034000
30
4.056000
70
192
0
VERTEX
8
OBJECT__13
10
22.799999
20
7.376000
30
4.225000
70
192
0
VERTEX
8
OBJECT__13
10
21.799999
20
-7.470000
30
4.056000
70
192
0
VERTEX
8
OBJECT__13
10
19.799999
20
-7.470000
30
4.056000
70
192
0
VERTEX
8
OBJECT__13
10
20.327000
20
-8.056000
30
4.012000
70
192
0
VERTEX
8
OBJECT__13
10
19.799999
20
-8.034000
30
4.056000
70
192
0
VERTEX
8
OBJECT__13
10
18.799999
20
-7.376000
30
4.225000
70
192
0
VERTEX
8
OBJECT__13
10
21.799999
20
-8.034000
30
4.056000
70
192
0
VERTEX
8
OBJECT__13
10
19.799999
20
8.034000
30
4.056000
70
192
0
VERTEX
8
OBJECT__13
10
22.799999
20
7.947000
30
4.225000
70
192
0
VERTEX
8
OBJECT__13
10
18.799999
20
7.947000
30
4.225000
70
192
0
VERTEX
8
OBJECT__13
10
18.799999
20
-7.947000
30
4.225000
70
192
0
VERTEX
8
OBJECT__13
10
22.799999
20
-7.947000
30
4.225000
70
192
0
VERTEX
8
OBJECT__13
10
15.692000
20
-7.031000
30
5.608000
70
192
0
VERTEX
8
OBJECT__13
10
16.545000
20
-7.437000
30
5.069000
70
192
0
VERTEX
8
OBJECT__13
10
17.461000
20
-7.710000
30
4.642000
70
192
0
VERTEX
8
OBJECT__13
10
15.689000
20
7.031000
30
5.607000
70
192
0
VERTEX
8
OBJECT__13
10
15.193000
20
6.709000
30
5.983000
70
192
0
VERTEX
8
OBJECT__13
10
15.190000
20
-6.715000
30
5.978000
70
192
0
VERTEX
8
OBJECT__13
10
15.476000
20
-6.929000
30
5.744000
70
192
0
VERTEX
8
OBJECT__13
10
16.608999
20
7.460000
30
5.035000
70
192
0
VERTEX
8
OBJECT__13
10
15.857000
20
7.140000
30
5.479000
70
192
0
VERTEX
8
OBJECT__13
10
17.877001
20
7.801000
30
4.488000
70
192
0
VERTEX
8
OBJECT__13
10
13.249000
20
3.903000
30
8.106000
70
192
0
VERTEX
8
OBJECT__13
10
13.263000
20
-3.896000
30
8.093000
70
192
0
VERTEX
8
OBJECT__13
10
13.585000
20
-4.788000
30
7.621000
70
192
0
VERTEX
8
OBJECT__13
10
13.995000
20
-5.518000
30
7.110000
70
192
0
VERTEX
8
OBJECT__13
10
14.729000
20
-6.372000
30
6.356000
70
192
0
VERTEX
8
OBJECT__13
10
12.742000
20
-0.375000
30
8.992000
70
192
0
VERTEX
8
OBJECT__13
10
12.792000
20
-1.386000
30
8.893000
70
192
0
VERTEX
8
OBJECT__13
10
12.974000
20
-2.794000
30
8.555000
70
192
0
VERTEX
8
OBJECT__13
10
13.159000
20
-3.608000
30
8.245000
70
192
0
VERTEX
8
OBJECT__13
10
12.980000
20
1.952000
30
8.545000
70
192
0
VERTEX
8
OBJECT__13
10
13.230000
20
3.854000
30
8.133000
70
192
0
VERTEX
8
OBJECT__13
10
12.935000
20
2.572000
30
8.625000
70
192
0
VERTEX
8
OBJECT__13
10
12.798000
20
1.458000
30
8.881000
70
192
0
VERTEX
8
OBJECT__13
10
12.738000
20
0.000000
30
9.000000
70
192
0
VERTEX
8
OBJECT__13
10
14.227000
20
5.836000
30
6.852000
70
192
0
VERTEX
8
OBJECT__13
10
13.620000
20
4.863000
30
7.573000
70
192
0
VERTEX
8
OBJECT__13
10
14.892000
20
6.514000
30
6.211000
70
192
0
VERTEX
8
OBJECT__13
10
0
20
0
30
0
70
128
71
1
72
2
73
3
0
VERTEX
8
OBJECT__13
10
0
20
0
30
0
70
128
71
3
72
4
73
1
0
VERTEX
8
OBJECT__13
10
0
20
0
30
0
70
128
71
4
72
5
73
1
0
VERTEX
8
OBJECT__13
10
0
20
0
30
0
70
128
71
1
72
6
73
7
0
VERTEX
8
OBJECT__13
10
0
20
0
30
0
70
128
71
7
72
8
73
1
0
VERTEX
8
OBJECT__13
10
0
20
0
30
0
70
128
71
8
72
9
73
1
0
VERTEX
8
OBJECT__13
10
0
20
0
30
0
70
128
71
6
72
1
73
10
0
VERTEX
8
OBJECT__13
10
0
20
0
30
0
70
128
71
10
72
1
73
11
0
VERTEX
8
OBJECT__13
10
0
20
0
30
0
70
128
71
10
72
12
73
13
0
VERTEX
8
OBJECT__13
10
0
20
0
30
0
70
128
71
13
72
14
73
10
0
VERTEX
8
OBJECT__13
10
0
20
0
30
0
70
128
71
11
72
12
73
10
0
VERTEX
8
OBJECT__13
10
0
20
0
30
0
70
128
71
10
72
14
73
6
0
VERTEX
8
OBJECT__13
10
0
20
0
30
0
70
128
71
9
72
2
73
1
0
VERTEX
8
OBJECT__13
10
0
20
0
30
0
70
128
71
15
72
16
73
17
0
VERTEX
8
OBJECT__13
10
0
20
0
30
0
70
128
71
15
72
18
73
16
0
VERTEX
8
OBJECT__13
10
0
20
0
30
0
70
128
71
15
72
19
73
18
0
VERTEX
8
OBJECT__13
10
0
20
0
30
0
70
128
71
17
72
1
73
15
0
VERTEX
8
OBJECT__13
10
0
20
0
30
0
70
128
71
20
72
21
73
22
0
VERTEX
8
OBJECT__13
10
0
20
0
30
0
70
128
71
22
72
23
73
20
0
VERTEX
8
OBJECT__13
10
0
20
0
30
0
70
128
71
24
72
19
73
15
0
VERTEX
8
OBJECT__13
10
0
20
0
30
0
70
128
71
15
72
25
73
24
0
VERTEX
8
OBJECT__13
10
0
20
0
30
0
70
128
71
21
72
26
73
27
0
VERTEX
8
OBJECT__13
10
0
20
0
30
0
70
128
71
21
72
28
73
26
0
VERTEX
8
OBJECT__13
10
0
20
0
30
0
70
128
71
21
72
20
73
28
0
VERTEX
8
OBJECT__13
10
0
20
0
30
0
70
128
71
27
72
24
73
21
0
VERTEX
8
OBJECT__13
10
0
20
0
30
0
70
128
71
25
72
21
73
24
0
VERTEX
8
OBJECT__13
10
0
20
0
30
0
70
128
71
20
72
29
73
30
0
VERTEX
8
OBJECT__13
10
0
20
0
30
0
70
128
71
31
72
32
73
33
0
VERTEX
8
OBJECT__13
10
0
20
0
30
0
70
128
71
34
72
35
73
36
0
VERTEX
8
OBJECT__13
10
0
20
0
30
0
70
128
71
35
72
37
73
36
0
VERTEX
8
OBJECT__13
10
0
20
0
30
0
70
128
71
34
72
38
73
35
0
VERTEX
8
OBJECT__13
10
0
20
0
30
0
70
128
71
39
72
40
73
41
0
VERTEX
8
OBJECT__13
10
0
20
0
30
0
70
128
71
40
72
42
73
41
0
VERTEX
8
OBJECT__13
10
0
20
0
30
0
70
128
71
39
72
43
73
40
0
VERTEX
8
OBJECT__13
10
0
20
0
30
0
70
128
71
33
72
32
73
43
0
VERTEX
8
OBJECT__13
10
0
20
0
30
0
70
128
71
30
72
29
73
38
0
VERTEX
8
OBJECT__13
10
0
20
0
30
0
70
128
71
38
72
43
73
30
0
VERTEX
8
OBJECT__13
10
0
20
0
30
0
70
128
71
43
72
38
73
33
0
VERTEX
8
OBJECT__13
10
0
20
0
30
0
70
128
71
43
72
39
73
30
0
VERTEX
8
OBJECT__13
10
0
20
0
30
0
70
128
71
38
72
34
73
33
0
VERTEX
8
OBJECT__13
10
0
20
0
30
0
70
128
71
41
72
44
73
39
0
VERTEX
8
OBJECT__13
10
0
20
0
30
0
70
128
71
36
72
45
73
34
0
VERTEX
8
OBJECT__13
10
0
20
0
30
0
70
128
71
29
72
46
73
38
0
VERTEX
8
OBJECT__13
10
0
20
0
30
0
70
128
71
33
72
47
73
31
0
VERTEX
8
OBJECT__13
10
0
20
0
30
0
70
128
71
32
72
48
73
43
0
VERTEX
8
OBJECT__13
10
0
20
0
30
0
70
128
71
30
72
49
73
20
0
VERTEX
8
OBJECT__13
10
0
20
0
30
0
70
128
71
31
72
50
73
51
0
VERTEX
8
OBJECT__13
10
0
20
0
30
0
70
128
71
51
72
52
73
31
0
VERTEX
8
OBJECT__13
10
0
20
0
30
0
70
128
71
53
72
54
73
55
0
VERTEX
8
OBJECT__13
10
0
20
0
30
0
70
128
71
55
72
56
73
53
0
VERTEX
8
OBJECT__13
10
0
20
0
30
0
70
128
71
50
72
57
73
58
0
VERTEX
8
OBJECT__13
10
0
20
0
30
0
70
128
71
50
72
59
73
57
0
VERTEX
8
OBJECT__13
10
0
20
0
30
0
70
128
71
50
72
31
73
59
0
VERTEX
8
OBJECT__13
10
0
20
0
30
0
70
128
71
58
72
53
73
50
0
VERTEX
8
OBJECT__13
10
0
20
0
30
0
70
128
71
56
72
50
73
53
0
VERTEX
8
OBJECT__13
10
0
20
0
30
0
70
128
71
60
72
61
73
62
0
VERTEX
8
OBJECT__13
10
0
20
0
30
0
70
128
71
62
72
63
73
60
0
VERTEX
8
OBJECT__13
10
0
20
0
30
0
70
128
71
63
72
64
73
60
0
VERTEX
8
OBJECT__13
10
0
20
0
30
0
70
128
71
60
72
65
73
66
0
VERTEX
8
OBJECT__13
10
0
20
0
30
0
70
128
71
66
72
67
73
60
0
VERTEX
8
OBJECT__13
10
0
20
0
30
0
70
128
71
67
72
68
73
60
0
VERTEX
8
OBJECT__13
10
0
20
0
30
0
70
128
71
65
72
60
73
69
0
VERTEX
8
OBJECT__13
10
0
20
0
30
0
70
128
71
69
72
60
73
70
0
VERTEX
8
OBJECT__13
10
0
20
0
30
0
70
128
71
69
72
71
73
72
0
VERTEX
8
OBJECT__13
10
0
20
0
30
0
70
128
71
72
72
73
73
69
0
VERTEX
8
OBJECT__13
10
0
20
0
30
0
70
128
71
70
72
71
73
69
0
VERTEX
8
OBJECT__13
10
0
20
0
30
0
70
128
71
69
72
73
73
65
0
VERTEX
8
OBJECT__13
10
0
20
0
30
0
70
128
71
68
72
61
73
60
0
VERTEX
8
OBJECT__13
10
0
20
0
30
0
70
128
71
55
72
74
73
75
0
VERTEX
8
OBJECT__13
10
0
20
0
30
0
70
128
71
55
72
76
73
74
0
VERTEX
8
OBJECT__13
10
0
20
0
30
0
70
128
71
55
72
54
73
76
0
VERTEX
8
OBJECT__13
10
0
20
0
30
0
70
128
71
75
72
60
73
55
0
VERTEX
8
OBJECT__13
10
0
20
0
30
0
70
128
71
64
72
55
73
60
0
VERTEX
8
OBJECT__13
10
0
20
0
30
0
70
128
71
52
72
32
73
31
0
VERTEX
8
OBJECT__13
10
0
20
0
30
0
70
128
71
23
72
29
73
20
0
VERTEX
8
OBJECT__13
10
0
20
0
30
0
70
128
71
5
72
15
73
1
0
SEQEND
8
OBJECT__13
0
POLYLINE
8
OBJECT__14
66
1
70
64
71
21
72
19
62
253
0
VERTEX
8
OBJECT__14
10
18.799999
20
-7.376000
30
4.225000
70
192
0
VERTEX
8
OBJECT__14
10
18.799999
20
-7.947000
30
4.225000
70
192
0
VERTEX
8
OBJECT__14
10
18.799999
20
-8.774000
30
2.003000
70
192
0
VERTEX
8
OBJECT__14
10
18.799999
20
-8.774000
30
-2.003000
70
192
0
VERTEX
8
OBJECT__14
10
18.799999
20
-7.845000
30
-3.272000
70
192
0
VERTEX
8
OBJECT__14
10
18.799999
20
-8.476000
30
0.637000
70
192
0
VERTEX
8
OBJECT__14
10
18.799999
20
-7.036000
30
-5.611000
70
192
0
VERTEX
8
OBJECT__14
10
18.799999
20
-5.511000
30
-6.472000
70
192
0
VERTEX
8
OBJECT__14
10
18.799999
20
-3.905000
30
-8.109000
70
192
0
VERTEX
8
OBJECT__14
10
18.799999
20
-1.980000
30
-8.266000
70
192
0
VERTEX
8
OBJECT__14
10
18.799999
20
0.000000
30
-9.000000
70
192
0
VERTEX
8
OBJECT__14
10
18.799999
20
3.905000
30
-8.109000
70
192
0
VERTEX
8
OBJECT__14
10
18.799999
20
1.980000
30
-8.266000
70
192
0
VERTEX
8
OBJECT__14
10
18.799999
20
8.774000
30
-2.003000
70
192
0
VERTEX
8
OBJECT__14
10
18.799999
20
8.774000
30
2.003000
70
192
0
VERTEX
8
OBJECT__14
10
18.799999
20
8.476000
30
0.637000
70
192
0
VERTEX
8
OBJECT__14
10
18.799999
20
7.376000
30
4.225000
70
192
0
VERTEX
8
OBJECT__14
10
18.799999
20
7.036000
30
-5.611000
70
192
0
VERTEX
8
OBJECT__14
10
18.799999
20
5.511000
30
-6.472000
70
192
0
VERTEX
8
OBJECT__14
10
18.799999
20
7.845000
30
-3.272000
70
192
0
VERTEX
8
OBJECT__14
10
18.799999
20
7.947000
30
4.225000
70
192
0
VERTEX
8
OBJECT__14
10
0
20
0
30
0
70
128
71
1
72
2
73
3
0
VERTEX
8
OBJECT__14
10
0
20
0
30
0
70
128
71
4
72
5
73
6
0
VERTEX
8
OBJECT__14
10
0
20
0
30
0
70
128
71
6
72
3
73
4
0
VERTEX
8
OBJECT__14
10
0
20
0
30
0
70
128
71
7
72
8
73
5
0
VERTEX
8
OBJECT__14
10
0
20
0
30
0
70
128
71
5
72
4
73
7
0
VERTEX
8
OBJECT__14
10
0
20
0
30
0
70
128
71
9
72
10
73
8
0
VERTEX
8
OBJECT__14
10
0
20
0
30
0
70
128
71
11
72
12
73
13
0
VERTEX
8
OBJECT__14
10
0
20
0
30
0
70
128
71
8
72
7
73
9
0
VERTEX
8
OBJECT__14
10
0
20
0
30
0
70
128
71
13
72
10
73
11
0
VERTEX
8
OBJECT__14
10
0
20
0
30
0
70
128
71
14
72
15
73
16
0
VERTEX
8
OBJECT__14
10
0
20
0
30
0
70
128
71
17
72
16
73
15
0
VERTEX
8
OBJECT__14
10
0
20
0
30
0
70
128
71
10
72
9
73
11
0
VERTEX
8
OBJECT__14
10
0
20
0
30
0
70
128
71
12
72
18
73
19
0
VERTEX
8
OBJECT__14
10
0
20
0
30
0
70
128
71
18
72
14
73
20
0
VERTEX
8
OBJECT__14
10
0
20
0
30
0
70
128
71
15
72
21
73
17
0
VERTEX
8
OBJECT__14
10
0
20
0
30
0
70
128
71
19
72
13
73
12
0
VERTEX
8
OBJECT__14
10
0
20
0
30
0
70
128
71
16
72
20
73
14
0
VERTEX
8
OBJECT__14
10
0
20
0
30
0
70
128
71
20
72
19
73
18
0
VERTEX
8
OBJECT__14
10
0
20
0
30
0
70
128
71
3
72
6
73
1
0
SEQEND
8
OBJECT__14
0
POLYLINE
8
OBJECT__15
66
1
70
64
71
54
72
54
62
253
0
VERTEX
8
OBJECT__15
10
0.000000
20
3.905000
30
-8.109000
70
192
0
VERTEX
8
OBJECT__15
10
18.799999
20
3.905000
30
-8.109000
70
192
0
VERTEX
8
OBJECT__15
10
18.799999
20
0.000000
30
-9.000000
70
192
0
VERTEX
8
OBJECT__15
10
0.000000
20
7.036000
30
-5.611000
70
192
0
VERTEX
8
OBJECT__15
10
18.799999
20
7.036000
30
-5.611000
70
192
0
VERTEX
8
OBJECT__15
10
0.000000
20
8.774000
30
-2.003000
70
192
0
VERTEX
8
OBJECT__15
10
18.799999
20
8.774000
30
-2.003000
70
192
0
VERTEX
8
OBJECT__15
10
18.799999
20
8.774000
30
2.003000
70
192
0
VERTEX
8
OBJECT__15
10
0.000000
20
9.000000
30
0.000000
70
192
0
VERTEX
8
OBJECT__15
10
0.000000
20
-8.774000
30
-2.003000
70
192
0
VERTEX
8
OBJECT__15
10
18.799999
20
-8.774000
30
-2.003000
70
192
0
VERTEX
8
OBJECT__15
10
18.799999
20
-8.774000
30
2.003000
70
192
0
VERTEX
8
OBJECT__15
10
0.000000
20
-7.036000
30
-5.611000
70
192
0
VERTEX
8
OBJECT__15
10
18.799999
20
-7.036000
30
-5.611000
70
192
0
VERTEX
8
OBJECT__15
10
0.000000
20
-3.905000
30
-8.109000
70
192
0
VERTEX
8
OBJECT__15
10
18.799999
20
-3.905000
30
-8.109000
70
192
0
VERTEX
8
OBJECT__15
10
0.000000
20
0.000000
30
-9.000000
70
192
0
VERTEX
8
OBJECT__15
10
0.000000
20
-8.774000
30
2.003000
70
192
0
VERTEX
8
OBJECT__15
10
16.545000
20
-7.437000
30
5.069000
70
192
0
VERTEX
8
OBJECT__15
10
15.692000
20
-7.031000
30
5.608000
70
192
0
VERTEX
8
OBJECT__15
10
17.461000
20
-7.710000
30
4.642000
70
192
0
VERTEX
8
OBJECT__15
10
18.799999
20
-7.947000
30
4.225000
70
192
0
VERTEX
8
OBJECT__15
10
18.795000
20
-7.946000
30
4.227000
70
192
0
VERTEX
8
OBJECT__15
10
0.000000
20
-7.036000
30
5.611000
70
192
0
VERTEX
8
OBJECT__15
10
13.585000
20
-4.788000
30
7.621000
70
192
0
VERTEX
8
OBJECT__15
10
13.263000
20
-3.896000
30
8.093000
70
192
0
VERTEX
8
OBJECT__15
10
13.995000
20
-5.518000
30
7.110000
70
192
0
VERTEX
8
OBJECT__15
10
14.729000
20
-6.372000
30
6.356000
70
192
0
VERTEX
8
OBJECT__15
10
15.476000
20
-6.929000
30
5.744000
70
192
0
VERTEX
8
OBJECT__15
10
15.190000
20
-6.715000
30
5.978000
70
192
0
VERTEX
8
OBJECT__15
10
0.000000
20
0.000000
30
9.000000
70
192
0
VERTEX
8
OBJECT__15
10
0.000000
20
-3.905000
30
8.109000
70
192
0
VERTEX
8
OBJECT__15
10
12.792000
20
-1.386000
30
8.893000
70
192
0
VERTEX
8
OBJECT__15
10
12.742000
20
-0.375000
30
8.992000
70
192
0
VERTEX
8
OBJECT__15
10
12.974000
20
-2.794000
30
8.555000
70
192
0
VERTEX
8
OBJECT__15
10
13.159000
20
-3.608000
30
8.245000
70
192
0
VERTEX
8
OBJECT__15
10
12.738000
20
0.000000
30
9.000000
70
192
0
VERTEX
8
OBJECT__15
10
12.798000
20
1.458000
30
8.881000
70
192
0
VERTEX
8
OBJECT__15
10
0.000000
20
3.905000
30
8.109000
70
192
0
VERTEX
8
OBJECT__15
10
12.935000
20
2.572000
30
8.625000
70
192
0
VERTEX
8
OBJECT__15
10
13.230000
20
3.854000
30
8.133000
70
192
0
VERTEX
8
OBJECT__15
10
0.000000
20
7.036000
30
5.611000
70
192
0
VERTEX
8
OBJECT__15
10
14.892000
20
6.514000
30
6.211000
70
192
0
VERTEX
8
OBJECT__15
10
15.193000
20
6.709000
30
5.983000
70
192
0
VERTEX
8
OBJECT__15
10
13.249000
20
3.903000
30
8.106000
70
192
0
VERTEX
8
OBJECT__15
10
13.620000
20
4.863000
30
7.573000
70
192
0
VERTEX
8
OBJECT__15
10
14.227000
20
5.836000
30
6.852000
70
192
0
VERTEX
8
OBJECT__15
10
17.877001
20
7.801000
30
4.488000
70
192
0
VERTEX
8
OBJECT__15
10
18.795000
20
7.946000
30
4.227000
70
192
0
VERTEX
8
OBJECT__15
10
0.000000
20
8.774000
30
2.003000
70
192
0
VERTEX
8
OBJECT__15
10
16.608999
20
7.460000
30
5.035000
70
192
0
VERTEX
8
OBJECT__15
10
15.689000
20
7.031000
30
5.607000
70
192
0
VERTEX
8
OBJECT__15
10
15.857000
20
7.140000
30
5.479000
70
192
0
VERTEX
8
OBJECT__15
10
18.799999
20
7.947000
30
4.225000
70
192
0
VERTEX
8
OBJECT__15
10
0
20
0
30
0
70
128
71
1
72
2
73
3
0
VERTEX
8
OBJECT__15
10
0
20
0
30
0
70
128
71
4
72
5
73
2
0
VERTEX
8
OBJECT__15
10
0
20
0
30
0
70
128
71
6
72
7
73
5
0
VERTEX
8
OBJECT__15
10
0
20
0
30
0
70
128
71
8
72
7
73
9
0
VERTEX
8
OBJECT__15
10
0
20
0
30
0
70
128
71
7
72
6
73
9
0
VERTEX
8
OBJECT__15
10
0
20
0
30
0
70
128
71
10
72
11
73
12
0
VERTEX
8
OBJECT__15
10
0
20
0
30
0
70
128
71
13
72
14
73
11
0
VERTEX
8
OBJECT__15
10
0
20
0
30
0
70
128
71
15
72
16
73
14
0
VERTEX
8
OBJECT__15
10
0
20
0
30
0
70
128
71
17
72
3
73
16
0
VERTEX
8
OBJECT__15
10
0
20
0
30
0
70
128
71
18
72
19
73
20
0
VERTEX
8
OBJECT__15
10
0
20
0
30
0
70
128
71
18
72
12
73
21
0
VERTEX
8
OBJECT__15
10
0
20
0
30
0
70
128
71
21
72
19
73
18
0
VERTEX
8
OBJECT__15
10
0
20
0
30
0
70
128
71
12
72
22
73
23
0
VERTEX
8
OBJECT__15
10
0
20
0
30
0
70
128
71
23
72
21
73
12
0
VERTEX
8
OBJECT__15
10
0
20
0
30
0
70
128
71
24
72
25
73
26
0
VERTEX
8
OBJECT__15
10
0
20
0
30
0
70
128
71
24
72
27
73
25
0
VERTEX
8
OBJECT__15
10
0
20
0
30
0
70
128
71
24
72
28
73
27
0
VERTEX
8
OBJECT__15
10
0
20
0
30
0
70
128
71
24
72
29
73
30
0
VERTEX
8
OBJECT__15
10
0
20
0
30
0
70
128
71
30
72
28
73
24
0
VERTEX
8
OBJECT__15
10
0
20
0
30
0
70
128
71
24
72
20
73
29
0
VERTEX
8
OBJECT__15
10
0
20
0
30
0
70
128
71
31
72
32
73
33
0
VERTEX
8
OBJECT__15
10
0
20
0
30
0
70
128
71
33
72
34
73
31
0
VERTEX
8
OBJECT__15
10
0
20
0
30
0
70
128
71
32
72
35
73
33
0
VERTEX
8
OBJECT__15
10
0
20
0
30
0
70
128
71
32
72
36
73
35
0
VERTEX
8
OBJECT__15
10
0
20
0
30
0
70
128
71
32
72
26
73
36
0
VERTEX
8
OBJECT__15
10
0
20
0
30
0
70
128
71
31
72
37
73
38
0
VERTEX
8
OBJECT__15
10
0
20
0
30
0
70
128
71
38
72
39
73
31
0
VERTEX
8
OBJECT__15
10
0
20
0
30
0
70
128
71
38
72
40
73
39
0
VERTEX
8
OBJECT__15
10
0
20
0
30
0
70
128
71
40
72
41
73
39
0
VERTEX
8
OBJECT__15
10
0
20
0
30
0
70
128
71
42
72
43
73
44
0
VERTEX
8
OBJECT__15
10
0
20
0
30
0
70
128
71
42
72
39
73
45
0
VERTEX
8
OBJECT__15
10
0
20
0
30
0
70
128
71
45
72
46
73
42
0
VERTEX
8
OBJECT__15
10
0
20
0
30
0
70
128
71
46
72
47
73
42
0
VERTEX
8
OBJECT__15
10
0
20
0
30
0
70
128
71
47
72
43
73
42
0
VERTEX
8
OBJECT__15
10
0
20
0
30
0
70
128
71
8
72
48
73
49
0
VERTEX
8
OBJECT__15
10
0
20
0
30
0
70
128
71
8
72
50
73
51
0
VERTEX
8
OBJECT__15
10
0
20
0
30
0
70
128
71
50
72
42
73
52
0
VERTEX
8
OBJECT__15
10
0
20
0
30
0
70
128
71
52
72
53
73
50
0
VERTEX
8
OBJECT__15
10
0
20
0
30
0
70
128
71
53
72
51
73
50
0
VERTEX
8
OBJECT__15
10
0
20
0
30
0
70
128
71
51
72
48
73
8
0
VERTEX
8
OBJECT__15
10
0
20
0
30
0
70
128
71
49
72
54
73
8
0
VERTEX
8
OBJECT__15
10
0
20
0
30
0
70
128
71
44
72
52
73
42
0
VERTEX
8
OBJECT__15
10
0
20
0
30
0
70
128
71
41
72
45
73
39
0
VERTEX
8
OBJECT__15
10
0
20
0
30
0
70
128
71
34
72
37
73
31
0
VERTEX
8
OBJECT__15
10
0
20
0
30
0
70
128
71
26
72
32
73
24
0
VERTEX
8
OBJECT__15
10
0
20
0
30
0
70
128
71
20
72
24
73
18
0
VERTEX
8
OBJECT__15
10
0
20
0
30
0
70
128
71
16
72
15
73
17
0
VERTEX
8
OBJECT__15
10
0
20
0
30
0
70
128
71
14
72
13
73
15
0
VERTEX
8
OBJECT__15
10
0
20
0
30
0
70
128
71
11
72
10
73
13
0
VERTEX
8
OBJECT__15
10
0
20
0
30
0
70
128
71
12
72
18
73
10
0
VERTEX
8
OBJECT__15
10
0
20
0
30
0
70
128
71
9
72
50
73
8
0
VERTEX
8
OBJECT__15
10
0
20
0
30
0
70
128
71
5
72
4
73
6
0
VERTEX
8
OBJECT__15
10
0
20
0
30
0
70
128
71
2
72
1
73
4
0
VERTEX
8
OBJECT__15
10
0
20
0
30
0
70
128
71
3
72
17
73
1
0
SEQEND
8
OBJECT__15
0
ENDSEC
0
EOF
