999
Converted by 3D Exploration 
999
XDimension Software, LLC
999
http://www.xdsoft.com/explorer/
0
SECTION
2
HEADER
9
$ACADVER
1
AC1008
9
$UCSORG
10
0.0
20
0.0
30
0.0
9
$UCSXDIR
10
1.0
20
0.0
30
0.0
9
$TILEMODE
70
1
9
$UCSYDIR
10
0.0
20
1.0
30
0.0
9
$EXTMIN
10
-36.000000
20
-52.835999
30
-52.835999
9
$EXTMAX
10
122.500000
20
52.835999
30
251.244995
0
ENDSEC
0
SECTION
2
TABLES
0
TABLE
2
LTYPE
70
1
0
LTYPE
2
CONTINUOUS
70
64
3
Solid line
72
65
73
0
40
0.0
0
ENDTAB
0
TABLE
2
LAYER
70
43
0
LAYER
2
OBJECT__0
70
0
62
253
6
CONTINUOUS
0
LAYER
2
OBJECT__1
70
0
62
253
6
CONTINUOUS
0
LAYER
2
OBJECT__3
70
0
62
253
6
CONTINUOUS
0
LAYER
2
OBJECT__4
70
0
62
253
6
CONTINUOUS
0
LAYER
2
OBJECT__5
70
0
62
253
6
CONTINUOUS
0
LAYER
2
OBJECT__6
70
0
62
253
6
CONTINUOUS
0
LAYER
2
OBJECT__7
70
0
62
253
6
CONTINUOUS
0
LAYER
2
OBJECT__8
70
0
62
253
6
CONTINUOUS
0
LAYER
2
OBJECT__9
70
0
62
253
6
CONTINUOUS
0
LAYER
2
OBJECT__10
70
0
62
253
6
CONTINUOUS
0
LAYER
2
OBJECT__11
70
0
62
253
6
CONTINUOUS
0
LAYER
2
OBJECT__13
70
0
62
253
6
CONTINUOUS
0
LAYER
2
OBJECT__14
70
0
62
253
6
CONTINUOUS
0
LAYER
2
OBJECT__15
70
0
62
253
6
CONTINUOUS
0
LAYER
2
OBJECT__16
70
0
62
253
6
CONTINUOUS
0
LAYER
2
OBJECT__17
70
0
62
253
6
CONTINUOUS
0
LAYER
2
OBJECT__18
70
0
62
253
6
CONTINUOUS
0
LAYER
2
OBJECT__20
70
0
62
253
6
CONTINUOUS
0
LAYER
2
OBJECT__21
70
0
62
253
6
CONTINUOUS
0
LAYER
2
OBJECT__22
70
0
62
253
6
CONTINUOUS
0
LAYER
2
OBJECT__23
70
0
62
253
6
CONTINUOUS
0
LAYER
2
OBJECT__24
70
0
62
253
6
CONTINUOUS
0
LAYER
2
OBJECT__25
70
0
62
253
6
CONTINUOUS
0
LAYER
2
OBJECT__26
70
0
62
253
6
CONTINUOUS
0
LAYER
2
OBJECT__27
70
0
62
253
6
CONTINUOUS
0
LAYER
2
OBJECT__28
70
0
62
253
6
CONTINUOUS
0
LAYER
2
OBJECT__29
70
0
62
253
6
CONTINUOUS
0
LAYER
2
OBJECT__30
70
0
62
253
6
CONTINUOUS
0
LAYER
2
OBJECT__31
70
0
62
253
6
CONTINUOUS
0
LAYER
2
OBJECT__32
70
0
62
253
6
CONTINUOUS
0
LAYER
2
OBJECT__33
70
0
62
253
6
CONTINUOUS
0
LAYER
2
OBJECT__35
70
0
62
253
6
CONTINUOUS
0
LAYER
2
OBJECT__36
70
0
62
253
6
CONTINUOUS
0
LAYER
2
OBJECT__37
70
0
62
253
6
CONTINUOUS
0
LAYER
2
OBJECT__38
70
0
62
253
6
CONTINUOUS
0
LAYER
2
OBJECT__39
70
0
62
253
6
CONTINUOUS
0
LAYER
2
OBJECT__40
70
0
62
253
6
CONTINUOUS
0
LAYER
2
OBJECT__41
70
0
62
253
6
CONTINUOUS
0
LAYER
2
OBJECT__42
70
0
62
253
6
CONTINUOUS
0
ENDTAB
0
TABLE
2
STYLE
70
1
0
STYLE
2
STANDARD
70
0
40
0.0
41
1.0
50
0.0
71
0
42
0.2
3
txt
4
1
0
ENDTAB
0
TABLE
2
UCS
70
0
0
ENDTAB
0
ENDSEC
0
SECTION
2
ENTITIES
0
POLYLINE
8
OBJECT__0
66
1
70
64
71
25
72
24
62
253
0
VERTEX
8
OBJECT__0
10
10.000000
20
0.000000
30
1.500000
70
192
0
VERTEX
8
OBJECT__0
10
9.838000
20
18.000000
30
1.500000
70
192
0
VERTEX
8
OBJECT__0
10
9.838000
20
16.750000
30
6.978000
70
192
0
VERTEX
8
OBJECT__0
10
9.838000
20
11.223000
30
15.573000
70
192
0
VERTEX
8
OBJECT__0
10
9.838000
20
10.510000
30
15.916000
70
192
0
VERTEX
8
OBJECT__0
10
9.838000
20
4.005000
30
19.049000
70
192
0
VERTEX
8
OBJECT__0
10
9.838000
20
0.000000
30
19.049000
70
192
0
VERTEX
8
OBJECT__0
10
9.838000
20
-4.005000
30
19.049000
70
192
0
VERTEX
8
OBJECT__0
10
9.838000
20
-10.510000
30
15.916000
70
192
0
VERTEX
8
OBJECT__0
10
9.838000
20
-16.216999
30
9.310000
70
192
0
VERTEX
8
OBJECT__0
10
9.838000
20
-16.750000
30
6.978000
70
192
0
VERTEX
8
OBJECT__0
10
9.838000
20
-18.000000
30
1.500000
70
192
0
VERTEX
8
OBJECT__0
10
9.838000
20
-16.750000
30
-3.978000
70
192
0
VERTEX
8
OBJECT__0
10
9.838000
20
-11.223000
30
-12.573000
70
192
0
VERTEX
8
OBJECT__0
10
9.838000
20
-10.510000
30
-12.916000
70
192
0
VERTEX
8
OBJECT__0
10
9.838000
20
-4.005000
30
-16.049000
70
192
0
VERTEX
8
OBJECT__0
10
9.838000
20
0.000000
30
-16.500000
70
192
0
VERTEX
8
OBJECT__0
10
9.838000
20
4.005000
30
-16.049000
70
192
0
VERTEX
8
OBJECT__0
10
9.838000
20
10.510000
30
-12.916000
70
192
0
VERTEX
8
OBJECT__0
10
9.838000
20
16.216999
30
-6.310000
70
192
0
VERTEX
8
OBJECT__0
10
9.838000
20
16.750000
30
-3.978000
70
192
0
VERTEX
8
OBJECT__0
10
9.838000
20
11.223000
30
-12.573000
70
192
0
VERTEX
8
OBJECT__0
10
9.838000
20
-16.216999
30
-6.310000
70
192
0
VERTEX
8
OBJECT__0
10
9.838000
20
-11.223000
30
15.573000
70
192
0
VERTEX
8
OBJECT__0
10
9.838000
20
16.216999
30
9.310000
70
192
0
VERTEX
8
OBJECT__0
10
0
20
0
30
0
70
128
71
1
72
2
73
3
0
VERTEX
8
OBJECT__0
10
0
20
0
30
0
70
128
71
1
72
4
73
5
0
VERTEX
8
OBJECT__0
10
0
20
0
30
0
70
128
71
1
72
6
73
7
0
VERTEX
8
OBJECT__0
10
0
20
0
30
0
70
128
71
1
72
8
73
9
0
VERTEX
8
OBJECT__0
10
0
20
0
30
0
70
128
71
1
72
10
73
11
0
VERTEX
8
OBJECT__0
10
0
20
0
30
0
70
128
71
1
72
12
73
13
0
VERTEX
8
OBJECT__0
10
0
20
0
30
0
70
128
71
1
72
14
73
15
0
VERTEX
8
OBJECT__0
10
0
20
0
30
0
70
128
71
1
72
16
73
17
0
VERTEX
8
OBJECT__0
10
0
20
0
30
0
70
128
71
1
72
18
73
19
0
VERTEX
8
OBJECT__0
10
0
20
0
30
0
70
128
71
1
72
20
73
21
0
VERTEX
8
OBJECT__0
10
0
20
0
30
0
70
128
71
21
72
2
73
1
0
VERTEX
8
OBJECT__0
10
0
20
0
30
0
70
128
71
1
72
22
73
20
0
VERTEX
8
OBJECT__0
10
0
20
0
30
0
70
128
71
19
72
22
73
1
0
VERTEX
8
OBJECT__0
10
0
20
0
30
0
70
128
71
17
72
18
73
1
0
VERTEX
8
OBJECT__0
10
0
20
0
30
0
70
128
71
15
72
16
73
1
0
VERTEX
8
OBJECT__0
10
0
20
0
30
0
70
128
71
1
72
23
73
14
0
VERTEX
8
OBJECT__0
10
0
20
0
30
0
70
128
71
13
72
23
73
1
0
VERTEX
8
OBJECT__0
10
0
20
0
30
0
70
128
71
11
72
12
73
1
0
VERTEX
8
OBJECT__0
10
0
20
0
30
0
70
128
71
1
72
24
73
10
0
VERTEX
8
OBJECT__0
10
0
20
0
30
0
70
128
71
9
72
24
73
1
0
VERTEX
8
OBJECT__0
10
0
20
0
30
0
70
128
71
7
72
8
73
1
0
VERTEX
8
OBJECT__0
10
0
20
0
30
0
70
128
71
5
72
6
73
1
0
VERTEX
8
OBJECT__0
10
0
20
0
30
0
70
128
71
1
72
25
73
4
0
VERTEX
8
OBJECT__0
10
0
20
0
30
0
70
128
71
3
72
25
73
1
0
SEQEND
8
OBJECT__0
0
POLYLINE
8
OBJECT__1
66
1
70
64
71
44
72
44
62
253
0
VERTEX
8
OBJECT__1
10
6.000000
20
0.000000
30
-16.500000
70
192
0
VERTEX
8
OBJECT__1
10
9.838000
20
0.000000
30
-16.500000
70
192
0
VERTEX
8
OBJECT__1
10
9.838000
20
-4.005000
30
-16.049000
70
192
0
VERTEX
8
OBJECT__1
10
9.838000
20
-10.510000
30
-12.916000
70
192
0
VERTEX
8
OBJECT__1
10
6.000000
20
-10.062000
30
-12.350000
70
192
0
VERTEX
8
OBJECT__1
10
6.000000
20
-5.562000
30
-15.619000
70
192
0
VERTEX
8
OBJECT__1
10
9.838000
20
-11.223000
30
-12.573000
70
192
0
VERTEX
8
OBJECT__1
10
9.838000
20
-16.216999
30
-6.310000
70
192
0
VERTEX
8
OBJECT__1
10
6.000000
20
-14.562000
30
-9.080000
70
192
0
VERTEX
8
OBJECT__1
10
6.000000
20
-16.281000
30
-3.790000
70
192
0
VERTEX
8
OBJECT__1
10
9.838000
20
-18.000000
30
1.500000
70
192
0
VERTEX
8
OBJECT__1
10
9.838000
20
-16.750000
30
6.978000
70
192
0
VERTEX
8
OBJECT__1
10
6.000000
20
-16.281000
30
6.790000
70
192
0
VERTEX
8
OBJECT__1
10
6.000000
20
-18.000000
30
1.500000
70
192
0
VERTEX
8
OBJECT__1
10
9.838000
20
-16.750000
30
-3.978000
70
192
0
VERTEX
8
OBJECT__1
10
9.838000
20
-11.223000
30
15.573000
70
192
0
VERTEX
8
OBJECT__1
10
6.000000
20
-10.062000
30
15.350000
70
192
0
VERTEX
8
OBJECT__1
10
6.000000
20
-14.562000
30
12.080000
70
192
0
VERTEX
8
OBJECT__1
10
9.838000
20
-16.216999
30
9.310000
70
192
0
VERTEX
8
OBJECT__1
10
6.000000
20
0.000000
30
18.618999
70
192
0
VERTEX
8
OBJECT__1
10
6.000000
20
-5.562000
30
18.618999
70
192
0
VERTEX
8
OBJECT__1
10
9.838000
20
-4.005000
30
19.049000
70
192
0
VERTEX
8
OBJECT__1
10
9.838000
20
-10.510000
30
15.916000
70
192
0
VERTEX
8
OBJECT__1
10
9.838000
20
10.510000
30
15.916000
70
192
0
VERTEX
8
OBJECT__1
10
6.000000
20
10.062000
30
15.350000
70
192
0
VERTEX
8
OBJECT__1
10
6.000000
20
5.562000
30
18.618999
70
192
0
VERTEX
8
OBJECT__1
10
9.838000
20
0.000000
30
19.049000
70
192
0
VERTEX
8
OBJECT__1
10
9.838000
20
4.005000
30
19.049000
70
192
0
VERTEX
8
OBJECT__1
10
9.838000
20
11.223000
30
15.573000
70
192
0
VERTEX
8
OBJECT__1
10
9.838000
20
16.216999
30
9.310000
70
192
0
VERTEX
8
OBJECT__1
10
6.000000
20
14.562000
30
12.080000
70
192
0
VERTEX
8
OBJECT__1
10
6.000000
20
16.281000
30
6.790000
70
192
0
VERTEX
8
OBJECT__1
10
9.838000
20
18.000000
30
1.500000
70
192
0
VERTEX
8
OBJECT__1
10
9.838000
20
16.750000
30
-3.978000
70
192
0
VERTEX
8
OBJECT__1
10
6.000000
20
16.281000
30
-3.790000
70
192
0
VERTEX
8
OBJECT__1
10
6.000000
20
18.000000
30
1.500000
70
192
0
VERTEX
8
OBJECT__1
10
9.838000
20
16.750000
30
6.978000
70
192
0
VERTEX
8
OBJECT__1
10
9.838000
20
11.223000
30
-12.573000
70
192
0
VERTEX
8
OBJECT__1
10
6.000000
20
10.062000
30
-12.350000
70
192
0
VERTEX
8
OBJECT__1
10
6.000000
20
14.562000
30
-9.080000
70
192
0
VERTEX
8
OBJECT__1
10
9.838000
20
16.216999
30
-6.310000
70
192
0
VERTEX
8
OBJECT__1
10
9.838000
20
10.510000
30
-12.916000
70
192
0
VERTEX
8
OBJECT__1
10
9.838000
20
4.005000
30
-16.049000
70
192
0
VERTEX
8
OBJECT__1
10
6.000000
20
5.562000
30
-15.619000
70
192
0
VERTEX
8
OBJECT__1
10
0
20
0
30
0
70
128
71
1
72
2
73
3
0
VERTEX
8
OBJECT__1
10
0
20
0
30
0
70
128
71
4
72
5
73
6
0
VERTEX
8
OBJECT__1
10
0
20
0
30
0
70
128
71
6
72
3
73
4
0
VERTEX
8
OBJECT__1
10
0
20
0
30
0
70
128
71
7
72
8
73
9
0
VERTEX
8
OBJECT__1
10
0
20
0
30
0
70
128
71
8
72
10
73
9
0
VERTEX
8
OBJECT__1
10
0
20
0
30
0
70
128
71
9
72
5
73
7
0
VERTEX
8
OBJECT__1
10
0
20
0
30
0
70
128
71
5
72
4
73
7
0
VERTEX
8
OBJECT__1
10
0
20
0
30
0
70
128
71
11
72
12
73
13
0
VERTEX
8
OBJECT__1
10
0
20
0
30
0
70
128
71
11
72
14
73
10
0
VERTEX
8
OBJECT__1
10
0
20
0
30
0
70
128
71
10
72
15
73
11
0
VERTEX
8
OBJECT__1
10
0
20
0
30
0
70
128
71
16
72
17
73
18
0
VERTEX
8
OBJECT__1
10
0
20
0
30
0
70
128
71
18
72
19
73
16
0
VERTEX
8
OBJECT__1
10
0
20
0
30
0
70
128
71
18
72
13
73
19
0
VERTEX
8
OBJECT__1
10
0
20
0
30
0
70
128
71
13
72
12
73
19
0
VERTEX
8
OBJECT__1
10
0
20
0
30
0
70
128
71
20
72
21
73
22
0
VERTEX
8
OBJECT__1
10
0
20
0
30
0
70
128
71
23
72
22
73
21
0
VERTEX
8
OBJECT__1
10
0
20
0
30
0
70
128
71
21
72
17
73
23
0
VERTEX
8
OBJECT__1
10
0
20
0
30
0
70
128
71
24
72
25
73
26
0
VERTEX
8
OBJECT__1
10
0
20
0
30
0
70
128
71
20
72
27
73
28
0
VERTEX
8
OBJECT__1
10
0
20
0
30
0
70
128
71
28
72
26
73
20
0
VERTEX
8
OBJECT__1
10
0
20
0
30
0
70
128
71
29
72
30
73
31
0
VERTEX
8
OBJECT__1
10
0
20
0
30
0
70
128
71
30
72
32
73
31
0
VERTEX
8
OBJECT__1
10
0
20
0
30
0
70
128
71
31
72
25
73
29
0
VERTEX
8
OBJECT__1
10
0
20
0
30
0
70
128
71
25
72
24
73
29
0
VERTEX
8
OBJECT__1
10
0
20
0
30
0
70
128
71
33
72
34
73
35
0
VERTEX
8
OBJECT__1
10
0
20
0
30
0
70
128
71
33
72
36
73
32
0
VERTEX
8
OBJECT__1
10
0
20
0
30
0
70
128
71
32
72
37
73
33
0
VERTEX
8
OBJECT__1
10
0
20
0
30
0
70
128
71
38
72
39
73
40
0
VERTEX
8
OBJECT__1
10
0
20
0
30
0
70
128
71
40
72
41
73
38
0
VERTEX
8
OBJECT__1
10
0
20
0
30
0
70
128
71
40
72
35
73
41
0
VERTEX
8
OBJECT__1
10
0
20
0
30
0
70
128
71
35
72
34
73
41
0
VERTEX
8
OBJECT__1
10
0
20
0
30
0
70
128
71
42
72
43
73
44
0
VERTEX
8
OBJECT__1
10
0
20
0
30
0
70
128
71
1
72
44
73
43
0
VERTEX
8
OBJECT__1
10
0
20
0
30
0
70
128
71
43
72
2
73
1
0
VERTEX
8
OBJECT__1
10
0
20
0
30
0
70
128
71
44
72
39
73
42
0
VERTEX
8
OBJECT__1
10
0
20
0
30
0
70
128
71
38
72
42
73
39
0
VERTEX
8
OBJECT__1
10
0
20
0
30
0
70
128
71
35
72
36
73
33
0
VERTEX
8
OBJECT__1
10
0
20
0
30
0
70
128
71
30
72
37
73
32
0
VERTEX
8
OBJECT__1
10
0
20
0
30
0
70
128
71
26
72
28
73
24
0
VERTEX
8
OBJECT__1
10
0
20
0
30
0
70
128
71
22
72
27
73
20
0
VERTEX
8
OBJECT__1
10
0
20
0
30
0
70
128
71
16
72
23
73
17
0
VERTEX
8
OBJECT__1
10
0
20
0
30
0
70
128
71
13
72
14
73
11
0
VERTEX
8
OBJECT__1
10
0
20
0
30
0
70
128
71
8
72
15
73
10
0
VERTEX
8
OBJECT__1
10
0
20
0
30
0
70
128
71
3
72
6
73
1
0
SEQEND
8
OBJECT__1
0
POLYLINE
8
OBJECT__3
66
1
70
64
71
30
72
30
62
253
0
VERTEX
8
OBJECT__3
10
-29.000000
20
-14.562000
30
12.080000
70
192
0
VERTEX
8
OBJECT__3
10
-29.000000
20
-18.000000
30
1.500000
70
192
0
VERTEX
8
OBJECT__3
10
6.000000
20
-16.281000
30
6.790000
70
192
0
VERTEX
8
OBJECT__3
10
6.000000
20
-18.000000
30
1.500000
70
192
0
VERTEX
8
OBJECT__3
10
-29.000000
20
-5.562000
30
18.618999
70
192
0
VERTEX
8
OBJECT__3
10
6.000000
20
-10.062000
30
15.350000
70
192
0
VERTEX
8
OBJECT__3
10
6.000000
20
-14.562000
30
12.080000
70
192
0
VERTEX
8
OBJECT__3
10
-29.000000
20
5.562000
30
18.618999
70
192
0
VERTEX
8
OBJECT__3
10
6.000000
20
0.000000
30
18.618999
70
192
0
VERTEX
8
OBJECT__3
10
6.000000
20
-5.562000
30
18.618999
70
192
0
VERTEX
8
OBJECT__3
10
6.000000
20
5.562000
30
18.618999
70
192
0
VERTEX
8
OBJECT__3
10
6.000000
20
10.062000
30
15.350000
70
192
0
VERTEX
8
OBJECT__3
10
-29.000000
20
14.562000
30
12.080000
70
192
0
VERTEX
8
OBJECT__3
10
6.000000
20
14.562000
30
12.080000
70
192
0
VERTEX
8
OBJECT__3
10
6.000000
20
16.281000
30
6.790000
70
192
0
VERTEX
8
OBJECT__3
10
-29.000000
20
18.000000
30
1.500000
70
192
0
VERTEX
8
OBJECT__3
10
6.000000
20
18.000000
30
1.500000
70
192
0
VERTEX
8
OBJECT__3
10
6.000000
20
16.281000
30
-3.790000
70
192
0
VERTEX
8
OBJECT__3
10
-29.000000
20
14.562000
30
-9.080000
70
192
0
VERTEX
8
OBJECT__3
10
-29.000000
20
5.562000
30
-15.619000
70
192
0
VERTEX
8
OBJECT__3
10
6.000000
20
10.062000
30
-12.350000
70
192
0
VERTEX
8
OBJECT__3
10
6.000000
20
14.562000
30
-9.080000
70
192
0
VERTEX
8
OBJECT__3
10
-29.000000
20
-5.562000
30
-15.619000
70
192
0
VERTEX
8
OBJECT__3
10
6.000000
20
0.000000
30
-16.500000
70
192
0
VERTEX
8
OBJECT__3
10
6.000000
20
5.562000
30
-15.619000
70
192
0
VERTEX
8
OBJECT__3
10
-29.000000
20
-14.562000
30
-9.080000
70
192
0
VERTEX
8
OBJECT__3
10
6.000000
20
-10.062000
30
-12.350000
70
192
0
VERTEX
8
OBJECT__3
10
6.000000
20
-5.562000
30
-15.619000
70
192
0
VERTEX
8
OBJECT__3
10
6.000000
20
-16.281000
30
-3.790000
70
192
0
VERTEX
8
OBJECT__3
10
6.000000
20
-14.562000
30
-9.080000
70
192
0
VERTEX
8
OBJECT__3
10
0
20
0
30
0
70
128
71
1
72
2
73
3
0
VERTEX
8
OBJECT__3
10
0
20
0
30
0
70
128
71
2
72
4
73
3
0
VERTEX
8
OBJECT__3
10
0
20
0
30
0
70
128
71
5
72
1
73
6
0
VERTEX
8
OBJECT__3
10
0
20
0
30
0
70
128
71
1
72
7
73
6
0
VERTEX
8
OBJECT__3
10
0
20
0
30
0
70
128
71
8
72
5
73
9
0
VERTEX
8
OBJECT__3
10
0
20
0
30
0
70
128
71
5
72
10
73
9
0
VERTEX
8
OBJECT__3
10
0
20
0
30
0
70
128
71
8
72
11
73
12
0
VERTEX
8
OBJECT__3
10
0
20
0
30
0
70
128
71
12
72
13
73
8
0
VERTEX
8
OBJECT__3
10
0
20
0
30
0
70
128
71
13
72
14
73
15
0
VERTEX
8
OBJECT__3
10
0
20
0
30
0
70
128
71
15
72
16
73
13
0
VERTEX
8
OBJECT__3
10
0
20
0
30
0
70
128
71
16
72
17
73
18
0
VERTEX
8
OBJECT__3
10
0
20
0
30
0
70
128
71
18
72
19
73
16
0
VERTEX
8
OBJECT__3
10
0
20
0
30
0
70
128
71
20
72
19
73
21
0
VERTEX
8
OBJECT__3
10
0
20
0
30
0
70
128
71
19
72
22
73
21
0
VERTEX
8
OBJECT__3
10
0
20
0
30
0
70
128
71
23
72
20
73
24
0
VERTEX
8
OBJECT__3
10
0
20
0
30
0
70
128
71
20
72
25
73
24
0
VERTEX
8
OBJECT__3
10
0
20
0
30
0
70
128
71
26
72
23
73
27
0
VERTEX
8
OBJECT__3
10
0
20
0
30
0
70
128
71
23
72
28
73
27
0
VERTEX
8
OBJECT__3
10
0
20
0
30
0
70
128
71
2
72
26
73
29
0
VERTEX
8
OBJECT__3
10
0
20
0
30
0
70
128
71
26
72
30
73
29
0
VERTEX
8
OBJECT__3
10
0
20
0
30
0
70
128
71
29
72
4
73
2
0
VERTEX
8
OBJECT__3
10
0
20
0
30
0
70
128
71
27
72
30
73
26
0
VERTEX
8
OBJECT__3
10
0
20
0
30
0
70
128
71
24
72
28
73
23
0
VERTEX
8
OBJECT__3
10
0
20
0
30
0
70
128
71
21
72
25
73
20
0
VERTEX
8
OBJECT__3
10
0
20
0
30
0
70
128
71
18
72
22
73
19
0
VERTEX
8
OBJECT__3
10
0
20
0
30
0
70
128
71
15
72
17
73
16
0
VERTEX
8
OBJECT__3
10
0
20
0
30
0
70
128
71
12
72
14
73
13
0
VERTEX
8
OBJECT__3
10
0
20
0
30
0
70
128
71
9
72
11
73
8
0
VERTEX
8
OBJECT__3
10
0
20
0
30
0
70
128
71
6
72
10
73
5
0
VERTEX
8
OBJECT__3
10
0
20
0
30
0
70
128
71
3
72
7
73
1
0
SEQEND
8
OBJECT__3
0
POLYLINE
8
OBJECT__4
66
1
70
64
71
14
72
14
62
253
0
VERTEX
8
OBJECT__4
10
-29.000000
20
23.000000
30
24.500000
70
192
0
VERTEX
8
OBJECT__4
10
-29.000000
20
5.562000
30
18.618999
70
192
0
VERTEX
8
OBJECT__4
10
-29.000000
20
14.562000
30
12.080000
70
192
0
VERTEX
8
OBJECT__4
10
-29.000000
20
-23.000000
30
24.500000
70
192
0
VERTEX
8
OBJECT__4
10
-29.000000
20
-5.562000
30
18.618999
70
192
0
VERTEX
8
OBJECT__4
10
-29.000000
20
-23.000000
30
-21.500000
70
192
0
VERTEX
8
OBJECT__4
10
-29.000000
20
-5.562000
30
-15.619000
70
192
0
VERTEX
8
OBJECT__4
10
-29.000000
20
-14.562000
30
-9.080000
70
192
0
VERTEX
8
OBJECT__4
10
-29.000000
20
23.000000
30
-21.500000
70
192
0
VERTEX
8
OBJECT__4
10
-29.000000
20
5.562000
30
-15.619000
70
192
0
VERTEX
8
OBJECT__4
10
-29.000000
20
-14.562000
30
12.080000
70
192
0
VERTEX
8
OBJECT__4
10
-29.000000
20
-18.000000
30
1.500000
70
192
0
VERTEX
8
OBJECT__4
10
-29.000000
20
14.562000
30
-9.080000
70
192
0
VERTEX
8
OBJECT__4
10
-29.000000
20
18.000000
30
1.500000
70
192
0
VERTEX
8
OBJECT__4
10
0
20
0
30
0
70
128
71
1
72
2
73
3
0
VERTEX
8
OBJECT__4
10
0
20
0
30
0
70
128
71
1
72
4
73
5
0
VERTEX
8
OBJECT__4
10
0
20
0
30
0
70
128
71
5
72
2
73
1
0
VERTEX
8
OBJECT__4
10
0
20
0
30
0
70
128
71
6
72
7
73
8
0
VERTEX
8
OBJECT__4
10
0
20
0
30
0
70
128
71
6
72
9
73
10
0
VERTEX
8
OBJECT__4
10
0
20
0
30
0
70
128
71
4
72
11
73
5
0
VERTEX
8
OBJECT__4
10
0
20
0
30
0
70
128
71
4
72
6
73
12
0
VERTEX
8
OBJECT__4
10
0
20
0
30
0
70
128
71
10
72
7
73
6
0
VERTEX
8
OBJECT__4
10
0
20
0
30
0
70
128
71
12
72
11
73
4
0
VERTEX
8
OBJECT__4
10
0
20
0
30
0
70
128
71
9
72
13
73
10
0
VERTEX
8
OBJECT__4
10
0
20
0
30
0
70
128
71
8
72
12
73
6
0
VERTEX
8
OBJECT__4
10
0
20
0
30
0
70
128
71
9
72
1
73
14
0
VERTEX
8
OBJECT__4
10
0
20
0
30
0
70
128
71
14
72
13
73
9
0
VERTEX
8
OBJECT__4
10
0
20
0
30
0
70
128
71
3
72
14
73
1
0
SEQEND
8
OBJECT__4
0
POLYLINE
8
OBJECT__5
66
1
70
64
71
4
72
2
62
253
0
VERTEX
8
OBJECT__5
10
-36.000000
20
23.000000
30
24.500000
70
192
0
VERTEX
8
OBJECT__5
10
-36.000000
20
-23.000000
30
24.500000
70
192
0
VERTEX
8
OBJECT__5
10
-29.000000
20
-23.000000
30
24.500000
70
192
0
VERTEX
8
OBJECT__5
10
-29.000000
20
23.000000
30
24.500000
70
192
0
VERTEX
8
OBJECT__5
10
0
20
0
30
0
70
128
71
1
72
2
73
3
0
VERTEX
8
OBJECT__5
10
0
20
0
30
0
70
128
71
3
72
4
73
1
0
SEQEND
8
OBJECT__5
0
POLYLINE
8
OBJECT__6
66
1
70
64
71
4
72
2
62
253
0
VERTEX
8
OBJECT__6
10
-36.000000
20
23.000000
30
-21.500000
70
192
0
VERTEX
8
OBJECT__6
10
-36.000000
20
-23.000000
30
-21.500000
70
192
0
VERTEX
8
OBJECT__6
10
-36.000000
20
-23.000000
30
24.500000
70
192
0
VERTEX
8
OBJECT__6
10
-36.000000
20
23.000000
30
24.500000
70
192
0
VERTEX
8
OBJECT__6
10
0
20
0
30
0
70
128
71
1
72
2
73
3
0
VERTEX
8
OBJECT__6
10
0
20
0
30
0
70
128
71
3
72
4
73
1
0
SEQEND
8
OBJECT__6
0
POLYLINE
8
OBJECT__7
66
1
70
64
71
4
72
2
62
253
0
VERTEX
8
OBJECT__7
10
-36.000000
20
23.000000
30
-21.500000
70
192
0
VERTEX
8
OBJECT__7
10
-36.000000
20
23.000000
30
24.500000
70
192
0
VERTEX
8
OBJECT__7
10
-29.000000
20
23.000000
30
24.500000
70
192
0
VERTEX
8
OBJECT__7
10
-29.000000
20
23.000000
30
-21.500000
70
192
0
VERTEX
8
OBJECT__7
10
0
20
0
30
0
70
128
71
1
72
2
73
3
0
VERTEX
8
OBJECT__7
10
0
20
0
30
0
70
128
71
3
72
4
73
1
0
SEQEND
8
OBJECT__7
0
POLYLINE
8
OBJECT__8
66
1
70
64
71
4
72
2
62
253
0
VERTEX
8
OBJECT__8
10
-36.000000
20
-23.000000
30
-21.500000
70
192
0
VERTEX
8
OBJECT__8
10
-36.000000
20
23.000000
30
-21.500000
70
192
0
VERTEX
8
OBJECT__8
10
-29.000000
20
23.000000
30
-21.500000
70
192
0
VERTEX
8
OBJECT__8
10
-29.000000
20
-23.000000
30
-21.500000
70
192
0
VERTEX
8
OBJECT__8
10
0
20
0
30
0
70
128
71
1
72
2
73
3
0
VERTEX
8
OBJECT__8
10
0
20
0
30
0
70
128
71
3
72
4
73
1
0
SEQEND
8
OBJECT__8
0
POLYLINE
8
OBJECT__9
66
1
70
64
71
4
72
2
62
253
0
VERTEX
8
OBJECT__9
10
-36.000000
20
-23.000000
30
24.500000
70
192
0
VERTEX
8
OBJECT__9
10
-36.000000
20
-23.000000
30
-21.500000
70
192
0
VERTEX
8
OBJECT__9
10
-29.000000
20
-23.000000
30
-21.500000
70
192
0
VERTEX
8
OBJECT__9
10
-29.000000
20
-23.000000
30
24.500000
70
192
0
VERTEX
8
OBJECT__9
10
0
20
0
30
0
70
128
71
1
72
2
73
3
0
VERTEX
8
OBJECT__9
10
0
20
0
30
0
70
128
71
3
72
4
73
1
0
SEQEND
8
OBJECT__9
0
POLYLINE
8
OBJECT__10
66
1
70
64
71
7
72
5
62
253
0
VERTEX
8
OBJECT__10
10
69.800003
20
0.000000
30
251.244995
70
192
0
VERTEX
8
OBJECT__10
10
69.686996
20
0.235000
30
251.244995
70
192
0
VERTEX
8
OBJECT__10
10
69.432999
20
0.292000
30
251.244995
70
192
0
VERTEX
8
OBJECT__10
10
69.230003
20
0.130000
30
251.244995
70
192
0
VERTEX
8
OBJECT__10
10
69.230003
20
-0.130000
30
251.244995
70
192
0
VERTEX
8
OBJECT__10
10
69.432999
20
-0.292000
30
251.244995
70
192
0
VERTEX
8
OBJECT__10
10
69.686996
20
-0.235000
30
251.244995
70
192
0
VERTEX
8
OBJECT__10
10
0
20
0
30
0
70
128
71
1
72
2
73
3
0
VERTEX
8
OBJECT__10
10
0
20
0
30
0
70
128
71
3
72
4
73
1
0
VERTEX
8
OBJECT__10
10
0
20
0
30
0
70
128
71
1
72
5
73
6
0
VERTEX
8
OBJECT__10
10
0
20
0
30
0
70
128
71
6
72
7
73
1
0
VERTEX
8
OBJECT__10
10
0
20
0
30
0
70
128
71
4
72
5
73
1
0
SEQEND
8
OBJECT__10
0
POLYLINE
8
OBJECT__11
66
1
70
64
71
26
72
33
62
253
0
VERTEX
8
OBJECT__11
10
75.457001
20
0.000000
30
248.901993
70
192
0
VERTEX
8
OBJECT__11
10
77.800003
20
0.000000
30
243.244995
70
192
0
VERTEX
8
OBJECT__11
10
75.594002
20
4.580000
30
243.244995
70
192
0
VERTEX
8
OBJECT__11
10
73.213997
20
4.657000
30
248.901993
70
192
0
VERTEX
8
OBJECT__11
10
67.653000
20
8.092000
30
243.244995
70
192
0
VERTEX
8
OBJECT__11
10
68.174004
20
5.808000
30
248.901993
70
192
0
VERTEX
8
OBJECT__11
10
67.117996
20
7.665000
30
243.244995
70
192
0
VERTEX
8
OBJECT__11
10
62.021999
20
3.601000
30
243.244995
70
192
0
VERTEX
8
OBJECT__11
10
64.133003
20
2.585000
30
248.901993
70
192
0
VERTEX
8
OBJECT__11
10
62.021999
20
0.000000
30
243.244995
70
192
0
VERTEX
8
OBJECT__11
10
64.133003
20
-2.585000
30
248.901993
70
192
0
VERTEX
8
OBJECT__11
10
67.117996
20
-7.665000
30
243.244995
70
192
0
VERTEX
8
OBJECT__11
10
68.174004
20
-5.808000
30
248.901993
70
192
0
VERTEX
8
OBJECT__11
10
62.021999
20
-3.601000
30
243.244995
70
192
0
VERTEX
8
OBJECT__11
10
74.675003
20
-6.489000
30
243.244995
70
192
0
VERTEX
8
OBJECT__11
10
73.213997
20
-4.657000
30
248.901993
70
192
0
VERTEX
8
OBJECT__11
10
75.594002
20
-4.580000
30
243.244995
70
192
0
VERTEX
8
OBJECT__11
10
69.686996
20
0.235000
30
251.244995
70
192
0
VERTEX
8
OBJECT__11
10
69.432999
20
0.292000
30
251.244995
70
192
0
VERTEX
8
OBJECT__11
10
69.230003
20
0.130000
30
251.244995
70
192
0
VERTEX
8
OBJECT__11
10
69.230003
20
-0.130000
30
251.244995
70
192
0
VERTEX
8
OBJECT__11
10
69.432999
20
-0.292000
30
251.244995
70
192
0
VERTEX
8
OBJECT__11
10
69.686996
20
-0.235000
30
251.244995
70
192
0
VERTEX
8
OBJECT__11
10
69.800003
20
0.000000
30
251.244995
70
192
0
VERTEX
8
OBJECT__11
10
67.653000
20
-8.092000
30
243.244995
70
192
0
VERTEX
8
OBJECT__11
10
74.675003
20
6.489000
30
243.244995
70
192
0
VERTEX
8
OBJECT__11
10
0
20
0
30
0
70
128
71
1
72
2
73
3
0
VERTEX
8
OBJECT__11
10
0
20
0
30
0
70
128
71
3
72
4
73
1
0
VERTEX
8
OBJECT__11
10
0
20
0
30
0
70
128
71
5
72
6
73
4
0
VERTEX
8
OBJECT__11
10
0
20
0
30
0
70
128
71
7
72
8
73
9
0
VERTEX
8
OBJECT__11
10
0
20
0
30
0
70
128
71
6
72
5
73
7
0
VERTEX
8
OBJECT__11
10
0
20
0
30
0
70
128
71
9
72
8
73
10
0
VERTEX
8
OBJECT__11
10
0
20
0
30
0
70
128
71
10
72
11
73
9
0
VERTEX
8
OBJECT__11
10
0
20
0
30
0
70
128
71
12
72
13
73
11
0
VERTEX
8
OBJECT__11
10
0
20
0
30
0
70
128
71
11
72
14
73
12
0
VERTEX
8
OBJECT__11
10
0
20
0
30
0
70
128
71
15
72
16
73
13
0
VERTEX
8
OBJECT__11
10
0
20
0
30
0
70
128
71
1
72
16
73
17
0
VERTEX
8
OBJECT__11
10
0
20
0
30
0
70
128
71
16
72
15
73
17
0
VERTEX
8
OBJECT__11
10
0
20
0
30
0
70
128
71
1
72
4
73
18
0
VERTEX
8
OBJECT__11
10
0
20
0
30
0
70
128
71
6
72
19
73
18
0
VERTEX
8
OBJECT__11
10
0
20
0
30
0
70
128
71
9
72
20
73
19
0
VERTEX
8
OBJECT__11
10
0
20
0
30
0
70
128
71
11
72
21
73
20
0
VERTEX
8
OBJECT__11
10
0
20
0
30
0
70
128
71
11
72
13
73
22
0
VERTEX
8
OBJECT__11
10
0
20
0
30
0
70
128
71
13
72
16
73
23
0
VERTEX
8
OBJECT__11
10
0
20
0
30
0
70
128
71
1
72
24
73
23
0
VERTEX
8
OBJECT__11
10
0
20
0
30
0
70
128
71
23
72
16
73
1
0
VERTEX
8
OBJECT__11
10
0
20
0
30
0
70
128
71
23
72
22
73
13
0
VERTEX
8
OBJECT__11
10
0
20
0
30
0
70
128
71
22
72
21
73
11
0
VERTEX
8
OBJECT__11
10
0
20
0
30
0
70
128
71
20
72
9
73
11
0
VERTEX
8
OBJECT__11
10
0
20
0
30
0
70
128
71
19
72
6
73
9
0
VERTEX
8
OBJECT__11
10
0
20
0
30
0
70
128
71
18
72
4
73
6
0
VERTEX
8
OBJECT__11
10
0
20
0
30
0
70
128
71
18
72
24
73
1
0
VERTEX
8
OBJECT__11
10
0
20
0
30
0
70
128
71
17
72
2
73
1
0
VERTEX
8
OBJECT__11
10
0
20
0
30
0
70
128
71
13
72
25
73
15
0
VERTEX
8
OBJECT__11
10
0
20
0
30
0
70
128
71
12
72
25
73
13
0
VERTEX
8
OBJECT__11
10
0
20
0
30
0
70
128
71
10
72
14
73
11
0
VERTEX
8
OBJECT__11
10
0
20
0
30
0
70
128
71
9
72
6
73
7
0
VERTEX
8
OBJECT__11
10
0
20
0
30
0
70
128
71
4
72
26
73
5
0
VERTEX
8
OBJECT__11
10
0
20
0
30
0
70
128
71
3
72
26
73
4
0
SEQEND
8
OBJECT__11
0
POLYLINE
8
OBJECT__13
66
1
70
64
71
17
72
17
62
253
0
VERTEX
8
OBJECT__13
10
66.934998
20
7.894000
30
-48.792000
70
192
0
VERTEX
8
OBJECT__13
10
61.200001
20
0.000000
30
-48.792000
70
192
0
VERTEX
8
OBJECT__13
10
62.021999
20
3.601000
30
243.244995
70
192
0
VERTEX
8
OBJECT__13
10
62.021999
20
0.000000
30
243.244995
70
192
0
VERTEX
8
OBJECT__13
10
76.214996
20
4.879000
30
-48.792000
70
192
0
VERTEX
8
OBJECT__13
10
67.653000
20
8.092000
30
243.244995
70
192
0
VERTEX
8
OBJECT__13
10
74.675003
20
6.489000
30
243.244995
70
192
0
VERTEX
8
OBJECT__13
10
67.117996
20
7.665000
30
243.244995
70
192
0
VERTEX
8
OBJECT__13
10
75.594002
20
4.580000
30
243.244995
70
192
0
VERTEX
8
OBJECT__13
10
76.214996
20
-4.879000
30
-48.792000
70
192
0
VERTEX
8
OBJECT__13
10
77.800003
20
0.000000
30
243.244995
70
192
0
VERTEX
8
OBJECT__13
10
66.934998
20
-7.894000
30
-48.792000
70
192
0
VERTEX
8
OBJECT__13
10
74.675003
20
-6.489000
30
243.244995
70
192
0
VERTEX
8
OBJECT__13
10
67.653000
20
-8.092000
30
243.244995
70
192
0
VERTEX
8
OBJECT__13
10
75.594002
20
-4.580000
30
243.244995
70
192
0
VERTEX
8
OBJECT__13
10
67.117996
20
-7.665000
30
243.244995
70
192
0
VERTEX
8
OBJECT__13
10
62.021999
20
-3.601000
30
243.244995
70
192
0
VERTEX
8
OBJECT__13
10
0
20
0
30
0
70
128
71
1
72
2
73
3
0
VERTEX
8
OBJECT__13
10
0
20
0
30
0
70
128
71
2
72
4
73
3
0
VERTEX
8
OBJECT__13
10
0
20
0
30
0
70
128
71
5
72
6
73
7
0
VERTEX
8
OBJECT__13
10
0
20
0
30
0
70
128
71
1
72
8
73
6
0
VERTEX
8
OBJECT__13
10
0
20
0
30
0
70
128
71
6
72
5
73
1
0
VERTEX
8
OBJECT__13
10
0
20
0
30
0
70
128
71
7
72
9
73
5
0
VERTEX
8
OBJECT__13
10
0
20
0
30
0
70
128
71
10
72
5
73
11
0
VERTEX
8
OBJECT__13
10
0
20
0
30
0
70
128
71
5
72
9
73
11
0
VERTEX
8
OBJECT__13
10
0
20
0
30
0
70
128
71
12
72
13
73
14
0
VERTEX
8
OBJECT__13
10
0
20
0
30
0
70
128
71
10
72
15
73
13
0
VERTEX
8
OBJECT__13
10
0
20
0
30
0
70
128
71
13
72
12
73
10
0
VERTEX
8
OBJECT__13
10
0
20
0
30
0
70
128
71
14
72
16
73
12
0
VERTEX
8
OBJECT__13
10
0
20
0
30
0
70
128
71
12
72
16
73
17
0
VERTEX
8
OBJECT__13
10
0
20
0
30
0
70
128
71
17
72
2
73
12
0
VERTEX
8
OBJECT__13
10
0
20
0
30
0
70
128
71
17
72
4
73
2
0
VERTEX
8
OBJECT__13
10
0
20
0
30
0
70
128
71
11
72
15
73
10
0
VERTEX
8
OBJECT__13
10
0
20
0
30
0
70
128
71
3
72
8
73
1
0
SEQEND
8
OBJECT__13
0
POLYLINE
8
OBJECT__14
66
1
70
64
71
14
72
14
62
253
0
VERTEX
8
OBJECT__14
10
77.625000
20
-14.073000
30
-48.792000
70
192
0
VERTEX
8
OBJECT__14
10
76.214996
20
-4.879000
30
-48.792000
70
192
0
VERTEX
8
OBJECT__14
10
66.934998
20
-7.894000
30
-48.792000
70
192
0
VERTEX
8
OBJECT__14
10
77.625000
20
14.073000
30
-48.792000
70
192
0
VERTEX
8
OBJECT__14
10
66.678001
20
16.003000
30
-48.792000
70
192
0
VERTEX
8
OBJECT__14
10
66.934998
20
7.894000
30
-48.792000
70
192
0
VERTEX
8
OBJECT__14
10
57.051998
20
10.445000
30
-48.792000
70
192
0
VERTEX
8
OBJECT__14
10
53.250000
20
0.000000
30
-48.792000
70
192
0
VERTEX
8
OBJECT__14
10
61.200001
20
0.000000
30
-48.792000
70
192
0
VERTEX
8
OBJECT__14
10
57.051998
20
-10.445000
30
-48.792000
70
192
0
VERTEX
8
OBJECT__14
10
84.769997
20
-5.558000
30
-48.792000
70
192
0
VERTEX
8
OBJECT__14
10
84.769997
20
5.558000
30
-48.792000
70
192
0
VERTEX
8
OBJECT__14
10
76.214996
20
4.879000
30
-48.792000
70
192
0
VERTEX
8
OBJECT__14
10
66.678001
20
-16.003000
30
-48.792000
70
192
0
VERTEX
8
OBJECT__14
10
0
20
0
30
0
70
128
71
1
72
2
73
3
0
VERTEX
8
OBJECT__14
10
0
20
0
30
0
70
128
71
4
72
5
73
6
0
VERTEX
8
OBJECT__14
10
0
20
0
30
0
70
128
71
7
72
8
73
9
0
VERTEX
8
OBJECT__14
10
0
20
0
30
0
70
128
71
10
72
3
73
9
0
VERTEX
8
OBJECT__14
10
0
20
0
30
0
70
128
71
1
72
11
73
2
0
VERTEX
8
OBJECT__14
10
0
20
0
30
0
70
128
71
11
72
12
73
13
0
VERTEX
8
OBJECT__14
10
0
20
0
30
0
70
128
71
6
72
13
73
4
0
VERTEX
8
OBJECT__14
10
0
20
0
30
0
70
128
71
9
72
6
73
7
0
VERTEX
8
OBJECT__14
10
0
20
0
30
0
70
128
71
10
72
14
73
3
0
VERTEX
8
OBJECT__14
10
0
20
0
30
0
70
128
71
13
72
2
73
11
0
VERTEX
8
OBJECT__14
10
0
20
0
30
0
70
128
71
6
72
5
73
7
0
VERTEX
8
OBJECT__14
10
0
20
0
30
0
70
128
71
3
72
14
73
1
0
VERTEX
8
OBJECT__14
10
0
20
0
30
0
70
128
71
9
72
8
73
10
0
VERTEX
8
OBJECT__14
10
0
20
0
30
0
70
128
71
13
72
12
73
4
0
SEQEND
8
OBJECT__14
0
POLYLINE
8
OBJECT__15
66
1
70
64
71
22
72
22
62
253
0
VERTEX
8
OBJECT__15
10
36.529999
20
21.188999
30
-59.000000
70
192
0
VERTEX
8
OBJECT__15
10
36.529999
20
21.188999
30
-108.313004
70
192
0
VERTEX
8
OBJECT__15
10
30.308001
20
0.000000
30
-108.313004
70
192
0
VERTEX
8
OBJECT__15
10
53.219002
20
35.650002
30
-59.000000
70
192
0
VERTEX
8
OBJECT__15
10
53.219002
20
35.650002
30
-108.313004
70
192
0
VERTEX
8
OBJECT__15
10
75.078003
20
38.792999
30
-59.000000
70
192
0
VERTEX
8
OBJECT__15
10
75.078003
20
38.792999
30
-108.313004
70
192
0
VERTEX
8
OBJECT__15
10
95.165001
20
29.618999
30
-59.000000
70
192
0
VERTEX
8
OBJECT__15
10
95.165001
20
29.618999
30
-108.313004
70
192
0
VERTEX
8
OBJECT__15
10
107.103996
20
11.042000
30
-59.000000
70
192
0
VERTEX
8
OBJECT__15
10
107.103996
20
11.042000
30
-108.313004
70
192
0
VERTEX
8
OBJECT__15
10
107.103996
20
-11.042000
30
-59.000000
70
192
0
VERTEX
8
OBJECT__15
10
107.103996
20
-11.042000
30
-108.313004
70
192
0
VERTEX
8
OBJECT__15
10
95.165001
20
-29.618999
30
-59.000000
70
192
0
VERTEX
8
OBJECT__15
10
95.165001
20
-29.618999
30
-108.313004
70
192
0
VERTEX
8
OBJECT__15
10
75.078003
20
-38.792999
30
-59.000000
70
192
0
VERTEX
8
OBJECT__15
10
75.078003
20
-38.792999
30
-108.313004
70
192
0
VERTEX
8
OBJECT__15
10
53.219002
20
-35.650002
30
-59.000000
70
192
0
VERTEX
8
OBJECT__15
10
53.219002
20
-35.650002
30
-108.313004
70
192
0
VERTEX
8
OBJECT__15
10
36.529999
20
-21.188999
30
-59.000000
70
192
0
VERTEX
8
OBJECT__15
10
36.529999
20
-21.188999
30
-108.313004
70
192
0
VERTEX
8
OBJECT__15
10
30.308001
20
0.000000
30
-59.000000
70
192
0
VERTEX
8
OBJECT__15
10
0
20
0
30
0
70
128
71
1
72
2
73
3
0
VERTEX
8
OBJECT__15
10
0
20
0
30
0
70
128
71
4
72
5
73
2
0
VERTEX
8
OBJECT__15
10
0
20
0
30
0
70
128
71
6
72
7
73
5
0
VERTEX
8
OBJECT__15
10
0
20
0
30
0
70
128
71
8
72
9
73
7
0
VERTEX
8
OBJECT__15
10
0
20
0
30
0
70
128
71
10
72
11
73
9
0
VERTEX
8
OBJECT__15
10
0
20
0
30
0
70
128
71
12
72
13
73
11
0
VERTEX
8
OBJECT__15
10
0
20
0
30
0
70
128
71
14
72
15
73
13
0
VERTEX
8
OBJECT__15
10
0
20
0
30
0
70
128
71
16
72
17
73
15
0
VERTEX
8
OBJECT__15
10
0
20
0
30
0
70
128
71
18
72
19
73
17
0
VERTEX
8
OBJECT__15
10
0
20
0
30
0
70
128
71
20
72
21
73
19
0
VERTEX
8
OBJECT__15
10
0
20
0
30
0
70
128
71
22
72
3
73
21
0
VERTEX
8
OBJECT__15
10
0
20
0
30
0
70
128
71
21
72
20
73
22
0
VERTEX
8
OBJECT__15
10
0
20
0
30
0
70
128
71
19
72
18
73
20
0
VERTEX
8
OBJECT__15
10
0
20
0
30
0
70
128
71
17
72
16
73
18
0
VERTEX
8
OBJECT__15
10
0
20
0
30
0
70
128
71
15
72
14
73
16
0
VERTEX
8
OBJECT__15
10
0
20
0
30
0
70
128
71
13
72
12
73
14
0
VERTEX
8
OBJECT__15
10
0
20
0
30
0
70
128
71
11
72
10
73
12
0
VERTEX
8
OBJECT__15
10
0
20
0
30
0
70
128
71
9
72
8
73
10
0
VERTEX
8
OBJECT__15
10
0
20
0
30
0
70
128
71
7
72
6
73
8
0
VERTEX
8
OBJECT__15
10
0
20
0
30
0
70
128
71
5
72
4
73
6
0
VERTEX
8
OBJECT__15
10
0
20
0
30
0
70
128
71
2
72
1
73
4
0
VERTEX
8
OBJECT__15
10
0
20
0
30
0
70
128
71
3
72
22
73
1
0
SEQEND
8
OBJECT__15
0
POLYLINE
8
OBJECT__16
66
1
70
64
71
20
72
20
62
253
0
VERTEX
8
OBJECT__16
10
75.078003
20
38.792999
30
-59.000000
70
192
0
VERTEX
8
OBJECT__16
10
66.678001
20
16.003000
30
-59.000000
70
192
0
VERTEX
8
OBJECT__16
10
77.625000
20
14.073000
30
-59.000000
70
192
0
VERTEX
8
OBJECT__16
10
75.078003
20
-38.792999
30
-59.000000
70
192
0
VERTEX
8
OBJECT__16
10
95.165001
20
-29.618999
30
-59.000000
70
192
0
VERTEX
8
OBJECT__16
10
77.625000
20
-14.073000
30
-59.000000
70
192
0
VERTEX
8
OBJECT__16
10
95.165001
20
29.618999
30
-59.000000
70
192
0
VERTEX
8
OBJECT__16
10
53.219002
20
35.650002
30
-59.000000
70
192
0
VERTEX
8
OBJECT__16
10
36.529999
20
21.188999
30
-59.000000
70
192
0
VERTEX
8
OBJECT__16
10
57.051998
20
10.445000
30
-59.000000
70
192
0
VERTEX
8
OBJECT__16
10
66.678001
20
-16.003000
30
-59.000000
70
192
0
VERTEX
8
OBJECT__16
10
53.219002
20
-35.650002
30
-59.000000
70
192
0
VERTEX
8
OBJECT__16
10
107.103996
20
-11.042000
30
-59.000000
70
192
0
VERTEX
8
OBJECT__16
10
84.769997
20
-5.558000
30
-59.000000
70
192
0
VERTEX
8
OBJECT__16
10
30.308001
20
0.000000
30
-59.000000
70
192
0
VERTEX
8
OBJECT__16
10
53.250000
20
0.000000
30
-59.000000
70
192
0
VERTEX
8
OBJECT__16
10
36.529999
20
-21.188999
30
-59.000000
70
192
0
VERTEX
8
OBJECT__16
10
57.051998
20
-10.445000
30
-59.000000
70
192
0
VERTEX
8
OBJECT__16
10
107.103996
20
11.042000
30
-59.000000
70
192
0
VERTEX
8
OBJECT__16
10
84.769997
20
5.558000
30
-59.000000
70
192
0
VERTEX
8
OBJECT__16
10
0
20
0
30
0
70
128
71
1
72
2
73
3
0
VERTEX
8
OBJECT__16
10
0
20
0
30
0
70
128
71
4
72
5
73
6
0
VERTEX
8
OBJECT__16
10
0
20
0
30
0
70
128
71
3
72
7
73
1
0
VERTEX
8
OBJECT__16
10
0
20
0
30
0
70
128
71
8
72
9
73
10
0
VERTEX
8
OBJECT__16
10
0
20
0
30
0
70
128
71
11
72
12
73
4
0
VERTEX
8
OBJECT__16
10
0
20
0
30
0
70
128
71
5
72
13
73
14
0
VERTEX
8
OBJECT__16
10
0
20
0
30
0
70
128
71
10
72
2
73
8
0
VERTEX
8
OBJECT__16
10
0
20
0
30
0
70
128
71
9
72
15
73
16
0
VERTEX
8
OBJECT__16
10
0
20
0
30
0
70
128
71
17
72
18
73
16
0
VERTEX
8
OBJECT__16
10
0
20
0
30
0
70
128
71
12
72
11
73
18
0
VERTEX
8
OBJECT__16
10
0
20
0
30
0
70
128
71
14
72
6
73
5
0
VERTEX
8
OBJECT__16
10
0
20
0
30
0
70
128
71
13
72
19
73
20
0
VERTEX
8
OBJECT__16
10
0
20
0
30
0
70
128
71
7
72
3
73
20
0
VERTEX
8
OBJECT__16
10
0
20
0
30
0
70
128
71
16
72
10
73
9
0
VERTEX
8
OBJECT__16
10
0
20
0
30
0
70
128
71
18
72
17
73
12
0
VERTEX
8
OBJECT__16
10
0
20
0
30
0
70
128
71
20
72
14
73
13
0
VERTEX
8
OBJECT__16
10
0
20
0
30
0
70
128
71
1
72
8
73
2
0
VERTEX
8
OBJECT__16
10
0
20
0
30
0
70
128
71
6
72
11
73
4
0
VERTEX
8
OBJECT__16
10
0
20
0
30
0
70
128
71
16
72
15
73
17
0
VERTEX
8
OBJECT__16
10
0
20
0
30
0
70
128
71
20
72
19
73
7
0
SEQEND
8
OBJECT__16
0
POLYLINE
8
OBJECT__17
66
1
70
64
71
27
72
26
62
253
0
VERTEX
8
OBJECT__17
10
69.500000
20
0.000000
30
-156.000000
70
192
0
VERTEX
8
OBJECT__17
10
43.193001
20
0.000000
30
-158.690002
70
192
0
VERTEX
8
OBJECT__17
10
45.798000
20
11.414000
30
-158.690002
70
192
0
VERTEX
8
OBJECT__17
10
46.352001
20
12.109000
30
-158.690002
70
192
0
VERTEX
8
OBJECT__17
10
53.098000
20
20.568001
30
-158.690002
70
192
0
VERTEX
8
OBJECT__17
10
54.703999
20
21.341999
30
-158.690002
70
192
0
VERTEX
8
OBJECT__17
10
63.646000
20
25.648001
30
-158.690002
70
192
0
VERTEX
8
OBJECT__17
10
66.329002
20
25.648001
30
-158.690002
70
192
0
VERTEX
8
OBJECT__17
10
75.353996
20
25.648001
30
-158.690002
70
192
0
VERTEX
8
OBJECT__17
10
78.584999
20
24.091999
30
-158.690002
70
192
0
VERTEX
8
OBJECT__17
10
85.902000
20
20.568001
30
-158.690002
70
192
0
VERTEX
8
OBJECT__17
10
88.703003
20
17.056000
30
-158.690002
70
192
0
VERTEX
8
OBJECT__17
10
93.202003
20
11.414000
30
-158.690002
70
192
0
VERTEX
8
OBJECT__17
10
94.403999
20
6.150000
30
-158.690002
70
192
0
VERTEX
8
OBJECT__17
10
95.806999
20
0.000000
30
-158.690002
70
192
0
VERTEX
8
OBJECT__17
10
94.403999
20
-6.150000
30
-158.690002
70
192
0
VERTEX
8
OBJECT__17
10
93.202003
20
-11.414000
30
-158.690002
70
192
0
VERTEX
8
OBJECT__17
10
88.703003
20
-17.056000
30
-158.690002
70
192
0
VERTEX
8
OBJECT__17
10
85.902000
20
-20.568001
30
-158.690002
70
192
0
VERTEX
8
OBJECT__17
10
78.584999
20
-24.091999
30
-158.690002
70
192
0
VERTEX
8
OBJECT__17
10
75.353996
20
-25.648001
30
-158.690002
70
192
0
VERTEX
8
OBJECT__17
10
66.329002
20
-25.648001
30
-158.690002
70
192
0
VERTEX
8
OBJECT__17
10
63.646000
20
-25.648001
30
-158.690002
70
192
0
VERTEX
8
OBJECT__17
10
54.703999
20
-21.341999
30
-158.690002
70
192
0
VERTEX
8
OBJECT__17
10
53.098000
20
-20.568001
30
-158.690002
70
192
0
VERTEX
8
OBJECT__17
10
46.352001
20
-12.109000
30
-158.690002
70
192
0
VERTEX
8
OBJECT__17
10
45.798000
20
-11.414000
30
-158.690002
70
192
0
VERTEX
8
OBJECT__17
10
0
20
0
30
0
70
128
71
1
72
2
73
3
0
VERTEX
8
OBJECT__17
10
0
20
0
30
0
70
128
71
1
72
4
73
5
0
VERTEX
8
OBJECT__17
10
0
20
0
30
0
70
128
71
1
72
6
73
7
0
VERTEX
8
OBJECT__17
10
0
20
0
30
0
70
128
71
1
72
8
73
9
0
VERTEX
8
OBJECT__17
10
0
20
0
30
0
70
128
71
1
72
10
73
11
0
VERTEX
8
OBJECT__17
10
0
20
0
30
0
70
128
71
1
72
12
73
13
0
VERTEX
8
OBJECT__17
10
0
20
0
30
0
70
128
71
1
72
14
73
15
0
VERTEX
8
OBJECT__17
10
0
20
0
30
0
70
128
71
1
72
16
73
17
0
VERTEX
8
OBJECT__17
10
0
20
0
30
0
70
128
71
1
72
18
73
19
0
VERTEX
8
OBJECT__17
10
0
20
0
30
0
70
128
71
1
72
20
73
21
0
VERTEX
8
OBJECT__17
10
0
20
0
30
0
70
128
71
1
72
22
73
23
0
VERTEX
8
OBJECT__17
10
0
20
0
30
0
70
128
71
1
72
24
73
25
0
VERTEX
8
OBJECT__17
10
0
20
0
30
0
70
128
71
1
72
26
73
27
0
VERTEX
8
OBJECT__17
10
0
20
0
30
0
70
128
71
27
72
2
73
1
0
VERTEX
8
OBJECT__17
10
0
20
0
30
0
70
128
71
25
72
26
73
1
0
VERTEX
8
OBJECT__17
10
0
20
0
30
0
70
128
71
23
72
24
73
1
0
VERTEX
8
OBJECT__17
10
0
20
0
30
0
70
128
71
21
72
22
73
1
0
VERTEX
8
OBJECT__17
10
0
20
0
30
0
70
128
71
19
72
20
73
1
0
VERTEX
8
OBJECT__17
10
0
20
0
30
0
70
128
71
17
72
18
73
1
0
VERTEX
8
OBJECT__17
10
0
20
0
30
0
70
128
71
15
72
16
73
1
0
VERTEX
8
OBJECT__17
10
0
20
0
30
0
70
128
71
13
72
14
73
1
0
VERTEX
8
OBJECT__17
10
0
20
0
30
0
70
128
71
11
72
12
73
1
0
VERTEX
8
OBJECT__17
10
0
20
0
30
0
70
128
71
9
72
10
73
1
0
VERTEX
8
OBJECT__17
10
0
20
0
30
0
70
128
71
7
72
8
73
1
0
VERTEX
8
OBJECT__17
10
0
20
0
30
0
70
128
71
5
72
6
73
1
0
VERTEX
8
OBJECT__17
10
0
20
0
30
0
70
128
71
3
72
4
73
1
0
SEQEND
8
OBJECT__17
0
POLYLINE
8
OBJECT__18
66
1
70
64
71
40
72
40
62
253
0
VERTEX
8
OBJECT__18
10
98.843002
20
0.000000
30
-159.000000
70
192
0
VERTEX
8
OBJECT__18
10
95.936996
20
-12.731000
30
-159.000000
70
192
0
VERTEX
8
OBJECT__18
10
94.403999
20
-6.150000
30
-158.690002
70
192
0
VERTEX
8
OBJECT__18
10
93.202003
20
-11.414000
30
-158.690002
70
192
0
VERTEX
8
OBJECT__18
10
87.794998
20
-22.941000
30
-159.000000
70
192
0
VERTEX
8
OBJECT__18
10
88.703003
20
-17.056000
30
-158.690002
70
192
0
VERTEX
8
OBJECT__18
10
85.902000
20
-20.568001
30
-158.690002
70
192
0
VERTEX
8
OBJECT__18
10
76.028999
20
-28.607000
30
-159.000000
70
192
0
VERTEX
8
OBJECT__18
10
78.584999
20
-24.091999
30
-158.690002
70
192
0
VERTEX
8
OBJECT__18
10
75.353996
20
-25.648001
30
-158.690002
70
192
0
VERTEX
8
OBJECT__18
10
62.971001
20
-28.607000
30
-159.000000
70
192
0
VERTEX
8
OBJECT__18
10
66.329002
20
-25.648001
30
-158.690002
70
192
0
VERTEX
8
OBJECT__18
10
63.646000
20
-25.648001
30
-158.690002
70
192
0
VERTEX
8
OBJECT__18
10
51.205002
20
-22.941000
30
-159.000000
70
192
0
VERTEX
8
OBJECT__18
10
54.703999
20
-21.341999
30
-158.690002
70
192
0
VERTEX
8
OBJECT__18
10
53.098000
20
-20.568001
30
-158.690002
70
192
0
VERTEX
8
OBJECT__18
10
43.063000
20
-12.731000
30
-159.000000
70
192
0
VERTEX
8
OBJECT__18
10
46.352001
20
-12.109000
30
-158.690002
70
192
0
VERTEX
8
OBJECT__18
10
45.798000
20
-11.414000
30
-158.690002
70
192
0
VERTEX
8
OBJECT__18
10
40.157001
20
0.000000
30
-159.000000
70
192
0
VERTEX
8
OBJECT__18
10
43.193001
20
0.000000
30
-158.690002
70
192
0
VERTEX
8
OBJECT__18
10
43.063000
20
12.731000
30
-159.000000
70
192
0
VERTEX
8
OBJECT__18
10
45.798000
20
11.414000
30
-158.690002
70
192
0
VERTEX
8
OBJECT__18
10
51.205002
20
22.941000
30
-159.000000
70
192
0
VERTEX
8
OBJECT__18
10
53.098000
20
20.568001
30
-158.690002
70
192
0
VERTEX
8
OBJECT__18
10
46.352001
20
12.109000
30
-158.690002
70
192
0
VERTEX
8
OBJECT__18
10
62.971001
20
28.607000
30
-159.000000
70
192
0
VERTEX
8
OBJECT__18
10
63.646000
20
25.648001
30
-158.690002
70
192
0
VERTEX
8
OBJECT__18
10
54.703999
20
21.341999
30
-158.690002
70
192
0
VERTEX
8
OBJECT__18
10
76.028999
20
28.607000
30
-159.000000
70
192
0
VERTEX
8
OBJECT__18
10
75.353996
20
25.648001
30
-158.690002
70
192
0
VERTEX
8
OBJECT__18
10
66.329002
20
25.648001
30
-158.690002
70
192
0
VERTEX
8
OBJECT__18
10
87.794998
20
22.941000
30
-159.000000
70
192
0
VERTEX
8
OBJECT__18
10
85.902000
20
20.568001
30
-158.690002
70
192
0
VERTEX
8
OBJECT__18
10
78.584999
20
24.091999
30
-158.690002
70
192
0
VERTEX
8
OBJECT__18
10
95.936996
20
12.731000
30
-159.000000
70
192
0
VERTEX
8
OBJECT__18
10
93.202003
20
11.414000
30
-158.690002
70
192
0
VERTEX
8
OBJECT__18
10
88.703003
20
17.056000
30
-158.690002
70
192
0
VERTEX
8
OBJECT__18
10
95.806999
20
0.000000
30
-158.690002
70
192
0
VERTEX
8
OBJECT__18
10
94.403999
20
6.150000
30
-158.690002
70
192
0
VERTEX
8
OBJECT__18
10
0
20
0
30
0
70
128
71
1
72
2
73
3
0
VERTEX
8
OBJECT__18
10
0
20
0
30
0
70
128
71
2
72
4
73
3
0
VERTEX
8
OBJECT__18
10
0
20
0
30
0
70
128
71
2
72
5
73
6
0
VERTEX
8
OBJECT__18
10
0
20
0
30
0
70
128
71
5
72
7
73
6
0
VERTEX
8
OBJECT__18
10
0
20
0
30
0
70
128
71
5
72
8
73
9
0
VERTEX
8
OBJECT__18
10
0
20
0
30
0
70
128
71
8
72
10
73
9
0
VERTEX
8
OBJECT__18
10
0
20
0
30
0
70
128
71
8
72
11
73
12
0
VERTEX
8
OBJECT__18
10
0
20
0
30
0
70
128
71
11
72
13
73
12
0
VERTEX
8
OBJECT__18
10
0
20
0
30
0
70
128
71
11
72
14
73
15
0
VERTEX
8
OBJECT__18
10
0
20
0
30
0
70
128
71
14
72
16
73
15
0
VERTEX
8
OBJECT__18
10
0
20
0
30
0
70
128
71
14
72
17
73
18
0
VERTEX
8
OBJECT__18
10
0
20
0
30
0
70
128
71
17
72
19
73
18
0
VERTEX
8
OBJECT__18
10
0
20
0
30
0
70
128
71
17
72
20
73
21
0
VERTEX
8
OBJECT__18
10
0
20
0
30
0
70
128
71
22
72
23
73
21
0
VERTEX
8
OBJECT__18
10
0
20
0
30
0
70
128
71
24
72
25
73
26
0
VERTEX
8
OBJECT__18
10
0
20
0
30
0
70
128
71
26
72
22
73
24
0
VERTEX
8
OBJECT__18
10
0
20
0
30
0
70
128
71
27
72
28
73
29
0
VERTEX
8
OBJECT__18
10
0
20
0
30
0
70
128
71
29
72
24
73
27
0
VERTEX
8
OBJECT__18
10
0
20
0
30
0
70
128
71
30
72
31
73
32
0
VERTEX
8
OBJECT__18
10
0
20
0
30
0
70
128
71
32
72
27
73
30
0
VERTEX
8
OBJECT__18
10
0
20
0
30
0
70
128
71
33
72
34
73
35
0
VERTEX
8
OBJECT__18
10
0
20
0
30
0
70
128
71
35
72
30
73
33
0
VERTEX
8
OBJECT__18
10
0
20
0
30
0
70
128
71
36
72
37
73
38
0
VERTEX
8
OBJECT__18
10
0
20
0
30
0
70
128
71
38
72
33
73
36
0
VERTEX
8
OBJECT__18
10
0
20
0
30
0
70
128
71
1
72
39
73
40
0
VERTEX
8
OBJECT__18
10
0
20
0
30
0
70
128
71
40
72
36
73
1
0
VERTEX
8
OBJECT__18
10
0
20
0
30
0
70
128
71
40
72
37
73
36
0
VERTEX
8
OBJECT__18
10
0
20
0
30
0
70
128
71
38
72
34
73
33
0
VERTEX
8
OBJECT__18
10
0
20
0
30
0
70
128
71
35
72
31
73
30
0
VERTEX
8
OBJECT__18
10
0
20
0
30
0
70
128
71
32
72
28
73
27
0
VERTEX
8
OBJECT__18
10
0
20
0
30
0
70
128
71
29
72
25
73
24
0
VERTEX
8
OBJECT__18
10
0
20
0
30
0
70
128
71
26
72
23
73
22
0
VERTEX
8
OBJECT__18
10
0
20
0
30
0
70
128
71
21
72
20
73
22
0
VERTEX
8
OBJECT__18
10
0
20
0
30
0
70
128
71
21
72
19
73
17
0
VERTEX
8
OBJECT__18
10
0
20
0
30
0
70
128
71
18
72
16
73
14
0
VERTEX
8
OBJECT__18
10
0
20
0
30
0
70
128
71
15
72
13
73
11
0
VERTEX
8
OBJECT__18
10
0
20
0
30
0
70
128
71
12
72
10
73
8
0
VERTEX
8
OBJECT__18
10
0
20
0
30
0
70
128
71
9
72
7
73
5
0
VERTEX
8
OBJECT__18
10
0
20
0
30
0
70
128
71
6
72
4
73
2
0
VERTEX
8
OBJECT__18
10
0
20
0
30
0
70
128
71
3
72
39
73
1
0
SEQEND
8
OBJECT__18
0
POLYLINE
8
OBJECT__20
66
1
70
64
71
31
72
31
62
253
0
VERTEX
8
OBJECT__20
10
88.110001
20
-37.373001
30
-159.000000
70
192
0
VERTEX
8
OBJECT__20
10
73.351997
20
-41.571999
30
-159.000000
70
192
0
VERTEX
8
OBJECT__20
10
76.028999
20
-28.607000
30
-159.000000
70
192
0
VERTEX
8
OBJECT__20
10
58.075001
20
40.155998
30
-159.000000
70
192
0
VERTEX
8
OBJECT__20
10
62.971001
20
28.607000
30
-159.000000
70
192
0
VERTEX
8
OBJECT__20
10
51.205002
20
22.941000
30
-159.000000
70
192
0
VERTEX
8
OBJECT__20
10
73.351997
20
41.571999
30
-159.000000
70
192
0
VERTEX
8
OBJECT__20
10
76.028999
20
28.607000
30
-159.000000
70
192
0
VERTEX
8
OBJECT__20
10
88.110001
20
37.373001
30
-159.000000
70
192
0
VERTEX
8
OBJECT__20
10
87.794998
20
22.941000
30
-159.000000
70
192
0
VERTEX
8
OBJECT__20
10
108.431000
20
15.082000
30
-159.000000
70
192
0
VERTEX
8
OBJECT__20
10
111.250000
20
0.000000
30
-159.000000
70
192
0
VERTEX
8
OBJECT__20
10
98.843002
20
0.000000
30
-159.000000
70
192
0
VERTEX
8
OBJECT__20
10
108.431000
20
-15.082000
30
-159.000000
70
192
0
VERTEX
8
OBJECT__20
10
95.936996
20
-12.731000
30
-159.000000
70
192
0
VERTEX
8
OBJECT__20
10
100.353996
20
-28.127001
30
-159.000000
70
192
0
VERTEX
8
OBJECT__20
10
87.794998
20
-22.941000
30
-159.000000
70
192
0
VERTEX
8
OBJECT__20
10
58.075001
20
-40.155998
30
-159.000000
70
192
0
VERTEX
8
OBJECT__20
10
62.971001
20
-28.607000
30
-159.000000
70
192
0
VERTEX
8
OBJECT__20
10
44.340000
20
-33.317001
30
-159.000000
70
192
0
VERTEX
8
OBJECT__20
10
51.205002
20
-22.941000
30
-159.000000
70
192
0
VERTEX
8
OBJECT__20
10
28.461000
20
-7.672000
30
-159.000000
70
192
0
VERTEX
8
OBJECT__20
10
40.157001
20
0.000000
30
-159.000000
70
192
0
VERTEX
8
OBJECT__20
10
43.063000
20
-12.731000
30
-159.000000
70
192
0
VERTEX
8
OBJECT__20
10
28.461000
20
7.672000
30
-159.000000
70
192
0
VERTEX
8
OBJECT__20
10
34.002998
20
21.979000
30
-159.000000
70
192
0
VERTEX
8
OBJECT__20
10
43.063000
20
12.731000
30
-159.000000
70
192
0
VERTEX
8
OBJECT__20
10
44.340000
20
33.317001
30
-159.000000
70
192
0
VERTEX
8
OBJECT__20
10
100.353996
20
28.127001
30
-159.000000
70
192
0
VERTEX
8
OBJECT__20
10
95.936996
20
12.731000
30
-159.000000
70
192
0
VERTEX
8
OBJECT__20
10
34.002998
20
-21.979000
30
-159.000000
70
192
0
VERTEX
8
OBJECT__20
10
0
20
0
30
0
70
128
71
1
72
2
73
3
0
VERTEX
8
OBJECT__20
10
0
20
0
30
0
70
128
71
4
72
5
73
6
0
VERTEX
8
OBJECT__20
10
0
20
0
30
0
70
128
71
7
72
8
73
5
0
VERTEX
8
OBJECT__20
10
0
20
0
30
0
70
128
71
9
72
10
73
8
0
VERTEX
8
OBJECT__20
10
0
20
0
30
0
70
128
71
11
72
12
73
13
0
VERTEX
8
OBJECT__20
10
0
20
0
30
0
70
128
71
14
72
15
73
13
0
VERTEX
8
OBJECT__20
10
0
20
0
30
0
70
128
71
16
72
17
73
15
0
VERTEX
8
OBJECT__20
10
0
20
0
30
0
70
128
71
17
72
16
73
1
0
VERTEX
8
OBJECT__20
10
0
20
0
30
0
70
128
71
5
72
4
73
7
0
VERTEX
8
OBJECT__20
10
0
20
0
30
0
70
128
71
8
72
7
73
9
0
VERTEX
8
OBJECT__20
10
0
20
0
30
0
70
128
71
13
72
12
73
14
0
VERTEX
8
OBJECT__20
10
0
20
0
30
0
70
128
71
3
72
17
73
1
0
VERTEX
8
OBJECT__20
10
0
20
0
30
0
70
128
71
2
72
18
73
19
0
VERTEX
8
OBJECT__20
10
0
20
0
30
0
70
128
71
18
72
20
73
21
0
VERTEX
8
OBJECT__20
10
0
20
0
30
0
70
128
71
22
72
23
73
24
0
VERTEX
8
OBJECT__20
10
0
20
0
30
0
70
128
71
25
72
26
73
27
0
VERTEX
8
OBJECT__20
10
0
20
0
30
0
70
128
71
26
72
28
73
6
0
VERTEX
8
OBJECT__20
10
0
20
0
30
0
70
128
71
9
72
29
73
10
0
VERTEX
8
OBJECT__20
10
0
20
0
30
0
70
128
71
29
72
11
73
30
0
VERTEX
8
OBJECT__20
10
0
20
0
30
0
70
128
71
15
72
14
73
16
0
VERTEX
8
OBJECT__20
10
0
20
0
30
0
70
128
71
21
72
19
73
18
0
VERTEX
8
OBJECT__20
10
0
20
0
30
0
70
128
71
31
72
24
73
21
0
VERTEX
8
OBJECT__20
10
0
20
0
30
0
70
128
71
24
72
31
73
22
0
VERTEX
8
OBJECT__20
10
0
20
0
30
0
70
128
71
6
72
27
73
26
0
VERTEX
8
OBJECT__20
10
0
20
0
30
0
70
128
71
30
72
10
73
29
0
VERTEX
8
OBJECT__20
10
0
20
0
30
0
70
128
71
19
72
3
73
2
0
VERTEX
8
OBJECT__20
10
0
20
0
30
0
70
128
71
22
72
25
73
23
0
VERTEX
8
OBJECT__20
10
0
20
0
30
0
70
128
71
6
72
28
73
4
0
VERTEX
8
OBJECT__20
10
0
20
0
30
0
70
128
71
21
72
20
73
31
0
VERTEX
8
OBJECT__20
10
0
20
0
30
0
70
128
71
13
72
30
73
11
0
VERTEX
8
OBJECT__20
10
0
20
0
30
0
70
128
71
27
72
23
73
25
0
SEQEND
8
OBJECT__20
0
POLYLINE
8
OBJECT__21
66
1
70
64
71
62
72
79
62
253
0
VERTEX
8
OBJECT__21
10
114.250000
20
0.000000
30
-156.000000
70
192
0
VERTEX
8
OBJECT__21
10
111.227997
20
-16.166000
30
-156.000000
70
192
0
VERTEX
8
OBJECT__21
10
110.408997
20
-15.848000
30
-158.121002
70
192
0
VERTEX
8
OBJECT__21
10
101.920998
20
-29.556000
30
-158.121002
70
192
0
VERTEX
8
OBJECT__21
10
107.625000
20
-21.985001
30
-156.000000
70
192
0
VERTEX
8
OBJECT__21
10
102.570999
20
-30.148001
30
-156.000000
70
192
0
VERTEX
8
OBJECT__21
10
91.620003
20
-38.417000
30
-156.000000
70
192
0
VERTEX
8
OBJECT__21
10
89.055000
20
-39.271999
30
-158.121002
70
192
0
VERTEX
8
OBJECT__21
10
89.446999
20
-40.058998
30
-156.000000
70
192
0
VERTEX
8
OBJECT__21
10
73.628998
20
-44.558998
30
-156.000000
70
192
0
VERTEX
8
OBJECT__21
10
73.547997
20
-43.683998
30
-158.121002
70
192
0
VERTEX
8
OBJECT__21
10
57.493999
20
-42.196999
30
-158.121002
70
192
0
VERTEX
8
OBJECT__21
10
69.553001
20
-44.181000
30
-156.000000
70
192
0
VERTEX
8
OBJECT__21
10
57.254002
20
-43.042000
30
-156.000000
70
192
0
VERTEX
8
OBJECT__21
10
47.426998
20
-38.148998
30
-156.000000
70
192
0
VERTEX
8
OBJECT__21
10
43.062000
20
-35.009998
30
-158.121002
70
192
0
VERTEX
8
OBJECT__21
10
42.532001
20
-35.710999
30
-156.000000
70
192
0
VERTEX
8
OBJECT__21
10
31.452999
20
-23.558001
30
-156.000000
70
192
0
VERTEX
8
OBJECT__21
10
32.200001
20
-23.094999
30
-158.121002
70
192
0
VERTEX
8
OBJECT__21
10
26.375999
20
-8.061000
30
-158.121002
70
192
0
VERTEX
8
OBJECT__21
10
30.962000
20
-22.291000
30
-156.000000
70
192
0
VERTEX
8
OBJECT__21
10
26.375999
20
8.061000
30
-158.121002
70
192
0
VERTEX
8
OBJECT__21
10
25.511999
20
0.000000
30
-156.000000
70
192
0
VERTEX
8
OBJECT__21
10
25.511999
20
-8.223000
30
-156.000000
70
192
0
VERTEX
8
OBJECT__21
10
25.511999
20
8.223000
30
-156.000000
70
192
0
VERTEX
8
OBJECT__21
10
30.962000
20
22.291000
30
-156.000000
70
192
0
VERTEX
8
OBJECT__21
10
32.200001
20
23.094999
30
-158.121002
70
192
0
VERTEX
8
OBJECT__21
10
42.532001
20
35.710999
30
-156.000000
70
192
0
VERTEX
8
OBJECT__21
10
43.062000
20
35.009998
30
-158.121002
70
192
0
VERTEX
8
OBJECT__21
10
57.493999
20
42.196999
30
-158.121002
70
192
0
VERTEX
8
OBJECT__21
10
47.426998
20
38.148998
30
-156.000000
70
192
0
VERTEX
8
OBJECT__21
10
57.254002
20
43.042000
30
-156.000000
70
192
0
VERTEX
8
OBJECT__21
10
69.553001
20
44.181000
30
-156.000000
70
192
0
VERTEX
8
OBJECT__21
10
73.547997
20
43.683998
30
-158.121002
70
192
0
VERTEX
8
OBJECT__21
10
73.628998
20
44.558998
30
-156.000000
70
192
0
VERTEX
8
OBJECT__21
10
89.446999
20
40.058998
30
-156.000000
70
192
0
VERTEX
8
OBJECT__21
10
89.055000
20
39.271999
30
-158.121002
70
192
0
VERTEX
8
OBJECT__21
10
101.920998
20
29.556000
30
-158.121002
70
192
0
VERTEX
8
OBJECT__21
10
91.620003
20
38.417000
30
-156.000000
70
192
0
VERTEX
8
OBJECT__21
10
102.570999
20
30.148001
30
-156.000000
70
192
0
VERTEX
8
OBJECT__21
10
107.625000
20
21.985001
30
-156.000000
70
192
0
VERTEX
8
OBJECT__21
10
110.408997
20
15.848000
30
-158.121002
70
192
0
VERTEX
8
OBJECT__21
10
111.227997
20
16.166000
30
-156.000000
70
192
0
VERTEX
8
OBJECT__21
10
113.371002
20
0.000000
30
-158.121002
70
192
0
VERTEX
8
OBJECT__21
10
108.431000
20
-15.082000
30
-159.000000
70
192
0
VERTEX
8
OBJECT__21
10
100.353996
20
-28.127001
30
-159.000000
70
192
0
VERTEX
8
OBJECT__21
10
88.110001
20
-37.373001
30
-159.000000
70
192
0
VERTEX
8
OBJECT__21
10
73.351997
20
-41.571999
30
-159.000000
70
192
0
VERTEX
8
OBJECT__21
10
58.075001
20
-40.155998
30
-159.000000
70
192
0
VERTEX
8
OBJECT__21
10
44.340000
20
-33.317001
30
-159.000000
70
192
0
VERTEX
8
OBJECT__21
10
34.002998
20
-21.979000
30
-159.000000
70
192
0
VERTEX
8
OBJECT__21
10
28.461000
20
-7.672000
30
-159.000000
70
192
0
VERTEX
8
OBJECT__21
10
28.461000
20
7.672000
30
-159.000000
70
192
0
VERTEX
8
OBJECT__21
10
34.002998
20
21.979000
30
-159.000000
70
192
0
VERTEX
8
OBJECT__21
10
44.340000
20
33.317001
30
-159.000000
70
192
0
VERTEX
8
OBJECT__21
10
58.075001
20
40.155998
30
-159.000000
70
192
0
VERTEX
8
OBJECT__21
10
73.351997
20
41.571999
30
-159.000000
70
192
0
VERTEX
8
OBJECT__21
10
88.110001
20
37.373001
30
-159.000000
70
192
0
VERTEX
8
OBJECT__21
10
100.353996
20
28.127001
30
-159.000000
70
192
0
VERTEX
8
OBJECT__21
10
108.431000
20
15.082000
30
-159.000000
70
192
0
VERTEX
8
OBJECT__21
10
111.250000
20
0.000000
30
-159.000000
70
192
0
VERTEX
8
OBJECT__21
10
31.452999
20
23.558001
30
-156.000000
70
192
0
VERTEX
8
OBJECT__21
10
0
20
0
30
0
70
128
71
1
72
2
73
3
0
VERTEX
8
OBJECT__21
10
0
20
0
30
0
70
128
71
4
72
3
73
5
0
VERTEX
8
OBJECT__21
10
0
20
0
30
0
70
128
71
3
72
2
73
5
0
VERTEX
8
OBJECT__21
10
0
20
0
30
0
70
128
71
4
72
6
73
7
0
VERTEX
8
OBJECT__21
10
0
20
0
30
0
70
128
71
7
72
8
73
4
0
VERTEX
8
OBJECT__21
10
0
20
0
30
0
70
128
71
9
72
10
73
11
0
VERTEX
8
OBJECT__21
10
0
20
0
30
0
70
128
71
12
72
11
73
13
0
VERTEX
8
OBJECT__21
10
0
20
0
30
0
70
128
71
11
72
10
73
13
0
VERTEX
8
OBJECT__21
10
0
20
0
30
0
70
128
71
12
72
14
73
15
0
VERTEX
8
OBJECT__21
10
0
20
0
30
0
70
128
71
15
72
16
73
12
0
VERTEX
8
OBJECT__21
10
0
20
0
30
0
70
128
71
17
72
18
73
19
0
VERTEX
8
OBJECT__21
10
0
20
0
30
0
70
128
71
20
72
19
73
21
0
VERTEX
8
OBJECT__21
10
0
20
0
30
0
70
128
71
19
72
18
73
21
0
VERTEX
8
OBJECT__21
10
0
20
0
30
0
70
128
71
22
72
20
73
23
0
VERTEX
8
OBJECT__21
10
0
20
0
30
0
70
128
71
20
72
24
73
23
0
VERTEX
8
OBJECT__21
10
0
20
0
30
0
70
128
71
22
72
25
73
26
0
VERTEX
8
OBJECT__21
10
0
20
0
30
0
70
128
71
26
72
27
73
22
0
VERTEX
8
OBJECT__21
10
0
20
0
30
0
70
128
71
28
72
29
73
27
0
VERTEX
8
OBJECT__21
10
0
20
0
30
0
70
128
71
30
72
29
73
31
0
VERTEX
8
OBJECT__21
10
0
20
0
30
0
70
128
71
29
72
28
73
31
0
VERTEX
8
OBJECT__21
10
0
20
0
30
0
70
128
71
30
72
32
73
33
0
VERTEX
8
OBJECT__21
10
0
20
0
30
0
70
128
71
33
72
34
73
30
0
VERTEX
8
OBJECT__21
10
0
20
0
30
0
70
128
71
35
72
36
73
37
0
VERTEX
8
OBJECT__21
10
0
20
0
30
0
70
128
71
38
72
37
73
39
0
VERTEX
8
OBJECT__21
10
0
20
0
30
0
70
128
71
37
72
36
73
39
0
VERTEX
8
OBJECT__21
10
0
20
0
30
0
70
128
71
38
72
40
73
41
0
VERTEX
8
OBJECT__21
10
0
20
0
30
0
70
128
71
41
72
42
73
38
0
VERTEX
8
OBJECT__21
10
0
20
0
30
0
70
128
71
43
72
1
73
44
0
VERTEX
8
OBJECT__21
10
0
20
0
30
0
70
128
71
44
72
3
73
45
0
VERTEX
8
OBJECT__21
10
0
20
0
30
0
70
128
71
4
72
46
73
45
0
VERTEX
8
OBJECT__21
10
0
20
0
30
0
70
128
71
8
72
47
73
46
0
VERTEX
8
OBJECT__21
10
0
20
0
30
0
70
128
71
8
72
11
73
48
0
VERTEX
8
OBJECT__21
10
0
20
0
30
0
70
128
71
11
72
12
73
49
0
VERTEX
8
OBJECT__21
10
0
20
0
30
0
70
128
71
16
72
50
73
49
0
VERTEX
8
OBJECT__21
10
0
20
0
30
0
70
128
71
19
72
51
73
50
0
VERTEX
8
OBJECT__21
10
0
20
0
30
0
70
128
71
20
72
52
73
51
0
VERTEX
8
OBJECT__21
10
0
20
0
30
0
70
128
71
22
72
53
73
52
0
VERTEX
8
OBJECT__21
10
0
20
0
30
0
70
128
71
22
72
27
73
54
0
VERTEX
8
OBJECT__21
10
0
20
0
30
0
70
128
71
27
72
29
73
55
0
VERTEX
8
OBJECT__21
10
0
20
0
30
0
70
128
71
29
72
30
73
56
0
VERTEX
8
OBJECT__21
10
0
20
0
30
0
70
128
71
30
72
34
73
57
0
VERTEX
8
OBJECT__21
10
0
20
0
30
0
70
128
71
34
72
37
73
58
0
VERTEX
8
OBJECT__21
10
0
20
0
30
0
70
128
71
37
72
38
73
59
0
VERTEX
8
OBJECT__21
10
0
20
0
30
0
70
128
71
42
72
60
73
59
0
VERTEX
8
OBJECT__21
10
0
20
0
30
0
70
128
71
42
72
44
73
61
0
VERTEX
8
OBJECT__21
10
0
20
0
30
0
70
128
71
61
72
60
73
42
0
VERTEX
8
OBJECT__21
10
0
20
0
30
0
70
128
71
59
72
38
73
42
0
VERTEX
8
OBJECT__21
10
0
20
0
30
0
70
128
71
59
72
58
73
37
0
VERTEX
8
OBJECT__21
10
0
20
0
30
0
70
128
71
58
72
57
73
34
0
VERTEX
8
OBJECT__21
10
0
20
0
30
0
70
128
71
57
72
56
73
30
0
VERTEX
8
OBJECT__21
10
0
20
0
30
0
70
128
71
56
72
55
73
29
0
VERTEX
8
OBJECT__21
10
0
20
0
30
0
70
128
71
55
72
54
73
27
0
VERTEX
8
OBJECT__21
10
0
20
0
30
0
70
128
71
54
72
53
73
22
0
VERTEX
8
OBJECT__21
10
0
20
0
30
0
70
128
71
52
72
20
73
22
0
VERTEX
8
OBJECT__21
10
0
20
0
30
0
70
128
71
51
72
19
73
20
0
VERTEX
8
OBJECT__21
10
0
20
0
30
0
70
128
71
50
72
16
73
19
0
VERTEX
8
OBJECT__21
10
0
20
0
30
0
70
128
71
49
72
12
73
16
0
VERTEX
8
OBJECT__21
10
0
20
0
30
0
70
128
71
49
72
48
73
11
0
VERTEX
8
OBJECT__21
10
0
20
0
30
0
70
128
71
48
72
47
73
8
0
VERTEX
8
OBJECT__21
10
0
20
0
30
0
70
128
71
46
72
4
73
8
0
VERTEX
8
OBJECT__21
10
0
20
0
30
0
70
128
71
45
72
3
73
4
0
VERTEX
8
OBJECT__21
10
0
20
0
30
0
70
128
71
45
72
61
73
44
0
VERTEX
8
OBJECT__21
10
0
20
0
30
0
70
128
71
44
72
42
73
43
0
VERTEX
8
OBJECT__21
10
0
20
0
30
0
70
128
71
41
72
43
73
42
0
VERTEX
8
OBJECT__21
10
0
20
0
30
0
70
128
71
39
72
40
73
38
0
VERTEX
8
OBJECT__21
10
0
20
0
30
0
70
128
71
37
72
34
73
35
0
VERTEX
8
OBJECT__21
10
0
20
0
30
0
70
128
71
33
72
35
73
34
0
VERTEX
8
OBJECT__21
10
0
20
0
30
0
70
128
71
31
72
32
73
30
0
VERTEX
8
OBJECT__21
10
0
20
0
30
0
70
128
71
27
72
62
73
28
0
VERTEX
8
OBJECT__21
10
0
20
0
30
0
70
128
71
26
72
62
73
27
0
VERTEX
8
OBJECT__21
10
0
20
0
30
0
70
128
71
23
72
25
73
22
0
VERTEX
8
OBJECT__21
10
0
20
0
30
0
70
128
71
21
72
24
73
20
0
VERTEX
8
OBJECT__21
10
0
20
0
30
0
70
128
71
19
72
16
73
17
0
VERTEX
8
OBJECT__21
10
0
20
0
30
0
70
128
71
15
72
17
73
16
0
VERTEX
8
OBJECT__21
10
0
20
0
30
0
70
128
71
13
72
14
73
12
0
VERTEX
8
OBJECT__21
10
0
20
0
30
0
70
128
71
11
72
8
73
9
0
VERTEX
8
OBJECT__21
10
0
20
0
30
0
70
128
71
7
72
9
73
8
0
VERTEX
8
OBJECT__21
10
0
20
0
30
0
70
128
71
5
72
6
73
4
0
VERTEX
8
OBJECT__21
10
0
20
0
30
0
70
128
71
3
72
44
73
1
0
SEQEND
8
OBJECT__21
0
POLYLINE
8
OBJECT__22
66
1
70
64
71
56
72
56
62
253
0
VERTEX
8
OBJECT__22
10
107.625000
20
-21.985001
30
-156.000000
70
192
0
VERTEX
8
OBJECT__22
10
111.227997
20
-16.166000
30
-156.000000
70
192
0
VERTEX
8
OBJECT__22
10
111.227997
20
-16.166000
30
-41.778000
70
192
0
VERTEX
8
OBJECT__22
10
114.250000
20
0.000000
30
-41.778000
70
192
0
VERTEX
8
OBJECT__22
10
114.250000
20
0.000000
30
-156.000000
70
192
0
VERTEX
8
OBJECT__22
10
91.620003
20
-38.417000
30
-156.000000
70
192
0
VERTEX
8
OBJECT__22
10
102.570999
20
-30.148001
30
-156.000000
70
192
0
VERTEX
8
OBJECT__22
10
102.570999
20
-30.148001
30
-41.778000
70
192
0
VERTEX
8
OBJECT__22
10
107.625000
20
-21.985001
30
-41.778000
70
192
0
VERTEX
8
OBJECT__22
10
69.553001
20
-44.181000
30
-156.000000
70
192
0
VERTEX
8
OBJECT__22
10
73.628998
20
-44.558998
30
-156.000000
70
192
0
VERTEX
8
OBJECT__22
10
73.628998
20
-44.558998
30
-41.778000
70
192
0
VERTEX
8
OBJECT__22
10
89.446999
20
-40.058998
30
-41.778000
70
192
0
VERTEX
8
OBJECT__22
10
89.446999
20
-40.058998
30
-156.000000
70
192
0
VERTEX
8
OBJECT__22
10
91.620003
20
-38.417000
30
-41.778000
70
192
0
VERTEX
8
OBJECT__22
10
47.426998
20
-38.148998
30
-156.000000
70
192
0
VERTEX
8
OBJECT__22
10
57.254002
20
-43.042000
30
-156.000000
70
192
0
VERTEX
8
OBJECT__22
10
57.254002
20
-43.042000
30
-41.778000
70
192
0
VERTEX
8
OBJECT__22
10
69.553001
20
-44.181000
30
-41.778000
70
192
0
VERTEX
8
OBJECT__22
10
30.962000
20
-22.291000
30
-156.000000
70
192
0
VERTEX
8
OBJECT__22
10
31.452999
20
-23.558001
30
-156.000000
70
192
0
VERTEX
8
OBJECT__22
10
31.452999
20
-23.558001
30
-41.778000
70
192
0
VERTEX
8
OBJECT__22
10
42.532001
20
-35.710999
30
-41.778000
70
192
0
VERTEX
8
OBJECT__22
10
42.532001
20
-35.710999
30
-156.000000
70
192
0
VERTEX
8
OBJECT__22
10
47.426998
20
-38.148998
30
-41.778000
70
192
0
VERTEX
8
OBJECT__22
10
25.511999
20
0.000000
30
-156.000000
70
192
0
VERTEX
8
OBJECT__22
10
25.511999
20
-8.223000
30
-156.000000
70
192
0
VERTEX
8
OBJECT__22
10
25.511999
20
-8.223000
30
-41.778000
70
192
0
VERTEX
8
OBJECT__22
10
30.962000
20
-22.291000
30
-41.778000
70
192
0
VERTEX
8
OBJECT__22
10
30.962000
20
22.291000
30
-156.000000
70
192
0
VERTEX
8
OBJECT__22
10
25.511999
20
8.223000
30
-156.000000
70
192
0
VERTEX
8
OBJECT__22
10
25.511999
20
8.223000
30
-41.778000
70
192
0
VERTEX
8
OBJECT__22
10
25.511999
20
0.000000
30
-41.778000
70
192
0
VERTEX
8
OBJECT__22
10
47.426998
20
38.148998
30
-156.000000
70
192
0
VERTEX
8
OBJECT__22
10
42.532001
20
35.710999
30
-156.000000
70
192
0
VERTEX
8
OBJECT__22
10
42.532001
20
35.710999
30
-41.778000
70
192
0
VERTEX
8
OBJECT__22
10
31.452999
20
23.558001
30
-41.778000
70
192
0
VERTEX
8
OBJECT__22
10
31.452999
20
23.558001
30
-156.000000
70
192
0
VERTEX
8
OBJECT__22
10
30.962000
20
22.291000
30
-41.778000
70
192
0
VERTEX
8
OBJECT__22
10
69.553001
20
44.181000
30
-156.000000
70
192
0
VERTEX
8
OBJECT__22
10
57.254002
20
43.042000
30
-156.000000
70
192
0
VERTEX
8
OBJECT__22
10
57.254002
20
43.042000
30
-41.778000
70
192
0
VERTEX
8
OBJECT__22
10
47.426998
20
38.148998
30
-41.778000
70
192
0
VERTEX
8
OBJECT__22
10
91.620003
20
38.417000
30
-156.000000
70
192
0
VERTEX
8
OBJECT__22
10
89.446999
20
40.058998
30
-156.000000
70
192
0
VERTEX
8
OBJECT__22
10
89.446999
20
40.058998
30
-41.778000
70
192
0
VERTEX
8
OBJECT__22
10
73.628998
20
44.558998
30
-41.778000
70
192
0
VERTEX
8
OBJECT__22
10
73.628998
20
44.558998
30
-156.000000
70
192
0
VERTEX
8
OBJECT__22
10
69.553001
20
44.181000
30
-41.778000
70
192
0
VERTEX
8
OBJECT__22
10
107.625000
20
21.985001
30
-156.000000
70
192
0
VERTEX
8
OBJECT__22
10
102.570999
20
30.148001
30
-156.000000
70
192
0
VERTEX
8
OBJECT__22
10
102.570999
20
30.148001
30
-41.778000
70
192
0
VERTEX
8
OBJECT__22
10
91.620003
20
38.417000
30
-41.778000
70
192
0
VERTEX
8
OBJECT__22
10
111.227997
20
16.166000
30
-156.000000
70
192
0
VERTEX
8
OBJECT__22
10
111.227997
20
16.166000
30
-41.778000
70
192
0
VERTEX
8
OBJECT__22
10
107.625000
20
21.985001
30
-41.778000
70
192
0
VERTEX
8
OBJECT__22
10
0
20
0
30
0
70
128
71
1
72
2
73
3
0
VERTEX
8
OBJECT__22
10
0
20
0
30
0
70
128
71
4
72
3
73
2
0
VERTEX
8
OBJECT__22
10
0
20
0
30
0
70
128
71
2
72
5
73
4
0
VERTEX
8
OBJECT__22
10
0
20
0
30
0
70
128
71
6
72
7
73
8
0
VERTEX
8
OBJECT__22
10
0
20
0
30
0
70
128
71
9
72
8
73
7
0
VERTEX
8
OBJECT__22
10
0
20
0
30
0
70
128
71
7
72
1
73
9
0
VERTEX
8
OBJECT__22
10
0
20
0
30
0
70
128
71
10
72
11
73
12
0
VERTEX
8
OBJECT__22
10
0
20
0
30
0
70
128
71
13
72
12
73
11
0
VERTEX
8
OBJECT__22
10
0
20
0
30
0
70
128
71
11
72
14
73
13
0
VERTEX
8
OBJECT__22
10
0
20
0
30
0
70
128
71
15
72
13
73
14
0
VERTEX
8
OBJECT__22
10
0
20
0
30
0
70
128
71
14
72
6
73
15
0
VERTEX
8
OBJECT__22
10
0
20
0
30
0
70
128
71
16
72
17
73
18
0
VERTEX
8
OBJECT__22
10
0
20
0
30
0
70
128
71
19
72
18
73
17
0
VERTEX
8
OBJECT__22
10
0
20
0
30
0
70
128
71
17
72
10
73
19
0
VERTEX
8
OBJECT__22
10
0
20
0
30
0
70
128
71
20
72
21
73
22
0
VERTEX
8
OBJECT__22
10
0
20
0
30
0
70
128
71
23
72
22
73
21
0
VERTEX
8
OBJECT__22
10
0
20
0
30
0
70
128
71
21
72
24
73
23
0
VERTEX
8
OBJECT__22
10
0
20
0
30
0
70
128
71
25
72
23
73
24
0
VERTEX
8
OBJECT__22
10
0
20
0
30
0
70
128
71
24
72
16
73
25
0
VERTEX
8
OBJECT__22
10
0
20
0
30
0
70
128
71
26
72
27
73
28
0
VERTEX
8
OBJECT__22
10
0
20
0
30
0
70
128
71
29
72
28
73
27
0
VERTEX
8
OBJECT__22
10
0
20
0
30
0
70
128
71
27
72
20
73
29
0
VERTEX
8
OBJECT__22
10
0
20
0
30
0
70
128
71
30
72
31
73
32
0
VERTEX
8
OBJECT__22
10
0
20
0
30
0
70
128
71
33
72
32
73
31
0
VERTEX
8
OBJECT__22
10
0
20
0
30
0
70
128
71
31
72
26
73
33
0
VERTEX
8
OBJECT__22
10
0
20
0
30
0
70
128
71
34
72
35
73
36
0
VERTEX
8
OBJECT__22
10
0
20
0
30
0
70
128
71
37
72
36
73
35
0
VERTEX
8
OBJECT__22
10
0
20
0
30
0
70
128
71
35
72
38
73
37
0
VERTEX
8
OBJECT__22
10
0
20
0
30
0
70
128
71
39
72
37
73
38
0
VERTEX
8
OBJECT__22
10
0
20
0
30
0
70
128
71
38
72
30
73
39
0
VERTEX
8
OBJECT__22
10
0
20
0
30
0
70
128
71
40
72
41
73
42
0
VERTEX
8
OBJECT__22
10
0
20
0
30
0
70
128
71
43
72
42
73
41
0
VERTEX
8
OBJECT__22
10
0
20
0
30
0
70
128
71
41
72
34
73
43
0
VERTEX
8
OBJECT__22
10
0
20
0
30
0
70
128
71
44
72
45
73
46
0
VERTEX
8
OBJECT__22
10
0
20
0
30
0
70
128
71
47
72
46
73
45
0
VERTEX
8
OBJECT__22
10
0
20
0
30
0
70
128
71
45
72
48
73
47
0
VERTEX
8
OBJECT__22
10
0
20
0
30
0
70
128
71
49
72
47
73
48
0
VERTEX
8
OBJECT__22
10
0
20
0
30
0
70
128
71
48
72
40
73
49
0
VERTEX
8
OBJECT__22
10
0
20
0
30
0
70
128
71
50
72
51
73
52
0
VERTEX
8
OBJECT__22
10
0
20
0
30
0
70
128
71
53
72
52
73
51
0
VERTEX
8
OBJECT__22
10
0
20
0
30
0
70
128
71
51
72
44
73
53
0
VERTEX
8
OBJECT__22
10
0
20
0
30
0
70
128
71
5
72
54
73
55
0
VERTEX
8
OBJECT__22
10
0
20
0
30
0
70
128
71
56
72
55
73
54
0
VERTEX
8
OBJECT__22
10
0
20
0
30
0
70
128
71
54
72
50
73
56
0
VERTEX
8
OBJECT__22
10
0
20
0
30
0
70
128
71
55
72
4
73
5
0
VERTEX
8
OBJECT__22
10
0
20
0
30
0
70
128
71
52
72
56
73
50
0
VERTEX
8
OBJECT__22
10
0
20
0
30
0
70
128
71
46
72
53
73
44
0
VERTEX
8
OBJECT__22
10
0
20
0
30
0
70
128
71
42
72
49
73
40
0
VERTEX
8
OBJECT__22
10
0
20
0
30
0
70
128
71
36
72
43
73
34
0
VERTEX
8
OBJECT__22
10
0
20
0
30
0
70
128
71
32
72
39
73
30
0
VERTEX
8
OBJECT__22
10
0
20
0
30
0
70
128
71
28
72
33
73
26
0
VERTEX
8
OBJECT__22
10
0
20
0
30
0
70
128
71
22
72
29
73
20
0
VERTEX
8
OBJECT__22
10
0
20
0
30
0
70
128
71
18
72
25
73
16
0
VERTEX
8
OBJECT__22
10
0
20
0
30
0
70
128
71
12
72
19
73
10
0
VERTEX
8
OBJECT__22
10
0
20
0
30
0
70
128
71
8
72
15
73
6
0
VERTEX
8
OBJECT__22
10
0
20
0
30
0
70
128
71
3
72
9
73
1
0
SEQEND
8
OBJECT__22
0
POLYLINE
8
OBJECT__23
66
1
70
64
71
62
72
62
62
253
0
VERTEX
8
OBJECT__23
10
114.250000
20
0.000000
30
-41.778000
70
192
0
VERTEX
8
OBJECT__23
10
116.500000
20
0.000000
30
-38.873001
70
192
0
VERTEX
8
OBJECT__23
10
113.666000
20
-16.075001
30
-38.873001
70
192
0
VERTEX
8
OBJECT__23
10
111.227997
20
-16.166000
30
-41.778000
70
192
0
VERTEX
8
OBJECT__23
10
105.503998
20
-30.211000
30
-38.873001
70
192
0
VERTEX
8
OBJECT__23
10
102.570999
20
-30.148001
30
-41.778000
70
192
0
VERTEX
8
OBJECT__23
10
107.625000
20
-21.985001
30
-41.778000
70
192
0
VERTEX
8
OBJECT__23
10
113.190002
20
-16.899000
30
-38.873001
70
192
0
VERTEX
8
OBJECT__23
10
104.042999
20
-31.437000
30
-38.873001
70
192
0
VERTEX
8
OBJECT__23
10
93.000000
20
-40.702999
30
-38.873001
70
192
0
VERTEX
8
OBJECT__23
10
91.620003
20
-38.417000
30
-41.778000
70
192
0
VERTEX
8
OBJECT__23
10
90.307999
20
-41.682999
30
-38.873001
70
192
0
VERTEX
8
OBJECT__23
10
89.446999
20
-40.058998
30
-41.778000
70
192
0
VERTEX
8
OBJECT__23
10
77.661003
20
-46.285999
30
-38.873001
70
192
0
VERTEX
8
OBJECT__23
10
73.628998
20
-44.558998
30
-41.778000
70
192
0
VERTEX
8
OBJECT__23
10
61.339001
20
-46.285999
30
-38.873001
70
192
0
VERTEX
8
OBJECT__23
10
57.254002
20
-43.042000
30
-41.778000
70
192
0
VERTEX
8
OBJECT__23
10
69.553001
20
-44.181000
30
-41.778000
70
192
0
VERTEX
8
OBJECT__23
10
73.836998
20
-46.285999
30
-38.873001
70
192
0
VERTEX
8
OBJECT__23
10
56.841000
20
-44.648998
30
-38.873001
70
192
0
VERTEX
8
OBJECT__23
10
46.000000
20
-40.702999
30
-38.873001
70
192
0
VERTEX
8
OBJECT__23
10
47.426998
20
-38.148998
30
-41.778000
70
192
0
VERTEX
8
OBJECT__23
10
41.595001
20
-37.007000
30
-38.873001
70
192
0
VERTEX
8
OBJECT__23
10
42.532001
20
-35.710999
30
-41.778000
70
192
0
VERTEX
8
OBJECT__23
10
33.495998
20
-30.211000
30
-38.873001
70
192
0
VERTEX
8
OBJECT__23
10
31.452999
20
-23.558001
30
-41.778000
70
192
0
VERTEX
8
OBJECT__23
10
30.962000
20
-22.291000
30
-41.778000
70
192
0
VERTEX
8
OBJECT__23
10
30.139000
20
-24.396000
30
-38.873001
70
192
0
VERTEX
8
OBJECT__23
10
25.334000
20
-16.075001
30
-38.873001
70
192
0
VERTEX
8
OBJECT__23
10
25.511999
20
-8.223000
30
-41.778000
70
192
0
VERTEX
8
OBJECT__23
10
24.000999
20
-8.513000
30
-38.873001
70
192
0
VERTEX
8
OBJECT__23
10
22.500000
20
0.000000
30
-38.873001
70
192
0
VERTEX
8
OBJECT__23
10
25.511999
20
0.000000
30
-41.778000
70
192
0
VERTEX
8
OBJECT__23
10
24.000999
20
8.513000
30
-38.873001
70
192
0
VERTEX
8
OBJECT__23
10
25.511999
20
8.223000
30
-41.778000
70
192
0
VERTEX
8
OBJECT__23
10
30.962000
20
22.291000
30
-41.778000
70
192
0
VERTEX
8
OBJECT__23
10
25.334000
20
16.075001
30
-38.873001
70
192
0
VERTEX
8
OBJECT__23
10
30.139000
20
24.396000
30
-38.873001
70
192
0
VERTEX
8
OBJECT__23
10
31.452999
20
23.558001
30
-41.778000
70
192
0
VERTEX
8
OBJECT__23
10
42.532001
20
35.710999
30
-41.778000
70
192
0
VERTEX
8
OBJECT__23
10
33.495998
20
30.211000
30
-38.873001
70
192
0
VERTEX
8
OBJECT__23
10
47.426998
20
38.148998
30
-41.778000
70
192
0
VERTEX
8
OBJECT__23
10
41.595001
20
37.007000
30
-38.873001
70
192
0
VERTEX
8
OBJECT__23
10
46.000000
20
40.702999
30
-38.873001
70
192
0
VERTEX
8
OBJECT__23
10
56.841000
20
44.648998
30
-38.873001
70
192
0
VERTEX
8
OBJECT__23
10
57.254002
20
43.042000
30
-41.778000
70
192
0
VERTEX
8
OBJECT__23
10
61.339001
20
46.285999
30
-38.873001
70
192
0
VERTEX
8
OBJECT__23
10
73.836998
20
46.285999
30
-38.873001
70
192
0
VERTEX
8
OBJECT__23
10
69.553001
20
44.181000
30
-41.778000
70
192
0
VERTEX
8
OBJECT__23
10
73.628998
20
44.558998
30
-41.778000
70
192
0
VERTEX
8
OBJECT__23
10
89.446999
20
40.058998
30
-41.778000
70
192
0
VERTEX
8
OBJECT__23
10
77.661003
20
46.285999
30
-38.873001
70
192
0
VERTEX
8
OBJECT__23
10
91.620003
20
38.417000
30
-41.778000
70
192
0
VERTEX
8
OBJECT__23
10
90.307999
20
41.682999
30
-38.873001
70
192
0
VERTEX
8
OBJECT__23
10
93.000000
20
40.702999
30
-38.873001
70
192
0
VERTEX
8
OBJECT__23
10
104.042999
20
31.437000
30
-38.873001
70
192
0
VERTEX
8
OBJECT__23
10
102.570999
20
30.148001
30
-41.778000
70
192
0
VERTEX
8
OBJECT__23
10
105.503998
20
30.211000
30
-38.873001
70
192
0
VERTEX
8
OBJECT__23
10
113.190002
20
16.899000
30
-38.873001
70
192
0
VERTEX
8
OBJECT__23
10
107.625000
20
21.985001
30
-41.778000
70
192
0
VERTEX
8
OBJECT__23
10
111.227997
20
16.166000
30
-41.778000
70
192
0
VERTEX
8
OBJECT__23
10
113.666000
20
16.075001
30
-38.873001
70
192
0
VERTEX
8
OBJECT__23
10
0
20
0
30
0
70
128
71
1
72
2
73
3
0
VERTEX
8
OBJECT__23
10
0
20
0
30
0
70
128
71
3
72
4
73
1
0
VERTEX
8
OBJECT__23
10
0
20
0
30
0
70
128
71
5
72
6
73
7
0
VERTEX
8
OBJECT__23
10
0
20
0
30
0
70
128
71
7
72
8
73
5
0
VERTEX
8
OBJECT__23
10
0
20
0
30
0
70
128
71
5
72
9
73
6
0
VERTEX
8
OBJECT__23
10
0
20
0
30
0
70
128
71
10
72
11
73
6
0
VERTEX
8
OBJECT__23
10
0
20
0
30
0
70
128
71
10
72
12
73
13
0
VERTEX
8
OBJECT__23
10
0
20
0
30
0
70
128
71
13
72
11
73
10
0
VERTEX
8
OBJECT__23
10
0
20
0
30
0
70
128
71
13
72
12
73
14
0
VERTEX
8
OBJECT__23
10
0
20
0
30
0
70
128
71
14
72
15
73
13
0
VERTEX
8
OBJECT__23
10
0
20
0
30
0
70
128
71
16
72
17
73
18
0
VERTEX
8
OBJECT__23
10
0
20
0
30
0
70
128
71
18
72
19
73
16
0
VERTEX
8
OBJECT__23
10
0
20
0
30
0
70
128
71
16
72
20
73
17
0
VERTEX
8
OBJECT__23
10
0
20
0
30
0
70
128
71
21
72
22
73
17
0
VERTEX
8
OBJECT__23
10
0
20
0
30
0
70
128
71
21
72
23
73
24
0
VERTEX
8
OBJECT__23
10
0
20
0
30
0
70
128
71
24
72
22
73
21
0
VERTEX
8
OBJECT__23
10
0
20
0
30
0
70
128
71
24
72
23
73
25
0
VERTEX
8
OBJECT__23
10
0
20
0
30
0
70
128
71
25
72
26
73
24
0
VERTEX
8
OBJECT__23
10
0
20
0
30
0
70
128
71
27
72
28
73
29
0
VERTEX
8
OBJECT__23
10
0
20
0
30
0
70
128
71
29
72
30
73
27
0
VERTEX
8
OBJECT__23
10
0
20
0
30
0
70
128
71
29
72
31
73
30
0
VERTEX
8
OBJECT__23
10
0
20
0
30
0
70
128
71
32
72
33
73
30
0
VERTEX
8
OBJECT__23
10
0
20
0
30
0
70
128
71
32
72
34
73
35
0
VERTEX
8
OBJECT__23
10
0
20
0
30
0
70
128
71
35
72
33
73
32
0
VERTEX
8
OBJECT__23
10
0
20
0
30
0
70
128
71
36
72
35
73
37
0
VERTEX
8
OBJECT__23
10
0
20
0
30
0
70
128
71
35
72
34
73
37
0
VERTEX
8
OBJECT__23
10
0
20
0
30
0
70
128
71
38
72
39
73
36
0
VERTEX
8
OBJECT__23
10
0
20
0
30
0
70
128
71
40
72
39
73
41
0
VERTEX
8
OBJECT__23
10
0
20
0
30
0
70
128
71
39
72
38
73
41
0
VERTEX
8
OBJECT__23
10
0
20
0
30
0
70
128
71
42
72
40
73
43
0
VERTEX
8
OBJECT__23
10
0
20
0
30
0
70
128
71
44
72
45
73
46
0
VERTEX
8
OBJECT__23
10
0
20
0
30
0
70
128
71
46
72
42
73
44
0
VERTEX
8
OBJECT__23
10
0
20
0
30
0
70
128
71
47
72
48
73
49
0
VERTEX
8
OBJECT__23
10
0
20
0
30
0
70
128
71
46
72
45
73
47
0
VERTEX
8
OBJECT__23
10
0
20
0
30
0
70
128
71
48
72
50
73
49
0
VERTEX
8
OBJECT__23
10
0
20
0
30
0
70
128
71
51
72
50
73
52
0
VERTEX
8
OBJECT__23
10
0
20
0
30
0
70
128
71
50
72
48
73
52
0
VERTEX
8
OBJECT__23
10
0
20
0
30
0
70
128
71
53
72
51
73
54
0
VERTEX
8
OBJECT__23
10
0
20
0
30
0
70
128
71
55
72
56
73
57
0
VERTEX
8
OBJECT__23
10
0
20
0
30
0
70
128
71
57
72
53
73
55
0
VERTEX
8
OBJECT__23
10
0
20
0
30
0
70
128
71
58
72
59
73
60
0
VERTEX
8
OBJECT__23
10
0
20
0
30
0
70
128
71
57
72
56
73
58
0
VERTEX
8
OBJECT__23
10
0
20
0
30
0
70
128
71
59
72
61
73
60
0
VERTEX
8
OBJECT__23
10
0
20
0
30
0
70
128
71
1
72
61
73
62
0
VERTEX
8
OBJECT__23
10
0
20
0
30
0
70
128
71
61
72
59
73
62
0
VERTEX
8
OBJECT__23
10
0
20
0
30
0
70
128
71
62
72
2
73
1
0
VERTEX
8
OBJECT__23
10
0
20
0
30
0
70
128
71
60
72
57
73
58
0
VERTEX
8
OBJECT__23
10
0
20
0
30
0
70
128
71
54
72
55
73
53
0
VERTEX
8
OBJECT__23
10
0
20
0
30
0
70
128
71
52
72
54
73
51
0
VERTEX
8
OBJECT__23
10
0
20
0
30
0
70
128
71
49
72
46
73
47
0
VERTEX
8
OBJECT__23
10
0
20
0
30
0
70
128
71
43
72
44
73
42
0
VERTEX
8
OBJECT__23
10
0
20
0
30
0
70
128
71
41
72
43
73
40
0
VERTEX
8
OBJECT__23
10
0
20
0
30
0
70
128
71
37
72
38
73
36
0
VERTEX
8
OBJECT__23
10
0
20
0
30
0
70
128
71
30
72
31
73
32
0
VERTEX
8
OBJECT__23
10
0
20
0
30
0
70
128
71
27
72
26
73
28
0
VERTEX
8
OBJECT__23
10
0
20
0
30
0
70
128
71
25
72
28
73
26
0
VERTEX
8
OBJECT__23
10
0
20
0
30
0
70
128
71
17
72
20
73
21
0
VERTEX
8
OBJECT__23
10
0
20
0
30
0
70
128
71
18
72
15
73
19
0
VERTEX
8
OBJECT__23
10
0
20
0
30
0
70
128
71
14
72
19
73
15
0
VERTEX
8
OBJECT__23
10
0
20
0
30
0
70
128
71
6
72
9
73
10
0
VERTEX
8
OBJECT__23
10
0
20
0
30
0
70
128
71
7
72
4
73
8
0
VERTEX
8
OBJECT__23
10
0
20
0
30
0
70
128
71
3
72
8
73
4
0
SEQEND
8
OBJECT__23
0
POLYLINE
8
OBJECT__24
66
1
70
64
71
64
72
64
62
253
0
VERTEX
8
OBJECT__24
10
119.500000
20
0.000000
30
-35.000000
70
192
0
VERTEX
8
OBJECT__24
10
116.485001
20
-17.101000
30
-35.000000
70
192
0
VERTEX
8
OBJECT__24
10
113.666000
20
-16.075001
30
-38.873001
70
192
0
VERTEX
8
OBJECT__24
10
105.503998
20
-30.211000
30
-38.873001
70
192
0
VERTEX
8
OBJECT__24
10
113.190002
20
-16.899000
30
-38.873001
70
192
0
VERTEX
8
OBJECT__24
10
113.150002
20
-22.877001
30
-35.000000
70
192
0
VERTEX
8
OBJECT__24
10
107.802002
20
-32.139000
30
-35.000000
70
192
0
VERTEX
8
OBJECT__24
10
104.042999
20
-31.437000
30
-38.873001
70
192
0
VERTEX
8
OBJECT__24
10
97.556999
20
-40.736000
30
-35.000000
70
192
0
VERTEX
8
OBJECT__24
10
93.000000
20
-40.702999
30
-38.873001
70
192
0
VERTEX
8
OBJECT__24
10
94.500000
20
-43.300999
30
-35.000000
70
192
0
VERTEX
8
OBJECT__24
10
78.181999
20
-49.240002
30
-35.000000
70
192
0
VERTEX
8
OBJECT__24
10
77.661003
20
-46.285999
30
-38.873001
70
192
0
VERTEX
8
OBJECT__24
10
90.307999
20
-41.682999
30
-38.873001
70
192
0
VERTEX
8
OBJECT__24
10
75.527000
20
-49.240002
30
-35.000000
70
192
0
VERTEX
8
OBJECT__24
10
60.818001
20
-49.240002
30
-35.000000
70
192
0
VERTEX
8
OBJECT__24
10
61.339001
20
-46.285999
30
-38.873001
70
192
0
VERTEX
8
OBJECT__24
10
73.836998
20
-46.285999
30
-38.873001
70
192
0
VERTEX
8
OBJECT__24
10
52.028000
20
-46.041000
30
-35.000000
70
192
0
VERTEX
8
OBJECT__24
10
56.841000
20
-44.648998
30
-38.873001
70
192
0
VERTEX
8
OBJECT__24
10
46.000000
20
-40.702999
30
-38.873001
70
192
0
VERTEX
8
OBJECT__24
10
44.500000
20
-43.300999
30
-35.000000
70
192
0
VERTEX
8
OBJECT__24
10
32.213001
20
-32.991001
30
-35.000000
70
192
0
VERTEX
8
OBJECT__24
10
33.495998
20
-30.211000
30
-38.873001
70
192
0
VERTEX
8
OBJECT__24
10
41.595001
20
-37.007000
30
-38.873001
70
192
0
VERTEX
8
OBJECT__24
10
31.198000
20
-32.139000
30
-35.000000
70
192
0
VERTEX
8
OBJECT__24
10
22.514999
20
-17.101000
30
-35.000000
70
192
0
VERTEX
8
OBJECT__24
10
25.334000
20
-16.075001
30
-38.873001
70
192
0
VERTEX
8
OBJECT__24
10
30.139000
20
-24.396000
30
-38.873001
70
192
0
VERTEX
8
OBJECT__24
10
21.590000
20
-11.853000
30
-35.000000
70
192
0
VERTEX
8
OBJECT__24
10
19.500000
20
0.000000
30
-35.000000
70
192
0
VERTEX
8
OBJECT__24
10
22.500000
20
0.000000
30
-38.873001
70
192
0
VERTEX
8
OBJECT__24
10
24.000999
20
-8.513000
30
-38.873001
70
192
0
VERTEX
8
OBJECT__24
10
25.334000
20
16.075001
30
-38.873001
70
192
0
VERTEX
8
OBJECT__24
10
24.000999
20
8.513000
30
-38.873001
70
192
0
VERTEX
8
OBJECT__24
10
21.590000
20
11.853000
30
-35.000000
70
192
0
VERTEX
8
OBJECT__24
10
22.514999
20
17.101000
30
-35.000000
70
192
0
VERTEX
8
OBJECT__24
10
31.198000
20
32.139000
30
-35.000000
70
192
0
VERTEX
8
OBJECT__24
10
30.139000
20
24.396000
30
-38.873001
70
192
0
VERTEX
8
OBJECT__24
10
33.495998
20
30.211000
30
-38.873001
70
192
0
VERTEX
8
OBJECT__24
10
32.213001
20
32.991001
30
-35.000000
70
192
0
VERTEX
8
OBJECT__24
10
44.500000
20
43.300999
30
-35.000000
70
192
0
VERTEX
8
OBJECT__24
10
41.595001
20
37.007000
30
-38.873001
70
192
0
VERTEX
8
OBJECT__24
10
46.000000
20
40.702999
30
-38.873001
70
192
0
VERTEX
8
OBJECT__24
10
52.028000
20
46.041000
30
-35.000000
70
192
0
VERTEX
8
OBJECT__24
10
60.818001
20
49.240002
30
-35.000000
70
192
0
VERTEX
8
OBJECT__24
10
61.339001
20
46.285999
30
-38.873001
70
192
0
VERTEX
8
OBJECT__24
10
56.841000
20
44.648998
30
-38.873001
70
192
0
VERTEX
8
OBJECT__24
10
77.661003
20
46.285999
30
-38.873001
70
192
0
VERTEX
8
OBJECT__24
10
73.836998
20
46.285999
30
-38.873001
70
192
0
VERTEX
8
OBJECT__24
10
75.527000
20
49.240002
30
-35.000000
70
192
0
VERTEX
8
OBJECT__24
10
78.181999
20
49.240002
30
-35.000000
70
192
0
VERTEX
8
OBJECT__24
10
94.500000
20
43.300999
30
-35.000000
70
192
0
VERTEX
8
OBJECT__24
10
90.307999
20
41.682999
30
-38.873001
70
192
0
VERTEX
8
OBJECT__24
10
93.000000
20
40.702999
30
-38.873001
70
192
0
VERTEX
8
OBJECT__24
10
104.042999
20
31.437000
30
-38.873001
70
192
0
VERTEX
8
OBJECT__24
10
97.556999
20
40.736000
30
-35.000000
70
192
0
VERTEX
8
OBJECT__24
10
107.802002
20
32.139000
30
-35.000000
70
192
0
VERTEX
8
OBJECT__24
10
105.503998
20
30.211000
30
-38.873001
70
192
0
VERTEX
8
OBJECT__24
10
113.150002
20
22.877001
30
-35.000000
70
192
0
VERTEX
8
OBJECT__24
10
113.190002
20
16.899000
30
-38.873001
70
192
0
VERTEX
8
OBJECT__24
10
116.485001
20
17.101000
30
-35.000000
70
192
0
VERTEX
8
OBJECT__24
10
113.666000
20
16.075001
30
-38.873001
70
192
0
VERTEX
8
OBJECT__24
10
116.500000
20
0.000000
30
-38.873001
70
192
0
VERTEX
8
OBJECT__24
10
0
20
0
30
0
70
128
71
1
72
2
73
3
0
VERTEX
8
OBJECT__24
10
0
20
0
30
0
70
128
71
4
72
5
73
6
0
VERTEX
8
OBJECT__24
10
0
20
0
30
0
70
128
71
5
72
2
73
6
0
VERTEX
8
OBJECT__24
10
0
20
0
30
0
70
128
71
6
72
7
73
4
0
VERTEX
8
OBJECT__24
10
0
20
0
30
0
70
128
71
8
72
7
73
9
0
VERTEX
8
OBJECT__24
10
0
20
0
30
0
70
128
71
9
72
10
73
8
0
VERTEX
8
OBJECT__24
10
0
20
0
30
0
70
128
71
9
72
11
73
10
0
VERTEX
8
OBJECT__24
10
0
20
0
30
0
70
128
71
12
72
13
73
14
0
VERTEX
8
OBJECT__24
10
0
20
0
30
0
70
128
71
14
72
11
73
12
0
VERTEX
8
OBJECT__24
10
0
20
0
30
0
70
128
71
13
72
12
73
15
0
VERTEX
8
OBJECT__24
10
0
20
0
30
0
70
128
71
16
72
17
73
18
0
VERTEX
8
OBJECT__24
10
0
20
0
30
0
70
128
71
18
72
15
73
16
0
VERTEX
8
OBJECT__24
10
0
20
0
30
0
70
128
71
16
72
19
73
20
0
VERTEX
8
OBJECT__24
10
0
20
0
30
0
70
128
71
21
72
20
73
19
0
VERTEX
8
OBJECT__24
10
0
20
0
30
0
70
128
71
19
72
22
73
21
0
VERTEX
8
OBJECT__24
10
0
20
0
30
0
70
128
71
23
72
24
73
25
0
VERTEX
8
OBJECT__24
10
0
20
0
30
0
70
128
71
25
72
22
73
23
0
VERTEX
8
OBJECT__24
10
0
20
0
30
0
70
128
71
23
72
26
73
24
0
VERTEX
8
OBJECT__24
10
0
20
0
30
0
70
128
71
27
72
28
73
29
0
VERTEX
8
OBJECT__24
10
0
20
0
30
0
70
128
71
29
72
26
73
27
0
VERTEX
8
OBJECT__24
10
0
20
0
30
0
70
128
71
28
72
27
73
30
0
VERTEX
8
OBJECT__24
10
0
20
0
30
0
70
128
71
31
72
32
73
33
0
VERTEX
8
OBJECT__24
10
0
20
0
30
0
70
128
71
33
72
30
73
31
0
VERTEX
8
OBJECT__24
10
0
20
0
30
0
70
128
71
34
72
35
73
36
0
VERTEX
8
OBJECT__24
10
0
20
0
30
0
70
128
71
31
72
36
73
35
0
VERTEX
8
OBJECT__24
10
0
20
0
30
0
70
128
71
35
72
32
73
31
0
VERTEX
8
OBJECT__24
10
0
20
0
30
0
70
128
71
37
72
38
73
39
0
VERTEX
8
OBJECT__24
10
0
20
0
30
0
70
128
71
38
72
40
73
39
0
VERTEX
8
OBJECT__24
10
0
20
0
30
0
70
128
71
41
72
42
73
43
0
VERTEX
8
OBJECT__24
10
0
20
0
30
0
70
128
71
40
72
38
73
41
0
VERTEX
8
OBJECT__24
10
0
20
0
30
0
70
128
71
42
72
44
73
43
0
VERTEX
8
OBJECT__24
10
0
20
0
30
0
70
128
71
44
72
42
73
45
0
VERTEX
8
OBJECT__24
10
0
20
0
30
0
70
128
71
46
72
47
73
48
0
VERTEX
8
OBJECT__24
10
0
20
0
30
0
70
128
71
48
72
45
73
46
0
VERTEX
8
OBJECT__24
10
0
20
0
30
0
70
128
71
49
72
50
73
51
0
VERTEX
8
OBJECT__24
10
0
20
0
30
0
70
128
71
46
72
51
73
50
0
VERTEX
8
OBJECT__24
10
0
20
0
30
0
70
128
71
50
72
47
73
46
0
VERTEX
8
OBJECT__24
10
0
20
0
30
0
70
128
71
52
72
53
73
54
0
VERTEX
8
OBJECT__24
10
0
20
0
30
0
70
128
71
53
72
55
73
54
0
VERTEX
8
OBJECT__24
10
0
20
0
30
0
70
128
71
56
72
55
73
57
0
VERTEX
8
OBJECT__24
10
0
20
0
30
0
70
128
71
55
72
53
73
57
0
VERTEX
8
OBJECT__24
10
0
20
0
30
0
70
128
71
58
72
59
73
56
0
VERTEX
8
OBJECT__24
10
0
20
0
30
0
70
128
71
59
72
58
73
60
0
VERTEX
8
OBJECT__24
10
0
20
0
30
0
70
128
71
60
72
61
73
59
0
VERTEX
8
OBJECT__24
10
0
20
0
30
0
70
128
71
62
72
63
73
61
0
VERTEX
8
OBJECT__24
10
0
20
0
30
0
70
128
71
1
72
64
73
63
0
VERTEX
8
OBJECT__24
10
0
20
0
30
0
70
128
71
63
72
62
73
1
0
VERTEX
8
OBJECT__24
10
0
20
0
30
0
70
128
71
60
72
62
73
61
0
VERTEX
8
OBJECT__24
10
0
20
0
30
0
70
128
71
57
72
58
73
56
0
VERTEX
8
OBJECT__24
10
0
20
0
30
0
70
128
71
54
72
49
73
52
0
VERTEX
8
OBJECT__24
10
0
20
0
30
0
70
128
71
51
72
52
73
49
0
VERTEX
8
OBJECT__24
10
0
20
0
30
0
70
128
71
45
72
48
73
44
0
VERTEX
8
OBJECT__24
10
0
20
0
30
0
70
128
71
43
72
40
73
41
0
VERTEX
8
OBJECT__24
10
0
20
0
30
0
70
128
71
39
72
34
73
37
0
VERTEX
8
OBJECT__24
10
0
20
0
30
0
70
128
71
36
72
37
73
34
0
VERTEX
8
OBJECT__24
10
0
20
0
30
0
70
128
71
30
72
33
73
28
0
VERTEX
8
OBJECT__24
10
0
20
0
30
0
70
128
71
29
72
24
73
26
0
VERTEX
8
OBJECT__24
10
0
20
0
30
0
70
128
71
25
72
21
73
22
0
VERTEX
8
OBJECT__24
10
0
20
0
30
0
70
128
71
20
72
17
73
16
0
VERTEX
8
OBJECT__24
10
0
20
0
30
0
70
128
71
15
72
18
73
13
0
VERTEX
8
OBJECT__24
10
0
20
0
30
0
70
128
71
14
72
10
73
11
0
VERTEX
8
OBJECT__24
10
0
20
0
30
0
70
128
71
8
72
4
73
7
0
VERTEX
8
OBJECT__24
10
0
20
0
30
0
70
128
71
5
72
3
73
2
0
VERTEX
8
OBJECT__24
10
0
20
0
30
0
70
128
71
3
72
64
73
1
0
SEQEND
8
OBJECT__24
0
POLYLINE
8
OBJECT__25
66
1
70
64
71
43
72
43
62
253
0
VERTEX
8
OBJECT__25
10
119.500000
20
0.000000
30
-9.000000
70
192
0
VERTEX
8
OBJECT__25
10
113.773003
20
-23.236000
30
-9.000000
70
192
0
VERTEX
8
OBJECT__25
10
116.485001
20
-17.101000
30
-35.000000
70
192
0
VERTEX
8
OBJECT__25
10
113.150002
20
-22.877001
30
-35.000000
70
192
0
VERTEX
8
OBJECT__25
10
97.903000
20
-41.148998
30
-9.000000
70
192
0
VERTEX
8
OBJECT__25
10
97.556999
20
-40.736000
30
-35.000000
70
192
0
VERTEX
8
OBJECT__25
10
107.802002
20
-32.139000
30
-35.000000
70
192
0
VERTEX
8
OBJECT__25
10
75.527000
20
-49.634998
30
-9.000000
70
192
0
VERTEX
8
OBJECT__25
10
78.181999
20
-49.240002
30
-35.000000
70
192
0
VERTEX
8
OBJECT__25
10
94.500000
20
-43.300999
30
-35.000000
70
192
0
VERTEX
8
OBJECT__25
10
75.527000
20
-49.240002
30
-35.000000
70
192
0
VERTEX
8
OBJECT__25
10
51.770000
20
-46.750999
30
-9.000000
70
192
0
VERTEX
8
OBJECT__25
10
60.818001
20
-49.240002
30
-35.000000
70
192
0
VERTEX
8
OBJECT__25
10
52.028000
20
-46.041000
30
-35.000000
70
192
0
VERTEX
8
OBJECT__25
10
32.074001
20
-33.155998
30
-9.000000
70
192
0
VERTEX
8
OBJECT__25
10
32.213001
20
-32.991001
30
-35.000000
70
192
0
VERTEX
8
OBJECT__25
10
44.500000
20
-43.300999
30
-35.000000
70
192
0
VERTEX
8
OBJECT__25
10
20.952999
20
-11.966000
30
-9.000000
70
192
0
VERTEX
8
OBJECT__25
10
22.514999
20
-17.101000
30
-35.000000
70
192
0
VERTEX
8
OBJECT__25
10
31.198000
20
-32.139000
30
-35.000000
70
192
0
VERTEX
8
OBJECT__25
10
21.590000
20
-11.853000
30
-35.000000
70
192
0
VERTEX
8
OBJECT__25
10
20.952999
20
11.966000
30
-9.000000
70
192
0
VERTEX
8
OBJECT__25
10
19.500000
20
0.000000
30
-35.000000
70
192
0
VERTEX
8
OBJECT__25
10
21.590000
20
11.853000
30
-35.000000
70
192
0
VERTEX
8
OBJECT__25
10
32.074001
20
33.155998
30
-9.000000
70
192
0
VERTEX
8
OBJECT__25
10
31.198000
20
32.139000
30
-35.000000
70
192
0
VERTEX
8
OBJECT__25
10
22.514999
20
17.101000
30
-35.000000
70
192
0
VERTEX
8
OBJECT__25
10
32.213001
20
32.991001
30
-35.000000
70
192
0
VERTEX
8
OBJECT__25
10
51.770000
20
46.750999
30
-9.000000
70
192
0
VERTEX
8
OBJECT__25
10
44.500000
20
43.300999
30
-35.000000
70
192
0
VERTEX
8
OBJECT__25
10
52.028000
20
46.041000
30
-35.000000
70
192
0
VERTEX
8
OBJECT__25
10
75.527000
20
49.634998
30
-9.000000
70
192
0
VERTEX
8
OBJECT__25
10
75.527000
20
49.240002
30
-35.000000
70
192
0
VERTEX
8
OBJECT__25
10
60.818001
20
49.240002
30
-35.000000
70
192
0
VERTEX
8
OBJECT__25
10
97.903000
20
41.148998
30
-9.000000
70
192
0
VERTEX
8
OBJECT__25
10
94.500000
20
43.300999
30
-35.000000
70
192
0
VERTEX
8
OBJECT__25
10
78.181999
20
49.240002
30
-35.000000
70
192
0
VERTEX
8
OBJECT__25
10
97.556999
20
40.736000
30
-35.000000
70
192
0
VERTEX
8
OBJECT__25
10
113.773003
20
23.236000
30
-9.000000
70
192
0
VERTEX
8
OBJECT__25
10
107.802002
20
32.139000
30
-35.000000
70
192
0
VERTEX
8
OBJECT__25
10
113.150002
20
22.877001
30
-35.000000
70
192
0
VERTEX
8
OBJECT__25
10
119.500000
20
0.000000
30
-35.000000
70
192
0
VERTEX
8
OBJECT__25
10
116.485001
20
17.101000
30
-35.000000
70
192
0
VERTEX
8
OBJECT__25
10
0
20
0
30
0
70
128
71
1
72
2
73
3
0
VERTEX
8
OBJECT__25
10
0
20
0
30
0
70
128
71
2
72
4
73
3
0
VERTEX
8
OBJECT__25
10
0
20
0
30
0
70
128
71
5
72
6
73
7
0
VERTEX
8
OBJECT__25
10
0
20
0
30
0
70
128
71
7
72
2
73
5
0
VERTEX
8
OBJECT__25
10
0
20
0
30
0
70
128
71
8
72
9
73
10
0
VERTEX
8
OBJECT__25
10
0
20
0
30
0
70
128
71
10
72
5
73
8
0
VERTEX
8
OBJECT__25
10
0
20
0
30
0
70
128
71
8
72
11
73
9
0
VERTEX
8
OBJECT__25
10
0
20
0
30
0
70
128
71
8
72
12
73
13
0
VERTEX
8
OBJECT__25
10
0
20
0
30
0
70
128
71
12
72
14
73
13
0
VERTEX
8
OBJECT__25
10
0
20
0
30
0
70
128
71
15
72
16
73
17
0
VERTEX
8
OBJECT__25
10
0
20
0
30
0
70
128
71
17
72
12
73
15
0
VERTEX
8
OBJECT__25
10
0
20
0
30
0
70
128
71
15
72
18
73
19
0
VERTEX
8
OBJECT__25
10
0
20
0
30
0
70
128
71
19
72
20
73
15
0
VERTEX
8
OBJECT__25
10
0
20
0
30
0
70
128
71
18
72
21
73
19
0
VERTEX
8
OBJECT__25
10
0
20
0
30
0
70
128
71
18
72
22
73
23
0
VERTEX
8
OBJECT__25
10
0
20
0
30
0
70
128
71
22
72
24
73
23
0
VERTEX
8
OBJECT__25
10
0
20
0
30
0
70
128
71
25
72
26
73
27
0
VERTEX
8
OBJECT__25
10
0
20
0
30
0
70
128
71
27
72
22
73
25
0
VERTEX
8
OBJECT__25
10
0
20
0
30
0
70
128
71
25
72
28
73
26
0
VERTEX
8
OBJECT__25
10
0
20
0
30
0
70
128
71
25
72
29
73
30
0
VERTEX
8
OBJECT__25
10
0
20
0
30
0
70
128
71
29
72
31
73
30
0
VERTEX
8
OBJECT__25
10
0
20
0
30
0
70
128
71
32
72
33
73
34
0
VERTEX
8
OBJECT__25
10
0
20
0
30
0
70
128
71
34
72
29
73
32
0
VERTEX
8
OBJECT__25
10
0
20
0
30
0
70
128
71
32
72
35
73
36
0
VERTEX
8
OBJECT__25
10
0
20
0
30
0
70
128
71
36
72
37
73
32
0
VERTEX
8
OBJECT__25
10
0
20
0
30
0
70
128
71
35
72
38
73
36
0
VERTEX
8
OBJECT__25
10
0
20
0
30
0
70
128
71
35
72
39
73
40
0
VERTEX
8
OBJECT__25
10
0
20
0
30
0
70
128
71
39
72
41
73
40
0
VERTEX
8
OBJECT__25
10
0
20
0
30
0
70
128
71
1
72
42
73
43
0
VERTEX
8
OBJECT__25
10
0
20
0
30
0
70
128
71
43
72
39
73
1
0
VERTEX
8
OBJECT__25
10
0
20
0
30
0
70
128
71
43
72
41
73
39
0
VERTEX
8
OBJECT__25
10
0
20
0
30
0
70
128
71
40
72
38
73
35
0
VERTEX
8
OBJECT__25
10
0
20
0
30
0
70
128
71
37
72
33
73
32
0
VERTEX
8
OBJECT__25
10
0
20
0
30
0
70
128
71
34
72
31
73
29
0
VERTEX
8
OBJECT__25
10
0
20
0
30
0
70
128
71
30
72
28
73
25
0
VERTEX
8
OBJECT__25
10
0
20
0
30
0
70
128
71
27
72
24
73
22
0
VERTEX
8
OBJECT__25
10
0
20
0
30
0
70
128
71
23
72
21
73
18
0
VERTEX
8
OBJECT__25
10
0
20
0
30
0
70
128
71
20
72
16
73
15
0
VERTEX
8
OBJECT__25
10
0
20
0
30
0
70
128
71
17
72
14
73
12
0
VERTEX
8
OBJECT__25
10
0
20
0
30
0
70
128
71
13
72
11
73
8
0
VERTEX
8
OBJECT__25
10
0
20
0
30
0
70
128
71
10
72
6
73
5
0
VERTEX
8
OBJECT__25
10
0
20
0
30
0
70
128
71
7
72
4
73
2
0
VERTEX
8
OBJECT__25
10
0
20
0
30
0
70
128
71
3
72
42
73
1
0
SEQEND
8
OBJECT__25
0
POLYLINE
8
OBJECT__26
66
1
70
64
71
25
72
25
62
253
0
VERTEX
8
OBJECT__26
10
20.952999
20
11.966000
30
-9.000000
70
192
0
VERTEX
8
OBJECT__26
10
23.500000
20
0.000000
30
-9.000000
70
192
0
VERTEX
8
OBJECT__26
10
29.663000
20
23.000000
30
-9.000000
70
192
0
VERTEX
8
OBJECT__26
10
20.952999
20
-11.966000
30
-9.000000
70
192
0
VERTEX
8
OBJECT__26
10
32.074001
20
-33.155998
30
-9.000000
70
192
0
VERTEX
8
OBJECT__26
10
29.663000
20
-23.000000
30
-9.000000
70
192
0
VERTEX
8
OBJECT__26
10
51.770000
20
-46.750999
30
-9.000000
70
192
0
VERTEX
8
OBJECT__26
10
75.527000
20
-49.634998
30
-9.000000
70
192
0
VERTEX
8
OBJECT__26
10
69.500000
20
-46.000000
30
-9.000000
70
192
0
VERTEX
8
OBJECT__26
10
97.903000
20
-41.148998
30
-9.000000
70
192
0
VERTEX
8
OBJECT__26
10
92.500000
20
-39.837002
30
-9.000000
70
192
0
VERTEX
8
OBJECT__26
10
97.903000
20
41.148998
30
-9.000000
70
192
0
VERTEX
8
OBJECT__26
10
92.500000
20
39.837002
30
-9.000000
70
192
0
VERTEX
8
OBJECT__26
10
109.336998
20
23.000000
30
-9.000000
70
192
0
VERTEX
8
OBJECT__26
10
75.527000
20
49.634998
30
-9.000000
70
192
0
VERTEX
8
OBJECT__26
10
69.500000
20
46.000000
30
-9.000000
70
192
0
VERTEX
8
OBJECT__26
10
51.770000
20
46.750999
30
-9.000000
70
192
0
VERTEX
8
OBJECT__26
10
46.500000
20
39.837002
30
-9.000000
70
192
0
VERTEX
8
OBJECT__26
10
32.074001
20
33.155998
30
-9.000000
70
192
0
VERTEX
8
OBJECT__26
10
46.500000
20
-39.837002
30
-9.000000
70
192
0
VERTEX
8
OBJECT__26
10
113.773003
20
-23.236000
30
-9.000000
70
192
0
VERTEX
8
OBJECT__26
10
109.336998
20
-23.000000
30
-9.000000
70
192
0
VERTEX
8
OBJECT__26
10
113.773003
20
23.236000
30
-9.000000
70
192
0
VERTEX
8
OBJECT__26
10
115.500000
20
0.000000
30
-9.000000
70
192
0
VERTEX
8
OBJECT__26
10
119.500000
20
0.000000
30
-9.000000
70
192
0
VERTEX
8
OBJECT__26
10
0
20
0
30
0
70
128
71
1
72
2
73
3
0
VERTEX
8
OBJECT__26
10
0
20
0
30
0
70
128
71
1
72
4
73
2
0
VERTEX
8
OBJECT__26
10
0
20
0
30
0
70
128
71
4
72
5
73
6
0
VERTEX
8
OBJECT__26
10
0
20
0
30
0
70
128
71
7
72
8
73
9
0
VERTEX
8
OBJECT__26
10
0
20
0
30
0
70
128
71
8
72
10
73
11
0
VERTEX
8
OBJECT__26
10
0
20
0
30
0
70
128
71
12
72
13
73
14
0
VERTEX
8
OBJECT__26
10
0
20
0
30
0
70
128
71
15
72
16
73
13
0
VERTEX
8
OBJECT__26
10
0
20
0
30
0
70
128
71
17
72
18
73
16
0
VERTEX
8
OBJECT__26
10
0
20
0
30
0
70
128
71
19
72
3
73
18
0
VERTEX
8
OBJECT__26
10
0
20
0
30
0
70
128
71
6
72
2
73
4
0
VERTEX
8
OBJECT__26
10
0
20
0
30
0
70
128
71
5
72
7
73
20
0
VERTEX
8
OBJECT__26
10
0
20
0
30
0
70
128
71
11
72
9
73
8
0
VERTEX
8
OBJECT__26
10
0
20
0
30
0
70
128
71
10
72
21
73
22
0
VERTEX
8
OBJECT__26
10
0
20
0
30
0
70
128
71
13
72
12
73
15
0
VERTEX
8
OBJECT__26
10
0
20
0
30
0
70
128
71
18
72
17
73
19
0
VERTEX
8
OBJECT__26
10
0
20
0
30
0
70
128
71
20
72
6
73
5
0
VERTEX
8
OBJECT__26
10
0
20
0
30
0
70
128
71
22
72
11
73
10
0
VERTEX
8
OBJECT__26
10
0
20
0
30
0
70
128
71
16
72
15
73
17
0
VERTEX
8
OBJECT__26
10
0
20
0
30
0
70
128
71
9
72
20
73
7
0
VERTEX
8
OBJECT__26
10
0
20
0
30
0
70
128
71
23
72
14
73
24
0
VERTEX
8
OBJECT__26
10
0
20
0
30
0
70
128
71
3
72
19
73
1
0
VERTEX
8
OBJECT__26
10
0
20
0
30
0
70
128
71
14
72
23
73
12
0
VERTEX
8
OBJECT__26
10
0
20
0
30
0
70
128
71
21
72
25
73
24
0
VERTEX
8
OBJECT__26
10
0
20
0
30
0
70
128
71
24
72
22
73
21
0
VERTEX
8
OBJECT__26
10
0
20
0
30
0
70
128
71
24
72
25
73
23
0
SEQEND
8
OBJECT__26
0
POLYLINE
8
OBJECT__27
66
1
70
64
71
40
72
40
62
253
0
VERTEX
8
OBJECT__27
10
115.500000
20
0.000000
30
-9.000000
70
192
0
VERTEX
8
OBJECT__27
10
109.336998
20
23.000000
30
-9.000000
70
192
0
VERTEX
8
OBJECT__27
10
112.393997
20
16.617001
30
-33.254002
70
192
0
VERTEX
8
OBJECT__27
10
108.690002
20
22.599001
30
-33.254002
70
192
0
VERTEX
8
OBJECT__27
10
92.500000
20
39.837002
30
-9.000000
70
192
0
VERTEX
8
OBJECT__27
10
92.237999
20
39.490002
30
-33.254002
70
192
0
VERTEX
8
OBJECT__27
10
103.494003
20
30.990000
30
-33.254002
70
192
0
VERTEX
8
OBJECT__27
10
69.500000
20
46.000000
30
-9.000000
70
192
0
VERTEX
8
OBJECT__27
10
73.744003
20
45.804001
30
-33.254002
70
192
0
VERTEX
8
OBJECT__27
10
90.003998
20
41.178001
30
-33.254002
70
192
0
VERTEX
8
OBJECT__27
10
69.554001
20
45.415001
30
-33.254002
70
192
0
VERTEX
8
OBJECT__27
10
46.500000
20
39.837002
30
-9.000000
70
192
0
VERTEX
8
OBJECT__27
10
56.911999
20
44.243999
30
-33.254002
70
192
0
VERTEX
8
OBJECT__27
10
46.810001
20
39.214001
30
-33.254002
70
192
0
VERTEX
8
OBJECT__27
10
29.663000
20
23.000000
30
-9.000000
70
192
0
VERTEX
8
OBJECT__27
10
30.389999
20
24.216000
30
-33.254002
70
192
0
VERTEX
8
OBJECT__27
10
41.778999
20
36.709000
30
-33.254002
70
192
0
VERTEX
8
OBJECT__27
10
29.886000
20
22.914000
30
-33.254002
70
192
0
VERTEX
8
OBJECT__27
10
23.500000
20
0.000000
30
-9.000000
70
192
0
VERTEX
8
OBJECT__27
10
24.283001
20
8.452000
30
-33.254002
70
192
0
VERTEX
8
OBJECT__27
10
24.283001
20
0.000000
30
-33.254002
70
192
0
VERTEX
8
OBJECT__27
10
29.663000
20
-23.000000
30
-9.000000
70
192
0
VERTEX
8
OBJECT__27
10
29.886000
20
-22.914000
30
-33.254002
70
192
0
VERTEX
8
OBJECT__27
10
24.283001
20
-8.452000
30
-33.254002
70
192
0
VERTEX
8
OBJECT__27
10
46.500000
20
-39.837002
30
-9.000000
70
192
0
VERTEX
8
OBJECT__27
10
41.778999
20
-36.709000
30
-33.254002
70
192
0
VERTEX
8
OBJECT__27
10
30.389999
20
-24.216000
30
-33.254002
70
192
0
VERTEX
8
OBJECT__27
10
46.810001
20
-39.214001
30
-33.254002
70
192
0
VERTEX
8
OBJECT__27
10
69.500000
20
-46.000000
30
-9.000000
70
192
0
VERTEX
8
OBJECT__27
10
69.554001
20
-45.415001
30
-33.254002
70
192
0
VERTEX
8
OBJECT__27
10
56.911999
20
-44.243999
30
-33.254002
70
192
0
VERTEX
8
OBJECT__27
10
92.500000
20
-39.837002
30
-9.000000
70
192
0
VERTEX
8
OBJECT__27
10
90.003998
20
-41.178001
30
-33.254002
70
192
0
VERTEX
8
OBJECT__27
10
73.744003
20
-45.804001
30
-33.254002
70
192
0
VERTEX
8
OBJECT__27
10
92.237999
20
-39.490002
30
-33.254002
70
192
0
VERTEX
8
OBJECT__27
10
109.336998
20
-23.000000
30
-9.000000
70
192
0
VERTEX
8
OBJECT__27
10
103.494003
20
-30.990000
30
-33.254002
70
192
0
VERTEX
8
OBJECT__27
10
108.690002
20
-22.599001
30
-33.254002
70
192
0
VERTEX
8
OBJECT__27
10
115.500000
20
0.000000
30
-33.254002
70
192
0
VERTEX
8
OBJECT__27
10
112.393997
20
-16.617001
30
-33.254002
70
192
0
VERTEX
8
OBJECT__27
10
0
20
0
30
0
70
128
71
1
72
2
73
3
0
VERTEX
8
OBJECT__27
10
0
20
0
30
0
70
128
71
2
72
4
73
3
0
VERTEX
8
OBJECT__27
10
0
20
0
30
0
70
128
71
5
72
6
73
7
0
VERTEX
8
OBJECT__27
10
0
20
0
30
0
70
128
71
7
72
2
73
5
0
VERTEX
8
OBJECT__27
10
0
20
0
30
0
70
128
71
5
72
8
73
9
0
VERTEX
8
OBJECT__27
10
0
20
0
30
0
70
128
71
9
72
10
73
5
0
VERTEX
8
OBJECT__27
10
0
20
0
30
0
70
128
71
8
72
11
73
9
0
VERTEX
8
OBJECT__27
10
0
20
0
30
0
70
128
71
8
72
12
73
13
0
VERTEX
8
OBJECT__27
10
0
20
0
30
0
70
128
71
12
72
14
73
13
0
VERTEX
8
OBJECT__27
10
0
20
0
30
0
70
128
71
15
72
16
73
17
0
VERTEX
8
OBJECT__27
10
0
20
0
30
0
70
128
71
17
72
12
73
15
0
VERTEX
8
OBJECT__27
10
0
20
0
30
0
70
128
71
15
72
18
73
16
0
VERTEX
8
OBJECT__27
10
0
20
0
30
0
70
128
71
15
72
19
73
20
0
VERTEX
8
OBJECT__27
10
0
20
0
30
0
70
128
71
19
72
21
73
20
0
VERTEX
8
OBJECT__27
10
0
20
0
30
0
70
128
71
22
72
23
73
24
0
VERTEX
8
OBJECT__27
10
0
20
0
30
0
70
128
71
24
72
19
73
22
0
VERTEX
8
OBJECT__27
10
0
20
0
30
0
70
128
71
22
72
25
73
26
0
VERTEX
8
OBJECT__27
10
0
20
0
30
0
70
128
71
26
72
27
73
22
0
VERTEX
8
OBJECT__27
10
0
20
0
30
0
70
128
71
25
72
28
73
26
0
VERTEX
8
OBJECT__27
10
0
20
0
30
0
70
128
71
29
72
30
73
31
0
VERTEX
8
OBJECT__27
10
0
20
0
30
0
70
128
71
31
72
25
73
29
0
VERTEX
8
OBJECT__27
10
0
20
0
30
0
70
128
71
32
72
33
73
34
0
VERTEX
8
OBJECT__27
10
0
20
0
30
0
70
128
71
34
72
29
73
32
0
VERTEX
8
OBJECT__27
10
0
20
0
30
0
70
128
71
32
72
35
73
33
0
VERTEX
8
OBJECT__27
10
0
20
0
30
0
70
128
71
32
72
36
73
37
0
VERTEX
8
OBJECT__27
10
0
20
0
30
0
70
128
71
36
72
38
73
37
0
VERTEX
8
OBJECT__27
10
0
20
0
30
0
70
128
71
1
72
39
73
40
0
VERTEX
8
OBJECT__27
10
0
20
0
30
0
70
128
71
40
72
36
73
1
0
VERTEX
8
OBJECT__27
10
0
20
0
30
0
70
128
71
40
72
38
73
36
0
VERTEX
8
OBJECT__27
10
0
20
0
30
0
70
128
71
37
72
35
73
32
0
VERTEX
8
OBJECT__27
10
0
20
0
30
0
70
128
71
34
72
30
73
29
0
VERTEX
8
OBJECT__27
10
0
20
0
30
0
70
128
71
31
72
28
73
25
0
VERTEX
8
OBJECT__27
10
0
20
0
30
0
70
128
71
27
72
23
73
22
0
VERTEX
8
OBJECT__27
10
0
20
0
30
0
70
128
71
24
72
21
73
19
0
VERTEX
8
OBJECT__27
10
0
20
0
30
0
70
128
71
20
72
18
73
15
0
VERTEX
8
OBJECT__27
10
0
20
0
30
0
70
128
71
17
72
14
73
12
0
VERTEX
8
OBJECT__27
10
0
20
0
30
0
70
128
71
13
72
11
73
8
0
VERTEX
8
OBJECT__27
10
0
20
0
30
0
70
128
71
10
72
6
73
5
0
VERTEX
8
OBJECT__27
10
0
20
0
30
0
70
128
71
7
72
4
73
2
0
VERTEX
8
OBJECT__27
10
0
20
0
30
0
70
128
71
3
72
39
73
1
0
SEQEND
8
OBJECT__27
0
POLYLINE
8
OBJECT__28
66
1
70
64
71
45
72
45
62
253
0
VERTEX
8
OBJECT__28
10
112.393997
20
-16.617001
30
-33.254002
70
192
0
VERTEX
8
OBJECT__28
10
115.500000
20
0.000000
30
-33.254002
70
192
0
VERTEX
8
OBJECT__28
10
113.863998
20
0.000000
30
-35.925999
70
192
0
VERTEX
8
OBJECT__28
10
102.285004
20
-29.888000
30
-35.925999
70
192
0
VERTEX
8
OBJECT__28
10
103.494003
20
-30.990000
30
-33.254002
70
192
0
VERTEX
8
OBJECT__28
10
108.690002
20
-22.599001
30
-33.254002
70
192
0
VERTEX
8
OBJECT__28
10
110.867996
20
-16.025999
30
-35.925999
70
192
0
VERTEX
8
OBJECT__28
10
89.275002
20
-39.713001
30
-35.925999
70
192
0
VERTEX
8
OBJECT__28
10
92.237999
20
-39.490002
30
-33.254002
70
192
0
VERTEX
8
OBJECT__28
10
90.003998
20
-41.178001
30
-33.254002
70
192
0
VERTEX
8
OBJECT__28
10
73.593002
20
-44.174000
30
-35.925999
70
192
0
VERTEX
8
OBJECT__28
10
57.359001
20
-42.669998
30
-35.925999
70
192
0
VERTEX
8
OBJECT__28
10
56.911999
20
-44.243999
30
-33.254002
70
192
0
VERTEX
8
OBJECT__28
10
69.554001
20
-45.415001
30
-33.254002
70
192
0
VERTEX
8
OBJECT__28
10
42.764999
20
-35.403000
30
-35.925999
70
192
0
VERTEX
8
OBJECT__28
10
46.810001
20
-39.214001
30
-33.254002
70
192
0
VERTEX
8
OBJECT__28
10
41.778999
20
-36.709000
30
-33.254002
70
192
0
VERTEX
8
OBJECT__28
10
30.389999
20
-24.216000
30
-33.254002
70
192
0
VERTEX
8
OBJECT__28
10
25.892000
20
-8.152000
30
-35.925999
70
192
0
VERTEX
8
OBJECT__28
10
24.283001
20
-8.452000
30
-33.254002
70
192
0
VERTEX
8
OBJECT__28
10
29.886000
20
-22.914000
30
-33.254002
70
192
0
VERTEX
8
OBJECT__28
10
31.781000
20
-23.354000
30
-35.925999
70
192
0
VERTEX
8
OBJECT__28
10
25.892000
20
8.152000
30
-35.925999
70
192
0
VERTEX
8
OBJECT__28
10
24.283001
20
8.452000
30
-33.254002
70
192
0
VERTEX
8
OBJECT__28
10
24.283001
20
0.000000
30
-33.254002
70
192
0
VERTEX
8
OBJECT__28
10
31.781000
20
23.354000
30
-35.925999
70
192
0
VERTEX
8
OBJECT__28
10
29.886000
20
22.914000
30
-33.254002
70
192
0
VERTEX
8
OBJECT__28
10
30.389999
20
24.216000
30
-33.254002
70
192
0
VERTEX
8
OBJECT__28
10
41.778999
20
36.709000
30
-33.254002
70
192
0
VERTEX
8
OBJECT__28
10
57.359001
20
42.669998
30
-35.925999
70
192
0
VERTEX
8
OBJECT__28
10
56.911999
20
44.243999
30
-33.254002
70
192
0
VERTEX
8
OBJECT__28
10
46.810001
20
39.214001
30
-33.254002
70
192
0
VERTEX
8
OBJECT__28
10
42.764999
20
35.403000
30
-35.925999
70
192
0
VERTEX
8
OBJECT__28
10
73.593002
20
44.174000
30
-35.925999
70
192
0
VERTEX
8
OBJECT__28
10
69.554001
20
45.415001
30
-33.254002
70
192
0
VERTEX
8
OBJECT__28
10
73.744003
20
45.804001
30
-33.254002
70
192
0
VERTEX
8
OBJECT__28
10
89.275002
20
39.713001
30
-35.925999
70
192
0
VERTEX
8
OBJECT__28
10
102.285004
20
29.888000
30
-35.925999
70
192
0
VERTEX
8
OBJECT__28
10
103.494003
20
30.990000
30
-33.254002
70
192
0
VERTEX
8
OBJECT__28
10
92.237999
20
39.490002
30
-33.254002
70
192
0
VERTEX
8
OBJECT__28
10
110.867996
20
16.025999
30
-35.925999
70
192
0
VERTEX
8
OBJECT__28
10
108.690002
20
22.599001
30
-33.254002
70
192
0
VERTEX
8
OBJECT__28
10
112.393997
20
16.617001
30
-33.254002
70
192
0
VERTEX
8
OBJECT__28
10
90.003998
20
41.178001
30
-33.254002
70
192
0
VERTEX
8
OBJECT__28
10
73.744003
20
-45.804001
30
-33.254002
70
192
0
VERTEX
8
OBJECT__28
10
0
20
0
30
0
70
128
71
1
72
2
73
3
0
VERTEX
8
OBJECT__28
10
0
20
0
30
0
70
128
71
4
72
5
73
6
0
VERTEX
8
OBJECT__28
10
0
20
0
30
0
70
128
71
6
72
7
73
4
0
VERTEX
8
OBJECT__28
10
0
20
0
30
0
70
128
71
4
72
8
73
9
0
VERTEX
8
OBJECT__28
10
0
20
0
30
0
70
128
71
8
72
10
73
9
0
VERTEX
8
OBJECT__28
10
0
20
0
30
0
70
128
71
10
72
8
73
11
0
VERTEX
8
OBJECT__28
10
0
20
0
30
0
70
128
71
12
72
13
73
14
0
VERTEX
8
OBJECT__28
10
0
20
0
30
0
70
128
71
14
72
11
73
12
0
VERTEX
8
OBJECT__28
10
0
20
0
30
0
70
128
71
12
72
15
73
16
0
VERTEX
8
OBJECT__28
10
0
20
0
30
0
70
128
71
15
72
17
73
16
0
VERTEX
8
OBJECT__28
10
0
20
0
30
0
70
128
71
18
72
17
73
15
0
VERTEX
8
OBJECT__28
10
0
20
0
30
0
70
128
71
19
72
20
73
21
0
VERTEX
8
OBJECT__28
10
0
20
0
30
0
70
128
71
21
72
22
73
19
0
VERTEX
8
OBJECT__28
10
0
20
0
30
0
70
128
71
23
72
24
73
25
0
VERTEX
8
OBJECT__28
10
0
20
0
30
0
70
128
71
25
72
19
73
23
0
VERTEX
8
OBJECT__28
10
0
20
0
30
0
70
128
71
23
72
26
73
27
0
VERTEX
8
OBJECT__28
10
0
20
0
30
0
70
128
71
26
72
28
73
27
0
VERTEX
8
OBJECT__28
10
0
20
0
30
0
70
128
71
29
72
28
73
26
0
VERTEX
8
OBJECT__28
10
0
20
0
30
0
70
128
71
30
72
31
73
32
0
VERTEX
8
OBJECT__28
10
0
20
0
30
0
70
128
71
32
72
33
73
30
0
VERTEX
8
OBJECT__28
10
0
20
0
30
0
70
128
71
30
72
34
73
35
0
VERTEX
8
OBJECT__28
10
0
20
0
30
0
70
128
71
34
72
36
73
35
0
VERTEX
8
OBJECT__28
10
0
20
0
30
0
70
128
71
36
72
34
73
37
0
VERTEX
8
OBJECT__28
10
0
20
0
30
0
70
128
71
38
72
39
73
40
0
VERTEX
8
OBJECT__28
10
0
20
0
30
0
70
128
71
40
72
37
73
38
0
VERTEX
8
OBJECT__28
10
0
20
0
30
0
70
128
71
38
72
41
73
42
0
VERTEX
8
OBJECT__28
10
0
20
0
30
0
70
128
71
41
72
43
73
42
0
VERTEX
8
OBJECT__28
10
0
20
0
30
0
70
128
71
43
72
41
73
3
0
VERTEX
8
OBJECT__28
10
0
20
0
30
0
70
128
71
3
72
2
73
43
0
VERTEX
8
OBJECT__28
10
0
20
0
30
0
70
128
71
42
72
39
73
38
0
VERTEX
8
OBJECT__28
10
0
20
0
30
0
70
128
71
40
72
44
73
37
0
VERTEX
8
OBJECT__28
10
0
20
0
30
0
70
128
71
37
72
44
73
36
0
VERTEX
8
OBJECT__28
10
0
20
0
30
0
70
128
71
35
72
31
73
30
0
VERTEX
8
OBJECT__28
10
0
20
0
30
0
70
128
71
32
72
29
73
33
0
VERTEX
8
OBJECT__28
10
0
20
0
30
0
70
128
71
26
72
33
73
29
0
VERTEX
8
OBJECT__28
10
0
20
0
30
0
70
128
71
27
72
24
73
23
0
VERTEX
8
OBJECT__28
10
0
20
0
30
0
70
128
71
25
72
20
73
19
0
VERTEX
8
OBJECT__28
10
0
20
0
30
0
70
128
71
21
72
18
73
22
0
VERTEX
8
OBJECT__28
10
0
20
0
30
0
70
128
71
15
72
22
73
18
0
VERTEX
8
OBJECT__28
10
0
20
0
30
0
70
128
71
16
72
13
73
12
0
VERTEX
8
OBJECT__28
10
0
20
0
30
0
70
128
71
14
72
45
73
11
0
VERTEX
8
OBJECT__28
10
0
20
0
30
0
70
128
71
11
72
45
73
10
0
VERTEX
8
OBJECT__28
10
0
20
0
30
0
70
128
71
9
72
5
73
4
0
VERTEX
8
OBJECT__28
10
0
20
0
30
0
70
128
71
6
72
1
73
7
0
VERTEX
8
OBJECT__28
10
0
20
0
30
0
70
128
71
3
72
7
73
1
0
SEQEND
8
OBJECT__28
0
POLYLINE
8
OBJECT__29
66
1
70
64
71
61
72
78
62
253
0
VERTEX
8
OBJECT__29
10
110.678001
20
0.000000
30
-38.874001
70
192
0
VERTEX
8
OBJECT__29
10
109.500000
20
0.000000
30
-43.051998
70
192
0
VERTEX
8
OBJECT__29
10
106.799004
20
-14.450000
30
-43.051998
70
192
0
VERTEX
8
OBJECT__29
10
107.897003
20
-14.875000
30
-38.874001
70
192
0
VERTEX
8
OBJECT__29
10
102.575996
20
-21.270000
30
-43.051998
70
192
0
VERTEX
8
OBJECT__29
10
99.931000
20
-27.740999
30
-38.874001
70
192
0
VERTEX
8
OBJECT__29
10
99.059998
20
-26.948000
30
-43.051998
70
192
0
VERTEX
8
OBJECT__29
10
87.330002
20
-35.806999
30
-43.051998
70
192
0
VERTEX
8
OBJECT__29
10
73.299004
20
-41.001999
30
-38.874001
70
192
0
VERTEX
8
OBJECT__29
10
87.853996
20
-36.861000
30
-38.874001
70
192
0
VERTEX
8
OBJECT__29
10
86.055000
20
-36.168999
30
-43.051998
70
192
0
VERTEX
8
OBJECT__29
10
73.191002
20
-39.828999
30
-43.051998
70
192
0
VERTEX
8
OBJECT__29
10
63.866001
20
-38.965000
30
-43.051998
70
192
0
VERTEX
8
OBJECT__29
10
58.230999
20
-39.605999
30
-38.874001
70
192
0
VERTEX
8
OBJECT__29
10
44.685001
20
-32.860001
30
-38.874001
70
192
0
VERTEX
8
OBJECT__29
10
58.553001
20
-38.473000
30
-43.051998
70
192
0
VERTEX
8
OBJECT__29
10
34.490002
20
-21.677000
30
-38.874001
70
192
0
VERTEX
8
OBJECT__29
10
43.605000
20
-29.957001
30
-43.051998
70
192
0
VERTEX
8
OBJECT__29
10
45.395000
20
-31.921000
30
-43.051998
70
192
0
VERTEX
8
OBJECT__29
10
35.491001
20
-21.056999
30
-43.051998
70
192
0
VERTEX
8
OBJECT__29
10
31.624001
20
-11.074000
30
-43.051998
70
192
0
VERTEX
8
OBJECT__29
10
29.024000
20
-7.566000
30
-38.874001
70
192
0
VERTEX
8
OBJECT__29
10
29.024000
20
7.566000
30
-38.874001
70
192
0
VERTEX
8
OBJECT__29
10
30.181000
20
-7.350000
30
-43.051998
70
192
0
VERTEX
8
OBJECT__29
10
34.490002
20
21.677000
30
-38.874001
70
192
0
VERTEX
8
OBJECT__29
10
31.624001
20
11.074000
30
-43.051998
70
192
0
VERTEX
8
OBJECT__29
10
30.181000
20
7.350000
30
-43.051998
70
192
0
VERTEX
8
OBJECT__29
10
35.491001
20
21.056999
30
-43.051998
70
192
0
VERTEX
8
OBJECT__29
10
43.605000
20
29.957001
30
-43.051998
70
192
0
VERTEX
8
OBJECT__29
10
44.685001
20
32.860001
30
-38.874001
70
192
0
VERTEX
8
OBJECT__29
10
45.395000
20
31.921000
30
-43.051998
70
192
0
VERTEX
8
OBJECT__29
10
58.553001
20
38.473000
30
-43.051998
70
192
0
VERTEX
8
OBJECT__29
10
73.299004
20
41.001999
30
-38.874001
70
192
0
VERTEX
8
OBJECT__29
10
58.230999
20
39.605999
30
-38.874001
70
192
0
VERTEX
8
OBJECT__29
10
63.866001
20
38.965000
30
-43.051998
70
192
0
VERTEX
8
OBJECT__29
10
73.191002
20
39.828999
30
-43.051998
70
192
0
VERTEX
8
OBJECT__29
10
86.055000
20
36.168999
30
-43.051998
70
192
0
VERTEX
8
OBJECT__29
10
87.853996
20
36.861000
30
-38.874001
70
192
0
VERTEX
8
OBJECT__29
10
87.330002
20
35.806999
30
-43.051998
70
192
0
VERTEX
8
OBJECT__29
10
99.059998
20
26.948000
30
-43.051998
70
192
0
VERTEX
8
OBJECT__29
10
107.897003
20
14.875000
30
-38.874001
70
192
0
VERTEX
8
OBJECT__29
10
99.931000
20
27.740999
30
-38.874001
70
192
0
VERTEX
8
OBJECT__29
10
102.575996
20
21.270000
30
-43.051998
70
192
0
VERTEX
8
OBJECT__29
10
106.799004
20
14.450000
30
-43.051998
70
192
0
VERTEX
8
OBJECT__29
10
113.863998
20
0.000000
30
-35.925999
70
192
0
VERTEX
8
OBJECT__29
10
102.285004
20
-29.888000
30
-35.925999
70
192
0
VERTEX
8
OBJECT__29
10
110.867996
20
-16.025999
30
-35.925999
70
192
0
VERTEX
8
OBJECT__29
10
89.275002
20
-39.713001
30
-35.925999
70
192
0
VERTEX
8
OBJECT__29
10
73.593002
20
-44.174000
30
-35.925999
70
192
0
VERTEX
8
OBJECT__29
10
57.359001
20
-42.669998
30
-35.925999
70
192
0
VERTEX
8
OBJECT__29
10
42.764999
20
-35.403000
30
-35.925999
70
192
0
VERTEX
8
OBJECT__29
10
31.781000
20
-23.354000
30
-35.925999
70
192
0
VERTEX
8
OBJECT__29
10
25.892000
20
8.152000
30
-35.925999
70
192
0
VERTEX
8
OBJECT__29
10
25.892000
20
-8.152000
30
-35.925999
70
192
0
VERTEX
8
OBJECT__29
10
31.781000
20
23.354000
30
-35.925999
70
192
0
VERTEX
8
OBJECT__29
10
42.764999
20
35.403000
30
-35.925999
70
192
0
VERTEX
8
OBJECT__29
10
73.593002
20
44.174000
30
-35.925999
70
192
0
VERTEX
8
OBJECT__29
10
57.359001
20
42.669998
30
-35.925999
70
192
0
VERTEX
8
OBJECT__29
10
89.275002
20
39.713001
30
-35.925999
70
192
0
VERTEX
8
OBJECT__29
10
110.867996
20
16.025999
30
-35.925999
70
192
0
VERTEX
8
OBJECT__29
10
102.285004
20
29.888000
30
-35.925999
70
192
0
VERTEX
8
OBJECT__29
10
0
20
0
30
0
70
128
71
1
72
2
73
3
0
VERTEX
8
OBJECT__29
10
0
20
0
30
0
70
128
71
4
72
3
73
5
0
VERTEX
8
OBJECT__29
10
0
20
0
30
0
70
128
71
5
72
6
73
4
0
VERTEX
8
OBJECT__29
10
0
20
0
30
0
70
128
71
6
72
7
73
8
0
VERTEX
8
OBJECT__29
10
0
20
0
30
0
70
128
71
9
72
10
73
11
0
VERTEX
8
OBJECT__29
10
0
20
0
30
0
70
128
71
10
72
8
73
11
0
VERTEX
8
OBJECT__29
10
0
20
0
30
0
70
128
71
9
72
12
73
13
0
VERTEX
8
OBJECT__29
10
0
20
0
30
0
70
128
71
13
72
14
73
9
0
VERTEX
8
OBJECT__29
10
0
20
0
30
0
70
128
71
15
72
14
73
16
0
VERTEX
8
OBJECT__29
10
0
20
0
30
0
70
128
71
17
72
15
73
18
0
VERTEX
8
OBJECT__29
10
0
20
0
30
0
70
128
71
15
72
19
73
18
0
VERTEX
8
OBJECT__29
10
0
20
0
30
0
70
128
71
17
72
20
73
21
0
VERTEX
8
OBJECT__29
10
0
20
0
30
0
70
128
71
21
72
22
73
17
0
VERTEX
8
OBJECT__29
10
0
20
0
30
0
70
128
71
23
72
22
73
24
0
VERTEX
8
OBJECT__29
10
0
20
0
30
0
70
128
71
25
72
23
73
26
0
VERTEX
8
OBJECT__29
10
0
20
0
30
0
70
128
71
23
72
27
73
26
0
VERTEX
8
OBJECT__29
10
0
20
0
30
0
70
128
71
25
72
28
73
29
0
VERTEX
8
OBJECT__29
10
0
20
0
30
0
70
128
71
29
72
30
73
25
0
VERTEX
8
OBJECT__29
10
0
20
0
30
0
70
128
71
30
72
31
73
32
0
VERTEX
8
OBJECT__29
10
0
20
0
30
0
70
128
71
33
72
34
73
35
0
VERTEX
8
OBJECT__29
10
0
20
0
30
0
70
128
71
34
72
32
73
35
0
VERTEX
8
OBJECT__29
10
0
20
0
30
0
70
128
71
33
72
36
73
37
0
VERTEX
8
OBJECT__29
10
0
20
0
30
0
70
128
71
37
72
38
73
33
0
VERTEX
8
OBJECT__29
10
0
20
0
30
0
70
128
71
38
72
39
73
40
0
VERTEX
8
OBJECT__29
10
0
20
0
30
0
70
128
71
41
72
42
73
43
0
VERTEX
8
OBJECT__29
10
0
20
0
30
0
70
128
71
42
72
40
73
43
0
VERTEX
8
OBJECT__29
10
0
20
0
30
0
70
128
71
41
72
44
73
2
0
VERTEX
8
OBJECT__29
10
0
20
0
30
0
70
128
71
45
72
1
73
4
0
VERTEX
8
OBJECT__29
10
0
20
0
30
0
70
128
71
46
72
47
73
4
0
VERTEX
8
OBJECT__29
10
0
20
0
30
0
70
128
71
48
72
46
73
6
0
VERTEX
8
OBJECT__29
10
0
20
0
30
0
70
128
71
48
72
10
73
9
0
VERTEX
8
OBJECT__29
10
0
20
0
30
0
70
128
71
49
72
9
73
14
0
VERTEX
8
OBJECT__29
10
0
20
0
30
0
70
128
71
50
72
14
73
15
0
VERTEX
8
OBJECT__29
10
0
20
0
30
0
70
128
71
51
72
15
73
17
0
VERTEX
8
OBJECT__29
10
0
20
0
30
0
70
128
71
52
72
17
73
22
0
VERTEX
8
OBJECT__29
10
0
20
0
30
0
70
128
71
53
72
54
73
22
0
VERTEX
8
OBJECT__29
10
0
20
0
30
0
70
128
71
53
72
23
73
25
0
VERTEX
8
OBJECT__29
10
0
20
0
30
0
70
128
71
55
72
25
73
30
0
VERTEX
8
OBJECT__29
10
0
20
0
30
0
70
128
71
56
72
30
73
34
0
VERTEX
8
OBJECT__29
10
0
20
0
30
0
70
128
71
57
72
58
73
34
0
VERTEX
8
OBJECT__29
10
0
20
0
30
0
70
128
71
57
72
33
73
38
0
VERTEX
8
OBJECT__29
10
0
20
0
30
0
70
128
71
59
72
38
73
42
0
VERTEX
8
OBJECT__29
10
0
20
0
30
0
70
128
71
60
72
61
73
42
0
VERTEX
8
OBJECT__29
10
0
20
0
30
0
70
128
71
60
72
41
73
1
0
VERTEX
8
OBJECT__29
10
0
20
0
30
0
70
128
71
1
72
45
73
60
0
VERTEX
8
OBJECT__29
10
0
20
0
30
0
70
128
71
42
72
41
73
60
0
VERTEX
8
OBJECT__29
10
0
20
0
30
0
70
128
71
42
72
61
73
59
0
VERTEX
8
OBJECT__29
10
0
20
0
30
0
70
128
71
38
72
59
73
57
0
VERTEX
8
OBJECT__29
10
0
20
0
30
0
70
128
71
34
72
33
73
57
0
VERTEX
8
OBJECT__29
10
0
20
0
30
0
70
128
71
34
72
58
73
56
0
VERTEX
8
OBJECT__29
10
0
20
0
30
0
70
128
71
30
72
56
73
55
0
VERTEX
8
OBJECT__29
10
0
20
0
30
0
70
128
71
25
72
55
73
53
0
VERTEX
8
OBJECT__29
10
0
20
0
30
0
70
128
71
22
72
23
73
53
0
VERTEX
8
OBJECT__29
10
0
20
0
30
0
70
128
71
22
72
54
73
52
0
VERTEX
8
OBJECT__29
10
0
20
0
30
0
70
128
71
17
72
52
73
51
0
VERTEX
8
OBJECT__29
10
0
20
0
30
0
70
128
71
15
72
51
73
50
0
VERTEX
8
OBJECT__29
10
0
20
0
30
0
70
128
71
14
72
50
73
49
0
VERTEX
8
OBJECT__29
10
0
20
0
30
0
70
128
71
9
72
49
73
48
0
VERTEX
8
OBJECT__29
10
0
20
0
30
0
70
128
71
6
72
10
73
48
0
VERTEX
8
OBJECT__29
10
0
20
0
30
0
70
128
71
4
72
6
73
46
0
VERTEX
8
OBJECT__29
10
0
20
0
30
0
70
128
71
4
72
47
73
45
0
VERTEX
8
OBJECT__29
10
0
20
0
30
0
70
128
71
2
72
1
73
41
0
VERTEX
8
OBJECT__29
10
0
20
0
30
0
70
128
71
43
72
44
73
41
0
VERTEX
8
OBJECT__29
10
0
20
0
30
0
70
128
71
40
72
42
73
38
0
VERTEX
8
OBJECT__29
10
0
20
0
30
0
70
128
71
37
72
39
73
38
0
VERTEX
8
OBJECT__29
10
0
20
0
30
0
70
128
71
35
72
36
73
33
0
VERTEX
8
OBJECT__29
10
0
20
0
30
0
70
128
71
32
72
34
73
30
0
VERTEX
8
OBJECT__29
10
0
20
0
30
0
70
128
71
29
72
31
73
30
0
VERTEX
8
OBJECT__29
10
0
20
0
30
0
70
128
71
26
72
28
73
25
0
VERTEX
8
OBJECT__29
10
0
20
0
30
0
70
128
71
24
72
27
73
23
0
VERTEX
8
OBJECT__29
10
0
20
0
30
0
70
128
71
21
72
24
73
22
0
VERTEX
8
OBJECT__29
10
0
20
0
30
0
70
128
71
18
72
20
73
17
0
VERTEX
8
OBJECT__29
10
0
20
0
30
0
70
128
71
16
72
19
73
15
0
VERTEX
8
OBJECT__29
10
0
20
0
30
0
70
128
71
13
72
16
73
14
0
VERTEX
8
OBJECT__29
10
0
20
0
30
0
70
128
71
11
72
12
73
9
0
VERTEX
8
OBJECT__29
10
0
20
0
30
0
70
128
71
8
72
10
73
6
0
VERTEX
8
OBJECT__29
10
0
20
0
30
0
70
128
71
5
72
7
73
6
0
VERTEX
8
OBJECT__29
10
0
20
0
30
0
70
128
71
3
72
4
73
1
0
SEQEND
8
OBJECT__29
0
POLYLINE
8
OBJECT__30
66
1
70
64
71
53
72
53
62
253
0
VERTEX
8
OBJECT__30
10
109.500000
20
0.000000
30
-145.003006
70
192
0
VERTEX
8
OBJECT__30
10
109.500000
20
0.000000
30
-43.051998
70
192
0
VERTEX
8
OBJECT__30
10
106.799004
20
14.450000
30
-43.051998
70
192
0
VERTEX
8
OBJECT__30
10
102.575996
20
21.270000
30
-43.051998
70
192
0
VERTEX
8
OBJECT__30
10
102.515999
20
21.202000
30
-145.003006
70
192
0
VERTEX
8
OBJECT__30
10
106.455002
20
15.307000
30
-145.003006
70
192
0
VERTEX
8
OBJECT__30
10
87.330002
20
35.806999
30
-43.051998
70
192
0
VERTEX
8
OBJECT__30
10
85.975998
20
36.174000
30
-145.003006
70
192
0
VERTEX
8
OBJECT__30
10
97.783997
20
28.284000
30
-145.003006
70
192
0
VERTEX
8
OBJECT__30
10
99.059998
20
26.948000
30
-43.051998
70
192
0
VERTEX
8
OBJECT__30
10
63.866001
20
38.965000
30
-43.051998
70
192
0
VERTEX
8
OBJECT__30
10
63.945999
20
38.895000
30
-145.003006
70
192
0
VERTEX
8
OBJECT__30
10
69.500000
20
40.000000
30
-145.003006
70
192
0
VERTEX
8
OBJECT__30
10
84.806999
20
36.955002
30
-145.003006
70
192
0
VERTEX
8
OBJECT__30
10
86.055000
20
36.168999
30
-43.051998
70
192
0
VERTEX
8
OBJECT__30
10
73.191002
20
39.828999
30
-43.051998
70
192
0
VERTEX
8
OBJECT__30
10
45.395000
20
31.921000
30
-43.051998
70
192
0
VERTEX
8
OBJECT__30
10
43.558998
20
29.850000
30
-145.003006
70
192
0
VERTEX
8
OBJECT__30
10
54.193001
20
36.955002
30
-145.003006
70
192
0
VERTEX
8
OBJECT__30
10
58.553001
20
38.473000
30
-43.051998
70
192
0
VERTEX
8
OBJECT__30
10
31.624001
20
11.074000
30
-43.051998
70
192
0
VERTEX
8
OBJECT__30
10
31.718000
20
11.150000
30
-145.003006
70
192
0
VERTEX
8
OBJECT__30
10
32.544998
20
15.307000
30
-145.003006
70
192
0
VERTEX
8
OBJECT__30
10
41.216000
20
28.284000
30
-145.003006
70
192
0
VERTEX
8
OBJECT__30
10
43.605000
20
29.957001
30
-43.051998
70
192
0
VERTEX
8
OBJECT__30
10
35.491001
20
21.056999
30
-43.051998
70
192
0
VERTEX
8
OBJECT__30
10
30.181000
20
-7.350000
30
-43.051998
70
192
0
VERTEX
8
OBJECT__30
10
31.718000
20
-11.150000
30
-145.003006
70
192
0
VERTEX
8
OBJECT__30
10
29.500000
20
0.000000
30
-145.003006
70
192
0
VERTEX
8
OBJECT__30
10
30.181000
20
7.350000
30
-43.051998
70
192
0
VERTEX
8
OBJECT__30
10
41.216000
20
-28.284000
30
-145.003006
70
192
0
VERTEX
8
OBJECT__30
10
32.544998
20
-15.307000
30
-145.003006
70
192
0
VERTEX
8
OBJECT__30
10
35.491001
20
-21.056999
30
-43.051998
70
192
0
VERTEX
8
OBJECT__30
10
43.605000
20
-29.957001
30
-43.051998
70
192
0
VERTEX
8
OBJECT__30
10
43.558998
20
-29.850000
30
-145.003006
70
192
0
VERTEX
8
OBJECT__30
10
31.624001
20
-11.074000
30
-43.051998
70
192
0
VERTEX
8
OBJECT__30
10
63.945999
20
-38.895000
30
-145.003006
70
192
0
VERTEX
8
OBJECT__30
10
54.193001
20
-36.955002
30
-145.003006
70
192
0
VERTEX
8
OBJECT__30
10
58.553001
20
-38.473000
30
-43.051998
70
192
0
VERTEX
8
OBJECT__30
10
45.395000
20
-31.921000
30
-43.051998
70
192
0
VERTEX
8
OBJECT__30
10
84.806999
20
-36.955002
30
-145.003006
70
192
0
VERTEX
8
OBJECT__30
10
69.500000
20
-40.000000
30
-145.003006
70
192
0
VERTEX
8
OBJECT__30
10
73.191002
20
-39.828999
30
-43.051998
70
192
0
VERTEX
8
OBJECT__30
10
86.055000
20
-36.168999
30
-43.051998
70
192
0
VERTEX
8
OBJECT__30
10
85.975998
20
-36.174000
30
-145.003006
70
192
0
VERTEX
8
OBJECT__30
10
63.866001
20
-38.965000
30
-43.051998
70
192
0
VERTEX
8
OBJECT__30
10
102.515999
20
-21.202000
30
-145.003006
70
192
0
VERTEX
8
OBJECT__30
10
97.783997
20
-28.284000
30
-145.003006
70
192
0
VERTEX
8
OBJECT__30
10
99.059998
20
-26.948000
30
-43.051998
70
192
0
VERTEX
8
OBJECT__30
10
87.330002
20
-35.806999
30
-43.051998
70
192
0
VERTEX
8
OBJECT__30
10
102.575996
20
-21.270000
30
-43.051998
70
192
0
VERTEX
8
OBJECT__30
10
106.799004
20
-14.450000
30
-43.051998
70
192
0
VERTEX
8
OBJECT__30
10
106.455002
20
-15.307000
30
-145.003006
70
192
0
VERTEX
8
OBJECT__30
10
0
20
0
30
0
70
128
71
1
72
2
73
3
0
VERTEX
8
OBJECT__30
10
0
20
0
30
0
70
128
71
4
72
5
73
6
0
VERTEX
8
OBJECT__30
10
0
20
0
30
0
70
128
71
6
72
3
73
4
0
VERTEX
8
OBJECT__30
10
0
20
0
30
0
70
128
71
7
72
8
73
9
0
VERTEX
8
OBJECT__30
10
0
20
0
30
0
70
128
71
9
72
10
73
7
0
VERTEX
8
OBJECT__30
10
0
20
0
30
0
70
128
71
5
72
4
73
10
0
VERTEX
8
OBJECT__30
10
0
20
0
30
0
70
128
71
10
72
9
73
5
0
VERTEX
8
OBJECT__30
10
0
20
0
30
0
70
128
71
11
72
12
73
13
0
VERTEX
8
OBJECT__30
10
0
20
0
30
0
70
128
71
14
72
15
73
16
0
VERTEX
8
OBJECT__30
10
0
20
0
30
0
70
128
71
16
72
13
73
14
0
VERTEX
8
OBJECT__30
10
0
20
0
30
0
70
128
71
14
72
8
73
15
0
VERTEX
8
OBJECT__30
10
0
20
0
30
0
70
128
71
17
72
18
73
19
0
VERTEX
8
OBJECT__30
10
0
20
0
30
0
70
128
71
19
72
20
73
17
0
VERTEX
8
OBJECT__30
10
0
20
0
30
0
70
128
71
12
72
11
73
20
0
VERTEX
8
OBJECT__30
10
0
20
0
30
0
70
128
71
20
72
19
73
12
0
VERTEX
8
OBJECT__30
10
0
20
0
30
0
70
128
71
21
72
22
73
23
0
VERTEX
8
OBJECT__30
10
0
20
0
30
0
70
128
71
24
72
25
73
26
0
VERTEX
8
OBJECT__30
10
0
20
0
30
0
70
128
71
26
72
23
73
24
0
VERTEX
8
OBJECT__30
10
0
20
0
30
0
70
128
71
24
72
18
73
25
0
VERTEX
8
OBJECT__30
10
0
20
0
30
0
70
128
71
27
72
28
73
29
0
VERTEX
8
OBJECT__30
10
0
20
0
30
0
70
128
71
29
72
30
73
27
0
VERTEX
8
OBJECT__30
10
0
20
0
30
0
70
128
71
29
72
22
73
30
0
VERTEX
8
OBJECT__30
10
0
20
0
30
0
70
128
71
22
72
21
73
30
0
VERTEX
8
OBJECT__30
10
0
20
0
30
0
70
128
71
31
72
32
73
33
0
VERTEX
8
OBJECT__30
10
0
20
0
30
0
70
128
71
34
72
35
73
31
0
VERTEX
8
OBJECT__30
10
0
20
0
30
0
70
128
71
36
72
33
73
32
0
VERTEX
8
OBJECT__30
10
0
20
0
30
0
70
128
71
32
72
28
73
36
0
VERTEX
8
OBJECT__30
10
0
20
0
30
0
70
128
71
37
72
38
73
39
0
VERTEX
8
OBJECT__30
10
0
20
0
30
0
70
128
71
40
72
39
73
38
0
VERTEX
8
OBJECT__30
10
0
20
0
30
0
70
128
71
38
72
35
73
40
0
VERTEX
8
OBJECT__30
10
0
20
0
30
0
70
128
71
35
72
34
73
40
0
VERTEX
8
OBJECT__30
10
0
20
0
30
0
70
128
71
41
72
42
73
43
0
VERTEX
8
OBJECT__30
10
0
20
0
30
0
70
128
71
44
72
45
73
41
0
VERTEX
8
OBJECT__30
10
0
20
0
30
0
70
128
71
46
72
43
73
42
0
VERTEX
8
OBJECT__30
10
0
20
0
30
0
70
128
71
42
72
37
73
46
0
VERTEX
8
OBJECT__30
10
0
20
0
30
0
70
128
71
47
72
48
73
49
0
VERTEX
8
OBJECT__30
10
0
20
0
30
0
70
128
71
50
72
49
73
48
0
VERTEX
8
OBJECT__30
10
0
20
0
30
0
70
128
71
48
72
45
73
50
0
VERTEX
8
OBJECT__30
10
0
20
0
30
0
70
128
71
45
72
44
73
50
0
VERTEX
8
OBJECT__30
10
0
20
0
30
0
70
128
71
51
72
52
73
53
0
VERTEX
8
OBJECT__30
10
0
20
0
30
0
70
128
71
1
72
53
73
52
0
VERTEX
8
OBJECT__30
10
0
20
0
30
0
70
128
71
52
72
2
73
1
0
VERTEX
8
OBJECT__30
10
0
20
0
30
0
70
128
71
53
72
47
73
51
0
VERTEX
8
OBJECT__30
10
0
20
0
30
0
70
128
71
49
72
51
73
47
0
VERTEX
8
OBJECT__30
10
0
20
0
30
0
70
128
71
43
72
44
73
41
0
VERTEX
8
OBJECT__30
10
0
20
0
30
0
70
128
71
39
72
46
73
37
0
VERTEX
8
OBJECT__30
10
0
20
0
30
0
70
128
71
33
72
34
73
31
0
VERTEX
8
OBJECT__30
10
0
20
0
30
0
70
128
71
27
72
36
73
28
0
VERTEX
8
OBJECT__30
10
0
20
0
30
0
70
128
71
23
72
26
73
21
0
VERTEX
8
OBJECT__30
10
0
20
0
30
0
70
128
71
17
72
25
73
18
0
VERTEX
8
OBJECT__30
10
0
20
0
30
0
70
128
71
13
72
16
73
11
0
VERTEX
8
OBJECT__30
10
0
20
0
30
0
70
128
71
7
72
15
73
8
0
VERTEX
8
OBJECT__30
10
0
20
0
30
0
70
128
71
3
72
6
73
1
0
SEQEND
8
OBJECT__30
0
POLYLINE
8
OBJECT__31
66
1
70
64
71
58
72
74
62
253
0
VERTEX
8
OBJECT__31
10
107.611000
20
0.000000
30
-148.917999
70
192
0
VERTEX
8
OBJECT__31
10
103.371002
20
0.000000
30
-149.873993
70
192
0
VERTEX
8
OBJECT__31
10
100.792999
20
-12.962000
30
-149.873993
70
192
0
VERTEX
8
OBJECT__31
10
96.447998
20
-26.948000
30
-148.917999
70
192
0
VERTEX
8
OBJECT__31
10
104.709999
20
-14.584000
30
-148.917999
70
192
0
VERTEX
8
OBJECT__31
10
93.449997
20
-23.950001
30
-149.873993
70
192
0
VERTEX
8
OBJECT__31
10
82.461998
20
-31.292999
30
-149.873993
70
192
0
VERTEX
8
OBJECT__31
10
84.084000
20
-35.209999
30
-148.917999
70
192
0
VERTEX
8
OBJECT__31
10
69.500000
20
-33.870998
30
-149.873993
70
192
0
VERTEX
8
OBJECT__31
10
69.500000
20
-38.111000
30
-148.917999
70
192
0
VERTEX
8
OBJECT__31
10
56.537998
20
-31.292999
30
-149.873993
70
192
0
VERTEX
8
OBJECT__31
10
42.551998
20
-26.948000
30
-148.917999
70
192
0
VERTEX
8
OBJECT__31
10
54.916000
20
-35.209999
30
-148.917999
70
192
0
VERTEX
8
OBJECT__31
10
34.290001
20
-14.584000
30
-148.917999
70
192
0
VERTEX
8
OBJECT__31
10
45.549999
20
-23.950001
30
-149.873993
70
192
0
VERTEX
8
OBJECT__31
10
31.389000
20
0.000000
30
-148.917999
70
192
0
VERTEX
8
OBJECT__31
10
38.207001
20
-12.962000
30
-149.873993
70
192
0
VERTEX
8
OBJECT__31
10
34.290001
20
14.584000
30
-148.917999
70
192
0
VERTEX
8
OBJECT__31
10
35.629002
20
0.000000
30
-149.873993
70
192
0
VERTEX
8
OBJECT__31
10
38.207001
20
12.962000
30
-149.873993
70
192
0
VERTEX
8
OBJECT__31
10
45.549999
20
23.950001
30
-149.873993
70
192
0
VERTEX
8
OBJECT__31
10
54.916000
20
35.209999
30
-148.917999
70
192
0
VERTEX
8
OBJECT__31
10
42.551998
20
26.948000
30
-148.917999
70
192
0
VERTEX
8
OBJECT__31
10
56.537998
20
31.292999
30
-149.873993
70
192
0
VERTEX
8
OBJECT__31
10
69.500000
20
33.870998
30
-149.873993
70
192
0
VERTEX
8
OBJECT__31
10
69.500000
20
38.111000
30
-148.917999
70
192
0
VERTEX
8
OBJECT__31
10
82.461998
20
31.292999
30
-149.873993
70
192
0
VERTEX
8
OBJECT__31
10
84.084000
20
35.209999
30
-148.917999
70
192
0
VERTEX
8
OBJECT__31
10
93.449997
20
23.950001
30
-149.873993
70
192
0
VERTEX
8
OBJECT__31
10
104.709999
20
14.584000
30
-148.917999
70
192
0
VERTEX
8
OBJECT__31
10
96.447998
20
26.948000
30
-148.917999
70
192
0
VERTEX
8
OBJECT__31
10
100.792999
20
12.962000
30
-149.873993
70
192
0
VERTEX
8
OBJECT__31
10
106.455002
20
-15.307000
30
-145.003006
70
192
0
VERTEX
8
OBJECT__31
10
109.500000
20
0.000000
30
-145.003006
70
192
0
VERTEX
8
OBJECT__31
10
97.783997
20
-28.284000
30
-145.003006
70
192
0
VERTEX
8
OBJECT__31
10
102.515999
20
-21.202000
30
-145.003006
70
192
0
VERTEX
8
OBJECT__31
10
85.975998
20
-36.174000
30
-145.003006
70
192
0
VERTEX
8
OBJECT__31
10
84.806999
20
-36.955002
30
-145.003006
70
192
0
VERTEX
8
OBJECT__31
10
54.193001
20
-36.955002
30
-145.003006
70
192
0
VERTEX
8
OBJECT__31
10
63.945999
20
-38.895000
30
-145.003006
70
192
0
VERTEX
8
OBJECT__31
10
43.558998
20
-29.850000
30
-145.003006
70
192
0
VERTEX
8
OBJECT__31
10
41.216000
20
-28.284000
30
-145.003006
70
192
0
VERTEX
8
OBJECT__31
10
29.500000
20
0.000000
30
-145.003006
70
192
0
VERTEX
8
OBJECT__31
10
31.718000
20
-11.150000
30
-145.003006
70
192
0
VERTEX
8
OBJECT__31
10
31.718000
20
11.150000
30
-145.003006
70
192
0
VERTEX
8
OBJECT__31
10
32.544998
20
15.307000
30
-145.003006
70
192
0
VERTEX
8
OBJECT__31
10
54.193001
20
36.955002
30
-145.003006
70
192
0
VERTEX
8
OBJECT__31
10
43.558998
20
29.850000
30
-145.003006
70
192
0
VERTEX
8
OBJECT__31
10
63.945999
20
38.895000
30
-145.003006
70
192
0
VERTEX
8
OBJECT__31
10
69.500000
20
40.000000
30
-145.003006
70
192
0
VERTEX
8
OBJECT__31
10
84.806999
20
36.955002
30
-145.003006
70
192
0
VERTEX
8
OBJECT__31
10
97.783997
20
28.284000
30
-145.003006
70
192
0
VERTEX
8
OBJECT__31
10
85.975998
20
36.174000
30
-145.003006
70
192
0
VERTEX
8
OBJECT__31
10
102.515999
20
21.202000
30
-145.003006
70
192
0
VERTEX
8
OBJECT__31
10
106.455002
20
15.307000
30
-145.003006
70
192
0
VERTEX
8
OBJECT__31
10
41.216000
20
28.284000
30
-145.003006
70
192
0
VERTEX
8
OBJECT__31
10
32.544998
20
-15.307000
30
-145.003006
70
192
0
VERTEX
8
OBJECT__31
10
69.500000
20
-40.000000
30
-145.003006
70
192
0
VERTEX
8
OBJECT__31
10
0
20
0
30
0
70
128
71
1
72
2
73
3
0
VERTEX
8
OBJECT__31
10
0
20
0
30
0
70
128
71
4
72
5
73
3
0
VERTEX
8
OBJECT__31
10
0
20
0
30
0
70
128
71
4
72
6
73
7
0
VERTEX
8
OBJECT__31
10
0
20
0
30
0
70
128
71
8
72
7
73
9
0
VERTEX
8
OBJECT__31
10
0
20
0
30
0
70
128
71
10
72
9
73
11
0
VERTEX
8
OBJECT__31
10
0
20
0
30
0
70
128
71
12
72
13
73
11
0
VERTEX
8
OBJECT__31
10
0
20
0
30
0
70
128
71
14
72
12
73
15
0
VERTEX
8
OBJECT__31
10
0
20
0
30
0
70
128
71
16
72
14
73
17
0
VERTEX
8
OBJECT__31
10
0
20
0
30
0
70
128
71
18
72
16
73
19
0
VERTEX
8
OBJECT__31
10
0
20
0
30
0
70
128
71
18
72
20
73
21
0
VERTEX
8
OBJECT__31
10
0
20
0
30
0
70
128
71
22
72
23
73
21
0
VERTEX
8
OBJECT__31
10
0
20
0
30
0
70
128
71
22
72
24
73
25
0
VERTEX
8
OBJECT__31
10
0
20
0
30
0
70
128
71
26
72
25
73
27
0
VERTEX
8
OBJECT__31
10
0
20
0
30
0
70
128
71
28
72
27
73
29
0
VERTEX
8
OBJECT__31
10
0
20
0
30
0
70
128
71
30
72
31
73
29
0
VERTEX
8
OBJECT__31
10
0
20
0
30
0
70
128
71
1
72
30
73
32
0
VERTEX
8
OBJECT__31
10
0
20
0
30
0
70
128
71
33
72
34
73
1
0
VERTEX
8
OBJECT__31
10
0
20
0
30
0
70
128
71
4
72
35
73
36
0
VERTEX
8
OBJECT__31
10
0
20
0
30
0
70
128
71
36
72
5
73
4
0
VERTEX
8
OBJECT__31
10
0
20
0
30
0
70
128
71
4
72
8
73
37
0
VERTEX
8
OBJECT__31
10
0
20
0
30
0
70
128
71
8
72
38
73
37
0
VERTEX
8
OBJECT__31
10
0
20
0
30
0
70
128
71
38
72
8
73
10
0
VERTEX
8
OBJECT__31
10
0
20
0
30
0
70
128
71
13
72
39
73
40
0
VERTEX
8
OBJECT__31
10
0
20
0
30
0
70
128
71
40
72
10
73
13
0
VERTEX
8
OBJECT__31
10
0
20
0
30
0
70
128
71
13
72
12
73
41
0
VERTEX
8
OBJECT__31
10
0
20
0
30
0
70
128
71
12
72
42
73
41
0
VERTEX
8
OBJECT__31
10
0
20
0
30
0
70
128
71
42
72
12
73
14
0
VERTEX
8
OBJECT__31
10
0
20
0
30
0
70
128
71
16
72
43
73
44
0
VERTEX
8
OBJECT__31
10
0
20
0
30
0
70
128
71
44
72
14
73
16
0
VERTEX
8
OBJECT__31
10
0
20
0
30
0
70
128
71
16
72
18
73
45
0
VERTEX
8
OBJECT__31
10
0
20
0
30
0
70
128
71
18
72
46
73
45
0
VERTEX
8
OBJECT__31
10
0
20
0
30
0
70
128
71
46
72
18
73
23
0
VERTEX
8
OBJECT__31
10
0
20
0
30
0
70
128
71
22
72
47
73
48
0
VERTEX
8
OBJECT__31
10
0
20
0
30
0
70
128
71
48
72
23
73
22
0
VERTEX
8
OBJECT__31
10
0
20
0
30
0
70
128
71
22
72
26
73
49
0
VERTEX
8
OBJECT__31
10
0
20
0
30
0
70
128
71
26
72
50
73
49
0
VERTEX
8
OBJECT__31
10
0
20
0
30
0
70
128
71
51
72
50
73
26
0
VERTEX
8
OBJECT__31
10
0
20
0
30
0
70
128
71
31
72
52
73
53
0
VERTEX
8
OBJECT__31
10
0
20
0
30
0
70
128
71
53
72
28
73
31
0
VERTEX
8
OBJECT__31
10
0
20
0
30
0
70
128
71
31
72
30
73
54
0
VERTEX
8
OBJECT__31
10
0
20
0
30
0
70
128
71
30
72
55
73
54
0
VERTEX
8
OBJECT__31
10
0
20
0
30
0
70
128
71
55
72
30
73
1
0
VERTEX
8
OBJECT__31
10
0
20
0
30
0
70
128
71
1
72
34
73
55
0
VERTEX
8
OBJECT__31
10
0
20
0
30
0
70
128
71
54
72
52
73
31
0
VERTEX
8
OBJECT__31
10
0
20
0
30
0
70
128
71
53
72
51
73
28
0
VERTEX
8
OBJECT__31
10
0
20
0
30
0
70
128
71
26
72
28
73
51
0
VERTEX
8
OBJECT__31
10
0
20
0
30
0
70
128
71
49
72
47
73
22
0
VERTEX
8
OBJECT__31
10
0
20
0
30
0
70
128
71
48
72
56
73
23
0
VERTEX
8
OBJECT__31
10
0
20
0
30
0
70
128
71
23
72
56
73
46
0
VERTEX
8
OBJECT__31
10
0
20
0
30
0
70
128
71
45
72
43
73
16
0
VERTEX
8
OBJECT__31
10
0
20
0
30
0
70
128
71
44
72
57
73
14
0
VERTEX
8
OBJECT__31
10
0
20
0
30
0
70
128
71
14
72
57
73
42
0
VERTEX
8
OBJECT__31
10
0
20
0
30
0
70
128
71
41
72
39
73
13
0
VERTEX
8
OBJECT__31
10
0
20
0
30
0
70
128
71
40
72
58
73
10
0
VERTEX
8
OBJECT__31
10
0
20
0
30
0
70
128
71
10
72
58
73
38
0
VERTEX
8
OBJECT__31
10
0
20
0
30
0
70
128
71
37
72
35
73
4
0
VERTEX
8
OBJECT__31
10
0
20
0
30
0
70
128
71
36
72
33
73
5
0
VERTEX
8
OBJECT__31
10
0
20
0
30
0
70
128
71
1
72
5
73
33
0
VERTEX
8
OBJECT__31
10
0
20
0
30
0
70
128
71
32
72
2
73
1
0
VERTEX
8
OBJECT__31
10
0
20
0
30
0
70
128
71
29
72
32
73
30
0
VERTEX
8
OBJECT__31
10
0
20
0
30
0
70
128
71
29
72
31
73
28
0
VERTEX
8
OBJECT__31
10
0
20
0
30
0
70
128
71
27
72
28
73
26
0
VERTEX
8
OBJECT__31
10
0
20
0
30
0
70
128
71
25
72
26
73
22
0
VERTEX
8
OBJECT__31
10
0
20
0
30
0
70
128
71
21
72
24
73
22
0
VERTEX
8
OBJECT__31
10
0
20
0
30
0
70
128
71
21
72
23
73
18
0
VERTEX
8
OBJECT__31
10
0
20
0
30
0
70
128
71
19
72
20
73
18
0
VERTEX
8
OBJECT__31
10
0
20
0
30
0
70
128
71
17
72
19
73
16
0
VERTEX
8
OBJECT__31
10
0
20
0
30
0
70
128
71
15
72
17
73
14
0
VERTEX
8
OBJECT__31
10
0
20
0
30
0
70
128
71
11
72
15
73
12
0
VERTEX
8
OBJECT__31
10
0
20
0
30
0
70
128
71
11
72
13
73
10
0
VERTEX
8
OBJECT__31
10
0
20
0
30
0
70
128
71
9
72
10
73
8
0
VERTEX
8
OBJECT__31
10
0
20
0
30
0
70
128
71
7
72
8
73
4
0
VERTEX
8
OBJECT__31
10
0
20
0
30
0
70
128
71
3
72
6
73
4
0
VERTEX
8
OBJECT__31
10
0
20
0
30
0
70
128
71
3
72
5
73
1
0
SEQEND
8
OBJECT__31
0
POLYLINE
8
OBJECT__32
66
1
70
64
71
24
72
24
62
253
0
VERTEX
8
OBJECT__32
10
92.125000
20
39.188000
30
-46.000000
70
192
0
VERTEX
8
OBJECT__32
10
92.125000
20
39.188000
30
-40.000000
70
192
0
VERTEX
8
OBJECT__32
10
69.500000
20
45.250000
30
-40.000000
70
192
0
VERTEX
8
OBJECT__32
10
108.688004
20
22.625000
30
-46.000000
70
192
0
VERTEX
8
OBJECT__32
10
108.688004
20
22.625000
30
-40.000000
70
192
0
VERTEX
8
OBJECT__32
10
114.750000
20
0.000000
30
-46.000000
70
192
0
VERTEX
8
OBJECT__32
10
114.750000
20
0.000000
30
-40.000000
70
192
0
VERTEX
8
OBJECT__32
10
108.688004
20
-22.625000
30
-46.000000
70
192
0
VERTEX
8
OBJECT__32
10
108.688004
20
-22.625000
30
-40.000000
70
192
0
VERTEX
8
OBJECT__32
10
92.125000
20
-39.188000
30
-46.000000
70
192
0
VERTEX
8
OBJECT__32
10
92.125000
20
-39.188000
30
-40.000000
70
192
0
VERTEX
8
OBJECT__32
10
69.500000
20
-45.250000
30
-46.000000
70
192
0
VERTEX
8
OBJECT__32
10
69.500000
20
-45.250000
30
-40.000000
70
192
0
VERTEX
8
OBJECT__32
10
46.875000
20
-39.188000
30
-46.000000
70
192
0
VERTEX
8
OBJECT__32
10
46.875000
20
-39.188000
30
-40.000000
70
192
0
VERTEX
8
OBJECT__32
10
30.312000
20
-22.625000
30
-46.000000
70
192
0
VERTEX
8
OBJECT__32
10
30.312000
20
-22.625000
30
-40.000000
70
192
0
VERTEX
8
OBJECT__32
10
24.250000
20
0.000000
30
-46.000000
70
192
0
VERTEX
8
OBJECT__32
10
24.250000
20
0.000000
30
-40.000000
70
192
0
VERTEX
8
OBJECT__32
10
30.312000
20
22.625000
30
-46.000000
70
192
0
VERTEX
8
OBJECT__32
10
30.312000
20
22.625000
30
-40.000000
70
192
0
VERTEX
8
OBJECT__32
10
46.875000
20
39.188000
30
-46.000000
70
192
0
VERTEX
8
OBJECT__32
10
46.875000
20
39.188000
30
-40.000000
70
192
0
VERTEX
8
OBJECT__32
10
69.500000
20
45.250000
30
-46.000000
70
192
0
VERTEX
8
OBJECT__32
10
0
20
0
30
0
70
128
71
1
72
2
73
3
0
VERTEX
8
OBJECT__32
10
0
20
0
30
0
70
128
71
4
72
5
73
2
0
VERTEX
8
OBJECT__32
10
0
20
0
30
0
70
128
71
6
72
7
73
5
0
VERTEX
8
OBJECT__32
10
0
20
0
30
0
70
128
71
8
72
9
73
7
0
VERTEX
8
OBJECT__32
10
0
20
0
30
0
70
128
71
10
72
11
73
9
0
VERTEX
8
OBJECT__32
10
0
20
0
30
0
70
128
71
12
72
13
73
11
0
VERTEX
8
OBJECT__32
10
0
20
0
30
0
70
128
71
14
72
15
73
13
0
VERTEX
8
OBJECT__32
10
0
20
0
30
0
70
128
71
16
72
17
73
15
0
VERTEX
8
OBJECT__32
10
0
20
0
30
0
70
128
71
18
72
19
73
17
0
VERTEX
8
OBJECT__32
10
0
20
0
30
0
70
128
71
20
72
21
73
19
0
VERTEX
8
OBJECT__32
10
0
20
0
30
0
70
128
71
22
72
23
73
21
0
VERTEX
8
OBJECT__32
10
0
20
0
30
0
70
128
71
24
72
3
73
23
0
VERTEX
8
OBJECT__32
10
0
20
0
30
0
70
128
71
23
72
22
73
24
0
VERTEX
8
OBJECT__32
10
0
20
0
30
0
70
128
71
21
72
20
73
22
0
VERTEX
8
OBJECT__32
10
0
20
0
30
0
70
128
71
19
72
18
73
20
0
VERTEX
8
OBJECT__32
10
0
20
0
30
0
70
128
71
17
72
16
73
18
0
VERTEX
8
OBJECT__32
10
0
20
0
30
0
70
128
71
15
72
14
73
16
0
VERTEX
8
OBJECT__32
10
0
20
0
30
0
70
128
71
13
72
12
73
14
0
VERTEX
8
OBJECT__32
10
0
20
0
30
0
70
128
71
11
72
10
73
12
0
VERTEX
8
OBJECT__32
10
0
20
0
30
0
70
128
71
9
72
8
73
10
0
VERTEX
8
OBJECT__32
10
0
20
0
30
0
70
128
71
7
72
6
73
8
0
VERTEX
8
OBJECT__32
10
0
20
0
30
0
70
128
71
5
72
4
73
6
0
VERTEX
8
OBJECT__32
10
0
20
0
30
0
70
128
71
2
72
1
73
4
0
VERTEX
8
OBJECT__32
10
0
20
0
30
0
70
128
71
3
72
24
73
1
0
SEQEND
8
OBJECT__32
0
POLYLINE
8
OBJECT__33
66
1
70
64
71
27
72
27
62
253
0
VERTEX
8
OBJECT__33
10
27.457001
20
32.270000
30
-46.000000
70
192
0
VERTEX
8
OBJECT__33
10
47.948002
20
48.419998
30
-46.000000
70
192
0
VERTEX
8
OBJECT__33
10
46.875000
20
39.188000
30
-46.000000
70
192
0
VERTEX
8
OBJECT__33
10
98.367996
20
44.448002
30
-46.000000
70
192
0
VERTEX
8
OBJECT__33
10
116.078003
20
25.288000
30
-46.000000
70
192
0
VERTEX
8
OBJECT__33
10
108.688004
20
22.625000
30
-46.000000
70
192
0
VERTEX
8
OBJECT__33
10
122.500000
20
0.000000
30
-46.000000
70
192
0
VERTEX
8
OBJECT__33
10
114.750000
20
0.000000
30
-46.000000
70
192
0
VERTEX
8
OBJECT__33
10
116.078003
20
-25.288000
30
-46.000000
70
192
0
VERTEX
8
OBJECT__33
10
108.688004
20
-22.625000
30
-46.000000
70
192
0
VERTEX
8
OBJECT__33
10
98.367996
20
-44.448002
30
-46.000000
70
192
0
VERTEX
8
OBJECT__33
10
92.125000
20
-39.188000
30
-46.000000
70
192
0
VERTEX
8
OBJECT__33
10
30.312000
20
22.625000
30
-46.000000
70
192
0
VERTEX
8
OBJECT__33
10
73.663002
20
52.835999
30
-46.000000
70
192
0
VERTEX
8
OBJECT__33
10
69.500000
20
45.250000
30
-46.000000
70
192
0
VERTEX
8
OBJECT__33
10
73.663002
20
-52.835999
30
-46.000000
70
192
0
VERTEX
8
OBJECT__33
10
69.500000
20
-45.250000
30
-46.000000
70
192
0
VERTEX
8
OBJECT__33
10
47.948002
20
-48.419998
30
-46.000000
70
192
0
VERTEX
8
OBJECT__33
10
46.875000
20
-39.188000
30
-46.000000
70
192
0
VERTEX
8
OBJECT__33
10
92.125000
20
39.188000
30
-46.000000
70
192
0
VERTEX
8
OBJECT__33
10
27.457001
20
-32.270000
30
-46.000000
70
192
0
VERTEX
8
OBJECT__33
10
30.312000
20
-22.625000
30
-46.000000
70
192
0
VERTEX
8
OBJECT__33
10
17.153999
20
-8.300000
30
-46.000000
70
192
0
VERTEX
8
OBJECT__33
10
24.250000
20
0.000000
30
-46.000000
70
192
0
VERTEX
8
OBJECT__33
10
9.000000
20
8.300000
30
-46.000000
70
192
0
VERTEX
8
OBJECT__33
10
17.153999
20
8.300000
30
-46.000000
70
192
0
VERTEX
8
OBJECT__33
10
9.000000
20
-8.300000
30
-46.000000
70
192
0
VERTEX
8
OBJECT__33
10
0
20
0
30
0
70
128
71
1
72
2
73
3
0
VERTEX
8
OBJECT__33
10
0
20
0
30
0
70
128
71
4
72
5
73
6
0
VERTEX
8
OBJECT__33
10
0
20
0
30
0
70
128
71
5
72
7
73
8
0
VERTEX
8
OBJECT__33
10
0
20
0
30
0
70
128
71
9
72
10
73
8
0
VERTEX
8
OBJECT__33
10
0
20
0
30
0
70
128
71
11
72
12
73
10
0
VERTEX
8
OBJECT__33
10
0
20
0
30
0
70
128
71
3
72
13
73
1
0
VERTEX
8
OBJECT__33
10
0
20
0
30
0
70
128
71
2
72
14
73
15
0
VERTEX
8
OBJECT__33
10
0
20
0
30
0
70
128
71
8
72
6
73
5
0
VERTEX
8
OBJECT__33
10
0
20
0
30
0
70
128
71
10
72
9
73
11
0
VERTEX
8
OBJECT__33
10
0
20
0
30
0
70
128
71
16
72
17
73
12
0
VERTEX
8
OBJECT__33
10
0
20
0
30
0
70
128
71
18
72
19
73
17
0
VERTEX
8
OBJECT__33
10
0
20
0
30
0
70
128
71
15
72
3
73
2
0
VERTEX
8
OBJECT__33
10
0
20
0
30
0
70
128
71
14
72
4
73
20
0
VERTEX
8
OBJECT__33
10
0
20
0
30
0
70
128
71
8
72
7
73
9
0
VERTEX
8
OBJECT__33
10
0
20
0
30
0
70
128
71
17
72
16
73
18
0
VERTEX
8
OBJECT__33
10
0
20
0
30
0
70
128
71
20
72
15
73
14
0
VERTEX
8
OBJECT__33
10
0
20
0
30
0
70
128
71
12
72
11
73
16
0
VERTEX
8
OBJECT__33
10
0
20
0
30
0
70
128
71
21
72
22
73
19
0
VERTEX
8
OBJECT__33
10
0
20
0
30
0
70
128
71
23
72
24
73
22
0
VERTEX
8
OBJECT__33
10
0
20
0
30
0
70
128
71
6
72
20
73
4
0
VERTEX
8
OBJECT__33
10
0
20
0
30
0
70
128
71
22
72
21
73
23
0
VERTEX
8
OBJECT__33
10
0
20
0
30
0
70
128
71
19
72
18
73
21
0
VERTEX
8
OBJECT__33
10
0
20
0
30
0
70
128
71
24
72
25
73
26
0
VERTEX
8
OBJECT__33
10
0
20
0
30
0
70
128
71
25
72
24
73
23
0
VERTEX
8
OBJECT__33
10
0
20
0
30
0
70
128
71
26
72
13
73
24
0
VERTEX
8
OBJECT__33
10
0
20
0
30
0
70
128
71
13
72
26
73
1
0
VERTEX
8
OBJECT__33
10
0
20
0
30
0
70
128
71
23
72
27
73
25
0
SEQEND
8
OBJECT__33
0
POLYLINE
8
OBJECT__35
66
1
70
64
71
26
72
24
62
253
0
VERTEX
8
OBJECT__35
10
27.457001
20
-32.270000
30
-46.000000
70
192
0
VERTEX
8
OBJECT__35
10
27.457001
20
-32.270000
30
-40.000000
70
192
0
VERTEX
8
OBJECT__35
10
17.153999
20
-8.300000
30
-40.000000
70
192
0
VERTEX
8
OBJECT__35
10
47.948002
20
-48.419998
30
-46.000000
70
192
0
VERTEX
8
OBJECT__35
10
47.948002
20
-48.419998
30
-40.000000
70
192
0
VERTEX
8
OBJECT__35
10
73.663002
20
-52.835999
30
-46.000000
70
192
0
VERTEX
8
OBJECT__35
10
73.663002
20
-52.835999
30
-40.000000
70
192
0
VERTEX
8
OBJECT__35
10
98.367996
20
-44.448002
30
-46.000000
70
192
0
VERTEX
8
OBJECT__35
10
98.367996
20
-44.448002
30
-40.000000
70
192
0
VERTEX
8
OBJECT__35
10
116.078003
20
-25.288000
30
-46.000000
70
192
0
VERTEX
8
OBJECT__35
10
116.078003
20
-25.288000
30
-40.000000
70
192
0
VERTEX
8
OBJECT__35
10
122.500000
20
0.000000
30
-46.000000
70
192
0
VERTEX
8
OBJECT__35
10
122.500000
20
0.000000
30
-40.000000
70
192
0
VERTEX
8
OBJECT__35
10
116.078003
20
25.288000
30
-46.000000
70
192
0
VERTEX
8
OBJECT__35
10
116.078003
20
25.288000
30
-40.000000
70
192
0
VERTEX
8
OBJECT__35
10
98.367996
20
44.448002
30
-46.000000
70
192
0
VERTEX
8
OBJECT__35
10
98.367996
20
44.448002
30
-40.000000
70
192
0
VERTEX
8
OBJECT__35
10
73.663002
20
52.835999
30
-46.000000
70
192
0
VERTEX
8
OBJECT__35
10
73.663002
20
52.835999
30
-40.000000
70
192
0
VERTEX
8
OBJECT__35
10
47.948002
20
48.419998
30
-46.000000
70
192
0
VERTEX
8
OBJECT__35
10
47.948002
20
48.419998
30
-40.000000
70
192
0
VERTEX
8
OBJECT__35
10
27.457001
20
32.270000
30
-46.000000
70
192
0
VERTEX
8
OBJECT__35
10
27.457001
20
32.270000
30
-40.000000
70
192
0
VERTEX
8
OBJECT__35
10
17.153999
20
8.300000
30
-46.000000
70
192
0
VERTEX
8
OBJECT__35
10
17.153999
20
8.300000
30
-40.000000
70
192
0
VERTEX
8
OBJECT__35
10
17.153999
20
-8.300000
30
-46.000000
70
192
0
VERTEX
8
OBJECT__35
10
0
20
0
30
0
70
128
71
1
72
2
73
3
0
VERTEX
8
OBJECT__35
10
0
20
0
30
0
70
128
71
4
72
5
73
2
0
VERTEX
8
OBJECT__35
10
0
20
0
30
0
70
128
71
6
72
7
73
5
0
VERTEX
8
OBJECT__35
10
0
20
0
30
0
70
128
71
8
72
9
73
7
0
VERTEX
8
OBJECT__35
10
0
20
0
30
0
70
128
71
10
72
11
73
9
0
VERTEX
8
OBJECT__35
10
0
20
0
30
0
70
128
71
12
72
13
73
11
0
VERTEX
8
OBJECT__35
10
0
20
0
30
0
70
128
71
14
72
15
73
13
0
VERTEX
8
OBJECT__35
10
0
20
0
30
0
70
128
71
16
72
17
73
15
0
VERTEX
8
OBJECT__35
10
0
20
0
30
0
70
128
71
18
72
19
73
17
0
VERTEX
8
OBJECT__35
10
0
20
0
30
0
70
128
71
20
72
21
73
19
0
VERTEX
8
OBJECT__35
10
0
20
0
30
0
70
128
71
22
72
23
73
21
0
VERTEX
8
OBJECT__35
10
0
20
0
30
0
70
128
71
24
72
25
73
23
0
VERTEX
8
OBJECT__35
10
0
20
0
30
0
70
128
71
23
72
22
73
24
0
VERTEX
8
OBJECT__35
10
0
20
0
30
0
70
128
71
21
72
20
73
22
0
VERTEX
8
OBJECT__35
10
0
20
0
30
0
70
128
71
19
72
18
73
20
0
VERTEX
8
OBJECT__35
10
0
20
0
30
0
70
128
71
17
72
16
73
18
0
VERTEX
8
OBJECT__35
10
0
20
0
30
0
70
128
71
15
72
14
73
16
0
VERTEX
8
OBJECT__35
10
0
20
0
30
0
70
128
71
13
72
12
73
14
0
VERTEX
8
OBJECT__35
10
0
20
0
30
0
70
128
71
11
72
10
73
12
0
VERTEX
8
OBJECT__35
10
0
20
0
30
0
70
128
71
9
72
8
73
10
0
VERTEX
8
OBJECT__35
10
0
20
0
30
0
70
128
71
7
72
6
73
8
0
VERTEX
8
OBJECT__35
10
0
20
0
30
0
70
128
71
5
72
4
73
6
0
VERTEX
8
OBJECT__35
10
0
20
0
30
0
70
128
71
2
72
1
73
4
0
VERTEX
8
OBJECT__35
10
0
20
0
30
0
70
128
71
3
72
26
73
1
0
SEQEND
8
OBJECT__35
0
POLYLINE
8
OBJECT__36
66
1
70
64
71
27
72
27
62
253
0
VERTEX
8
OBJECT__36
10
116.078003
20
25.288000
30
-40.000000
70
192
0
VERTEX
8
OBJECT__36
10
108.688004
20
22.625000
30
-40.000000
70
192
0
VERTEX
8
OBJECT__36
10
114.750000
20
0.000000
30
-40.000000
70
192
0
VERTEX
8
OBJECT__36
10
98.367996
20
44.448002
30
-40.000000
70
192
0
VERTEX
8
OBJECT__36
10
92.125000
20
39.188000
30
-40.000000
70
192
0
VERTEX
8
OBJECT__36
10
73.663002
20
52.835999
30
-40.000000
70
192
0
VERTEX
8
OBJECT__36
10
69.500000
20
45.250000
30
-40.000000
70
192
0
VERTEX
8
OBJECT__36
10
47.948002
20
48.419998
30
-40.000000
70
192
0
VERTEX
8
OBJECT__36
10
46.875000
20
39.188000
30
-40.000000
70
192
0
VERTEX
8
OBJECT__36
10
27.457001
20
32.270000
30
-40.000000
70
192
0
VERTEX
8
OBJECT__36
10
30.312000
20
22.625000
30
-40.000000
70
192
0
VERTEX
8
OBJECT__36
10
47.948002
20
-48.419998
30
-40.000000
70
192
0
VERTEX
8
OBJECT__36
10
73.663002
20
-52.835999
30
-40.000000
70
192
0
VERTEX
8
OBJECT__36
10
69.500000
20
-45.250000
30
-40.000000
70
192
0
VERTEX
8
OBJECT__36
10
98.367996
20
-44.448002
30
-40.000000
70
192
0
VERTEX
8
OBJECT__36
10
92.125000
20
-39.188000
30
-40.000000
70
192
0
VERTEX
8
OBJECT__36
10
116.078003
20
-25.288000
30
-40.000000
70
192
0
VERTEX
8
OBJECT__36
10
108.688004
20
-22.625000
30
-40.000000
70
192
0
VERTEX
8
OBJECT__36
10
122.500000
20
0.000000
30
-40.000000
70
192
0
VERTEX
8
OBJECT__36
10
17.153999
20
-8.300000
30
-40.000000
70
192
0
VERTEX
8
OBJECT__36
10
27.457001
20
-32.270000
30
-40.000000
70
192
0
VERTEX
8
OBJECT__36
10
30.312000
20
-22.625000
30
-40.000000
70
192
0
VERTEX
8
OBJECT__36
10
46.875000
20
-39.188000
30
-40.000000
70
192
0
VERTEX
8
OBJECT__36
10
17.153999
20
8.300000
30
-40.000000
70
192
0
VERTEX
8
OBJECT__36
10
9.000000
20
-8.300000
30
-40.000000
70
192
0
VERTEX
8
OBJECT__36
10
24.250000
20
0.000000
30
-40.000000
70
192
0
VERTEX
8
OBJECT__36
10
9.000000
20
8.300000
30
-40.000000
70
192
0
VERTEX
8
OBJECT__36
10
0
20
0
30
0
70
128
71
1
72
2
73
3
0
VERTEX
8
OBJECT__36
10
0
20
0
30
0
70
128
71
4
72
5
73
2
0
VERTEX
8
OBJECT__36
10
0
20
0
30
0
70
128
71
2
72
1
73
4
0
VERTEX
8
OBJECT__36
10
0
20
0
30
0
70
128
71
6
72
7
73
5
0
VERTEX
8
OBJECT__36
10
0
20
0
30
0
70
128
71
8
72
9
73
7
0
VERTEX
8
OBJECT__36
10
0
20
0
30
0
70
128
71
10
72
11
73
9
0
VERTEX
8
OBJECT__36
10
0
20
0
30
0
70
128
71
12
72
13
73
14
0
VERTEX
8
OBJECT__36
10
0
20
0
30
0
70
128
71
13
72
15
73
16
0
VERTEX
8
OBJECT__36
10
0
20
0
30
0
70
128
71
15
72
17
73
18
0
VERTEX
8
OBJECT__36
10
0
20
0
30
0
70
128
71
17
72
19
73
3
0
VERTEX
8
OBJECT__36
10
0
20
0
30
0
70
128
71
5
72
4
73
6
0
VERTEX
8
OBJECT__36
10
0
20
0
30
0
70
128
71
9
72
8
73
10
0
VERTEX
8
OBJECT__36
10
0
20
0
30
0
70
128
71
20
72
21
73
22
0
VERTEX
8
OBJECT__36
10
0
20
0
30
0
70
128
71
21
72
12
73
23
0
VERTEX
8
OBJECT__36
10
0
20
0
30
0
70
128
71
16
72
14
73
13
0
VERTEX
8
OBJECT__36
10
0
20
0
30
0
70
128
71
3
72
18
73
17
0
VERTEX
8
OBJECT__36
10
0
20
0
30
0
70
128
71
24
72
25
73
20
0
VERTEX
8
OBJECT__36
10
0
20
0
30
0
70
128
71
7
72
6
73
8
0
VERTEX
8
OBJECT__36
10
0
20
0
30
0
70
128
71
24
72
26
73
11
0
VERTEX
8
OBJECT__36
10
0
20
0
30
0
70
128
71
23
72
22
73
21
0
VERTEX
8
OBJECT__36
10
0
20
0
30
0
70
128
71
18
72
16
73
15
0
VERTEX
8
OBJECT__36
10
0
20
0
30
0
70
128
71
20
72
26
73
24
0
VERTEX
8
OBJECT__36
10
0
20
0
30
0
70
128
71
11
72
10
73
24
0
VERTEX
8
OBJECT__36
10
0
20
0
30
0
70
128
71
14
72
23
73
12
0
VERTEX
8
OBJECT__36
10
0
20
0
30
0
70
128
71
3
72
19
73
1
0
VERTEX
8
OBJECT__36
10
0
20
0
30
0
70
128
71
24
72
27
73
25
0
VERTEX
8
OBJECT__36
10
0
20
0
30
0
70
128
71
22
72
26
73
20
0
SEQEND
8
OBJECT__36
0
POLYLINE
8
OBJECT__37
66
1
70
64
71
6
72
4
62
253
0
VERTEX
8
OBJECT__37
10
2.636000
20
8.300000
30
-43.363998
70
192
0
VERTEX
8
OBJECT__37
10
2.636000
20
-8.300000
30
-43.363998
70
192
0
VERTEX
8
OBJECT__37
10
0.000000
20
-8.300000
30
-37.000000
70
192
0
VERTEX
8
OBJECT__37
10
9.000000
20
8.300000
30
-46.000000
70
192
0
VERTEX
8
OBJECT__37
10
9.000000
20
-8.300000
30
-46.000000
70
192
0
VERTEX
8
OBJECT__37
10
0.000000
20
8.300000
30
-37.000000
70
192
0
VERTEX
8
OBJECT__37
10
0
20
0
30
0
70
128
71
1
72
2
73
3
0
VERTEX
8
OBJECT__37
10
0
20
0
30
0
70
128
71
4
72
5
73
2
0
VERTEX
8
OBJECT__37
10
0
20
0
30
0
70
128
71
2
72
1
73
4
0
VERTEX
8
OBJECT__37
10
0
20
0
30
0
70
128
71
3
72
6
73
1
0
SEQEND
8
OBJECT__37
0
POLYLINE
8
OBJECT__38
66
1
70
64
71
6
72
4
62
253
0
VERTEX
8
OBJECT__38
10
0.000000
20
-8.300000
30
-37.000000
70
192
0
VERTEX
8
OBJECT__38
10
0.000000
20
-8.300000
30
1.500000
70
192
0
VERTEX
8
OBJECT__38
10
0.000000
20
8.300000
30
1.500000
70
192
0
VERTEX
8
OBJECT__38
10
0.000000
20
-4.150000
30
8.688000
70
192
0
VERTEX
8
OBJECT__38
10
0.000000
20
4.150000
30
8.688000
70
192
0
VERTEX
8
OBJECT__38
10
0.000000
20
8.300000
30
-37.000000
70
192
0
VERTEX
8
OBJECT__38
10
0
20
0
30
0
70
128
71
1
72
2
73
3
0
VERTEX
8
OBJECT__38
10
0
20
0
30
0
70
128
71
3
72
2
73
4
0
VERTEX
8
OBJECT__38
10
0
20
0
30
0
70
128
71
4
72
5
73
3
0
VERTEX
8
OBJECT__38
10
0
20
0
30
0
70
128
71
3
72
6
73
1
0
SEQEND
8
OBJECT__38
0
POLYLINE
8
OBJECT__39
66
1
70
64
71
9
72
7
62
253
0
VERTEX
8
OBJECT__39
10
2.636000
20
8.300000
30
-43.363998
70
192
0
VERTEX
8
OBJECT__39
10
0.000000
20
8.300000
30
-37.000000
70
192
0
VERTEX
8
OBJECT__39
10
6.000000
20
8.300000
30
-37.000000
70
192
0
VERTEX
8
OBJECT__39
10
9.000000
20
8.300000
30
-40.000000
70
192
0
VERTEX
8
OBJECT__39
10
9.000000
20
8.300000
30
-46.000000
70
192
0
VERTEX
8
OBJECT__39
10
6.000000
20
8.300000
30
1.500000
70
192
0
VERTEX
8
OBJECT__39
10
17.153999
20
8.300000
30
-40.000000
70
192
0
VERTEX
8
OBJECT__39
10
0.000000
20
8.300000
30
1.500000
70
192
0
VERTEX
8
OBJECT__39
10
17.153999
20
8.300000
30
-46.000000
70
192
0
VERTEX
8
OBJECT__39
10
0
20
0
30
0
70
128
71
1
72
2
73
3
0
VERTEX
8
OBJECT__39
10
0
20
0
30
0
70
128
71
4
72
5
73
1
0
VERTEX
8
OBJECT__39
10
0
20
0
30
0
70
128
71
6
72
3
73
2
0
VERTEX
8
OBJECT__39
10
0
20
0
30
0
70
128
71
5
72
4
73
7
0
VERTEX
8
OBJECT__39
10
0
20
0
30
0
70
128
71
2
72
8
73
6
0
VERTEX
8
OBJECT__39
10
0
20
0
30
0
70
128
71
3
72
4
73
1
0
VERTEX
8
OBJECT__39
10
0
20
0
30
0
70
128
71
7
72
9
73
5
0
SEQEND
8
OBJECT__39
0
POLYLINE
8
OBJECT__40
66
1
70
64
71
9
72
7
62
253
0
VERTEX
8
OBJECT__40
10
2.636000
20
-8.300000
30
-43.363998
70
192
0
VERTEX
8
OBJECT__40
10
9.000000
20
-8.300000
30
-46.000000
70
192
0
VERTEX
8
OBJECT__40
10
9.000000
20
-8.300000
30
-40.000000
70
192
0
VERTEX
8
OBJECT__40
10
0.000000
20
-8.300000
30
1.500000
70
192
0
VERTEX
8
OBJECT__40
10
0.000000
20
-8.300000
30
-37.000000
70
192
0
VERTEX
8
OBJECT__40
10
6.000000
20
-8.300000
30
-37.000000
70
192
0
VERTEX
8
OBJECT__40
10
17.153999
20
-8.300000
30
-40.000000
70
192
0
VERTEX
8
OBJECT__40
10
17.153999
20
-8.300000
30
-46.000000
70
192
0
VERTEX
8
OBJECT__40
10
6.000000
20
-8.300000
30
1.500000
70
192
0
VERTEX
8
OBJECT__40
10
0
20
0
30
0
70
128
71
1
72
2
73
3
0
VERTEX
8
OBJECT__40
10
0
20
0
30
0
70
128
71
4
72
5
73
6
0
VERTEX
8
OBJECT__40
10
0
20
0
30
0
70
128
71
6
72
5
73
1
0
VERTEX
8
OBJECT__40
10
0
20
0
30
0
70
128
71
3
72
6
73
1
0
VERTEX
8
OBJECT__40
10
0
20
0
30
0
70
128
71
7
72
3
73
2
0
VERTEX
8
OBJECT__40
10
0
20
0
30
0
70
128
71
2
72
8
73
7
0
VERTEX
8
OBJECT__40
10
0
20
0
30
0
70
128
71
6
72
9
73
4
0
SEQEND
8
OBJECT__40
0
POLYLINE
8
OBJECT__41
66
1
70
64
71
4
72
2
62
253
0
VERTEX
8
OBJECT__41
10
6.000000
20
8.300000
30
-37.000000
70
192
0
VERTEX
8
OBJECT__41
10
6.000000
20
-8.300000
30
-37.000000
70
192
0
VERTEX
8
OBJECT__41
10
9.000000
20
-8.300000
30
-40.000000
70
192
0
VERTEX
8
OBJECT__41
10
9.000000
20
8.300000
30
-40.000000
70
192
0
VERTEX
8
OBJECT__41
10
0
20
0
30
0
70
128
71
1
72
2
73
3
0
VERTEX
8
OBJECT__41
10
0
20
0
30
0
70
128
71
3
72
4
73
1
0
SEQEND
8
OBJECT__41
0
POLYLINE
8
OBJECT__42
66
1
70
64
71
6
72
4
62
253
0
VERTEX
8
OBJECT__42
10
6.000000
20
8.300000
30
1.500000
70
192
0
VERTEX
8
OBJECT__42
10
6.000000
20
4.150000
30
8.688000
70
192
0
VERTEX
8
OBJECT__42
10
6.000000
20
-4.150000
30
8.688000
70
192
0
VERTEX
8
OBJECT__42
10
6.000000
20
-8.300000
30
-37.000000
70
192
0
VERTEX
8
OBJECT__42
10
6.000000
20
8.300000
30
-37.000000
70
192
0
VERTEX
8
OBJECT__42
10
6.000000
20
-8.300000
30
1.500000
70
192
0
VERTEX
8
OBJECT__42
10
0
20
0
30
0
70
128
71
1
72
2
73
3
0
VERTEX
8
OBJECT__42
10
0
20
0
30
0
70
128
71
4
72
5
73
1
0
VERTEX
8
OBJECT__42
10
0
20
0
30
0
70
128
71
1
72
6
73
4
0
VERTEX
8
OBJECT__42
10
0
20
0
30
0
70
128
71
3
72
6
73
1
0
SEQEND
8
OBJECT__42
0
ENDSEC
0
EOF
