999
Converted by 3D Exploration 
999
XDimension Software, LLC
999
http://www.xdsoft.com/explorer/
0
SECTION
2
HEADER
9
$ACADVER
1
AC1008
9
$UCSORG
10
0.0
20
0.0
30
0.0
9
$UCSXDIR
10
1.0
20
0.0
30
0.0
9
$TILEMODE
70
1
9
$UCSYDIR
10
0.0
20
1.0
30
0.0
9
$EXTMIN
10
-40.000000
20
-36.497002
30
-36.497002
9
$EXTMAX
10
86.900002
20
36.497002
30
23.000000
0
ENDSEC
0
SECTION
2
TABLES
0
TABLE
2
LTYPE
70
1
0
LTYPE
2
CONTINUOUS
70
64
3
Solid line
72
65
73
0
40
0.0
0
ENDTAB
0
TABLE
2
LAYER
70
29
0
LAYER
2
OBJECT__0
70
0
62
253
6
CONTINUOUS
0
LAYER
2
OBJECT__1
70
0
62
253
6
CONTINUOUS
0
LAYER
2
OBJECT__3
70
0
62
253
6
CONTINUOUS
0
LAYER
2
OBJECT__4
70
0
62
253
6
CONTINUOUS
0
LAYER
2
OBJECT__5
70
0
62
253
6
CONTINUOUS
0
LAYER
2
OBJECT__6
70
0
62
253
6
CONTINUOUS
0
LAYER
2
OBJECT__7
70
0
62
253
6
CONTINUOUS
0
LAYER
2
OBJECT__8
70
0
62
253
6
CONTINUOUS
0
LAYER
2
OBJECT__9
70
0
62
253
6
CONTINUOUS
0
LAYER
2
OBJECT__10
70
0
62
253
6
CONTINUOUS
0
LAYER
2
OBJECT__11
70
0
62
253
6
CONTINUOUS
0
LAYER
2
OBJECT__13
70
0
62
253
6
CONTINUOUS
0
LAYER
2
OBJECT__14
70
0
62
253
6
CONTINUOUS
0
LAYER
2
OBJECT__15
70
0
62
253
6
CONTINUOUS
0
LAYER
2
OBJECT__16
70
0
62
253
6
CONTINUOUS
0
LAYER
2
OBJECT__17
70
0
62
253
6
CONTINUOUS
0
LAYER
2
OBJECT__18
70
0
62
253
6
CONTINUOUS
0
LAYER
2
OBJECT__20
70
0
62
253
6
CONTINUOUS
0
LAYER
2
OBJECT__21
70
0
62
253
6
CONTINUOUS
0
LAYER
2
OBJECT__22
70
0
62
253
6
CONTINUOUS
0
LAYER
2
OBJECT__23
70
0
62
253
6
CONTINUOUS
0
LAYER
2
OBJECT__24
70
0
62
253
6
CONTINUOUS
0
LAYER
2
OBJECT__25
70
0
62
253
6
CONTINUOUS
0
LAYER
2
OBJECT__26
70
0
62
253
6
CONTINUOUS
0
LAYER
2
OBJECT__27
70
0
62
253
6
CONTINUOUS
0
LAYER
2
OBJECT__28
70
0
62
253
6
CONTINUOUS
0
ENDTAB
0
TABLE
2
STYLE
70
1
0
STYLE
2
STANDARD
70
0
40
0.0
41
1.0
50
0.0
71
0
42
0.2
3
txt
4
1
0
ENDTAB
0
TABLE
2
UCS
70
0
0
ENDTAB
0
ENDSEC
0
SECTION
2
ENTITIES
0
POLYLINE
8
OBJECT__0
66
1
70
64
71
14
72
12
62
253
0
VERTEX
8
OBJECT__0
10
6.000000
20
0.000000
30
-18.000000
70
192
0
VERTEX
8
OBJECT__0
10
6.000000
20
-17.549000
30
4.005000
70
192
0
VERTEX
8
OBJECT__0
10
6.000000
20
-17.549000
30
-4.005000
70
192
0
VERTEX
8
OBJECT__0
10
6.000000
20
0.000000
30
18.000000
70
192
0
VERTEX
8
OBJECT__0
10
6.000000
20
17.549000
30
4.005000
70
192
0
VERTEX
8
OBJECT__0
10
6.000000
20
14.073000
30
11.223000
70
192
0
VERTEX
8
OBJECT__0
10
6.000000
20
-14.073000
30
-11.223000
70
192
0
VERTEX
8
OBJECT__0
10
6.000000
20
-7.810000
30
16.216999
70
192
0
VERTEX
8
OBJECT__0
10
6.000000
20
-14.073000
30
11.223000
70
192
0
VERTEX
8
OBJECT__0
10
6.000000
20
17.549000
30
-4.005000
70
192
0
VERTEX
8
OBJECT__0
10
6.000000
20
14.073000
30
-11.223000
70
192
0
VERTEX
8
OBJECT__0
10
6.000000
20
7.810000
30
-16.216999
70
192
0
VERTEX
8
OBJECT__0
10
6.000000
20
7.810000
30
16.216999
70
192
0
VERTEX
8
OBJECT__0
10
6.000000
20
-7.810000
30
-16.216999
70
192
0
VERTEX
8
OBJECT__0
10
0
20
0
30
0
70
128
71
1
72
2
73
3
0
VERTEX
8
OBJECT__0
10
0
20
0
30
0
70
128
71
4
72
5
73
6
0
VERTEX
8
OBJECT__0
10
0
20
0
30
0
70
128
71
3
72
7
73
1
0
VERTEX
8
OBJECT__0
10
0
20
0
30
0
70
128
71
1
72
8
73
9
0
VERTEX
8
OBJECT__0
10
0
20
0
30
0
70
128
71
4
72
10
73
5
0
VERTEX
8
OBJECT__0
10
0
20
0
30
0
70
128
71
9
72
2
73
1
0
VERTEX
8
OBJECT__0
10
0
20
0
30
0
70
128
71
4
72
11
73
10
0
VERTEX
8
OBJECT__0
10
0
20
0
30
0
70
128
71
4
72
1
73
12
0
VERTEX
8
OBJECT__0
10
0
20
0
30
0
70
128
71
1
72
4
73
8
0
VERTEX
8
OBJECT__0
10
0
20
0
30
0
70
128
71
12
72
11
73
4
0
VERTEX
8
OBJECT__0
10
0
20
0
30
0
70
128
71
6
72
13
73
4
0
VERTEX
8
OBJECT__0
10
0
20
0
30
0
70
128
71
7
72
14
73
1
0
SEQEND
8
OBJECT__0
0
POLYLINE
8
OBJECT__1
66
1
70
64
71
42
72
42
62
253
0
VERTEX
8
OBJECT__1
10
6.000000
20
-7.810000
30
-16.216999
70
192
0
VERTEX
8
OBJECT__1
10
2.000000
20
-7.614000
30
-15.811000
70
192
0
VERTEX
8
OBJECT__1
10
2.000000
20
-4.005000
30
-17.549000
70
192
0
VERTEX
8
OBJECT__1
10
6.000000
20
0.000000
30
-18.000000
70
192
0
VERTEX
8
OBJECT__1
10
6.000000
20
-14.073000
30
-11.223000
70
192
0
VERTEX
8
OBJECT__1
10
2.000000
20
-13.720000
30
-10.941000
70
192
0
VERTEX
8
OBJECT__1
10
2.000000
20
-11.223000
30
-14.073000
70
192
0
VERTEX
8
OBJECT__1
10
6.000000
20
-17.549000
30
-4.005000
70
192
0
VERTEX
8
OBJECT__1
10
2.000000
20
-17.108999
30
-3.905000
70
192
0
VERTEX
8
OBJECT__1
10
2.000000
20
-16.216999
30
-7.810000
70
192
0
VERTEX
8
OBJECT__1
10
6.000000
20
-17.549000
30
4.005000
70
192
0
VERTEX
8
OBJECT__1
10
2.000000
20
-17.108999
30
3.905000
70
192
0
VERTEX
8
OBJECT__1
10
2.000000
20
-18.000000
30
0.000000
70
192
0
VERTEX
8
OBJECT__1
10
6.000000
20
-14.073000
30
11.223000
70
192
0
VERTEX
8
OBJECT__1
10
2.000000
20
-13.720000
30
10.941000
70
192
0
VERTEX
8
OBJECT__1
10
2.000000
20
-16.216999
30
7.810000
70
192
0
VERTEX
8
OBJECT__1
10
6.000000
20
-7.810000
30
16.216999
70
192
0
VERTEX
8
OBJECT__1
10
2.000000
20
-11.223000
30
14.073000
70
192
0
VERTEX
8
OBJECT__1
10
2.000000
20
-7.614000
30
15.811000
70
192
0
VERTEX
8
OBJECT__1
10
6.000000
20
0.000000
30
18.000000
70
192
0
VERTEX
8
OBJECT__1
10
2.000000
20
-4.005000
30
17.549000
70
192
0
VERTEX
8
OBJECT__1
10
2.000000
20
0.000000
30
17.549000
70
192
0
VERTEX
8
OBJECT__1
10
6.000000
20
7.810000
30
16.216999
70
192
0
VERTEX
8
OBJECT__1
10
2.000000
20
4.005000
30
17.549000
70
192
0
VERTEX
8
OBJECT__1
10
2.000000
20
7.614000
30
15.811000
70
192
0
VERTEX
8
OBJECT__1
10
6.000000
20
14.073000
30
11.223000
70
192
0
VERTEX
8
OBJECT__1
10
2.000000
20
11.223000
30
14.073000
70
192
0
VERTEX
8
OBJECT__1
10
2.000000
20
13.720000
30
10.941000
70
192
0
VERTEX
8
OBJECT__1
10
6.000000
20
17.549000
30
4.005000
70
192
0
VERTEX
8
OBJECT__1
10
2.000000
20
16.216999
30
7.810000
70
192
0
VERTEX
8
OBJECT__1
10
2.000000
20
17.108999
30
3.905000
70
192
0
VERTEX
8
OBJECT__1
10
6.000000
20
17.549000
30
-4.005000
70
192
0
VERTEX
8
OBJECT__1
10
2.000000
20
18.000000
30
0.000000
70
192
0
VERTEX
8
OBJECT__1
10
2.000000
20
17.108999
30
-3.905000
70
192
0
VERTEX
8
OBJECT__1
10
6.000000
20
14.073000
30
-11.223000
70
192
0
VERTEX
8
OBJECT__1
10
2.000000
20
16.216999
30
-7.810000
70
192
0
VERTEX
8
OBJECT__1
10
2.000000
20
13.720000
30
-10.941000
70
192
0
VERTEX
8
OBJECT__1
10
6.000000
20
7.810000
30
-16.216999
70
192
0
VERTEX
8
OBJECT__1
10
2.000000
20
7.614000
30
-15.811000
70
192
0
VERTEX
8
OBJECT__1
10
2.000000
20
11.223000
30
-14.073000
70
192
0
VERTEX
8
OBJECT__1
10
2.000000
20
0.000000
30
-18.000000
70
192
0
VERTEX
8
OBJECT__1
10
2.000000
20
4.005000
30
-17.549000
70
192
0
VERTEX
8
OBJECT__1
10
0
20
0
30
0
70
128
71
1
72
2
73
3
0
VERTEX
8
OBJECT__1
10
0
20
0
30
0
70
128
71
3
72
4
73
1
0
VERTEX
8
OBJECT__1
10
0
20
0
30
0
70
128
71
5
72
6
73
7
0
VERTEX
8
OBJECT__1
10
0
20
0
30
0
70
128
71
7
72
1
73
5
0
VERTEX
8
OBJECT__1
10
0
20
0
30
0
70
128
71
8
72
9
73
10
0
VERTEX
8
OBJECT__1
10
0
20
0
30
0
70
128
71
10
72
5
73
8
0
VERTEX
8
OBJECT__1
10
0
20
0
30
0
70
128
71
11
72
12
73
13
0
VERTEX
8
OBJECT__1
10
0
20
0
30
0
70
128
71
13
72
8
73
11
0
VERTEX
8
OBJECT__1
10
0
20
0
30
0
70
128
71
14
72
15
73
16
0
VERTEX
8
OBJECT__1
10
0
20
0
30
0
70
128
71
16
72
11
73
14
0
VERTEX
8
OBJECT__1
10
0
20
0
30
0
70
128
71
14
72
17
73
18
0
VERTEX
8
OBJECT__1
10
0
20
0
30
0
70
128
71
17
72
19
73
18
0
VERTEX
8
OBJECT__1
10
0
20
0
30
0
70
128
71
17
72
20
73
21
0
VERTEX
8
OBJECT__1
10
0
20
0
30
0
70
128
71
20
72
22
73
21
0
VERTEX
8
OBJECT__1
10
0
20
0
30
0
70
128
71
20
72
23
73
24
0
VERTEX
8
OBJECT__1
10
0
20
0
30
0
70
128
71
23
72
25
73
24
0
VERTEX
8
OBJECT__1
10
0
20
0
30
0
70
128
71
23
72
26
73
27
0
VERTEX
8
OBJECT__1
10
0
20
0
30
0
70
128
71
26
72
28
73
27
0
VERTEX
8
OBJECT__1
10
0
20
0
30
0
70
128
71
26
72
29
73
30
0
VERTEX
8
OBJECT__1
10
0
20
0
30
0
70
128
71
29
72
31
73
30
0
VERTEX
8
OBJECT__1
10
0
20
0
30
0
70
128
71
29
72
32
73
33
0
VERTEX
8
OBJECT__1
10
0
20
0
30
0
70
128
71
32
72
34
73
33
0
VERTEX
8
OBJECT__1
10
0
20
0
30
0
70
128
71
32
72
35
73
36
0
VERTEX
8
OBJECT__1
10
0
20
0
30
0
70
128
71
35
72
37
73
36
0
VERTEX
8
OBJECT__1
10
0
20
0
30
0
70
128
71
38
72
39
73
40
0
VERTEX
8
OBJECT__1
10
0
20
0
30
0
70
128
71
40
72
35
73
38
0
VERTEX
8
OBJECT__1
10
0
20
0
30
0
70
128
71
4
72
41
73
42
0
VERTEX
8
OBJECT__1
10
0
20
0
30
0
70
128
71
42
72
38
73
4
0
VERTEX
8
OBJECT__1
10
0
20
0
30
0
70
128
71
42
72
39
73
38
0
VERTEX
8
OBJECT__1
10
0
20
0
30
0
70
128
71
40
72
37
73
35
0
VERTEX
8
OBJECT__1
10
0
20
0
30
0
70
128
71
36
72
34
73
32
0
VERTEX
8
OBJECT__1
10
0
20
0
30
0
70
128
71
33
72
31
73
29
0
VERTEX
8
OBJECT__1
10
0
20
0
30
0
70
128
71
30
72
28
73
26
0
VERTEX
8
OBJECT__1
10
0
20
0
30
0
70
128
71
27
72
25
73
23
0
VERTEX
8
OBJECT__1
10
0
20
0
30
0
70
128
71
24
72
22
73
20
0
VERTEX
8
OBJECT__1
10
0
20
0
30
0
70
128
71
21
72
19
73
17
0
VERTEX
8
OBJECT__1
10
0
20
0
30
0
70
128
71
18
72
15
73
14
0
VERTEX
8
OBJECT__1
10
0
20
0
30
0
70
128
71
16
72
12
73
11
0
VERTEX
8
OBJECT__1
10
0
20
0
30
0
70
128
71
13
72
9
73
8
0
VERTEX
8
OBJECT__1
10
0
20
0
30
0
70
128
71
10
72
6
73
5
0
VERTEX
8
OBJECT__1
10
0
20
0
30
0
70
128
71
7
72
2
73
1
0
VERTEX
8
OBJECT__1
10
0
20
0
30
0
70
128
71
3
72
41
73
4
0
SEQEND
8
OBJECT__1
0
POLYLINE
8
OBJECT__3
66
1
70
64
71
42
72
42
62
253
0
VERTEX
8
OBJECT__3
10
-33.000000
20
-16.216999
30
7.810000
70
192
0
VERTEX
8
OBJECT__3
10
-33.000000
20
-18.000000
30
0.000000
70
192
0
VERTEX
8
OBJECT__3
10
2.000000
20
-17.108999
30
3.905000
70
192
0
VERTEX
8
OBJECT__3
10
2.000000
20
-18.000000
30
0.000000
70
192
0
VERTEX
8
OBJECT__3
10
-33.000000
20
-11.223000
30
14.073000
70
192
0
VERTEX
8
OBJECT__3
10
2.000000
20
-13.720000
30
10.941000
70
192
0
VERTEX
8
OBJECT__3
10
2.000000
20
-16.216999
30
7.810000
70
192
0
VERTEX
8
OBJECT__3
10
-33.000000
20
-4.005000
30
17.549000
70
192
0
VERTEX
8
OBJECT__3
10
2.000000
20
-7.614000
30
15.811000
70
192
0
VERTEX
8
OBJECT__3
10
2.000000
20
-11.223000
30
14.073000
70
192
0
VERTEX
8
OBJECT__3
10
-33.000000
20
4.005000
30
17.549000
70
192
0
VERTEX
8
OBJECT__3
10
2.000000
20
0.000000
30
17.549000
70
192
0
VERTEX
8
OBJECT__3
10
2.000000
20
-4.005000
30
17.549000
70
192
0
VERTEX
8
OBJECT__3
10
-33.000000
20
11.223000
30
14.073000
70
192
0
VERTEX
8
OBJECT__3
10
2.000000
20
7.614000
30
15.811000
70
192
0
VERTEX
8
OBJECT__3
10
2.000000
20
4.005000
30
17.549000
70
192
0
VERTEX
8
OBJECT__3
10
-33.000000
20
16.216999
30
7.810000
70
192
0
VERTEX
8
OBJECT__3
10
2.000000
20
13.720000
30
10.941000
70
192
0
VERTEX
8
OBJECT__3
10
2.000000
20
11.223000
30
14.073000
70
192
0
VERTEX
8
OBJECT__3
10
-33.000000
20
18.000000
30
0.000000
70
192
0
VERTEX
8
OBJECT__3
10
2.000000
20
17.108999
30
3.905000
70
192
0
VERTEX
8
OBJECT__3
10
2.000000
20
16.216999
30
7.810000
70
192
0
VERTEX
8
OBJECT__3
10
2.000000
20
18.000000
30
0.000000
70
192
0
VERTEX
8
OBJECT__3
10
2.000000
20
17.108999
30
-3.905000
70
192
0
VERTEX
8
OBJECT__3
10
-33.000000
20
16.216999
30
-7.810000
70
192
0
VERTEX
8
OBJECT__3
10
-33.000000
20
11.223000
30
-14.073000
70
192
0
VERTEX
8
OBJECT__3
10
2.000000
20
13.720000
30
-10.941000
70
192
0
VERTEX
8
OBJECT__3
10
2.000000
20
16.216999
30
-7.810000
70
192
0
VERTEX
8
OBJECT__3
10
2.000000
20
11.223000
30
-14.073000
70
192
0
VERTEX
8
OBJECT__3
10
2.000000
20
7.614000
30
-15.811000
70
192
0
VERTEX
8
OBJECT__3
10
-33.000000
20
4.005000
30
-17.549000
70
192
0
VERTEX
8
OBJECT__3
10
2.000000
20
4.005000
30
-17.549000
70
192
0
VERTEX
8
OBJECT__3
10
2.000000
20
0.000000
30
-18.000000
70
192
0
VERTEX
8
OBJECT__3
10
-33.000000
20
-4.005000
30
-17.549000
70
192
0
VERTEX
8
OBJECT__3
10
2.000000
20
-4.005000
30
-17.549000
70
192
0
VERTEX
8
OBJECT__3
10
2.000000
20
-7.614000
30
-15.811000
70
192
0
VERTEX
8
OBJECT__3
10
-33.000000
20
-11.223000
30
-14.073000
70
192
0
VERTEX
8
OBJECT__3
10
2.000000
20
-11.223000
30
-14.073000
70
192
0
VERTEX
8
OBJECT__3
10
2.000000
20
-13.720000
30
-10.941000
70
192
0
VERTEX
8
OBJECT__3
10
-33.000000
20
-16.216999
30
-7.810000
70
192
0
VERTEX
8
OBJECT__3
10
2.000000
20
-17.108999
30
-3.905000
70
192
0
VERTEX
8
OBJECT__3
10
2.000000
20
-16.216999
30
-7.810000
70
192
0
VERTEX
8
OBJECT__3
10
0
20
0
30
0
70
128
71
1
72
2
73
3
0
VERTEX
8
OBJECT__3
10
0
20
0
30
0
70
128
71
2
72
4
73
3
0
VERTEX
8
OBJECT__3
10
0
20
0
30
0
70
128
71
5
72
1
73
6
0
VERTEX
8
OBJECT__3
10
0
20
0
30
0
70
128
71
1
72
7
73
6
0
VERTEX
8
OBJECT__3
10
0
20
0
30
0
70
128
71
8
72
5
73
9
0
VERTEX
8
OBJECT__3
10
0
20
0
30
0
70
128
71
5
72
10
73
9
0
VERTEX
8
OBJECT__3
10
0
20
0
30
0
70
128
71
11
72
8
73
12
0
VERTEX
8
OBJECT__3
10
0
20
0
30
0
70
128
71
8
72
13
73
12
0
VERTEX
8
OBJECT__3
10
0
20
0
30
0
70
128
71
14
72
11
73
15
0
VERTEX
8
OBJECT__3
10
0
20
0
30
0
70
128
71
11
72
16
73
15
0
VERTEX
8
OBJECT__3
10
0
20
0
30
0
70
128
71
17
72
14
73
18
0
VERTEX
8
OBJECT__3
10
0
20
0
30
0
70
128
71
14
72
19
73
18
0
VERTEX
8
OBJECT__3
10
0
20
0
30
0
70
128
71
20
72
17
73
21
0
VERTEX
8
OBJECT__3
10
0
20
0
30
0
70
128
71
17
72
22
73
21
0
VERTEX
8
OBJECT__3
10
0
20
0
30
0
70
128
71
20
72
23
73
24
0
VERTEX
8
OBJECT__3
10
0
20
0
30
0
70
128
71
24
72
25
73
20
0
VERTEX
8
OBJECT__3
10
0
20
0
30
0
70
128
71
26
72
25
73
27
0
VERTEX
8
OBJECT__3
10
0
20
0
30
0
70
128
71
25
72
28
73
27
0
VERTEX
8
OBJECT__3
10
0
20
0
30
0
70
128
71
26
72
29
73
30
0
VERTEX
8
OBJECT__3
10
0
20
0
30
0
70
128
71
30
72
31
73
26
0
VERTEX
8
OBJECT__3
10
0
20
0
30
0
70
128
71
31
72
32
73
33
0
VERTEX
8
OBJECT__3
10
0
20
0
30
0
70
128
71
33
72
34
73
31
0
VERTEX
8
OBJECT__3
10
0
20
0
30
0
70
128
71
34
72
35
73
36
0
VERTEX
8
OBJECT__3
10
0
20
0
30
0
70
128
71
36
72
37
73
34
0
VERTEX
8
OBJECT__3
10
0
20
0
30
0
70
128
71
37
72
38
73
39
0
VERTEX
8
OBJECT__3
10
0
20
0
30
0
70
128
71
39
72
40
73
37
0
VERTEX
8
OBJECT__3
10
0
20
0
30
0
70
128
71
2
72
40
73
41
0
VERTEX
8
OBJECT__3
10
0
20
0
30
0
70
128
71
40
72
42
73
41
0
VERTEX
8
OBJECT__3
10
0
20
0
30
0
70
128
71
41
72
4
73
2
0
VERTEX
8
OBJECT__3
10
0
20
0
30
0
70
128
71
39
72
42
73
40
0
VERTEX
8
OBJECT__3
10
0
20
0
30
0
70
128
71
36
72
38
73
37
0
VERTEX
8
OBJECT__3
10
0
20
0
30
0
70
128
71
33
72
35
73
34
0
VERTEX
8
OBJECT__3
10
0
20
0
30
0
70
128
71
30
72
32
73
31
0
VERTEX
8
OBJECT__3
10
0
20
0
30
0
70
128
71
27
72
29
73
26
0
VERTEX
8
OBJECT__3
10
0
20
0
30
0
70
128
71
24
72
28
73
25
0
VERTEX
8
OBJECT__3
10
0
20
0
30
0
70
128
71
21
72
23
73
20
0
VERTEX
8
OBJECT__3
10
0
20
0
30
0
70
128
71
18
72
22
73
17
0
VERTEX
8
OBJECT__3
10
0
20
0
30
0
70
128
71
15
72
19
73
14
0
VERTEX
8
OBJECT__3
10
0
20
0
30
0
70
128
71
12
72
16
73
11
0
VERTEX
8
OBJECT__3
10
0
20
0
30
0
70
128
71
9
72
13
73
8
0
VERTEX
8
OBJECT__3
10
0
20
0
30
0
70
128
71
6
72
10
73
5
0
VERTEX
8
OBJECT__3
10
0
20
0
30
0
70
128
71
3
72
7
73
1
0
SEQEND
8
OBJECT__3
0
POLYLINE
8
OBJECT__4
66
1
70
64
71
18
72
18
62
253
0
VERTEX
8
OBJECT__4
10
-33.000000
20
23.000000
30
23.000000
70
192
0
VERTEX
8
OBJECT__4
10
-33.000000
20
-23.000000
30
23.000000
70
192
0
VERTEX
8
OBJECT__4
10
-33.000000
20
-4.005000
30
17.549000
70
192
0
VERTEX
8
OBJECT__4
10
-33.000000
20
-23.000000
30
-23.000000
70
192
0
VERTEX
8
OBJECT__4
10
-33.000000
20
-4.005000
30
-17.549000
70
192
0
VERTEX
8
OBJECT__4
10
-33.000000
20
-11.223000
30
-14.073000
70
192
0
VERTEX
8
OBJECT__4
10
-33.000000
20
23.000000
30
-23.000000
70
192
0
VERTEX
8
OBJECT__4
10
-33.000000
20
4.005000
30
-17.549000
70
192
0
VERTEX
8
OBJECT__4
10
-33.000000
20
16.216999
30
7.810000
70
192
0
VERTEX
8
OBJECT__4
10
-33.000000
20
18.000000
30
0.000000
70
192
0
VERTEX
8
OBJECT__4
10
-33.000000
20
4.005000
30
17.549000
70
192
0
VERTEX
8
OBJECT__4
10
-33.000000
20
-16.216999
30
7.810000
70
192
0
VERTEX
8
OBJECT__4
10
-33.000000
20
-11.223000
30
14.073000
70
192
0
VERTEX
8
OBJECT__4
10
-33.000000
20
-18.000000
30
0.000000
70
192
0
VERTEX
8
OBJECT__4
10
-33.000000
20
11.223000
30
14.073000
70
192
0
VERTEX
8
OBJECT__4
10
-33.000000
20
-16.216999
30
-7.810000
70
192
0
VERTEX
8
OBJECT__4
10
-33.000000
20
11.223000
30
-14.073000
70
192
0
VERTEX
8
OBJECT__4
10
-33.000000
20
16.216999
30
-7.810000
70
192
0
VERTEX
8
OBJECT__4
10
0
20
0
30
0
70
128
71
1
72
2
73
3
0
VERTEX
8
OBJECT__4
10
0
20
0
30
0
70
128
71
4
72
5
73
6
0
VERTEX
8
OBJECT__4
10
0
20
0
30
0
70
128
71
7
72
8
73
5
0
VERTEX
8
OBJECT__4
10
0
20
0
30
0
70
128
71
1
72
9
73
10
0
VERTEX
8
OBJECT__4
10
0
20
0
30
0
70
128
71
3
72
11
73
1
0
VERTEX
8
OBJECT__4
10
0
20
0
30
0
70
128
71
2
72
12
73
13
0
VERTEX
8
OBJECT__4
10
0
20
0
30
0
70
128
71
2
72
4
73
14
0
VERTEX
8
OBJECT__4
10
0
20
0
30
0
70
128
71
5
72
4
73
7
0
VERTEX
8
OBJECT__4
10
0
20
0
30
0
70
128
71
1
72
15
73
9
0
VERTEX
8
OBJECT__4
10
0
20
0
30
0
70
128
71
13
72
3
73
2
0
VERTEX
8
OBJECT__4
10
0
20
0
30
0
70
128
71
4
72
16
73
14
0
VERTEX
8
OBJECT__4
10
0
20
0
30
0
70
128
71
7
72
17
73
8
0
VERTEX
8
OBJECT__4
10
0
20
0
30
0
70
128
71
11
72
15
73
1
0
VERTEX
8
OBJECT__4
10
0
20
0
30
0
70
128
71
6
72
16
73
4
0
VERTEX
8
OBJECT__4
10
0
20
0
30
0
70
128
71
14
72
12
73
2
0
VERTEX
8
OBJECT__4
10
0
20
0
30
0
70
128
71
7
72
10
73
18
0
VERTEX
8
OBJECT__4
10
0
20
0
30
0
70
128
71
18
72
17
73
7
0
VERTEX
8
OBJECT__4
10
0
20
0
30
0
70
128
71
10
72
7
73
1
0
SEQEND
8
OBJECT__4
0
POLYLINE
8
OBJECT__5
66
1
70
64
71
4
72
2
62
253
0
VERTEX
8
OBJECT__5
10
-40.000000
20
23.000000
30
23.000000
70
192
0
VERTEX
8
OBJECT__5
10
-40.000000
20
-23.000000
30
23.000000
70
192
0
VERTEX
8
OBJECT__5
10
-33.000000
20
-23.000000
30
23.000000
70
192
0
VERTEX
8
OBJECT__5
10
-33.000000
20
23.000000
30
23.000000
70
192
0
VERTEX
8
OBJECT__5
10
0
20
0
30
0
70
128
71
1
72
2
73
3
0
VERTEX
8
OBJECT__5
10
0
20
0
30
0
70
128
71
3
72
4
73
1
0
SEQEND
8
OBJECT__5
0
POLYLINE
8
OBJECT__6
66
1
70
64
71
4
72
2
62
253
0
VERTEX
8
OBJECT__6
10
-40.000000
20
23.000000
30
-23.000000
70
192
0
VERTEX
8
OBJECT__6
10
-40.000000
20
-23.000000
30
-23.000000
70
192
0
VERTEX
8
OBJECT__6
10
-40.000000
20
-23.000000
30
23.000000
70
192
0
VERTEX
8
OBJECT__6
10
-40.000000
20
23.000000
30
23.000000
70
192
0
VERTEX
8
OBJECT__6
10
0
20
0
30
0
70
128
71
1
72
2
73
3
0
VERTEX
8
OBJECT__6
10
0
20
0
30
0
70
128
71
3
72
4
73
1
0
SEQEND
8
OBJECT__6
0
POLYLINE
8
OBJECT__7
66
1
70
64
71
4
72
2
62
253
0
VERTEX
8
OBJECT__7
10
-40.000000
20
23.000000
30
-23.000000
70
192
0
VERTEX
8
OBJECT__7
10
-40.000000
20
23.000000
30
23.000000
70
192
0
VERTEX
8
OBJECT__7
10
-33.000000
20
23.000000
30
23.000000
70
192
0
VERTEX
8
OBJECT__7
10
-33.000000
20
23.000000
30
-23.000000
70
192
0
VERTEX
8
OBJECT__7
10
0
20
0
30
0
70
128
71
1
72
2
73
3
0
VERTEX
8
OBJECT__7
10
0
20
0
30
0
70
128
71
3
72
4
73
1
0
SEQEND
8
OBJECT__7
0
POLYLINE
8
OBJECT__8
66
1
70
64
71
4
72
2
62
253
0
VERTEX
8
OBJECT__8
10
-40.000000
20
-23.000000
30
-23.000000
70
192
0
VERTEX
8
OBJECT__8
10
-40.000000
20
23.000000
30
-23.000000
70
192
0
VERTEX
8
OBJECT__8
10
-33.000000
20
23.000000
30
-23.000000
70
192
0
VERTEX
8
OBJECT__8
10
-33.000000
20
-23.000000
30
-23.000000
70
192
0
VERTEX
8
OBJECT__8
10
0
20
0
30
0
70
128
71
1
72
2
73
3
0
VERTEX
8
OBJECT__8
10
0
20
0
30
0
70
128
71
3
72
4
73
1
0
SEQEND
8
OBJECT__8
0
POLYLINE
8
OBJECT__9
66
1
70
64
71
4
72
2
62
253
0
VERTEX
8
OBJECT__9
10
-40.000000
20
-23.000000
30
23.000000
70
192
0
VERTEX
8
OBJECT__9
10
-40.000000
20
-23.000000
30
-23.000000
70
192
0
VERTEX
8
OBJECT__9
10
-33.000000
20
-23.000000
30
-23.000000
70
192
0
VERTEX
8
OBJECT__9
10
-33.000000
20
-23.000000
30
23.000000
70
192
0
VERTEX
8
OBJECT__9
10
0
20
0
30
0
70
128
71
1
72
2
73
3
0
VERTEX
8
OBJECT__9
10
0
20
0
30
0
70
128
71
3
72
4
73
1
0
SEQEND
8
OBJECT__9
0
POLYLINE
8
OBJECT__10
66
1
70
64
71
36
72
36
62
253
0
VERTEX
8
OBJECT__10
10
60.917000
20
28.896000
30
-40.500000
70
192
0
VERTEX
8
OBJECT__10
10
60.917000
20
28.896000
30
-41.500000
70
192
0
VERTEX
8
OBJECT__10
10
50.400002
20
30.750000
30
-41.500000
70
192
0
VERTEX
8
OBJECT__10
10
70.166000
20
23.556000
30
-40.500000
70
192
0
VERTEX
8
OBJECT__10
10
70.166000
20
23.556000
30
-41.500000
70
192
0
VERTEX
8
OBJECT__10
10
77.029999
20
15.375000
30
-40.500000
70
192
0
VERTEX
8
OBJECT__10
10
77.029999
20
15.375000
30
-41.500000
70
192
0
VERTEX
8
OBJECT__10
10
80.682999
20
5.340000
30
-40.500000
70
192
0
VERTEX
8
OBJECT__10
10
80.682999
20
5.340000
30
-41.500000
70
192
0
VERTEX
8
OBJECT__10
10
80.682999
20
-5.340000
30
-40.500000
70
192
0
VERTEX
8
OBJECT__10
10
80.682999
20
-5.340000
30
-41.500000
70
192
0
VERTEX
8
OBJECT__10
10
77.029999
20
-15.375000
30
-40.500000
70
192
0
VERTEX
8
OBJECT__10
10
77.029999
20
-15.375000
30
-41.500000
70
192
0
VERTEX
8
OBJECT__10
10
70.166000
20
-23.556000
30
-40.500000
70
192
0
VERTEX
8
OBJECT__10
10
70.166000
20
-23.556000
30
-41.500000
70
192
0
VERTEX
8
OBJECT__10
10
60.917000
20
-28.896000
30
-40.500000
70
192
0
VERTEX
8
OBJECT__10
10
60.917000
20
-28.896000
30
-41.500000
70
192
0
VERTEX
8
OBJECT__10
10
50.400002
20
-30.750000
30
-40.500000
70
192
0
VERTEX
8
OBJECT__10
10
50.400002
20
-30.750000
30
-41.500000
70
192
0
VERTEX
8
OBJECT__10
10
39.882999
20
-28.896000
30
-40.500000
70
192
0
VERTEX
8
OBJECT__10
10
39.882999
20
-28.896000
30
-41.500000
70
192
0
VERTEX
8
OBJECT__10
10
30.634001
20
-23.556000
30
-41.500000
70
192
0
VERTEX
8
OBJECT__10
10
23.770000
20
-15.375000
30
-40.500000
70
192
0
VERTEX
8
OBJECT__10
10
23.770000
20
-15.375000
30
-41.500000
70
192
0
VERTEX
8
OBJECT__10
10
20.117001
20
-5.340000
30
-40.500000
70
192
0
VERTEX
8
OBJECT__10
10
20.117001
20
-5.340000
30
-41.500000
70
192
0
VERTEX
8
OBJECT__10
10
20.117001
20
5.340000
30
-40.500000
70
192
0
VERTEX
8
OBJECT__10
10
20.117001
20
5.340000
30
-41.500000
70
192
0
VERTEX
8
OBJECT__10
10
23.770000
20
15.375000
30
-40.500000
70
192
0
VERTEX
8
OBJECT__10
10
23.770000
20
15.375000
30
-41.500000
70
192
0
VERTEX
8
OBJECT__10
10
30.634001
20
23.556000
30
-40.500000
70
192
0
VERTEX
8
OBJECT__10
10
30.634001
20
23.556000
30
-41.500000
70
192
0
VERTEX
8
OBJECT__10
10
39.882999
20
28.896000
30
-41.500000
70
192
0
VERTEX
8
OBJECT__10
10
50.400002
20
30.750000
30
-40.500000
70
192
0
VERTEX
8
OBJECT__10
10
39.882999
20
28.896000
30
-40.500000
70
192
0
VERTEX
8
OBJECT__10
10
30.634001
20
-23.556000
30
-40.500000
70
192
0
VERTEX
8
OBJECT__10
10
0
20
0
30
0
70
128
71
1
72
2
73
3
0
VERTEX
8
OBJECT__10
10
0
20
0
30
0
70
128
71
4
72
5
73
2
0
VERTEX
8
OBJECT__10
10
0
20
0
30
0
70
128
71
6
72
7
73
5
0
VERTEX
8
OBJECT__10
10
0
20
0
30
0
70
128
71
8
72
9
73
7
0
VERTEX
8
OBJECT__10
10
0
20
0
30
0
70
128
71
10
72
11
73
9
0
VERTEX
8
OBJECT__10
10
0
20
0
30
0
70
128
71
12
72
13
73
11
0
VERTEX
8
OBJECT__10
10
0
20
0
30
0
70
128
71
14
72
15
73
13
0
VERTEX
8
OBJECT__10
10
0
20
0
30
0
70
128
71
16
72
17
73
15
0
VERTEX
8
OBJECT__10
10
0
20
0
30
0
70
128
71
18
72
19
73
17
0
VERTEX
8
OBJECT__10
10
0
20
0
30
0
70
128
71
20
72
21
73
19
0
VERTEX
8
OBJECT__10
10
0
20
0
30
0
70
128
71
22
72
21
73
20
0
VERTEX
8
OBJECT__10
10
0
20
0
30
0
70
128
71
23
72
24
73
22
0
VERTEX
8
OBJECT__10
10
0
20
0
30
0
70
128
71
25
72
26
73
24
0
VERTEX
8
OBJECT__10
10
0
20
0
30
0
70
128
71
27
72
28
73
26
0
VERTEX
8
OBJECT__10
10
0
20
0
30
0
70
128
71
29
72
30
73
28
0
VERTEX
8
OBJECT__10
10
0
20
0
30
0
70
128
71
31
72
32
73
30
0
VERTEX
8
OBJECT__10
10
0
20
0
30
0
70
128
71
33
72
32
73
31
0
VERTEX
8
OBJECT__10
10
0
20
0
30
0
70
128
71
34
72
3
73
33
0
VERTEX
8
OBJECT__10
10
0
20
0
30
0
70
128
71
33
72
35
73
34
0
VERTEX
8
OBJECT__10
10
0
20
0
30
0
70
128
71
31
72
35
73
33
0
VERTEX
8
OBJECT__10
10
0
20
0
30
0
70
128
71
30
72
29
73
31
0
VERTEX
8
OBJECT__10
10
0
20
0
30
0
70
128
71
28
72
27
73
29
0
VERTEX
8
OBJECT__10
10
0
20
0
30
0
70
128
71
26
72
25
73
27
0
VERTEX
8
OBJECT__10
10
0
20
0
30
0
70
128
71
24
72
23
73
25
0
VERTEX
8
OBJECT__10
10
0
20
0
30
0
70
128
71
22
72
36
73
23
0
VERTEX
8
OBJECT__10
10
0
20
0
30
0
70
128
71
20
72
36
73
22
0
VERTEX
8
OBJECT__10
10
0
20
0
30
0
70
128
71
19
72
18
73
20
0
VERTEX
8
OBJECT__10
10
0
20
0
30
0
70
128
71
17
72
16
73
18
0
VERTEX
8
OBJECT__10
10
0
20
0
30
0
70
128
71
15
72
14
73
16
0
VERTEX
8
OBJECT__10
10
0
20
0
30
0
70
128
71
13
72
12
73
14
0
VERTEX
8
OBJECT__10
10
0
20
0
30
0
70
128
71
11
72
10
73
12
0
VERTEX
8
OBJECT__10
10
0
20
0
30
0
70
128
71
9
72
8
73
10
0
VERTEX
8
OBJECT__10
10
0
20
0
30
0
70
128
71
7
72
6
73
8
0
VERTEX
8
OBJECT__10
10
0
20
0
30
0
70
128
71
5
72
4
73
6
0
VERTEX
8
OBJECT__10
10
0
20
0
30
0
70
128
71
2
72
1
73
4
0
VERTEX
8
OBJECT__10
10
0
20
0
30
0
70
128
71
3
72
34
73
1
0
SEQEND
8
OBJECT__10
0
POLYLINE
8
OBJECT__11
66
1
70
64
71
35
72
35
62
253
0
VERTEX
8
OBJECT__11
10
77.029999
20
15.375000
30
-40.500000
70
192
0
VERTEX
8
OBJECT__11
10
70.166000
20
23.556000
30
-40.500000
70
192
0
VERTEX
8
OBJECT__11
10
68.488998
20
19.841999
30
-40.500000
70
192
0
VERTEX
8
OBJECT__11
10
60.917000
20
28.896000
30
-40.500000
70
192
0
VERTEX
8
OBJECT__11
10
60.098999
20
25.037001
30
-40.500000
70
192
0
VERTEX
8
OBJECT__11
10
20.117001
20
5.340000
30
-40.500000
70
192
0
VERTEX
8
OBJECT__11
10
23.665001
20
2.477000
30
-40.500000
70
192
0
VERTEX
8
OBJECT__11
10
26.365000
20
11.968000
30
-40.500000
70
192
0
VERTEX
8
OBJECT__11
10
20.117001
20
-5.340000
30
-40.500000
70
192
0
VERTEX
8
OBJECT__11
10
24.575001
20
-7.348000
30
-40.500000
70
192
0
VERTEX
8
OBJECT__11
10
50.400002
20
30.750000
30
-40.500000
70
192
0
VERTEX
8
OBJECT__11
10
50.400002
20
26.850000
30
-40.500000
70
192
0
VERTEX
8
OBJECT__11
10
30.634001
20
23.556000
30
-40.500000
70
192
0
VERTEX
8
OBJECT__11
10
32.311001
20
19.841999
30
-40.500000
70
192
0
VERTEX
8
OBJECT__11
10
40.701000
20
25.037001
30
-40.500000
70
192
0
VERTEX
8
OBJECT__11
10
23.770000
20
15.375000
30
-40.500000
70
192
0
VERTEX
8
OBJECT__11
10
23.770000
20
-15.375000
30
-40.500000
70
192
0
VERTEX
8
OBJECT__11
10
28.973000
20
-16.181000
30
-40.500000
70
192
0
VERTEX
8
OBJECT__11
10
70.166000
20
-23.556000
30
-40.500000
70
192
0
VERTEX
8
OBJECT__11
10
77.029999
20
-15.375000
30
-40.500000
70
192
0
VERTEX
8
OBJECT__11
10
71.827003
20
-16.181000
30
-40.500000
70
192
0
VERTEX
8
OBJECT__11
10
80.682999
20
-5.340000
30
-40.500000
70
192
0
VERTEX
8
OBJECT__11
10
76.224998
20
-7.348000
30
-40.500000
70
192
0
VERTEX
8
OBJECT__11
10
80.682999
20
5.340000
30
-40.500000
70
192
0
VERTEX
8
OBJECT__11
10
77.135002
20
2.477000
30
-40.500000
70
192
0
VERTEX
8
OBJECT__11
10
74.434998
20
11.968000
30
-40.500000
70
192
0
VERTEX
8
OBJECT__11
10
39.882999
20
28.896000
30
-40.500000
70
192
0
VERTEX
8
OBJECT__11
10
30.634001
20
-23.556000
30
-40.500000
70
192
0
VERTEX
8
OBJECT__11
10
36.264999
20
-22.827999
30
-40.500000
70
192
0
VERTEX
8
OBJECT__11
10
39.882999
20
-28.896000
30
-40.500000
70
192
0
VERTEX
8
OBJECT__11
10
45.466000
20
-26.393000
30
-40.500000
70
192
0
VERTEX
8
OBJECT__11
10
50.400002
20
-30.750000
30
-40.500000
70
192
0
VERTEX
8
OBJECT__11
10
55.334000
20
-26.393000
30
-40.500000
70
192
0
VERTEX
8
OBJECT__11
10
60.917000
20
-28.896000
30
-40.500000
70
192
0
VERTEX
8
OBJECT__11
10
64.535004
20
-22.827999
30
-40.500000
70
192
0
VERTEX
8
OBJECT__11
10
0
20
0
30
0
70
128
71
1
72
2
73
3
0
VERTEX
8
OBJECT__11
10
0
20
0
30
0
70
128
71
2
72
4
73
5
0
VERTEX
8
OBJECT__11
10
0
20
0
30
0
70
128
71
6
72
7
73
8
0
VERTEX
8
OBJECT__11
10
0
20
0
30
0
70
128
71
9
72
10
73
7
0
VERTEX
8
OBJECT__11
10
0
20
0
30
0
70
128
71
5
72
3
73
2
0
VERTEX
8
OBJECT__11
10
0
20
0
30
0
70
128
71
4
72
11
73
12
0
VERTEX
8
OBJECT__11
10
0
20
0
30
0
70
128
71
13
72
14
73
15
0
VERTEX
8
OBJECT__11
10
0
20
0
30
0
70
128
71
16
72
8
73
14
0
VERTEX
8
OBJECT__11
10
0
20
0
30
0
70
128
71
7
72
6
73
9
0
VERTEX
8
OBJECT__11
10
0
20
0
30
0
70
128
71
17
72
18
73
10
0
VERTEX
8
OBJECT__11
10
0
20
0
30
0
70
128
71
19
72
20
73
21
0
VERTEX
8
OBJECT__11
10
0
20
0
30
0
70
128
71
20
72
22
73
23
0
VERTEX
8
OBJECT__11
10
0
20
0
30
0
70
128
71
22
72
24
73
25
0
VERTEX
8
OBJECT__11
10
0
20
0
30
0
70
128
71
24
72
1
73
26
0
VERTEX
8
OBJECT__11
10
0
20
0
30
0
70
128
71
12
72
5
73
4
0
VERTEX
8
OBJECT__11
10
0
20
0
30
0
70
128
71
27
72
15
73
12
0
VERTEX
8
OBJECT__11
10
0
20
0
30
0
70
128
71
14
72
13
73
16
0
VERTEX
8
OBJECT__11
10
0
20
0
30
0
70
128
71
10
72
9
73
17
0
VERTEX
8
OBJECT__11
10
0
20
0
30
0
70
128
71
28
72
29
73
18
0
VERTEX
8
OBJECT__11
10
0
20
0
30
0
70
128
71
30
72
31
73
29
0
VERTEX
8
OBJECT__11
10
0
20
0
30
0
70
128
71
32
72
33
73
31
0
VERTEX
8
OBJECT__11
10
0
20
0
30
0
70
128
71
34
72
19
73
35
0
VERTEX
8
OBJECT__11
10
0
20
0
30
0
70
128
71
23
72
21
73
20
0
VERTEX
8
OBJECT__11
10
0
20
0
30
0
70
128
71
26
72
25
73
24
0
VERTEX
8
OBJECT__11
10
0
20
0
30
0
70
128
71
12
72
11
73
27
0
VERTEX
8
OBJECT__11
10
0
20
0
30
0
70
128
71
8
72
16
73
6
0
VERTEX
8
OBJECT__11
10
0
20
0
30
0
70
128
71
29
72
28
73
30
0
VERTEX
8
OBJECT__11
10
0
20
0
30
0
70
128
71
31
72
30
73
32
0
VERTEX
8
OBJECT__11
10
0
20
0
30
0
70
128
71
21
72
35
73
19
0
VERTEX
8
OBJECT__11
10
0
20
0
30
0
70
128
71
3
72
26
73
1
0
VERTEX
8
OBJECT__11
10
0
20
0
30
0
70
128
71
18
72
17
73
28
0
VERTEX
8
OBJECT__11
10
0
20
0
30
0
70
128
71
35
72
33
73
34
0
VERTEX
8
OBJECT__11
10
0
20
0
30
0
70
128
71
15
72
27
73
13
0
VERTEX
8
OBJECT__11
10
0
20
0
30
0
70
128
71
25
72
23
73
22
0
VERTEX
8
OBJECT__11
10
0
20
0
30
0
70
128
71
32
72
34
73
33
0
SEQEND
8
OBJECT__11
0
POLYLINE
8
OBJECT__13
66
1
70
64
71
34
72
34
62
253
0
VERTEX
8
OBJECT__13
10
40.701000
20
25.037001
30
-48.700001
70
192
0
VERTEX
8
OBJECT__13
10
50.400002
20
26.850000
30
-48.700001
70
192
0
VERTEX
8
OBJECT__13
10
50.400002
20
26.850000
30
-40.500000
70
192
0
VERTEX
8
OBJECT__13
10
32.311001
20
19.841999
30
-40.500000
70
192
0
VERTEX
8
OBJECT__13
10
32.311001
20
19.841999
30
-48.700001
70
192
0
VERTEX
8
OBJECT__13
10
26.365000
20
11.968000
30
-48.700001
70
192
0
VERTEX
8
OBJECT__13
10
23.665001
20
2.477000
30
-48.700001
70
192
0
VERTEX
8
OBJECT__13
10
26.365000
20
11.968000
30
-40.500000
70
192
0
VERTEX
8
OBJECT__13
10
24.575001
20
-7.348000
30
-48.700001
70
192
0
VERTEX
8
OBJECT__13
10
23.665001
20
2.477000
30
-40.500000
70
192
0
VERTEX
8
OBJECT__13
10
28.973000
20
-16.181000
30
-48.700001
70
192
0
VERTEX
8
OBJECT__13
10
24.575001
20
-7.348000
30
-40.500000
70
192
0
VERTEX
8
OBJECT__13
10
36.264999
20
-22.827999
30
-48.700001
70
192
0
VERTEX
8
OBJECT__13
10
28.973000
20
-16.181000
30
-40.500000
70
192
0
VERTEX
8
OBJECT__13
10
45.466000
20
-26.393000
30
-40.500000
70
192
0
VERTEX
8
OBJECT__13
10
45.466000
20
-26.393000
30
-48.700001
70
192
0
VERTEX
8
OBJECT__13
10
55.334000
20
-26.393000
30
-40.500000
70
192
0
VERTEX
8
OBJECT__13
10
55.334000
20
-26.393000
30
-48.700001
70
192
0
VERTEX
8
OBJECT__13
10
64.535004
20
-22.827999
30
-48.700001
70
192
0
VERTEX
8
OBJECT__13
10
71.827003
20
-16.181000
30
-40.500000
70
192
0
VERTEX
8
OBJECT__13
10
71.827003
20
-16.181000
30
-48.700001
70
192
0
VERTEX
8
OBJECT__13
10
76.224998
20
-7.348000
30
-40.500000
70
192
0
VERTEX
8
OBJECT__13
10
76.224998
20
-7.348000
30
-48.700001
70
192
0
VERTEX
8
OBJECT__13
10
77.135002
20
2.477000
30
-40.500000
70
192
0
VERTEX
8
OBJECT__13
10
77.135002
20
2.477000
30
-48.700001
70
192
0
VERTEX
8
OBJECT__13
10
74.434998
20
11.968000
30
-40.500000
70
192
0
VERTEX
8
OBJECT__13
10
74.434998
20
11.968000
30
-48.700001
70
192
0
VERTEX
8
OBJECT__13
10
68.488998
20
19.841999
30
-40.500000
70
192
0
VERTEX
8
OBJECT__13
10
68.488998
20
19.841999
30
-48.700001
70
192
0
VERTEX
8
OBJECT__13
10
60.098999
20
25.037001
30
-48.700001
70
192
0
VERTEX
8
OBJECT__13
10
60.098999
20
25.037001
30
-40.500000
70
192
0
VERTEX
8
OBJECT__13
10
64.535004
20
-22.827999
30
-40.500000
70
192
0
VERTEX
8
OBJECT__13
10
36.264999
20
-22.827999
30
-40.500000
70
192
0
VERTEX
8
OBJECT__13
10
40.701000
20
25.037001
30
-40.500000
70
192
0
VERTEX
8
OBJECT__13
10
0
20
0
30
0
70
128
71
1
72
2
73
3
0
VERTEX
8
OBJECT__13
10
0
20
0
30
0
70
128
71
4
72
5
73
1
0
VERTEX
8
OBJECT__13
10
0
20
0
30
0
70
128
71
6
72
5
73
4
0
VERTEX
8
OBJECT__13
10
0
20
0
30
0
70
128
71
7
72
6
73
8
0
VERTEX
8
OBJECT__13
10
0
20
0
30
0
70
128
71
9
72
7
73
10
0
VERTEX
8
OBJECT__13
10
0
20
0
30
0
70
128
71
11
72
9
73
12
0
VERTEX
8
OBJECT__13
10
0
20
0
30
0
70
128
71
13
72
11
73
14
0
VERTEX
8
OBJECT__13
10
0
20
0
30
0
70
128
71
15
72
16
73
13
0
VERTEX
8
OBJECT__13
10
0
20
0
30
0
70
128
71
17
72
18
73
16
0
VERTEX
8
OBJECT__13
10
0
20
0
30
0
70
128
71
19
72
18
73
17
0
VERTEX
8
OBJECT__13
10
0
20
0
30
0
70
128
71
20
72
21
73
19
0
VERTEX
8
OBJECT__13
10
0
20
0
30
0
70
128
71
22
72
23
73
21
0
VERTEX
8
OBJECT__13
10
0
20
0
30
0
70
128
71
24
72
25
73
23
0
VERTEX
8
OBJECT__13
10
0
20
0
30
0
70
128
71
26
72
27
73
25
0
VERTEX
8
OBJECT__13
10
0
20
0
30
0
70
128
71
28
72
29
73
27
0
VERTEX
8
OBJECT__13
10
0
20
0
30
0
70
128
71
30
72
29
73
28
0
VERTEX
8
OBJECT__13
10
0
20
0
30
0
70
128
71
3
72
2
73
30
0
VERTEX
8
OBJECT__13
10
0
20
0
30
0
70
128
71
30
72
31
73
3
0
VERTEX
8
OBJECT__13
10
0
20
0
30
0
70
128
71
28
72
31
73
30
0
VERTEX
8
OBJECT__13
10
0
20
0
30
0
70
128
71
27
72
26
73
28
0
VERTEX
8
OBJECT__13
10
0
20
0
30
0
70
128
71
25
72
24
73
26
0
VERTEX
8
OBJECT__13
10
0
20
0
30
0
70
128
71
23
72
22
73
24
0
VERTEX
8
OBJECT__13
10
0
20
0
30
0
70
128
71
21
72
20
73
22
0
VERTEX
8
OBJECT__13
10
0
20
0
30
0
70
128
71
19
72
32
73
20
0
VERTEX
8
OBJECT__13
10
0
20
0
30
0
70
128
71
17
72
32
73
19
0
VERTEX
8
OBJECT__13
10
0
20
0
30
0
70
128
71
16
72
15
73
17
0
VERTEX
8
OBJECT__13
10
0
20
0
30
0
70
128
71
13
72
33
73
15
0
VERTEX
8
OBJECT__13
10
0
20
0
30
0
70
128
71
14
72
33
73
13
0
VERTEX
8
OBJECT__13
10
0
20
0
30
0
70
128
71
12
72
14
73
11
0
VERTEX
8
OBJECT__13
10
0
20
0
30
0
70
128
71
10
72
12
73
9
0
VERTEX
8
OBJECT__13
10
0
20
0
30
0
70
128
71
8
72
10
73
7
0
VERTEX
8
OBJECT__13
10
0
20
0
30
0
70
128
71
4
72
8
73
6
0
VERTEX
8
OBJECT__13
10
0
20
0
30
0
70
128
71
1
72
34
73
4
0
VERTEX
8
OBJECT__13
10
0
20
0
30
0
70
128
71
3
72
34
73
1
0
SEQEND
8
OBJECT__13
0
POLYLINE
8
OBJECT__14
66
1
70
64
71
34
72
34
62
253
0
VERTEX
8
OBJECT__14
10
55.544998
20
-27.523001
30
-48.700001
70
192
0
VERTEX
8
OBJECT__14
10
45.255001
20
-27.523001
30
-48.700001
70
192
0
VERTEX
8
OBJECT__14
10
45.466000
20
-26.393000
30
-48.700001
70
192
0
VERTEX
8
OBJECT__14
10
35.660000
20
-23.806000
30
-48.700001
70
192
0
VERTEX
8
OBJECT__14
10
36.264999
20
-22.827999
30
-48.700001
70
192
0
VERTEX
8
OBJECT__14
10
77.331001
20
-7.663000
30
-48.700001
70
192
0
VERTEX
8
OBJECT__14
10
72.744003
20
-16.874001
30
-48.700001
70
192
0
VERTEX
8
OBJECT__14
10
71.827003
20
-16.181000
30
-48.700001
70
192
0
VERTEX
8
OBJECT__14
10
65.139999
20
-23.806000
30
-48.700001
70
192
0
VERTEX
8
OBJECT__14
10
64.535004
20
-22.827999
30
-48.700001
70
192
0
VERTEX
8
OBJECT__14
10
28.056000
20
-16.874001
30
-48.700001
70
192
0
VERTEX
8
OBJECT__14
10
28.973000
20
-16.181000
30
-48.700001
70
192
0
VERTEX
8
OBJECT__14
10
55.334000
20
-26.393000
30
-48.700001
70
192
0
VERTEX
8
OBJECT__14
10
23.469000
20
-7.663000
30
-48.700001
70
192
0
VERTEX
8
OBJECT__14
10
24.575001
20
-7.348000
30
-48.700001
70
192
0
VERTEX
8
OBJECT__14
10
22.518999
20
2.584000
30
-48.700001
70
192
0
VERTEX
8
OBJECT__14
10
23.665001
20
2.477000
30
-48.700001
70
192
0
VERTEX
8
OBJECT__14
10
25.334999
20
12.481000
30
-48.700001
70
192
0
VERTEX
8
OBJECT__14
10
26.365000
20
11.968000
30
-48.700001
70
192
0
VERTEX
8
OBJECT__14
10
31.537001
20
20.691999
30
-48.700001
70
192
0
VERTEX
8
OBJECT__14
10
32.311001
20
19.841999
30
-48.700001
70
192
0
VERTEX
8
OBJECT__14
10
40.285000
20
26.108999
30
-48.700001
70
192
0
VERTEX
8
OBJECT__14
10
40.701000
20
25.037001
30
-48.700001
70
192
0
VERTEX
8
OBJECT__14
10
69.263000
20
20.691999
30
-48.700001
70
192
0
VERTEX
8
OBJECT__14
10
68.488998
20
19.841999
30
-48.700001
70
192
0
VERTEX
8
OBJECT__14
10
60.098999
20
25.037001
30
-48.700001
70
192
0
VERTEX
8
OBJECT__14
10
75.464996
20
12.481000
30
-48.700001
70
192
0
VERTEX
8
OBJECT__14
10
74.434998
20
11.968000
30
-48.700001
70
192
0
VERTEX
8
OBJECT__14
10
60.514999
20
26.108999
30
-48.700001
70
192
0
VERTEX
8
OBJECT__14
10
50.400002
20
26.850000
30
-48.700001
70
192
0
VERTEX
8
OBJECT__14
10
78.280998
20
2.584000
30
-48.700001
70
192
0
VERTEX
8
OBJECT__14
10
77.135002
20
2.477000
30
-48.700001
70
192
0
VERTEX
8
OBJECT__14
10
76.224998
20
-7.348000
30
-48.700001
70
192
0
VERTEX
8
OBJECT__14
10
50.400002
20
28.000000
30
-48.700001
70
192
0
VERTEX
8
OBJECT__14
10
0
20
0
30
0
70
128
71
1
72
2
73
3
0
VERTEX
8
OBJECT__14
10
0
20
0
30
0
70
128
71
2
72
4
73
5
0
VERTEX
8
OBJECT__14
10
0
20
0
30
0
70
128
71
6
72
7
73
8
0
VERTEX
8
OBJECT__14
10
0
20
0
30
0
70
128
71
7
72
9
73
10
0
VERTEX
8
OBJECT__14
10
0
20
0
30
0
70
128
71
5
72
3
73
2
0
VERTEX
8
OBJECT__14
10
0
20
0
30
0
70
128
71
11
72
12
73
5
0
VERTEX
8
OBJECT__14
10
0
20
0
30
0
70
128
71
10
72
8
73
7
0
VERTEX
8
OBJECT__14
10
0
20
0
30
0
70
128
71
9
72
1
73
13
0
VERTEX
8
OBJECT__14
10
0
20
0
30
0
70
128
71
5
72
4
73
11
0
VERTEX
8
OBJECT__14
10
0
20
0
30
0
70
128
71
11
72
14
73
15
0
VERTEX
8
OBJECT__14
10
0
20
0
30
0
70
128
71
14
72
16
73
17
0
VERTEX
8
OBJECT__14
10
0
20
0
30
0
70
128
71
18
72
19
73
17
0
VERTEX
8
OBJECT__14
10
0
20
0
30
0
70
128
71
20
72
21
73
19
0
VERTEX
8
OBJECT__14
10
0
20
0
30
0
70
128
71
20
72
22
73
23
0
VERTEX
8
OBJECT__14
10
0
20
0
30
0
70
128
71
24
72
25
73
26
0
VERTEX
8
OBJECT__14
10
0
20
0
30
0
70
128
71
24
72
27
73
28
0
VERTEX
8
OBJECT__14
10
0
20
0
30
0
70
128
71
13
72
10
73
9
0
VERTEX
8
OBJECT__14
10
0
20
0
30
0
70
128
71
15
72
12
73
11
0
VERTEX
8
OBJECT__14
10
0
20
0
30
0
70
128
71
17
72
16
73
18
0
VERTEX
8
OBJECT__14
10
0
20
0
30
0
70
128
71
23
72
21
73
20
0
VERTEX
8
OBJECT__14
10
0
20
0
30
0
70
128
71
29
72
26
73
30
0
VERTEX
8
OBJECT__14
10
0
20
0
30
0
70
128
71
28
72
25
73
24
0
VERTEX
8
OBJECT__14
10
0
20
0
30
0
70
128
71
27
72
31
73
32
0
VERTEX
8
OBJECT__14
10
0
20
0
30
0
70
128
71
31
72
6
73
33
0
VERTEX
8
OBJECT__14
10
0
20
0
30
0
70
128
71
3
72
13
73
1
0
VERTEX
8
OBJECT__14
10
0
20
0
30
0
70
128
71
19
72
18
73
20
0
VERTEX
8
OBJECT__14
10
0
20
0
30
0
70
128
71
26
72
29
73
24
0
VERTEX
8
OBJECT__14
10
0
20
0
30
0
70
128
71
33
72
32
73
31
0
VERTEX
8
OBJECT__14
10
0
20
0
30
0
70
128
71
17
72
15
73
14
0
VERTEX
8
OBJECT__14
10
0
20
0
30
0
70
128
71
34
72
30
73
23
0
VERTEX
8
OBJECT__14
10
0
20
0
30
0
70
128
71
32
72
28
73
27
0
VERTEX
8
OBJECT__14
10
0
20
0
30
0
70
128
71
23
72
22
73
34
0
VERTEX
8
OBJECT__14
10
0
20
0
30
0
70
128
71
8
72
33
73
6
0
VERTEX
8
OBJECT__14
10
0
20
0
30
0
70
128
71
30
72
34
73
29
0
SEQEND
8
OBJECT__14
0
POLYLINE
8
OBJECT__15
66
1
70
64
71
34
72
34
62
253
0
VERTEX
8
OBJECT__15
10
60.514999
20
26.108999
30
-47.700001
70
192
0
VERTEX
8
OBJECT__15
10
60.514999
20
26.108999
30
-48.700001
70
192
0
VERTEX
8
OBJECT__15
10
50.400002
20
28.000000
30
-48.700001
70
192
0
VERTEX
8
OBJECT__15
10
69.263000
20
20.691999
30
-47.700001
70
192
0
VERTEX
8
OBJECT__15
10
69.263000
20
20.691999
30
-48.700001
70
192
0
VERTEX
8
OBJECT__15
10
75.464996
20
12.481000
30
-47.700001
70
192
0
VERTEX
8
OBJECT__15
10
75.464996
20
12.481000
30
-48.700001
70
192
0
VERTEX
8
OBJECT__15
10
78.280998
20
2.584000
30
-47.700001
70
192
0
VERTEX
8
OBJECT__15
10
78.280998
20
2.584000
30
-48.700001
70
192
0
VERTEX
8
OBJECT__15
10
77.331001
20
-7.663000
30
-47.700001
70
192
0
VERTEX
8
OBJECT__15
10
77.331001
20
-7.663000
30
-48.700001
70
192
0
VERTEX
8
OBJECT__15
10
72.744003
20
-16.874001
30
-47.700001
70
192
0
VERTEX
8
OBJECT__15
10
72.744003
20
-16.874001
30
-48.700001
70
192
0
VERTEX
8
OBJECT__15
10
65.139999
20
-23.806000
30
-47.700001
70
192
0
VERTEX
8
OBJECT__15
10
65.139999
20
-23.806000
30
-48.700001
70
192
0
VERTEX
8
OBJECT__15
10
55.544998
20
-27.523001
30
-47.700001
70
192
0
VERTEX
8
OBJECT__15
10
55.544998
20
-27.523001
30
-48.700001
70
192
0
VERTEX
8
OBJECT__15
10
45.255001
20
-27.523001
30
-47.700001
70
192
0
VERTEX
8
OBJECT__15
10
45.255001
20
-27.523001
30
-48.700001
70
192
0
VERTEX
8
OBJECT__15
10
35.660000
20
-23.806000
30
-48.700001
70
192
0
VERTEX
8
OBJECT__15
10
28.056000
20
-16.874001
30
-47.700001
70
192
0
VERTEX
8
OBJECT__15
10
28.056000
20
-16.874001
30
-48.700001
70
192
0
VERTEX
8
OBJECT__15
10
23.469000
20
-7.663000
30
-47.700001
70
192
0
VERTEX
8
OBJECT__15
10
23.469000
20
-7.663000
30
-48.700001
70
192
0
VERTEX
8
OBJECT__15
10
22.518999
20
2.584000
30
-47.700001
70
192
0
VERTEX
8
OBJECT__15
10
22.518999
20
2.584000
30
-48.700001
70
192
0
VERTEX
8
OBJECT__15
10
25.334999
20
12.481000
30
-47.700001
70
192
0
VERTEX
8
OBJECT__15
10
25.334999
20
12.481000
30
-48.700001
70
192
0
VERTEX
8
OBJECT__15
10
31.537001
20
20.691999
30
-47.700001
70
192
0
VERTEX
8
OBJECT__15
10
31.537001
20
20.691999
30
-48.700001
70
192
0
VERTEX
8
OBJECT__15
10
40.285000
20
26.108999
30
-48.700001
70
192
0
VERTEX
8
OBJECT__15
10
50.400002
20
28.000000
30
-47.700001
70
192
0
VERTEX
8
OBJECT__15
10
40.285000
20
26.108999
30
-47.700001
70
192
0
VERTEX
8
OBJECT__15
10
35.660000
20
-23.806000
30
-47.700001
70
192
0
VERTEX
8
OBJECT__15
10
0
20
0
30
0
70
128
71
1
72
2
73
3
0
VERTEX
8
OBJECT__15
10
0
20
0
30
0
70
128
71
4
72
5
73
2
0
VERTEX
8
OBJECT__15
10
0
20
0
30
0
70
128
71
6
72
7
73
5
0
VERTEX
8
OBJECT__15
10
0
20
0
30
0
70
128
71
8
72
9
73
7
0
VERTEX
8
OBJECT__15
10
0
20
0
30
0
70
128
71
10
72
11
73
9
0
VERTEX
8
OBJECT__15
10
0
20
0
30
0
70
128
71
12
72
13
73
11
0
VERTEX
8
OBJECT__15
10
0
20
0
30
0
70
128
71
14
72
15
73
13
0
VERTEX
8
OBJECT__15
10
0
20
0
30
0
70
128
71
16
72
17
73
15
0
VERTEX
8
OBJECT__15
10
0
20
0
30
0
70
128
71
18
72
19
73
17
0
VERTEX
8
OBJECT__15
10
0
20
0
30
0
70
128
71
20
72
19
73
18
0
VERTEX
8
OBJECT__15
10
0
20
0
30
0
70
128
71
21
72
22
73
20
0
VERTEX
8
OBJECT__15
10
0
20
0
30
0
70
128
71
23
72
24
73
22
0
VERTEX
8
OBJECT__15
10
0
20
0
30
0
70
128
71
25
72
26
73
24
0
VERTEX
8
OBJECT__15
10
0
20
0
30
0
70
128
71
27
72
28
73
26
0
VERTEX
8
OBJECT__15
10
0
20
0
30
0
70
128
71
29
72
30
73
28
0
VERTEX
8
OBJECT__15
10
0
20
0
30
0
70
128
71
31
72
30
73
29
0
VERTEX
8
OBJECT__15
10
0
20
0
30
0
70
128
71
32
72
3
73
31
0
VERTEX
8
OBJECT__15
10
0
20
0
30
0
70
128
71
31
72
33
73
32
0
VERTEX
8
OBJECT__15
10
0
20
0
30
0
70
128
71
29
72
33
73
31
0
VERTEX
8
OBJECT__15
10
0
20
0
30
0
70
128
71
28
72
27
73
29
0
VERTEX
8
OBJECT__15
10
0
20
0
30
0
70
128
71
26
72
25
73
27
0
VERTEX
8
OBJECT__15
10
0
20
0
30
0
70
128
71
24
72
23
73
25
0
VERTEX
8
OBJECT__15
10
0
20
0
30
0
70
128
71
22
72
21
73
23
0
VERTEX
8
OBJECT__15
10
0
20
0
30
0
70
128
71
20
72
34
73
21
0
VERTEX
8
OBJECT__15
10
0
20
0
30
0
70
128
71
18
72
34
73
20
0
VERTEX
8
OBJECT__15
10
0
20
0
30
0
70
128
71
17
72
16
73
18
0
VERTEX
8
OBJECT__15
10
0
20
0
30
0
70
128
71
15
72
14
73
16
0
VERTEX
8
OBJECT__15
10
0
20
0
30
0
70
128
71
13
72
12
73
14
0
VERTEX
8
OBJECT__15
10
0
20
0
30
0
70
128
71
11
72
10
73
12
0
VERTEX
8
OBJECT__15
10
0
20
0
30
0
70
128
71
9
72
8
73
10
0
VERTEX
8
OBJECT__15
10
0
20
0
30
0
70
128
71
7
72
6
73
8
0
VERTEX
8
OBJECT__15
10
0
20
0
30
0
70
128
71
5
72
4
73
6
0
VERTEX
8
OBJECT__15
10
0
20
0
30
0
70
128
71
2
72
1
73
4
0
VERTEX
8
OBJECT__15
10
0
20
0
30
0
70
128
71
3
72
32
73
1
0
SEQEND
8
OBJECT__15
0
POLYLINE
8
OBJECT__16
66
1
70
64
71
34
72
34
62
253
0
VERTEX
8
OBJECT__16
10
60.208000
20
25.316999
30
-47.700001
70
192
0
VERTEX
8
OBJECT__16
10
50.400002
20
27.150000
30
-47.700001
70
192
0
VERTEX
8
OBJECT__16
10
50.400002
20
27.150000
30
-41.500000
70
192
0
VERTEX
8
OBJECT__16
10
68.691002
20
20.063999
30
-41.500000
70
192
0
VERTEX
8
OBJECT__16
10
68.691002
20
20.063999
30
-47.700001
70
192
0
VERTEX
8
OBJECT__16
10
74.704002
20
12.102000
30
-47.700001
70
192
0
VERTEX
8
OBJECT__16
10
77.433998
20
2.505000
30
-47.700001
70
192
0
VERTEX
8
OBJECT__16
10
74.704002
20
12.102000
30
-41.500000
70
192
0
VERTEX
8
OBJECT__16
10
76.514000
20
-7.430000
30
-47.700001
70
192
0
VERTEX
8
OBJECT__16
10
77.433998
20
2.505000
30
-41.500000
70
192
0
VERTEX
8
OBJECT__16
10
72.066002
20
-16.362000
30
-47.700001
70
192
0
VERTEX
8
OBJECT__16
10
76.514000
20
-7.430000
30
-41.500000
70
192
0
VERTEX
8
OBJECT__16
10
64.693001
20
-23.083000
30
-47.700001
70
192
0
VERTEX
8
OBJECT__16
10
72.066002
20
-16.362000
30
-41.500000
70
192
0
VERTEX
8
OBJECT__16
10
55.389000
20
-26.688000
30
-41.500000
70
192
0
VERTEX
8
OBJECT__16
10
55.389000
20
-26.688000
30
-47.700001
70
192
0
VERTEX
8
OBJECT__16
10
45.410999
20
-26.688000
30
-41.500000
70
192
0
VERTEX
8
OBJECT__16
10
45.410999
20
-26.688000
30
-47.700001
70
192
0
VERTEX
8
OBJECT__16
10
36.106998
20
-23.083000
30
-47.700001
70
192
0
VERTEX
8
OBJECT__16
10
28.733999
20
-16.362000
30
-41.500000
70
192
0
VERTEX
8
OBJECT__16
10
28.733999
20
-16.362000
30
-47.700001
70
192
0
VERTEX
8
OBJECT__16
10
24.285999
20
-7.430000
30
-41.500000
70
192
0
VERTEX
8
OBJECT__16
10
24.285999
20
-7.430000
30
-47.700001
70
192
0
VERTEX
8
OBJECT__16
10
23.365999
20
2.505000
30
-41.500000
70
192
0
VERTEX
8
OBJECT__16
10
23.365999
20
2.505000
30
-47.700001
70
192
0
VERTEX
8
OBJECT__16
10
26.096001
20
12.102000
30
-41.500000
70
192
0
VERTEX
8
OBJECT__16
10
26.096001
20
12.102000
30
-47.700001
70
192
0
VERTEX
8
OBJECT__16
10
32.109001
20
20.063999
30
-41.500000
70
192
0
VERTEX
8
OBJECT__16
10
32.109001
20
20.063999
30
-47.700001
70
192
0
VERTEX
8
OBJECT__16
10
40.591999
20
25.316999
30
-47.700001
70
192
0
VERTEX
8
OBJECT__16
10
40.591999
20
25.316999
30
-41.500000
70
192
0
VERTEX
8
OBJECT__16
10
36.106998
20
-23.083000
30
-41.500000
70
192
0
VERTEX
8
OBJECT__16
10
64.693001
20
-23.083000
30
-41.500000
70
192
0
VERTEX
8
OBJECT__16
10
60.208000
20
25.316999
30
-41.500000
70
192
0
VERTEX
8
OBJECT__16
10
0
20
0
30
0
70
128
71
1
72
2
73
3
0
VERTEX
8
OBJECT__16
10
0
20
0
30
0
70
128
71
4
72
5
73
1
0
VERTEX
8
OBJECT__16
10
0
20
0
30
0
70
128
71
6
72
5
73
4
0
VERTEX
8
OBJECT__16
10
0
20
0
30
0
70
128
71
7
72
6
73
8
0
VERTEX
8
OBJECT__16
10
0
20
0
30
0
70
128
71
9
72
7
73
10
0
VERTEX
8
OBJECT__16
10
0
20
0
30
0
70
128
71
11
72
9
73
12
0
VERTEX
8
OBJECT__16
10
0
20
0
30
0
70
128
71
13
72
11
73
14
0
VERTEX
8
OBJECT__16
10
0
20
0
30
0
70
128
71
15
72
16
73
13
0
VERTEX
8
OBJECT__16
10
0
20
0
30
0
70
128
71
17
72
18
73
16
0
VERTEX
8
OBJECT__16
10
0
20
0
30
0
70
128
71
19
72
18
73
17
0
VERTEX
8
OBJECT__16
10
0
20
0
30
0
70
128
71
20
72
21
73
19
0
VERTEX
8
OBJECT__16
10
0
20
0
30
0
70
128
71
22
72
23
73
21
0
VERTEX
8
OBJECT__16
10
0
20
0
30
0
70
128
71
24
72
25
73
23
0
VERTEX
8
OBJECT__16
10
0
20
0
30
0
70
128
71
26
72
27
73
25
0
VERTEX
8
OBJECT__16
10
0
20
0
30
0
70
128
71
28
72
29
73
27
0
VERTEX
8
OBJECT__16
10
0
20
0
30
0
70
128
71
30
72
29
73
28
0
VERTEX
8
OBJECT__16
10
0
20
0
30
0
70
128
71
3
72
2
73
30
0
VERTEX
8
OBJECT__16
10
0
20
0
30
0
70
128
71
30
72
31
73
3
0
VERTEX
8
OBJECT__16
10
0
20
0
30
0
70
128
71
28
72
31
73
30
0
VERTEX
8
OBJECT__16
10
0
20
0
30
0
70
128
71
27
72
26
73
28
0
VERTEX
8
OBJECT__16
10
0
20
0
30
0
70
128
71
25
72
24
73
26
0
VERTEX
8
OBJECT__16
10
0
20
0
30
0
70
128
71
23
72
22
73
24
0
VERTEX
8
OBJECT__16
10
0
20
0
30
0
70
128
71
21
72
20
73
22
0
VERTEX
8
OBJECT__16
10
0
20
0
30
0
70
128
71
19
72
32
73
20
0
VERTEX
8
OBJECT__16
10
0
20
0
30
0
70
128
71
17
72
32
73
19
0
VERTEX
8
OBJECT__16
10
0
20
0
30
0
70
128
71
16
72
15
73
17
0
VERTEX
8
OBJECT__16
10
0
20
0
30
0
70
128
71
13
72
33
73
15
0
VERTEX
8
OBJECT__16
10
0
20
0
30
0
70
128
71
14
72
33
73
13
0
VERTEX
8
OBJECT__16
10
0
20
0
30
0
70
128
71
12
72
14
73
11
0
VERTEX
8
OBJECT__16
10
0
20
0
30
0
70
128
71
10
72
12
73
9
0
VERTEX
8
OBJECT__16
10
0
20
0
30
0
70
128
71
8
72
10
73
7
0
VERTEX
8
OBJECT__16
10
0
20
0
30
0
70
128
71
4
72
8
73
6
0
VERTEX
8
OBJECT__16
10
0
20
0
30
0
70
128
71
1
72
34
73
4
0
VERTEX
8
OBJECT__16
10
0
20
0
30
0
70
128
71
3
72
34
73
1
0
SEQEND
8
OBJECT__16
0
POLYLINE
8
OBJECT__17
66
1
70
64
71
18
72
18
62
253
0
VERTEX
8
OBJECT__17
10
1.900000
20
0.000000
30
6.800000
70
192
0
VERTEX
8
OBJECT__17
10
1.900000
20
-4.150000
30
5.688000
70
192
0
VERTEX
8
OBJECT__17
10
1.900000
20
-1.710000
30
3.198000
70
192
0
VERTEX
8
OBJECT__17
10
1.900000
20
8.300000
30
-1.500000
70
192
0
VERTEX
8
OBJECT__17
10
1.900000
20
4.924000
30
-2.368000
70
192
0
VERTEX
8
OBJECT__17
10
1.900000
20
3.214000
30
-5.330000
70
192
0
VERTEX
8
OBJECT__17
10
1.900000
20
7.188000
30
2.650000
70
192
0
VERTEX
8
OBJECT__17
10
1.900000
20
4.330000
30
1.000000
70
192
0
VERTEX
8
OBJECT__17
10
1.900000
20
1.710000
30
3.198000
70
192
0
VERTEX
8
OBJECT__17
10
1.900000
20
4.150000
30
5.688000
70
192
0
VERTEX
8
OBJECT__17
10
1.900000
20
-7.188000
30
2.650000
70
192
0
VERTEX
8
OBJECT__17
10
1.900000
20
-4.330000
30
1.000000
70
192
0
VERTEX
8
OBJECT__17
10
1.900000
20
8.300000
30
-38.500000
70
192
0
VERTEX
8
OBJECT__17
10
1.900000
20
0.000000
30
-6.500000
70
192
0
VERTEX
8
OBJECT__17
10
1.900000
20
-8.300000
30
-1.500000
70
192
0
VERTEX
8
OBJECT__17
10
1.900000
20
-8.300000
30
-38.500000
70
192
0
VERTEX
8
OBJECT__17
10
1.900000
20
-3.214000
30
-5.330000
70
192
0
VERTEX
8
OBJECT__17
10
1.900000
20
-4.924000
30
-2.368000
70
192
0
VERTEX
8
OBJECT__17
10
0
20
0
30
0
70
128
71
1
72
2
73
3
0
VERTEX
8
OBJECT__17
10
0
20
0
30
0
70
128
71
4
72
5
73
6
0
VERTEX
8
OBJECT__17
10
0
20
0
30
0
70
128
71
4
72
7
73
8
0
VERTEX
8
OBJECT__17
10
0
20
0
30
0
70
128
71
9
72
10
73
1
0
VERTEX
8
OBJECT__17
10
0
20
0
30
0
70
128
71
2
72
11
73
12
0
VERTEX
8
OBJECT__17
10
0
20
0
30
0
70
128
71
13
72
6
73
14
0
VERTEX
8
OBJECT__17
10
0
20
0
30
0
70
128
71
8
72
5
73
4
0
VERTEX
8
OBJECT__17
10
0
20
0
30
0
70
128
71
10
72
9
73
8
0
VERTEX
8
OBJECT__17
10
0
20
0
30
0
70
128
71
12
72
3
73
2
0
VERTEX
8
OBJECT__17
10
0
20
0
30
0
70
128
71
15
72
16
73
17
0
VERTEX
8
OBJECT__17
10
0
20
0
30
0
70
128
71
6
72
13
73
4
0
VERTEX
8
OBJECT__17
10
0
20
0
30
0
70
128
71
3
72
9
73
1
0
VERTEX
8
OBJECT__17
10
0
20
0
30
0
70
128
71
15
72
18
73
12
0
VERTEX
8
OBJECT__17
10
0
20
0
30
0
70
128
71
16
72
14
73
17
0
VERTEX
8
OBJECT__17
10
0
20
0
30
0
70
128
71
8
72
7
73
10
0
VERTEX
8
OBJECT__17
10
0
20
0
30
0
70
128
71
17
72
18
73
15
0
VERTEX
8
OBJECT__17
10
0
20
0
30
0
70
128
71
12
72
11
73
15
0
VERTEX
8
OBJECT__17
10
0
20
0
30
0
70
128
71
14
72
16
73
13
0
SEQEND
8
OBJECT__17
0
POLYLINE
8
OBJECT__18
66
1
70
64
71
6
72
4
62
253
0
VERTEX
8
OBJECT__18
10
2.779000
20
8.300000
30
-40.620998
70
192
0
VERTEX
8
OBJECT__18
10
2.779000
20
-8.300000
30
-40.620998
70
192
0
VERTEX
8
OBJECT__18
10
4.900000
20
-8.300000
30
-41.500000
70
192
0
VERTEX
8
OBJECT__18
10
1.900000
20
8.300000
30
-38.500000
70
192
0
VERTEX
8
OBJECT__18
10
1.900000
20
-8.300000
30
-38.500000
70
192
0
VERTEX
8
OBJECT__18
10
4.900000
20
8.300000
30
-41.500000
70
192
0
VERTEX
8
OBJECT__18
10
0
20
0
30
0
70
128
71
1
72
2
73
3
0
VERTEX
8
OBJECT__18
10
0
20
0
30
0
70
128
71
4
72
5
73
2
0
VERTEX
8
OBJECT__18
10
0
20
0
30
0
70
128
71
2
72
1
73
4
0
VERTEX
8
OBJECT__18
10
0
20
0
30
0
70
128
71
3
72
6
73
1
0
SEQEND
8
OBJECT__18
0
POLYLINE
8
OBJECT__20
66
1
70
64
71
46
72
46
62
253
0
VERTEX
8
OBJECT__20
10
49.912998
20
-36.497002
30
-41.500000
70
192
0
VERTEX
8
OBJECT__20
10
61.307999
20
-34.832001
30
-41.500000
70
192
0
VERTEX
8
OBJECT__20
10
55.942001
20
-26.424999
30
-41.500000
70
192
0
VERTEX
8
OBJECT__20
10
71.616997
20
-29.700001
30
-41.500000
70
192
0
VERTEX
8
OBJECT__20
10
63.648998
20
-23.525999
30
-41.500000
70
192
0
VERTEX
8
OBJECT__20
10
79.814003
20
-21.612000
30
-41.500000
70
192
0
VERTEX
8
OBJECT__20
10
70.123001
20
-18.438999
30
-41.500000
70
192
0
VERTEX
8
OBJECT__20
10
85.083000
20
-11.372000
30
-41.500000
70
192
0
VERTEX
8
OBJECT__20
10
74.764000
20
-11.637000
30
-41.500000
70
192
0
VERTEX
8
OBJECT__20
10
27.423000
20
-14.180000
30
-41.500000
70
192
0
VERTEX
8
OBJECT__20
10
14.343000
20
8.894000
30
-41.500000
70
192
0
VERTEX
8
OBJECT__20
10
14.343000
20
-8.894000
30
-41.500000
70
192
0
VERTEX
8
OBJECT__20
10
86.900002
20
0.000000
30
-41.500000
70
192
0
VERTEX
8
OBJECT__20
10
77.138000
20
-3.753000
30
-41.500000
70
192
0
VERTEX
8
OBJECT__20
10
85.083000
20
11.372000
30
-41.500000
70
192
0
VERTEX
8
OBJECT__20
10
77.026001
20
4.480000
30
-41.500000
70
192
0
VERTEX
8
OBJECT__20
10
79.814003
20
21.612000
30
-41.500000
70
192
0
VERTEX
8
OBJECT__20
10
69.613998
20
18.969000
30
-41.500000
70
192
0
VERTEX
8
OBJECT__20
10
74.436996
20
12.297000
30
-41.500000
70
192
0
VERTEX
8
OBJECT__20
10
71.616997
20
29.700001
30
-41.500000
70
192
0
VERTEX
8
OBJECT__20
10
63.002998
20
23.878000
30
-41.500000
70
192
0
VERTEX
8
OBJECT__20
10
61.307999
20
34.832001
30
-41.500000
70
192
0
VERTEX
8
OBJECT__20
10
55.220001
20
26.566000
30
-41.500000
70
192
0
VERTEX
8
OBJECT__20
10
49.912998
20
36.497002
30
-41.500000
70
192
0
VERTEX
8
OBJECT__20
10
46.988998
20
26.784000
30
-41.500000
70
192
0
VERTEX
8
OBJECT__20
10
38.566002
20
34.528000
30
-41.500000
70
192
0
VERTEX
8
OBJECT__20
10
39.076000
20
24.510000
30
-41.500000
70
192
0
VERTEX
8
OBJECT__20
10
28.398001
20
29.122999
30
-41.500000
70
192
0
VERTEX
8
OBJECT__20
10
32.215000
20
19.958000
30
-41.500000
70
192
0
VERTEX
8
OBJECT__20
10
15.425000
20
-10.442000
30
-41.500000
70
192
0
VERTEX
8
OBJECT__20
10
20.419001
20
-20.819000
30
-41.500000
70
192
0
VERTEX
8
OBJECT__20
10
28.398001
20
-29.122999
30
-41.500000
70
192
0
VERTEX
8
OBJECT__20
10
32.765999
20
-20.445999
30
-41.500000
70
192
0
VERTEX
8
OBJECT__20
10
15.425000
20
10.442000
30
-41.500000
70
192
0
VERTEX
8
OBJECT__20
10
24.048000
20
5.880000
30
-41.500000
70
192
0
VERTEX
8
OBJECT__20
10
27.046000
20
13.549000
30
-41.500000
70
192
0
VERTEX
8
OBJECT__20
10
38.566002
20
-34.528000
30
-41.500000
70
192
0
VERTEX
8
OBJECT__20
10
39.748001
20
-24.809999
30
-41.500000
70
192
0
VERTEX
8
OBJECT__20
10
4.900000
20
8.300000
30
-41.500000
70
192
0
VERTEX
8
OBJECT__20
10
4.900000
20
-8.300000
30
-41.500000
70
192
0
VERTEX
8
OBJECT__20
10
12.551000
20
-8.300000
30
-41.500000
70
192
0
VERTEX
8
OBJECT__20
10
20.419001
20
20.819000
30
-41.500000
70
192
0
VERTEX
8
OBJECT__20
10
24.218000
20
-6.596000
30
-41.500000
70
192
0
VERTEX
8
OBJECT__20
10
23.403000
20
-0.368000
30
-41.500000
70
192
0
VERTEX
8
OBJECT__20
10
47.721001
20
-26.867001
30
-41.500000
70
192
0
VERTEX
8
OBJECT__20
10
12.551000
20
8.300000
30
-41.500000
70
192
0
VERTEX
8
OBJECT__20
10
0
20
0
30
0
70
128
71
1
72
2
73
3
0
VERTEX
8
OBJECT__20
10
0
20
0
30
0
70
128
71
2
72
4
73
5
0
VERTEX
8
OBJECT__20
10
0
20
0
30
0
70
128
71
4
72
6
73
7
0
VERTEX
8
OBJECT__20
10
0
20
0
30
0
70
128
71
6
72
8
73
9
0
VERTEX
8
OBJECT__20
10
0
20
0
30
0
70
128
71
10
72
11
73
12
0
VERTEX
8
OBJECT__20
10
0
20
0
30
0
70
128
71
5
72
3
73
2
0
VERTEX
8
OBJECT__20
10
0
20
0
30
0
70
128
71
9
72
7
73
6
0
VERTEX
8
OBJECT__20
10
0
20
0
30
0
70
128
71
8
72
13
73
14
0
VERTEX
8
OBJECT__20
10
0
20
0
30
0
70
128
71
13
72
15
73
16
0
VERTEX
8
OBJECT__20
10
0
20
0
30
0
70
128
71
17
72
18
73
19
0
VERTEX
8
OBJECT__20
10
0
20
0
30
0
70
128
71
20
72
21
73
18
0
VERTEX
8
OBJECT__20
10
0
20
0
30
0
70
128
71
22
72
23
73
21
0
VERTEX
8
OBJECT__20
10
0
20
0
30
0
70
128
71
24
72
25
73
23
0
VERTEX
8
OBJECT__20
10
0
20
0
30
0
70
128
71
26
72
27
73
25
0
VERTEX
8
OBJECT__20
10
0
20
0
30
0
70
128
71
28
72
29
73
27
0
VERTEX
8
OBJECT__20
10
0
20
0
30
0
70
128
71
12
72
30
73
10
0
VERTEX
8
OBJECT__20
10
0
20
0
30
0
70
128
71
31
72
32
73
33
0
VERTEX
8
OBJECT__20
10
0
20
0
30
0
70
128
71
7
72
5
73
4
0
VERTEX
8
OBJECT__20
10
0
20
0
30
0
70
128
71
16
72
14
73
13
0
VERTEX
8
OBJECT__20
10
0
20
0
30
0
70
128
71
18
72
17
73
20
0
VERTEX
8
OBJECT__20
10
0
20
0
30
0
70
128
71
23
72
22
73
24
0
VERTEX
8
OBJECT__20
10
0
20
0
30
0
70
128
71
27
72
26
73
28
0
VERTEX
8
OBJECT__20
10
0
20
0
30
0
70
128
71
34
72
35
73
36
0
VERTEX
8
OBJECT__20
10
0
20
0
30
0
70
128
71
33
72
10
73
31
0
VERTEX
8
OBJECT__20
10
0
20
0
30
0
70
128
71
32
72
37
73
38
0
VERTEX
8
OBJECT__20
10
0
20
0
30
0
70
128
71
39
72
40
73
41
0
VERTEX
8
OBJECT__20
10
0
20
0
30
0
70
128
71
14
72
9
73
8
0
VERTEX
8
OBJECT__20
10
0
20
0
30
0
70
128
71
19
72
15
73
17
0
VERTEX
8
OBJECT__20
10
0
20
0
30
0
70
128
71
25
72
24
73
26
0
VERTEX
8
OBJECT__20
10
0
20
0
30
0
70
128
71
42
72
36
73
29
0
VERTEX
8
OBJECT__20
10
0
20
0
30
0
70
128
71
36
72
42
73
34
0
VERTEX
8
OBJECT__20
10
0
20
0
30
0
70
128
71
11
72
43
73
44
0
VERTEX
8
OBJECT__20
10
0
20
0
30
0
70
128
71
38
72
33
73
32
0
VERTEX
8
OBJECT__20
10
0
20
0
30
0
70
128
71
37
72
1
73
45
0
VERTEX
8
OBJECT__20
10
0
20
0
30
0
70
128
71
41
72
11
73
46
0
VERTEX
8
OBJECT__20
10
0
20
0
30
0
70
128
71
19
72
16
73
15
0
VERTEX
8
OBJECT__20
10
0
20
0
30
0
70
128
71
29
72
28
73
42
0
VERTEX
8
OBJECT__20
10
0
20
0
30
0
70
128
71
44
72
35
73
11
0
VERTEX
8
OBJECT__20
10
0
20
0
30
0
70
128
71
45
72
38
73
37
0
VERTEX
8
OBJECT__20
10
0
20
0
30
0
70
128
71
41
72
46
73
39
0
VERTEX
8
OBJECT__20
10
0
20
0
30
0
70
128
71
21
72
20
73
22
0
VERTEX
8
OBJECT__20
10
0
20
0
30
0
70
128
71
11
72
10
73
43
0
VERTEX
8
OBJECT__20
10
0
20
0
30
0
70
128
71
41
72
12
73
11
0
VERTEX
8
OBJECT__20
10
0
20
0
30
0
70
128
71
34
72
11
73
35
0
VERTEX
8
OBJECT__20
10
0
20
0
30
0
70
128
71
3
72
45
73
1
0
VERTEX
8
OBJECT__20
10
0
20
0
30
0
70
128
71
30
72
31
73
10
0
SEQEND
8
OBJECT__20
0
POLYLINE
8
OBJECT__21
66
1
70
64
71
6
72
4
62
253
0
VERTEX
8
OBJECT__21
10
14.343000
20
8.894000
30
-47.500000
70
192
0
VERTEX
8
OBJECT__21
10
14.343000
20
8.894000
30
-41.500000
70
192
0
VERTEX
8
OBJECT__21
10
15.425000
20
10.442000
30
-41.500000
70
192
0
VERTEX
8
OBJECT__21
10
12.551000
20
8.300000
30
-47.500000
70
192
0
VERTEX
8
OBJECT__21
10
12.551000
20
8.300000
30
-41.500000
70
192
0
VERTEX
8
OBJECT__21
10
15.425000
20
10.442000
30
-47.500000
70
192
0
VERTEX
8
OBJECT__21
10
0
20
0
30
0
70
128
71
1
72
2
73
3
0
VERTEX
8
OBJECT__21
10
0
20
0
30
0
70
128
71
4
72
5
73
2
0
VERTEX
8
OBJECT__21
10
0
20
0
30
0
70
128
71
2
72
1
73
4
0
VERTEX
8
OBJECT__21
10
0
20
0
30
0
70
128
71
3
72
6
73
1
0
SEQEND
8
OBJECT__21
0
POLYLINE
8
OBJECT__22
66
1
70
64
71
6
72
4
62
253
0
VERTEX
8
OBJECT__22
10
14.343000
20
-8.894000
30
-47.500000
70
192
0
VERTEX
8
OBJECT__22
10
14.343000
20
-8.894000
30
-41.500000
70
192
0
VERTEX
8
OBJECT__22
10
12.551000
20
-8.300000
30
-41.500000
70
192
0
VERTEX
8
OBJECT__22
10
15.425000
20
-10.442000
30
-47.500000
70
192
0
VERTEX
8
OBJECT__22
10
15.425000
20
-10.442000
30
-41.500000
70
192
0
VERTEX
8
OBJECT__22
10
12.551000
20
-8.300000
30
-47.500000
70
192
0
VERTEX
8
OBJECT__22
10
0
20
0
30
0
70
128
71
1
72
2
73
3
0
VERTEX
8
OBJECT__22
10
0
20
0
30
0
70
128
71
4
72
5
73
2
0
VERTEX
8
OBJECT__22
10
0
20
0
30
0
70
128
71
2
72
1
73
4
0
VERTEX
8
OBJECT__22
10
0
20
0
30
0
70
128
71
3
72
6
73
1
0
SEQEND
8
OBJECT__22
0
POLYLINE
8
OBJECT__23
66
1
70
64
71
38
72
36
62
253
0
VERTEX
8
OBJECT__23
10
20.419001
20
-20.819000
30
-47.500000
70
192
0
VERTEX
8
OBJECT__23
10
20.419001
20
-20.819000
30
-41.500000
70
192
0
VERTEX
8
OBJECT__23
10
15.425000
20
-10.442000
30
-41.500000
70
192
0
VERTEX
8
OBJECT__23
10
28.398001
20
-29.122999
30
-41.500000
70
192
0
VERTEX
8
OBJECT__23
10
38.566002
20
-34.528000
30
-47.500000
70
192
0
VERTEX
8
OBJECT__23
10
38.566002
20
-34.528000
30
-41.500000
70
192
0
VERTEX
8
OBJECT__23
10
49.912998
20
-36.497002
30
-47.500000
70
192
0
VERTEX
8
OBJECT__23
10
49.912998
20
-36.497002
30
-41.500000
70
192
0
VERTEX
8
OBJECT__23
10
61.307999
20
-34.832001
30
-47.500000
70
192
0
VERTEX
8
OBJECT__23
10
61.307999
20
-34.832001
30
-41.500000
70
192
0
VERTEX
8
OBJECT__23
10
71.616997
20
-29.700001
30
-47.500000
70
192
0
VERTEX
8
OBJECT__23
10
71.616997
20
-29.700001
30
-41.500000
70
192
0
VERTEX
8
OBJECT__23
10
79.814003
20
-21.612000
30
-47.500000
70
192
0
VERTEX
8
OBJECT__23
10
85.083000
20
-11.372000
30
-47.500000
70
192
0
VERTEX
8
OBJECT__23
10
85.083000
20
-11.372000
30
-41.500000
70
192
0
VERTEX
8
OBJECT__23
10
86.900002
20
0.000000
30
-41.500000
70
192
0
VERTEX
8
OBJECT__23
10
85.083000
20
11.372000
30
-41.500000
70
192
0
VERTEX
8
OBJECT__23
10
86.900002
20
0.000000
30
-47.500000
70
192
0
VERTEX
8
OBJECT__23
10
85.083000
20
11.372000
30
-47.500000
70
192
0
VERTEX
8
OBJECT__23
10
79.814003
20
21.612000
30
-47.500000
70
192
0
VERTEX
8
OBJECT__23
10
79.814003
20
21.612000
30
-41.500000
70
192
0
VERTEX
8
OBJECT__23
10
71.616997
20
29.700001
30
-47.500000
70
192
0
VERTEX
8
OBJECT__23
10
61.307999
20
34.832001
30
-47.500000
70
192
0
VERTEX
8
OBJECT__23
10
61.307999
20
34.832001
30
-41.500000
70
192
0
VERTEX
8
OBJECT__23
10
71.616997
20
29.700001
30
-41.500000
70
192
0
VERTEX
8
OBJECT__23
10
49.912998
20
36.497002
30
-47.500000
70
192
0
VERTEX
8
OBJECT__23
10
49.912998
20
36.497002
30
-41.500000
70
192
0
VERTEX
8
OBJECT__23
10
38.566002
20
34.528000
30
-47.500000
70
192
0
VERTEX
8
OBJECT__23
10
38.566002
20
34.528000
30
-41.500000
70
192
0
VERTEX
8
OBJECT__23
10
28.398001
20
29.122999
30
-47.500000
70
192
0
VERTEX
8
OBJECT__23
10
20.419001
20
20.819000
30
-41.500000
70
192
0
VERTEX
8
OBJECT__23
10
28.398001
20
29.122999
30
-41.500000
70
192
0
VERTEX
8
OBJECT__23
10
15.425000
20
10.442000
30
-47.500000
70
192
0
VERTEX
8
OBJECT__23
10
15.425000
20
10.442000
30
-41.500000
70
192
0
VERTEX
8
OBJECT__23
10
20.419001
20
20.819000
30
-47.500000
70
192
0
VERTEX
8
OBJECT__23
10
79.814003
20
-21.612000
30
-41.500000
70
192
0
VERTEX
8
OBJECT__23
10
28.398001
20
-29.122999
30
-47.500000
70
192
0
VERTEX
8
OBJECT__23
10
15.425000
20
-10.442000
30
-47.500000
70
192
0
VERTEX
8
OBJECT__23
10
0
20
0
30
0
70
128
71
1
72
2
73
3
0
VERTEX
8
OBJECT__23
10
0
20
0
30
0
70
128
71
4
72
2
73
1
0
VERTEX
8
OBJECT__23
10
0
20
0
30
0
70
128
71
5
72
6
73
4
0
VERTEX
8
OBJECT__23
10
0
20
0
30
0
70
128
71
7
72
8
73
6
0
VERTEX
8
OBJECT__23
10
0
20
0
30
0
70
128
71
9
72
10
73
8
0
VERTEX
8
OBJECT__23
10
0
20
0
30
0
70
128
71
9
72
11
73
12
0
VERTEX
8
OBJECT__23
10
0
20
0
30
0
70
128
71
12
72
11
73
13
0
VERTEX
8
OBJECT__23
10
0
20
0
30
0
70
128
71
13
72
14
73
15
0
VERTEX
8
OBJECT__23
10
0
20
0
30
0
70
128
71
16
72
15
73
14
0
VERTEX
8
OBJECT__23
10
0
20
0
30
0
70
128
71
17
72
16
73
18
0
VERTEX
8
OBJECT__23
10
0
20
0
30
0
70
128
71
19
72
20
73
21
0
VERTEX
8
OBJECT__23
10
0
20
0
30
0
70
128
71
21
72
20
73
22
0
VERTEX
8
OBJECT__23
10
0
20
0
30
0
70
128
71
23
72
24
73
25
0
VERTEX
8
OBJECT__23
10
0
20
0
30
0
70
128
71
26
72
27
73
24
0
VERTEX
8
OBJECT__23
10
0
20
0
30
0
70
128
71
28
72
29
73
27
0
VERTEX
8
OBJECT__23
10
0
20
0
30
0
70
128
71
29
72
28
73
30
0
VERTEX
8
OBJECT__23
10
0
20
0
30
0
70
128
71
31
72
32
73
30
0
VERTEX
8
OBJECT__23
10
0
20
0
30
0
70
128
71
33
72
34
73
31
0
VERTEX
8
OBJECT__23
10
0
20
0
30
0
70
128
71
31
72
35
73
33
0
VERTEX
8
OBJECT__23
10
0
20
0
30
0
70
128
71
30
72
35
73
31
0
VERTEX
8
OBJECT__23
10
0
20
0
30
0
70
128
71
30
72
32
73
29
0
VERTEX
8
OBJECT__23
10
0
20
0
30
0
70
128
71
27
72
26
73
28
0
VERTEX
8
OBJECT__23
10
0
20
0
30
0
70
128
71
24
72
23
73
26
0
VERTEX
8
OBJECT__23
10
0
20
0
30
0
70
128
71
25
72
22
73
23
0
VERTEX
8
OBJECT__23
10
0
20
0
30
0
70
128
71
22
72
25
73
21
0
VERTEX
8
OBJECT__23
10
0
20
0
30
0
70
128
71
21
72
17
73
19
0
VERTEX
8
OBJECT__23
10
0
20
0
30
0
70
128
71
18
72
19
73
17
0
VERTEX
8
OBJECT__23
10
0
20
0
30
0
70
128
71
14
72
18
73
16
0
VERTEX
8
OBJECT__23
10
0
20
0
30
0
70
128
71
15
72
36
73
13
0
VERTEX
8
OBJECT__23
10
0
20
0
30
0
70
128
71
13
72
36
73
12
0
VERTEX
8
OBJECT__23
10
0
20
0
30
0
70
128
71
12
72
10
73
9
0
VERTEX
8
OBJECT__23
10
0
20
0
30
0
70
128
71
8
72
7
73
9
0
VERTEX
8
OBJECT__23
10
0
20
0
30
0
70
128
71
6
72
5
73
7
0
VERTEX
8
OBJECT__23
10
0
20
0
30
0
70
128
71
4
72
37
73
5
0
VERTEX
8
OBJECT__23
10
0
20
0
30
0
70
128
71
1
72
37
73
4
0
VERTEX
8
OBJECT__23
10
0
20
0
30
0
70
128
71
3
72
38
73
1
0
SEQEND
8
OBJECT__23
0
POLYLINE
8
OBJECT__24
66
1
70
64
71
46
72
46
62
253
0
VERTEX
8
OBJECT__24
10
61.307999
20
34.832001
30
-47.500000
70
192
0
VERTEX
8
OBJECT__24
10
71.616997
20
29.700001
30
-47.500000
70
192
0
VERTEX
8
OBJECT__24
10
63.002998
20
23.878000
30
-47.500000
70
192
0
VERTEX
8
OBJECT__24
10
79.814003
20
21.612000
30
-47.500000
70
192
0
VERTEX
8
OBJECT__24
10
69.613998
20
18.969000
30
-47.500000
70
192
0
VERTEX
8
OBJECT__24
10
49.912998
20
36.497002
30
-47.500000
70
192
0
VERTEX
8
OBJECT__24
10
55.220001
20
26.566000
30
-47.500000
70
192
0
VERTEX
8
OBJECT__24
10
85.083000
20
11.372000
30
-47.500000
70
192
0
VERTEX
8
OBJECT__24
10
74.436996
20
12.297000
30
-47.500000
70
192
0
VERTEX
8
OBJECT__24
10
61.307999
20
-34.832001
30
-47.500000
70
192
0
VERTEX
8
OBJECT__24
10
55.942001
20
-26.424999
30
-47.500000
70
192
0
VERTEX
8
OBJECT__24
10
63.648998
20
-23.525999
30
-47.500000
70
192
0
VERTEX
8
OBJECT__24
10
49.912998
20
-36.497002
30
-47.500000
70
192
0
VERTEX
8
OBJECT__24
10
47.721001
20
-26.867001
30
-47.500000
70
192
0
VERTEX
8
OBJECT__24
10
77.026001
20
4.480000
30
-47.500000
70
192
0
VERTEX
8
OBJECT__24
10
86.900002
20
0.000000
30
-47.500000
70
192
0
VERTEX
8
OBJECT__24
10
77.138000
20
-3.753000
30
-47.500000
70
192
0
VERTEX
8
OBJECT__24
10
85.083000
20
-11.372000
30
-47.500000
70
192
0
VERTEX
8
OBJECT__24
10
74.764000
20
-11.637000
30
-47.500000
70
192
0
VERTEX
8
OBJECT__24
10
38.566002
20
-34.528000
30
-47.500000
70
192
0
VERTEX
8
OBJECT__24
10
39.748001
20
-24.809999
30
-47.500000
70
192
0
VERTEX
8
OBJECT__24
10
28.398001
20
-29.122999
30
-47.500000
70
192
0
VERTEX
8
OBJECT__24
10
32.765999
20
-20.445999
30
-47.500000
70
192
0
VERTEX
8
OBJECT__24
10
20.419001
20
-20.819000
30
-47.500000
70
192
0
VERTEX
8
OBJECT__24
10
27.423000
20
-14.180000
30
-47.500000
70
192
0
VERTEX
8
OBJECT__24
10
15.425000
20
-10.442000
30
-47.500000
70
192
0
VERTEX
8
OBJECT__24
10
24.218000
20
-6.596000
30
-47.500000
70
192
0
VERTEX
8
OBJECT__24
10
14.343000
20
-8.894000
30
-47.500000
70
192
0
VERTEX
8
OBJECT__24
10
24.048000
20
5.880000
30
-47.500000
70
192
0
VERTEX
8
OBJECT__24
10
23.403000
20
-0.368000
30
-47.500000
70
192
0
VERTEX
8
OBJECT__24
10
14.343000
20
8.894000
30
-47.500000
70
192
0
VERTEX
8
OBJECT__24
10
32.215000
20
19.958000
30
-47.500000
70
192
0
VERTEX
8
OBJECT__24
10
27.046000
20
13.549000
30
-47.500000
70
192
0
VERTEX
8
OBJECT__24
10
79.814003
20
-21.612000
30
-47.500000
70
192
0
VERTEX
8
OBJECT__24
10
70.123001
20
-18.438999
30
-47.500000
70
192
0
VERTEX
8
OBJECT__24
10
71.616997
20
-29.700001
30
-47.500000
70
192
0
VERTEX
8
OBJECT__24
10
39.076000
20
24.510000
30
-47.500000
70
192
0
VERTEX
8
OBJECT__24
10
15.425000
20
10.442000
30
-47.500000
70
192
0
VERTEX
8
OBJECT__24
10
20.419001
20
20.819000
30
-47.500000
70
192
0
VERTEX
8
OBJECT__24
10
12.551000
20
8.300000
30
-47.500000
70
192
0
VERTEX
8
OBJECT__24
10
4.900000
20
8.300000
30
-47.500000
70
192
0
VERTEX
8
OBJECT__24
10
12.551000
20
-8.300000
30
-47.500000
70
192
0
VERTEX
8
OBJECT__24
10
28.398001
20
29.122999
30
-47.500000
70
192
0
VERTEX
8
OBJECT__24
10
38.566002
20
34.528000
30
-47.500000
70
192
0
VERTEX
8
OBJECT__24
10
46.988998
20
26.784000
30
-47.500000
70
192
0
VERTEX
8
OBJECT__24
10
4.900000
20
-8.300000
30
-47.500000
70
192
0
VERTEX
8
OBJECT__24
10
0
20
0
30
0
70
128
71
1
72
2
73
3
0
VERTEX
8
OBJECT__24
10
0
20
0
30
0
70
128
71
2
72
4
73
5
0
VERTEX
8
OBJECT__24
10
0
20
0
30
0
70
128
71
6
72
1
73
7
0
VERTEX
8
OBJECT__24
10
0
20
0
30
0
70
128
71
5
72
3
73
2
0
VERTEX
8
OBJECT__24
10
0
20
0
30
0
70
128
71
4
72
8
73
9
0
VERTEX
8
OBJECT__24
10
0
20
0
30
0
70
128
71
10
72
11
73
12
0
VERTEX
8
OBJECT__24
10
0
20
0
30
0
70
128
71
13
72
14
73
11
0
VERTEX
8
OBJECT__24
10
0
20
0
30
0
70
128
71
3
72
7
73
1
0
VERTEX
8
OBJECT__24
10
0
20
0
30
0
70
128
71
8
72
15
73
9
0
VERTEX
8
OBJECT__24
10
0
20
0
30
0
70
128
71
16
72
17
73
15
0
VERTEX
8
OBJECT__24
10
0
20
0
30
0
70
128
71
18
72
19
73
17
0
VERTEX
8
OBJECT__24
10
0
20
0
30
0
70
128
71
11
72
10
73
13
0
VERTEX
8
OBJECT__24
10
0
20
0
30
0
70
128
71
20
72
21
73
14
0
VERTEX
8
OBJECT__24
10
0
20
0
30
0
70
128
71
22
72
23
73
21
0
VERTEX
8
OBJECT__24
10
0
20
0
30
0
70
128
71
24
72
25
73
23
0
VERTEX
8
OBJECT__24
10
0
20
0
30
0
70
128
71
26
72
27
73
25
0
VERTEX
8
OBJECT__24
10
0
20
0
30
0
70
128
71
28
72
29
73
30
0
VERTEX
8
OBJECT__24
10
0
20
0
30
0
70
128
71
31
72
32
73
33
0
VERTEX
8
OBJECT__24
10
0
20
0
30
0
70
128
71
9
72
5
73
4
0
VERTEX
8
OBJECT__24
10
0
20
0
30
0
70
128
71
17
72
16
73
18
0
VERTEX
8
OBJECT__24
10
0
20
0
30
0
70
128
71
34
72
35
73
19
0
VERTEX
8
OBJECT__24
10
0
20
0
30
0
70
128
71
36
72
12
73
35
0
VERTEX
8
OBJECT__24
10
0
20
0
30
0
70
128
71
14
72
13
73
20
0
VERTEX
8
OBJECT__24
10
0
20
0
30
0
70
128
71
23
72
22
73
24
0
VERTEX
8
OBJECT__24
10
0
20
0
30
0
70
128
71
25
72
24
73
26
0
VERTEX
8
OBJECT__24
10
0
20
0
30
0
70
128
71
28
72
33
73
29
0
VERTEX
8
OBJECT__24
10
0
20
0
30
0
70
128
71
37
72
38
73
39
0
VERTEX
8
OBJECT__24
10
0
20
0
30
0
70
128
71
28
72
40
73
31
0
VERTEX
8
OBJECT__24
10
0
20
0
30
0
70
128
71
41
72
40
73
42
0
VERTEX
8
OBJECT__24
10
0
20
0
30
0
70
128
71
15
72
8
73
16
0
VERTEX
8
OBJECT__24
10
0
20
0
30
0
70
128
71
35
72
34
73
36
0
VERTEX
8
OBJECT__24
10
0
20
0
30
0
70
128
71
21
72
20
73
22
0
VERTEX
8
OBJECT__24
10
0
20
0
30
0
70
128
71
30
72
27
73
28
0
VERTEX
8
OBJECT__24
10
0
20
0
30
0
70
128
71
39
72
43
73
37
0
VERTEX
8
OBJECT__24
10
0
20
0
30
0
70
128
71
31
72
37
73
32
0
VERTEX
8
OBJECT__24
10
0
20
0
30
0
70
128
71
40
72
28
73
42
0
VERTEX
8
OBJECT__24
10
0
20
0
30
0
70
128
71
19
72
18
73
34
0
VERTEX
8
OBJECT__24
10
0
20
0
30
0
70
128
71
26
72
28
73
27
0
VERTEX
8
OBJECT__24
10
0
20
0
30
0
70
128
71
37
72
31
73
38
0
VERTEX
8
OBJECT__24
10
0
20
0
30
0
70
128
71
44
72
6
73
45
0
VERTEX
8
OBJECT__24
10
0
20
0
30
0
70
128
71
42
72
46
73
41
0
VERTEX
8
OBJECT__24
10
0
20
0
30
0
70
128
71
12
72
36
73
10
0
VERTEX
8
OBJECT__24
10
0
20
0
30
0
70
128
71
45
72
37
73
44
0
VERTEX
8
OBJECT__24
10
0
20
0
30
0
70
128
71
7
72
45
73
6
0
VERTEX
8
OBJECT__24
10
0
20
0
30
0
70
128
71
33
72
28
73
31
0
VERTEX
8
OBJECT__24
10
0
20
0
30
0
70
128
71
43
72
44
73
37
0
SEQEND
8
OBJECT__24
0
POLYLINE
8
OBJECT__25
66
1
70
64
71
11
72
9
62
253
0
VERTEX
8
OBJECT__25
10
0.400000
20
8.300000
30
-46.293999
70
192
0
VERTEX
8
OBJECT__25
10
2.779000
20
8.300000
30
-40.620998
70
192
0
VERTEX
8
OBJECT__25
10
4.900000
20
8.300000
30
-41.500000
70
192
0
VERTEX
8
OBJECT__25
10
12.551000
20
8.300000
30
-47.500000
70
192
0
VERTEX
8
OBJECT__25
10
4.900000
20
8.300000
30
-47.500000
70
192
0
VERTEX
8
OBJECT__25
10
-2.894000
20
8.300000
30
-43.000000
70
192
0
VERTEX
8
OBJECT__25
10
-4.100000
20
8.300000
30
-38.500000
70
192
0
VERTEX
8
OBJECT__25
10
1.900000
20
8.300000
30
-38.500000
70
192
0
VERTEX
8
OBJECT__25
10
-4.100000
20
8.300000
30
-1.500000
70
192
0
VERTEX
8
OBJECT__25
10
1.900000
20
8.300000
30
-1.500000
70
192
0
VERTEX
8
OBJECT__25
10
12.551000
20
8.300000
30
-41.500000
70
192
0
VERTEX
8
OBJECT__25
10
0
20
0
30
0
70
128
71
1
72
2
73
3
0
VERTEX
8
OBJECT__25
10
0
20
0
30
0
70
128
71
4
72
5
73
3
0
VERTEX
8
OBJECT__25
10
0
20
0
30
0
70
128
71
3
72
5
73
1
0
VERTEX
8
OBJECT__25
10
0
20
0
30
0
70
128
71
6
72
7
73
8
0
VERTEX
8
OBJECT__25
10
0
20
0
30
0
70
128
71
9
72
10
73
8
0
VERTEX
8
OBJECT__25
10
0
20
0
30
0
70
128
71
1
72
6
73
2
0
VERTEX
8
OBJECT__25
10
0
20
0
30
0
70
128
71
8
72
7
73
9
0
VERTEX
8
OBJECT__25
10
0
20
0
30
0
70
128
71
8
72
2
73
6
0
VERTEX
8
OBJECT__25
10
0
20
0
30
0
70
128
71
3
72
11
73
4
0
SEQEND
8
OBJECT__25
0
POLYLINE
8
OBJECT__26
66
1
70
64
71
11
72
9
62
253
0
VERTEX
8
OBJECT__26
10
0.400000
20
-8.300000
30
-46.293999
70
192
0
VERTEX
8
OBJECT__26
10
4.900000
20
-8.300000
30
-47.500000
70
192
0
VERTEX
8
OBJECT__26
10
4.900000
20
-8.300000
30
-41.500000
70
192
0
VERTEX
8
OBJECT__26
10
-4.100000
20
-8.300000
30
-1.500000
70
192
0
VERTEX
8
OBJECT__26
10
-4.100000
20
-8.300000
30
-38.500000
70
192
0
VERTEX
8
OBJECT__26
10
1.900000
20
-8.300000
30
-38.500000
70
192
0
VERTEX
8
OBJECT__26
10
-2.894000
20
-8.300000
30
-43.000000
70
192
0
VERTEX
8
OBJECT__26
10
2.779000
20
-8.300000
30
-40.620998
70
192
0
VERTEX
8
OBJECT__26
10
12.551000
20
-8.300000
30
-41.500000
70
192
0
VERTEX
8
OBJECT__26
10
12.551000
20
-8.300000
30
-47.500000
70
192
0
VERTEX
8
OBJECT__26
10
1.900000
20
-8.300000
30
-1.500000
70
192
0
VERTEX
8
OBJECT__26
10
0
20
0
30
0
70
128
71
1
72
2
73
3
0
VERTEX
8
OBJECT__26
10
0
20
0
30
0
70
128
71
4
72
5
73
6
0
VERTEX
8
OBJECT__26
10
0
20
0
30
0
70
128
71
7
72
8
73
6
0
VERTEX
8
OBJECT__26
10
0
20
0
30
0
70
128
71
8
72
7
73
1
0
VERTEX
8
OBJECT__26
10
0
20
0
30
0
70
128
71
9
72
3
73
2
0
VERTEX
8
OBJECT__26
10
0
20
0
30
0
70
128
71
6
72
5
73
7
0
VERTEX
8
OBJECT__26
10
0
20
0
30
0
70
128
71
2
72
10
73
9
0
VERTEX
8
OBJECT__26
10
0
20
0
30
0
70
128
71
3
72
8
73
1
0
VERTEX
8
OBJECT__26
10
0
20
0
30
0
70
128
71
6
72
11
73
4
0
SEQEND
8
OBJECT__26
0
POLYLINE
8
OBJECT__27
66
1
70
64
71
8
72
6
62
253
0
VERTEX
8
OBJECT__27
10
-2.894000
20
8.300000
30
-43.000000
70
192
0
VERTEX
8
OBJECT__27
10
-2.894000
20
-8.300000
30
-43.000000
70
192
0
VERTEX
8
OBJECT__27
10
-4.100000
20
-8.300000
30
-38.500000
70
192
0
VERTEX
8
OBJECT__27
10
0.400000
20
-8.300000
30
-46.293999
70
192
0
VERTEX
8
OBJECT__27
10
4.900000
20
8.300000
30
-47.500000
70
192
0
VERTEX
8
OBJECT__27
10
4.900000
20
-8.300000
30
-47.500000
70
192
0
VERTEX
8
OBJECT__27
10
0.400000
20
8.300000
30
-46.293999
70
192
0
VERTEX
8
OBJECT__27
10
-4.100000
20
8.300000
30
-38.500000
70
192
0
VERTEX
8
OBJECT__27
10
0
20
0
30
0
70
128
71
1
72
2
73
3
0
VERTEX
8
OBJECT__27
10
0
20
0
30
0
70
128
71
4
72
2
73
1
0
VERTEX
8
OBJECT__27
10
0
20
0
30
0
70
128
71
5
72
6
73
4
0
VERTEX
8
OBJECT__27
10
0
20
0
30
0
70
128
71
4
72
7
73
5
0
VERTEX
8
OBJECT__27
10
0
20
0
30
0
70
128
71
1
72
7
73
4
0
VERTEX
8
OBJECT__27
10
0
20
0
30
0
70
128
71
3
72
8
73
1
0
SEQEND
8
OBJECT__27
0
POLYLINE
8
OBJECT__28
66
1
70
64
71
18
72
18
62
253
0
VERTEX
8
OBJECT__28
10
-4.100000
20
-8.300000
30
-1.500000
70
192
0
VERTEX
8
OBJECT__28
10
-4.100000
20
-4.924000
30
-2.368000
70
192
0
VERTEX
8
OBJECT__28
10
-4.100000
20
-3.214000
30
-5.330000
70
192
0
VERTEX
8
OBJECT__28
10
-4.100000
20
-8.300000
30
-38.500000
70
192
0
VERTEX
8
OBJECT__28
10
-4.100000
20
-7.188000
30
2.650000
70
192
0
VERTEX
8
OBJECT__28
10
-4.100000
20
-4.330000
30
1.000000
70
192
0
VERTEX
8
OBJECT__28
10
-4.100000
20
0.000000
30
6.800000
70
192
0
VERTEX
8
OBJECT__28
10
-4.100000
20
4.150000
30
5.688000
70
192
0
VERTEX
8
OBJECT__28
10
-4.100000
20
1.710000
30
3.198000
70
192
0
VERTEX
8
OBJECT__28
10
-4.100000
20
8.300000
30
-1.500000
70
192
0
VERTEX
8
OBJECT__28
10
-4.100000
20
4.924000
30
-2.368000
70
192
0
VERTEX
8
OBJECT__28
10
-4.100000
20
4.330000
30
1.000000
70
192
0
VERTEX
8
OBJECT__28
10
-4.100000
20
8.300000
30
-38.500000
70
192
0
VERTEX
8
OBJECT__28
10
-4.100000
20
3.214000
30
-5.330000
70
192
0
VERTEX
8
OBJECT__28
10
-4.100000
20
0.000000
30
-6.500000
70
192
0
VERTEX
8
OBJECT__28
10
-4.100000
20
-4.150000
30
5.688000
70
192
0
VERTEX
8
OBJECT__28
10
-4.100000
20
-1.710000
30
3.198000
70
192
0
VERTEX
8
OBJECT__28
10
-4.100000
20
7.188000
30
2.650000
70
192
0
VERTEX
8
OBJECT__28
10
0
20
0
30
0
70
128
71
1
72
2
73
3
0
VERTEX
8
OBJECT__28
10
0
20
0
30
0
70
128
71
3
72
4
73
1
0
VERTEX
8
OBJECT__28
10
0
20
0
30
0
70
128
71
1
72
5
73
6
0
VERTEX
8
OBJECT__28
10
0
20
0
30
0
70
128
71
7
72
8
73
9
0
VERTEX
8
OBJECT__28
10
0
20
0
30
0
70
128
71
10
72
11
73
12
0
VERTEX
8
OBJECT__28
10
0
20
0
30
0
70
128
71
10
72
13
73
14
0
VERTEX
8
OBJECT__28
10
0
20
0
30
0
70
128
71
13
72
4
73
15
0
VERTEX
8
OBJECT__28
10
0
20
0
30
0
70
128
71
6
72
2
73
1
0
VERTEX
8
OBJECT__28
10
0
20
0
30
0
70
128
71
16
72
17
73
6
0
VERTEX
8
OBJECT__28
10
0
20
0
30
0
70
128
71
17
72
16
73
7
0
VERTEX
8
OBJECT__28
10
0
20
0
30
0
70
128
71
8
72
18
73
12
0
VERTEX
8
OBJECT__28
10
0
20
0
30
0
70
128
71
14
72
11
73
10
0
VERTEX
8
OBJECT__28
10
0
20
0
30
0
70
128
71
3
72
15
73
4
0
VERTEX
8
OBJECT__28
10
0
20
0
30
0
70
128
71
9
72
17
73
7
0
VERTEX
8
OBJECT__28
10
0
20
0
30
0
70
128
71
12
72
18
73
10
0
VERTEX
8
OBJECT__28
10
0
20
0
30
0
70
128
71
6
72
5
73
16
0
VERTEX
8
OBJECT__28
10
0
20
0
30
0
70
128
71
15
72
14
73
13
0
VERTEX
8
OBJECT__28
10
0
20
0
30
0
70
128
71
12
72
9
73
8
0
SEQEND
8
OBJECT__28
0
ENDSEC
0
EOF
