999
Converted by 3D Exploration 
999
XDimension Software, LLC
999
http://www.xdsoft.com/explorer/
0
SECTION
2
HEADER
9
$ACADVER
1
AC1008
9
$UCSORG
10
0.0
20
0.0
30
0.0
9
$UCSXDIR
10
1.0
20
0.0
30
0.0
9
$TILEMODE
70
1
9
$UCSYDIR
10
0.0
20
1.0
30
0.0
9
$EXTMIN
10
-47.500000
20
-237.500000
30
-237.500000
9
$EXTMAX
10
216.972000
20
237.500000
30
250.453995
0
ENDSEC
0
SECTION
2
TABLES
0
TABLE
2
LTYPE
70
1
0
LTYPE
2
CONTINUOUS
70
64
3
Solid line
72
65
73
0
40
0.0
0
ENDTAB
0
TABLE
2
LAYER
70
135
0
LAYER
2
OBJECT__0
70
0
62
253
6
CONTINUOUS
0
LAYER
2
OBJECT__1
70
0
62
253
6
CONTINUOUS
0
LAYER
2
OBJECT__3
70
0
62
253
6
CONTINUOUS
0
LAYER
2
OBJECT__4
70
0
62
253
6
CONTINUOUS
0
LAYER
2
OBJECT__5
70
0
62
253
6
CONTINUOUS
0
LAYER
2
OBJECT__6
70
0
62
253
6
CONTINUOUS
0
LAYER
2
OBJECT__7
70
0
62
253
6
CONTINUOUS
0
LAYER
2
OBJECT__8
70
0
62
253
6
CONTINUOUS
0
LAYER
2
OBJECT__9
70
0
62
253
6
CONTINUOUS
0
LAYER
2
OBJECT__10
70
0
62
253
6
CONTINUOUS
0
LAYER
2
OBJECT__11
70
0
62
253
6
CONTINUOUS
0
LAYER
2
OBJECT__12
70
0
62
253
6
CONTINUOUS
0
LAYER
2
OBJECT__13
70
0
62
253
6
CONTINUOUS
0
LAYER
2
OBJECT__14
70
0
62
253
6
CONTINUOUS
0
LAYER
2
OBJECT__15
70
0
62
253
6
CONTINUOUS
0
LAYER
2
OBJECT__17
70
0
62
253
6
CONTINUOUS
0
LAYER
2
OBJECT__18
70
0
62
253
6
CONTINUOUS
0
LAYER
2
OBJECT__19
70
0
62
253
6
CONTINUOUS
0
LAYER
2
OBJECT__20
70
0
62
253
6
CONTINUOUS
0
LAYER
2
OBJECT__21
70
0
62
253
6
CONTINUOUS
0
LAYER
2
OBJECT__22
70
0
62
253
6
CONTINUOUS
0
LAYER
2
OBJECT__23
70
0
62
253
6
CONTINUOUS
0
LAYER
2
OBJECT__24
70
0
62
253
6
CONTINUOUS
0
LAYER
2
OBJECT__25
70
0
62
253
6
CONTINUOUS
0
LAYER
2
OBJECT__26
70
0
62
253
6
CONTINUOUS
0
LAYER
2
OBJECT__27
70
0
62
253
6
CONTINUOUS
0
LAYER
2
OBJECT__28
70
0
62
253
6
CONTINUOUS
0
LAYER
2
OBJECT__29
70
0
62
253
6
CONTINUOUS
0
LAYER
2
OBJECT__30
70
0
62
253
6
CONTINUOUS
0
LAYER
2
OBJECT__31
70
0
62
253
6
CONTINUOUS
0
LAYER
2
OBJECT__32
70
0
62
253
6
CONTINUOUS
0
LAYER
2
OBJECT__33
70
0
62
253
6
CONTINUOUS
0
LAYER
2
OBJECT__34
70
0
62
253
6
CONTINUOUS
0
LAYER
2
OBJECT__36
70
0
62
253
6
CONTINUOUS
0
LAYER
2
OBJECT__37
70
0
62
253
6
CONTINUOUS
0
LAYER
2
OBJECT__39
70
0
62
253
6
CONTINUOUS
0
LAYER
2
OBJECT__40
70
0
62
253
6
CONTINUOUS
0
LAYER
2
OBJECT__41
70
0
62
253
6
CONTINUOUS
0
LAYER
2
OBJECT__42
70
0
62
253
6
CONTINUOUS
0
LAYER
2
OBJECT__44
70
0
62
253
6
CONTINUOUS
0
LAYER
2
OBJECT__45
70
0
62
253
6
CONTINUOUS
0
LAYER
2
OBJECT__46
70
0
62
253
6
CONTINUOUS
0
LAYER
2
OBJECT__47
70
0
62
253
6
CONTINUOUS
0
LAYER
2
OBJECT__48
70
0
62
253
6
CONTINUOUS
0
LAYER
2
OBJECT__49
70
0
62
253
6
CONTINUOUS
0
LAYER
2
OBJECT__50
70
0
62
253
6
CONTINUOUS
0
LAYER
2
OBJECT__51
70
0
62
253
6
CONTINUOUS
0
LAYER
2
OBJECT__52
70
0
62
253
6
CONTINUOUS
0
LAYER
2
OBJECT__53
70
0
62
253
6
CONTINUOUS
0
LAYER
2
OBJECT__54
70
0
62
253
6
CONTINUOUS
0
LAYER
2
OBJECT__55
70
0
62
253
6
CONTINUOUS
0
LAYER
2
OBJECT__56
70
0
62
253
6
CONTINUOUS
0
LAYER
2
OBJECT__57
70
0
62
253
6
CONTINUOUS
0
LAYER
2
OBJECT__58
70
0
62
253
6
CONTINUOUS
0
LAYER
2
OBJECT__59
70
0
62
253
6
CONTINUOUS
0
LAYER
2
OBJECT__60
70
0
62
253
6
CONTINUOUS
0
LAYER
2
OBJECT__61
70
0
62
253
6
CONTINUOUS
0
LAYER
2
OBJECT__62
70
0
62
253
6
CONTINUOUS
0
LAYER
2
OBJECT__63
70
0
62
253
6
CONTINUOUS
0
LAYER
2
OBJECT__64
70
0
62
253
6
CONTINUOUS
0
LAYER
2
OBJECT__65
70
0
62
253
6
CONTINUOUS
0
LAYER
2
OBJECT__66
70
0
62
253
6
CONTINUOUS
0
LAYER
2
OBJECT__67
70
0
62
253
6
CONTINUOUS
0
LAYER
2
OBJECT__68
70
0
62
253
6
CONTINUOUS
0
LAYER
2
OBJECT__69
70
0
62
253
6
CONTINUOUS
0
LAYER
2
OBJECT__70
70
0
62
253
6
CONTINUOUS
0
LAYER
2
OBJECT__71
70
0
62
253
6
CONTINUOUS
0
LAYER
2
OBJECT__72
70
0
62
253
6
CONTINUOUS
0
LAYER
2
OBJECT__73
70
0
62
253
6
CONTINUOUS
0
LAYER
2
OBJECT__74
70
0
62
253
6
CONTINUOUS
0
LAYER
2
OBJECT__75
70
0
62
253
6
CONTINUOUS
0
LAYER
2
OBJECT__76
70
0
62
253
6
CONTINUOUS
0
LAYER
2
OBJECT__78
70
0
62
253
6
CONTINUOUS
0
LAYER
2
OBJECT__79
70
0
62
253
6
CONTINUOUS
0
LAYER
2
OBJECT__80
70
0
62
253
6
CONTINUOUS
0
LAYER
2
OBJECT__81
70
0
62
253
6
CONTINUOUS
0
LAYER
2
OBJECT__82
70
0
62
253
6
CONTINUOUS
0
LAYER
2
OBJECT__83
70
0
62
253
6
CONTINUOUS
0
LAYER
2
OBJECT__84
70
0
62
253
6
CONTINUOUS
0
LAYER
2
OBJECT__85
70
0
62
253
6
CONTINUOUS
0
LAYER
2
OBJECT__86
70
0
62
253
6
CONTINUOUS
0
LAYER
2
OBJECT__87
70
0
62
253
6
CONTINUOUS
0
LAYER
2
OBJECT__88
70
0
62
253
6
CONTINUOUS
0
LAYER
2
OBJECT__89
70
0
62
253
6
CONTINUOUS
0
LAYER
2
OBJECT__90
70
0
62
253
6
CONTINUOUS
0
LAYER
2
OBJECT__91
70
0
62
253
6
CONTINUOUS
0
LAYER
2
OBJECT__92
70
0
62
253
6
CONTINUOUS
0
LAYER
2
OBJECT__93
70
0
62
253
6
CONTINUOUS
0
LAYER
2
OBJECT__94
70
0
62
253
6
CONTINUOUS
0
LAYER
2
OBJECT__95
70
0
62
253
6
CONTINUOUS
0
LAYER
2
OBJECT__97
70
0
62
253
6
CONTINUOUS
0
LAYER
2
OBJECT__98
70
0
62
253
6
CONTINUOUS
0
LAYER
2
OBJECT__100
70
0
62
253
6
CONTINUOUS
0
LAYER
2
OBJECT__101
70
0
62
253
6
CONTINUOUS
0
LAYER
2
OBJECT__103
70
0
62
253
6
CONTINUOUS
0
LAYER
2
OBJECT__104
70
0
62
253
6
CONTINUOUS
0
LAYER
2
OBJECT__106
70
0
62
253
6
CONTINUOUS
0
LAYER
2
OBJECT__107
70
0
62
253
6
CONTINUOUS
0
LAYER
2
OBJECT__108
70
0
62
253
6
CONTINUOUS
0
LAYER
2
OBJECT__109
70
0
62
253
6
CONTINUOUS
0
LAYER
2
OBJECT__111
70
0
62
253
6
CONTINUOUS
0
LAYER
2
OBJECT__112
70
0
62
253
6
CONTINUOUS
0
LAYER
2
OBJECT__113
70
0
62
253
6
CONTINUOUS
0
LAYER
2
OBJECT__114
70
0
62
253
6
CONTINUOUS
0
LAYER
2
OBJECT__116
70
0
62
253
6
CONTINUOUS
0
LAYER
2
OBJECT__117
70
0
62
253
6
CONTINUOUS
0
LAYER
2
OBJECT__118
70
0
62
253
6
CONTINUOUS
0
LAYER
2
OBJECT__119
70
0
62
253
6
CONTINUOUS
0
LAYER
2
OBJECT__120
70
0
62
253
6
CONTINUOUS
0
LAYER
2
OBJECT__121
70
0
62
253
6
CONTINUOUS
0
LAYER
2
OBJECT__122
70
0
62
253
6
CONTINUOUS
0
LAYER
2
OBJECT__123
70
0
62
253
6
CONTINUOUS
0
LAYER
2
OBJECT__124
70
0
62
253
6
CONTINUOUS
0
LAYER
2
OBJECT__125
70
0
62
253
6
CONTINUOUS
0
LAYER
2
OBJECT__126
70
0
62
253
6
CONTINUOUS
0
LAYER
2
OBJECT__127
70
0
62
253
6
CONTINUOUS
0
LAYER
2
OBJECT__128
70
0
62
253
6
CONTINUOUS
0
LAYER
2
OBJECT__129
70
0
62
253
6
CONTINUOUS
0
LAYER
2
OBJECT__130
70
0
62
253
6
CONTINUOUS
0
LAYER
2
OBJECT__131
70
0
62
253
6
CONTINUOUS
0
LAYER
2
OBJECT__132
70
0
62
253
6
CONTINUOUS
0
LAYER
2
OBJECT__133
70
0
62
253
6
CONTINUOUS
0
LAYER
2
OBJECT__134
70
0
62
253
6
CONTINUOUS
0
ENDTAB
0
TABLE
2
STYLE
70
1
0
STYLE
2
STANDARD
70
0
40
0.0
41
1.0
50
0.0
71
0
42
0.2
3
txt
4
1
0
ENDTAB
0
TABLE
2
UCS
70
0
0
ENDTAB
0
ENDSEC
0
SECTION
2
ENTITIES
0
POLYLINE
8
OBJECT__0
66
1
70
64
71
37
72
36
62
253
0
VERTEX
8
OBJECT__0
10
-1.130000
20
190.000000
30
83.185997
70
192
0
VERTEX
8
OBJECT__0
10
23.719999
20
182.335999
30
83.335999
70
192
0
VERTEX
8
OBJECT__0
10
24.065001
20
184.630997
30
83.345001
70
192
0
VERTEX
8
OBJECT__0
10
15.088000
20
169.671997
30
83.110001
70
192
0
VERTEX
8
OBJECT__0
10
19.834000
20
174.789001
30
83.234001
70
192
0
VERTEX
8
OBJECT__0
10
8.379000
20
165.796997
30
82.934998
70
192
0
VERTEX
8
OBJECT__0
10
11.734000
20
167.735001
30
83.022003
70
192
0
VERTEX
8
OBJECT__0
10
0.826000
20
164.072998
30
82.737000
70
192
0
VERTEX
8
OBJECT__0
10
1.577000
20
164.244003
30
82.755997
70
192
0
VERTEX
8
OBJECT__0
10
-14.112000
20
167.483002
30
82.346001
70
192
0
VERTEX
8
OBJECT__0
10
-9.059000
20
165.500000
30
82.477997
70
192
0
VERTEX
8
OBJECT__0
10
-20.170000
20
172.315994
30
82.186996
70
192
0
VERTEX
8
OBJECT__0
10
-18.356001
20
170.869003
30
82.234001
70
192
0
VERTEX
8
OBJECT__0
10
-26.818001
20
186.125000
30
82.013000
70
192
0
VERTEX
8
OBJECT__0
10
-24.761000
20
179.455994
30
82.067001
70
192
0
VERTEX
8
OBJECT__0
10
-26.818001
20
193.875000
30
82.013000
70
192
0
VERTEX
8
OBJECT__0
10
-27.108000
20
190.000000
30
82.004997
70
192
0
VERTEX
8
OBJECT__0
10
-24.534000
20
201.281006
30
82.072998
70
192
0
VERTEX
8
OBJECT__0
10
-24.761000
20
200.544006
30
82.067001
70
192
0
VERTEX
8
OBJECT__0
10
-14.112000
20
212.516998
30
82.346001
70
192
0
VERTEX
8
OBJECT__0
10
-18.356001
20
209.130997
30
82.234001
70
192
0
VERTEX
8
OBJECT__0
10
-6.900000
20
215.348007
30
82.533997
70
192
0
VERTEX
8
OBJECT__0
10
-9.059000
20
214.500000
30
82.477997
70
192
0
VERTEX
8
OBJECT__0
10
8.379000
20
214.203003
30
82.934998
70
192
0
VERTEX
8
OBJECT__0
10
1.577000
20
215.755997
30
82.755997
70
192
0
VERTEX
8
OBJECT__0
10
15.088000
20
210.328003
30
83.110001
70
192
0
VERTEX
8
OBJECT__0
10
11.734000
20
212.264999
30
83.022003
70
192
0
VERTEX
8
OBJECT__0
10
20.358000
20
204.645996
30
83.248001
70
192
0
VERTEX
8
OBJECT__0
10
19.834000
20
205.210999
30
83.234001
70
192
0
VERTEX
8
OBJECT__0
10
24.874001
20
190.000000
30
83.365997
70
192
0
VERTEX
8
OBJECT__0
10
24.065001
20
195.369003
30
83.345001
70
192
0
VERTEX
8
OBJECT__0
10
23.719999
20
197.664001
30
83.335999
70
192
0
VERTEX
8
OBJECT__0
10
0.826000
20
215.927002
30
82.737000
70
192
0
VERTEX
8
OBJECT__0
10
-20.170000
20
207.684006
30
82.186996
70
192
0
VERTEX
8
OBJECT__0
10
-24.534000
20
178.718994
30
82.072998
70
192
0
VERTEX
8
OBJECT__0
10
-6.900000
20
164.651993
30
82.533997
70
192
0
VERTEX
8
OBJECT__0
10
20.358000
20
175.354004
30
83.248001
70
192
0
VERTEX
8
OBJECT__0
10
0
20
0
30
0
70
128
71
1
72
2
73
3
0
VERTEX
8
OBJECT__0
10
0
20
0
30
0
70
128
71
1
72
4
73
5
0
VERTEX
8
OBJECT__0
10
0
20
0
30
0
70
128
71
1
72
6
73
7
0
VERTEX
8
OBJECT__0
10
0
20
0
30
0
70
128
71
1
72
8
73
9
0
VERTEX
8
OBJECT__0
10
0
20
0
30
0
70
128
71
1
72
10
73
11
0
VERTEX
8
OBJECT__0
10
0
20
0
30
0
70
128
71
1
72
12
73
13
0
VERTEX
8
OBJECT__0
10
0
20
0
30
0
70
128
71
1
72
14
73
15
0
VERTEX
8
OBJECT__0
10
0
20
0
30
0
70
128
71
1
72
16
73
17
0
VERTEX
8
OBJECT__0
10
0
20
0
30
0
70
128
71
1
72
18
73
19
0
VERTEX
8
OBJECT__0
10
0
20
0
30
0
70
128
71
1
72
20
73
21
0
VERTEX
8
OBJECT__0
10
0
20
0
30
0
70
128
71
1
72
22
73
23
0
VERTEX
8
OBJECT__0
10
0
20
0
30
0
70
128
71
1
72
24
73
25
0
VERTEX
8
OBJECT__0
10
0
20
0
30
0
70
128
71
1
72
26
73
27
0
VERTEX
8
OBJECT__0
10
0
20
0
30
0
70
128
71
1
72
28
73
29
0
VERTEX
8
OBJECT__0
10
0
20
0
30
0
70
128
71
1
72
30
73
31
0
VERTEX
8
OBJECT__0
10
0
20
0
30
0
70
128
71
31
72
32
73
1
0
VERTEX
8
OBJECT__0
10
0
20
0
30
0
70
128
71
32
72
28
73
1
0
VERTEX
8
OBJECT__0
10
0
20
0
30
0
70
128
71
29
72
26
73
1
0
VERTEX
8
OBJECT__0
10
0
20
0
30
0
70
128
71
27
72
24
73
1
0
VERTEX
8
OBJECT__0
10
0
20
0
30
0
70
128
71
25
72
33
73
1
0
VERTEX
8
OBJECT__0
10
0
20
0
30
0
70
128
71
33
72
22
73
1
0
VERTEX
8
OBJECT__0
10
0
20
0
30
0
70
128
71
23
72
20
73
1
0
VERTEX
8
OBJECT__0
10
0
20
0
30
0
70
128
71
21
72
34
73
1
0
VERTEX
8
OBJECT__0
10
0
20
0
30
0
70
128
71
34
72
18
73
1
0
VERTEX
8
OBJECT__0
10
0
20
0
30
0
70
128
71
19
72
16
73
1
0
VERTEX
8
OBJECT__0
10
0
20
0
30
0
70
128
71
17
72
14
73
1
0
VERTEX
8
OBJECT__0
10
0
20
0
30
0
70
128
71
15
72
35
73
1
0
VERTEX
8
OBJECT__0
10
0
20
0
30
0
70
128
71
35
72
12
73
1
0
VERTEX
8
OBJECT__0
10
0
20
0
30
0
70
128
71
13
72
10
73
1
0
VERTEX
8
OBJECT__0
10
0
20
0
30
0
70
128
71
11
72
36
73
1
0
VERTEX
8
OBJECT__0
10
0
20
0
30
0
70
128
71
36
72
8
73
1
0
VERTEX
8
OBJECT__0
10
0
20
0
30
0
70
128
71
9
72
6
73
1
0
VERTEX
8
OBJECT__0
10
0
20
0
30
0
70
128
71
7
72
4
73
1
0
VERTEX
8
OBJECT__0
10
0
20
0
30
0
70
128
71
5
72
37
73
1
0
VERTEX
8
OBJECT__0
10
0
20
0
30
0
70
128
71
37
72
2
73
1
0
VERTEX
8
OBJECT__0
10
0
20
0
30
0
70
128
71
3
72
30
73
1
0
SEQEND
8
OBJECT__0
0
POLYLINE
8
OBJECT__1
66
1
70
64
71
70
72
72
62
253
0
VERTEX
8
OBJECT__1
10
2.503000
20
215.858002
30
48.269001
70
192
0
VERTEX
8
OBJECT__1
10
1.577000
20
215.755997
30
82.755997
70
192
0
VERTEX
8
OBJECT__1
10
8.379000
20
214.203003
30
82.934998
70
192
0
VERTEX
8
OBJECT__1
10
12.782000
20
212.516998
30
48.537998
70
192
0
VERTEX
8
OBJECT__1
10
20.813999
20
205.281998
30
48.748001
70
192
0
VERTEX
8
OBJECT__1
10
15.088000
20
210.328003
30
83.110001
70
192
0
VERTEX
8
OBJECT__1
10
11.734000
20
212.264999
30
83.022003
70
192
0
VERTEX
8
OBJECT__1
10
20.813999
20
174.718002
30
48.748001
70
192
0
VERTEX
8
OBJECT__1
10
19.834000
20
174.789001
30
83.234001
70
192
0
VERTEX
8
OBJECT__1
10
15.088000
20
169.671997
30
83.110001
70
192
0
VERTEX
8
OBJECT__1
10
12.782000
20
167.483002
30
48.537998
70
192
0
VERTEX
8
OBJECT__1
10
2.503000
20
164.141998
30
48.269001
70
192
0
VERTEX
8
OBJECT__1
10
8.379000
20
165.796997
30
82.934998
70
192
0
VERTEX
8
OBJECT__1
10
11.734000
20
167.735001
30
83.022003
70
192
0
VERTEX
8
OBJECT__1
10
24.424000
20
195.406006
30
78.852997
70
192
0
VERTEX
8
OBJECT__1
10
24.065001
20
195.369003
30
83.345001
70
192
0
VERTEX
8
OBJECT__1
10
24.874001
20
190.000000
30
83.365997
70
192
0
VERTEX
8
OBJECT__1
10
24.424000
20
184.593994
30
78.852997
70
192
0
VERTEX
8
OBJECT__1
10
25.209000
20
195.406006
30
48.862999
70
192
0
VERTEX
8
OBJECT__1
10
23.018999
20
200.399994
30
71.314003
70
192
0
VERTEX
8
OBJECT__1
10
19.834000
20
205.210999
30
83.234001
70
192
0
VERTEX
8
OBJECT__1
10
20.358000
20
204.645996
30
83.248001
70
192
0
VERTEX
8
OBJECT__1
10
22.822001
20
200.399994
30
78.810997
70
192
0
VERTEX
8
OBJECT__1
10
23.719999
20
197.664001
30
83.335999
70
192
0
VERTEX
8
OBJECT__1
10
24.621000
20
195.406006
30
71.356003
70
192
0
VERTEX
8
OBJECT__1
10
24.621000
20
184.593994
30
71.356003
70
192
0
VERTEX
8
OBJECT__1
10
23.719999
20
182.335999
30
83.335999
70
192
0
VERTEX
8
OBJECT__1
10
20.358000
20
175.354004
30
83.248001
70
192
0
VERTEX
8
OBJECT__1
10
22.822001
20
179.600006
30
78.810997
70
192
0
VERTEX
8
OBJECT__1
10
24.065001
20
184.630997
30
83.345001
70
192
0
VERTEX
8
OBJECT__1
10
23.018999
20
179.600006
30
71.314003
70
192
0
VERTEX
8
OBJECT__1
10
25.209000
20
184.593994
30
48.862999
70
192
0
VERTEX
8
OBJECT__1
10
0.826000
20
215.927002
30
82.737000
70
192
0
VERTEX
8
OBJECT__1
10
-0.214000
20
216.000000
30
48.198002
70
192
0
VERTEX
8
OBJECT__1
10
-8.364000
20
214.658005
30
52.999001
70
192
0
VERTEX
8
OBJECT__1
10
-6.900000
20
215.348007
30
82.533997
70
192
0
VERTEX
8
OBJECT__1
10
-9.059000
20
214.500000
30
82.477997
70
192
0
VERTEX
8
OBJECT__1
10
-14.112000
20
212.516998
30
82.346001
70
192
0
VERTEX
8
OBJECT__1
10
-16.468000
20
210.494995
30
57.771999
70
192
0
VERTEX
8
OBJECT__1
10
-17.712000
20
209.160004
30
58.505001
70
192
0
VERTEX
8
OBJECT__1
10
-18.356001
20
209.130997
30
82.234001
70
192
0
VERTEX
8
OBJECT__1
10
-8.809000
20
214.585007
30
53.261002
70
192
0
VERTEX
8
OBJECT__1
10
-20.170000
20
207.684006
30
82.186996
70
192
0
VERTEX
8
OBJECT__1
10
-22.358999
20
204.173996
30
61.242001
70
192
0
VERTEX
8
OBJECT__1
10
-24.014999
20
200.432999
30
62.217999
70
192
0
VERTEX
8
OBJECT__1
10
-24.761000
20
200.544006
30
82.067001
70
192
0
VERTEX
8
OBJECT__1
10
-24.534000
20
201.281006
30
82.072998
70
192
0
VERTEX
8
OBJECT__1
10
-26.351999
20
189.977997
30
63.595001
70
192
0
VERTEX
8
OBJECT__1
10
-27.108000
20
190.000000
30
82.004997
70
192
0
VERTEX
8
OBJECT__1
10
-26.818001
20
193.875000
30
82.013000
70
192
0
VERTEX
8
OBJECT__1
10
-25.840000
20
196.311005
30
63.292999
70
192
0
VERTEX
8
OBJECT__1
10
-24.360001
20
179.455002
30
62.421001
70
192
0
VERTEX
8
OBJECT__1
10
-24.761000
20
179.455994
30
82.067001
70
192
0
VERTEX
8
OBJECT__1
10
-26.818001
20
186.125000
30
82.013000
70
192
0
VERTEX
8
OBJECT__1
10
-26.532000
20
187.761002
30
63.700001
70
192
0
VERTEX
8
OBJECT__1
10
-20.170000
20
172.315994
30
82.186996
70
192
0
VERTEX
8
OBJECT__1
10
-24.534000
20
178.718994
30
82.072998
70
192
0
VERTEX
8
OBJECT__1
10
-24.341999
20
179.427994
30
62.410000
70
192
0
VERTEX
8
OBJECT__1
10
-19.559999
20
172.296005
30
59.594002
70
192
0
VERTEX
8
OBJECT__1
10
-18.356001
20
170.869003
30
82.234001
70
192
0
VERTEX
8
OBJECT__1
10
-14.112000
20
167.483002
30
82.346001
70
192
0
VERTEX
8
OBJECT__1
10
-17.715000
20
170.899002
30
58.507000
70
192
0
VERTEX
8
OBJECT__1
10
-12.655000
20
167.063995
30
55.526001
70
192
0
VERTEX
8
OBJECT__1
10
-9.059000
20
165.500000
30
82.477997
70
192
0
VERTEX
8
OBJECT__1
10
1.577000
20
164.244003
30
82.755997
70
192
0
VERTEX
8
OBJECT__1
10
-4.396000
20
164.328003
30
50.660999
70
192
0
VERTEX
8
OBJECT__1
10
-0.214000
20
164.000000
30
48.198002
70
192
0
VERTEX
8
OBJECT__1
10
-6.900000
20
164.651993
30
82.533997
70
192
0
VERTEX
8
OBJECT__1
10
-8.262000
20
165.608994
30
52.938999
70
192
0
VERTEX
8
OBJECT__1
10
0.826000
20
164.072998
30
82.737000
70
192
0
VERTEX
8
OBJECT__1
10
0
20
0
30
0
70
128
71
1
72
2
73
3
0
VERTEX
8
OBJECT__1
10
0
20
0
30
0
70
128
71
3
72
4
73
1
0
VERTEX
8
OBJECT__1
10
0
20
0
30
0
70
128
71
5
72
4
73
6
0
VERTEX
8
OBJECT__1
10
0
20
0
30
0
70
128
71
4
72
7
73
6
0
VERTEX
8
OBJECT__1
10
0
20
0
30
0
70
128
71
8
72
9
73
10
0
VERTEX
8
OBJECT__1
10
0
20
0
30
0
70
128
71
10
72
11
73
8
0
VERTEX
8
OBJECT__1
10
0
20
0
30
0
70
128
71
12
72
11
73
13
0
VERTEX
8
OBJECT__1
10
0
20
0
30
0
70
128
71
11
72
14
73
13
0
VERTEX
8
OBJECT__1
10
0
20
0
30
0
70
128
71
15
72
16
73
17
0
VERTEX
8
OBJECT__1
10
0
20
0
30
0
70
128
71
17
72
18
73
15
0
VERTEX
8
OBJECT__1
10
0
20
0
30
0
70
128
71
19
72
5
73
20
0
VERTEX
8
OBJECT__1
10
0
20
0
30
0
70
128
71
20
72
21
73
22
0
VERTEX
8
OBJECT__1
10
0
20
0
30
0
70
128
71
22
72
23
73
20
0
VERTEX
8
OBJECT__1
10
0
20
0
30
0
70
128
71
24
72
15
73
23
0
VERTEX
8
OBJECT__1
10
0
20
0
30
0
70
128
71
23
72
22
73
24
0
VERTEX
8
OBJECT__1
10
0
20
0
30
0
70
128
71
24
72
16
73
15
0
VERTEX
8
OBJECT__1
10
0
20
0
30
0
70
128
71
20
72
5
73
21
0
VERTEX
8
OBJECT__1
10
0
20
0
30
0
70
128
71
19
72
25
73
26
0
VERTEX
8
OBJECT__1
10
0
20
0
30
0
70
128
71
27
72
28
73
29
0
VERTEX
8
OBJECT__1
10
0
20
0
30
0
70
128
71
18
72
30
73
27
0
VERTEX
8
OBJECT__1
10
0
20
0
30
0
70
128
71
31
72
29
73
28
0
VERTEX
8
OBJECT__1
10
0
20
0
30
0
70
128
71
9
72
8
73
31
0
VERTEX
8
OBJECT__1
10
0
20
0
30
0
70
128
71
32
72
26
73
31
0
VERTEX
8
OBJECT__1
10
0
20
0
30
0
70
128
71
31
72
8
73
32
0
VERTEX
8
OBJECT__1
10
0
20
0
30
0
70
128
71
28
72
9
73
31
0
VERTEX
8
OBJECT__1
10
0
20
0
30
0
70
128
71
33
72
34
73
35
0
VERTEX
8
OBJECT__1
10
0
20
0
30
0
70
128
71
33
72
1
73
34
0
VERTEX
8
OBJECT__1
10
0
20
0
30
0
70
128
71
35
72
36
73
33
0
VERTEX
8
OBJECT__1
10
0
20
0
30
0
70
128
71
35
72
37
73
36
0
VERTEX
8
OBJECT__1
10
0
20
0
30
0
70
128
71
38
72
39
73
40
0
VERTEX
8
OBJECT__1
10
0
20
0
30
0
70
128
71
40
72
41
73
38
0
VERTEX
8
OBJECT__1
10
0
20
0
30
0
70
128
71
37
72
35
73
42
0
VERTEX
8
OBJECT__1
10
0
20
0
30
0
70
128
71
42
72
39
73
37
0
VERTEX
8
OBJECT__1
10
0
20
0
30
0
70
128
71
43
72
44
73
45
0
VERTEX
8
OBJECT__1
10
0
20
0
30
0
70
128
71
45
72
46
73
47
0
VERTEX
8
OBJECT__1
10
0
20
0
30
0
70
128
71
45
72
47
73
43
0
VERTEX
8
OBJECT__1
10
0
20
0
30
0
70
128
71
41
72
40
73
44
0
VERTEX
8
OBJECT__1
10
0
20
0
30
0
70
128
71
48
72
49
73
50
0
VERTEX
8
OBJECT__1
10
0
20
0
30
0
70
128
71
50
72
51
73
48
0
VERTEX
8
OBJECT__1
10
0
20
0
30
0
70
128
71
46
72
45
73
51
0
VERTEX
8
OBJECT__1
10
0
20
0
30
0
70
128
71
52
72
53
73
54
0
VERTEX
8
OBJECT__1
10
0
20
0
30
0
70
128
71
54
72
55
73
52
0
VERTEX
8
OBJECT__1
10
0
20
0
30
0
70
128
71
49
72
48
73
55
0
VERTEX
8
OBJECT__1
10
0
20
0
30
0
70
128
71
55
72
54
73
49
0
VERTEX
8
OBJECT__1
10
0
20
0
30
0
70
128
71
56
72
57
73
58
0
VERTEX
8
OBJECT__1
10
0
20
0
30
0
70
128
71
58
72
59
73
56
0
VERTEX
8
OBJECT__1
10
0
20
0
30
0
70
128
71
59
72
60
73
56
0
VERTEX
8
OBJECT__1
10
0
20
0
30
0
70
128
71
57
72
53
73
58
0
VERTEX
8
OBJECT__1
10
0
20
0
30
0
70
128
71
61
72
60
73
62
0
VERTEX
8
OBJECT__1
10
0
20
0
30
0
70
128
71
63
72
64
73
61
0
VERTEX
8
OBJECT__1
10
0
20
0
30
0
70
128
71
62
72
63
73
61
0
VERTEX
8
OBJECT__1
10
0
20
0
30
0
70
128
71
65
72
66
73
67
0
VERTEX
8
OBJECT__1
10
0
20
0
30
0
70
128
71
68
72
64
73
69
0
VERTEX
8
OBJECT__1
10
0
20
0
30
0
70
128
71
66
72
65
73
70
0
VERTEX
8
OBJECT__1
10
0
20
0
30
0
70
128
71
70
72
68
73
66
0
VERTEX
8
OBJECT__1
10
0
20
0
30
0
70
128
71
69
72
66
73
68
0
VERTEX
8
OBJECT__1
10
0
20
0
30
0
70
128
71
67
72
12
73
65
0
VERTEX
8
OBJECT__1
10
0
20
0
30
0
70
128
71
63
72
69
73
64
0
VERTEX
8
OBJECT__1
10
0
20
0
30
0
70
128
71
59
72
62
73
60
0
VERTEX
8
OBJECT__1
10
0
20
0
30
0
70
128
71
52
72
58
73
53
0
VERTEX
8
OBJECT__1
10
0
20
0
30
0
70
128
71
50
72
46
73
51
0
VERTEX
8
OBJECT__1
10
0
20
0
30
0
70
128
71
43
72
41
73
44
0
VERTEX
8
OBJECT__1
10
0
20
0
30
0
70
128
71
38
72
37
73
39
0
VERTEX
8
OBJECT__1
10
0
20
0
30
0
70
128
71
33
72
2
73
1
0
VERTEX
8
OBJECT__1
10
0
20
0
30
0
70
128
71
29
72
18
73
27
0
VERTEX
8
OBJECT__1
10
0
20
0
30
0
70
128
71
26
72
32
73
19
0
VERTEX
8
OBJECT__1
10
0
20
0
30
0
70
128
71
20
72
25
73
19
0
VERTEX
8
OBJECT__1
10
0
20
0
30
0
70
128
71
17
72
30
73
18
0
VERTEX
8
OBJECT__1
10
0
20
0
30
0
70
128
71
13
72
65
73
12
0
VERTEX
8
OBJECT__1
10
0
20
0
30
0
70
128
71
10
72
14
73
11
0
VERTEX
8
OBJECT__1
10
0
20
0
30
0
70
128
71
6
72
21
73
5
0
VERTEX
8
OBJECT__1
10
0
20
0
30
0
70
128
71
3
72
7
73
4
0
SEQEND
8
OBJECT__1
0
POLYLINE
8
OBJECT__3
66
1
70
64
71
10
72
8
62
253
0
VERTEX
8
OBJECT__3
10
12.782000
20
212.516998
30
48.537998
70
192
0
VERTEX
8
OBJECT__3
10
25.209000
20
195.406006
30
48.862999
70
192
0
VERTEX
8
OBJECT__3
10
25.209000
20
184.593994
30
48.862999
70
192
0
VERTEX
8
OBJECT__3
10
20.813999
20
205.281998
30
48.748001
70
192
0
VERTEX
8
OBJECT__3
10
2.503000
20
215.858002
30
48.269001
70
192
0
VERTEX
8
OBJECT__3
10
20.813999
20
174.718002
30
48.748001
70
192
0
VERTEX
8
OBJECT__3
10
12.782000
20
167.483002
30
48.537998
70
192
0
VERTEX
8
OBJECT__3
10
2.503000
20
164.141998
30
48.269001
70
192
0
VERTEX
8
OBJECT__3
10
-0.214000
20
164.000000
30
48.198002
70
192
0
VERTEX
8
OBJECT__3
10
-0.214000
20
216.000000
30
48.198002
70
192
0
VERTEX
8
OBJECT__3
10
0
20
0
30
0
70
128
71
1
72
2
73
3
0
VERTEX
8
OBJECT__3
10
0
20
0
30
0
70
128
71
1
72
4
73
2
0
VERTEX
8
OBJECT__3
10
0
20
0
30
0
70
128
71
5
72
6
73
7
0
VERTEX
8
OBJECT__3
10
0
20
0
30
0
70
128
71
6
72
5
73
1
0
VERTEX
8
OBJECT__3
10
0
20
0
30
0
70
128
71
3
72
6
73
1
0
VERTEX
8
OBJECT__3
10
0
20
0
30
0
70
128
71
7
72
8
73
5
0
VERTEX
8
OBJECT__3
10
0
20
0
30
0
70
128
71
9
72
10
73
5
0
VERTEX
8
OBJECT__3
10
0
20
0
30
0
70
128
71
8
72
9
73
5
0
SEQEND
8
OBJECT__3
0
POLYLINE
8
OBJECT__4
66
1
70
64
71
18
72
16
62
253
0
VERTEX
8
OBJECT__4
10
-26.351999
20
189.977997
30
63.595001
70
192
0
VERTEX
8
OBJECT__4
10
-24.341999
20
179.427994
30
62.410000
70
192
0
VERTEX
8
OBJECT__4
10
-24.360001
20
179.455002
30
62.421001
70
192
0
VERTEX
8
OBJECT__4
10
-17.715000
20
170.899002
30
58.507000
70
192
0
VERTEX
8
OBJECT__4
10
-19.559999
20
172.296005
30
59.594002
70
192
0
VERTEX
8
OBJECT__4
10
-8.262000
20
165.608994
30
52.938999
70
192
0
VERTEX
8
OBJECT__4
10
-12.655000
20
167.063995
30
55.526001
70
192
0
VERTEX
8
OBJECT__4
10
-0.214000
20
164.000000
30
48.198002
70
192
0
VERTEX
8
OBJECT__4
10
-4.396000
20
164.328003
30
50.660999
70
192
0
VERTEX
8
OBJECT__4
10
-25.840000
20
196.311005
30
63.292999
70
192
0
VERTEX
8
OBJECT__4
10
-17.712000
20
209.160004
30
58.505001
70
192
0
VERTEX
8
OBJECT__4
10
-16.468000
20
210.494995
30
57.771999
70
192
0
VERTEX
8
OBJECT__4
10
-24.014999
20
200.432999
30
62.217999
70
192
0
VERTEX
8
OBJECT__4
10
-22.358999
20
204.173996
30
61.242001
70
192
0
VERTEX
8
OBJECT__4
10
-26.532000
20
187.761002
30
63.700001
70
192
0
VERTEX
8
OBJECT__4
10
-8.809000
20
214.585007
30
53.261002
70
192
0
VERTEX
8
OBJECT__4
10
-8.364000
20
214.658005
30
52.999001
70
192
0
VERTEX
8
OBJECT__4
10
-0.214000
20
216.000000
30
48.198002
70
192
0
VERTEX
8
OBJECT__4
10
0
20
0
30
0
70
128
71
1
72
2
73
3
0
VERTEX
8
OBJECT__4
10
0
20
0
30
0
70
128
71
1
72
4
73
5
0
VERTEX
8
OBJECT__4
10
0
20
0
30
0
70
128
71
5
72
2
73
1
0
VERTEX
8
OBJECT__4
10
0
20
0
30
0
70
128
71
1
72
6
73
7
0
VERTEX
8
OBJECT__4
10
0
20
0
30
0
70
128
71
7
72
4
73
1
0
VERTEX
8
OBJECT__4
10
0
20
0
30
0
70
128
71
1
72
8
73
9
0
VERTEX
8
OBJECT__4
10
0
20
0
30
0
70
128
71
8
72
1
73
10
0
VERTEX
8
OBJECT__4
10
0
20
0
30
0
70
128
71
9
72
6
73
1
0
VERTEX
8
OBJECT__4
10
0
20
0
30
0
70
128
71
8
72
11
73
12
0
VERTEX
8
OBJECT__4
10
0
20
0
30
0
70
128
71
8
72
13
73
14
0
VERTEX
8
OBJECT__4
10
0
20
0
30
0
70
128
71
3
72
15
73
1
0
VERTEX
8
OBJECT__4
10
0
20
0
30
0
70
128
71
12
72
16
73
8
0
VERTEX
8
OBJECT__4
10
0
20
0
30
0
70
128
71
10
72
13
73
8
0
VERTEX
8
OBJECT__4
10
0
20
0
30
0
70
128
71
14
72
11
73
8
0
VERTEX
8
OBJECT__4
10
0
20
0
30
0
70
128
71
16
72
17
73
8
0
VERTEX
8
OBJECT__4
10
0
20
0
30
0
70
128
71
17
72
18
73
8
0
SEQEND
8
OBJECT__4
0
POLYLINE
8
OBJECT__5
66
1
70
64
71
4
72
2
62
253
0
VERTEX
8
OBJECT__5
10
23.018999
20
179.600006
30
71.314003
70
192
0
VERTEX
8
OBJECT__5
10
23.934999
20
180.199997
30
71.337997
70
192
0
VERTEX
8
OBJECT__5
10
23.738001
20
180.199997
30
78.834999
70
192
0
VERTEX
8
OBJECT__5
10
22.822001
20
179.600006
30
78.810997
70
192
0
VERTEX
8
OBJECT__5
10
0
20
0
30
0
70
128
71
1
72
2
73
3
0
VERTEX
8
OBJECT__5
10
0
20
0
30
0
70
128
71
3
72
4
73
1
0
SEQEND
8
OBJECT__5
0
POLYLINE
8
OBJECT__6
66
1
70
64
71
4
72
2
62
253
0
VERTEX
8
OBJECT__6
10
23.738001
20
180.199997
30
78.834999
70
192
0
VERTEX
8
OBJECT__6
10
23.934999
20
180.199997
30
71.337997
70
192
0
VERTEX
8
OBJECT__6
10
87.467003
20
180.199997
30
73.000999
70
192
0
VERTEX
8
OBJECT__6
10
87.271004
20
180.199997
30
80.499001
70
192
0
VERTEX
8
OBJECT__6
10
0
20
0
30
0
70
128
71
1
72
2
73
3
0
VERTEX
8
OBJECT__6
10
0
20
0
30
0
70
128
71
3
72
4
73
1
0
SEQEND
8
OBJECT__6
0
POLYLINE
8
OBJECT__7
66
1
70
64
71
4
72
2
62
253
0
VERTEX
8
OBJECT__7
10
23.738001
20
199.800003
30
78.834999
70
192
0
VERTEX
8
OBJECT__7
10
23.934999
20
199.800003
30
71.337997
70
192
0
VERTEX
8
OBJECT__7
10
23.018999
20
200.399994
30
71.314003
70
192
0
VERTEX
8
OBJECT__7
10
22.822001
20
200.399994
30
78.810997
70
192
0
VERTEX
8
OBJECT__7
10
0
20
0
30
0
70
128
71
1
72
2
73
3
0
VERTEX
8
OBJECT__7
10
0
20
0
30
0
70
128
71
3
72
4
73
1
0
SEQEND
8
OBJECT__7
0
POLYLINE
8
OBJECT__8
66
1
70
64
71
4
72
2
62
253
0
VERTEX
8
OBJECT__8
10
23.738001
20
199.800003
30
78.834999
70
192
0
VERTEX
8
OBJECT__8
10
87.271004
20
199.800003
30
80.499001
70
192
0
VERTEX
8
OBJECT__8
10
87.467003
20
199.800003
30
73.000999
70
192
0
VERTEX
8
OBJECT__8
10
23.934999
20
199.800003
30
71.337997
70
192
0
VERTEX
8
OBJECT__8
10
0
20
0
30
0
70
128
71
1
72
2
73
3
0
VERTEX
8
OBJECT__8
10
0
20
0
30
0
70
128
71
3
72
4
73
1
0
SEQEND
8
OBJECT__8
0
POLYLINE
8
OBJECT__9
66
1
70
64
71
10
72
8
62
253
0
VERTEX
8
OBJECT__9
10
24.621000
20
184.593994
30
71.356003
70
192
0
VERTEX
8
OBJECT__9
10
88.167000
20
199.100006
30
73.019997
70
192
0
VERTEX
8
OBJECT__9
10
88.167000
20
180.899994
30
73.019997
70
192
0
VERTEX
8
OBJECT__9
10
24.621000
20
195.406006
30
71.356003
70
192
0
VERTEX
8
OBJECT__9
10
87.467003
20
199.800003
30
73.000999
70
192
0
VERTEX
8
OBJECT__9
10
87.467003
20
180.199997
30
73.000999
70
192
0
VERTEX
8
OBJECT__9
10
23.934999
20
180.199997
30
71.337997
70
192
0
VERTEX
8
OBJECT__9
10
23.018999
20
200.399994
30
71.314003
70
192
0
VERTEX
8
OBJECT__9
10
23.934999
20
199.800003
30
71.337997
70
192
0
VERTEX
8
OBJECT__9
10
23.018999
20
179.600006
30
71.314003
70
192
0
VERTEX
8
OBJECT__9
10
0
20
0
30
0
70
128
71
1
72
2
73
3
0
VERTEX
8
OBJECT__9
10
0
20
0
30
0
70
128
71
1
72
4
73
5
0
VERTEX
8
OBJECT__9
10
0
20
0
30
0
70
128
71
5
72
2
73
1
0
VERTEX
8
OBJECT__9
10
0
20
0
30
0
70
128
71
3
72
6
73
1
0
VERTEX
8
OBJECT__9
10
0
20
0
30
0
70
128
71
6
72
7
73
1
0
VERTEX
8
OBJECT__9
10
0
20
0
30
0
70
128
71
4
72
8
73
9
0
VERTEX
8
OBJECT__9
10
0
20
0
30
0
70
128
71
4
72
9
73
5
0
VERTEX
8
OBJECT__9
10
0
20
0
30
0
70
128
71
7
72
10
73
1
0
SEQEND
8
OBJECT__9
0
POLYLINE
8
OBJECT__10
66
1
70
64
71
10
72
8
62
253
0
VERTEX
8
OBJECT__10
10
87.271004
20
180.199997
30
80.499001
70
192
0
VERTEX
8
OBJECT__10
10
24.424000
20
195.406006
30
78.852997
70
192
0
VERTEX
8
OBJECT__10
10
24.424000
20
184.593994
30
78.852997
70
192
0
VERTEX
8
OBJECT__10
10
23.738001
20
199.800003
30
78.834999
70
192
0
VERTEX
8
OBJECT__10
10
87.271004
20
199.800003
30
80.499001
70
192
0
VERTEX
8
OBJECT__10
10
87.971001
20
180.899994
30
80.516998
70
192
0
VERTEX
8
OBJECT__10
10
22.822001
20
200.399994
30
78.810997
70
192
0
VERTEX
8
OBJECT__10
10
87.971001
20
199.100006
30
80.516998
70
192
0
VERTEX
8
OBJECT__10
10
22.822001
20
179.600006
30
78.810997
70
192
0
VERTEX
8
OBJECT__10
10
23.738001
20
180.199997
30
78.834999
70
192
0
VERTEX
8
OBJECT__10
10
0
20
0
30
0
70
128
71
1
72
2
73
3
0
VERTEX
8
OBJECT__10
10
0
20
0
30
0
70
128
71
2
72
1
73
4
0
VERTEX
8
OBJECT__10
10
0
20
0
30
0
70
128
71
5
72
1
73
6
0
VERTEX
8
OBJECT__10
10
0
20
0
30
0
70
128
71
4
72
7
73
2
0
VERTEX
8
OBJECT__10
10
0
20
0
30
0
70
128
71
6
72
8
73
5
0
VERTEX
8
OBJECT__10
10
0
20
0
30
0
70
128
71
5
72
4
73
1
0
VERTEX
8
OBJECT__10
10
0
20
0
30
0
70
128
71
3
72
9
73
10
0
VERTEX
8
OBJECT__10
10
0
20
0
30
0
70
128
71
3
72
10
73
1
0
SEQEND
8
OBJECT__10
0
POLYLINE
8
OBJECT__11
66
1
70
64
71
4
72
2
62
253
0
VERTEX
8
OBJECT__11
10
88.167000
20
199.100006
30
73.019997
70
192
0
VERTEX
8
OBJECT__11
10
87.971001
20
199.100006
30
80.516998
70
192
0
VERTEX
8
OBJECT__11
10
87.971001
20
180.899994
30
80.516998
70
192
0
VERTEX
8
OBJECT__11
10
88.167000
20
180.899994
30
73.019997
70
192
0
VERTEX
8
OBJECT__11
10
0
20
0
30
0
70
128
71
1
72
2
73
3
0
VERTEX
8
OBJECT__11
10
0
20
0
30
0
70
128
71
3
72
4
73
1
0
SEQEND
8
OBJECT__11
0
POLYLINE
8
OBJECT__12
66
1
70
64
71
4
72
2
62
253
0
VERTEX
8
OBJECT__12
10
87.467003
20
199.800003
30
73.000999
70
192
0
VERTEX
8
OBJECT__12
10
87.271004
20
199.800003
30
80.499001
70
192
0
VERTEX
8
OBJECT__12
10
87.971001
20
199.100006
30
80.516998
70
192
0
VERTEX
8
OBJECT__12
10
88.167000
20
199.100006
30
73.019997
70
192
0
VERTEX
8
OBJECT__12
10
0
20
0
30
0
70
128
71
1
72
2
73
3
0
VERTEX
8
OBJECT__12
10
0
20
0
30
0
70
128
71
3
72
4
73
1
0
SEQEND
8
OBJECT__12
0
POLYLINE
8
OBJECT__13
66
1
70
64
71
4
72
2
62
253
0
VERTEX
8
OBJECT__13
10
87.971001
20
180.899994
30
80.516998
70
192
0
VERTEX
8
OBJECT__13
10
87.271004
20
180.199997
30
80.499001
70
192
0
VERTEX
8
OBJECT__13
10
87.467003
20
180.199997
30
73.000999
70
192
0
VERTEX
8
OBJECT__13
10
88.167000
20
180.899994
30
73.019997
70
192
0
VERTEX
8
OBJECT__13
10
0
20
0
30
0
70
128
71
1
72
2
73
3
0
VERTEX
8
OBJECT__13
10
0
20
0
30
0
70
128
71
3
72
4
73
1
0
SEQEND
8
OBJECT__13
0
POLYLINE
8
OBJECT__14
66
1
70
64
71
4
72
2
62
253
0
VERTEX
8
OBJECT__14
10
-47.500000
20
45.900002
30
13.800000
70
192
0
VERTEX
8
OBJECT__14
10
-47.500000
20
45.900002
30
0.000000
70
192
0
VERTEX
8
OBJECT__14
10
-47.500000
20
-45.900002
30
0.000000
70
192
0
VERTEX
8
OBJECT__14
10
-47.500000
20
-45.900002
30
13.800000
70
192
0
VERTEX
8
OBJECT__14
10
0
20
0
30
0
70
128
71
1
72
2
73
3
0
VERTEX
8
OBJECT__14
10
0
20
0
30
0
70
128
71
3
72
4
73
1
0
SEQEND
8
OBJECT__14
0
POLYLINE
8
OBJECT__15
66
1
70
64
71
5
72
3
62
253
0
VERTEX
8
OBJECT__15
10
-47.500000
20
-45.900002
30
0.000000
70
192
0
VERTEX
8
OBJECT__15
10
-45.900002
20
-47.500000
30
0.000000
70
192
0
VERTEX
8
OBJECT__15
10
-47.030998
20
-47.030998
30
13.800000
70
192
0
VERTEX
8
OBJECT__15
10
-45.900002
20
-47.500000
30
13.800000
70
192
0
VERTEX
8
OBJECT__15
10
-47.500000
20
-45.900002
30
13.800000
70
192
0
VERTEX
8
OBJECT__15
10
0
20
0
30
0
70
128
71
1
72
2
73
3
0
VERTEX
8
OBJECT__15
10
0
20
0
30
0
70
128
71
2
72
4
73
3
0
VERTEX
8
OBJECT__15
10
0
20
0
30
0
70
128
71
3
72
5
73
1
0
SEQEND
8
OBJECT__15
0
POLYLINE
8
OBJECT__17
66
1
70
64
71
4
72
2
62
253
0
VERTEX
8
OBJECT__17
10
45.900002
20
-47.500000
30
13.800000
70
192
0
VERTEX
8
OBJECT__17
10
-45.900002
20
-47.500000
30
13.800000
70
192
0
VERTEX
8
OBJECT__17
10
-45.900002
20
-47.500000
30
0.000000
70
192
0
VERTEX
8
OBJECT__17
10
45.900002
20
-47.500000
30
0.000000
70
192
0
VERTEX
8
OBJECT__17
10
0
20
0
30
0
70
128
71
1
72
2
73
3
0
VERTEX
8
OBJECT__17
10
0
20
0
30
0
70
128
71
3
72
4
73
1
0
SEQEND
8
OBJECT__17
0
POLYLINE
8
OBJECT__18
66
1
70
64
71
9
72
8
62
253
0
VERTEX
8
OBJECT__18
10
-47.030998
20
-47.030998
30
13.800000
70
192
0
VERTEX
8
OBJECT__18
10
-46.783001
20
-46.783001
30
14.649000
70
192
0
VERTEX
8
OBJECT__18
10
-47.148998
20
-45.900002
30
14.649000
70
192
0
VERTEX
8
OBJECT__18
10
-45.900002
20
-47.500000
30
13.800000
70
192
0
VERTEX
8
OBJECT__18
10
-45.900002
20
-47.148998
30
14.649000
70
192
0
VERTEX
8
OBJECT__18
10
-46.182999
20
-46.182999
30
15.000000
70
192
0
VERTEX
8
OBJECT__18
10
-45.900002
20
-46.299999
30
15.000000
70
192
0
VERTEX
8
OBJECT__18
10
-46.299999
20
-45.900002
30
15.000000
70
192
0
VERTEX
8
OBJECT__18
10
-47.500000
20
-45.900002
30
13.800000
70
192
0
VERTEX
8
OBJECT__18
10
0
20
0
30
0
70
128
71
1
72
2
73
3
0
VERTEX
8
OBJECT__18
10
0
20
0
30
0
70
128
71
1
72
4
73
5
0
VERTEX
8
OBJECT__18
10
0
20
0
30
0
70
128
71
3
72
2
73
6
0
VERTEX
8
OBJECT__18
10
0
20
0
30
0
70
128
71
5
72
7
73
6
0
VERTEX
8
OBJECT__18
10
0
20
0
30
0
70
128
71
6
72
2
73
5
0
VERTEX
8
OBJECT__18
10
0
20
0
30
0
70
128
71
6
72
8
73
3
0
VERTEX
8
OBJECT__18
10
0
20
0
30
0
70
128
71
5
72
2
73
1
0
VERTEX
8
OBJECT__18
10
0
20
0
30
0
70
128
71
3
72
9
73
1
0
SEQEND
8
OBJECT__18
0
POLYLINE
8
OBJECT__19
66
1
70
64
71
6
72
4
62
253
0
VERTEX
8
OBJECT__19
10
45.900002
20
-47.500000
30
13.800000
70
192
0
VERTEX
8
OBJECT__19
10
45.900002
20
-47.148998
30
14.649000
70
192
0
VERTEX
8
OBJECT__19
10
-45.900002
20
-47.148998
30
14.649000
70
192
0
VERTEX
8
OBJECT__19
10
45.900002
20
-46.299999
30
15.000000
70
192
0
VERTEX
8
OBJECT__19
10
-45.900002
20
-46.299999
30
15.000000
70
192
0
VERTEX
8
OBJECT__19
10
-45.900002
20
-47.500000
30
13.800000
70
192
0
VERTEX
8
OBJECT__19
10
0
20
0
30
0
70
128
71
1
72
2
73
3
0
VERTEX
8
OBJECT__19
10
0
20
0
30
0
70
128
71
4
72
5
73
3
0
VERTEX
8
OBJECT__19
10
0
20
0
30
0
70
128
71
3
72
2
73
4
0
VERTEX
8
OBJECT__19
10
0
20
0
30
0
70
128
71
3
72
6
73
1
0
SEQEND
8
OBJECT__19
0
POLYLINE
8
OBJECT__20
66
1
70
64
71
5
72
3
62
253
0
VERTEX
8
OBJECT__20
10
45.900002
20
-47.500000
30
0.000000
70
192
0
VERTEX
8
OBJECT__20
10
47.500000
20
-45.900002
30
0.000000
70
192
0
VERTEX
8
OBJECT__20
10
47.030998
20
-47.030998
30
13.800000
70
192
0
VERTEX
8
OBJECT__20
10
47.500000
20
-45.900002
30
13.800000
70
192
0
VERTEX
8
OBJECT__20
10
45.900002
20
-47.500000
30
13.800000
70
192
0
VERTEX
8
OBJECT__20
10
0
20
0
30
0
70
128
71
1
72
2
73
3
0
VERTEX
8
OBJECT__20
10
0
20
0
30
0
70
128
71
2
72
4
73
3
0
VERTEX
8
OBJECT__20
10
0
20
0
30
0
70
128
71
3
72
5
73
1
0
SEQEND
8
OBJECT__20
0
POLYLINE
8
OBJECT__21
66
1
70
64
71
9
72
8
62
253
0
VERTEX
8
OBJECT__21
10
47.030998
20
-47.030998
30
13.800000
70
192
0
VERTEX
8
OBJECT__21
10
46.783001
20
-46.783001
30
14.649000
70
192
0
VERTEX
8
OBJECT__21
10
45.900002
20
-47.148998
30
14.649000
70
192
0
VERTEX
8
OBJECT__21
10
47.500000
20
-45.900002
30
13.800000
70
192
0
VERTEX
8
OBJECT__21
10
47.148998
20
-45.900002
30
14.649000
70
192
0
VERTEX
8
OBJECT__21
10
46.182999
20
-46.182999
30
15.000000
70
192
0
VERTEX
8
OBJECT__21
10
46.299999
20
-45.900002
30
15.000000
70
192
0
VERTEX
8
OBJECT__21
10
45.900002
20
-46.299999
30
15.000000
70
192
0
VERTEX
8
OBJECT__21
10
45.900002
20
-47.500000
30
13.800000
70
192
0
VERTEX
8
OBJECT__21
10
0
20
0
30
0
70
128
71
1
72
2
73
3
0
VERTEX
8
OBJECT__21
10
0
20
0
30
0
70
128
71
4
72
5
73
2
0
VERTEX
8
OBJECT__21
10
0
20
0
30
0
70
128
71
3
72
2
73
6
0
VERTEX
8
OBJECT__21
10
0
20
0
30
0
70
128
71
5
72
7
73
6
0
VERTEX
8
OBJECT__21
10
0
20
0
30
0
70
128
71
6
72
2
73
5
0
VERTEX
8
OBJECT__21
10
0
20
0
30
0
70
128
71
6
72
8
73
3
0
VERTEX
8
OBJECT__21
10
0
20
0
30
0
70
128
71
2
72
1
73
4
0
VERTEX
8
OBJECT__21
10
0
20
0
30
0
70
128
71
3
72
9
73
1
0
SEQEND
8
OBJECT__21
0
POLYLINE
8
OBJECT__22
66
1
70
64
71
4
72
2
62
253
0
VERTEX
8
OBJECT__22
10
47.500000
20
45.900002
30
0.000000
70
192
0
VERTEX
8
OBJECT__22
10
47.500000
20
45.900002
30
13.800000
70
192
0
VERTEX
8
OBJECT__22
10
47.500000
20
-45.900002
30
13.800000
70
192
0
VERTEX
8
OBJECT__22
10
47.500000
20
-45.900002
30
0.000000
70
192
0
VERTEX
8
OBJECT__22
10
0
20
0
30
0
70
128
71
1
72
2
73
3
0
VERTEX
8
OBJECT__22
10
0
20
0
30
0
70
128
71
3
72
4
73
1
0
SEQEND
8
OBJECT__22
0
POLYLINE
8
OBJECT__23
66
1
70
64
71
8
72
6
62
253
0
VERTEX
8
OBJECT__23
10
47.500000
20
-45.900002
30
0.000000
70
192
0
VERTEX
8
OBJECT__23
10
-45.900002
20
47.500000
30
0.000000
70
192
0
VERTEX
8
OBJECT__23
10
45.900002
20
47.500000
30
0.000000
70
192
0
VERTEX
8
OBJECT__23
10
-45.900002
20
-47.500000
30
0.000000
70
192
0
VERTEX
8
OBJECT__23
10
-47.500000
20
-45.900002
30
0.000000
70
192
0
VERTEX
8
OBJECT__23
10
47.500000
20
45.900002
30
0.000000
70
192
0
VERTEX
8
OBJECT__23
10
45.900002
20
-47.500000
30
0.000000
70
192
0
VERTEX
8
OBJECT__23
10
-47.500000
20
45.900002
30
0.000000
70
192
0
VERTEX
8
OBJECT__23
10
0
20
0
30
0
70
128
71
1
72
2
73
3
0
VERTEX
8
OBJECT__23
10
0
20
0
30
0
70
128
71
2
72
4
73
5
0
VERTEX
8
OBJECT__23
10
0
20
0
30
0
70
128
71
3
72
6
73
1
0
VERTEX
8
OBJECT__23
10
0
20
0
30
0
70
128
71
2
72
7
73
4
0
VERTEX
8
OBJECT__23
10
0
20
0
30
0
70
128
71
5
72
8
73
2
0
VERTEX
8
OBJECT__23
10
0
20
0
30
0
70
128
71
1
72
7
73
2
0
SEQEND
8
OBJECT__23
0
POLYLINE
8
OBJECT__24
66
1
70
64
71
4
72
2
62
253
0
VERTEX
8
OBJECT__24
10
-45.900002
20
47.500000
30
13.800000
70
192
0
VERTEX
8
OBJECT__24
10
45.900002
20
47.500000
30
13.800000
70
192
0
VERTEX
8
OBJECT__24
10
45.900002
20
47.500000
30
0.000000
70
192
0
VERTEX
8
OBJECT__24
10
-45.900002
20
47.500000
30
0.000000
70
192
0
VERTEX
8
OBJECT__24
10
0
20
0
30
0
70
128
71
1
72
2
73
3
0
VERTEX
8
OBJECT__24
10
0
20
0
30
0
70
128
71
3
72
4
73
1
0
SEQEND
8
OBJECT__24
0
POLYLINE
8
OBJECT__25
66
1
70
64
71
5
72
3
62
253
0
VERTEX
8
OBJECT__25
10
45.900002
20
47.500000
30
0.000000
70
192
0
VERTEX
8
OBJECT__25
10
45.900002
20
47.500000
30
13.800000
70
192
0
VERTEX
8
OBJECT__25
10
47.030998
20
47.030998
30
13.800000
70
192
0
VERTEX
8
OBJECT__25
10
47.500000
20
45.900002
30
0.000000
70
192
0
VERTEX
8
OBJECT__25
10
47.500000
20
45.900002
30
13.800000
70
192
0
VERTEX
8
OBJECT__25
10
0
20
0
30
0
70
128
71
1
72
2
73
3
0
VERTEX
8
OBJECT__25
10
0
20
0
30
0
70
128
71
3
72
4
73
1
0
VERTEX
8
OBJECT__25
10
0
20
0
30
0
70
128
71
3
72
5
73
4
0
SEQEND
8
OBJECT__25
0
POLYLINE
8
OBJECT__26
66
1
70
64
71
6
72
4
62
253
0
VERTEX
8
OBJECT__26
10
46.299999
20
-45.900002
30
15.000000
70
192
0
VERTEX
8
OBJECT__26
10
47.148998
20
-45.900002
30
14.649000
70
192
0
VERTEX
8
OBJECT__26
10
47.148998
20
45.900002
30
14.649000
70
192
0
VERTEX
8
OBJECT__26
10
47.500000
20
-45.900002
30
13.800000
70
192
0
VERTEX
8
OBJECT__26
10
47.500000
20
45.900002
30
13.800000
70
192
0
VERTEX
8
OBJECT__26
10
46.299999
20
45.900002
30
15.000000
70
192
0
VERTEX
8
OBJECT__26
10
0
20
0
30
0
70
128
71
1
72
2
73
3
0
VERTEX
8
OBJECT__26
10
0
20
0
30
0
70
128
71
4
72
5
73
3
0
VERTEX
8
OBJECT__26
10
0
20
0
30
0
70
128
71
3
72
2
73
4
0
VERTEX
8
OBJECT__26
10
0
20
0
30
0
70
128
71
3
72
6
73
1
0
SEQEND
8
OBJECT__26
0
POLYLINE
8
OBJECT__27
66
1
70
64
71
9
72
8
62
253
0
VERTEX
8
OBJECT__27
10
47.500000
20
45.900002
30
13.800000
70
192
0
VERTEX
8
OBJECT__27
10
47.030998
20
47.030998
30
13.800000
70
192
0
VERTEX
8
OBJECT__27
10
46.783001
20
46.783001
30
14.649000
70
192
0
VERTEX
8
OBJECT__27
10
45.900002
20
47.500000
30
13.800000
70
192
0
VERTEX
8
OBJECT__27
10
45.900002
20
47.148998
30
14.649000
70
192
0
VERTEX
8
OBJECT__27
10
47.148998
20
45.900002
30
14.649000
70
192
0
VERTEX
8
OBJECT__27
10
46.182999
20
46.182999
30
15.000000
70
192
0
VERTEX
8
OBJECT__27
10
45.900002
20
46.299999
30
15.000000
70
192
0
VERTEX
8
OBJECT__27
10
46.299999
20
45.900002
30
15.000000
70
192
0
VERTEX
8
OBJECT__27
10
0
20
0
30
0
70
128
71
1
72
2
73
3
0
VERTEX
8
OBJECT__27
10
0
20
0
30
0
70
128
71
2
72
4
73
5
0
VERTEX
8
OBJECT__27
10
0
20
0
30
0
70
128
71
6
72
3
73
7
0
VERTEX
8
OBJECT__27
10
0
20
0
30
0
70
128
71
5
72
8
73
7
0
VERTEX
8
OBJECT__27
10
0
20
0
30
0
70
128
71
7
72
3
73
5
0
VERTEX
8
OBJECT__27
10
0
20
0
30
0
70
128
71
7
72
9
73
6
0
VERTEX
8
OBJECT__27
10
0
20
0
30
0
70
128
71
5
72
3
73
2
0
VERTEX
8
OBJECT__27
10
0
20
0
30
0
70
128
71
3
72
6
73
1
0
SEQEND
8
OBJECT__27
0
POLYLINE
8
OBJECT__28
66
1
70
64
71
12
72
10
62
253
0
VERTEX
8
OBJECT__28
10
46.299999
20
45.900002
30
15.000000
70
192
0
VERTEX
8
OBJECT__28
10
46.182999
20
46.182999
30
15.000000
70
192
0
VERTEX
8
OBJECT__28
10
45.900002
20
46.299999
30
15.000000
70
192
0
VERTEX
8
OBJECT__28
10
-46.299999
20
-45.900002
30
15.000000
70
192
0
VERTEX
8
OBJECT__28
10
46.299999
20
-45.900002
30
15.000000
70
192
0
VERTEX
8
OBJECT__28
10
-45.900002
20
-46.299999
30
15.000000
70
192
0
VERTEX
8
OBJECT__28
10
-45.900002
20
46.299999
30
15.000000
70
192
0
VERTEX
8
OBJECT__28
10
-46.182999
20
46.182999
30
15.000000
70
192
0
VERTEX
8
OBJECT__28
10
-46.299999
20
45.900002
30
15.000000
70
192
0
VERTEX
8
OBJECT__28
10
45.900002
20
-46.299999
30
15.000000
70
192
0
VERTEX
8
OBJECT__28
10
-46.182999
20
-46.182999
30
15.000000
70
192
0
VERTEX
8
OBJECT__28
10
46.182999
20
-46.182999
30
15.000000
70
192
0
VERTEX
8
OBJECT__28
10
0
20
0
30
0
70
128
71
1
72
2
73
3
0
VERTEX
8
OBJECT__28
10
0
20
0
30
0
70
128
71
4
72
5
73
1
0
VERTEX
8
OBJECT__28
10
0
20
0
30
0
70
128
71
5
72
4
73
6
0
VERTEX
8
OBJECT__28
10
0
20
0
30
0
70
128
71
7
72
8
73
9
0
VERTEX
8
OBJECT__28
10
0
20
0
30
0
70
128
71
1
72
7
73
4
0
VERTEX
8
OBJECT__28
10
0
20
0
30
0
70
128
71
6
72
10
73
5
0
VERTEX
8
OBJECT__28
10
0
20
0
30
0
70
128
71
3
72
7
73
1
0
VERTEX
8
OBJECT__28
10
0
20
0
30
0
70
128
71
4
72
11
73
6
0
VERTEX
8
OBJECT__28
10
0
20
0
30
0
70
128
71
10
72
12
73
5
0
VERTEX
8
OBJECT__28
10
0
20
0
30
0
70
128
71
9
72
4
73
7
0
SEQEND
8
OBJECT__28
0
POLYLINE
8
OBJECT__29
66
1
70
64
71
5
72
3
62
253
0
VERTEX
8
OBJECT__29
10
-45.900002
20
47.500000
30
0.000000
70
192
0
VERTEX
8
OBJECT__29
10
-47.500000
20
45.900002
30
0.000000
70
192
0
VERTEX
8
OBJECT__29
10
-47.030998
20
47.030998
30
13.800000
70
192
0
VERTEX
8
OBJECT__29
10
-47.500000
20
45.900002
30
13.800000
70
192
0
VERTEX
8
OBJECT__29
10
-45.900002
20
47.500000
30
13.800000
70
192
0
VERTEX
8
OBJECT__29
10
0
20
0
30
0
70
128
71
1
72
2
73
3
0
VERTEX
8
OBJECT__29
10
0
20
0
30
0
70
128
71
2
72
4
73
3
0
VERTEX
8
OBJECT__29
10
0
20
0
30
0
70
128
71
3
72
5
73
1
0
SEQEND
8
OBJECT__29
0
POLYLINE
8
OBJECT__30
66
1
70
64
71
6
72
4
62
253
0
VERTEX
8
OBJECT__30
10
-47.500000
20
-45.900002
30
13.800000
70
192
0
VERTEX
8
OBJECT__30
10
-47.148998
20
-45.900002
30
14.649000
70
192
0
VERTEX
8
OBJECT__30
10
-47.148998
20
45.900002
30
14.649000
70
192
0
VERTEX
8
OBJECT__30
10
-46.299999
20
-45.900002
30
15.000000
70
192
0
VERTEX
8
OBJECT__30
10
-46.299999
20
45.900002
30
15.000000
70
192
0
VERTEX
8
OBJECT__30
10
-47.500000
20
45.900002
30
13.800000
70
192
0
VERTEX
8
OBJECT__30
10
0
20
0
30
0
70
128
71
1
72
2
73
3
0
VERTEX
8
OBJECT__30
10
0
20
0
30
0
70
128
71
4
72
5
73
3
0
VERTEX
8
OBJECT__30
10
0
20
0
30
0
70
128
71
3
72
2
73
4
0
VERTEX
8
OBJECT__30
10
0
20
0
30
0
70
128
71
3
72
6
73
1
0
SEQEND
8
OBJECT__30
0
POLYLINE
8
OBJECT__31
66
1
70
64
71
9
72
8
62
253
0
VERTEX
8
OBJECT__31
10
-47.030998
20
47.030998
30
13.800000
70
192
0
VERTEX
8
OBJECT__31
10
-46.783001
20
46.783001
30
14.649000
70
192
0
VERTEX
8
OBJECT__31
10
-45.900002
20
47.148998
30
14.649000
70
192
0
VERTEX
8
OBJECT__31
10
-47.500000
20
45.900002
30
13.800000
70
192
0
VERTEX
8
OBJECT__31
10
-47.148998
20
45.900002
30
14.649000
70
192
0
VERTEX
8
OBJECT__31
10
-46.182999
20
46.182999
30
15.000000
70
192
0
VERTEX
8
OBJECT__31
10
-46.299999
20
45.900002
30
15.000000
70
192
0
VERTEX
8
OBJECT__31
10
-45.900002
20
46.299999
30
15.000000
70
192
0
VERTEX
8
OBJECT__31
10
-45.900002
20
47.500000
30
13.800000
70
192
0
VERTEX
8
OBJECT__31
10
0
20
0
30
0
70
128
71
1
72
2
73
3
0
VERTEX
8
OBJECT__31
10
0
20
0
30
0
70
128
71
4
72
5
73
2
0
VERTEX
8
OBJECT__31
10
0
20
0
30
0
70
128
71
3
72
2
73
6
0
VERTEX
8
OBJECT__31
10
0
20
0
30
0
70
128
71
5
72
7
73
6
0
VERTEX
8
OBJECT__31
10
0
20
0
30
0
70
128
71
6
72
2
73
5
0
VERTEX
8
OBJECT__31
10
0
20
0
30
0
70
128
71
6
72
8
73
3
0
VERTEX
8
OBJECT__31
10
0
20
0
30
0
70
128
71
2
72
1
73
4
0
VERTEX
8
OBJECT__31
10
0
20
0
30
0
70
128
71
3
72
9
73
1
0
SEQEND
8
OBJECT__31
0
POLYLINE
8
OBJECT__32
66
1
70
64
71
6
72
4
62
253
0
VERTEX
8
OBJECT__32
10
-45.900002
20
47.500000
30
13.800000
70
192
0
VERTEX
8
OBJECT__32
10
-45.900002
20
47.148998
30
14.649000
70
192
0
VERTEX
8
OBJECT__32
10
45.900002
20
47.148998
30
14.649000
70
192
0
VERTEX
8
OBJECT__32
10
-45.900002
20
46.299999
30
15.000000
70
192
0
VERTEX
8
OBJECT__32
10
45.900002
20
46.299999
30
15.000000
70
192
0
VERTEX
8
OBJECT__32
10
45.900002
20
47.500000
30
13.800000
70
192
0
VERTEX
8
OBJECT__32
10
0
20
0
30
0
70
128
71
1
72
2
73
3
0
VERTEX
8
OBJECT__32
10
0
20
0
30
0
70
128
71
3
72
2
73
4
0
VERTEX
8
OBJECT__32
10
0
20
0
30
0
70
128
71
4
72
5
73
3
0
VERTEX
8
OBJECT__32
10
0
20
0
30
0
70
128
71
3
72
6
73
1
0
SEQEND
8
OBJECT__32
0
POLYLINE
8
OBJECT__33
66
1
70
64
71
12
72
10
62
253
0
VERTEX
8
OBJECT__33
10
14.288000
20
-161.496994
30
58.444000
70
192
0
VERTEX
8
OBJECT__33
10
8.244000
20
-161.496994
30
81.000000
70
192
0
VERTEX
8
OBJECT__33
10
14.288000
20
-161.496994
30
74.956001
70
192
0
VERTEX
8
OBJECT__33
10
-0.012000
20
-161.496994
30
83.211998
70
192
0
VERTEX
8
OBJECT__33
10
-8.269000
20
-161.496994
30
52.400002
70
192
0
VERTEX
8
OBJECT__33
10
-14.312000
20
-161.496994
30
58.444000
70
192
0
VERTEX
8
OBJECT__33
10
8.244000
20
-161.496994
30
52.400002
70
192
0
VERTEX
8
OBJECT__33
10
-16.525000
20
-161.496994
30
66.699997
70
192
0
VERTEX
8
OBJECT__33
10
-14.312000
20
-161.496994
30
74.956001
70
192
0
VERTEX
8
OBJECT__33
10
-0.012000
20
-161.496994
30
50.188000
70
192
0
VERTEX
8
OBJECT__33
10
16.500000
20
-161.496994
30
66.699997
70
192
0
VERTEX
8
OBJECT__33
10
-8.269000
20
-161.496994
30
81.000000
70
192
0
VERTEX
8
OBJECT__33
10
0
20
0
30
0
70
128
71
1
72
2
73
3
0
VERTEX
8
OBJECT__33
10
0
20
0
30
0
70
128
71
4
72
5
73
6
0
VERTEX
8
OBJECT__33
10
0
20
0
30
0
70
128
71
4
72
1
73
7
0
VERTEX
8
OBJECT__33
10
0
20
0
30
0
70
128
71
1
72
4
73
2
0
VERTEX
8
OBJECT__33
10
0
20
0
30
0
70
128
71
4
72
8
73
9
0
VERTEX
8
OBJECT__33
10
0
20
0
30
0
70
128
71
4
72
10
73
5
0
VERTEX
8
OBJECT__33
10
0
20
0
30
0
70
128
71
3
72
11
73
1
0
VERTEX
8
OBJECT__33
10
0
20
0
30
0
70
128
71
6
72
8
73
4
0
VERTEX
8
OBJECT__33
10
0
20
0
30
0
70
128
71
9
72
12
73
4
0
VERTEX
8
OBJECT__33
10
0
20
0
30
0
70
128
71
7
72
10
73
4
0
SEQEND
8
OBJECT__33
0
POLYLINE
8
OBJECT__34
66
1
70
64
71
24
72
24
62
253
0
VERTEX
8
OBJECT__34
10
14.288000
20
-161.496994
30
74.956001
70
192
0
VERTEX
8
OBJECT__34
10
14.288000
20
-176.837006
30
74.956001
70
192
0
VERTEX
8
OBJECT__34
10
16.500000
20
-176.837006
30
66.699997
70
192
0
VERTEX
8
OBJECT__34
10
8.244000
20
-161.496994
30
81.000000
70
192
0
VERTEX
8
OBJECT__34
10
8.244000
20
-176.837006
30
81.000000
70
192
0
VERTEX
8
OBJECT__34
10
-0.012000
20
-161.496994
30
83.211998
70
192
0
VERTEX
8
OBJECT__34
10
-0.012000
20
-176.837006
30
83.211998
70
192
0
VERTEX
8
OBJECT__34
10
-8.269000
20
-161.496994
30
81.000000
70
192
0
VERTEX
8
OBJECT__34
10
-8.269000
20
-176.837006
30
81.000000
70
192
0
VERTEX
8
OBJECT__34
10
-14.312000
20
-161.496994
30
74.956001
70
192
0
VERTEX
8
OBJECT__34
10
-14.312000
20
-176.837006
30
74.956001
70
192
0
VERTEX
8
OBJECT__34
10
-16.525000
20
-161.496994
30
66.699997
70
192
0
VERTEX
8
OBJECT__34
10
-16.525000
20
-176.837006
30
66.699997
70
192
0
VERTEX
8
OBJECT__34
10
-14.312000
20
-161.496994
30
58.444000
70
192
0
VERTEX
8
OBJECT__34
10
-14.312000
20
-176.837006
30
58.444000
70
192
0
VERTEX
8
OBJECT__34
10
-8.269000
20
-161.496994
30
52.400002
70
192
0
VERTEX
8
OBJECT__34
10
-8.269000
20
-176.837006
30
52.400002
70
192
0
VERTEX
8
OBJECT__34
10
-0.012000
20
-161.496994
30
50.188000
70
192
0
VERTEX
8
OBJECT__34
10
-0.012000
20
-176.837006
30
50.188000
70
192
0
VERTEX
8
OBJECT__34
10
8.244000
20
-161.496994
30
52.400002
70
192
0
VERTEX
8
OBJECT__34
10
8.244000
20
-176.837006
30
52.400002
70
192
0
VERTEX
8
OBJECT__34
10
14.288000
20
-161.496994
30
58.444000
70
192
0
VERTEX
8
OBJECT__34
10
14.288000
20
-176.837006
30
58.444000
70
192
0
VERTEX
8
OBJECT__34
10
16.500000
20
-161.496994
30
66.699997
70
192
0
VERTEX
8
OBJECT__34
10
0
20
0
30
0
70
128
71
1
72
2
73
3
0
VERTEX
8
OBJECT__34
10
0
20
0
30
0
70
128
71
4
72
5
73
2
0
VERTEX
8
OBJECT__34
10
0
20
0
30
0
70
128
71
6
72
7
73
5
0
VERTEX
8
OBJECT__34
10
0
20
0
30
0
70
128
71
8
72
9
73
7
0
VERTEX
8
OBJECT__34
10
0
20
0
30
0
70
128
71
10
72
11
73
9
0
VERTEX
8
OBJECT__34
10
0
20
0
30
0
70
128
71
12
72
13
73
11
0
VERTEX
8
OBJECT__34
10
0
20
0
30
0
70
128
71
14
72
15
73
13
0
VERTEX
8
OBJECT__34
10
0
20
0
30
0
70
128
71
16
72
17
73
15
0
VERTEX
8
OBJECT__34
10
0
20
0
30
0
70
128
71
18
72
19
73
17
0
VERTEX
8
OBJECT__34
10
0
20
0
30
0
70
128
71
20
72
21
73
19
0
VERTEX
8
OBJECT__34
10
0
20
0
30
0
70
128
71
22
72
23
73
21
0
VERTEX
8
OBJECT__34
10
0
20
0
30
0
70
128
71
24
72
3
73
23
0
VERTEX
8
OBJECT__34
10
0
20
0
30
0
70
128
71
23
72
22
73
24
0
VERTEX
8
OBJECT__34
10
0
20
0
30
0
70
128
71
21
72
20
73
22
0
VERTEX
8
OBJECT__34
10
0
20
0
30
0
70
128
71
19
72
18
73
20
0
VERTEX
8
OBJECT__34
10
0
20
0
30
0
70
128
71
17
72
16
73
18
0
VERTEX
8
OBJECT__34
10
0
20
0
30
0
70
128
71
15
72
14
73
16
0
VERTEX
8
OBJECT__34
10
0
20
0
30
0
70
128
71
13
72
12
73
14
0
VERTEX
8
OBJECT__34
10
0
20
0
30
0
70
128
71
11
72
10
73
12
0
VERTEX
8
OBJECT__34
10
0
20
0
30
0
70
128
71
9
72
8
73
10
0
VERTEX
8
OBJECT__34
10
0
20
0
30
0
70
128
71
7
72
6
73
8
0
VERTEX
8
OBJECT__34
10
0
20
0
30
0
70
128
71
5
72
4
73
6
0
VERTEX
8
OBJECT__34
10
0
20
0
30
0
70
128
71
2
72
1
73
4
0
VERTEX
8
OBJECT__34
10
0
20
0
30
0
70
128
71
3
72
24
73
1
0
SEQEND
8
OBJECT__34
0
POLYLINE
8
OBJECT__36
66
1
70
64
71
9
72
7
62
253
0
VERTEX
8
OBJECT__36
10
-7.086000
20
-139.600006
30
72.646004
70
192
0
VERTEX
8
OBJECT__36
10
4.625000
20
-139.600006
30
74.710999
70
192
0
VERTEX
8
OBJECT__36
10
8.692000
20
-139.600006
30
69.863998
70
192
0
VERTEX
8
OBJECT__36
10
-1.606000
20
-139.600006
30
57.591000
70
192
0
VERTEX
8
OBJECT__36
10
-7.086000
20
-139.600006
30
60.754002
70
192
0
VERTEX
8
OBJECT__36
10
-9.250000
20
-139.600006
30
66.699997
70
192
0
VERTEX
8
OBJECT__36
10
8.692000
20
-139.600006
30
63.535999
70
192
0
VERTEX
8
OBJECT__36
10
4.625000
20
-139.600006
30
58.688999
70
192
0
VERTEX
8
OBJECT__36
10
-1.606000
20
-139.600006
30
75.808998
70
192
0
VERTEX
8
OBJECT__36
10
0
20
0
30
0
70
128
71
1
72
2
73
3
0
VERTEX
8
OBJECT__36
10
0
20
0
30
0
70
128
71
4
72
5
73
6
0
VERTEX
8
OBJECT__36
10
0
20
0
30
0
70
128
71
1
72
7
73
8
0
VERTEX
8
OBJECT__36
10
0
20
0
30
0
70
128
71
1
72
9
73
2
0
VERTEX
8
OBJECT__36
10
0
20
0
30
0
70
128
71
8
72
4
73
1
0
VERTEX
8
OBJECT__36
10
0
20
0
30
0
70
128
71
6
72
1
73
4
0
VERTEX
8
OBJECT__36
10
0
20
0
30
0
70
128
71
3
72
7
73
1
0
SEQEND
8
OBJECT__36
0
POLYLINE
8
OBJECT__37
66
1
70
64
71
18
72
18
62
253
0
VERTEX
8
OBJECT__37
10
-7.086000
20
-154.600006
30
72.646004
70
192
0
VERTEX
8
OBJECT__37
10
-7.086000
20
-139.600006
30
72.646004
70
192
0
VERTEX
8
OBJECT__37
10
-9.250000
20
-139.600006
30
66.699997
70
192
0
VERTEX
8
OBJECT__37
10
-1.606000
20
-154.600006
30
75.808998
70
192
0
VERTEX
8
OBJECT__37
10
-1.606000
20
-139.600006
30
75.808998
70
192
0
VERTEX
8
OBJECT__37
10
4.625000
20
-154.600006
30
74.710999
70
192
0
VERTEX
8
OBJECT__37
10
4.625000
20
-139.600006
30
74.710999
70
192
0
VERTEX
8
OBJECT__37
10
8.692000
20
-154.600006
30
69.863998
70
192
0
VERTEX
8
OBJECT__37
10
8.692000
20
-139.600006
30
69.863998
70
192
0
VERTEX
8
OBJECT__37
10
8.692000
20
-154.600006
30
63.535999
70
192
0
VERTEX
8
OBJECT__37
10
8.692000
20
-139.600006
30
63.535999
70
192
0
VERTEX
8
OBJECT__37
10
4.625000
20
-139.600006
30
58.688999
70
192
0
VERTEX
8
OBJECT__37
10
-1.606000
20
-139.600006
30
57.591000
70
192
0
VERTEX
8
OBJECT__37
10
4.625000
20
-154.600006
30
58.688999
70
192
0
VERTEX
8
OBJECT__37
10
-7.086000
20
-139.600006
30
60.754002
70
192
0
VERTEX
8
OBJECT__37
10
-1.606000
20
-154.600006
30
57.591000
70
192
0
VERTEX
8
OBJECT__37
10
-7.086000
20
-154.600006
30
60.754002
70
192
0
VERTEX
8
OBJECT__37
10
-9.250000
20
-154.600006
30
66.699997
70
192
0
VERTEX
8
OBJECT__37
10
0
20
0
30
0
70
128
71
1
72
2
73
3
0
VERTEX
8
OBJECT__37
10
0
20
0
30
0
70
128
71
4
72
5
73
2
0
VERTEX
8
OBJECT__37
10
0
20
0
30
0
70
128
71
6
72
7
73
5
0
VERTEX
8
OBJECT__37
10
0
20
0
30
0
70
128
71
8
72
9
73
7
0
VERTEX
8
OBJECT__37
10
0
20
0
30
0
70
128
71
10
72
11
73
9
0
VERTEX
8
OBJECT__37
10
0
20
0
30
0
70
128
71
12
72
11
73
10
0
VERTEX
8
OBJECT__37
10
0
20
0
30
0
70
128
71
13
72
12
73
14
0
VERTEX
8
OBJECT__37
10
0
20
0
30
0
70
128
71
15
72
13
73
16
0
VERTEX
8
OBJECT__37
10
0
20
0
30
0
70
128
71
3
72
15
73
17
0
VERTEX
8
OBJECT__37
10
0
20
0
30
0
70
128
71
17
72
18
73
3
0
VERTEX
8
OBJECT__37
10
0
20
0
30
0
70
128
71
16
72
17
73
15
0
VERTEX
8
OBJECT__37
10
0
20
0
30
0
70
128
71
14
72
16
73
13
0
VERTEX
8
OBJECT__37
10
0
20
0
30
0
70
128
71
10
72
14
73
12
0
VERTEX
8
OBJECT__37
10
0
20
0
30
0
70
128
71
9
72
8
73
10
0
VERTEX
8
OBJECT__37
10
0
20
0
30
0
70
128
71
7
72
6
73
8
0
VERTEX
8
OBJECT__37
10
0
20
0
30
0
70
128
71
5
72
4
73
6
0
VERTEX
8
OBJECT__37
10
0
20
0
30
0
70
128
71
2
72
1
73
4
0
VERTEX
8
OBJECT__37
10
0
20
0
30
0
70
128
71
3
72
18
73
1
0
SEQEND
8
OBJECT__37
0
POLYLINE
8
OBJECT__39
66
1
70
64
71
16
72
16
62
253
0
VERTEX
8
OBJECT__39
10
8.692000
20
-154.600006
30
69.863998
70
192
0
VERTEX
8
OBJECT__39
10
5.186000
20
-154.600006
30
69.197998
70
192
0
VERTEX
8
OBJECT__39
10
5.186000
20
-154.600006
30
64.202003
70
192
0
VERTEX
8
OBJECT__39
10
4.625000
20
-154.600006
30
74.710999
70
192
0
VERTEX
8
OBJECT__39
10
1.281000
20
-154.600006
30
72.311996
70
192
0
VERTEX
8
OBJECT__39
10
-1.606000
20
-154.600006
30
75.808998
70
192
0
VERTEX
8
OBJECT__39
10
-7.086000
20
-154.600006
30
72.646004
70
192
0
VERTEX
8
OBJECT__39
10
-3.589000
20
-154.600006
30
71.200996
70
192
0
VERTEX
8
OBJECT__39
10
-9.250000
20
-154.600006
30
66.699997
70
192
0
VERTEX
8
OBJECT__39
10
-5.757000
20
-154.600006
30
66.699997
70
192
0
VERTEX
8
OBJECT__39
10
-7.086000
20
-154.600006
30
60.754002
70
192
0
VERTEX
8
OBJECT__39
10
-3.589000
20
-154.600006
30
62.199001
70
192
0
VERTEX
8
OBJECT__39
10
-1.606000
20
-154.600006
30
57.591000
70
192
0
VERTEX
8
OBJECT__39
10
1.281000
20
-154.600006
30
61.088001
70
192
0
VERTEX
8
OBJECT__39
10
4.625000
20
-154.600006
30
58.688999
70
192
0
VERTEX
8
OBJECT__39
10
8.692000
20
-154.600006
30
63.535999
70
192
0
VERTEX
8
OBJECT__39
10
0
20
0
30
0
70
128
71
1
72
2
73
3
0
VERTEX
8
OBJECT__39
10
0
20
0
30
0
70
128
71
4
72
5
73
2
0
VERTEX
8
OBJECT__39
10
0
20
0
30
0
70
128
71
6
72
7
73
8
0
VERTEX
8
OBJECT__39
10
0
20
0
30
0
70
128
71
2
72
1
73
4
0
VERTEX
8
OBJECT__39
10
0
20
0
30
0
70
128
71
8
72
5
73
6
0
VERTEX
8
OBJECT__39
10
0
20
0
30
0
70
128
71
5
72
4
73
6
0
VERTEX
8
OBJECT__39
10
0
20
0
30
0
70
128
71
7
72
9
73
10
0
VERTEX
8
OBJECT__39
10
0
20
0
30
0
70
128
71
10
72
8
73
7
0
VERTEX
8
OBJECT__39
10
0
20
0
30
0
70
128
71
11
72
12
73
10
0
VERTEX
8
OBJECT__39
10
0
20
0
30
0
70
128
71
13
72
14
73
12
0
VERTEX
8
OBJECT__39
10
0
20
0
30
0
70
128
71
10
72
9
73
11
0
VERTEX
8
OBJECT__39
10
0
20
0
30
0
70
128
71
13
72
15
73
14
0
VERTEX
8
OBJECT__39
10
0
20
0
30
0
70
128
71
12
72
11
73
13
0
VERTEX
8
OBJECT__39
10
0
20
0
30
0
70
128
71
15
72
16
73
3
0
VERTEX
8
OBJECT__39
10
0
20
0
30
0
70
128
71
3
72
14
73
15
0
VERTEX
8
OBJECT__39
10
0
20
0
30
0
70
128
71
3
72
16
73
1
0
SEQEND
8
OBJECT__39
0
POLYLINE
8
OBJECT__40
66
1
70
64
71
14
72
14
62
253
0
VERTEX
8
OBJECT__40
10
-3.589000
20
-161.960999
30
71.200996
70
192
0
VERTEX
8
OBJECT__40
10
-3.589000
20
-154.600006
30
71.200996
70
192
0
VERTEX
8
OBJECT__40
10
-5.757000
20
-154.600006
30
66.699997
70
192
0
VERTEX
8
OBJECT__40
10
1.281000
20
-161.960999
30
72.311996
70
192
0
VERTEX
8
OBJECT__40
10
1.281000
20
-154.600006
30
72.311996
70
192
0
VERTEX
8
OBJECT__40
10
5.186000
20
-161.960999
30
69.197998
70
192
0
VERTEX
8
OBJECT__40
10
5.186000
20
-154.600006
30
69.197998
70
192
0
VERTEX
8
OBJECT__40
10
5.186000
20
-161.960999
30
64.202003
70
192
0
VERTEX
8
OBJECT__40
10
5.186000
20
-154.600006
30
64.202003
70
192
0
VERTEX
8
OBJECT__40
10
1.281000
20
-154.600006
30
61.088001
70
192
0
VERTEX
8
OBJECT__40
10
-3.589000
20
-154.600006
30
62.199001
70
192
0
VERTEX
8
OBJECT__40
10
1.281000
20
-161.960999
30
61.088001
70
192
0
VERTEX
8
OBJECT__40
10
-3.589000
20
-161.960999
30
62.199001
70
192
0
VERTEX
8
OBJECT__40
10
-5.757000
20
-161.960999
30
66.699997
70
192
0
VERTEX
8
OBJECT__40
10
0
20
0
30
0
70
128
71
1
72
2
73
3
0
VERTEX
8
OBJECT__40
10
0
20
0
30
0
70
128
71
4
72
5
73
2
0
VERTEX
8
OBJECT__40
10
0
20
0
30
0
70
128
71
6
72
7
73
5
0
VERTEX
8
OBJECT__40
10
0
20
0
30
0
70
128
71
8
72
9
73
7
0
VERTEX
8
OBJECT__40
10
0
20
0
30
0
70
128
71
10
72
9
73
8
0
VERTEX
8
OBJECT__40
10
0
20
0
30
0
70
128
71
11
72
10
73
12
0
VERTEX
8
OBJECT__40
10
0
20
0
30
0
70
128
71
3
72
11
73
13
0
VERTEX
8
OBJECT__40
10
0
20
0
30
0
70
128
71
13
72
14
73
3
0
VERTEX
8
OBJECT__40
10
0
20
0
30
0
70
128
71
12
72
13
73
11
0
VERTEX
8
OBJECT__40
10
0
20
0
30
0
70
128
71
8
72
12
73
10
0
VERTEX
8
OBJECT__40
10
0
20
0
30
0
70
128
71
7
72
6
73
8
0
VERTEX
8
OBJECT__40
10
0
20
0
30
0
70
128
71
5
72
4
73
6
0
VERTEX
8
OBJECT__40
10
0
20
0
30
0
70
128
71
2
72
1
73
4
0
VERTEX
8
OBJECT__40
10
0
20
0
30
0
70
128
71
3
72
14
73
1
0
SEQEND
8
OBJECT__40
0
POLYLINE
8
OBJECT__41
66
1
70
64
71
4
72
2
62
253
0
VERTEX
8
OBJECT__41
10
7.000000
20
-173.000000
30
119.699997
70
192
0
VERTEX
8
OBJECT__41
10
7.000000
20
-173.000000
30
189.703995
70
192
0
VERTEX
8
OBJECT__41
10
7.500000
20
-173.500000
30
189.703995
70
192
0
VERTEX
8
OBJECT__41
10
7.500000
20
-173.500000
30
119.699997
70
192
0
VERTEX
8
OBJECT__41
10
0
20
0
30
0
70
128
71
1
72
2
73
3
0
VERTEX
8
OBJECT__41
10
0
20
0
30
0
70
128
71
3
72
4
73
1
0
SEQEND
8
OBJECT__41
0
POLYLINE
8
OBJECT__42
66
1
70
64
71
18
72
16
62
253
0
VERTEX
8
OBJECT__42
10
8.193000
20
-173.000000
30
198.761993
70
192
0
VERTEX
8
OBJECT__42
10
8.676000
20
-173.500000
30
198.632996
70
192
0
VERTEX
8
OBJECT__42
10
7.500000
20
-173.500000
30
189.703995
70
192
0
VERTEX
8
OBJECT__42
10
11.689000
20
-173.000000
30
207.203995
70
192
0
VERTEX
8
OBJECT__42
10
12.122000
20
-173.500000
30
206.953995
70
192
0
VERTEX
8
OBJECT__42
10
9.363000
20
-173.500000
30
200.292007
70
192
0
VERTEX
8
OBJECT__42
10
17.250999
20
-173.000000
30
214.451996
70
192
0
VERTEX
8
OBJECT__42
10
17.605000
20
-173.500000
30
214.098999
70
192
0
VERTEX
8
OBJECT__42
10
14.314000
20
-173.500000
30
209.809998
70
192
0
VERTEX
8
OBJECT__42
10
24.500000
20
-173.000000
30
220.014008
70
192
0
VERTEX
8
OBJECT__42
10
21.893999
20
-173.500000
30
217.389999
70
192
0
VERTEX
8
OBJECT__42
10
24.750000
20
-173.500000
30
219.580994
70
192
0
VERTEX
8
OBJECT__42
10
32.941002
20
-173.000000
30
223.511002
70
192
0
VERTEX
8
OBJECT__42
10
31.410999
20
-173.500000
30
222.341003
70
192
0
VERTEX
8
OBJECT__42
10
33.070999
20
-173.500000
30
223.028000
70
192
0
VERTEX
8
OBJECT__42
10
42.000000
20
-173.000000
30
224.703995
70
192
0
VERTEX
8
OBJECT__42
10
42.000000
20
-173.500000
30
224.203995
70
192
0
VERTEX
8
OBJECT__42
10
7.000000
20
-173.000000
30
189.703995
70
192
0
VERTEX
8
OBJECT__42
10
0
20
0
30
0
70
128
71
1
72
2
73
3
0
VERTEX
8
OBJECT__42
10
0
20
0
30
0
70
128
71
4
72
5
73
6
0
VERTEX
8
OBJECT__42
10
0
20
0
30
0
70
128
71
6
72
1
73
4
0
VERTEX
8
OBJECT__42
10
0
20
0
30
0
70
128
71
7
72
8
73
9
0
VERTEX
8
OBJECT__42
10
0
20
0
30
0
70
128
71
9
72
4
73
7
0
VERTEX
8
OBJECT__42
10
0
20
0
30
0
70
128
71
7
72
10
73
11
0
VERTEX
8
OBJECT__42
10
0
20
0
30
0
70
128
71
10
72
12
73
11
0
VERTEX
8
OBJECT__42
10
0
20
0
30
0
70
128
71
10
72
13
73
14
0
VERTEX
8
OBJECT__42
10
0
20
0
30
0
70
128
71
13
72
15
73
14
0
VERTEX
8
OBJECT__42
10
0
20
0
30
0
70
128
71
16
72
17
73
15
0
VERTEX
8
OBJECT__42
10
0
20
0
30
0
70
128
71
15
72
13
73
16
0
VERTEX
8
OBJECT__42
10
0
20
0
30
0
70
128
71
14
72
12
73
10
0
VERTEX
8
OBJECT__42
10
0
20
0
30
0
70
128
71
11
72
8
73
7
0
VERTEX
8
OBJECT__42
10
0
20
0
30
0
70
128
71
9
72
5
73
4
0
VERTEX
8
OBJECT__42
10
0
20
0
30
0
70
128
71
6
72
2
73
1
0
VERTEX
8
OBJECT__42
10
0
20
0
30
0
70
128
71
3
72
18
73
1
0
SEQEND
8
OBJECT__42
0
POLYLINE
8
OBJECT__44
66
1
70
64
71
4
72
2
62
253
0
VERTEX
8
OBJECT__44
10
7.500000
20
-173.500000
30
189.703995
70
192
0
VERTEX
8
OBJECT__44
10
7.500000
20
-206.500000
30
189.703995
70
192
0
VERTEX
8
OBJECT__44
10
7.500000
20
-206.500000
30
119.699997
70
192
0
VERTEX
8
OBJECT__44
10
7.500000
20
-173.500000
30
119.699997
70
192
0
VERTEX
8
OBJECT__44
10
0
20
0
30
0
70
128
71
1
72
2
73
3
0
VERTEX
8
OBJECT__44
10
0
20
0
30
0
70
128
71
3
72
4
73
1
0
SEQEND
8
OBJECT__44
0
POLYLINE
8
OBJECT__45
66
1
70
64
71
4
72
2
62
253
0
VERTEX
8
OBJECT__45
10
42.000000
20
-173.000000
30
224.703995
70
192
0
VERTEX
8
OBJECT__45
10
167.082993
20
-173.000000
30
224.703995
70
192
0
VERTEX
8
OBJECT__45
10
167.082993
20
-173.500000
30
224.203995
70
192
0
VERTEX
8
OBJECT__45
10
42.000000
20
-173.500000
30
224.203995
70
192
0
VERTEX
8
OBJECT__45
10
0
20
0
30
0
70
128
71
1
72
2
73
3
0
VERTEX
8
OBJECT__45
10
0
20
0
30
0
70
128
71
3
72
4
73
1
0
SEQEND
8
OBJECT__45
0
POLYLINE
8
OBJECT__46
66
1
70
64
71
22
72
20
62
253
0
VERTEX
8
OBJECT__46
10
33.070999
20
-206.500000
30
223.028000
70
192
0
VERTEX
8
OBJECT__46
10
31.410999
20
-206.500000
30
222.341003
70
192
0
VERTEX
8
OBJECT__46
10
31.410999
20
-173.500000
30
222.341003
70
192
0
VERTEX
8
OBJECT__46
10
42.000000
20
-206.500000
30
224.203995
70
192
0
VERTEX
8
OBJECT__46
10
33.070999
20
-173.500000
30
223.028000
70
192
0
VERTEX
8
OBJECT__46
10
42.000000
20
-173.500000
30
224.203995
70
192
0
VERTEX
8
OBJECT__46
10
21.893999
20
-173.500000
30
217.389999
70
192
0
VERTEX
8
OBJECT__46
10
24.750000
20
-173.500000
30
219.580994
70
192
0
VERTEX
8
OBJECT__46
10
24.750000
20
-206.500000
30
219.580994
70
192
0
VERTEX
8
OBJECT__46
10
14.314000
20
-173.500000
30
209.809998
70
192
0
VERTEX
8
OBJECT__46
10
17.605000
20
-173.500000
30
214.098999
70
192
0
VERTEX
8
OBJECT__46
10
17.605000
20
-206.500000
30
214.098999
70
192
0
VERTEX
8
OBJECT__46
10
21.893999
20
-206.500000
30
217.389999
70
192
0
VERTEX
8
OBJECT__46
10
9.363000
20
-173.500000
30
200.292007
70
192
0
VERTEX
8
OBJECT__46
10
12.122000
20
-173.500000
30
206.953995
70
192
0
VERTEX
8
OBJECT__46
10
12.122000
20
-206.500000
30
206.953995
70
192
0
VERTEX
8
OBJECT__46
10
14.314000
20
-206.500000
30
209.809998
70
192
0
VERTEX
8
OBJECT__46
10
7.500000
20
-173.500000
30
189.703995
70
192
0
VERTEX
8
OBJECT__46
10
8.676000
20
-173.500000
30
198.632996
70
192
0
VERTEX
8
OBJECT__46
10
8.676000
20
-206.500000
30
198.632996
70
192
0
VERTEX
8
OBJECT__46
10
9.363000
20
-206.500000
30
200.292007
70
192
0
VERTEX
8
OBJECT__46
10
7.500000
20
-206.500000
30
189.703995
70
192
0
VERTEX
8
OBJECT__46
10
0
20
0
30
0
70
128
71
1
72
2
73
3
0
VERTEX
8
OBJECT__46
10
0
20
0
30
0
70
128
71
4
72
1
73
5
0
VERTEX
8
OBJECT__46
10
0
20
0
30
0
70
128
71
5
72
6
73
4
0
VERTEX
8
OBJECT__46
10
0
20
0
30
0
70
128
71
7
72
8
73
9
0
VERTEX
8
OBJECT__46
10
0
20
0
30
0
70
128
71
8
72
3
73
2
0
VERTEX
8
OBJECT__46
10
0
20
0
30
0
70
128
71
2
72
9
73
8
0
VERTEX
8
OBJECT__46
10
0
20
0
30
0
70
128
71
10
72
11
73
12
0
VERTEX
8
OBJECT__46
10
0
20
0
30
0
70
128
71
13
72
12
73
11
0
VERTEX
8
OBJECT__46
10
0
20
0
30
0
70
128
71
11
72
7
73
13
0
VERTEX
8
OBJECT__46
10
0
20
0
30
0
70
128
71
14
72
15
73
16
0
VERTEX
8
OBJECT__46
10
0
20
0
30
0
70
128
71
17
72
16
73
15
0
VERTEX
8
OBJECT__46
10
0
20
0
30
0
70
128
71
15
72
10
73
17
0
VERTEX
8
OBJECT__46
10
0
20
0
30
0
70
128
71
18
72
19
73
20
0
VERTEX
8
OBJECT__46
10
0
20
0
30
0
70
128
71
21
72
20
73
19
0
VERTEX
8
OBJECT__46
10
0
20
0
30
0
70
128
71
19
72
14
73
21
0
VERTEX
8
OBJECT__46
10
0
20
0
30
0
70
128
71
20
72
22
73
18
0
VERTEX
8
OBJECT__46
10
0
20
0
30
0
70
128
71
16
72
21
73
14
0
VERTEX
8
OBJECT__46
10
0
20
0
30
0
70
128
71
12
72
17
73
10
0
VERTEX
8
OBJECT__46
10
0
20
0
30
0
70
128
71
9
72
13
73
7
0
VERTEX
8
OBJECT__46
10
0
20
0
30
0
70
128
71
3
72
5
73
1
0
SEQEND
8
OBJECT__46
0
POLYLINE
8
OBJECT__47
66
1
70
64
71
6
72
4
62
253
0
VERTEX
8
OBJECT__47
10
7.000000
20
-207.000000
30
119.699997
70
192
0
VERTEX
8
OBJECT__47
10
7.354000
20
-206.854004
30
119.699997
70
192
0
VERTEX
8
OBJECT__47
10
7.250000
20
-206.750000
30
189.703995
70
192
0
VERTEX
8
OBJECT__47
10
7.500000
20
-206.500000
30
119.699997
70
192
0
VERTEX
8
OBJECT__47
10
7.500000
20
-206.500000
30
189.703995
70
192
0
VERTEX
8
OBJECT__47
10
7.000000
20
-207.000000
30
189.703995
70
192
0
VERTEX
8
OBJECT__47
10
0
20
0
30
0
70
128
71
1
72
2
73
3
0
VERTEX
8
OBJECT__47
10
0
20
0
30
0
70
128
71
4
72
5
73
3
0
VERTEX
8
OBJECT__47
10
0
20
0
30
0
70
128
71
3
72
2
73
4
0
VERTEX
8
OBJECT__47
10
0
20
0
30
0
70
128
71
3
72
6
73
1
0
SEQEND
8
OBJECT__47
0
POLYLINE
8
OBJECT__48
66
1
70
64
71
19
72
17
62
253
0
VERTEX
8
OBJECT__48
10
8.193000
20
-207.000000
30
198.761993
70
192
0
VERTEX
8
OBJECT__48
10
7.250000
20
-206.750000
30
189.703995
70
192
0
VERTEX
8
OBJECT__48
10
7.500000
20
-206.500000
30
189.703995
70
192
0
VERTEX
8
OBJECT__48
10
7.000000
20
-207.000000
30
189.703995
70
192
0
VERTEX
8
OBJECT__48
10
11.689000
20
-207.000000
30
207.203995
70
192
0
VERTEX
8
OBJECT__48
10
9.363000
20
-206.500000
30
200.292007
70
192
0
VERTEX
8
OBJECT__48
10
8.676000
20
-206.500000
30
198.632996
70
192
0
VERTEX
8
OBJECT__48
10
17.250999
20
-207.000000
30
214.451996
70
192
0
VERTEX
8
OBJECT__48
10
14.314000
20
-206.500000
30
209.809998
70
192
0
VERTEX
8
OBJECT__48
10
12.122000
20
-206.500000
30
206.953995
70
192
0
VERTEX
8
OBJECT__48
10
17.605000
20
-206.500000
30
214.098999
70
192
0
VERTEX
8
OBJECT__48
10
21.893999
20
-206.500000
30
217.389999
70
192
0
VERTEX
8
OBJECT__48
10
24.500000
20
-207.000000
30
220.014008
70
192
0
VERTEX
8
OBJECT__48
10
24.750000
20
-206.500000
30
219.580994
70
192
0
VERTEX
8
OBJECT__48
10
31.410999
20
-206.500000
30
222.341003
70
192
0
VERTEX
8
OBJECT__48
10
32.941002
20
-207.000000
30
223.511002
70
192
0
VERTEX
8
OBJECT__48
10
42.000000
20
-207.000000
30
224.703995
70
192
0
VERTEX
8
OBJECT__48
10
33.070999
20
-206.500000
30
223.028000
70
192
0
VERTEX
8
OBJECT__48
10
42.000000
20
-206.500000
30
224.203995
70
192
0
VERTEX
8
OBJECT__48
10
0
20
0
30
0
70
128
71
1
72
2
73
3
0
VERTEX
8
OBJECT__48
10
0
20
0
30
0
70
128
71
1
72
4
73
2
0
VERTEX
8
OBJECT__48
10
0
20
0
30
0
70
128
71
5
72
1
73
6
0
VERTEX
8
OBJECT__48
10
0
20
0
30
0
70
128
71
1
72
7
73
6
0
VERTEX
8
OBJECT__48
10
0
20
0
30
0
70
128
71
8
72
5
73
9
0
VERTEX
8
OBJECT__48
10
0
20
0
30
0
70
128
71
5
72
10
73
9
0
VERTEX
8
OBJECT__48
10
0
20
0
30
0
70
128
71
8
72
11
73
12
0
VERTEX
8
OBJECT__48
10
0
20
0
30
0
70
128
71
12
72
13
73
8
0
VERTEX
8
OBJECT__48
10
0
20
0
30
0
70
128
71
13
72
14
73
15
0
VERTEX
8
OBJECT__48
10
0
20
0
30
0
70
128
71
15
72
16
73
13
0
VERTEX
8
OBJECT__48
10
0
20
0
30
0
70
128
71
17
72
16
73
18
0
VERTEX
8
OBJECT__48
10
0
20
0
30
0
70
128
71
18
72
19
73
17
0
VERTEX
8
OBJECT__48
10
0
20
0
30
0
70
128
71
15
72
18
73
16
0
VERTEX
8
OBJECT__48
10
0
20
0
30
0
70
128
71
12
72
14
73
13
0
VERTEX
8
OBJECT__48
10
0
20
0
30
0
70
128
71
9
72
11
73
8
0
VERTEX
8
OBJECT__48
10
0
20
0
30
0
70
128
71
6
72
10
73
5
0
VERTEX
8
OBJECT__48
10
0
20
0
30
0
70
128
71
3
72
7
73
1
0
SEQEND
8
OBJECT__48
0
POLYLINE
8
OBJECT__49
66
1
70
64
71
4
72
2
62
253
0
VERTEX
8
OBJECT__49
10
42.000000
20
-206.500000
30
224.203995
70
192
0
VERTEX
8
OBJECT__49
10
167.082993
20
-206.500000
30
224.203995
70
192
0
VERTEX
8
OBJECT__49
10
167.082993
20
-207.000000
30
224.703995
70
192
0
VERTEX
8
OBJECT__49
10
42.000000
20
-207.000000
30
224.703995
70
192
0
VERTEX
8
OBJECT__49
10
0
20
0
30
0
70
128
71
1
72
2
73
3
0
VERTEX
8
OBJECT__49
10
0
20
0
30
0
70
128
71
3
72
4
73
1
0
SEQEND
8
OBJECT__49
0
POLYLINE
8
OBJECT__50
66
1
70
64
71
4
72
2
62
253
0
VERTEX
8
OBJECT__50
10
42.000000
20
-173.500000
30
224.203995
70
192
0
VERTEX
8
OBJECT__50
10
167.082993
20
-173.500000
30
224.203995
70
192
0
VERTEX
8
OBJECT__50
10
167.082993
20
-206.500000
30
224.203995
70
192
0
VERTEX
8
OBJECT__50
10
42.000000
20
-206.500000
30
224.203995
70
192
0
VERTEX
8
OBJECT__50
10
0
20
0
30
0
70
128
71
1
72
2
73
3
0
VERTEX
8
OBJECT__50
10
0
20
0
30
0
70
128
71
3
72
4
73
1
0
SEQEND
8
OBJECT__50
0
POLYLINE
8
OBJECT__51
66
1
70
64
71
16
72
14
62
253
0
VERTEX
8
OBJECT__51
10
167.082993
20
-173.000000
30
224.703995
70
192
0
VERTEX
8
OBJECT__51
10
175.651001
20
-173.000000
30
223.639008
70
192
0
VERTEX
8
OBJECT__51
10
175.529007
20
-173.500000
30
223.154007
70
192
0
VERTEX
8
OBJECT__51
10
183.697998
20
-173.000000
30
220.507996
70
192
0
VERTEX
8
OBJECT__51
10
179.494995
20
-173.500000
30
221.610992
70
192
0
VERTEX
8
OBJECT__51
10
183.460999
20
-173.500000
30
220.067993
70
192
0
VERTEX
8
OBJECT__51
10
190.733994
20
-173.000000
30
215.503006
70
192
0
VERTEX
8
OBJECT__51
10
190.395996
20
-173.500000
30
215.134995
70
192
0
VERTEX
8
OBJECT__51
10
196.330002
20
-173.000000
30
208.927994
70
192
0
VERTEX
8
OBJECT__51
10
195.912994
20
-173.500000
30
208.654007
70
192
0
VERTEX
8
OBJECT__51
10
200.147003
20
-173.000000
30
201.182999
70
192
0
VERTEX
8
OBJECT__51
10
197.794006
20
-173.500000
30
204.837006
70
192
0
VERTEX
8
OBJECT__51
10
199.673996
20
-173.500000
30
201.018997
70
192
0
VERTEX
8
OBJECT__51
10
201.951004
20
-173.000000
30
192.740005
70
192
0
VERTEX
8
OBJECT__51
10
201.453003
20
-173.500000
30
192.695999
70
192
0
VERTEX
8
OBJECT__51
10
167.082993
20
-173.500000
30
224.203995
70
192
0
VERTEX
8
OBJECT__51
10
0
20
0
30
0
70
128
71
1
72
2
73
3
0
VERTEX
8
OBJECT__51
10
0
20
0
30
0
70
128
71
2
72
4
73
5
0
VERTEX
8
OBJECT__51
10
0
20
0
30
0
70
128
71
4
72
6
73
5
0
VERTEX
8
OBJECT__51
10
0
20
0
30
0
70
128
71
7
72
8
73
6
0
VERTEX
8
OBJECT__51
10
0
20
0
30
0
70
128
71
9
72
10
73
8
0
VERTEX
8
OBJECT__51
10
0
20
0
30
0
70
128
71
9
72
11
73
12
0
VERTEX
8
OBJECT__51
10
0
20
0
30
0
70
128
71
11
72
13
73
12
0
VERTEX
8
OBJECT__51
10
0
20
0
30
0
70
128
71
14
72
15
73
13
0
VERTEX
8
OBJECT__51
10
0
20
0
30
0
70
128
71
13
72
11
73
14
0
VERTEX
8
OBJECT__51
10
0
20
0
30
0
70
128
71
12
72
10
73
9
0
VERTEX
8
OBJECT__51
10
0
20
0
30
0
70
128
71
8
72
7
73
9
0
VERTEX
8
OBJECT__51
10
0
20
0
30
0
70
128
71
6
72
4
73
7
0
VERTEX
8
OBJECT__51
10
0
20
0
30
0
70
128
71
5
72
3
73
2
0
VERTEX
8
OBJECT__51
10
0
20
0
30
0
70
128
71
3
72
16
73
1
0
SEQEND
8
OBJECT__51
0
POLYLINE
8
OBJECT__52
66
1
70
64
71
16
72
14
62
253
0
VERTEX
8
OBJECT__52
10
167.082993
20
-207.000000
30
224.703995
70
192
0
VERTEX
8
OBJECT__52
10
167.082993
20
-206.500000
30
224.203995
70
192
0
VERTEX
8
OBJECT__52
10
175.529007
20
-206.500000
30
223.154007
70
192
0
VERTEX
8
OBJECT__52
10
175.651001
20
-207.000000
30
223.639008
70
192
0
VERTEX
8
OBJECT__52
10
179.494995
20
-206.500000
30
221.610992
70
192
0
VERTEX
8
OBJECT__52
10
183.697998
20
-207.000000
30
220.507996
70
192
0
VERTEX
8
OBJECT__52
10
190.733994
20
-207.000000
30
215.503006
70
192
0
VERTEX
8
OBJECT__52
10
183.460999
20
-206.500000
30
220.067993
70
192
0
VERTEX
8
OBJECT__52
10
196.330002
20
-207.000000
30
208.927994
70
192
0
VERTEX
8
OBJECT__52
10
190.395996
20
-206.500000
30
215.134995
70
192
0
VERTEX
8
OBJECT__52
10
195.912994
20
-206.500000
30
208.654007
70
192
0
VERTEX
8
OBJECT__52
10
197.794006
20
-206.500000
30
204.837006
70
192
0
VERTEX
8
OBJECT__52
10
200.147003
20
-207.000000
30
201.182999
70
192
0
VERTEX
8
OBJECT__52
10
201.951004
20
-207.000000
30
192.740005
70
192
0
VERTEX
8
OBJECT__52
10
199.673996
20
-206.500000
30
201.018997
70
192
0
VERTEX
8
OBJECT__52
10
201.453003
20
-206.500000
30
192.695999
70
192
0
VERTEX
8
OBJECT__52
10
0
20
0
30
0
70
128
71
1
72
2
73
3
0
VERTEX
8
OBJECT__52
10
0
20
0
30
0
70
128
71
4
72
3
73
5
0
VERTEX
8
OBJECT__52
10
0
20
0
30
0
70
128
71
5
72
6
73
4
0
VERTEX
8
OBJECT__52
10
0
20
0
30
0
70
128
71
7
72
6
73
8
0
VERTEX
8
OBJECT__52
10
0
20
0
30
0
70
128
71
9
72
7
73
10
0
VERTEX
8
OBJECT__52
10
0
20
0
30
0
70
128
71
9
72
11
73
12
0
VERTEX
8
OBJECT__52
10
0
20
0
30
0
70
128
71
12
72
13
73
9
0
VERTEX
8
OBJECT__52
10
0
20
0
30
0
70
128
71
14
72
13
73
15
0
VERTEX
8
OBJECT__52
10
0
20
0
30
0
70
128
71
15
72
16
73
14
0
VERTEX
8
OBJECT__52
10
0
20
0
30
0
70
128
71
12
72
15
73
13
0
VERTEX
8
OBJECT__52
10
0
20
0
30
0
70
128
71
10
72
11
73
9
0
VERTEX
8
OBJECT__52
10
0
20
0
30
0
70
128
71
8
72
10
73
7
0
VERTEX
8
OBJECT__52
10
0
20
0
30
0
70
128
71
5
72
8
73
6
0
VERTEX
8
OBJECT__52
10
0
20
0
30
0
70
128
71
3
72
4
73
1
0
SEQEND
8
OBJECT__52
0
POLYLINE
8
OBJECT__53
66
1
70
64
71
18
72
16
62
253
0
VERTEX
8
OBJECT__53
10
197.794006
20
-173.500000
30
204.837006
70
192
0
VERTEX
8
OBJECT__53
10
199.673996
20
-173.500000
30
201.018997
70
192
0
VERTEX
8
OBJECT__53
10
199.673996
20
-206.500000
30
201.018997
70
192
0
VERTEX
8
OBJECT__53
10
201.453003
20
-206.500000
30
192.695999
70
192
0
VERTEX
8
OBJECT__53
10
201.453003
20
-173.500000
30
192.695999
70
192
0
VERTEX
8
OBJECT__53
10
190.395996
20
-173.500000
30
215.134995
70
192
0
VERTEX
8
OBJECT__53
10
195.912994
20
-173.500000
30
208.654007
70
192
0
VERTEX
8
OBJECT__53
10
195.912994
20
-206.500000
30
208.654007
70
192
0
VERTEX
8
OBJECT__53
10
197.794006
20
-206.500000
30
204.837006
70
192
0
VERTEX
8
OBJECT__53
10
179.494995
20
-173.500000
30
221.610992
70
192
0
VERTEX
8
OBJECT__53
10
183.460999
20
-173.500000
30
220.067993
70
192
0
VERTEX
8
OBJECT__53
10
183.460999
20
-206.500000
30
220.067993
70
192
0
VERTEX
8
OBJECT__53
10
190.395996
20
-206.500000
30
215.134995
70
192
0
VERTEX
8
OBJECT__53
10
167.082993
20
-173.500000
30
224.203995
70
192
0
VERTEX
8
OBJECT__53
10
175.529007
20
-173.500000
30
223.154007
70
192
0
VERTEX
8
OBJECT__53
10
175.529007
20
-206.500000
30
223.154007
70
192
0
VERTEX
8
OBJECT__53
10
179.494995
20
-206.500000
30
221.610992
70
192
0
VERTEX
8
OBJECT__53
10
167.082993
20
-206.500000
30
224.203995
70
192
0
VERTEX
8
OBJECT__53
10
0
20
0
30
0
70
128
71
1
72
2
73
3
0
VERTEX
8
OBJECT__53
10
0
20
0
30
0
70
128
71
4
72
3
73
2
0
VERTEX
8
OBJECT__53
10
0
20
0
30
0
70
128
71
2
72
5
73
4
0
VERTEX
8
OBJECT__53
10
0
20
0
30
0
70
128
71
6
72
7
73
8
0
VERTEX
8
OBJECT__53
10
0
20
0
30
0
70
128
71
9
72
8
73
7
0
VERTEX
8
OBJECT__53
10
0
20
0
30
0
70
128
71
7
72
1
73
9
0
VERTEX
8
OBJECT__53
10
0
20
0
30
0
70
128
71
10
72
11
73
12
0
VERTEX
8
OBJECT__53
10
0
20
0
30
0
70
128
71
13
72
12
73
11
0
VERTEX
8
OBJECT__53
10
0
20
0
30
0
70
128
71
11
72
6
73
13
0
VERTEX
8
OBJECT__53
10
0
20
0
30
0
70
128
71
14
72
15
73
16
0
VERTEX
8
OBJECT__53
10
0
20
0
30
0
70
128
71
17
72
16
73
15
0
VERTEX
8
OBJECT__53
10
0
20
0
30
0
70
128
71
15
72
10
73
17
0
VERTEX
8
OBJECT__53
10
0
20
0
30
0
70
128
71
16
72
18
73
14
0
VERTEX
8
OBJECT__53
10
0
20
0
30
0
70
128
71
12
72
17
73
10
0
VERTEX
8
OBJECT__53
10
0
20
0
30
0
70
128
71
8
72
13
73
6
0
VERTEX
8
OBJECT__53
10
0
20
0
30
0
70
128
71
3
72
9
73
1
0
SEQEND
8
OBJECT__53
0
POLYLINE
8
OBJECT__54
66
1
70
64
71
4
72
2
62
253
0
VERTEX
8
OBJECT__54
10
202.526001
20
-173.000000
30
186.132996
70
192
0
VERTEX
8
OBJECT__54
10
202.028000
20
-173.500000
30
186.089005
70
192
0
VERTEX
8
OBJECT__54
10
201.453003
20
-173.500000
30
192.695999
70
192
0
VERTEX
8
OBJECT__54
10
201.951004
20
-173.000000
30
192.740005
70
192
0
VERTEX
8
OBJECT__54
10
0
20
0
30
0
70
128
71
1
72
2
73
3
0
VERTEX
8
OBJECT__54
10
0
20
0
30
0
70
128
71
3
72
4
73
1
0
SEQEND
8
OBJECT__54
0
POLYLINE
8
OBJECT__55
66
1
70
64
71
4
72
2
62
253
0
VERTEX
8
OBJECT__55
10
202.526001
20
-207.000000
30
186.132996
70
192
0
VERTEX
8
OBJECT__55
10
201.951004
20
-207.000000
30
192.740005
70
192
0
VERTEX
8
OBJECT__55
10
201.453003
20
-206.500000
30
192.695999
70
192
0
VERTEX
8
OBJECT__55
10
202.028000
20
-206.500000
30
186.089005
70
192
0
VERTEX
8
OBJECT__55
10
0
20
0
30
0
70
128
71
1
72
2
73
3
0
VERTEX
8
OBJECT__55
10
0
20
0
30
0
70
128
71
3
72
4
73
1
0
SEQEND
8
OBJECT__55
0
POLYLINE
8
OBJECT__56
66
1
70
64
71
4
72
2
62
253
0
VERTEX
8
OBJECT__56
10
201.453003
20
-173.500000
30
192.695999
70
192
0
VERTEX
8
OBJECT__56
10
202.028000
20
-173.500000
30
186.089005
70
192
0
VERTEX
8
OBJECT__56
10
202.028000
20
-206.500000
30
186.089005
70
192
0
VERTEX
8
OBJECT__56
10
201.453003
20
-206.500000
30
192.695999
70
192
0
VERTEX
8
OBJECT__56
10
0
20
0
30
0
70
128
71
1
72
2
73
3
0
VERTEX
8
OBJECT__56
10
0
20
0
30
0
70
128
71
3
72
4
73
1
0
SEQEND
8
OBJECT__56
0
POLYLINE
8
OBJECT__57
66
1
70
64
71
10
72
8
62
253
0
VERTEX
8
OBJECT__57
10
216.972000
20
-173.500000
30
187.391006
70
192
0
VERTEX
8
OBJECT__57
10
202.028000
20
-173.500000
30
186.089005
70
192
0
VERTEX
8
OBJECT__57
10
202.526001
20
-173.000000
30
186.132996
70
192
0
VERTEX
8
OBJECT__57
10
216.972000
20
-206.500000
30
187.391006
70
192
0
VERTEX
8
OBJECT__57
10
216.473999
20
-207.000000
30
187.347000
70
192
0
VERTEX
8
OBJECT__57
10
202.526001
20
-207.000000
30
186.132996
70
192
0
VERTEX
8
OBJECT__57
10
202.028000
20
-206.500000
30
186.089005
70
192
0
VERTEX
8
OBJECT__57
10
216.473999
20
-173.000000
30
187.347000
70
192
0
VERTEX
8
OBJECT__57
10
216.826004
20
-206.854004
30
187.378006
70
192
0
VERTEX
8
OBJECT__57
10
216.826004
20
-173.145996
30
187.378006
70
192
0
VERTEX
8
OBJECT__57
10
0
20
0
30
0
70
128
71
1
72
2
73
3
0
VERTEX
8
OBJECT__57
10
0
20
0
30
0
70
128
71
4
72
5
73
6
0
VERTEX
8
OBJECT__57
10
0
20
0
30
0
70
128
71
7
72
2
73
1
0
VERTEX
8
OBJECT__57
10
0
20
0
30
0
70
128
71
3
72
8
73
1
0
VERTEX
8
OBJECT__57
10
0
20
0
30
0
70
128
71
4
72
9
73
5
0
VERTEX
8
OBJECT__57
10
0
20
0
30
0
70
128
71
8
72
10
73
1
0
VERTEX
8
OBJECT__57
10
0
20
0
30
0
70
128
71
1
72
4
73
7
0
VERTEX
8
OBJECT__57
10
0
20
0
30
0
70
128
71
6
72
7
73
4
0
SEQEND
8
OBJECT__57
0
POLYLINE
8
OBJECT__58
66
1
70
64
71
6
72
4
62
253
0
VERTEX
8
OBJECT__58
10
216.473999
20
-173.000000
30
187.347000
70
192
0
VERTEX
8
OBJECT__58
10
215.897995
20
-173.000000
30
193.953995
70
192
0
VERTEX
8
OBJECT__58
10
216.147003
20
-173.250000
30
193.975998
70
192
0
VERTEX
8
OBJECT__58
10
216.972000
20
-173.500000
30
187.391006
70
192
0
VERTEX
8
OBJECT__58
10
216.826004
20
-173.145996
30
187.378006
70
192
0
VERTEX
8
OBJECT__58
10
216.395996
20
-173.500000
30
193.996994
70
192
0
VERTEX
8
OBJECT__58
10
0
20
0
30
0
70
128
71
1
72
2
73
3
0
VERTEX
8
OBJECT__58
10
0
20
0
30
0
70
128
71
4
72
5
73
3
0
VERTEX
8
OBJECT__58
10
0
20
0
30
0
70
128
71
3
72
6
73
4
0
VERTEX
8
OBJECT__58
10
0
20
0
30
0
70
128
71
3
72
5
73
1
0
SEQEND
8
OBJECT__58
0
POLYLINE
8
OBJECT__59
66
1
70
64
71
4
72
2
62
253
0
VERTEX
8
OBJECT__59
10
216.972000
20
-173.500000
30
187.391006
70
192
0
VERTEX
8
OBJECT__59
10
216.395996
20
-173.500000
30
193.996994
70
192
0
VERTEX
8
OBJECT__59
10
216.395996
20
-206.500000
30
193.996994
70
192
0
VERTEX
8
OBJECT__59
10
216.972000
20
-206.500000
30
187.391006
70
192
0
VERTEX
8
OBJECT__59
10
0
20
0
30
0
70
128
71
1
72
2
73
3
0
VERTEX
8
OBJECT__59
10
0
20
0
30
0
70
128
71
3
72
4
73
1
0
SEQEND
8
OBJECT__59
0
POLYLINE
8
OBJECT__60
66
1
70
64
71
6
72
4
62
253
0
VERTEX
8
OBJECT__60
10
216.972000
20
-206.500000
30
187.391006
70
192
0
VERTEX
8
OBJECT__60
10
216.395996
20
-206.500000
30
193.996994
70
192
0
VERTEX
8
OBJECT__60
10
216.147003
20
-206.750000
30
193.975998
70
192
0
VERTEX
8
OBJECT__60
10
216.473999
20
-207.000000
30
187.347000
70
192
0
VERTEX
8
OBJECT__60
10
216.826004
20
-206.854004
30
187.378006
70
192
0
VERTEX
8
OBJECT__60
10
215.897995
20
-207.000000
30
193.953995
70
192
0
VERTEX
8
OBJECT__60
10
0
20
0
30
0
70
128
71
1
72
2
73
3
0
VERTEX
8
OBJECT__60
10
0
20
0
30
0
70
128
71
4
72
5
73
3
0
VERTEX
8
OBJECT__60
10
0
20
0
30
0
70
128
71
3
72
6
73
4
0
VERTEX
8
OBJECT__60
10
0
20
0
30
0
70
128
71
3
72
5
73
1
0
SEQEND
8
OBJECT__60
0
POLYLINE
8
OBJECT__61
66
1
70
64
71
22
72
20
62
253
0
VERTEX
8
OBJECT__61
10
167.082993
20
-173.250000
30
238.953995
70
192
0
VERTEX
8
OBJECT__61
10
177.498001
20
-173.500000
30
238.095001
70
192
0
VERTEX
8
OBJECT__61
10
177.393005
20
-173.000000
30
237.606995
70
192
0
VERTEX
8
OBJECT__61
10
167.082993
20
-173.000000
30
238.703995
70
192
0
VERTEX
8
OBJECT__61
10
187.240997
20
-173.000000
30
234.365005
70
192
0
VERTEX
8
OBJECT__61
10
181.475998
20
-173.500000
30
236.785995
70
192
0
VERTEX
8
OBJECT__61
10
187.447006
20
-173.500000
30
234.820999
70
192
0
VERTEX
8
OBJECT__61
10
194.679993
20
-173.500000
30
230.582993
70
192
0
VERTEX
8
OBJECT__61
10
196.186996
20
-173.000000
30
229.123993
70
192
0
VERTEX
8
OBJECT__61
10
204.205002
20
-173.500000
30
222.447998
70
192
0
VERTEX
8
OBJECT__61
10
203.830002
20
-173.000000
30
222.117996
70
192
0
VERTEX
8
OBJECT__61
10
209.826996
20
-173.000000
30
213.660004
70
192
0
VERTEX
8
OBJECT__61
10
205.414001
20
-173.500000
30
220.742996
70
192
0
VERTEX
8
OBJECT__61
10
210.264008
20
-173.500000
30
213.904999
70
192
0
VERTEX
8
OBJECT__61
10
212.740005
20
-173.500000
30
208.126007
70
192
0
VERTEX
8
OBJECT__61
10
213.910995
20
-173.000000
30
204.130005
70
192
0
VERTEX
8
OBJECT__61
10
214.389008
20
-173.500000
30
204.276993
70
192
0
VERTEX
8
OBJECT__61
10
216.147003
20
-173.250000
30
193.975998
70
192
0
VERTEX
8
OBJECT__61
10
215.897995
20
-173.000000
30
193.953995
70
192
0
VERTEX
8
OBJECT__61
10
216.395996
20
-173.500000
30
193.996994
70
192
0
VERTEX
8
OBJECT__61
10
196.483994
20
-173.500000
30
229.526001
70
192
0
VERTEX
8
OBJECT__61
10
167.082993
20
-173.500000
30
239.203995
70
192
0
VERTEX
8
OBJECT__61
10
0
20
0
30
0
70
128
71
1
72
2
73
3
0
VERTEX
8
OBJECT__61
10
0
20
0
30
0
70
128
71
3
72
4
73
1
0
VERTEX
8
OBJECT__61
10
0
20
0
30
0
70
128
71
5
72
3
73
6
0
VERTEX
8
OBJECT__61
10
0
20
0
30
0
70
128
71
3
72
2
73
6
0
VERTEX
8
OBJECT__61
10
0
20
0
30
0
70
128
71
5
72
7
73
8
0
VERTEX
8
OBJECT__61
10
0
20
0
30
0
70
128
71
8
72
9
73
5
0
VERTEX
8
OBJECT__61
10
0
20
0
30
0
70
128
71
10
72
11
73
9
0
VERTEX
8
OBJECT__61
10
0
20
0
30
0
70
128
71
12
72
11
73
13
0
VERTEX
8
OBJECT__61
10
0
20
0
30
0
70
128
71
11
72
10
73
13
0
VERTEX
8
OBJECT__61
10
0
20
0
30
0
70
128
71
12
72
14
73
15
0
VERTEX
8
OBJECT__61
10
0
20
0
30
0
70
128
71
15
72
16
73
12
0
VERTEX
8
OBJECT__61
10
0
20
0
30
0
70
128
71
17
72
18
73
19
0
VERTEX
8
OBJECT__61
10
0
20
0
30
0
70
128
71
17
72
20
73
18
0
VERTEX
8
OBJECT__61
10
0
20
0
30
0
70
128
71
19
72
16
73
17
0
VERTEX
8
OBJECT__61
10
0
20
0
30
0
70
128
71
15
72
17
73
16
0
VERTEX
8
OBJECT__61
10
0
20
0
30
0
70
128
71
13
72
14
73
12
0
VERTEX
8
OBJECT__61
10
0
20
0
30
0
70
128
71
9
72
21
73
10
0
VERTEX
8
OBJECT__61
10
0
20
0
30
0
70
128
71
8
72
21
73
9
0
VERTEX
8
OBJECT__61
10
0
20
0
30
0
70
128
71
6
72
7
73
5
0
VERTEX
8
OBJECT__61
10
0
20
0
30
0
70
128
71
1
72
22
73
2
0
SEQEND
8
OBJECT__61
0
POLYLINE
8
OBJECT__62
66
1
70
64
71
24
72
22
62
253
0
VERTEX
8
OBJECT__62
10
181.475998
20
-173.500000
30
236.785995
70
192
0
VERTEX
8
OBJECT__62
10
177.498001
20
-173.500000
30
238.095001
70
192
0
VERTEX
8
OBJECT__62
10
177.498001
20
-206.500000
30
238.095001
70
192
0
VERTEX
8
OBJECT__62
10
167.082993
20
-206.500000
30
239.203995
70
192
0
VERTEX
8
OBJECT__62
10
167.082993
20
-173.500000
30
239.203995
70
192
0
VERTEX
8
OBJECT__62
10
194.679993
20
-173.500000
30
230.582993
70
192
0
VERTEX
8
OBJECT__62
10
187.447006
20
-173.500000
30
234.820999
70
192
0
VERTEX
8
OBJECT__62
10
187.447006
20
-206.500000
30
234.820999
70
192
0
VERTEX
8
OBJECT__62
10
181.475998
20
-206.500000
30
236.785995
70
192
0
VERTEX
8
OBJECT__62
10
205.414001
20
-173.500000
30
220.742996
70
192
0
VERTEX
8
OBJECT__62
10
204.205002
20
-173.500000
30
222.447998
70
192
0
VERTEX
8
OBJECT__62
10
204.205002
20
-206.500000
30
222.447998
70
192
0
VERTEX
8
OBJECT__62
10
196.483994
20
-206.500000
30
229.526001
70
192
0
VERTEX
8
OBJECT__62
10
196.483994
20
-173.500000
30
229.526001
70
192
0
VERTEX
8
OBJECT__62
10
194.679993
20
-206.500000
30
230.582993
70
192
0
VERTEX
8
OBJECT__62
10
205.414001
20
-206.500000
30
220.742996
70
192
0
VERTEX
8
OBJECT__62
10
210.264008
20
-206.500000
30
213.904999
70
192
0
VERTEX
8
OBJECT__62
10
210.264008
20
-173.500000
30
213.904999
70
192
0
VERTEX
8
OBJECT__62
10
212.740005
20
-206.500000
30
208.126007
70
192
0
VERTEX
8
OBJECT__62
10
212.740005
20
-173.500000
30
208.126007
70
192
0
VERTEX
8
OBJECT__62
10
216.395996
20
-173.500000
30
193.996994
70
192
0
VERTEX
8
OBJECT__62
10
214.389008
20
-173.500000
30
204.276993
70
192
0
VERTEX
8
OBJECT__62
10
214.389008
20
-206.500000
30
204.276993
70
192
0
VERTEX
8
OBJECT__62
10
216.395996
20
-206.500000
30
193.996994
70
192
0
VERTEX
8
OBJECT__62
10
0
20
0
30
0
70
128
71
1
72
2
73
3
0
VERTEX
8
OBJECT__62
10
0
20
0
30
0
70
128
71
4
72
3
73
2
0
VERTEX
8
OBJECT__62
10
0
20
0
30
0
70
128
71
2
72
5
73
4
0
VERTEX
8
OBJECT__62
10
0
20
0
30
0
70
128
71
6
72
7
73
8
0
VERTEX
8
OBJECT__62
10
0
20
0
30
0
70
128
71
9
72
8
73
7
0
VERTEX
8
OBJECT__62
10
0
20
0
30
0
70
128
71
7
72
1
73
9
0
VERTEX
8
OBJECT__62
10
0
20
0
30
0
70
128
71
10
72
11
73
12
0
VERTEX
8
OBJECT__62
10
0
20
0
30
0
70
128
71
13
72
12
73
11
0
VERTEX
8
OBJECT__62
10
0
20
0
30
0
70
128
71
11
72
14
73
13
0
VERTEX
8
OBJECT__62
10
0
20
0
30
0
70
128
71
15
72
13
73
14
0
VERTEX
8
OBJECT__62
10
0
20
0
30
0
70
128
71
14
72
6
73
15
0
VERTEX
8
OBJECT__62
10
0
20
0
30
0
70
128
71
16
72
17
73
18
0
VERTEX
8
OBJECT__62
10
0
20
0
30
0
70
128
71
18
72
17
73
19
0
VERTEX
8
OBJECT__62
10
0
20
0
30
0
70
128
71
19
72
20
73
18
0
VERTEX
8
OBJECT__62
10
0
20
0
30
0
70
128
71
21
72
22
73
23
0
VERTEX
8
OBJECT__62
10
0
20
0
30
0
70
128
71
19
72
23
73
22
0
VERTEX
8
OBJECT__62
10
0
20
0
30
0
70
128
71
22
72
20
73
19
0
VERTEX
8
OBJECT__62
10
0
20
0
30
0
70
128
71
23
72
24
73
21
0
VERTEX
8
OBJECT__62
10
0
20
0
30
0
70
128
71
18
72
10
73
16
0
VERTEX
8
OBJECT__62
10
0
20
0
30
0
70
128
71
12
72
16
73
10
0
VERTEX
8
OBJECT__62
10
0
20
0
30
0
70
128
71
8
72
15
73
6
0
VERTEX
8
OBJECT__62
10
0
20
0
30
0
70
128
71
3
72
9
73
1
0
SEQEND
8
OBJECT__62
0
POLYLINE
8
OBJECT__63
66
1
70
64
71
21
72
19
62
253
0
VERTEX
8
OBJECT__63
10
177.498001
20
-206.500000
30
238.095001
70
192
0
VERTEX
8
OBJECT__63
10
167.082993
20
-206.500000
30
239.203995
70
192
0
VERTEX
8
OBJECT__63
10
167.082993
20
-207.000000
30
238.703995
70
192
0
VERTEX
8
OBJECT__63
10
187.240997
20
-207.000000
30
234.365005
70
192
0
VERTEX
8
OBJECT__63
10
187.447006
20
-206.500000
30
234.820999
70
192
0
VERTEX
8
OBJECT__63
10
181.475998
20
-206.500000
30
236.785995
70
192
0
VERTEX
8
OBJECT__63
10
177.393005
20
-207.000000
30
237.606995
70
192
0
VERTEX
8
OBJECT__63
10
196.186996
20
-207.000000
30
229.123993
70
192
0
VERTEX
8
OBJECT__63
10
194.679993
20
-206.500000
30
230.582993
70
192
0
VERTEX
8
OBJECT__63
10
196.483994
20
-206.500000
30
229.526001
70
192
0
VERTEX
8
OBJECT__63
10
204.205002
20
-206.500000
30
222.447998
70
192
0
VERTEX
8
OBJECT__63
10
209.826996
20
-207.000000
30
213.660004
70
192
0
VERTEX
8
OBJECT__63
10
210.264008
20
-206.500000
30
213.904999
70
192
0
VERTEX
8
OBJECT__63
10
205.414001
20
-206.500000
30
220.742996
70
192
0
VERTEX
8
OBJECT__63
10
203.830002
20
-207.000000
30
222.117996
70
192
0
VERTEX
8
OBJECT__63
10
213.910995
20
-207.000000
30
204.130005
70
192
0
VERTEX
8
OBJECT__63
10
212.740005
20
-206.500000
30
208.126007
70
192
0
VERTEX
8
OBJECT__63
10
214.389008
20
-206.500000
30
204.276993
70
192
0
VERTEX
8
OBJECT__63
10
216.147003
20
-206.750000
30
193.975998
70
192
0
VERTEX
8
OBJECT__63
10
215.897995
20
-207.000000
30
193.953995
70
192
0
VERTEX
8
OBJECT__63
10
216.395996
20
-206.500000
30
193.996994
70
192
0
VERTEX
8
OBJECT__63
10
0
20
0
30
0
70
128
71
1
72
2
73
3
0
VERTEX
8
OBJECT__63
10
0
20
0
30
0
70
128
71
4
72
5
73
6
0
VERTEX
8
OBJECT__63
10
0
20
0
30
0
70
128
71
6
72
7
73
4
0
VERTEX
8
OBJECT__63
10
0
20
0
30
0
70
128
71
4
72
8
73
9
0
VERTEX
8
OBJECT__63
10
0
20
0
30
0
70
128
71
8
72
10
73
9
0
VERTEX
8
OBJECT__63
10
0
20
0
30
0
70
128
71
11
72
10
73
8
0
VERTEX
8
OBJECT__63
10
0
20
0
30
0
70
128
71
12
72
13
73
14
0
VERTEX
8
OBJECT__63
10
0
20
0
30
0
70
128
71
14
72
15
73
12
0
VERTEX
8
OBJECT__63
10
0
20
0
30
0
70
128
71
12
72
16
73
17
0
VERTEX
8
OBJECT__63
10
0
20
0
30
0
70
128
71
16
72
18
73
17
0
VERTEX
8
OBJECT__63
10
0
20
0
30
0
70
128
71
19
72
18
73
16
0
VERTEX
8
OBJECT__63
10
0
20
0
30
0
70
128
71
16
72
20
73
19
0
VERTEX
8
OBJECT__63
10
0
20
0
30
0
70
128
71
19
72
21
73
18
0
VERTEX
8
OBJECT__63
10
0
20
0
30
0
70
128
71
17
72
13
73
12
0
VERTEX
8
OBJECT__63
10
0
20
0
30
0
70
128
71
14
72
11
73
15
0
VERTEX
8
OBJECT__63
10
0
20
0
30
0
70
128
71
8
72
15
73
11
0
VERTEX
8
OBJECT__63
10
0
20
0
30
0
70
128
71
9
72
5
73
4
0
VERTEX
8
OBJECT__63
10
0
20
0
30
0
70
128
71
6
72
1
73
7
0
VERTEX
8
OBJECT__63
10
0
20
0
30
0
70
128
71
3
72
7
73
1
0
SEQEND
8
OBJECT__63
0
POLYLINE
8
OBJECT__64
66
1
70
64
71
6
72
4
62
253
0
VERTEX
8
OBJECT__64
10
42.000000
20
-173.000000
30
238.703995
70
192
0
VERTEX
8
OBJECT__64
10
42.000000
20
-173.145996
30
239.057007
70
192
0
VERTEX
8
OBJECT__64
10
167.082993
20
-173.250000
30
238.953995
70
192
0
VERTEX
8
OBJECT__64
10
42.000000
20
-173.500000
30
239.203995
70
192
0
VERTEX
8
OBJECT__64
10
167.082993
20
-173.500000
30
239.203995
70
192
0
VERTEX
8
OBJECT__64
10
167.082993
20
-173.000000
30
238.703995
70
192
0
VERTEX
8
OBJECT__64
10
0
20
0
30
0
70
128
71
1
72
2
73
3
0
VERTEX
8
OBJECT__64
10
0
20
0
30
0
70
128
71
4
72
5
73
3
0
VERTEX
8
OBJECT__64
10
0
20
0
30
0
70
128
71
3
72
2
73
4
0
VERTEX
8
OBJECT__64
10
0
20
0
30
0
70
128
71
3
72
6
73
1
0
SEQEND
8
OBJECT__64
0
POLYLINE
8
OBJECT__65
66
1
70
64
71
34
72
32
62
253
0
VERTEX
8
OBJECT__65
10
42.000000
20
-173.000000
30
238.703995
70
192
0
VERTEX
8
OBJECT__65
10
167.082993
20
-173.000000
30
238.703995
70
192
0
VERTEX
8
OBJECT__65
10
167.082993
20
-173.000000
30
224.703995
70
192
0
VERTEX
8
OBJECT__65
10
177.393005
20
-173.000000
30
237.606995
70
192
0
VERTEX
8
OBJECT__65
10
175.651001
20
-173.000000
30
223.639008
70
192
0
VERTEX
8
OBJECT__65
10
203.830002
20
-173.000000
30
222.117996
70
192
0
VERTEX
8
OBJECT__65
10
209.826996
20
-173.000000
30
213.660004
70
192
0
VERTEX
8
OBJECT__65
10
196.330002
20
-173.000000
30
208.927994
70
192
0
VERTEX
8
OBJECT__65
10
31.096001
20
-173.000000
30
237.475006
70
192
0
VERTEX
8
OBJECT__65
10
42.000000
20
-173.000000
30
224.703995
70
192
0
VERTEX
8
OBJECT__65
10
187.240997
20
-173.000000
30
234.365005
70
192
0
VERTEX
8
OBJECT__65
10
183.697998
20
-173.000000
30
220.507996
70
192
0
VERTEX
8
OBJECT__65
10
196.186996
20
-173.000000
30
229.123993
70
192
0
VERTEX
8
OBJECT__65
10
190.733994
20
-173.000000
30
215.503006
70
192
0
VERTEX
8
OBJECT__65
10
213.910995
20
-173.000000
30
204.130005
70
192
0
VERTEX
8
OBJECT__65
10
200.147003
20
-173.000000
30
201.182999
70
192
0
VERTEX
8
OBJECT__65
10
215.897995
20
-173.000000
30
193.953995
70
192
0
VERTEX
8
OBJECT__65
10
201.951004
20
-173.000000
30
192.740005
70
192
0
VERTEX
8
OBJECT__65
10
216.473999
20
-173.000000
30
187.347000
70
192
0
VERTEX
8
OBJECT__65
10
-7.000000
20
-173.000000
30
119.699997
70
192
0
VERTEX
8
OBJECT__65
10
-7.000000
20
-173.000000
30
189.703995
70
192
0
VERTEX
8
OBJECT__65
10
7.000000
20
-173.000000
30
189.703995
70
192
0
VERTEX
8
OBJECT__65
10
-5.771000
20
-173.000000
30
200.606995
70
192
0
VERTEX
8
OBJECT__65
10
8.193000
20
-173.000000
30
198.761993
70
192
0
VERTEX
8
OBJECT__65
10
11.449000
20
-173.000000
30
228.013000
70
192
0
VERTEX
8
OBJECT__65
10
20.740000
20
-173.000000
30
233.850998
70
192
0
VERTEX
8
OBJECT__65
10
24.500000
20
-173.000000
30
220.014008
70
192
0
VERTEX
8
OBJECT__65
10
202.526001
20
-173.000000
30
186.132996
70
192
0
VERTEX
8
OBJECT__65
10
-2.147000
20
-173.000000
30
210.964005
70
192
0
VERTEX
8
OBJECT__65
10
11.689000
20
-173.000000
30
207.203995
70
192
0
VERTEX
8
OBJECT__65
10
3.690000
20
-173.000000
30
220.255005
70
192
0
VERTEX
8
OBJECT__65
10
17.250999
20
-173.000000
30
214.451996
70
192
0
VERTEX
8
OBJECT__65
10
32.941002
20
-173.000000
30
223.511002
70
192
0
VERTEX
8
OBJECT__65
10
7.000000
20
-173.000000
30
119.699997
70
192
0
VERTEX
8
OBJECT__65
10
0
20
0
30
0
70
128
71
1
72
2
73
3
0
VERTEX
8
OBJECT__65
10
0
20
0
30
0
70
128
71
4
72
5
73
3
0
VERTEX
8
OBJECT__65
10
0
20
0
30
0
70
128
71
6
72
7
73
8
0
VERTEX
8
OBJECT__65
10
0
20
0
30
0
70
128
71
9
72
1
73
10
0
VERTEX
8
OBJECT__65
10
0
20
0
30
0
70
128
71
3
72
2
73
4
0
VERTEX
8
OBJECT__65
10
0
20
0
30
0
70
128
71
11
72
12
73
5
0
VERTEX
8
OBJECT__65
10
0
20
0
30
0
70
128
71
13
72
14
73
12
0
VERTEX
8
OBJECT__65
10
0
20
0
30
0
70
128
71
14
72
13
73
6
0
VERTEX
8
OBJECT__65
10
0
20
0
30
0
70
128
71
7
72
15
73
16
0
VERTEX
8
OBJECT__65
10
0
20
0
30
0
70
128
71
15
72
17
73
18
0
VERTEX
8
OBJECT__65
10
0
20
0
30
0
70
128
71
18
72
17
73
19
0
VERTEX
8
OBJECT__65
10
0
20
0
30
0
70
128
71
20
72
21
73
22
0
VERTEX
8
OBJECT__65
10
0
20
0
30
0
70
128
71
23
72
24
73
22
0
VERTEX
8
OBJECT__65
10
0
20
0
30
0
70
128
71
25
72
26
73
27
0
VERTEX
8
OBJECT__65
10
0
20
0
30
0
70
128
71
3
72
10
73
1
0
VERTEX
8
OBJECT__65
10
0
20
0
30
0
70
128
71
12
72
11
73
13
0
VERTEX
8
OBJECT__65
10
0
20
0
30
0
70
128
71
16
72
8
73
7
0
VERTEX
8
OBJECT__65
10
0
20
0
30
0
70
128
71
19
72
28
73
18
0
VERTEX
8
OBJECT__65
10
0
20
0
30
0
70
128
71
22
72
21
73
23
0
VERTEX
8
OBJECT__65
10
0
20
0
30
0
70
128
71
29
72
30
73
24
0
VERTEX
8
OBJECT__65
10
0
20
0
30
0
70
128
71
31
72
32
73
30
0
VERTEX
8
OBJECT__65
10
0
20
0
30
0
70
128
71
32
72
31
73
25
0
VERTEX
8
OBJECT__65
10
0
20
0
30
0
70
128
71
5
72
4
73
11
0
VERTEX
8
OBJECT__65
10
0
20
0
30
0
70
128
71
18
72
16
73
15
0
VERTEX
8
OBJECT__65
10
0
20
0
30
0
70
128
71
24
72
23
73
29
0
VERTEX
8
OBJECT__65
10
0
20
0
30
0
70
128
71
27
72
32
73
25
0
VERTEX
8
OBJECT__65
10
0
20
0
30
0
70
128
71
26
72
9
73
33
0
VERTEX
8
OBJECT__65
10
0
20
0
30
0
70
128
71
8
72
14
73
6
0
VERTEX
8
OBJECT__65
10
0
20
0
30
0
70
128
71
30
72
29
73
31
0
VERTEX
8
OBJECT__65
10
0
20
0
30
0
70
128
71
10
72
33
73
9
0
VERTEX
8
OBJECT__65
10
0
20
0
30
0
70
128
71
33
72
27
73
26
0
VERTEX
8
OBJECT__65
10
0
20
0
30
0
70
128
71
22
72
34
73
20
0
SEQEND
8
OBJECT__65
0
POLYLINE
8
OBJECT__66
66
1
70
64
71
4
72
2
62
253
0
VERTEX
8
OBJECT__66
10
167.082993
20
-173.500000
30
239.203995
70
192
0
VERTEX
8
OBJECT__66
10
42.000000
20
-173.500000
30
239.203995
70
192
0
VERTEX
8
OBJECT__66
10
42.000000
20
-206.500000
30
239.203995
70
192
0
VERTEX
8
OBJECT__66
10
167.082993
20
-206.500000
30
239.203995
70
192
0
VERTEX
8
OBJECT__66
10
0
20
0
30
0
70
128
71
1
72
2
73
3
0
VERTEX
8
OBJECT__66
10
0
20
0
30
0
70
128
71
3
72
4
73
1
0
SEQEND
8
OBJECT__66
0
POLYLINE
8
OBJECT__67
66
1
70
64
71
28
72
32
62
253
0
VERTEX
8
OBJECT__67
10
-7.500000
20
-173.500000
30
189.703995
70
192
0
VERTEX
8
OBJECT__67
10
-6.259000
20
-173.500000
30
200.718002
70
192
0
VERTEX
8
OBJECT__67
10
-6.116000
20
-173.145996
30
200.686005
70
192
0
VERTEX
8
OBJECT__67
10
-2.466000
20
-173.145996
30
211.117004
70
192
0
VERTEX
8
OBJECT__67
10
-4.795000
20
-173.500000
30
204.901001
70
192
0
VERTEX
8
OBJECT__67
10
-2.598000
20
-173.500000
30
211.181000
70
192
0
VERTEX
8
OBJECT__67
10
2.122000
20
-173.500000
30
218.692993
70
192
0
VERTEX
8
OBJECT__67
10
3.414000
20
-173.145996
30
220.475006
70
192
0
VERTEX
8
OBJECT__67
10
11.137000
20
-173.500000
30
228.404007
70
192
0
VERTEX
8
OBJECT__67
10
11.229000
20
-173.145996
30
228.289993
70
192
0
VERTEX
8
OBJECT__67
10
20.586000
20
-173.145996
30
234.169998
70
192
0
VERTEX
8
OBJECT__67
10
13.011000
20
-173.500000
30
229.580994
70
192
0
VERTEX
8
OBJECT__67
10
20.523001
20
-173.500000
30
234.302002
70
192
0
VERTEX
8
OBJECT__67
10
26.802000
20
-173.500000
30
236.498993
70
192
0
VERTEX
8
OBJECT__67
10
31.018000
20
-173.145996
30
237.820007
70
192
0
VERTEX
8
OBJECT__67
10
30.985001
20
-173.500000
30
237.962997
70
192
0
VERTEX
8
OBJECT__67
10
42.000000
20
-173.500000
30
239.203995
70
192
0
VERTEX
8
OBJECT__67
10
42.000000
20
-173.145996
30
239.057007
70
192
0
VERTEX
8
OBJECT__67
10
-5.771000
20
-173.000000
30
200.606995
70
192
0
VERTEX
8
OBJECT__67
10
-7.000000
20
-173.000000
30
189.703995
70
192
0
VERTEX
8
OBJECT__67
10
-2.147000
20
-173.000000
30
210.964005
70
192
0
VERTEX
8
OBJECT__67
10
3.690000
20
-173.000000
30
220.255005
70
192
0
VERTEX
8
OBJECT__67
10
11.449000
20
-173.000000
30
228.013000
70
192
0
VERTEX
8
OBJECT__67
10
20.740000
20
-173.000000
30
233.850998
70
192
0
VERTEX
8
OBJECT__67
10
31.096001
20
-173.000000
30
237.475006
70
192
0
VERTEX
8
OBJECT__67
10
42.000000
20
-173.000000
30
238.703995
70
192
0
VERTEX
8
OBJECT__67
10
-7.354000
20
-173.145996
30
189.703995
70
192
0
VERTEX
8
OBJECT__67
10
3.299000
20
-173.500000
30
220.565994
70
192
0
VERTEX
8
OBJECT__67
10
0
20
0
30
0
70
128
71
1
72
2
73
3
0
VERTEX
8
OBJECT__67
10
0
20
0
30
0
70
128
71
4
72
3
73
5
0
VERTEX
8
OBJECT__67
10
0
20
0
30
0
70
128
71
3
72
2
73
5
0
VERTEX
8
OBJECT__67
10
0
20
0
30
0
70
128
71
4
72
6
73
7
0
VERTEX
8
OBJECT__67
10
0
20
0
30
0
70
128
71
7
72
8
73
4
0
VERTEX
8
OBJECT__67
10
0
20
0
30
0
70
128
71
9
72
10
73
8
0
VERTEX
8
OBJECT__67
10
0
20
0
30
0
70
128
71
11
72
10
73
12
0
VERTEX
8
OBJECT__67
10
0
20
0
30
0
70
128
71
10
72
9
73
12
0
VERTEX
8
OBJECT__67
10
0
20
0
30
0
70
128
71
11
72
13
73
14
0
VERTEX
8
OBJECT__67
10
0
20
0
30
0
70
128
71
14
72
15
73
11
0
VERTEX
8
OBJECT__67
10
0
20
0
30
0
70
128
71
16
72
17
73
18
0
VERTEX
8
OBJECT__67
10
0
20
0
30
0
70
128
71
3
72
19
73
20
0
VERTEX
8
OBJECT__67
10
0
20
0
30
0
70
128
71
4
72
21
73
19
0
VERTEX
8
OBJECT__67
10
0
20
0
30
0
70
128
71
4
72
8
73
22
0
VERTEX
8
OBJECT__67
10
0
20
0
30
0
70
128
71
8
72
10
73
23
0
VERTEX
8
OBJECT__67
10
0
20
0
30
0
70
128
71
11
72
24
73
23
0
VERTEX
8
OBJECT__67
10
0
20
0
30
0
70
128
71
15
72
25
73
24
0
VERTEX
8
OBJECT__67
10
0
20
0
30
0
70
128
71
18
72
26
73
25
0
VERTEX
8
OBJECT__67
10
0
20
0
30
0
70
128
71
25
72
15
73
18
0
VERTEX
8
OBJECT__67
10
0
20
0
30
0
70
128
71
24
72
11
73
15
0
VERTEX
8
OBJECT__67
10
0
20
0
30
0
70
128
71
23
72
10
73
11
0
VERTEX
8
OBJECT__67
10
0
20
0
30
0
70
128
71
23
72
22
73
8
0
VERTEX
8
OBJECT__67
10
0
20
0
30
0
70
128
71
22
72
21
73
4
0
VERTEX
8
OBJECT__67
10
0
20
0
30
0
70
128
71
19
72
3
73
4
0
VERTEX
8
OBJECT__67
10
0
20
0
30
0
70
128
71
20
72
27
73
3
0
VERTEX
8
OBJECT__67
10
0
20
0
30
0
70
128
71
18
72
15
73
16
0
VERTEX
8
OBJECT__67
10
0
20
0
30
0
70
128
71
14
72
16
73
15
0
VERTEX
8
OBJECT__67
10
0
20
0
30
0
70
128
71
12
72
13
73
11
0
VERTEX
8
OBJECT__67
10
0
20
0
30
0
70
128
71
8
72
28
73
9
0
VERTEX
8
OBJECT__67
10
0
20
0
30
0
70
128
71
7
72
28
73
8
0
VERTEX
8
OBJECT__67
10
0
20
0
30
0
70
128
71
5
72
6
73
4
0
VERTEX
8
OBJECT__67
10
0
20
0
30
0
70
128
71
3
72
27
73
1
0
SEQEND
8
OBJECT__67
0
POLYLINE
8
OBJECT__68
66
1
70
64
71
5
72
3
62
253
0
VERTEX
8
OBJECT__68
10
167.082993
20
-206.500000
30
239.203995
70
192
0
VERTEX
8
OBJECT__68
10
42.000000
20
-206.500000
30
239.203995
70
192
0
VERTEX
8
OBJECT__68
10
42.000000
20
-206.854004
30
239.057007
70
192
0
VERTEX
8
OBJECT__68
10
167.082993
20
-207.000000
30
238.703995
70
192
0
VERTEX
8
OBJECT__68
10
42.000000
20
-207.000000
30
238.703995
70
192
0
VERTEX
8
OBJECT__68
10
0
20
0
30
0
70
128
71
1
72
2
73
3
0
VERTEX
8
OBJECT__68
10
0
20
0
30
0
70
128
71
3
72
4
73
1
0
VERTEX
8
OBJECT__68
10
0
20
0
30
0
70
128
71
3
72
5
73
4
0
SEQEND
8
OBJECT__68
0
POLYLINE
8
OBJECT__69
66
1
70
64
71
34
72
32
62
253
0
VERTEX
8
OBJECT__69
10
203.830002
20
-207.000000
30
222.117996
70
192
0
VERTEX
8
OBJECT__69
10
190.733994
20
-207.000000
30
215.503006
70
192
0
VERTEX
8
OBJECT__69
10
196.330002
20
-207.000000
30
208.927994
70
192
0
VERTEX
8
OBJECT__69
10
177.393005
20
-207.000000
30
237.606995
70
192
0
VERTEX
8
OBJECT__69
10
167.082993
20
-207.000000
30
238.703995
70
192
0
VERTEX
8
OBJECT__69
10
167.082993
20
-207.000000
30
224.703995
70
192
0
VERTEX
8
OBJECT__69
10
42.000000
20
-207.000000
30
224.703995
70
192
0
VERTEX
8
OBJECT__69
10
201.951004
20
-207.000000
30
192.740005
70
192
0
VERTEX
8
OBJECT__69
10
202.526001
20
-207.000000
30
186.132996
70
192
0
VERTEX
8
OBJECT__69
10
216.473999
20
-207.000000
30
187.347000
70
192
0
VERTEX
8
OBJECT__69
10
213.910995
20
-207.000000
30
204.130005
70
192
0
VERTEX
8
OBJECT__69
10
200.147003
20
-207.000000
30
201.182999
70
192
0
VERTEX
8
OBJECT__69
10
209.826996
20
-207.000000
30
213.660004
70
192
0
VERTEX
8
OBJECT__69
10
196.186996
20
-207.000000
30
229.123993
70
192
0
VERTEX
8
OBJECT__69
10
187.240997
20
-207.000000
30
234.365005
70
192
0
VERTEX
8
OBJECT__69
10
183.697998
20
-207.000000
30
220.507996
70
192
0
VERTEX
8
OBJECT__69
10
175.651001
20
-207.000000
30
223.639008
70
192
0
VERTEX
8
OBJECT__69
10
42.000000
20
-207.000000
30
238.703995
70
192
0
VERTEX
8
OBJECT__69
10
31.096001
20
-207.000000
30
237.475006
70
192
0
VERTEX
8
OBJECT__69
10
32.941002
20
-207.000000
30
223.511002
70
192
0
VERTEX
8
OBJECT__69
10
215.897995
20
-207.000000
30
193.953995
70
192
0
VERTEX
8
OBJECT__69
10
11.449000
20
-207.000000
30
228.013000
70
192
0
VERTEX
8
OBJECT__69
10
17.250999
20
-207.000000
30
214.451996
70
192
0
VERTEX
8
OBJECT__69
10
24.500000
20
-207.000000
30
220.014008
70
192
0
VERTEX
8
OBJECT__69
10
-5.771000
20
-207.000000
30
200.606995
70
192
0
VERTEX
8
OBJECT__69
10
-7.000000
20
-207.000000
30
189.703995
70
192
0
VERTEX
8
OBJECT__69
10
7.000000
20
-207.000000
30
189.703995
70
192
0
VERTEX
8
OBJECT__69
10
7.000000
20
-207.000000
30
119.699997
70
192
0
VERTEX
8
OBJECT__69
10
20.740000
20
-207.000000
30
233.850998
70
192
0
VERTEX
8
OBJECT__69
10
3.690000
20
-207.000000
30
220.255005
70
192
0
VERTEX
8
OBJECT__69
10
-2.147000
20
-207.000000
30
210.964005
70
192
0
VERTEX
8
OBJECT__69
10
11.689000
20
-207.000000
30
207.203995
70
192
0
VERTEX
8
OBJECT__69
10
8.193000
20
-207.000000
30
198.761993
70
192
0
VERTEX
8
OBJECT__69
10
-7.000000
20
-207.000000
30
119.699997
70
192
0
VERTEX
8
OBJECT__69
10
0
20
0
30
0
70
128
71
1
72
2
73
3
0
VERTEX
8
OBJECT__69
10
0
20
0
30
0
70
128
71
4
72
5
73
6
0
VERTEX
8
OBJECT__69
10
0
20
0
30
0
70
128
71
7
72
6
73
5
0
VERTEX
8
OBJECT__69
10
0
20
0
30
0
70
128
71
8
72
9
73
10
0
VERTEX
8
OBJECT__69
10
0
20
0
30
0
70
128
71
11
72
12
73
8
0
VERTEX
8
OBJECT__69
10
0
20
0
30
0
70
128
71
13
72
3
73
12
0
VERTEX
8
OBJECT__69
10
0
20
0
30
0
70
128
71
3
72
13
73
1
0
VERTEX
8
OBJECT__69
10
0
20
0
30
0
70
128
71
14
72
15
73
16
0
VERTEX
8
OBJECT__69
10
0
20
0
30
0
70
128
71
15
72
4
73
17
0
VERTEX
8
OBJECT__69
10
0
20
0
30
0
70
128
71
5
72
18
73
7
0
VERTEX
8
OBJECT__69
10
0
20
0
30
0
70
128
71
19
72
20
73
7
0
VERTEX
8
OBJECT__69
10
0
20
0
30
0
70
128
71
8
72
21
73
11
0
VERTEX
8
OBJECT__69
10
0
20
0
30
0
70
128
71
1
72
14
73
2
0
VERTEX
8
OBJECT__69
10
0
20
0
30
0
70
128
71
17
72
16
73
15
0
VERTEX
8
OBJECT__69
10
0
20
0
30
0
70
128
71
7
72
18
73
19
0
VERTEX
8
OBJECT__69
10
0
20
0
30
0
70
128
71
22
72
23
73
24
0
VERTEX
8
OBJECT__69
10
0
20
0
30
0
70
128
71
25
72
26
73
27
0
VERTEX
8
OBJECT__69
10
0
20
0
30
0
70
128
71
28
72
27
73
26
0
VERTEX
8
OBJECT__69
10
0
20
0
30
0
70
128
71
12
72
11
73
13
0
VERTEX
8
OBJECT__69
10
0
20
0
30
0
70
128
71
6
72
17
73
4
0
VERTEX
8
OBJECT__69
10
0
20
0
30
0
70
128
71
24
72
29
73
22
0
VERTEX
8
OBJECT__69
10
0
20
0
30
0
70
128
71
30
72
31
73
32
0
VERTEX
8
OBJECT__69
10
0
20
0
30
0
70
128
71
31
72
25
73
33
0
VERTEX
8
OBJECT__69
10
0
20
0
30
0
70
128
71
26
72
34
73
28
0
VERTEX
8
OBJECT__69
10
0
20
0
30
0
70
128
71
16
72
2
73
14
0
VERTEX
8
OBJECT__69
10
0
20
0
30
0
70
128
71
29
72
24
73
20
0
VERTEX
8
OBJECT__69
10
0
20
0
30
0
70
128
71
32
72
23
73
30
0
VERTEX
8
OBJECT__69
10
0
20
0
30
0
70
128
71
27
72
33
73
25
0
VERTEX
8
OBJECT__69
10
0
20
0
30
0
70
128
71
20
72
19
73
29
0
VERTEX
8
OBJECT__69
10
0
20
0
30
0
70
128
71
33
72
32
73
31
0
VERTEX
8
OBJECT__69
10
0
20
0
30
0
70
128
71
22
72
30
73
23
0
VERTEX
8
OBJECT__69
10
0
20
0
30
0
70
128
71
10
72
21
73
8
0
SEQEND
8
OBJECT__69
0
POLYLINE
8
OBJECT__70
66
1
70
64
71
28
72
32
62
253
0
VERTEX
8
OBJECT__70
10
-6.116000
20
-206.854004
30
200.686005
70
192
0
VERTEX
8
OBJECT__70
10
-7.354000
20
-206.854004
30
189.703995
70
192
0
VERTEX
8
OBJECT__70
10
-7.000000
20
-207.000000
30
189.703995
70
192
0
VERTEX
8
OBJECT__70
10
-2.466000
20
-206.854004
30
211.117004
70
192
0
VERTEX
8
OBJECT__70
10
-5.771000
20
-207.000000
30
200.606995
70
192
0
VERTEX
8
OBJECT__70
10
-2.147000
20
-207.000000
30
210.964005
70
192
0
VERTEX
8
OBJECT__70
10
3.690000
20
-207.000000
30
220.255005
70
192
0
VERTEX
8
OBJECT__70
10
11.229000
20
-206.854004
30
228.289993
70
192
0
VERTEX
8
OBJECT__70
10
3.414000
20
-206.854004
30
220.475006
70
192
0
VERTEX
8
OBJECT__70
10
20.586000
20
-206.854004
30
234.169998
70
192
0
VERTEX
8
OBJECT__70
10
11.449000
20
-207.000000
30
228.013000
70
192
0
VERTEX
8
OBJECT__70
10
31.018000
20
-206.854004
30
237.820007
70
192
0
VERTEX
8
OBJECT__70
10
20.740000
20
-207.000000
30
233.850998
70
192
0
VERTEX
8
OBJECT__70
10
42.000000
20
-206.854004
30
239.057007
70
192
0
VERTEX
8
OBJECT__70
10
31.096001
20
-207.000000
30
237.475006
70
192
0
VERTEX
8
OBJECT__70
10
-7.500000
20
-206.500000
30
189.703995
70
192
0
VERTEX
8
OBJECT__70
10
-2.598000
20
-206.500000
30
211.181000
70
192
0
VERTEX
8
OBJECT__70
10
-4.795000
20
-206.500000
30
204.901001
70
192
0
VERTEX
8
OBJECT__70
10
2.122000
20
-206.500000
30
218.692993
70
192
0
VERTEX
8
OBJECT__70
10
3.299000
20
-206.500000
30
220.565994
70
192
0
VERTEX
8
OBJECT__70
10
11.137000
20
-206.500000
30
228.404007
70
192
0
VERTEX
8
OBJECT__70
10
20.523001
20
-206.500000
30
234.302002
70
192
0
VERTEX
8
OBJECT__70
10
13.011000
20
-206.500000
30
229.580994
70
192
0
VERTEX
8
OBJECT__70
10
26.802000
20
-206.500000
30
236.498993
70
192
0
VERTEX
8
OBJECT__70
10
30.985001
20
-206.500000
30
237.962997
70
192
0
VERTEX
8
OBJECT__70
10
42.000000
20
-206.500000
30
239.203995
70
192
0
VERTEX
8
OBJECT__70
10
-6.259000
20
-206.500000
30
200.718002
70
192
0
VERTEX
8
OBJECT__70
10
42.000000
20
-207.000000
30
238.703995
70
192
0
VERTEX
8
OBJECT__70
10
0
20
0
30
0
70
128
71
1
72
2
73
3
0
VERTEX
8
OBJECT__70
10
0
20
0
30
0
70
128
71
4
72
1
73
5
0
VERTEX
8
OBJECT__70
10
0
20
0
30
0
70
128
71
4
72
6
73
7
0
VERTEX
8
OBJECT__70
10
0
20
0
30
0
70
128
71
8
72
9
73
7
0
VERTEX
8
OBJECT__70
10
0
20
0
30
0
70
128
71
10
72
8
73
11
0
VERTEX
8
OBJECT__70
10
0
20
0
30
0
70
128
71
12
72
10
73
13
0
VERTEX
8
OBJECT__70
10
0
20
0
30
0
70
128
71
14
72
12
73
15
0
VERTEX
8
OBJECT__70
10
0
20
0
30
0
70
128
71
16
72
2
73
1
0
VERTEX
8
OBJECT__70
10
0
20
0
30
0
70
128
71
4
72
17
73
18
0
VERTEX
8
OBJECT__70
10
0
20
0
30
0
70
128
71
18
72
1
73
4
0
VERTEX
8
OBJECT__70
10
0
20
0
30
0
70
128
71
4
72
9
73
19
0
VERTEX
8
OBJECT__70
10
0
20
0
30
0
70
128
71
9
72
20
73
19
0
VERTEX
8
OBJECT__70
10
0
20
0
30
0
70
128
71
21
72
20
73
9
0
VERTEX
8
OBJECT__70
10
0
20
0
30
0
70
128
71
10
72
22
73
23
0
VERTEX
8
OBJECT__70
10
0
20
0
30
0
70
128
71
23
72
8
73
10
0
VERTEX
8
OBJECT__70
10
0
20
0
30
0
70
128
71
10
72
12
73
24
0
VERTEX
8
OBJECT__70
10
0
20
0
30
0
70
128
71
12
72
25
73
24
0
VERTEX
8
OBJECT__70
10
0
20
0
30
0
70
128
71
25
72
12
73
14
0
VERTEX
8
OBJECT__70
10
0
20
0
30
0
70
128
71
14
72
26
73
25
0
VERTEX
8
OBJECT__70
10
0
20
0
30
0
70
128
71
24
72
22
73
10
0
VERTEX
8
OBJECT__70
10
0
20
0
30
0
70
128
71
23
72
21
73
8
0
VERTEX
8
OBJECT__70
10
0
20
0
30
0
70
128
71
9
72
8
73
21
0
VERTEX
8
OBJECT__70
10
0
20
0
30
0
70
128
71
19
72
17
73
4
0
VERTEX
8
OBJECT__70
10
0
20
0
30
0
70
128
71
18
72
27
73
1
0
VERTEX
8
OBJECT__70
10
0
20
0
30
0
70
128
71
1
72
27
73
16
0
VERTEX
8
OBJECT__70
10
0
20
0
30
0
70
128
71
15
72
28
73
14
0
VERTEX
8
OBJECT__70
10
0
20
0
30
0
70
128
71
13
72
15
73
12
0
VERTEX
8
OBJECT__70
10
0
20
0
30
0
70
128
71
11
72
13
73
10
0
VERTEX
8
OBJECT__70
10
0
20
0
30
0
70
128
71
7
72
11
73
8
0
VERTEX
8
OBJECT__70
10
0
20
0
30
0
70
128
71
7
72
9
73
4
0
VERTEX
8
OBJECT__70
10
0
20
0
30
0
70
128
71
5
72
6
73
4
0
VERTEX
8
OBJECT__70
10
0
20
0
30
0
70
128
71
3
72
5
73
1
0
SEQEND
8
OBJECT__70
0
POLYLINE
8
OBJECT__71
66
1
70
64
71
24
72
22
62
253
0
VERTEX
8
OBJECT__71
10
-6.259000
20
-173.500000
30
200.718002
70
192
0
VERTEX
8
OBJECT__71
10
-7.500000
20
-173.500000
30
189.703995
70
192
0
VERTEX
8
OBJECT__71
10
-7.500000
20
-206.500000
30
189.703995
70
192
0
VERTEX
8
OBJECT__71
10
-6.259000
20
-206.500000
30
200.718002
70
192
0
VERTEX
8
OBJECT__71
10
-4.795000
20
-206.500000
30
204.901001
70
192
0
VERTEX
8
OBJECT__71
10
-4.795000
20
-173.500000
30
204.901001
70
192
0
VERTEX
8
OBJECT__71
10
-2.598000
20
-206.500000
30
211.181000
70
192
0
VERTEX
8
OBJECT__71
10
-2.598000
20
-173.500000
30
211.181000
70
192
0
VERTEX
8
OBJECT__71
10
2.122000
20
-206.500000
30
218.692993
70
192
0
VERTEX
8
OBJECT__71
10
2.122000
20
-173.500000
30
218.692993
70
192
0
VERTEX
8
OBJECT__71
10
11.137000
20
-173.500000
30
228.404007
70
192
0
VERTEX
8
OBJECT__71
10
11.137000
20
-206.500000
30
228.404007
70
192
0
VERTEX
8
OBJECT__71
10
13.011000
20
-206.500000
30
229.580994
70
192
0
VERTEX
8
OBJECT__71
10
3.299000
20
-173.500000
30
220.565994
70
192
0
VERTEX
8
OBJECT__71
10
3.299000
20
-206.500000
30
220.565994
70
192
0
VERTEX
8
OBJECT__71
10
20.523001
20
-173.500000
30
234.302002
70
192
0
VERTEX
8
OBJECT__71
10
20.523001
20
-206.500000
30
234.302002
70
192
0
VERTEX
8
OBJECT__71
10
26.802000
20
-206.500000
30
236.498993
70
192
0
VERTEX
8
OBJECT__71
10
13.011000
20
-173.500000
30
229.580994
70
192
0
VERTEX
8
OBJECT__71
10
42.000000
20
-206.500000
30
239.203995
70
192
0
VERTEX
8
OBJECT__71
10
42.000000
20
-173.500000
30
239.203995
70
192
0
VERTEX
8
OBJECT__71
10
30.985001
20
-173.500000
30
237.962997
70
192
0
VERTEX
8
OBJECT__71
10
30.985001
20
-206.500000
30
237.962997
70
192
0
VERTEX
8
OBJECT__71
10
26.802000
20
-173.500000
30
236.498993
70
192
0
VERTEX
8
OBJECT__71
10
0
20
0
30
0
70
128
71
1
72
2
73
3
0
VERTEX
8
OBJECT__71
10
0
20
0
30
0
70
128
71
1
72
4
73
5
0
VERTEX
8
OBJECT__71
10
0
20
0
30
0
70
128
71
5
72
6
73
1
0
VERTEX
8
OBJECT__71
10
0
20
0
30
0
70
128
71
7
72
8
73
6
0
VERTEX
8
OBJECT__71
10
0
20
0
30
0
70
128
71
8
72
7
73
9
0
VERTEX
8
OBJECT__71
10
0
20
0
30
0
70
128
71
9
72
10
73
8
0
VERTEX
8
OBJECT__71
10
0
20
0
30
0
70
128
71
11
72
12
73
13
0
VERTEX
8
OBJECT__71
10
0
20
0
30
0
70
128
71
12
72
11
73
14
0
VERTEX
8
OBJECT__71
10
0
20
0
30
0
70
128
71
14
72
15
73
12
0
VERTEX
8
OBJECT__71
10
0
20
0
30
0
70
128
71
15
72
14
73
10
0
VERTEX
8
OBJECT__71
10
0
20
0
30
0
70
128
71
10
72
9
73
15
0
VERTEX
8
OBJECT__71
10
0
20
0
30
0
70
128
71
16
72
17
73
18
0
VERTEX
8
OBJECT__71
10
0
20
0
30
0
70
128
71
19
72
13
73
17
0
VERTEX
8
OBJECT__71
10
0
20
0
30
0
70
128
71
17
72
16
73
19
0
VERTEX
8
OBJECT__71
10
0
20
0
30
0
70
128
71
20
72
21
73
22
0
VERTEX
8
OBJECT__71
10
0
20
0
30
0
70
128
71
23
72
22
73
24
0
VERTEX
8
OBJECT__71
10
0
20
0
30
0
70
128
71
24
72
18
73
23
0
VERTEX
8
OBJECT__71
10
0
20
0
30
0
70
128
71
22
72
23
73
20
0
VERTEX
8
OBJECT__71
10
0
20
0
30
0
70
128
71
18
72
24
73
16
0
VERTEX
8
OBJECT__71
10
0
20
0
30
0
70
128
71
13
72
19
73
11
0
VERTEX
8
OBJECT__71
10
0
20
0
30
0
70
128
71
6
72
5
73
7
0
VERTEX
8
OBJECT__71
10
0
20
0
30
0
70
128
71
3
72
4
73
1
0
SEQEND
8
OBJECT__71
0
POLYLINE
8
OBJECT__72
66
1
70
64
71
5
72
3
62
253
0
VERTEX
8
OBJECT__72
10
-7.500000
20
-173.500000
30
119.699997
70
192
0
VERTEX
8
OBJECT__72
10
-7.500000
20
-173.500000
30
189.703995
70
192
0
VERTEX
8
OBJECT__72
10
-7.354000
20
-173.145996
30
189.703995
70
192
0
VERTEX
8
OBJECT__72
10
-7.000000
20
-173.000000
30
119.699997
70
192
0
VERTEX
8
OBJECT__72
10
-7.000000
20
-173.000000
30
189.703995
70
192
0
VERTEX
8
OBJECT__72
10
0
20
0
30
0
70
128
71
1
72
2
73
3
0
VERTEX
8
OBJECT__72
10
0
20
0
30
0
70
128
71
3
72
4
73
1
0
VERTEX
8
OBJECT__72
10
0
20
0
30
0
70
128
71
3
72
5
73
4
0
SEQEND
8
OBJECT__72
0
POLYLINE
8
OBJECT__73
66
1
70
64
71
4
72
2
62
253
0
VERTEX
8
OBJECT__73
10
-7.500000
20
-173.500000
30
189.703995
70
192
0
VERTEX
8
OBJECT__73
10
-7.500000
20
-173.500000
30
119.699997
70
192
0
VERTEX
8
OBJECT__73
10
-7.500000
20
-206.500000
30
119.699997
70
192
0
VERTEX
8
OBJECT__73
10
-7.500000
20
-206.500000
30
189.703995
70
192
0
VERTEX
8
OBJECT__73
10
0
20
0
30
0
70
128
71
1
72
2
73
3
0
VERTEX
8
OBJECT__73
10
0
20
0
30
0
70
128
71
3
72
4
73
1
0
SEQEND
8
OBJECT__73
0
POLYLINE
8
OBJECT__74
66
1
70
64
71
5
72
3
62
253
0
VERTEX
8
OBJECT__74
10
-7.500000
20
-206.500000
30
119.699997
70
192
0
VERTEX
8
OBJECT__74
10
-7.000000
20
-207.000000
30
119.699997
70
192
0
VERTEX
8
OBJECT__74
10
-7.354000
20
-206.854004
30
189.703995
70
192
0
VERTEX
8
OBJECT__74
10
-7.000000
20
-207.000000
30
189.703995
70
192
0
VERTEX
8
OBJECT__74
10
-7.500000
20
-206.500000
30
189.703995
70
192
0
VERTEX
8
OBJECT__74
10
0
20
0
30
0
70
128
71
1
72
2
73
3
0
VERTEX
8
OBJECT__74
10
0
20
0
30
0
70
128
71
2
72
4
73
3
0
VERTEX
8
OBJECT__74
10
0
20
0
30
0
70
128
71
3
72
5
73
1
0
SEQEND
8
OBJECT__74
0
POLYLINE
8
OBJECT__75
66
1
70
64
71
4
72
2
62
253
0
VERTEX
8
OBJECT__75
10
-47.500000
20
144.100006
30
0.000000
70
192
0
VERTEX
8
OBJECT__75
10
-47.379002
20
144.220001
30
13.810000
70
192
0
VERTEX
8
OBJECT__75
10
-47.379002
20
235.779999
30
13.810000
70
192
0
VERTEX
8
OBJECT__75
10
-47.500000
20
235.899994
30
0.000000
70
192
0
VERTEX
8
OBJECT__75
10
0
20
0
30
0
70
128
71
1
72
2
73
3
0
VERTEX
8
OBJECT__75
10
0
20
0
30
0
70
128
71
3
72
4
73
1
0
SEQEND
8
OBJECT__75
0
POLYLINE
8
OBJECT__76
66
1
70
64
71
6
72
4
62
253
0
VERTEX
8
OBJECT__76
10
-46.041000
20
237.494003
30
0.000000
70
192
0
VERTEX
8
OBJECT__76
10
-47.500000
20
235.899994
30
0.000000
70
192
0
VERTEX
8
OBJECT__76
10
-46.910999
20
236.910995
30
13.815000
70
192
0
VERTEX
8
OBJECT__76
10
-45.779999
20
237.378998
30
13.810000
70
192
0
VERTEX
8
OBJECT__76
10
-45.900002
20
237.500000
30
0.000000
70
192
0
VERTEX
8
OBJECT__76
10
-47.379002
20
235.779999
30
13.810000
70
192
0
VERTEX
8
OBJECT__76
10
0
20
0
30
0
70
128
71
1
72
2
73
3
0
VERTEX
8
OBJECT__76
10
0
20
0
30
0
70
128
71
4
72
5
73
1
0
VERTEX
8
OBJECT__76
10
0
20
0
30
0
70
128
71
2
72
6
73
3
0
VERTEX
8
OBJECT__76
10
0
20
0
30
0
70
128
71
3
72
4
73
1
0
SEQEND
8
OBJECT__76
0
POLYLINE
8
OBJECT__78
66
1
70
64
71
4
72
2
62
253
0
VERTEX
8
OBJECT__78
10
45.900002
20
237.500000
30
0.000000
70
192
0
VERTEX
8
OBJECT__78
10
-45.900002
20
237.500000
30
0.000000
70
192
0
VERTEX
8
OBJECT__78
10
-45.779999
20
237.378998
30
13.810000
70
192
0
VERTEX
8
OBJECT__78
10
45.779999
20
237.378998
30
13.810000
70
192
0
VERTEX
8
OBJECT__78
10
0
20
0
30
0
70
128
71
1
72
2
73
3
0
VERTEX
8
OBJECT__78
10
0
20
0
30
0
70
128
71
3
72
4
73
1
0
SEQEND
8
OBJECT__78
0
POLYLINE
8
OBJECT__79
66
1
70
64
71
6
72
4
62
253
0
VERTEX
8
OBJECT__79
10
-45.779999
20
237.378998
30
13.810000
70
192
0
VERTEX
8
OBJECT__79
10
-46.910999
20
236.910995
30
13.815000
70
192
0
VERTEX
8
OBJECT__79
10
-46.062000
20
236.061996
30
15.000000
70
192
0
VERTEX
8
OBJECT__79
10
-47.379002
20
235.779999
30
13.810000
70
192
0
VERTEX
8
OBJECT__79
10
-46.180000
20
235.779999
30
15.000000
70
192
0
VERTEX
8
OBJECT__79
10
-45.779999
20
236.179993
30
15.000000
70
192
0
VERTEX
8
OBJECT__79
10
0
20
0
30
0
70
128
71
1
72
2
73
3
0
VERTEX
8
OBJECT__79
10
0
20
0
30
0
70
128
71
4
72
5
73
3
0
VERTEX
8
OBJECT__79
10
0
20
0
30
0
70
128
71
3
72
2
73
4
0
VERTEX
8
OBJECT__79
10
0
20
0
30
0
70
128
71
3
72
6
73
1
0
SEQEND
8
OBJECT__79
0
POLYLINE
8
OBJECT__80
66
1
70
64
71
4
72
2
62
253
0
VERTEX
8
OBJECT__80
10
45.779999
20
237.378998
30
13.810000
70
192
0
VERTEX
8
OBJECT__80
10
-45.779999
20
237.378998
30
13.810000
70
192
0
VERTEX
8
OBJECT__80
10
-45.779999
20
236.179993
30
15.000000
70
192
0
VERTEX
8
OBJECT__80
10
45.779999
20
236.179993
30
15.000000
70
192
0
VERTEX
8
OBJECT__80
10
0
20
0
30
0
70
128
71
1
72
2
73
3
0
VERTEX
8
OBJECT__80
10
0
20
0
30
0
70
128
71
3
72
4
73
1
0
SEQEND
8
OBJECT__80
0
POLYLINE
8
OBJECT__81
66
1
70
64
71
4
72
2
62
253
0
VERTEX
8
OBJECT__81
10
-47.379002
20
144.220001
30
13.810000
70
192
0
VERTEX
8
OBJECT__81
10
-46.180000
20
144.220001
30
15.000000
70
192
0
VERTEX
8
OBJECT__81
10
-46.180000
20
235.779999
30
15.000000
70
192
0
VERTEX
8
OBJECT__81
10
-47.379002
20
235.779999
30
13.810000
70
192
0
VERTEX
8
OBJECT__81
10
0
20
0
30
0
70
128
71
1
72
2
73
3
0
VERTEX
8
OBJECT__81
10
0
20
0
30
0
70
128
71
3
72
4
73
1
0
SEQEND
8
OBJECT__81
0
POLYLINE
8
OBJECT__82
66
1
70
64
71
6
72
4
62
253
0
VERTEX
8
OBJECT__82
10
-47.493999
20
143.959000
30
0.000000
70
192
0
VERTEX
8
OBJECT__82
10
-45.900002
20
142.500000
30
0.000000
70
192
0
VERTEX
8
OBJECT__82
10
-46.910999
20
143.089005
30
13.815000
70
192
0
VERTEX
8
OBJECT__82
10
-47.379002
20
144.220001
30
13.810000
70
192
0
VERTEX
8
OBJECT__82
10
-47.500000
20
144.100006
30
0.000000
70
192
0
VERTEX
8
OBJECT__82
10
-45.779999
20
142.621002
30
13.810000
70
192
0
VERTEX
8
OBJECT__82
10
0
20
0
30
0
70
128
71
1
72
2
73
3
0
VERTEX
8
OBJECT__82
10
0
20
0
30
0
70
128
71
4
72
5
73
1
0
VERTEX
8
OBJECT__82
10
0
20
0
30
0
70
128
71
2
72
6
73
3
0
VERTEX
8
OBJECT__82
10
0
20
0
30
0
70
128
71
3
72
4
73
1
0
SEQEND
8
OBJECT__82
0
POLYLINE
8
OBJECT__83
66
1
70
64
71
6
72
4
62
253
0
VERTEX
8
OBJECT__83
10
-47.379002
20
144.220001
30
13.810000
70
192
0
VERTEX
8
OBJECT__83
10
-46.910999
20
143.089005
30
13.815000
70
192
0
VERTEX
8
OBJECT__83
10
-46.062000
20
143.938004
30
15.000000
70
192
0
VERTEX
8
OBJECT__83
10
-45.779999
20
142.621002
30
13.810000
70
192
0
VERTEX
8
OBJECT__83
10
-45.779999
20
143.820007
30
15.000000
70
192
0
VERTEX
8
OBJECT__83
10
-46.180000
20
144.220001
30
15.000000
70
192
0
VERTEX
8
OBJECT__83
10
0
20
0
30
0
70
128
71
1
72
2
73
3
0
VERTEX
8
OBJECT__83
10
0
20
0
30
0
70
128
71
4
72
5
73
3
0
VERTEX
8
OBJECT__83
10
0
20
0
30
0
70
128
71
3
72
2
73
4
0
VERTEX
8
OBJECT__83
10
0
20
0
30
0
70
128
71
3
72
6
73
1
0
SEQEND
8
OBJECT__83
0
POLYLINE
8
OBJECT__84
66
1
70
64
71
4
72
2
62
253
0
VERTEX
8
OBJECT__84
10
45.900002
20
142.500000
30
0.000000
70
192
0
VERTEX
8
OBJECT__84
10
45.779999
20
142.621002
30
13.810000
70
192
0
VERTEX
8
OBJECT__84
10
-45.779999
20
142.621002
30
13.810000
70
192
0
VERTEX
8
OBJECT__84
10
-45.900002
20
142.500000
30
0.000000
70
192
0
VERTEX
8
OBJECT__84
10
0
20
0
30
0
70
128
71
1
72
2
73
3
0
VERTEX
8
OBJECT__84
10
0
20
0
30
0
70
128
71
3
72
4
73
1
0
SEQEND
8
OBJECT__84
0
POLYLINE
8
OBJECT__85
66
1
70
64
71
12
72
10
62
253
0
VERTEX
8
OBJECT__85
10
45.900002
20
142.500000
30
0.000000
70
192
0
VERTEX
8
OBJECT__85
10
45.900002
20
237.500000
30
0.000000
70
192
0
VERTEX
8
OBJECT__85
10
47.500000
20
235.899994
30
0.000000
70
192
0
VERTEX
8
OBJECT__85
10
47.500000
20
144.100006
30
0.000000
70
192
0
VERTEX
8
OBJECT__85
10
-45.900002
20
237.500000
30
0.000000
70
192
0
VERTEX
8
OBJECT__85
10
-45.900002
20
142.500000
30
0.000000
70
192
0
VERTEX
8
OBJECT__85
10
-47.500000
20
144.100006
30
0.000000
70
192
0
VERTEX
8
OBJECT__85
10
47.493999
20
236.041000
30
0.000000
70
192
0
VERTEX
8
OBJECT__85
10
-47.500000
20
235.899994
30
0.000000
70
192
0
VERTEX
8
OBJECT__85
10
46.041000
20
142.505997
30
0.000000
70
192
0
VERTEX
8
OBJECT__85
10
-47.493999
20
143.959000
30
0.000000
70
192
0
VERTEX
8
OBJECT__85
10
-46.041000
20
237.494003
30
0.000000
70
192
0
VERTEX
8
OBJECT__85
10
0
20
0
30
0
70
128
71
1
72
2
73
3
0
VERTEX
8
OBJECT__85
10
0
20
0
30
0
70
128
71
3
72
4
73
1
0
VERTEX
8
OBJECT__85
10
0
20
0
30
0
70
128
71
5
72
6
73
7
0
VERTEX
8
OBJECT__85
10
0
20
0
30
0
70
128
71
5
72
2
73
1
0
VERTEX
8
OBJECT__85
10
0
20
0
30
0
70
128
71
2
72
8
73
3
0
VERTEX
8
OBJECT__85
10
0
20
0
30
0
70
128
71
7
72
9
73
5
0
VERTEX
8
OBJECT__85
10
0
20
0
30
0
70
128
71
4
72
10
73
1
0
VERTEX
8
OBJECT__85
10
0
20
0
30
0
70
128
71
6
72
11
73
7
0
VERTEX
8
OBJECT__85
10
0
20
0
30
0
70
128
71
9
72
12
73
5
0
VERTEX
8
OBJECT__85
10
0
20
0
30
0
70
128
71
1
72
6
73
5
0
SEQEND
8
OBJECT__85
0
POLYLINE
8
OBJECT__86
66
1
70
64
71
6
72
4
62
253
0
VERTEX
8
OBJECT__86
10
47.493999
20
236.041000
30
0.000000
70
192
0
VERTEX
8
OBJECT__86
10
45.900002
20
237.500000
30
0.000000
70
192
0
VERTEX
8
OBJECT__86
10
46.910999
20
236.910995
30
13.815000
70
192
0
VERTEX
8
OBJECT__86
10
47.379002
20
235.779999
30
13.810000
70
192
0
VERTEX
8
OBJECT__86
10
47.500000
20
235.899994
30
0.000000
70
192
0
VERTEX
8
OBJECT__86
10
45.779999
20
237.378998
30
13.810000
70
192
0
VERTEX
8
OBJECT__86
10
0
20
0
30
0
70
128
71
1
72
2
73
3
0
VERTEX
8
OBJECT__86
10
0
20
0
30
0
70
128
71
4
72
5
73
1
0
VERTEX
8
OBJECT__86
10
0
20
0
30
0
70
128
71
2
72
6
73
3
0
VERTEX
8
OBJECT__86
10
0
20
0
30
0
70
128
71
3
72
4
73
1
0
SEQEND
8
OBJECT__86
0
POLYLINE
8
OBJECT__87
66
1
70
64
71
4
72
2
62
253
0
VERTEX
8
OBJECT__87
10
47.500000
20
235.899994
30
0.000000
70
192
0
VERTEX
8
OBJECT__87
10
47.379002
20
235.779999
30
13.810000
70
192
0
VERTEX
8
OBJECT__87
10
47.379002
20
144.220001
30
13.810000
70
192
0
VERTEX
8
OBJECT__87
10
47.500000
20
144.100006
30
0.000000
70
192
0
VERTEX
8
OBJECT__87
10
0
20
0
30
0
70
128
71
1
72
2
73
3
0
VERTEX
8
OBJECT__87
10
0
20
0
30
0
70
128
71
3
72
4
73
1
0
SEQEND
8
OBJECT__87
0
POLYLINE
8
OBJECT__88
66
1
70
64
71
6
72
4
62
253
0
VERTEX
8
OBJECT__88
10
47.379002
20
235.779999
30
13.810000
70
192
0
VERTEX
8
OBJECT__88
10
46.910999
20
236.910995
30
13.815000
70
192
0
VERTEX
8
OBJECT__88
10
46.062000
20
236.061996
30
15.000000
70
192
0
VERTEX
8
OBJECT__88
10
45.779999
20
237.378998
30
13.810000
70
192
0
VERTEX
8
OBJECT__88
10
45.779999
20
236.179993
30
15.000000
70
192
0
VERTEX
8
OBJECT__88
10
46.180000
20
235.779999
30
15.000000
70
192
0
VERTEX
8
OBJECT__88
10
0
20
0
30
0
70
128
71
1
72
2
73
3
0
VERTEX
8
OBJECT__88
10
0
20
0
30
0
70
128
71
4
72
5
73
3
0
VERTEX
8
OBJECT__88
10
0
20
0
30
0
70
128
71
3
72
2
73
4
0
VERTEX
8
OBJECT__88
10
0
20
0
30
0
70
128
71
3
72
6
73
1
0
SEQEND
8
OBJECT__88
0
POLYLINE
8
OBJECT__89
66
1
70
64
71
12
72
10
62
253
0
VERTEX
8
OBJECT__89
10
-45.779999
20
143.820007
30
15.000000
70
192
0
VERTEX
8
OBJECT__89
10
-45.779999
20
236.179993
30
15.000000
70
192
0
VERTEX
8
OBJECT__89
10
-46.180000
20
235.779999
30
15.000000
70
192
0
VERTEX
8
OBJECT__89
10
-46.180000
20
144.220001
30
15.000000
70
192
0
VERTEX
8
OBJECT__89
10
45.779999
20
236.179993
30
15.000000
70
192
0
VERTEX
8
OBJECT__89
10
45.779999
20
143.820007
30
15.000000
70
192
0
VERTEX
8
OBJECT__89
10
46.180000
20
144.220001
30
15.000000
70
192
0
VERTEX
8
OBJECT__89
10
-46.062000
20
236.061996
30
15.000000
70
192
0
VERTEX
8
OBJECT__89
10
46.180000
20
235.779999
30
15.000000
70
192
0
VERTEX
8
OBJECT__89
10
-46.062000
20
143.938004
30
15.000000
70
192
0
VERTEX
8
OBJECT__89
10
46.062000
20
143.938004
30
15.000000
70
192
0
VERTEX
8
OBJECT__89
10
46.062000
20
236.061996
30
15.000000
70
192
0
VERTEX
8
OBJECT__89
10
0
20
0
30
0
70
128
71
1
72
2
73
3
0
VERTEX
8
OBJECT__89
10
0
20
0
30
0
70
128
71
3
72
4
73
1
0
VERTEX
8
OBJECT__89
10
0
20
0
30
0
70
128
71
5
72
6
73
7
0
VERTEX
8
OBJECT__89
10
0
20
0
30
0
70
128
71
1
72
6
73
5
0
VERTEX
8
OBJECT__89
10
0
20
0
30
0
70
128
71
2
72
8
73
3
0
VERTEX
8
OBJECT__89
10
0
20
0
30
0
70
128
71
7
72
9
73
5
0
VERTEX
8
OBJECT__89
10
0
20
0
30
0
70
128
71
4
72
10
73
1
0
VERTEX
8
OBJECT__89
10
0
20
0
30
0
70
128
71
6
72
11
73
7
0
VERTEX
8
OBJECT__89
10
0
20
0
30
0
70
128
71
9
72
12
73
5
0
VERTEX
8
OBJECT__89
10
0
20
0
30
0
70
128
71
5
72
2
73
1
0
SEQEND
8
OBJECT__89
0
POLYLINE
8
OBJECT__90
66
1
70
64
71
4
72
2
62
253
0
VERTEX
8
OBJECT__90
10
47.379002
20
235.779999
30
13.810000
70
192
0
VERTEX
8
OBJECT__90
10
46.180000
20
235.779999
30
15.000000
70
192
0
VERTEX
8
OBJECT__90
10
46.180000
20
144.220001
30
15.000000
70
192
0
VERTEX
8
OBJECT__90
10
47.379002
20
144.220001
30
13.810000
70
192
0
VERTEX
8
OBJECT__90
10
0
20
0
30
0
70
128
71
1
72
2
73
3
0
VERTEX
8
OBJECT__90
10
0
20
0
30
0
70
128
71
3
72
4
73
1
0
SEQEND
8
OBJECT__90
0
POLYLINE
8
OBJECT__91
66
1
70
64
71
4
72
2
62
253
0
VERTEX
8
OBJECT__91
10
-45.779999
20
142.621002
30
13.810000
70
192
0
VERTEX
8
OBJECT__91
10
45.779999
20
142.621002
30
13.810000
70
192
0
VERTEX
8
OBJECT__91
10
45.779999
20
143.820007
30
15.000000
70
192
0
VERTEX
8
OBJECT__91
10
-45.779999
20
143.820007
30
15.000000
70
192
0
VERTEX
8
OBJECT__91
10
0
20
0
30
0
70
128
71
1
72
2
73
3
0
VERTEX
8
OBJECT__91
10
0
20
0
30
0
70
128
71
3
72
4
73
1
0
SEQEND
8
OBJECT__91
0
POLYLINE
8
OBJECT__92
66
1
70
64
71
6
72
4
62
253
0
VERTEX
8
OBJECT__92
10
46.041000
20
142.505997
30
0.000000
70
192
0
VERTEX
8
OBJECT__92
10
47.500000
20
144.100006
30
0.000000
70
192
0
VERTEX
8
OBJECT__92
10
46.910999
20
143.089005
30
13.815000
70
192
0
VERTEX
8
OBJECT__92
10
45.779999
20
142.621002
30
13.810000
70
192
0
VERTEX
8
OBJECT__92
10
45.900002
20
142.500000
30
0.000000
70
192
0
VERTEX
8
OBJECT__92
10
47.379002
20
144.220001
30
13.810000
70
192
0
VERTEX
8
OBJECT__92
10
0
20
0
30
0
70
128
71
1
72
2
73
3
0
VERTEX
8
OBJECT__92
10
0
20
0
30
0
70
128
71
4
72
5
73
1
0
VERTEX
8
OBJECT__92
10
0
20
0
30
0
70
128
71
2
72
6
73
3
0
VERTEX
8
OBJECT__92
10
0
20
0
30
0
70
128
71
3
72
4
73
1
0
SEQEND
8
OBJECT__92
0
POLYLINE
8
OBJECT__93
66
1
70
64
71
6
72
4
62
253
0
VERTEX
8
OBJECT__93
10
45.779999
20
142.621002
30
13.810000
70
192
0
VERTEX
8
OBJECT__93
10
46.910999
20
143.089005
30
13.815000
70
192
0
VERTEX
8
OBJECT__93
10
46.062000
20
143.938004
30
15.000000
70
192
0
VERTEX
8
OBJECT__93
10
47.379002
20
144.220001
30
13.810000
70
192
0
VERTEX
8
OBJECT__93
10
46.180000
20
144.220001
30
15.000000
70
192
0
VERTEX
8
OBJECT__93
10
45.779999
20
143.820007
30
15.000000
70
192
0
VERTEX
8
OBJECT__93
10
0
20
0
30
0
70
128
71
1
72
2
73
3
0
VERTEX
8
OBJECT__93
10
0
20
0
30
0
70
128
71
4
72
5
73
3
0
VERTEX
8
OBJECT__93
10
0
20
0
30
0
70
128
71
3
72
2
73
4
0
VERTEX
8
OBJECT__93
10
0
20
0
30
0
70
128
71
3
72
6
73
1
0
SEQEND
8
OBJECT__93
0
POLYLINE
8
OBJECT__94
66
1
70
64
71
80
72
120
62
253
0
VERTEX
8
OBJECT__94
10
-19.136999
20
190.000000
30
56.289001
70
192
0
VERTEX
8
OBJECT__94
10
-15.000000
20
190.000000
30
60.202999
70
192
0
VERTEX
8
OBJECT__94
10
-14.266000
20
194.634995
30
60.202999
70
192
0
VERTEX
8
OBJECT__94
10
-18.201000
20
195.914001
30
56.289001
70
192
0
VERTEX
8
OBJECT__94
10
-12.135000
20
198.817001
30
60.202999
70
192
0
VERTEX
8
OBJECT__94
10
-15.482000
20
201.248993
30
56.289001
70
192
0
VERTEX
8
OBJECT__94
10
-8.817000
20
202.134995
30
60.202999
70
192
0
VERTEX
8
OBJECT__94
10
-5.914000
20
208.201004
30
56.289001
70
192
0
VERTEX
8
OBJECT__94
10
-11.249000
20
205.481995
30
56.289001
70
192
0
VERTEX
8
OBJECT__94
10
-4.635000
20
204.266006
30
60.202999
70
192
0
VERTEX
8
OBJECT__94
10
0.000000
20
205.000000
30
60.202999
70
192
0
VERTEX
8
OBJECT__94
10
5.914000
20
208.201004
30
56.289001
70
192
0
VERTEX
8
OBJECT__94
10
0.000000
20
209.136993
30
56.289001
70
192
0
VERTEX
8
OBJECT__94
10
4.635000
20
204.266006
30
60.202999
70
192
0
VERTEX
8
OBJECT__94
10
8.817000
20
202.134995
30
60.202999
70
192
0
VERTEX
8
OBJECT__94
10
11.249000
20
205.481995
30
56.289001
70
192
0
VERTEX
8
OBJECT__94
10
12.135000
20
198.817001
30
60.202999
70
192
0
VERTEX
8
OBJECT__94
10
18.201000
20
195.914001
30
56.289001
70
192
0
VERTEX
8
OBJECT__94
10
15.482000
20
201.248993
30
56.289001
70
192
0
VERTEX
8
OBJECT__94
10
19.136999
20
190.000000
30
56.289001
70
192
0
VERTEX
8
OBJECT__94
10
14.266000
20
194.634995
30
60.202999
70
192
0
VERTEX
8
OBJECT__94
10
18.201000
20
184.085999
30
56.289001
70
192
0
VERTEX
8
OBJECT__94
10
15.000000
20
190.000000
30
60.202999
70
192
0
VERTEX
8
OBJECT__94
10
14.266000
20
185.365005
30
60.202999
70
192
0
VERTEX
8
OBJECT__94
10
12.135000
20
181.182999
30
60.202999
70
192
0
VERTEX
8
OBJECT__94
10
15.482000
20
178.751007
30
56.289001
70
192
0
VERTEX
8
OBJECT__94
10
8.817000
20
177.865005
30
60.202999
70
192
0
VERTEX
8
OBJECT__94
10
5.914000
20
171.798996
30
56.289001
70
192
0
VERTEX
8
OBJECT__94
10
11.249000
20
174.518005
30
56.289001
70
192
0
VERTEX
8
OBJECT__94
10
0.000000
20
170.863007
30
56.289001
70
192
0
VERTEX
8
OBJECT__94
10
4.635000
20
175.733994
30
60.202999
70
192
0
VERTEX
8
OBJECT__94
10
0.000000
20
175.000000
30
60.202999
70
192
0
VERTEX
8
OBJECT__94
10
-4.635000
20
175.733994
30
60.202999
70
192
0
VERTEX
8
OBJECT__94
10
-5.914000
20
171.798996
30
56.289001
70
192
0
VERTEX
8
OBJECT__94
10
-8.817000
20
177.865005
30
60.202999
70
192
0
VERTEX
8
OBJECT__94
10
-11.249000
20
174.518005
30
56.289001
70
192
0
VERTEX
8
OBJECT__94
10
-12.135000
20
181.182999
30
60.202999
70
192
0
VERTEX
8
OBJECT__94
10
-18.201000
20
184.085999
30
56.289001
70
192
0
VERTEX
8
OBJECT__94
10
-15.482000
20
178.751007
30
56.289001
70
192
0
VERTEX
8
OBJECT__94
10
-14.266000
20
185.365005
30
60.202999
70
192
0
VERTEX
8
OBJECT__94
10
-21.191000
20
196.884995
30
51.540001
70
192
0
VERTEX
8
OBJECT__94
10
-18.025999
20
203.097000
30
51.540001
70
192
0
VERTEX
8
OBJECT__94
10
-13.097000
20
208.026001
30
51.540001
70
192
0
VERTEX
8
OBJECT__94
10
-6.885000
20
211.190994
30
51.540001
70
192
0
VERTEX
8
OBJECT__94
10
0.000000
20
212.281998
30
51.540001
70
192
0
VERTEX
8
OBJECT__94
10
6.885000
20
211.190994
30
51.540001
70
192
0
VERTEX
8
OBJECT__94
10
13.097000
20
208.026001
30
51.540001
70
192
0
VERTEX
8
OBJECT__94
10
18.025999
20
203.097000
30
51.540001
70
192
0
VERTEX
8
OBJECT__94
10
21.191000
20
196.884995
30
51.540001
70
192
0
VERTEX
8
OBJECT__94
10
22.282000
20
190.000000
30
51.540001
70
192
0
VERTEX
8
OBJECT__94
10
21.191000
20
183.115005
30
51.540001
70
192
0
VERTEX
8
OBJECT__94
10
18.025999
20
176.903000
30
51.540001
70
192
0
VERTEX
8
OBJECT__94
10
13.097000
20
171.973999
30
51.540001
70
192
0
VERTEX
8
OBJECT__94
10
6.885000
20
168.809006
30
51.540001
70
192
0
VERTEX
8
OBJECT__94
10
0.000000
20
167.718002
30
51.540001
70
192
0
VERTEX
8
OBJECT__94
10
-6.885000
20
168.809006
30
51.540001
70
192
0
VERTEX
8
OBJECT__94
10
-13.097000
20
171.973999
30
51.540001
70
192
0
VERTEX
8
OBJECT__94
10
-18.025999
20
176.903000
30
51.540001
70
192
0
VERTEX
8
OBJECT__94
10
-21.191000
20
183.115005
30
51.540001
70
192
0
VERTEX
8
OBJECT__94
10
-22.282000
20
190.000000
30
51.540001
70
192
0
VERTEX
8
OBJECT__94
10
-24.268999
20
190.000000
30
46.202999
70
192
0
VERTEX
8
OBJECT__94
10
-23.080999
20
197.500000
30
46.202999
70
192
0
VERTEX
8
OBJECT__94
10
-14.265000
20
209.634003
30
46.202999
70
192
0
VERTEX
8
OBJECT__94
10
-19.634001
20
204.264999
30
46.202999
70
192
0
VERTEX
8
OBJECT__94
10
0.000000
20
214.268997
30
46.202999
70
192
0
VERTEX
8
OBJECT__94
10
-7.500000
20
213.080994
30
46.202999
70
192
0
VERTEX
8
OBJECT__94
10
14.265000
20
209.634003
30
46.202999
70
192
0
VERTEX
8
OBJECT__94
10
7.500000
20
213.080994
30
46.202999
70
192
0
VERTEX
8
OBJECT__94
10
19.634001
20
204.264999
30
46.202999
70
192
0
VERTEX
8
OBJECT__94
10
23.080999
20
197.500000
30
46.202999
70
192
0
VERTEX
8
OBJECT__94
10
23.080999
20
182.500000
30
46.202999
70
192
0
VERTEX
8
OBJECT__94
10
24.268999
20
190.000000
30
46.202999
70
192
0
VERTEX
8
OBJECT__94
10
19.634001
20
175.735001
30
46.202999
70
192
0
VERTEX
8
OBJECT__94
10
14.265000
20
170.365997
30
46.202999
70
192
0
VERTEX
8
OBJECT__94
10
7.500000
20
166.919006
30
46.202999
70
192
0
VERTEX
8
OBJECT__94
10
0.000000
20
165.731003
30
46.202999
70
192
0
VERTEX
8
OBJECT__94
10
-7.500000
20
166.919006
30
46.202999
70
192
0
VERTEX
8
OBJECT__94
10
-14.265000
20
170.365997
30
46.202999
70
192
0
VERTEX
8
OBJECT__94
10
-19.634001
20
175.735001
30
46.202999
70
192
0
VERTEX
8
OBJECT__94
10
-23.080999
20
182.500000
30
46.202999
70
192
0
VERTEX
8
OBJECT__94
10
0
20
0
30
0
70
128
71
1
72
2
73
3
0
VERTEX
8
OBJECT__94
10
0
20
0
30
0
70
128
71
4
72
3
73
5
0
VERTEX
8
OBJECT__94
10
0
20
0
30
0
70
128
71
6
72
5
73
7
0
VERTEX
8
OBJECT__94
10
0
20
0
30
0
70
128
71
8
72
9
73
7
0
VERTEX
8
OBJECT__94
10
0
20
0
30
0
70
128
71
8
72
10
73
11
0
VERTEX
8
OBJECT__94
10
0
20
0
30
0
70
128
71
12
72
13
73
11
0
VERTEX
8
OBJECT__94
10
0
20
0
30
0
70
128
71
12
72
14
73
15
0
VERTEX
8
OBJECT__94
10
0
20
0
30
0
70
128
71
16
72
15
73
17
0
VERTEX
8
OBJECT__94
10
0
20
0
30
0
70
128
71
18
72
19
73
17
0
VERTEX
8
OBJECT__94
10
0
20
0
30
0
70
128
71
20
72
18
73
21
0
VERTEX
8
OBJECT__94
10
0
20
0
30
0
70
128
71
22
72
20
73
23
0
VERTEX
8
OBJECT__94
10
0
20
0
30
0
70
128
71
22
72
24
73
25
0
VERTEX
8
OBJECT__94
10
0
20
0
30
0
70
128
71
26
72
25
73
27
0
VERTEX
8
OBJECT__94
10
0
20
0
30
0
70
128
71
28
72
29
73
27
0
VERTEX
8
OBJECT__94
10
0
20
0
30
0
70
128
71
30
72
28
73
31
0
VERTEX
8
OBJECT__94
10
0
20
0
30
0
70
128
71
30
72
32
73
33
0
VERTEX
8
OBJECT__94
10
0
20
0
30
0
70
128
71
34
72
33
73
35
0
VERTEX
8
OBJECT__94
10
0
20
0
30
0
70
128
71
36
72
35
73
37
0
VERTEX
8
OBJECT__94
10
0
20
0
30
0
70
128
71
38
72
39
73
37
0
VERTEX
8
OBJECT__94
10
0
20
0
30
0
70
128
71
38
72
40
73
2
0
VERTEX
8
OBJECT__94
10
0
20
0
30
0
70
128
71
1
72
4
73
41
0
VERTEX
8
OBJECT__94
10
0
20
0
30
0
70
128
71
4
72
6
73
42
0
VERTEX
8
OBJECT__94
10
0
20
0
30
0
70
128
71
6
72
9
73
43
0
VERTEX
8
OBJECT__94
10
0
20
0
30
0
70
128
71
9
72
8
73
44
0
VERTEX
8
OBJECT__94
10
0
20
0
30
0
70
128
71
8
72
13
73
45
0
VERTEX
8
OBJECT__94
10
0
20
0
30
0
70
128
71
13
72
12
73
46
0
VERTEX
8
OBJECT__94
10
0
20
0
30
0
70
128
71
12
72
16
73
47
0
VERTEX
8
OBJECT__94
10
0
20
0
30
0
70
128
71
16
72
19
73
48
0
VERTEX
8
OBJECT__94
10
0
20
0
30
0
70
128
71
19
72
18
73
49
0
VERTEX
8
OBJECT__94
10
0
20
0
30
0
70
128
71
18
72
20
73
50
0
VERTEX
8
OBJECT__94
10
0
20
0
30
0
70
128
71
20
72
22
73
51
0
VERTEX
8
OBJECT__94
10
0
20
0
30
0
70
128
71
22
72
26
73
52
0
VERTEX
8
OBJECT__94
10
0
20
0
30
0
70
128
71
26
72
29
73
53
0
VERTEX
8
OBJECT__94
10
0
20
0
30
0
70
128
71
29
72
28
73
54
0
VERTEX
8
OBJECT__94
10
0
20
0
30
0
70
128
71
28
72
30
73
55
0
VERTEX
8
OBJECT__94
10
0
20
0
30
0
70
128
71
30
72
34
73
56
0
VERTEX
8
OBJECT__94
10
0
20
0
30
0
70
128
71
34
72
36
73
57
0
VERTEX
8
OBJECT__94
10
0
20
0
30
0
70
128
71
36
72
39
73
58
0
VERTEX
8
OBJECT__94
10
0
20
0
30
0
70
128
71
39
72
38
73
59
0
VERTEX
8
OBJECT__94
10
0
20
0
30
0
70
128
71
38
72
1
73
60
0
VERTEX
8
OBJECT__94
10
0
20
0
30
0
70
128
71
61
72
60
73
41
0
VERTEX
8
OBJECT__94
10
0
20
0
30
0
70
128
71
62
72
41
73
42
0
VERTEX
8
OBJECT__94
10
0
20
0
30
0
70
128
71
63
72
64
73
42
0
VERTEX
8
OBJECT__94
10
0
20
0
30
0
70
128
71
63
72
43
73
44
0
VERTEX
8
OBJECT__94
10
0
20
0
30
0
70
128
71
65
72
66
73
44
0
VERTEX
8
OBJECT__94
10
0
20
0
30
0
70
128
71
65
72
45
73
46
0
VERTEX
8
OBJECT__94
10
0
20
0
30
0
70
128
71
67
72
68
73
46
0
VERTEX
8
OBJECT__94
10
0
20
0
30
0
70
128
71
67
72
47
73
48
0
VERTEX
8
OBJECT__94
10
0
20
0
30
0
70
128
71
69
72
48
73
49
0
VERTEX
8
OBJECT__94
10
0
20
0
30
0
70
128
71
70
72
49
73
50
0
VERTEX
8
OBJECT__94
10
0
20
0
30
0
70
128
71
71
72
72
73
50
0
VERTEX
8
OBJECT__94
10
0
20
0
30
0
70
128
71
73
72
71
73
51
0
VERTEX
8
OBJECT__94
10
0
20
0
30
0
70
128
71
74
72
73
73
52
0
VERTEX
8
OBJECT__94
10
0
20
0
30
0
70
128
71
75
72
74
73
53
0
VERTEX
8
OBJECT__94
10
0
20
0
30
0
70
128
71
76
72
75
73
54
0
VERTEX
8
OBJECT__94
10
0
20
0
30
0
70
128
71
77
72
76
73
55
0
VERTEX
8
OBJECT__94
10
0
20
0
30
0
70
128
71
78
72
77
73
56
0
VERTEX
8
OBJECT__94
10
0
20
0
30
0
70
128
71
79
72
78
73
57
0
VERTEX
8
OBJECT__94
10
0
20
0
30
0
70
128
71
79
72
58
73
59
0
VERTEX
8
OBJECT__94
10
0
20
0
30
0
70
128
71
80
72
59
73
60
0
VERTEX
8
OBJECT__94
10
0
20
0
30
0
70
128
71
60
72
61
73
80
0
VERTEX
8
OBJECT__94
10
0
20
0
30
0
70
128
71
59
72
80
73
79
0
VERTEX
8
OBJECT__94
10
0
20
0
30
0
70
128
71
57
72
58
73
79
0
VERTEX
8
OBJECT__94
10
0
20
0
30
0
70
128
71
56
72
57
73
78
0
VERTEX
8
OBJECT__94
10
0
20
0
30
0
70
128
71
55
72
56
73
77
0
VERTEX
8
OBJECT__94
10
0
20
0
30
0
70
128
71
54
72
55
73
76
0
VERTEX
8
OBJECT__94
10
0
20
0
30
0
70
128
71
53
72
54
73
75
0
VERTEX
8
OBJECT__94
10
0
20
0
30
0
70
128
71
52
72
53
73
74
0
VERTEX
8
OBJECT__94
10
0
20
0
30
0
70
128
71
51
72
52
73
73
0
VERTEX
8
OBJECT__94
10
0
20
0
30
0
70
128
71
50
72
51
73
71
0
VERTEX
8
OBJECT__94
10
0
20
0
30
0
70
128
71
50
72
72
73
70
0
VERTEX
8
OBJECT__94
10
0
20
0
30
0
70
128
71
49
72
70
73
69
0
VERTEX
8
OBJECT__94
10
0
20
0
30
0
70
128
71
48
72
69
73
67
0
VERTEX
8
OBJECT__94
10
0
20
0
30
0
70
128
71
46
72
47
73
67
0
VERTEX
8
OBJECT__94
10
0
20
0
30
0
70
128
71
46
72
68
73
65
0
VERTEX
8
OBJECT__94
10
0
20
0
30
0
70
128
71
44
72
45
73
65
0
VERTEX
8
OBJECT__94
10
0
20
0
30
0
70
128
71
44
72
66
73
63
0
VERTEX
8
OBJECT__94
10
0
20
0
30
0
70
128
71
42
72
43
73
63
0
VERTEX
8
OBJECT__94
10
0
20
0
30
0
70
128
71
42
72
64
73
62
0
VERTEX
8
OBJECT__94
10
0
20
0
30
0
70
128
71
41
72
62
73
61
0
VERTEX
8
OBJECT__94
10
0
20
0
30
0
70
128
71
60
72
59
73
38
0
VERTEX
8
OBJECT__94
10
0
20
0
30
0
70
128
71
59
72
58
73
39
0
VERTEX
8
OBJECT__94
10
0
20
0
30
0
70
128
71
58
72
57
73
36
0
VERTEX
8
OBJECT__94
10
0
20
0
30
0
70
128
71
57
72
56
73
34
0
VERTEX
8
OBJECT__94
10
0
20
0
30
0
70
128
71
56
72
55
73
30
0
VERTEX
8
OBJECT__94
10
0
20
0
30
0
70
128
71
55
72
54
73
28
0
VERTEX
8
OBJECT__94
10
0
20
0
30
0
70
128
71
54
72
53
73
29
0
VERTEX
8
OBJECT__94
10
0
20
0
30
0
70
128
71
53
72
52
73
26
0
VERTEX
8
OBJECT__94
10
0
20
0
30
0
70
128
71
52
72
51
73
22
0
VERTEX
8
OBJECT__94
10
0
20
0
30
0
70
128
71
51
72
50
73
20
0
VERTEX
8
OBJECT__94
10
0
20
0
30
0
70
128
71
50
72
49
73
18
0
VERTEX
8
OBJECT__94
10
0
20
0
30
0
70
128
71
49
72
48
73
19
0
VERTEX
8
OBJECT__94
10
0
20
0
30
0
70
128
71
48
72
47
73
16
0
VERTEX
8
OBJECT__94
10
0
20
0
30
0
70
128
71
47
72
46
73
12
0
VERTEX
8
OBJECT__94
10
0
20
0
30
0
70
128
71
46
72
45
73
13
0
VERTEX
8
OBJECT__94
10
0
20
0
30
0
70
128
71
45
72
44
73
8
0
VERTEX
8
OBJECT__94
10
0
20
0
30
0
70
128
71
44
72
43
73
9
0
VERTEX
8
OBJECT__94
10
0
20
0
30
0
70
128
71
43
72
42
73
6
0
VERTEX
8
OBJECT__94
10
0
20
0
30
0
70
128
71
42
72
41
73
4
0
VERTEX
8
OBJECT__94
10
0
20
0
30
0
70
128
71
41
72
60
73
1
0
VERTEX
8
OBJECT__94
10
0
20
0
30
0
70
128
71
2
72
1
73
38
0
VERTEX
8
OBJECT__94
10
0
20
0
30
0
70
128
71
37
72
40
73
38
0
VERTEX
8
OBJECT__94
10
0
20
0
30
0
70
128
71
37
72
39
73
36
0
VERTEX
8
OBJECT__94
10
0
20
0
30
0
70
128
71
35
72
36
73
34
0
VERTEX
8
OBJECT__94
10
0
20
0
30
0
70
128
71
33
72
34
73
30
0
VERTEX
8
OBJECT__94
10
0
20
0
30
0
70
128
71
31
72
32
73
30
0
VERTEX
8
OBJECT__94
10
0
20
0
30
0
70
128
71
27
72
31
73
28
0
VERTEX
8
OBJECT__94
10
0
20
0
30
0
70
128
71
27
72
29
73
26
0
VERTEX
8
OBJECT__94
10
0
20
0
30
0
70
128
71
25
72
26
73
22
0
VERTEX
8
OBJECT__94
10
0
20
0
30
0
70
128
71
23
72
24
73
22
0
VERTEX
8
OBJECT__94
10
0
20
0
30
0
70
128
71
21
72
23
73
20
0
VERTEX
8
OBJECT__94
10
0
20
0
30
0
70
128
71
17
72
21
73
18
0
VERTEX
8
OBJECT__94
10
0
20
0
30
0
70
128
71
17
72
19
73
16
0
VERTEX
8
OBJECT__94
10
0
20
0
30
0
70
128
71
15
72
16
73
12
0
VERTEX
8
OBJECT__94
10
0
20
0
30
0
70
128
71
11
72
14
73
12
0
VERTEX
8
OBJECT__94
10
0
20
0
30
0
70
128
71
11
72
13
73
8
0
VERTEX
8
OBJECT__94
10
0
20
0
30
0
70
128
71
7
72
10
73
8
0
VERTEX
8
OBJECT__94
10
0
20
0
30
0
70
128
71
7
72
9
73
6
0
VERTEX
8
OBJECT__94
10
0
20
0
30
0
70
128
71
5
72
6
73
4
0
VERTEX
8
OBJECT__94
10
0
20
0
30
0
70
128
71
3
72
4
73
1
0
SEQEND
8
OBJECT__94
0
POLYLINE
8
OBJECT__95
66
1
70
64
71
35
72
35
62
253
0
VERTEX
8
OBJECT__95
10
-8.016000
20
165.330002
30
46.202999
70
192
0
VERTEX
8
OBJECT__95
10
-7.500000
20
166.919006
30
46.202999
70
192
0
VERTEX
8
OBJECT__95
10
-14.265000
20
170.365997
30
46.202999
70
192
0
VERTEX
8
OBJECT__95
10
20.986000
20
174.753006
30
46.202999
70
192
0
VERTEX
8
OBJECT__95
10
19.634001
20
175.735001
30
46.202999
70
192
0
VERTEX
8
OBJECT__95
10
14.265000
20
170.365997
30
46.202999
70
192
0
VERTEX
8
OBJECT__95
10
20.986000
20
205.246994
30
46.202999
70
192
0
VERTEX
8
OBJECT__95
10
12.970000
20
212.464996
30
46.202999
70
192
0
VERTEX
8
OBJECT__95
10
14.265000
20
209.634003
30
46.202999
70
192
0
VERTEX
8
OBJECT__95
10
-8.016000
20
214.669998
30
46.202999
70
192
0
VERTEX
8
OBJECT__95
10
-17.357000
20
209.276993
30
46.202999
70
192
0
VERTEX
8
OBJECT__95
10
-14.265000
20
209.634003
30
46.202999
70
192
0
VERTEX
8
OBJECT__95
10
-17.357000
20
170.723007
30
46.202999
70
192
0
VERTEX
8
OBJECT__95
10
2.711000
20
164.201996
30
46.202999
70
192
0
VERTEX
8
OBJECT__95
10
0.000000
20
165.731003
30
46.202999
70
192
0
VERTEX
8
OBJECT__95
10
12.970000
20
167.535004
30
46.202999
70
192
0
VERTEX
8
OBJECT__95
10
7.500000
20
166.919006
30
46.202999
70
192
0
VERTEX
8
OBJECT__95
10
7.500000
20
213.080994
30
46.202999
70
192
0
VERTEX
8
OBJECT__95
10
2.711000
20
215.798004
30
46.202999
70
192
0
VERTEX
8
OBJECT__95
10
0.000000
20
214.268997
30
46.202999
70
192
0
VERTEX
8
OBJECT__95
10
-7.500000
20
213.080994
30
46.202999
70
192
0
VERTEX
8
OBJECT__95
10
-19.634001
20
204.264999
30
46.202999
70
192
0
VERTEX
8
OBJECT__95
10
-23.697001
20
200.550995
30
46.202999
70
192
0
VERTEX
8
OBJECT__95
10
-23.080999
20
197.500000
30
46.202999
70
192
0
VERTEX
8
OBJECT__95
10
-25.940001
20
190.000000
30
46.202999
70
192
0
VERTEX
8
OBJECT__95
10
-24.268999
20
190.000000
30
46.202999
70
192
0
VERTEX
8
OBJECT__95
10
-23.697001
20
179.449005
30
46.202999
70
192
0
VERTEX
8
OBJECT__95
10
-23.080999
20
182.500000
30
46.202999
70
192
0
VERTEX
8
OBJECT__95
10
-19.634001
20
175.735001
30
46.202999
70
192
0
VERTEX
8
OBJECT__95
10
25.372999
20
184.606995
30
46.202999
70
192
0
VERTEX
8
OBJECT__95
10
23.080999
20
182.500000
30
46.202999
70
192
0
VERTEX
8
OBJECT__95
10
25.372999
20
195.393005
30
46.202999
70
192
0
VERTEX
8
OBJECT__95
10
24.268999
20
190.000000
30
46.202999
70
192
0
VERTEX
8
OBJECT__95
10
19.634001
20
204.264999
30
46.202999
70
192
0
VERTEX
8
OBJECT__95
10
23.080999
20
197.500000
30
46.202999
70
192
0
VERTEX
8
OBJECT__95
10
0
20
0
30
0
70
128
71
1
72
2
73
3
0
VERTEX
8
OBJECT__95
10
0
20
0
30
0
70
128
71
4
72
5
73
6
0
VERTEX
8
OBJECT__95
10
0
20
0
30
0
70
128
71
7
72
8
73
9
0
VERTEX
8
OBJECT__95
10
0
20
0
30
0
70
128
71
10
72
11
73
12
0
VERTEX
8
OBJECT__95
10
0
20
0
30
0
70
128
71
3
72
13
73
1
0
VERTEX
8
OBJECT__95
10
0
20
0
30
0
70
128
71
1
72
14
73
15
0
VERTEX
8
OBJECT__95
10
0
20
0
30
0
70
128
71
14
72
16
73
17
0
VERTEX
8
OBJECT__95
10
0
20
0
30
0
70
128
71
6
72
16
73
4
0
VERTEX
8
OBJECT__95
10
0
20
0
30
0
70
128
71
8
72
18
73
9
0
VERTEX
8
OBJECT__95
10
0
20
0
30
0
70
128
71
19
72
20
73
18
0
VERTEX
8
OBJECT__95
10
0
20
0
30
0
70
128
71
10
72
21
73
20
0
VERTEX
8
OBJECT__95
10
0
20
0
30
0
70
128
71
11
72
22
73
12
0
VERTEX
8
OBJECT__95
10
0
20
0
30
0
70
128
71
23
72
24
73
22
0
VERTEX
8
OBJECT__95
10
0
20
0
30
0
70
128
71
25
72
26
73
24
0
VERTEX
8
OBJECT__95
10
0
20
0
30
0
70
128
71
25
72
27
73
28
0
VERTEX
8
OBJECT__95
10
0
20
0
30
0
70
128
71
27
72
13
73
29
0
VERTEX
8
OBJECT__95
10
0
20
0
30
0
70
128
71
15
72
2
73
1
0
VERTEX
8
OBJECT__95
10
0
20
0
30
0
70
128
71
6
72
17
73
16
0
VERTEX
8
OBJECT__95
10
0
20
0
30
0
70
128
71
4
72
30
73
31
0
VERTEX
8
OBJECT__95
10
0
20
0
30
0
70
128
71
30
72
32
73
33
0
VERTEX
8
OBJECT__95
10
0
20
0
30
0
70
128
71
7
72
34
73
35
0
VERTEX
8
OBJECT__95
10
0
20
0
30
0
70
128
71
18
72
8
73
19
0
VERTEX
8
OBJECT__95
10
0
20
0
30
0
70
128
71
12
72
21
73
10
0
VERTEX
8
OBJECT__95
10
0
20
0
30
0
70
128
71
24
72
23
73
25
0
VERTEX
8
OBJECT__95
10
0
20
0
30
0
70
128
71
29
72
28
73
27
0
VERTEX
8
OBJECT__95
10
0
20
0
30
0
70
128
71
17
72
15
73
14
0
VERTEX
8
OBJECT__95
10
0
20
0
30
0
70
128
71
33
72
31
73
30
0
VERTEX
8
OBJECT__95
10
0
20
0
30
0
70
128
71
35
72
32
73
7
0
VERTEX
8
OBJECT__95
10
0
20
0
30
0
70
128
71
20
72
19
73
10
0
VERTEX
8
OBJECT__95
10
0
20
0
30
0
70
128
71
28
72
26
73
25
0
VERTEX
8
OBJECT__95
10
0
20
0
30
0
70
128
71
31
72
5
73
4
0
VERTEX
8
OBJECT__95
10
0
20
0
30
0
70
128
71
9
72
34
73
7
0
VERTEX
8
OBJECT__95
10
0
20
0
30
0
70
128
71
3
72
29
73
13
0
VERTEX
8
OBJECT__95
10
0
20
0
30
0
70
128
71
22
72
11
73
23
0
VERTEX
8
OBJECT__95
10
0
20
0
30
0
70
128
71
35
72
33
73
32
0
SEQEND
8
OBJECT__95
0
POLYLINE
8
OBJECT__97
66
1
70
64
71
30
72
30
62
253
0
VERTEX
8
OBJECT__97
10
-23.962999
20
200.669006
30
12.841000
70
192
0
VERTEX
8
OBJECT__97
10
-26.231001
20
190.000000
30
12.841000
70
192
0
VERTEX
8
OBJECT__97
10
-25.940001
20
190.000000
30
46.202999
70
192
0
VERTEX
8
OBJECT__97
10
-17.552000
20
209.492996
30
12.841000
70
192
0
VERTEX
8
OBJECT__97
10
-23.697001
20
200.550995
30
46.202999
70
192
0
VERTEX
8
OBJECT__97
10
-8.106000
20
214.947006
30
12.841000
70
192
0
VERTEX
8
OBJECT__97
10
-17.357000
20
209.276993
30
46.202999
70
192
0
VERTEX
8
OBJECT__97
10
-8.016000
20
214.669998
30
46.202999
70
192
0
VERTEX
8
OBJECT__97
10
2.711000
20
215.798004
30
46.202999
70
192
0
VERTEX
8
OBJECT__97
10
2.742000
20
216.087006
30
12.841000
70
192
0
VERTEX
8
OBJECT__97
10
12.970000
20
212.464996
30
46.202999
70
192
0
VERTEX
8
OBJECT__97
10
21.221001
20
205.417999
30
12.841000
70
192
0
VERTEX
8
OBJECT__97
10
13.115000
20
212.716995
30
12.841000
70
192
0
VERTEX
8
OBJECT__97
10
25.658001
20
195.453995
30
12.841000
70
192
0
VERTEX
8
OBJECT__97
10
20.986000
20
205.246994
30
46.202999
70
192
0
VERTEX
8
OBJECT__97
10
25.658001
20
184.546005
30
12.841000
70
192
0
VERTEX
8
OBJECT__97
10
25.372999
20
195.393005
30
46.202999
70
192
0
VERTEX
8
OBJECT__97
10
21.221001
20
174.582001
30
12.841000
70
192
0
VERTEX
8
OBJECT__97
10
25.372999
20
184.606995
30
46.202999
70
192
0
VERTEX
8
OBJECT__97
10
20.986000
20
174.753006
30
46.202999
70
192
0
VERTEX
8
OBJECT__97
10
12.970000
20
167.535004
30
46.202999
70
192
0
VERTEX
8
OBJECT__97
10
13.115000
20
167.283005
30
12.841000
70
192
0
VERTEX
8
OBJECT__97
10
2.711000
20
164.201996
30
46.202999
70
192
0
VERTEX
8
OBJECT__97
10
-8.106000
20
165.052994
30
12.841000
70
192
0
VERTEX
8
OBJECT__97
10
2.742000
20
163.912994
30
12.841000
70
192
0
VERTEX
8
OBJECT__97
10
-8.016000
20
165.330002
30
46.202999
70
192
0
VERTEX
8
OBJECT__97
10
-17.357000
20
170.723007
30
46.202999
70
192
0
VERTEX
8
OBJECT__97
10
-23.962999
20
179.330994
30
12.841000
70
192
0
VERTEX
8
OBJECT__97
10
-17.552000
20
170.507004
30
12.841000
70
192
0
VERTEX
8
OBJECT__97
10
-23.697001
20
179.449005
30
46.202999
70
192
0
VERTEX
8
OBJECT__97
10
0
20
0
30
0
70
128
71
1
72
2
73
3
0
VERTEX
8
OBJECT__97
10
0
20
0
30
0
70
128
71
4
72
1
73
5
0
VERTEX
8
OBJECT__97
10
0
20
0
30
0
70
128
71
6
72
4
73
7
0
VERTEX
8
OBJECT__97
10
0
20
0
30
0
70
128
71
6
72
8
73
9
0
VERTEX
8
OBJECT__97
10
0
20
0
30
0
70
128
71
10
72
9
73
11
0
VERTEX
8
OBJECT__97
10
0
20
0
30
0
70
128
71
12
72
13
73
11
0
VERTEX
8
OBJECT__97
10
0
20
0
30
0
70
128
71
14
72
12
73
15
0
VERTEX
8
OBJECT__97
10
0
20
0
30
0
70
128
71
16
72
14
73
17
0
VERTEX
8
OBJECT__97
10
0
20
0
30
0
70
128
71
18
72
16
73
19
0
VERTEX
8
OBJECT__97
10
0
20
0
30
0
70
128
71
18
72
20
73
21
0
VERTEX
8
OBJECT__97
10
0
20
0
30
0
70
128
71
22
72
21
73
23
0
VERTEX
8
OBJECT__97
10
0
20
0
30
0
70
128
71
24
72
25
73
23
0
VERTEX
8
OBJECT__97
10
0
20
0
30
0
70
128
71
24
72
26
73
27
0
VERTEX
8
OBJECT__97
10
0
20
0
30
0
70
128
71
28
72
29
73
27
0
VERTEX
8
OBJECT__97
10
0
20
0
30
0
70
128
71
2
72
28
73
30
0
VERTEX
8
OBJECT__97
10
0
20
0
30
0
70
128
71
30
72
3
73
2
0
VERTEX
8
OBJECT__97
10
0
20
0
30
0
70
128
71
27
72
30
73
28
0
VERTEX
8
OBJECT__97
10
0
20
0
30
0
70
128
71
27
72
29
73
24
0
VERTEX
8
OBJECT__97
10
0
20
0
30
0
70
128
71
23
72
26
73
24
0
VERTEX
8
OBJECT__97
10
0
20
0
30
0
70
128
71
23
72
25
73
22
0
VERTEX
8
OBJECT__97
10
0
20
0
30
0
70
128
71
21
72
22
73
18
0
VERTEX
8
OBJECT__97
10
0
20
0
30
0
70
128
71
19
72
20
73
18
0
VERTEX
8
OBJECT__97
10
0
20
0
30
0
70
128
71
17
72
19
73
16
0
VERTEX
8
OBJECT__97
10
0
20
0
30
0
70
128
71
15
72
17
73
14
0
VERTEX
8
OBJECT__97
10
0
20
0
30
0
70
128
71
11
72
15
73
12
0
VERTEX
8
OBJECT__97
10
0
20
0
30
0
70
128
71
11
72
13
73
10
0
VERTEX
8
OBJECT__97
10
0
20
0
30
0
70
128
71
9
72
10
73
6
0
VERTEX
8
OBJECT__97
10
0
20
0
30
0
70
128
71
7
72
8
73
6
0
VERTEX
8
OBJECT__97
10
0
20
0
30
0
70
128
71
5
72
7
73
4
0
VERTEX
8
OBJECT__97
10
0
20
0
30
0
70
128
71
3
72
5
73
1
0
SEQEND
8
OBJECT__97
0
POLYLINE
8
OBJECT__98
66
1
70
64
71
14
72
12
62
253
0
VERTEX
8
OBJECT__98
10
-13.695000
20
6.595000
30
250.453995
70
192
0
VERTEX
8
OBJECT__98
10
3.382000
20
14.819000
30
250.453995
70
192
0
VERTEX
8
OBJECT__98
10
-3.382000
20
14.819000
30
250.453995
70
192
0
VERTEX
8
OBJECT__98
10
13.695000
20
-6.595000
30
250.453995
70
192
0
VERTEX
8
OBJECT__98
10
-3.382000
20
-14.819000
30
250.453995
70
192
0
VERTEX
8
OBJECT__98
10
3.382000
20
-14.819000
30
250.453995
70
192
0
VERTEX
8
OBJECT__98
10
9.477000
20
11.884000
30
250.453995
70
192
0
VERTEX
8
OBJECT__98
10
15.200000
20
0.000000
30
250.453995
70
192
0
VERTEX
8
OBJECT__98
10
13.695000
20
6.595000
30
250.453995
70
192
0
VERTEX
8
OBJECT__98
10
9.477000
20
-11.884000
30
250.453995
70
192
0
VERTEX
8
OBJECT__98
10
-13.695000
20
-6.595000
30
250.453995
70
192
0
VERTEX
8
OBJECT__98
10
-9.477000
20
-11.884000
30
250.453995
70
192
0
VERTEX
8
OBJECT__98
10
-9.477000
20
11.884000
30
250.453995
70
192
0
VERTEX
8
OBJECT__98
10
-15.200000
20
0.000000
30
250.453995
70
192
0
VERTEX
8
OBJECT__98
10
0
20
0
30
0
70
128
71
1
72
2
73
3
0
VERTEX
8
OBJECT__98
10
0
20
0
30
0
70
128
71
4
72
5
73
6
0
VERTEX
8
OBJECT__98
10
0
20
0
30
0
70
128
71
1
72
7
73
2
0
VERTEX
8
OBJECT__98
10
0
20
0
30
0
70
128
71
1
72
8
73
9
0
VERTEX
8
OBJECT__98
10
0
20
0
30
0
70
128
71
6
72
10
73
4
0
VERTEX
8
OBJECT__98
10
0
20
0
30
0
70
128
71
8
72
11
73
12
0
VERTEX
8
OBJECT__98
10
0
20
0
30
0
70
128
71
9
72
7
73
1
0
VERTEX
8
OBJECT__98
10
0
20
0
30
0
70
128
71
12
72
5
73
8
0
VERTEX
8
OBJECT__98
10
0
20
0
30
0
70
128
71
3
72
13
73
1
0
VERTEX
8
OBJECT__98
10
0
20
0
30
0
70
128
71
8
72
14
73
11
0
VERTEX
8
OBJECT__98
10
0
20
0
30
0
70
128
71
4
72
8
73
5
0
VERTEX
8
OBJECT__98
10
0
20
0
30
0
70
128
71
1
72
14
73
8
0
SEQEND
8
OBJECT__98
0
POLYLINE
8
OBJECT__100
66
1
70
64
71
17
72
17
62
253
0
VERTEX
8
OBJECT__100
10
15.344000
20
13.594000
30
40.000000
70
192
0
VERTEX
8
OBJECT__100
10
7.269000
20
19.167999
30
40.000000
70
192
0
VERTEX
8
OBJECT__100
10
0.000000
20
0.024000
30
40.000000
70
192
0
VERTEX
8
OBJECT__100
10
0.024000
20
0.000000
30
40.000000
70
192
0
VERTEX
8
OBJECT__100
10
19.903999
20
4.906000
30
40.000000
70
192
0
VERTEX
8
OBJECT__100
10
-11.645000
20
16.871000
30
40.000000
70
192
0
VERTEX
8
OBJECT__100
10
-18.152000
20
9.527000
30
40.000000
70
192
0
VERTEX
8
OBJECT__100
10
-0.024000
20
0.000000
30
40.000000
70
192
0
VERTEX
8
OBJECT__100
10
-11.645000
20
-16.871000
30
40.000000
70
192
0
VERTEX
8
OBJECT__100
10
0.000000
20
-0.024000
30
40.000000
70
192
0
VERTEX
8
OBJECT__100
10
15.344000
20
-13.594000
30
40.000000
70
192
0
VERTEX
8
OBJECT__100
10
-2.471000
20
20.351000
30
40.000000
70
192
0
VERTEX
8
OBJECT__100
10
-20.500000
20
0.000000
30
40.000000
70
192
0
VERTEX
8
OBJECT__100
10
-18.152000
20
-9.527000
30
40.000000
70
192
0
VERTEX
8
OBJECT__100
10
7.269000
20
-19.167999
30
40.000000
70
192
0
VERTEX
8
OBJECT__100
10
19.903999
20
-4.906000
30
40.000000
70
192
0
VERTEX
8
OBJECT__100
10
-2.471000
20
-20.351000
30
40.000000
70
192
0
VERTEX
8
OBJECT__100
10
0
20
0
30
0
70
128
71
1
72
2
73
3
0
VERTEX
8
OBJECT__100
10
0
20
0
30
0
70
128
71
4
72
5
73
1
0
VERTEX
8
OBJECT__100
10
0
20
0
30
0
70
128
71
6
72
7
73
8
0
VERTEX
8
OBJECT__100
10
0
20
0
30
0
70
128
71
9
72
10
73
8
0
VERTEX
8
OBJECT__100
10
0
20
0
30
0
70
128
71
11
72
4
73
10
0
VERTEX
8
OBJECT__100
10
0
20
0
30
0
70
128
71
3
72
4
73
1
0
VERTEX
8
OBJECT__100
10
0
20
0
30
0
70
128
71
3
72
12
73
6
0
VERTEX
8
OBJECT__100
10
0
20
0
30
0
70
128
71
8
72
13
73
14
0
VERTEX
8
OBJECT__100
10
0
20
0
30
0
70
128
71
10
72
15
73
11
0
VERTEX
8
OBJECT__100
10
0
20
0
30
0
70
128
71
4
72
16
73
5
0
VERTEX
8
OBJECT__100
10
0
20
0
30
0
70
128
71
8
72
3
73
6
0
VERTEX
8
OBJECT__100
10
0
20
0
30
0
70
128
71
8
72
14
73
9
0
VERTEX
8
OBJECT__100
10
0
20
0
30
0
70
128
71
10
72
17
73
15
0
VERTEX
8
OBJECT__100
10
0
20
0
30
0
70
128
71
7
72
13
73
8
0
VERTEX
8
OBJECT__100
10
0
20
0
30
0
70
128
71
11
72
16
73
4
0
VERTEX
8
OBJECT__100
10
0
20
0
30
0
70
128
71
9
72
17
73
10
0
VERTEX
8
OBJECT__100
10
0
20
0
30
0
70
128
71
2
72
12
73
3
0
SEQEND
8
OBJECT__100
0
POLYLINE
8
OBJECT__101
66
1
70
64
71
26
72
26
62
253
0
VERTEX
8
OBJECT__101
10
-18.152000
20
9.527000
30
40.000000
70
192
0
VERTEX
8
OBJECT__101
10
-18.152000
20
9.527000
30
15.000000
70
192
0
VERTEX
8
OBJECT__101
10
-20.500000
20
0.000000
30
15.000000
70
192
0
VERTEX
8
OBJECT__101
10
-11.645000
20
16.871000
30
40.000000
70
192
0
VERTEX
8
OBJECT__101
10
-11.645000
20
16.871000
30
15.000000
70
192
0
VERTEX
8
OBJECT__101
10
-2.471000
20
20.351000
30
40.000000
70
192
0
VERTEX
8
OBJECT__101
10
-2.471000
20
20.351000
30
15.000000
70
192
0
VERTEX
8
OBJECT__101
10
7.269000
20
19.167999
30
40.000000
70
192
0
VERTEX
8
OBJECT__101
10
7.269000
20
19.167999
30
15.000000
70
192
0
VERTEX
8
OBJECT__101
10
15.344000
20
13.594000
30
40.000000
70
192
0
VERTEX
8
OBJECT__101
10
15.344000
20
13.594000
30
15.000000
70
192
0
VERTEX
8
OBJECT__101
10
19.903999
20
4.906000
30
40.000000
70
192
0
VERTEX
8
OBJECT__101
10
19.903999
20
4.906000
30
15.000000
70
192
0
VERTEX
8
OBJECT__101
10
19.903999
20
-4.906000
30
40.000000
70
192
0
VERTEX
8
OBJECT__101
10
19.903999
20
-4.906000
30
15.000000
70
192
0
VERTEX
8
OBJECT__101
10
15.344000
20
-13.594000
30
40.000000
70
192
0
VERTEX
8
OBJECT__101
10
15.344000
20
-13.594000
30
15.000000
70
192
0
VERTEX
8
OBJECT__101
10
7.269000
20
-19.167999
30
40.000000
70
192
0
VERTEX
8
OBJECT__101
10
7.269000
20
-19.167999
30
15.000000
70
192
0
VERTEX
8
OBJECT__101
10
-2.471000
20
-20.351000
30
40.000000
70
192
0
VERTEX
8
OBJECT__101
10
-2.471000
20
-20.351000
30
15.000000
70
192
0
VERTEX
8
OBJECT__101
10
-11.645000
20
-16.871000
30
40.000000
70
192
0
VERTEX
8
OBJECT__101
10
-11.645000
20
-16.871000
30
15.000000
70
192
0
VERTEX
8
OBJECT__101
10
-18.152000
20
-9.527000
30
40.000000
70
192
0
VERTEX
8
OBJECT__101
10
-18.152000
20
-9.527000
30
15.000000
70
192
0
VERTEX
8
OBJECT__101
10
-20.500000
20
0.000000
30
40.000000
70
192
0
VERTEX
8
OBJECT__101
10
0
20
0
30
0
70
128
71
1
72
2
73
3
0
VERTEX
8
OBJECT__101
10
0
20
0
30
0
70
128
71
4
72
5
73
2
0
VERTEX
8
OBJECT__101
10
0
20
0
30
0
70
128
71
6
72
7
73
5
0
VERTEX
8
OBJECT__101
10
0
20
0
30
0
70
128
71
8
72
9
73
7
0
VERTEX
8
OBJECT__101
10
0
20
0
30
0
70
128
71
10
72
11
73
9
0
VERTEX
8
OBJECT__101
10
0
20
0
30
0
70
128
71
12
72
13
73
11
0
VERTEX
8
OBJECT__101
10
0
20
0
30
0
70
128
71
14
72
15
73
13
0
VERTEX
8
OBJECT__101
10
0
20
0
30
0
70
128
71
16
72
17
73
15
0
VERTEX
8
OBJECT__101
10
0
20
0
30
0
70
128
71
18
72
19
73
17
0
VERTEX
8
OBJECT__101
10
0
20
0
30
0
70
128
71
20
72
21
73
19
0
VERTEX
8
OBJECT__101
10
0
20
0
30
0
70
128
71
22
72
23
73
21
0
VERTEX
8
OBJECT__101
10
0
20
0
30
0
70
128
71
24
72
25
73
23
0
VERTEX
8
OBJECT__101
10
0
20
0
30
0
70
128
71
26
72
3
73
25
0
VERTEX
8
OBJECT__101
10
0
20
0
30
0
70
128
71
25
72
24
73
26
0
VERTEX
8
OBJECT__101
10
0
20
0
30
0
70
128
71
23
72
22
73
24
0
VERTEX
8
OBJECT__101
10
0
20
0
30
0
70
128
71
21
72
20
73
22
0
VERTEX
8
OBJECT__101
10
0
20
0
30
0
70
128
71
19
72
18
73
20
0
VERTEX
8
OBJECT__101
10
0
20
0
30
0
70
128
71
17
72
16
73
18
0
VERTEX
8
OBJECT__101
10
0
20
0
30
0
70
128
71
15
72
14
73
16
0
VERTEX
8
OBJECT__101
10
0
20
0
30
0
70
128
71
13
72
12
73
14
0
VERTEX
8
OBJECT__101
10
0
20
0
30
0
70
128
71
11
72
10
73
12
0
VERTEX
8
OBJECT__101
10
0
20
0
30
0
70
128
71
9
72
8
73
10
0
VERTEX
8
OBJECT__101
10
0
20
0
30
0
70
128
71
7
72
6
73
8
0
VERTEX
8
OBJECT__101
10
0
20
0
30
0
70
128
71
5
72
4
73
6
0
VERTEX
8
OBJECT__101
10
0
20
0
30
0
70
128
71
2
72
1
73
4
0
VERTEX
8
OBJECT__101
10
0
20
0
30
0
70
128
71
3
72
26
73
1
0
SEQEND
8
OBJECT__101
0
POLYLINE
8
OBJECT__103
66
1
70
64
71
20
72
20
62
253
0
VERTEX
8
OBJECT__103
10
9.708000
20
-7.053000
30
175.453995
70
192
0
VERTEX
8
OBJECT__103
10
9.708000
20
-7.053000
30
45.453999
70
192
0
VERTEX
8
OBJECT__103
10
12.000000
20
0.000000
30
45.453999
70
192
0
VERTEX
8
OBJECT__103
10
3.708000
20
-11.413000
30
175.453995
70
192
0
VERTEX
8
OBJECT__103
10
3.708000
20
-11.413000
30
45.453999
70
192
0
VERTEX
8
OBJECT__103
10
-3.708000
20
-11.413000
30
175.453995
70
192
0
VERTEX
8
OBJECT__103
10
-3.708000
20
-11.413000
30
45.453999
70
192
0
VERTEX
8
OBJECT__103
10
-9.708000
20
-7.053000
30
175.453995
70
192
0
VERTEX
8
OBJECT__103
10
-9.708000
20
-7.053000
30
45.453999
70
192
0
VERTEX
8
OBJECT__103
10
-12.000000
20
0.000000
30
175.453995
70
192
0
VERTEX
8
OBJECT__103
10
-12.000000
20
0.000000
30
45.453999
70
192
0
VERTEX
8
OBJECT__103
10
-9.708000
20
7.053000
30
175.453995
70
192
0
VERTEX
8
OBJECT__103
10
-9.708000
20
7.053000
30
45.453999
70
192
0
VERTEX
8
OBJECT__103
10
-3.708000
20
11.413000
30
175.453995
70
192
0
VERTEX
8
OBJECT__103
10
-3.708000
20
11.413000
30
45.453999
70
192
0
VERTEX
8
OBJECT__103
10
3.708000
20
11.413000
30
175.453995
70
192
0
VERTEX
8
OBJECT__103
10
3.708000
20
11.413000
30
45.453999
70
192
0
VERTEX
8
OBJECT__103
10
9.708000
20
7.053000
30
175.453995
70
192
0
VERTEX
8
OBJECT__103
10
9.708000
20
7.053000
30
45.453999
70
192
0
VERTEX
8
OBJECT__103
10
12.000000
20
0.000000
30
175.453995
70
192
0
VERTEX
8
OBJECT__103
10
0
20
0
30
0
70
128
71
1
72
2
73
3
0
VERTEX
8
OBJECT__103
10
0
20
0
30
0
70
128
71
4
72
5
73
2
0
VERTEX
8
OBJECT__103
10
0
20
0
30
0
70
128
71
6
72
7
73
5
0
VERTEX
8
OBJECT__103
10
0
20
0
30
0
70
128
71
8
72
9
73
7
0
VERTEX
8
OBJECT__103
10
0
20
0
30
0
70
128
71
10
72
11
73
9
0
VERTEX
8
OBJECT__103
10
0
20
0
30
0
70
128
71
12
72
13
73
11
0
VERTEX
8
OBJECT__103
10
0
20
0
30
0
70
128
71
14
72
15
73
13
0
VERTEX
8
OBJECT__103
10
0
20
0
30
0
70
128
71
16
72
17
73
15
0
VERTEX
8
OBJECT__103
10
0
20
0
30
0
70
128
71
18
72
19
73
17
0
VERTEX
8
OBJECT__103
10
0
20
0
30
0
70
128
71
20
72
3
73
19
0
VERTEX
8
OBJECT__103
10
0
20
0
30
0
70
128
71
19
72
18
73
20
0
VERTEX
8
OBJECT__103
10
0
20
0
30
0
70
128
71
17
72
16
73
18
0
VERTEX
8
OBJECT__103
10
0
20
0
30
0
70
128
71
15
72
14
73
16
0
VERTEX
8
OBJECT__103
10
0
20
0
30
0
70
128
71
13
72
12
73
14
0
VERTEX
8
OBJECT__103
10
0
20
0
30
0
70
128
71
11
72
10
73
12
0
VERTEX
8
OBJECT__103
10
0
20
0
30
0
70
128
71
9
72
8
73
10
0
VERTEX
8
OBJECT__103
10
0
20
0
30
0
70
128
71
7
72
6
73
8
0
VERTEX
8
OBJECT__103
10
0
20
0
30
0
70
128
71
5
72
4
73
6
0
VERTEX
8
OBJECT__103
10
0
20
0
30
0
70
128
71
2
72
1
73
4
0
VERTEX
8
OBJECT__103
10
0
20
0
30
0
70
128
71
3
72
20
73
1
0
SEQEND
8
OBJECT__103
0
POLYLINE
8
OBJECT__104
66
1
70
64
71
22
72
22
62
253
0
VERTEX
8
OBJECT__104
10
0.000000
20
-16.000000
30
175.453995
70
192
0
VERTEX
8
OBJECT__104
10
-3.708000
20
-11.413000
30
175.453995
70
192
0
VERTEX
8
OBJECT__104
10
3.708000
20
-11.413000
30
175.453995
70
192
0
VERTEX
8
OBJECT__104
10
8.000000
20
-13.856000
30
175.453995
70
192
0
VERTEX
8
OBJECT__104
10
9.708000
20
-7.053000
30
175.453995
70
192
0
VERTEX
8
OBJECT__104
10
-8.000000
20
-13.856000
30
175.453995
70
192
0
VERTEX
8
OBJECT__104
10
-13.856000
20
-8.000000
30
175.453995
70
192
0
VERTEX
8
OBJECT__104
10
-9.708000
20
-7.053000
30
175.453995
70
192
0
VERTEX
8
OBJECT__104
10
-16.000000
20
0.000000
30
175.453995
70
192
0
VERTEX
8
OBJECT__104
10
-12.000000
20
0.000000
30
175.453995
70
192
0
VERTEX
8
OBJECT__104
10
0.000000
20
16.000000
30
175.453995
70
192
0
VERTEX
8
OBJECT__104
10
8.000000
20
13.856000
30
175.453995
70
192
0
VERTEX
8
OBJECT__104
10
3.708000
20
11.413000
30
175.453995
70
192
0
VERTEX
8
OBJECT__104
10
-13.856000
20
8.000000
30
175.453995
70
192
0
VERTEX
8
OBJECT__104
10
-9.708000
20
7.053000
30
175.453995
70
192
0
VERTEX
8
OBJECT__104
10
-8.000000
20
13.856000
30
175.453995
70
192
0
VERTEX
8
OBJECT__104
10
-3.708000
20
11.413000
30
175.453995
70
192
0
VERTEX
8
OBJECT__104
10
13.856000
20
8.000000
30
175.453995
70
192
0
VERTEX
8
OBJECT__104
10
16.000000
20
0.000000
30
175.453995
70
192
0
VERTEX
8
OBJECT__104
10
12.000000
20
0.000000
30
175.453995
70
192
0
VERTEX
8
OBJECT__104
10
13.856000
20
-8.000000
30
175.453995
70
192
0
VERTEX
8
OBJECT__104
10
9.708000
20
7.053000
30
175.453995
70
192
0
VERTEX
8
OBJECT__104
10
0
20
0
30
0
70
128
71
1
72
2
73
3
0
VERTEX
8
OBJECT__104
10
0
20
0
30
0
70
128
71
4
72
3
73
5
0
VERTEX
8
OBJECT__104
10
0
20
0
30
0
70
128
71
1
72
6
73
2
0
VERTEX
8
OBJECT__104
10
0
20
0
30
0
70
128
71
3
72
4
73
1
0
VERTEX
8
OBJECT__104
10
0
20
0
30
0
70
128
71
6
72
7
73
8
0
VERTEX
8
OBJECT__104
10
0
20
0
30
0
70
128
71
8
72
2
73
6
0
VERTEX
8
OBJECT__104
10
0
20
0
30
0
70
128
71
7
72
9
73
10
0
VERTEX
8
OBJECT__104
10
0
20
0
30
0
70
128
71
11
72
12
73
13
0
VERTEX
8
OBJECT__104
10
0
20
0
30
0
70
128
71
10
72
8
73
7
0
VERTEX
8
OBJECT__104
10
0
20
0
30
0
70
128
71
14
72
15
73
10
0
VERTEX
8
OBJECT__104
10
0
20
0
30
0
70
128
71
16
72
17
73
15
0
VERTEX
8
OBJECT__104
10
0
20
0
30
0
70
128
71
13
72
17
73
11
0
VERTEX
8
OBJECT__104
10
0
20
0
30
0
70
128
71
18
72
19
73
20
0
VERTEX
8
OBJECT__104
10
0
20
0
30
0
70
128
71
21
72
5
73
20
0
VERTEX
8
OBJECT__104
10
0
20
0
30
0
70
128
71
10
72
9
73
14
0
VERTEX
8
OBJECT__104
10
0
20
0
30
0
70
128
71
17
72
16
73
11
0
VERTEX
8
OBJECT__104
10
0
20
0
30
0
70
128
71
20
72
19
73
21
0
VERTEX
8
OBJECT__104
10
0
20
0
30
0
70
128
71
15
72
14
73
16
0
VERTEX
8
OBJECT__104
10
0
20
0
30
0
70
128
71
12
72
18
73
22
0
VERTEX
8
OBJECT__104
10
0
20
0
30
0
70
128
71
5
72
21
73
4
0
VERTEX
8
OBJECT__104
10
0
20
0
30
0
70
128
71
20
72
22
73
18
0
VERTEX
8
OBJECT__104
10
0
20
0
30
0
70
128
71
22
72
13
73
12
0
SEQEND
8
OBJECT__104
0
POLYLINE
8
OBJECT__106
66
1
70
64
71
24
72
24
62
253
0
VERTEX
8
OBJECT__106
10
13.856000
20
-8.000000
30
250.453995
70
192
0
VERTEX
8
OBJECT__106
10
13.856000
20
-8.000000
30
175.453995
70
192
0
VERTEX
8
OBJECT__106
10
16.000000
20
0.000000
30
175.453995
70
192
0
VERTEX
8
OBJECT__106
10
8.000000
20
-13.856000
30
250.453995
70
192
0
VERTEX
8
OBJECT__106
10
8.000000
20
-13.856000
30
175.453995
70
192
0
VERTEX
8
OBJECT__106
10
0.000000
20
-16.000000
30
250.453995
70
192
0
VERTEX
8
OBJECT__106
10
0.000000
20
-16.000000
30
175.453995
70
192
0
VERTEX
8
OBJECT__106
10
-8.000000
20
-13.856000
30
250.453995
70
192
0
VERTEX
8
OBJECT__106
10
-8.000000
20
-13.856000
30
175.453995
70
192
0
VERTEX
8
OBJECT__106
10
-13.856000
20
-8.000000
30
250.453995
70
192
0
VERTEX
8
OBJECT__106
10
-13.856000
20
-8.000000
30
175.453995
70
192
0
VERTEX
8
OBJECT__106
10
-16.000000
20
0.000000
30
250.453995
70
192
0
VERTEX
8
OBJECT__106
10
-16.000000
20
0.000000
30
175.453995
70
192
0
VERTEX
8
OBJECT__106
10
-13.856000
20
8.000000
30
250.453995
70
192
0
VERTEX
8
OBJECT__106
10
-13.856000
20
8.000000
30
175.453995
70
192
0
VERTEX
8
OBJECT__106
10
-8.000000
20
13.856000
30
250.453995
70
192
0
VERTEX
8
OBJECT__106
10
-8.000000
20
13.856000
30
175.453995
70
192
0
VERTEX
8
OBJECT__106
10
0.000000
20
16.000000
30
250.453995
70
192
0
VERTEX
8
OBJECT__106
10
0.000000
20
16.000000
30
175.453995
70
192
0
VERTEX
8
OBJECT__106
10
8.000000
20
13.856000
30
250.453995
70
192
0
VERTEX
8
OBJECT__106
10
8.000000
20
13.856000
30
175.453995
70
192
0
VERTEX
8
OBJECT__106
10
13.856000
20
8.000000
30
250.453995
70
192
0
VERTEX
8
OBJECT__106
10
13.856000
20
8.000000
30
175.453995
70
192
0
VERTEX
8
OBJECT__106
10
16.000000
20
0.000000
30
250.453995
70
192
0
VERTEX
8
OBJECT__106
10
0
20
0
30
0
70
128
71
1
72
2
73
3
0
VERTEX
8
OBJECT__106
10
0
20
0
30
0
70
128
71
4
72
5
73
2
0
VERTEX
8
OBJECT__106
10
0
20
0
30
0
70
128
71
6
72
7
73
5
0
VERTEX
8
OBJECT__106
10
0
20
0
30
0
70
128
71
8
72
9
73
7
0
VERTEX
8
OBJECT__106
10
0
20
0
30
0
70
128
71
10
72
11
73
9
0
VERTEX
8
OBJECT__106
10
0
20
0
30
0
70
128
71
12
72
13
73
11
0
VERTEX
8
OBJECT__106
10
0
20
0
30
0
70
128
71
14
72
15
73
13
0
VERTEX
8
OBJECT__106
10
0
20
0
30
0
70
128
71
16
72
17
73
15
0
VERTEX
8
OBJECT__106
10
0
20
0
30
0
70
128
71
18
72
19
73
17
0
VERTEX
8
OBJECT__106
10
0
20
0
30
0
70
128
71
20
72
21
73
19
0
VERTEX
8
OBJECT__106
10
0
20
0
30
0
70
128
71
22
72
23
73
21
0
VERTEX
8
OBJECT__106
10
0
20
0
30
0
70
128
71
24
72
3
73
23
0
VERTEX
8
OBJECT__106
10
0
20
0
30
0
70
128
71
23
72
22
73
24
0
VERTEX
8
OBJECT__106
10
0
20
0
30
0
70
128
71
21
72
20
73
22
0
VERTEX
8
OBJECT__106
10
0
20
0
30
0
70
128
71
19
72
18
73
20
0
VERTEX
8
OBJECT__106
10
0
20
0
30
0
70
128
71
17
72
16
73
18
0
VERTEX
8
OBJECT__106
10
0
20
0
30
0
70
128
71
15
72
14
73
16
0
VERTEX
8
OBJECT__106
10
0
20
0
30
0
70
128
71
13
72
12
73
14
0
VERTEX
8
OBJECT__106
10
0
20
0
30
0
70
128
71
11
72
10
73
12
0
VERTEX
8
OBJECT__106
10
0
20
0
30
0
70
128
71
9
72
8
73
10
0
VERTEX
8
OBJECT__106
10
0
20
0
30
0
70
128
71
7
72
6
73
8
0
VERTEX
8
OBJECT__106
10
0
20
0
30
0
70
128
71
5
72
4
73
6
0
VERTEX
8
OBJECT__106
10
0
20
0
30
0
70
128
71
2
72
1
73
4
0
VERTEX
8
OBJECT__106
10
0
20
0
30
0
70
128
71
3
72
24
73
1
0
SEQEND
8
OBJECT__106
0
POLYLINE
8
OBJECT__107
66
1
70
64
71
12
72
10
62
253
0
VERTEX
8
OBJECT__107
10
-8.000000
20
-13.856000
30
250.453995
70
192
0
VERTEX
8
OBJECT__107
10
-13.856000
20
8.000000
30
250.453995
70
192
0
VERTEX
8
OBJECT__107
10
-16.000000
20
0.000000
30
250.453995
70
192
0
VERTEX
8
OBJECT__107
10
8.000000
20
13.856000
30
250.453995
70
192
0
VERTEX
8
OBJECT__107
10
0.000000
20
-16.000000
30
250.453995
70
192
0
VERTEX
8
OBJECT__107
10
-8.000000
20
13.856000
30
250.453995
70
192
0
VERTEX
8
OBJECT__107
10
0.000000
20
16.000000
30
250.453995
70
192
0
VERTEX
8
OBJECT__107
10
13.856000
20
-8.000000
30
250.453995
70
192
0
VERTEX
8
OBJECT__107
10
16.000000
20
0.000000
30
250.453995
70
192
0
VERTEX
8
OBJECT__107
10
8.000000
20
-13.856000
30
250.453995
70
192
0
VERTEX
8
OBJECT__107
10
13.856000
20
8.000000
30
250.453995
70
192
0
VERTEX
8
OBJECT__107
10
-13.856000
20
-8.000000
30
250.453995
70
192
0
VERTEX
8
OBJECT__107
10
0
20
0
30
0
70
128
71
1
72
2
73
3
0
VERTEX
8
OBJECT__107
10
0
20
0
30
0
70
128
71
4
72
1
73
5
0
VERTEX
8
OBJECT__107
10
0
20
0
30
0
70
128
71
1
72
6
73
2
0
VERTEX
8
OBJECT__107
10
0
20
0
30
0
70
128
71
1
72
4
73
7
0
VERTEX
8
OBJECT__107
10
0
20
0
30
0
70
128
71
4
72
8
73
9
0
VERTEX
8
OBJECT__107
10
0
20
0
30
0
70
128
71
5
72
10
73
4
0
VERTEX
8
OBJECT__107
10
0
20
0
30
0
70
128
71
7
72
6
73
1
0
VERTEX
8
OBJECT__107
10
0
20
0
30
0
70
128
71
10
72
8
73
4
0
VERTEX
8
OBJECT__107
10
0
20
0
30
0
70
128
71
9
72
11
73
4
0
VERTEX
8
OBJECT__107
10
0
20
0
30
0
70
128
71
3
72
12
73
1
0
SEQEND
8
OBJECT__107
0
POLYLINE
8
OBJECT__108
66
1
70
64
71
10
72
8
62
253
0
VERTEX
8
OBJECT__108
10
-3.554000
20
10.937000
30
44.453999
70
192
0
VERTEX
8
OBJECT__108
10
-11.500000
20
0.000000
30
44.453999
70
192
0
VERTEX
8
OBJECT__108
10
-9.304000
20
-6.760000
30
44.453999
70
192
0
VERTEX
8
OBJECT__108
10
-9.304000
20
6.760000
30
44.453999
70
192
0
VERTEX
8
OBJECT__108
10
-3.554000
20
-10.937000
30
44.453999
70
192
0
VERTEX
8
OBJECT__108
10
11.500000
20
0.000000
30
44.453999
70
192
0
VERTEX
8
OBJECT__108
10
9.304000
20
6.760000
30
44.453999
70
192
0
VERTEX
8
OBJECT__108
10
3.554000
20
-10.937000
30
44.453999
70
192
0
VERTEX
8
OBJECT__108
10
3.554000
20
10.937000
30
44.453999
70
192
0
VERTEX
8
OBJECT__108
10
9.304000
20
-6.760000
30
44.453999
70
192
0
VERTEX
8
OBJECT__108
10
0
20
0
30
0
70
128
71
1
72
2
73
3
0
VERTEX
8
OBJECT__108
10
0
20
0
30
0
70
128
71
1
72
4
73
2
0
VERTEX
8
OBJECT__108
10
0
20
0
30
0
70
128
71
5
72
6
73
7
0
VERTEX
8
OBJECT__108
10
0
20
0
30
0
70
128
71
6
72
5
73
8
0
VERTEX
8
OBJECT__108
10
0
20
0
30
0
70
128
71
5
72
9
73
1
0
VERTEX
8
OBJECT__108
10
0
20
0
30
0
70
128
71
8
72
10
73
6
0
VERTEX
8
OBJECT__108
10
0
20
0
30
0
70
128
71
7
72
9
73
5
0
VERTEX
8
OBJECT__108
10
0
20
0
30
0
70
128
71
3
72
5
73
1
0
SEQEND
8
OBJECT__108
0
POLYLINE
8
OBJECT__109
66
1
70
64
71
20
72
20
62
253
0
VERTEX
8
OBJECT__109
10
-9.304000
20
-6.760000
30
41.254002
70
192
0
VERTEX
8
OBJECT__109
10
-9.304000
20
-6.760000
30
44.453999
70
192
0
VERTEX
8
OBJECT__109
10
-11.500000
20
0.000000
30
44.453999
70
192
0
VERTEX
8
OBJECT__109
10
-3.554000
20
-10.937000
30
41.254002
70
192
0
VERTEX
8
OBJECT__109
10
-3.554000
20
-10.937000
30
44.453999
70
192
0
VERTEX
8
OBJECT__109
10
3.554000
20
-10.937000
30
41.254002
70
192
0
VERTEX
8
OBJECT__109
10
3.554000
20
-10.937000
30
44.453999
70
192
0
VERTEX
8
OBJECT__109
10
9.304000
20
-6.760000
30
41.254002
70
192
0
VERTEX
8
OBJECT__109
10
9.304000
20
-6.760000
30
44.453999
70
192
0
VERTEX
8
OBJECT__109
10
11.500000
20
0.000000
30
44.453999
70
192
0
VERTEX
8
OBJECT__109
10
9.304000
20
6.760000
30
44.453999
70
192
0
VERTEX
8
OBJECT__109
10
11.500000
20
0.000000
30
41.254002
70
192
0
VERTEX
8
OBJECT__109
10
3.554000
20
10.937000
30
44.453999
70
192
0
VERTEX
8
OBJECT__109
10
9.304000
20
6.760000
30
41.254002
70
192
0
VERTEX
8
OBJECT__109
10
-3.554000
20
10.937000
30
41.254002
70
192
0
VERTEX
8
OBJECT__109
10
-3.554000
20
10.937000
30
44.453999
70
192
0
VERTEX
8
OBJECT__109
10
-9.304000
20
6.760000
30
41.254002
70
192
0
VERTEX
8
OBJECT__109
10
-11.500000
20
0.000000
30
41.254002
70
192
0
VERTEX
8
OBJECT__109
10
-9.304000
20
6.760000
30
44.453999
70
192
0
VERTEX
8
OBJECT__109
10
3.554000
20
10.937000
30
41.254002
70
192
0
VERTEX
8
OBJECT__109
10
0
20
0
30
0
70
128
71
1
72
2
73
3
0
VERTEX
8
OBJECT__109
10
0
20
0
30
0
70
128
71
4
72
5
73
2
0
VERTEX
8
OBJECT__109
10
0
20
0
30
0
70
128
71
6
72
7
73
5
0
VERTEX
8
OBJECT__109
10
0
20
0
30
0
70
128
71
6
72
8
73
9
0
VERTEX
8
OBJECT__109
10
0
20
0
30
0
70
128
71
10
72
9
73
8
0
VERTEX
8
OBJECT__109
10
0
20
0
30
0
70
128
71
11
72
10
73
12
0
VERTEX
8
OBJECT__109
10
0
20
0
30
0
70
128
71
13
72
11
73
14
0
VERTEX
8
OBJECT__109
10
0
20
0
30
0
70
128
71
15
72
16
73
13
0
VERTEX
8
OBJECT__109
10
0
20
0
30
0
70
128
71
16
72
15
73
17
0
VERTEX
8
OBJECT__109
10
0
20
0
30
0
70
128
71
18
72
3
73
19
0
VERTEX
8
OBJECT__109
10
0
20
0
30
0
70
128
71
19
72
17
73
18
0
VERTEX
8
OBJECT__109
10
0
20
0
30
0
70
128
71
17
72
19
73
16
0
VERTEX
8
OBJECT__109
10
0
20
0
30
0
70
128
71
13
72
20
73
15
0
VERTEX
8
OBJECT__109
10
0
20
0
30
0
70
128
71
14
72
20
73
13
0
VERTEX
8
OBJECT__109
10
0
20
0
30
0
70
128
71
12
72
14
73
11
0
VERTEX
8
OBJECT__109
10
0
20
0
30
0
70
128
71
8
72
12
73
10
0
VERTEX
8
OBJECT__109
10
0
20
0
30
0
70
128
71
9
72
7
73
6
0
VERTEX
8
OBJECT__109
10
0
20
0
30
0
70
128
71
5
72
4
73
6
0
VERTEX
8
OBJECT__109
10
0
20
0
30
0
70
128
71
2
72
1
73
4
0
VERTEX
8
OBJECT__109
10
0
20
0
30
0
70
128
71
3
72
18
73
1
0
SEQEND
8
OBJECT__109
0
POLYLINE
8
OBJECT__111
66
1
70
64
71
20
72
20
62
253
0
VERTEX
8
OBJECT__111
10
9.546000
20
-6.936000
30
40.953999
70
192
0
VERTEX
8
OBJECT__111
10
11.800000
20
0.000000
30
40.953999
70
192
0
VERTEX
8
OBJECT__111
10
11.500000
20
0.000000
30
41.254002
70
192
0
VERTEX
8
OBJECT__111
10
9.304000
20
-6.760000
30
41.254002
70
192
0
VERTEX
8
OBJECT__111
10
3.554000
20
-10.937000
30
41.254002
70
192
0
VERTEX
8
OBJECT__111
10
3.646000
20
-11.222000
30
40.953999
70
192
0
VERTEX
8
OBJECT__111
10
-3.554000
20
-10.937000
30
41.254002
70
192
0
VERTEX
8
OBJECT__111
10
-3.646000
20
-11.222000
30
40.953999
70
192
0
VERTEX
8
OBJECT__111
10
-9.304000
20
-6.760000
30
41.254002
70
192
0
VERTEX
8
OBJECT__111
10
-9.546000
20
-6.936000
30
40.953999
70
192
0
VERTEX
8
OBJECT__111
10
-11.500000
20
0.000000
30
41.254002
70
192
0
VERTEX
8
OBJECT__111
10
-9.546000
20
6.936000
30
40.953999
70
192
0
VERTEX
8
OBJECT__111
10
-11.800000
20
0.000000
30
40.953999
70
192
0
VERTEX
8
OBJECT__111
10
-3.646000
20
11.222000
30
40.953999
70
192
0
VERTEX
8
OBJECT__111
10
-9.304000
20
6.760000
30
41.254002
70
192
0
VERTEX
8
OBJECT__111
10
3.646000
20
11.222000
30
40.953999
70
192
0
VERTEX
8
OBJECT__111
10
-3.554000
20
10.937000
30
41.254002
70
192
0
VERTEX
8
OBJECT__111
10
9.546000
20
6.936000
30
40.953999
70
192
0
VERTEX
8
OBJECT__111
10
3.554000
20
10.937000
30
41.254002
70
192
0
VERTEX
8
OBJECT__111
10
9.304000
20
6.760000
30
41.254002
70
192
0
VERTEX
8
OBJECT__111
10
0
20
0
30
0
70
128
71
1
72
2
73
3
0
VERTEX
8
OBJECT__111
10
0
20
0
30
0
70
128
71
1
72
4
73
5
0
VERTEX
8
OBJECT__111
10
0
20
0
30
0
70
128
71
6
72
5
73
7
0
VERTEX
8
OBJECT__111
10
0
20
0
30
0
70
128
71
8
72
7
73
9
0
VERTEX
8
OBJECT__111
10
0
20
0
30
0
70
128
71
10
72
9
73
11
0
VERTEX
8
OBJECT__111
10
0
20
0
30
0
70
128
71
12
72
13
73
11
0
VERTEX
8
OBJECT__111
10
0
20
0
30
0
70
128
71
14
72
12
73
15
0
VERTEX
8
OBJECT__111
10
0
20
0
30
0
70
128
71
16
72
14
73
17
0
VERTEX
8
OBJECT__111
10
0
20
0
30
0
70
128
71
18
72
16
73
19
0
VERTEX
8
OBJECT__111
10
0
20
0
30
0
70
128
71
18
72
20
73
3
0
VERTEX
8
OBJECT__111
10
0
20
0
30
0
70
128
71
3
72
2
73
18
0
VERTEX
8
OBJECT__111
10
0
20
0
30
0
70
128
71
19
72
20
73
18
0
VERTEX
8
OBJECT__111
10
0
20
0
30
0
70
128
71
17
72
19
73
16
0
VERTEX
8
OBJECT__111
10
0
20
0
30
0
70
128
71
15
72
17
73
14
0
VERTEX
8
OBJECT__111
10
0
20
0
30
0
70
128
71
11
72
15
73
12
0
VERTEX
8
OBJECT__111
10
0
20
0
30
0
70
128
71
11
72
13
73
10
0
VERTEX
8
OBJECT__111
10
0
20
0
30
0
70
128
71
9
72
10
73
8
0
VERTEX
8
OBJECT__111
10
0
20
0
30
0
70
128
71
7
72
8
73
6
0
VERTEX
8
OBJECT__111
10
0
20
0
30
0
70
128
71
5
72
6
73
1
0
VERTEX
8
OBJECT__111
10
0
20
0
30
0
70
128
71
3
72
4
73
1
0
SEQEND
8
OBJECT__111
0
POLYLINE
8
OBJECT__112
66
1
70
64
71
20
72
20
62
253
0
VERTEX
8
OBJECT__112
10
-9.546000
20
-6.936000
30
40.953999
70
192
0
VERTEX
8
OBJECT__112
10
-11.800000
20
0.000000
30
40.953999
70
192
0
VERTEX
8
OBJECT__112
10
-10.369000
20
0.000000
30
13.654000
70
192
0
VERTEX
8
OBJECT__112
10
-8.389000
20
-6.095000
30
13.654000
70
192
0
VERTEX
8
OBJECT__112
10
-3.204000
20
-9.862000
30
13.654000
70
192
0
VERTEX
8
OBJECT__112
10
-3.646000
20
-11.222000
30
40.953999
70
192
0
VERTEX
8
OBJECT__112
10
3.204000
20
-9.862000
30
13.654000
70
192
0
VERTEX
8
OBJECT__112
10
9.546000
20
-6.936000
30
40.953999
70
192
0
VERTEX
8
OBJECT__112
10
3.646000
20
-11.222000
30
40.953999
70
192
0
VERTEX
8
OBJECT__112
10
8.389000
20
-6.095000
30
13.654000
70
192
0
VERTEX
8
OBJECT__112
10
10.369000
20
0.000000
30
13.654000
70
192
0
VERTEX
8
OBJECT__112
10
11.800000
20
0.000000
30
40.953999
70
192
0
VERTEX
8
OBJECT__112
10
8.389000
20
6.095000
30
13.654000
70
192
0
VERTEX
8
OBJECT__112
10
9.546000
20
6.936000
30
40.953999
70
192
0
VERTEX
8
OBJECT__112
10
3.204000
20
9.862000
30
13.654000
70
192
0
VERTEX
8
OBJECT__112
10
-3.646000
20
11.222000
30
40.953999
70
192
0
VERTEX
8
OBJECT__112
10
3.646000
20
11.222000
30
40.953999
70
192
0
VERTEX
8
OBJECT__112
10
-3.204000
20
9.862000
30
13.654000
70
192
0
VERTEX
8
OBJECT__112
10
-8.389000
20
6.095000
30
13.654000
70
192
0
VERTEX
8
OBJECT__112
10
-9.546000
20
6.936000
30
40.953999
70
192
0
VERTEX
8
OBJECT__112
10
0
20
0
30
0
70
128
71
1
72
2
73
3
0
VERTEX
8
OBJECT__112
10
0
20
0
30
0
70
128
71
1
72
4
73
5
0
VERTEX
8
OBJECT__112
10
0
20
0
30
0
70
128
71
6
72
5
73
7
0
VERTEX
8
OBJECT__112
10
0
20
0
30
0
70
128
71
8
72
9
73
7
0
VERTEX
8
OBJECT__112
10
0
20
0
30
0
70
128
71
8
72
10
73
11
0
VERTEX
8
OBJECT__112
10
0
20
0
30
0
70
128
71
12
72
11
73
13
0
VERTEX
8
OBJECT__112
10
0
20
0
30
0
70
128
71
14
72
13
73
15
0
VERTEX
8
OBJECT__112
10
0
20
0
30
0
70
128
71
16
72
17
73
15
0
VERTEX
8
OBJECT__112
10
0
20
0
30
0
70
128
71
16
72
18
73
19
0
VERTEX
8
OBJECT__112
10
0
20
0
30
0
70
128
71
2
72
20
73
19
0
VERTEX
8
OBJECT__112
10
0
20
0
30
0
70
128
71
19
72
3
73
2
0
VERTEX
8
OBJECT__112
10
0
20
0
30
0
70
128
71
19
72
20
73
16
0
VERTEX
8
OBJECT__112
10
0
20
0
30
0
70
128
71
15
72
18
73
16
0
VERTEX
8
OBJECT__112
10
0
20
0
30
0
70
128
71
15
72
17
73
14
0
VERTEX
8
OBJECT__112
10
0
20
0
30
0
70
128
71
13
72
14
73
12
0
VERTEX
8
OBJECT__112
10
0
20
0
30
0
70
128
71
11
72
12
73
8
0
VERTEX
8
OBJECT__112
10
0
20
0
30
0
70
128
71
7
72
10
73
8
0
VERTEX
8
OBJECT__112
10
0
20
0
30
0
70
128
71
7
72
9
73
6
0
VERTEX
8
OBJECT__112
10
0
20
0
30
0
70
128
71
5
72
6
73
1
0
VERTEX
8
OBJECT__112
10
0
20
0
30
0
70
128
71
3
72
4
73
1
0
SEQEND
8
OBJECT__112
0
POLYLINE
8
OBJECT__113
66
1
70
64
71
20
72
18
62
253
0
VERTEX
8
OBJECT__113
10
-22.825001
20
-197.416000
30
119.699997
70
192
0
VERTEX
8
OBJECT__113
10
-14.107000
20
-209.416000
30
119.699997
70
192
0
VERTEX
8
OBJECT__113
10
-7.416000
20
-212.824997
30
119.699997
70
192
0
VERTEX
8
OBJECT__113
10
22.825001
20
-182.584000
30
119.699997
70
192
0
VERTEX
8
OBJECT__113
10
-14.107000
20
-170.584000
30
119.699997
70
192
0
VERTEX
8
OBJECT__113
10
-19.416000
20
-175.893005
30
119.699997
70
192
0
VERTEX
8
OBJECT__113
10
0.000000
20
-166.000000
30
119.699997
70
192
0
VERTEX
8
OBJECT__113
10
-7.416000
20
-167.175003
30
119.699997
70
192
0
VERTEX
8
OBJECT__113
10
14.107000
20
-170.584000
30
119.699997
70
192
0
VERTEX
8
OBJECT__113
10
7.416000
20
-167.175003
30
119.699997
70
192
0
VERTEX
8
OBJECT__113
10
-22.825001
20
-182.584000
30
119.699997
70
192
0
VERTEX
8
OBJECT__113
10
14.107000
20
-209.416000
30
119.699997
70
192
0
VERTEX
8
OBJECT__113
10
19.416000
20
-204.106995
30
119.699997
70
192
0
VERTEX
8
OBJECT__113
10
0.000000
20
-214.000000
30
119.699997
70
192
0
VERTEX
8
OBJECT__113
10
7.416000
20
-212.824997
30
119.699997
70
192
0
VERTEX
8
OBJECT__113
10
-19.416000
20
-204.106995
30
119.699997
70
192
0
VERTEX
8
OBJECT__113
10
-24.000000
20
-190.000000
30
119.699997
70
192
0
VERTEX
8
OBJECT__113
10
19.416000
20
-175.893005
30
119.699997
70
192
0
VERTEX
8
OBJECT__113
10
22.825001
20
-197.416000
30
119.699997
70
192
0
VERTEX
8
OBJECT__113
10
24.000000
20
-190.000000
30
119.699997
70
192
0
VERTEX
8
OBJECT__113
10
0
20
0
30
0
70
128
71
1
72
2
73
3
0
VERTEX
8
OBJECT__113
10
0
20
0
30
0
70
128
71
4
72
5
73
6
0
VERTEX
8
OBJECT__113
10
0
20
0
30
0
70
128
71
4
72
7
73
8
0
VERTEX
8
OBJECT__113
10
0
20
0
30
0
70
128
71
4
72
9
73
10
0
VERTEX
8
OBJECT__113
10
0
20
0
30
0
70
128
71
11
72
12
73
13
0
VERTEX
8
OBJECT__113
10
0
20
0
30
0
70
128
71
11
72
14
73
15
0
VERTEX
8
OBJECT__113
10
0
20
0
30
0
70
128
71
1
72
16
73
2
0
VERTEX
8
OBJECT__113
10
0
20
0
30
0
70
128
71
14
72
11
73
17
0
VERTEX
8
OBJECT__113
10
0
20
0
30
0
70
128
71
8
72
5
73
4
0
VERTEX
8
OBJECT__113
10
0
20
0
30
0
70
128
71
4
72
18
73
9
0
VERTEX
8
OBJECT__113
10
0
20
0
30
0
70
128
71
15
72
12
73
11
0
VERTEX
8
OBJECT__113
10
0
20
0
30
0
70
128
71
17
72
1
73
14
0
VERTEX
8
OBJECT__113
10
0
20
0
30
0
70
128
71
10
72
7
73
4
0
VERTEX
8
OBJECT__113
10
0
20
0
30
0
70
128
71
11
72
19
73
20
0
VERTEX
8
OBJECT__113
10
0
20
0
30
0
70
128
71
3
72
14
73
1
0
VERTEX
8
OBJECT__113
10
0
20
0
30
0
70
128
71
20
72
4
73
11
0
VERTEX
8
OBJECT__113
10
0
20
0
30
0
70
128
71
6
72
11
73
4
0
VERTEX
8
OBJECT__113
10
0
20
0
30
0
70
128
71
13
72
19
73
11
0
SEQEND
8
OBJECT__113
0
POLYLINE
8
OBJECT__114
66
1
70
64
71
52
72
52
62
253
0
VERTEX
8
OBJECT__114
10
0.000000
20
-165.500000
30
119.199997
70
192
0
VERTEX
8
OBJECT__114
10
-7.571000
20
-166.699005
30
119.199997
70
192
0
VERTEX
8
OBJECT__114
10
-7.416000
20
-167.175003
30
119.699997
70
192
0
VERTEX
8
OBJECT__114
10
-14.107000
20
-170.584000
30
119.699997
70
192
0
VERTEX
8
OBJECT__114
10
-10.496000
20
-168.190002
30
119.199997
70
192
0
VERTEX
8
OBJECT__114
10
-14.401000
20
-170.179001
30
119.199997
70
192
0
VERTEX
8
OBJECT__114
10
-19.051001
20
-174.828995
30
119.199997
70
192
0
VERTEX
8
OBJECT__114
10
-19.416000
20
-175.893005
30
119.699997
70
192
0
VERTEX
8
OBJECT__114
10
-19.820999
20
-175.598999
30
119.199997
70
192
0
VERTEX
8
OBJECT__114
10
-23.301001
20
-182.429001
30
119.199997
70
192
0
VERTEX
8
OBJECT__114
10
-22.825001
20
-182.584000
30
119.699997
70
192
0
VERTEX
8
OBJECT__114
10
-24.000000
20
-190.000000
30
119.699997
70
192
0
VERTEX
8
OBJECT__114
10
-23.643000
20
-184.587006
30
119.199997
70
192
0
VERTEX
8
OBJECT__114
10
-24.500000
20
-190.000000
30
119.199997
70
192
0
VERTEX
8
OBJECT__114
10
-23.643000
20
-195.412994
30
119.199997
70
192
0
VERTEX
8
OBJECT__114
10
-22.825001
20
-197.416000
30
119.699997
70
192
0
VERTEX
8
OBJECT__114
10
-23.301001
20
-197.570999
30
119.199997
70
192
0
VERTEX
8
OBJECT__114
10
-19.820999
20
-204.401001
30
119.199997
70
192
0
VERTEX
8
OBJECT__114
10
-19.416000
20
-204.106995
30
119.699997
70
192
0
VERTEX
8
OBJECT__114
10
-14.107000
20
-209.416000
30
119.699997
70
192
0
VERTEX
8
OBJECT__114
10
-19.051001
20
-205.171005
30
119.199997
70
192
0
VERTEX
8
OBJECT__114
10
-14.401000
20
-209.820999
30
119.199997
70
192
0
VERTEX
8
OBJECT__114
10
-10.496000
20
-211.809998
30
119.199997
70
192
0
VERTEX
8
OBJECT__114
10
-7.416000
20
-212.824997
30
119.699997
70
192
0
VERTEX
8
OBJECT__114
10
-7.571000
20
-213.300995
30
119.199997
70
192
0
VERTEX
8
OBJECT__114
10
0.000000
20
-214.500000
30
119.199997
70
192
0
VERTEX
8
OBJECT__114
10
0.000000
20
-214.000000
30
119.699997
70
192
0
VERTEX
8
OBJECT__114
10
7.571000
20
-213.300995
30
119.199997
70
192
0
VERTEX
8
OBJECT__114
10
7.416000
20
-212.824997
30
119.699997
70
192
0
VERTEX
8
OBJECT__114
10
14.107000
20
-209.416000
30
119.699997
70
192
0
VERTEX
8
OBJECT__114
10
10.496000
20
-211.809998
30
119.199997
70
192
0
VERTEX
8
OBJECT__114
10
14.401000
20
-209.820999
30
119.199997
70
192
0
VERTEX
8
OBJECT__114
10
19.051001
20
-205.171005
30
119.199997
70
192
0
VERTEX
8
OBJECT__114
10
19.416000
20
-204.106995
30
119.699997
70
192
0
VERTEX
8
OBJECT__114
10
19.820999
20
-204.401001
30
119.199997
70
192
0
VERTEX
8
OBJECT__114
10
23.301001
20
-197.570999
30
119.199997
70
192
0
VERTEX
8
OBJECT__114
10
22.825001
20
-197.416000
30
119.699997
70
192
0
VERTEX
8
OBJECT__114
10
24.000000
20
-190.000000
30
119.699997
70
192
0
VERTEX
8
OBJECT__114
10
23.643000
20
-195.412994
30
119.199997
70
192
0
VERTEX
8
OBJECT__114
10
24.500000
20
-190.000000
30
119.199997
70
192
0
VERTEX
8
OBJECT__114
10
23.643000
20
-184.587006
30
119.199997
70
192
0
VERTEX
8
OBJECT__114
10
22.825001
20
-182.584000
30
119.699997
70
192
0
VERTEX
8
OBJECT__114
10
19.820999
20
-175.598999
30
119.199997
70
192
0
VERTEX
8
OBJECT__114
10
19.416000
20
-175.893005
30
119.699997
70
192
0
VERTEX
8
OBJECT__114
10
14.107000
20
-170.584000
30
119.699997
70
192
0
VERTEX
8
OBJECT__114
10
19.051001
20
-174.828995
30
119.199997
70
192
0
VERTEX
8
OBJECT__114
10
14.401000
20
-170.179001
30
119.199997
70
192
0
VERTEX
8
OBJECT__114
10
10.496000
20
-168.190002
30
119.199997
70
192
0
VERTEX
8
OBJECT__114
10
7.416000
20
-167.175003
30
119.699997
70
192
0
VERTEX
8
OBJECT__114
10
7.571000
20
-166.699005
30
119.199997
70
192
0
VERTEX
8
OBJECT__114
10
0.000000
20
-166.000000
30
119.699997
70
192
0
VERTEX
8
OBJECT__114
10
23.301001
20
-182.429001
30
119.199997
70
192
0
VERTEX
8
OBJECT__114
10
0
20
0
30
0
70
128
71
1
72
2
73
3
0
VERTEX
8
OBJECT__114
10
0
20
0
30
0
70
128
71
4
72
3
73
5
0
VERTEX
8
OBJECT__114
10
0
20
0
30
0
70
128
71
3
72
2
73
5
0
VERTEX
8
OBJECT__114
10
0
20
0
30
0
70
128
71
4
72
6
73
7
0
VERTEX
8
OBJECT__114
10
0
20
0
30
0
70
128
71
7
72
8
73
4
0
VERTEX
8
OBJECT__114
10
0
20
0
30
0
70
128
71
9
72
10
73
11
0
VERTEX
8
OBJECT__114
10
0
20
0
30
0
70
128
71
12
72
11
73
13
0
VERTEX
8
OBJECT__114
10
0
20
0
30
0
70
128
71
11
72
10
73
13
0
VERTEX
8
OBJECT__114
10
0
20
0
30
0
70
128
71
12
72
14
73
15
0
VERTEX
8
OBJECT__114
10
0
20
0
30
0
70
128
71
15
72
16
73
12
0
VERTEX
8
OBJECT__114
10
0
20
0
30
0
70
128
71
17
72
18
73
19
0
VERTEX
8
OBJECT__114
10
0
20
0
30
0
70
128
71
20
72
19
73
21
0
VERTEX
8
OBJECT__114
10
0
20
0
30
0
70
128
71
19
72
18
73
21
0
VERTEX
8
OBJECT__114
10
0
20
0
30
0
70
128
71
20
72
22
73
23
0
VERTEX
8
OBJECT__114
10
0
20
0
30
0
70
128
71
23
72
24
73
20
0
VERTEX
8
OBJECT__114
10
0
20
0
30
0
70
128
71
25
72
26
73
27
0
VERTEX
8
OBJECT__114
10
0
20
0
30
0
70
128
71
28
72
29
73
27
0
VERTEX
8
OBJECT__114
10
0
20
0
30
0
70
128
71
30
72
29
73
31
0
VERTEX
8
OBJECT__114
10
0
20
0
30
0
70
128
71
29
72
28
73
31
0
VERTEX
8
OBJECT__114
10
0
20
0
30
0
70
128
71
30
72
32
73
33
0
VERTEX
8
OBJECT__114
10
0
20
0
30
0
70
128
71
33
72
34
73
30
0
VERTEX
8
OBJECT__114
10
0
20
0
30
0
70
128
71
35
72
36
73
37
0
VERTEX
8
OBJECT__114
10
0
20
0
30
0
70
128
71
38
72
37
73
39
0
VERTEX
8
OBJECT__114
10
0
20
0
30
0
70
128
71
37
72
36
73
39
0
VERTEX
8
OBJECT__114
10
0
20
0
30
0
70
128
71
38
72
40
73
41
0
VERTEX
8
OBJECT__114
10
0
20
0
30
0
70
128
71
41
72
42
73
38
0
VERTEX
8
OBJECT__114
10
0
20
0
30
0
70
128
71
43
72
44
73
42
0
VERTEX
8
OBJECT__114
10
0
20
0
30
0
70
128
71
45
72
44
73
46
0
VERTEX
8
OBJECT__114
10
0
20
0
30
0
70
128
71
44
72
43
73
46
0
VERTEX
8
OBJECT__114
10
0
20
0
30
0
70
128
71
45
72
47
73
48
0
VERTEX
8
OBJECT__114
10
0
20
0
30
0
70
128
71
48
72
49
73
45
0
VERTEX
8
OBJECT__114
10
0
20
0
30
0
70
128
71
50
72
1
73
51
0
VERTEX
8
OBJECT__114
10
0
20
0
30
0
70
128
71
51
72
49
73
50
0
VERTEX
8
OBJECT__114
10
0
20
0
30
0
70
128
71
48
72
50
73
49
0
VERTEX
8
OBJECT__114
10
0
20
0
30
0
70
128
71
46
72
47
73
45
0
VERTEX
8
OBJECT__114
10
0
20
0
30
0
70
128
71
42
72
52
73
43
0
VERTEX
8
OBJECT__114
10
0
20
0
30
0
70
128
71
41
72
52
73
42
0
VERTEX
8
OBJECT__114
10
0
20
0
30
0
70
128
71
39
72
40
73
38
0
VERTEX
8
OBJECT__114
10
0
20
0
30
0
70
128
71
37
72
34
73
35
0
VERTEX
8
OBJECT__114
10
0
20
0
30
0
70
128
71
33
72
35
73
34
0
VERTEX
8
OBJECT__114
10
0
20
0
30
0
70
128
71
31
72
32
73
30
0
VERTEX
8
OBJECT__114
10
0
20
0
30
0
70
128
71
27
72
26
73
28
0
VERTEX
8
OBJECT__114
10
0
20
0
30
0
70
128
71
27
72
24
73
25
0
VERTEX
8
OBJECT__114
10
0
20
0
30
0
70
128
71
23
72
25
73
24
0
VERTEX
8
OBJECT__114
10
0
20
0
30
0
70
128
71
21
72
22
73
20
0
VERTEX
8
OBJECT__114
10
0
20
0
30
0
70
128
71
19
72
16
73
17
0
VERTEX
8
OBJECT__114
10
0
20
0
30
0
70
128
71
15
72
17
73
16
0
VERTEX
8
OBJECT__114
10
0
20
0
30
0
70
128
71
13
72
14
73
12
0
VERTEX
8
OBJECT__114
10
0
20
0
30
0
70
128
71
11
72
8
73
9
0
VERTEX
8
OBJECT__114
10
0
20
0
30
0
70
128
71
7
72
9
73
8
0
VERTEX
8
OBJECT__114
10
0
20
0
30
0
70
128
71
5
72
6
73
4
0
VERTEX
8
OBJECT__114
10
0
20
0
30
0
70
128
71
3
72
51
73
1
0
SEQEND
8
OBJECT__114
0
POLYLINE
8
OBJECT__116
66
1
70
64
71
46
72
46
62
253
0
VERTEX
8
OBJECT__116
10
0.000000
20
-165.500000
30
14.700000
70
192
0
VERTEX
8
OBJECT__116
10
-10.630000
20
-167.925995
30
14.700000
70
192
0
VERTEX
8
OBJECT__116
10
-7.571000
20
-166.699005
30
119.199997
70
192
0
VERTEX
8
OBJECT__116
10
-10.496000
20
-168.190002
30
119.199997
70
192
0
VERTEX
8
OBJECT__116
10
-19.155001
20
-174.723999
30
14.700000
70
192
0
VERTEX
8
OBJECT__116
10
-19.051001
20
-174.828995
30
119.199997
70
192
0
VERTEX
8
OBJECT__116
10
-14.401000
20
-170.179001
30
119.199997
70
192
0
VERTEX
8
OBJECT__116
10
-23.886000
20
-184.548004
30
14.700000
70
192
0
VERTEX
8
OBJECT__116
10
-23.301001
20
-182.429001
30
119.199997
70
192
0
VERTEX
8
OBJECT__116
10
-19.820999
20
-175.598999
30
119.199997
70
192
0
VERTEX
8
OBJECT__116
10
-23.643000
20
-184.587006
30
119.199997
70
192
0
VERTEX
8
OBJECT__116
10
-23.886000
20
-195.451996
30
14.700000
70
192
0
VERTEX
8
OBJECT__116
10
-23.643000
20
-195.412994
30
119.199997
70
192
0
VERTEX
8
OBJECT__116
10
-24.500000
20
-190.000000
30
119.199997
70
192
0
VERTEX
8
OBJECT__116
10
-19.155001
20
-205.276001
30
14.700000
70
192
0
VERTEX
8
OBJECT__116
10
-19.820999
20
-204.401001
30
119.199997
70
192
0
VERTEX
8
OBJECT__116
10
-23.301001
20
-197.570999
30
119.199997
70
192
0
VERTEX
8
OBJECT__116
10
-19.051001
20
-205.171005
30
119.199997
70
192
0
VERTEX
8
OBJECT__116
10
-10.630000
20
-212.074005
30
14.700000
70
192
0
VERTEX
8
OBJECT__116
10
-14.401000
20
-209.820999
30
119.199997
70
192
0
VERTEX
8
OBJECT__116
10
-10.496000
20
-211.809998
30
119.199997
70
192
0
VERTEX
8
OBJECT__116
10
0.000000
20
-214.500000
30
14.700000
70
192
0
VERTEX
8
OBJECT__116
10
0.000000
20
-214.500000
30
119.199997
70
192
0
VERTEX
8
OBJECT__116
10
-7.571000
20
-213.300995
30
119.199997
70
192
0
VERTEX
8
OBJECT__116
10
10.630000
20
-212.074005
30
14.700000
70
192
0
VERTEX
8
OBJECT__116
10
7.571000
20
-213.300995
30
119.199997
70
192
0
VERTEX
8
OBJECT__116
10
10.496000
20
-211.809998
30
119.199997
70
192
0
VERTEX
8
OBJECT__116
10
19.155001
20
-205.276001
30
14.700000
70
192
0
VERTEX
8
OBJECT__116
10
19.051001
20
-205.171005
30
119.199997
70
192
0
VERTEX
8
OBJECT__116
10
14.401000
20
-209.820999
30
119.199997
70
192
0
VERTEX
8
OBJECT__116
10
23.886000
20
-195.451996
30
14.700000
70
192
0
VERTEX
8
OBJECT__116
10
23.301001
20
-197.570999
30
119.199997
70
192
0
VERTEX
8
OBJECT__116
10
19.820999
20
-204.401001
30
119.199997
70
192
0
VERTEX
8
OBJECT__116
10
23.643000
20
-195.412994
30
119.199997
70
192
0
VERTEX
8
OBJECT__116
10
23.886000
20
-184.548004
30
14.700000
70
192
0
VERTEX
8
OBJECT__116
10
24.500000
20
-190.000000
30
119.199997
70
192
0
VERTEX
8
OBJECT__116
10
23.643000
20
-184.587006
30
119.199997
70
192
0
VERTEX
8
OBJECT__116
10
19.155001
20
-174.723999
30
14.700000
70
192
0
VERTEX
8
OBJECT__116
10
19.820999
20
-175.598999
30
119.199997
70
192
0
VERTEX
8
OBJECT__116
10
23.301001
20
-182.429001
30
119.199997
70
192
0
VERTEX
8
OBJECT__116
10
19.051001
20
-174.828995
30
119.199997
70
192
0
VERTEX
8
OBJECT__116
10
10.630000
20
-167.925995
30
14.700000
70
192
0
VERTEX
8
OBJECT__116
10
14.401000
20
-170.179001
30
119.199997
70
192
0
VERTEX
8
OBJECT__116
10
10.496000
20
-168.190002
30
119.199997
70
192
0
VERTEX
8
OBJECT__116
10
0.000000
20
-165.500000
30
119.199997
70
192
0
VERTEX
8
OBJECT__116
10
7.571000
20
-166.699005
30
119.199997
70
192
0
VERTEX
8
OBJECT__116
10
0
20
0
30
0
70
128
71
1
72
2
73
3
0
VERTEX
8
OBJECT__116
10
0
20
0
30
0
70
128
71
2
72
4
73
3
0
VERTEX
8
OBJECT__116
10
0
20
0
30
0
70
128
71
5
72
6
73
7
0
VERTEX
8
OBJECT__116
10
0
20
0
30
0
70
128
71
7
72
2
73
5
0
VERTEX
8
OBJECT__116
10
0
20
0
30
0
70
128
71
5
72
8
73
9
0
VERTEX
8
OBJECT__116
10
0
20
0
30
0
70
128
71
9
72
10
73
5
0
VERTEX
8
OBJECT__116
10
0
20
0
30
0
70
128
71
8
72
11
73
9
0
VERTEX
8
OBJECT__116
10
0
20
0
30
0
70
128
71
12
72
13
73
14
0
VERTEX
8
OBJECT__116
10
0
20
0
30
0
70
128
71
14
72
8
73
12
0
VERTEX
8
OBJECT__116
10
0
20
0
30
0
70
128
71
15
72
16
73
17
0
VERTEX
8
OBJECT__116
10
0
20
0
30
0
70
128
71
17
72
12
73
15
0
VERTEX
8
OBJECT__116
10
0
20
0
30
0
70
128
71
15
72
18
73
16
0
VERTEX
8
OBJECT__116
10
0
20
0
30
0
70
128
71
15
72
19
73
20
0
VERTEX
8
OBJECT__116
10
0
20
0
30
0
70
128
71
19
72
21
73
20
0
VERTEX
8
OBJECT__116
10
0
20
0
30
0
70
128
71
22
72
23
73
24
0
VERTEX
8
OBJECT__116
10
0
20
0
30
0
70
128
71
24
72
19
73
22
0
VERTEX
8
OBJECT__116
10
0
20
0
30
0
70
128
71
22
72
25
73
26
0
VERTEX
8
OBJECT__116
10
0
20
0
30
0
70
128
71
25
72
27
73
26
0
VERTEX
8
OBJECT__116
10
0
20
0
30
0
70
128
71
28
72
29
73
30
0
VERTEX
8
OBJECT__116
10
0
20
0
30
0
70
128
71
30
72
25
73
28
0
VERTEX
8
OBJECT__116
10
0
20
0
30
0
70
128
71
28
72
31
73
32
0
VERTEX
8
OBJECT__116
10
0
20
0
30
0
70
128
71
32
72
33
73
28
0
VERTEX
8
OBJECT__116
10
0
20
0
30
0
70
128
71
31
72
34
73
32
0
VERTEX
8
OBJECT__116
10
0
20
0
30
0
70
128
71
31
72
35
73
36
0
VERTEX
8
OBJECT__116
10
0
20
0
30
0
70
128
71
35
72
37
73
36
0
VERTEX
8
OBJECT__116
10
0
20
0
30
0
70
128
71
38
72
39
73
40
0
VERTEX
8
OBJECT__116
10
0
20
0
30
0
70
128
71
40
72
35
73
38
0
VERTEX
8
OBJECT__116
10
0
20
0
30
0
70
128
71
38
72
41
73
39
0
VERTEX
8
OBJECT__116
10
0
20
0
30
0
70
128
71
38
72
42
73
43
0
VERTEX
8
OBJECT__116
10
0
20
0
30
0
70
128
71
42
72
44
73
43
0
VERTEX
8
OBJECT__116
10
0
20
0
30
0
70
128
71
1
72
45
73
46
0
VERTEX
8
OBJECT__116
10
0
20
0
30
0
70
128
71
46
72
42
73
1
0
VERTEX
8
OBJECT__116
10
0
20
0
30
0
70
128
71
46
72
44
73
42
0
VERTEX
8
OBJECT__116
10
0
20
0
30
0
70
128
71
43
72
41
73
38
0
VERTEX
8
OBJECT__116
10
0
20
0
30
0
70
128
71
40
72
37
73
35
0
VERTEX
8
OBJECT__116
10
0
20
0
30
0
70
128
71
36
72
34
73
31
0
VERTEX
8
OBJECT__116
10
0
20
0
30
0
70
128
71
33
72
29
73
28
0
VERTEX
8
OBJECT__116
10
0
20
0
30
0
70
128
71
30
72
27
73
25
0
VERTEX
8
OBJECT__116
10
0
20
0
30
0
70
128
71
26
72
23
73
22
0
VERTEX
8
OBJECT__116
10
0
20
0
30
0
70
128
71
24
72
21
73
19
0
VERTEX
8
OBJECT__116
10
0
20
0
30
0
70
128
71
20
72
18
73
15
0
VERTEX
8
OBJECT__116
10
0
20
0
30
0
70
128
71
17
72
13
73
12
0
VERTEX
8
OBJECT__116
10
0
20
0
30
0
70
128
71
14
72
11
73
8
0
VERTEX
8
OBJECT__116
10
0
20
0
30
0
70
128
71
10
72
6
73
5
0
VERTEX
8
OBJECT__116
10
0
20
0
30
0
70
128
71
7
72
4
73
2
0
VERTEX
8
OBJECT__116
10
0
20
0
30
0
70
128
71
3
72
45
73
1
0
SEQEND
8
OBJECT__116
0
POLYLINE
8
OBJECT__117
66
1
70
64
71
26
72
26
62
253
0
VERTEX
8
OBJECT__117
10
-19.155001
20
-174.723999
30
14.700000
70
192
0
VERTEX
8
OBJECT__117
10
-10.630000
20
-167.925995
30
14.700000
70
192
0
VERTEX
8
OBJECT__117
10
-45.900002
20
-143.699997
30
14.700000
70
192
0
VERTEX
8
OBJECT__117
10
-46.182999
20
-143.817001
30
14.700000
70
192
0
VERTEX
8
OBJECT__117
10
-46.299999
20
-144.100006
30
14.700000
70
192
0
VERTEX
8
OBJECT__117
10
-46.299999
20
-235.899994
30
14.700000
70
192
0
VERTEX
8
OBJECT__117
10
-23.886000
20
-195.451996
30
14.700000
70
192
0
VERTEX
8
OBJECT__117
10
-19.155001
20
-205.276001
30
14.700000
70
192
0
VERTEX
8
OBJECT__117
10
-46.182999
20
-236.182999
30
14.700000
70
192
0
VERTEX
8
OBJECT__117
10
-45.900002
20
-236.300003
30
14.700000
70
192
0
VERTEX
8
OBJECT__117
10
45.900002
20
-236.300003
30
14.700000
70
192
0
VERTEX
8
OBJECT__117
10
10.630000
20
-212.074005
30
14.700000
70
192
0
VERTEX
8
OBJECT__117
10
0.000000
20
-214.500000
30
14.700000
70
192
0
VERTEX
8
OBJECT__117
10
19.155001
20
-205.276001
30
14.700000
70
192
0
VERTEX
8
OBJECT__117
10
19.155001
20
-174.723999
30
14.700000
70
192
0
VERTEX
8
OBJECT__117
10
46.182999
20
-143.817001
30
14.700000
70
192
0
VERTEX
8
OBJECT__117
10
45.900002
20
-143.699997
30
14.700000
70
192
0
VERTEX
8
OBJECT__117
10
0.000000
20
-165.500000
30
14.700000
70
192
0
VERTEX
8
OBJECT__117
10
-23.886000
20
-184.548004
30
14.700000
70
192
0
VERTEX
8
OBJECT__117
10
46.182999
20
-236.182999
30
14.700000
70
192
0
VERTEX
8
OBJECT__117
10
46.299999
20
-144.100006
30
14.700000
70
192
0
VERTEX
8
OBJECT__117
10
-10.630000
20
-212.074005
30
14.700000
70
192
0
VERTEX
8
OBJECT__117
10
46.299999
20
-235.899994
30
14.700000
70
192
0
VERTEX
8
OBJECT__117
10
23.886000
20
-195.451996
30
14.700000
70
192
0
VERTEX
8
OBJECT__117
10
23.886000
20
-184.548004
30
14.700000
70
192
0
VERTEX
8
OBJECT__117
10
10.630000
20
-167.925995
30
14.700000
70
192
0
VERTEX
8
OBJECT__117
10
0
20
0
30
0
70
128
71
1
72
2
73
3
0
VERTEX
8
OBJECT__117
10
0
20
0
30
0
70
128
71
3
72
4
73
1
0
VERTEX
8
OBJECT__117
10
0
20
0
30
0
70
128
71
5
72
6
73
7
0
VERTEX
8
OBJECT__117
10
0
20
0
30
0
70
128
71
8
72
9
73
10
0
VERTEX
8
OBJECT__117
10
0
20
0
30
0
70
128
71
11
72
12
73
13
0
VERTEX
8
OBJECT__117
10
0
20
0
30
0
70
128
71
14
72
12
73
11
0
VERTEX
8
OBJECT__117
10
0
20
0
30
0
70
128
71
15
72
16
73
17
0
VERTEX
8
OBJECT__117
10
0
20
0
30
0
70
128
71
3
72
2
73
18
0
VERTEX
8
OBJECT__117
10
0
20
0
30
0
70
128
71
5
72
19
73
1
0
VERTEX
8
OBJECT__117
10
0
20
0
30
0
70
128
71
6
72
8
73
7
0
VERTEX
8
OBJECT__117
10
0
20
0
30
0
70
128
71
8
72
6
73
9
0
VERTEX
8
OBJECT__117
10
0
20
0
30
0
70
128
71
13
72
10
73
11
0
VERTEX
8
OBJECT__117
10
0
20
0
30
0
70
128
71
11
72
20
73
14
0
VERTEX
8
OBJECT__117
10
0
20
0
30
0
70
128
71
15
72
21
73
16
0
VERTEX
8
OBJECT__117
10
0
20
0
30
0
70
128
71
18
72
17
73
3
0
VERTEX
8
OBJECT__117
10
0
20
0
30
0
70
128
71
7
72
19
73
5
0
VERTEX
8
OBJECT__117
10
0
20
0
30
0
70
128
71
13
72
22
73
10
0
VERTEX
8
OBJECT__117
10
0
20
0
30
0
70
128
71
23
72
24
73
14
0
VERTEX
8
OBJECT__117
10
0
20
0
30
0
70
128
71
23
72
21
73
25
0
VERTEX
8
OBJECT__117
10
0
20
0
30
0
70
128
71
18
72
26
73
17
0
VERTEX
8
OBJECT__117
10
0
20
0
30
0
70
128
71
10
72
22
73
8
0
VERTEX
8
OBJECT__117
10
0
20
0
30
0
70
128
71
25
72
24
73
23
0
VERTEX
8
OBJECT__117
10
0
20
0
30
0
70
128
71
17
72
26
73
15
0
VERTEX
8
OBJECT__117
10
0
20
0
30
0
70
128
71
20
72
23
73
14
0
VERTEX
8
OBJECT__117
10
0
20
0
30
0
70
128
71
4
72
5
73
1
0
VERTEX
8
OBJECT__117
10
0
20
0
30
0
70
128
71
15
72
25
73
21
0
SEQEND
8
OBJECT__117
0
POLYLINE
8
OBJECT__118
66
1
70
64
71
6
72
4
62
253
0
VERTEX
8
OBJECT__118
10
-47.500000
20
-144.100006
30
13.500000
70
192
0
VERTEX
8
OBJECT__118
10
-47.500000
20
-235.899994
30
13.500000
70
192
0
VERTEX
8
OBJECT__118
10
-47.148998
20
-235.899994
30
14.349000
70
192
0
VERTEX
8
OBJECT__118
10
-47.148998
20
-144.100006
30
14.349000
70
192
0
VERTEX
8
OBJECT__118
10
-46.299999
20
-235.899994
30
14.700000
70
192
0
VERTEX
8
OBJECT__118
10
-46.299999
20
-144.100006
30
14.700000
70
192
0
VERTEX
8
OBJECT__118
10
0
20
0
30
0
70
128
71
1
72
2
73
3
0
VERTEX
8
OBJECT__118
10
0
20
0
30
0
70
128
71
4
72
3
73
5
0
VERTEX
8
OBJECT__118
10
0
20
0
30
0
70
128
71
5
72
6
73
4
0
VERTEX
8
OBJECT__118
10
0
20
0
30
0
70
128
71
3
72
4
73
1
0
SEQEND
8
OBJECT__118
0
POLYLINE
8
OBJECT__119
66
1
70
64
71
9
72
8
62
253
0
VERTEX
8
OBJECT__119
10
-47.030998
20
-237.031006
30
13.500000
70
192
0
VERTEX
8
OBJECT__119
10
-46.783001
20
-236.783005
30
14.349000
70
192
0
VERTEX
8
OBJECT__119
10
-47.148998
20
-235.899994
30
14.349000
70
192
0
VERTEX
8
OBJECT__119
10
-45.900002
20
-237.500000
30
13.500000
70
192
0
VERTEX
8
OBJECT__119
10
-45.900002
20
-237.149002
30
14.349000
70
192
0
VERTEX
8
OBJECT__119
10
-46.182999
20
-236.182999
30
14.700000
70
192
0
VERTEX
8
OBJECT__119
10
-45.900002
20
-236.300003
30
14.700000
70
192
0
VERTEX
8
OBJECT__119
10
-46.299999
20
-235.899994
30
14.700000
70
192
0
VERTEX
8
OBJECT__119
10
-47.500000
20
-235.899994
30
13.500000
70
192
0
VERTEX
8
OBJECT__119
10
0
20
0
30
0
70
128
71
1
72
2
73
3
0
VERTEX
8
OBJECT__119
10
0
20
0
30
0
70
128
71
4
72
5
73
2
0
VERTEX
8
OBJECT__119
10
0
20
0
30
0
70
128
71
3
72
2
73
6
0
VERTEX
8
OBJECT__119
10
0
20
0
30
0
70
128
71
2
72
5
73
7
0
VERTEX
8
OBJECT__119
10
0
20
0
30
0
70
128
71
7
72
6
73
2
0
VERTEX
8
OBJECT__119
10
0
20
0
30
0
70
128
71
6
72
8
73
3
0
VERTEX
8
OBJECT__119
10
0
20
0
30
0
70
128
71
2
72
1
73
4
0
VERTEX
8
OBJECT__119
10
0
20
0
30
0
70
128
71
3
72
9
73
1
0
SEQEND
8
OBJECT__119
0
POLYLINE
8
OBJECT__120
66
1
70
64
71
9
72
8
62
253
0
VERTEX
8
OBJECT__120
10
-47.030998
20
-142.968994
30
13.500000
70
192
0
VERTEX
8
OBJECT__120
10
-46.783001
20
-143.216995
30
14.349000
70
192
0
VERTEX
8
OBJECT__120
10
-45.900002
20
-142.850998
30
14.349000
70
192
0
VERTEX
8
OBJECT__120
10
-47.500000
20
-144.100006
30
13.500000
70
192
0
VERTEX
8
OBJECT__120
10
-47.148998
20
-144.100006
30
14.349000
70
192
0
VERTEX
8
OBJECT__120
10
-46.182999
20
-143.817001
30
14.700000
70
192
0
VERTEX
8
OBJECT__120
10
-46.299999
20
-144.100006
30
14.700000
70
192
0
VERTEX
8
OBJECT__120
10
-45.900002
20
-143.699997
30
14.700000
70
192
0
VERTEX
8
OBJECT__120
10
-45.900002
20
-142.500000
30
13.500000
70
192
0
VERTEX
8
OBJECT__120
10
0
20
0
30
0
70
128
71
1
72
2
73
3
0
VERTEX
8
OBJECT__120
10
0
20
0
30
0
70
128
71
4
72
5
73
2
0
VERTEX
8
OBJECT__120
10
0
20
0
30
0
70
128
71
3
72
2
73
6
0
VERTEX
8
OBJECT__120
10
0
20
0
30
0
70
128
71
2
72
5
73
7
0
VERTEX
8
OBJECT__120
10
0
20
0
30
0
70
128
71
7
72
6
73
2
0
VERTEX
8
OBJECT__120
10
0
20
0
30
0
70
128
71
6
72
8
73
3
0
VERTEX
8
OBJECT__120
10
0
20
0
30
0
70
128
71
2
72
1
73
4
0
VERTEX
8
OBJECT__120
10
0
20
0
30
0
70
128
71
3
72
9
73
1
0
SEQEND
8
OBJECT__120
0
POLYLINE
8
OBJECT__121
66
1
70
64
71
4
72
2
62
253
0
VERTEX
8
OBJECT__121
10
-47.500000
20
-144.100006
30
-0.300000
70
192
0
VERTEX
8
OBJECT__121
10
-47.500000
20
-235.899994
30
-0.300000
70
192
0
VERTEX
8
OBJECT__121
10
-47.500000
20
-235.899994
30
13.500000
70
192
0
VERTEX
8
OBJECT__121
10
-47.500000
20
-144.100006
30
13.500000
70
192
0
VERTEX
8
OBJECT__121
10
0
20
0
30
0
70
128
71
1
72
2
73
3
0
VERTEX
8
OBJECT__121
10
0
20
0
30
0
70
128
71
3
72
4
73
1
0
SEQEND
8
OBJECT__121
0
POLYLINE
8
OBJECT__122
66
1
70
64
71
5
72
3
62
253
0
VERTEX
8
OBJECT__122
10
-47.500000
20
-235.899994
30
-0.300000
70
192
0
VERTEX
8
OBJECT__122
10
-45.900002
20
-237.500000
30
-0.300000
70
192
0
VERTEX
8
OBJECT__122
10
-47.030998
20
-237.031006
30
13.500000
70
192
0
VERTEX
8
OBJECT__122
10
-45.900002
20
-237.500000
30
13.500000
70
192
0
VERTEX
8
OBJECT__122
10
-47.500000
20
-235.899994
30
13.500000
70
192
0
VERTEX
8
OBJECT__122
10
0
20
0
30
0
70
128
71
1
72
2
73
3
0
VERTEX
8
OBJECT__122
10
0
20
0
30
0
70
128
71
2
72
4
73
3
0
VERTEX
8
OBJECT__122
10
0
20
0
30
0
70
128
71
3
72
5
73
1
0
SEQEND
8
OBJECT__122
0
POLYLINE
8
OBJECT__123
66
1
70
64
71
6
72
4
62
253
0
VERTEX
8
OBJECT__123
10
45.900002
20
-237.500000
30
13.500000
70
192
0
VERTEX
8
OBJECT__123
10
45.900002
20
-237.149002
30
14.349000
70
192
0
VERTEX
8
OBJECT__123
10
-45.900002
20
-237.149002
30
14.349000
70
192
0
VERTEX
8
OBJECT__123
10
-45.900002
20
-236.300003
30
14.700000
70
192
0
VERTEX
8
OBJECT__123
10
45.900002
20
-236.300003
30
14.700000
70
192
0
VERTEX
8
OBJECT__123
10
-45.900002
20
-237.500000
30
13.500000
70
192
0
VERTEX
8
OBJECT__123
10
0
20
0
30
0
70
128
71
1
72
2
73
3
0
VERTEX
8
OBJECT__123
10
0
20
0
30
0
70
128
71
4
72
3
73
2
0
VERTEX
8
OBJECT__123
10
0
20
0
30
0
70
128
71
2
72
5
73
4
0
VERTEX
8
OBJECT__123
10
0
20
0
30
0
70
128
71
3
72
6
73
1
0
SEQEND
8
OBJECT__123
0
POLYLINE
8
OBJECT__124
66
1
70
64
71
4
72
2
62
253
0
VERTEX
8
OBJECT__124
10
-45.900002
20
-237.500000
30
-0.300000
70
192
0
VERTEX
8
OBJECT__124
10
45.900002
20
-237.500000
30
-0.300000
70
192
0
VERTEX
8
OBJECT__124
10
45.900002
20
-237.500000
30
13.500000
70
192
0
VERTEX
8
OBJECT__124
10
-45.900002
20
-237.500000
30
13.500000
70
192
0
VERTEX
8
OBJECT__124
10
0
20
0
30
0
70
128
71
1
72
2
73
3
0
VERTEX
8
OBJECT__124
10
0
20
0
30
0
70
128
71
3
72
4
73
1
0
SEQEND
8
OBJECT__124
0
POLYLINE
8
OBJECT__125
66
1
70
64
71
9
72
8
62
253
0
VERTEX
8
OBJECT__125
10
47.030998
20
-237.031006
30
13.500000
70
192
0
VERTEX
8
OBJECT__125
10
46.783001
20
-236.783005
30
14.349000
70
192
0
VERTEX
8
OBJECT__125
10
45.900002
20
-237.149002
30
14.349000
70
192
0
VERTEX
8
OBJECT__125
10
47.500000
20
-235.899994
30
13.500000
70
192
0
VERTEX
8
OBJECT__125
10
47.148998
20
-235.899994
30
14.349000
70
192
0
VERTEX
8
OBJECT__125
10
46.182999
20
-236.182999
30
14.700000
70
192
0
VERTEX
8
OBJECT__125
10
46.299999
20
-235.899994
30
14.700000
70
192
0
VERTEX
8
OBJECT__125
10
45.900002
20
-236.300003
30
14.700000
70
192
0
VERTEX
8
OBJECT__125
10
45.900002
20
-237.500000
30
13.500000
70
192
0
VERTEX
8
OBJECT__125
10
0
20
0
30
0
70
128
71
1
72
2
73
3
0
VERTEX
8
OBJECT__125
10
0
20
0
30
0
70
128
71
4
72
5
73
2
0
VERTEX
8
OBJECT__125
10
0
20
0
30
0
70
128
71
3
72
2
73
6
0
VERTEX
8
OBJECT__125
10
0
20
0
30
0
70
128
71
2
72
5
73
7
0
VERTEX
8
OBJECT__125
10
0
20
0
30
0
70
128
71
7
72
6
73
2
0
VERTEX
8
OBJECT__125
10
0
20
0
30
0
70
128
71
6
72
8
73
3
0
VERTEX
8
OBJECT__125
10
0
20
0
30
0
70
128
71
2
72
1
73
4
0
VERTEX
8
OBJECT__125
10
0
20
0
30
0
70
128
71
3
72
9
73
1
0
SEQEND
8
OBJECT__125
0
POLYLINE
8
OBJECT__126
66
1
70
64
71
5
72
3
62
253
0
VERTEX
8
OBJECT__126
10
47.500000
20
-235.899994
30
-0.300000
70
192
0
VERTEX
8
OBJECT__126
10
47.500000
20
-235.899994
30
13.500000
70
192
0
VERTEX
8
OBJECT__126
10
47.030998
20
-237.031006
30
13.500000
70
192
0
VERTEX
8
OBJECT__126
10
45.900002
20
-237.500000
30
-0.300000
70
192
0
VERTEX
8
OBJECT__126
10
45.900002
20
-237.500000
30
13.500000
70
192
0
VERTEX
8
OBJECT__126
10
0
20
0
30
0
70
128
71
1
72
2
73
3
0
VERTEX
8
OBJECT__126
10
0
20
0
30
0
70
128
71
3
72
4
73
1
0
VERTEX
8
OBJECT__126
10
0
20
0
30
0
70
128
71
3
72
5
73
4
0
SEQEND
8
OBJECT__126
0
POLYLINE
8
OBJECT__127
66
1
70
64
71
6
72
4
62
253
0
VERTEX
8
OBJECT__127
10
47.500000
20
-235.899994
30
13.500000
70
192
0
VERTEX
8
OBJECT__127
10
47.500000
20
-144.100006
30
13.500000
70
192
0
VERTEX
8
OBJECT__127
10
47.148998
20
-144.100006
30
14.349000
70
192
0
VERTEX
8
OBJECT__127
10
47.148998
20
-235.899994
30
14.349000
70
192
0
VERTEX
8
OBJECT__127
10
46.299999
20
-144.100006
30
14.700000
70
192
0
VERTEX
8
OBJECT__127
10
46.299999
20
-235.899994
30
14.700000
70
192
0
VERTEX
8
OBJECT__127
10
0
20
0
30
0
70
128
71
1
72
2
73
3
0
VERTEX
8
OBJECT__127
10
0
20
0
30
0
70
128
71
4
72
3
73
5
0
VERTEX
8
OBJECT__127
10
0
20
0
30
0
70
128
71
5
72
6
73
4
0
VERTEX
8
OBJECT__127
10
0
20
0
30
0
70
128
71
3
72
4
73
1
0
SEQEND
8
OBJECT__127
0
POLYLINE
8
OBJECT__128
66
1
70
64
71
4
72
2
62
253
0
VERTEX
8
OBJECT__128
10
47.500000
20
-235.899994
30
-0.300000
70
192
0
VERTEX
8
OBJECT__128
10
47.500000
20
-144.100006
30
-0.300000
70
192
0
VERTEX
8
OBJECT__128
10
47.500000
20
-144.100006
30
13.500000
70
192
0
VERTEX
8
OBJECT__128
10
47.500000
20
-235.899994
30
13.500000
70
192
0
VERTEX
8
OBJECT__128
10
0
20
0
30
0
70
128
71
1
72
2
73
3
0
VERTEX
8
OBJECT__128
10
0
20
0
30
0
70
128
71
3
72
4
73
1
0
SEQEND
8
OBJECT__128
0
POLYLINE
8
OBJECT__129
66
1
70
64
71
9
72
8
62
253
0
VERTEX
8
OBJECT__129
10
47.030998
20
-142.968994
30
13.500000
70
192
0
VERTEX
8
OBJECT__129
10
46.783001
20
-143.216995
30
14.349000
70
192
0
VERTEX
8
OBJECT__129
10
47.148998
20
-144.100006
30
14.349000
70
192
0
VERTEX
8
OBJECT__129
10
45.900002
20
-142.500000
30
13.500000
70
192
0
VERTEX
8
OBJECT__129
10
45.900002
20
-142.850998
30
14.349000
70
192
0
VERTEX
8
OBJECT__129
10
46.182999
20
-143.817001
30
14.700000
70
192
0
VERTEX
8
OBJECT__129
10
45.900002
20
-143.699997
30
14.700000
70
192
0
VERTEX
8
OBJECT__129
10
46.299999
20
-144.100006
30
14.700000
70
192
0
VERTEX
8
OBJECT__129
10
47.500000
20
-144.100006
30
13.500000
70
192
0
VERTEX
8
OBJECT__129
10
0
20
0
30
0
70
128
71
1
72
2
73
3
0
VERTEX
8
OBJECT__129
10
0
20
0
30
0
70
128
71
4
72
5
73
2
0
VERTEX
8
OBJECT__129
10
0
20
0
30
0
70
128
71
3
72
2
73
6
0
VERTEX
8
OBJECT__129
10
0
20
0
30
0
70
128
71
2
72
5
73
7
0
VERTEX
8
OBJECT__129
10
0
20
0
30
0
70
128
71
7
72
6
73
2
0
VERTEX
8
OBJECT__129
10
0
20
0
30
0
70
128
71
6
72
8
73
3
0
VERTEX
8
OBJECT__129
10
0
20
0
30
0
70
128
71
2
72
1
73
4
0
VERTEX
8
OBJECT__129
10
0
20
0
30
0
70
128
71
3
72
9
73
1
0
SEQEND
8
OBJECT__129
0
POLYLINE
8
OBJECT__130
66
1
70
64
71
8
72
6
62
253
0
VERTEX
8
OBJECT__130
10
47.500000
20
-235.899994
30
-0.300000
70
192
0
VERTEX
8
OBJECT__130
10
-47.500000
20
-144.100006
30
-0.300000
70
192
0
VERTEX
8
OBJECT__130
10
-45.900002
20
-142.500000
30
-0.300000
70
192
0
VERTEX
8
OBJECT__130
10
45.900002
20
-237.500000
30
-0.300000
70
192
0
VERTEX
8
OBJECT__130
10
-45.900002
20
-237.500000
30
-0.300000
70
192
0
VERTEX
8
OBJECT__130
10
45.900002
20
-142.500000
30
-0.300000
70
192
0
VERTEX
8
OBJECT__130
10
-47.500000
20
-235.899994
30
-0.300000
70
192
0
VERTEX
8
OBJECT__130
10
47.500000
20
-144.100006
30
-0.300000
70
192
0
VERTEX
8
OBJECT__130
10
0
20
0
30
0
70
128
71
1
72
2
73
3
0
VERTEX
8
OBJECT__130
10
0
20
0
30
0
70
128
71
2
72
4
73
5
0
VERTEX
8
OBJECT__130
10
0
20
0
30
0
70
128
71
3
72
6
73
1
0
VERTEX
8
OBJECT__130
10
0
20
0
30
0
70
128
71
2
72
1
73
4
0
VERTEX
8
OBJECT__130
10
0
20
0
30
0
70
128
71
5
72
7
73
2
0
VERTEX
8
OBJECT__130
10
0
20
0
30
0
70
128
71
6
72
8
73
1
0
SEQEND
8
OBJECT__130
0
POLYLINE
8
OBJECT__131
66
1
70
64
71
4
72
2
62
253
0
VERTEX
8
OBJECT__131
10
45.900002
20
-142.500000
30
13.500000
70
192
0
VERTEX
8
OBJECT__131
10
45.900002
20
-142.500000
30
-0.300000
70
192
0
VERTEX
8
OBJECT__131
10
-45.900002
20
-142.500000
30
-0.300000
70
192
0
VERTEX
8
OBJECT__131
10
-45.900002
20
-142.500000
30
13.500000
70
192
0
VERTEX
8
OBJECT__131
10
0
20
0
30
0
70
128
71
1
72
2
73
3
0
VERTEX
8
OBJECT__131
10
0
20
0
30
0
70
128
71
3
72
4
73
1
0
SEQEND
8
OBJECT__131
0
POLYLINE
8
OBJECT__132
66
1
70
64
71
5
72
3
62
253
0
VERTEX
8
OBJECT__132
10
47.500000
20
-144.100006
30
-0.300000
70
192
0
VERTEX
8
OBJECT__132
10
45.900002
20
-142.500000
30
-0.300000
70
192
0
VERTEX
8
OBJECT__132
10
47.030998
20
-142.968994
30
13.500000
70
192
0
VERTEX
8
OBJECT__132
10
45.900002
20
-142.500000
30
13.500000
70
192
0
VERTEX
8
OBJECT__132
10
47.500000
20
-144.100006
30
13.500000
70
192
0
VERTEX
8
OBJECT__132
10
0
20
0
30
0
70
128
71
1
72
2
73
3
0
VERTEX
8
OBJECT__132
10
0
20
0
30
0
70
128
71
2
72
4
73
3
0
VERTEX
8
OBJECT__132
10
0
20
0
30
0
70
128
71
3
72
5
73
1
0
SEQEND
8
OBJECT__132
0
POLYLINE
8
OBJECT__133
66
1
70
64
71
5
72
3
62
253
0
VERTEX
8
OBJECT__133
10
-47.500000
20
-144.100006
30
-0.300000
70
192
0
VERTEX
8
OBJECT__133
10
-47.500000
20
-144.100006
30
13.500000
70
192
0
VERTEX
8
OBJECT__133
10
-47.030998
20
-142.968994
30
13.500000
70
192
0
VERTEX
8
OBJECT__133
10
-45.900002
20
-142.500000
30
-0.300000
70
192
0
VERTEX
8
OBJECT__133
10
-45.900002
20
-142.500000
30
13.500000
70
192
0
VERTEX
8
OBJECT__133
10
0
20
0
30
0
70
128
71
1
72
2
73
3
0
VERTEX
8
OBJECT__133
10
0
20
0
30
0
70
128
71
3
72
4
73
1
0
VERTEX
8
OBJECT__133
10
0
20
0
30
0
70
128
71
3
72
5
73
4
0
SEQEND
8
OBJECT__133
0
POLYLINE
8
OBJECT__134
66
1
70
64
71
6
72
4
62
253
0
VERTEX
8
OBJECT__134
10
-45.900002
20
-142.500000
30
13.500000
70
192
0
VERTEX
8
OBJECT__134
10
-45.900002
20
-142.850998
30
14.349000
70
192
0
VERTEX
8
OBJECT__134
10
45.900002
20
-142.850998
30
14.349000
70
192
0
VERTEX
8
OBJECT__134
10
45.900002
20
-143.699997
30
14.700000
70
192
0
VERTEX
8
OBJECT__134
10
-45.900002
20
-143.699997
30
14.700000
70
192
0
VERTEX
8
OBJECT__134
10
45.900002
20
-142.500000
30
13.500000
70
192
0
VERTEX
8
OBJECT__134
10
0
20
0
30
0
70
128
71
1
72
2
73
3
0
VERTEX
8
OBJECT__134
10
0
20
0
30
0
70
128
71
4
72
3
73
2
0
VERTEX
8
OBJECT__134
10
0
20
0
30
0
70
128
71
2
72
5
73
4
0
VERTEX
8
OBJECT__134
10
0
20
0
30
0
70
128
71
3
72
6
73
1
0
SEQEND
8
OBJECT__134
0
ENDSEC
0
EOF
