999
Converted by 3D Exploration 
999
XDimension Software, LLC
999
http://www.xdsoft.com/explorer/
0
SECTION
2
HEADER
9
$ACADVER
1
AC1008
9
$UCSORG
10
0.0
20
0.0
30
0.0
9
$UCSXDIR
10
1.0
20
0.0
30
0.0
9
$TILEMODE
70
1
9
$UCSYDIR
10
0.0
20
1.0
30
0.0
9
$EXTMIN
10
-42.000000
20
-26.000000
30
-26.000000
9
$EXTMAX
10
145.309006
20
80.031998
30
225.503006
0
ENDSEC
0
SECTION
2
TABLES
0
TABLE
2
LTYPE
70
1
0
LTYPE
2
CONTINUOUS
70
64
3
Solid line
72
65
73
0
40
0.0
0
ENDTAB
0
TABLE
2
LAYER
70
69
0
LAYER
2
OBJECT__0
70
0
62
253
6
CONTINUOUS
0
LAYER
2
OBJECT__1
70
0
62
253
6
CONTINUOUS
0
LAYER
2
OBJECT__3
70
0
62
253
6
CONTINUOUS
0
LAYER
2
OBJECT__4
70
0
62
253
6
CONTINUOUS
0
LAYER
2
OBJECT__5
70
0
62
253
6
CONTINUOUS
0
LAYER
2
OBJECT__6
70
0
62
253
6
CONTINUOUS
0
LAYER
2
OBJECT__7
70
0
62
253
6
CONTINUOUS
0
LAYER
2
OBJECT__8
70
0
62
253
6
CONTINUOUS
0
LAYER
2
OBJECT__9
70
0
62
253
6
CONTINUOUS
0
LAYER
2
OBJECT__10
70
0
62
253
6
CONTINUOUS
0
LAYER
2
OBJECT__11
70
0
62
253
6
CONTINUOUS
0
LAYER
2
OBJECT__12
70
0
62
253
6
CONTINUOUS
0
LAYER
2
OBJECT__14
70
0
62
253
6
CONTINUOUS
0
LAYER
2
OBJECT__15
70
0
62
253
6
CONTINUOUS
0
LAYER
2
OBJECT__16
70
0
62
253
6
CONTINUOUS
0
LAYER
2
OBJECT__17
70
0
62
253
6
CONTINUOUS
0
LAYER
2
OBJECT__19
70
0
62
253
6
CONTINUOUS
0
LAYER
2
OBJECT__20
70
0
62
253
6
CONTINUOUS
0
LAYER
2
OBJECT__21
70
0
62
253
6
CONTINUOUS
0
LAYER
2
OBJECT__22
70
0
62
253
6
CONTINUOUS
0
LAYER
2
OBJECT__23
70
0
62
253
6
CONTINUOUS
0
LAYER
2
OBJECT__24
70
0
62
253
6
CONTINUOUS
0
LAYER
2
OBJECT__25
70
0
62
253
6
CONTINUOUS
0
LAYER
2
OBJECT__26
70
0
62
253
6
CONTINUOUS
0
LAYER
2
OBJECT__27
70
0
62
253
6
CONTINUOUS
0
LAYER
2
OBJECT__29
70
0
62
253
6
CONTINUOUS
0
LAYER
2
OBJECT__30
70
0
62
253
6
CONTINUOUS
0
LAYER
2
OBJECT__31
70
0
62
253
6
CONTINUOUS
0
LAYER
2
OBJECT__32
70
0
62
253
6
CONTINUOUS
0
LAYER
2
OBJECT__33
70
0
62
253
6
CONTINUOUS
0
LAYER
2
OBJECT__34
70
0
62
253
6
CONTINUOUS
0
LAYER
2
OBJECT__35
70
0
62
253
6
CONTINUOUS
0
LAYER
2
OBJECT__36
70
0
62
253
6
CONTINUOUS
0
LAYER
2
OBJECT__37
70
0
62
253
6
CONTINUOUS
0
LAYER
2
OBJECT__38
70
0
62
253
6
CONTINUOUS
0
LAYER
2
OBJECT__39
70
0
62
253
6
CONTINUOUS
0
LAYER
2
OBJECT__40
70
0
62
253
6
CONTINUOUS
0
LAYER
2
OBJECT__41
70
0
62
253
6
CONTINUOUS
0
LAYER
2
OBJECT__42
70
0
62
253
6
CONTINUOUS
0
LAYER
2
OBJECT__43
70
0
62
253
6
CONTINUOUS
0
LAYER
2
OBJECT__44
70
0
62
253
6
CONTINUOUS
0
LAYER
2
OBJECT__45
70
0
62
253
6
CONTINUOUS
0
LAYER
2
OBJECT__46
70
0
62
253
6
CONTINUOUS
0
LAYER
2
OBJECT__47
70
0
62
253
6
CONTINUOUS
0
LAYER
2
OBJECT__48
70
0
62
253
6
CONTINUOUS
0
LAYER
2
OBJECT__49
70
0
62
253
6
CONTINUOUS
0
LAYER
2
OBJECT__50
70
0
62
253
6
CONTINUOUS
0
LAYER
2
OBJECT__51
70
0
62
253
6
CONTINUOUS
0
LAYER
2
OBJECT__52
70
0
62
253
6
CONTINUOUS
0
LAYER
2
OBJECT__53
70
0
62
253
6
CONTINUOUS
0
LAYER
2
OBJECT__54
70
0
62
253
6
CONTINUOUS
0
LAYER
2
OBJECT__55
70
0
62
253
6
CONTINUOUS
0
LAYER
2
OBJECT__56
70
0
62
253
6
CONTINUOUS
0
LAYER
2
OBJECT__57
70
0
62
253
6
CONTINUOUS
0
LAYER
2
OBJECT__58
70
0
62
253
6
CONTINUOUS
0
LAYER
2
OBJECT__59
70
0
62
253
6
CONTINUOUS
0
LAYER
2
OBJECT__60
70
0
62
253
6
CONTINUOUS
0
LAYER
2
OBJECT__62
70
0
62
253
6
CONTINUOUS
0
LAYER
2
OBJECT__63
70
0
62
253
6
CONTINUOUS
0
LAYER
2
OBJECT__65
70
0
62
253
6
CONTINUOUS
0
LAYER
2
OBJECT__66
70
0
62
253
6
CONTINUOUS
0
LAYER
2
OBJECT__67
70
0
62
253
6
CONTINUOUS
0
LAYER
2
OBJECT__68
70
0
62
253
6
CONTINUOUS
0
ENDTAB
0
TABLE
2
STYLE
70
1
0
STYLE
2
STANDARD
70
0
40
0.0
41
1.0
50
0.0
71
0
42
0.2
3
txt
4
1
0
ENDTAB
0
TABLE
2
UCS
70
0
0
ENDTAB
0
ENDSEC
0
SECTION
2
ENTITIES
0
POLYLINE
8
OBJECT__0
66
1
70
64
71
4
72
2
62
253
0
VERTEX
8
OBJECT__0
10
26.000000
20
24.400000
30
2.500000
70
192
0
VERTEX
8
OBJECT__0
10
26.000000
20
24.400000
30
-5.500000
70
192
0
VERTEX
8
OBJECT__0
10
24.400000
20
26.000000
30
-5.500000
70
192
0
VERTEX
8
OBJECT__0
10
24.400000
20
26.000000
30
2.500000
70
192
0
VERTEX
8
OBJECT__0
10
0
20
0
30
0
70
128
71
1
72
2
73
3
0
VERTEX
8
OBJECT__0
10
0
20
0
30
0
70
128
71
3
72
4
73
1
0
SEQEND
8
OBJECT__0
0
POLYLINE
8
OBJECT__1
66
1
70
64
71
4
72
2
62
253
0
VERTEX
8
OBJECT__1
10
-24.400000
20
26.000000
30
-5.500000
70
192
0
VERTEX
8
OBJECT__1
10
-24.400000
20
26.000000
30
2.500000
70
192
0
VERTEX
8
OBJECT__1
10
24.400000
20
26.000000
30
2.500000
70
192
0
VERTEX
8
OBJECT__1
10
24.400000
20
26.000000
30
-5.500000
70
192
0
VERTEX
8
OBJECT__1
10
0
20
0
30
0
70
128
71
1
72
2
73
3
0
VERTEX
8
OBJECT__1
10
0
20
0
30
0
70
128
71
3
72
4
73
1
0
SEQEND
8
OBJECT__1
0
POLYLINE
8
OBJECT__3
66
1
70
64
71
4
72
2
62
253
0
VERTEX
8
OBJECT__3
10
-24.400000
20
26.000000
30
2.500000
70
192
0
VERTEX
8
OBJECT__3
10
-24.400000
20
26.000000
30
-5.500000
70
192
0
VERTEX
8
OBJECT__3
10
-26.000000
20
24.400000
30
-5.500000
70
192
0
VERTEX
8
OBJECT__3
10
-26.000000
20
24.400000
30
2.500000
70
192
0
VERTEX
8
OBJECT__3
10
0
20
0
30
0
70
128
71
1
72
2
73
3
0
VERTEX
8
OBJECT__3
10
0
20
0
30
0
70
128
71
3
72
4
73
1
0
SEQEND
8
OBJECT__3
0
POLYLINE
8
OBJECT__4
66
1
70
64
71
4
72
2
62
253
0
VERTEX
8
OBJECT__4
10
-26.000000
20
-24.400000
30
-5.500000
70
192
0
VERTEX
8
OBJECT__4
10
-26.000000
20
-24.400000
30
2.500000
70
192
0
VERTEX
8
OBJECT__4
10
-26.000000
20
24.400000
30
2.500000
70
192
0
VERTEX
8
OBJECT__4
10
-26.000000
20
24.400000
30
-5.500000
70
192
0
VERTEX
8
OBJECT__4
10
0
20
0
30
0
70
128
71
1
72
2
73
3
0
VERTEX
8
OBJECT__4
10
0
20
0
30
0
70
128
71
3
72
4
73
1
0
SEQEND
8
OBJECT__4
0
POLYLINE
8
OBJECT__5
66
1
70
64
71
4
72
2
62
253
0
VERTEX
8
OBJECT__5
10
-26.000000
20
-24.400000
30
2.500000
70
192
0
VERTEX
8
OBJECT__5
10
-26.000000
20
-24.400000
30
-5.500000
70
192
0
VERTEX
8
OBJECT__5
10
-24.400000
20
-26.000000
30
-5.500000
70
192
0
VERTEX
8
OBJECT__5
10
-24.400000
20
-26.000000
30
2.500000
70
192
0
VERTEX
8
OBJECT__5
10
0
20
0
30
0
70
128
71
1
72
2
73
3
0
VERTEX
8
OBJECT__5
10
0
20
0
30
0
70
128
71
3
72
4
73
1
0
SEQEND
8
OBJECT__5
0
POLYLINE
8
OBJECT__6
66
1
70
64
71
8
72
6
62
253
0
VERTEX
8
OBJECT__6
10
24.400000
20
26.000000
30
2.500000
70
192
0
VERTEX
8
OBJECT__6
10
-26.000000
20
24.400000
30
2.500000
70
192
0
VERTEX
8
OBJECT__6
10
-26.000000
20
-24.400000
30
2.500000
70
192
0
VERTEX
8
OBJECT__6
10
24.400000
20
-26.000000
30
2.500000
70
192
0
VERTEX
8
OBJECT__6
10
26.000000
20
-24.400000
30
2.500000
70
192
0
VERTEX
8
OBJECT__6
10
-24.400000
20
26.000000
30
2.500000
70
192
0
VERTEX
8
OBJECT__6
10
-24.400000
20
-26.000000
30
2.500000
70
192
0
VERTEX
8
OBJECT__6
10
26.000000
20
24.400000
30
2.500000
70
192
0
VERTEX
8
OBJECT__6
10
0
20
0
30
0
70
128
71
1
72
2
73
3
0
VERTEX
8
OBJECT__6
10
0
20
0
30
0
70
128
71
1
72
4
73
5
0
VERTEX
8
OBJECT__6
10
0
20
0
30
0
70
128
71
1
72
6
73
2
0
VERTEX
8
OBJECT__6
10
0
20
0
30
0
70
128
71
1
72
7
73
4
0
VERTEX
8
OBJECT__6
10
0
20
0
30
0
70
128
71
5
72
8
73
1
0
VERTEX
8
OBJECT__6
10
0
20
0
30
0
70
128
71
3
72
7
73
1
0
SEQEND
8
OBJECT__6
0
POLYLINE
8
OBJECT__7
66
1
70
64
71
8
72
6
62
253
0
VERTEX
8
OBJECT__7
10
-24.400000
20
26.000000
30
-5.500000
70
192
0
VERTEX
8
OBJECT__7
10
-24.400000
20
-26.000000
30
-5.500000
70
192
0
VERTEX
8
OBJECT__7
10
-26.000000
20
-24.400000
30
-5.500000
70
192
0
VERTEX
8
OBJECT__7
10
24.400000
20
-26.000000
30
-5.500000
70
192
0
VERTEX
8
OBJECT__7
10
24.400000
20
26.000000
30
-5.500000
70
192
0
VERTEX
8
OBJECT__7
10
26.000000
20
24.400000
30
-5.500000
70
192
0
VERTEX
8
OBJECT__7
10
26.000000
20
-24.400000
30
-5.500000
70
192
0
VERTEX
8
OBJECT__7
10
-26.000000
20
24.400000
30
-5.500000
70
192
0
VERTEX
8
OBJECT__7
10
0
20
0
30
0
70
128
71
1
72
2
73
3
0
VERTEX
8
OBJECT__7
10
0
20
0
30
0
70
128
71
4
72
5
73
6
0
VERTEX
8
OBJECT__7
10
0
20
0
30
0
70
128
71
1
72
4
73
2
0
VERTEX
8
OBJECT__7
10
0
20
0
30
0
70
128
71
4
72
1
73
5
0
VERTEX
8
OBJECT__7
10
0
20
0
30
0
70
128
71
6
72
7
73
4
0
VERTEX
8
OBJECT__7
10
0
20
0
30
0
70
128
71
3
72
8
73
1
0
SEQEND
8
OBJECT__7
0
POLYLINE
8
OBJECT__8
66
1
70
64
71
4
72
2
62
253
0
VERTEX
8
OBJECT__8
10
-24.400000
20
-26.000000
30
2.500000
70
192
0
VERTEX
8
OBJECT__8
10
-24.400000
20
-26.000000
30
-5.500000
70
192
0
VERTEX
8
OBJECT__8
10
24.400000
20
-26.000000
30
-5.500000
70
192
0
VERTEX
8
OBJECT__8
10
24.400000
20
-26.000000
30
2.500000
70
192
0
VERTEX
8
OBJECT__8
10
0
20
0
30
0
70
128
71
1
72
2
73
3
0
VERTEX
8
OBJECT__8
10
0
20
0
30
0
70
128
71
3
72
4
73
1
0
SEQEND
8
OBJECT__8
0
POLYLINE
8
OBJECT__9
66
1
70
64
71
4
72
2
62
253
0
VERTEX
8
OBJECT__9
10
24.400000
20
-26.000000
30
2.500000
70
192
0
VERTEX
8
OBJECT__9
10
24.400000
20
-26.000000
30
-5.500000
70
192
0
VERTEX
8
OBJECT__9
10
26.000000
20
-24.400000
30
-5.500000
70
192
0
VERTEX
8
OBJECT__9
10
26.000000
20
-24.400000
30
2.500000
70
192
0
VERTEX
8
OBJECT__9
10
0
20
0
30
0
70
128
71
1
72
2
73
3
0
VERTEX
8
OBJECT__9
10
0
20
0
30
0
70
128
71
3
72
4
73
1
0
SEQEND
8
OBJECT__9
0
POLYLINE
8
OBJECT__10
66
1
70
64
71
4
72
2
62
253
0
VERTEX
8
OBJECT__10
10
26.000000
20
24.400000
30
2.500000
70
192
0
VERTEX
8
OBJECT__10
10
26.000000
20
-24.400000
30
2.500000
70
192
0
VERTEX
8
OBJECT__10
10
26.000000
20
-24.400000
30
-5.500000
70
192
0
VERTEX
8
OBJECT__10
10
26.000000
20
24.400000
30
-5.500000
70
192
0
VERTEX
8
OBJECT__10
10
0
20
0
30
0
70
128
71
1
72
2
73
3
0
VERTEX
8
OBJECT__10
10
0
20
0
30
0
70
128
71
3
72
4
73
1
0
SEQEND
8
OBJECT__10
0
POLYLINE
8
OBJECT__11
66
1
70
64
71
19
72
19
62
253
0
VERTEX
8
OBJECT__11
10
-27.582001
20
0.000000
30
41.483002
70
192
0
VERTEX
8
OBJECT__11
10
-18.684999
20
-1.525000
30
16.386999
70
192
0
VERTEX
8
OBJECT__11
10
-18.684999
20
-1.889000
30
20.643000
70
192
0
VERTEX
8
OBJECT__11
10
-18.684999
20
0.000000
30
14.102000
70
192
0
VERTEX
8
OBJECT__11
10
-25.763000
20
-1.730000
30
42.074001
70
192
0
VERTEX
8
OBJECT__11
10
-26.267000
20
-1.902000
30
41.910000
70
192
0
VERTEX
8
OBJECT__11
10
-24.141001
20
-1.176000
30
42.601002
70
192
0
VERTEX
8
OBJECT__11
10
-18.684999
20
-1.028000
30
26.125999
70
192
0
VERTEX
8
OBJECT__11
10
-18.684999
20
0.018000
30
26.486000
70
192
0
VERTEX
8
OBJECT__11
10
-23.777000
20
0.000000
30
42.719002
70
192
0
VERTEX
8
OBJECT__11
10
-18.684999
20
-1.973000
30
21.629999
70
192
0
VERTEX
8
OBJECT__11
10
-25.763000
20
1.730000
30
42.074001
70
192
0
VERTEX
8
OBJECT__11
10
-18.684999
20
0.644000
30
26.702000
70
192
0
VERTEX
8
OBJECT__11
10
-18.684999
20
1.860000
30
22.948999
70
192
0
VERTEX
8
OBJECT__11
10
-24.141001
20
1.176000
30
42.601002
70
192
0
VERTEX
8
OBJECT__11
10
-26.267000
20
1.902000
30
41.910000
70
192
0
VERTEX
8
OBJECT__11
10
-18.684999
20
1.818000
30
20.598000
70
192
0
VERTEX
8
OBJECT__11
10
-18.684999
20
1.763000
30
17.518999
70
192
0
VERTEX
8
OBJECT__11
10
-18.684999
20
0.421000
30
14.247000
70
192
0
VERTEX
8
OBJECT__11
10
0
20
0
30
0
70
128
71
1
72
2
73
3
0
VERTEX
8
OBJECT__11
10
0
20
0
30
0
70
128
71
1
72
4
73
2
0
VERTEX
8
OBJECT__11
10
0
20
0
30
0
70
128
71
3
72
5
73
6
0
VERTEX
8
OBJECT__11
10
0
20
0
30
0
70
128
71
7
72
8
73
9
0
VERTEX
8
OBJECT__11
10
0
20
0
30
0
70
128
71
9
72
10
73
7
0
VERTEX
8
OBJECT__11
10
0
20
0
30
0
70
128
71
5
72
3
73
11
0
VERTEX
8
OBJECT__11
10
0
20
0
30
0
70
128
71
11
72
8
73
5
0
VERTEX
8
OBJECT__11
10
0
20
0
30
0
70
128
71
12
72
13
73
14
0
VERTEX
8
OBJECT__11
10
0
20
0
30
0
70
128
71
10
72
9
73
13
0
VERTEX
8
OBJECT__11
10
0
20
0
30
0
70
128
71
13
72
12
73
15
0
VERTEX
8
OBJECT__11
10
0
20
0
30
0
70
128
71
13
72
15
73
10
0
VERTEX
8
OBJECT__11
10
0
20
0
30
0
70
128
71
16
72
12
73
17
0
VERTEX
8
OBJECT__11
10
0
20
0
30
0
70
128
71
4
72
1
73
18
0
VERTEX
8
OBJECT__11
10
0
20
0
30
0
70
128
71
1
72
16
73
18
0
VERTEX
8
OBJECT__11
10
0
20
0
30
0
70
128
71
18
72
19
73
4
0
VERTEX
8
OBJECT__11
10
0
20
0
30
0
70
128
71
17
72
18
73
16
0
VERTEX
8
OBJECT__11
10
0
20
0
30
0
70
128
71
14
72
17
73
12
0
VERTEX
8
OBJECT__11
10
0
20
0
30
0
70
128
71
7
72
5
73
8
0
VERTEX
8
OBJECT__11
10
0
20
0
30
0
70
128
71
3
72
6
73
1
0
SEQEND
8
OBJECT__11
0
POLYLINE
8
OBJECT__12
66
1
70
64
71
21
72
26
62
253
0
VERTEX
8
OBJECT__12
10
-27.132999
20
-1.902000
30
43.101002
70
192
0
VERTEX
8
OBJECT__12
10
-28.533001
20
-1.902000
30
43.556000
70
192
0
VERTEX
8
OBJECT__12
10
-28.533001
20
0.000000
30
42.174000
70
192
0
VERTEX
8
OBJECT__12
10
-27.945000
20
0.000000
30
41.983002
70
192
0
VERTEX
8
OBJECT__12
10
-27.582001
20
0.000000
30
41.483002
70
192
0
VERTEX
8
OBJECT__12
10
-25.818001
20
-1.176000
30
44.910000
70
192
0
VERTEX
8
OBJECT__12
10
-28.533001
20
-1.730000
30
44.085999
70
192
0
VERTEX
8
OBJECT__12
10
-28.533001
20
-1.176000
30
45.792000
70
192
0
VERTEX
8
OBJECT__12
10
-25.763000
20
-1.730000
30
42.074001
70
192
0
VERTEX
8
OBJECT__12
10
-26.267000
20
-1.902000
30
41.910000
70
192
0
VERTEX
8
OBJECT__12
10
-25.818001
20
1.176000
30
44.910000
70
192
0
VERTEX
8
OBJECT__12
10
-28.533001
20
0.000000
30
46.174000
70
192
0
VERTEX
8
OBJECT__12
10
-28.533001
20
1.176000
30
45.792000
70
192
0
VERTEX
8
OBJECT__12
10
-24.141001
20
-1.176000
30
42.601002
70
192
0
VERTEX
8
OBJECT__12
10
-23.777000
20
0.000000
30
42.719002
70
192
0
VERTEX
8
OBJECT__12
10
-28.533001
20
1.730000
30
44.085999
70
192
0
VERTEX
8
OBJECT__12
10
-27.132999
20
1.902000
30
43.101002
70
192
0
VERTEX
8
OBJECT__12
10
-28.533001
20
1.902000
30
43.556000
70
192
0
VERTEX
8
OBJECT__12
10
-25.763000
20
1.730000
30
42.074001
70
192
0
VERTEX
8
OBJECT__12
10
-24.141001
20
1.176000
30
42.601002
70
192
0
VERTEX
8
OBJECT__12
10
-26.267000
20
1.902000
30
41.910000
70
192
0
VERTEX
8
OBJECT__12
10
0
20
0
30
0
70
128
71
1
72
2
73
3
0
VERTEX
8
OBJECT__12
10
0
20
0
30
0
70
128
71
1
72
4
73
5
0
VERTEX
8
OBJECT__12
10
0
20
0
30
0
70
128
71
1
72
6
73
7
0
VERTEX
8
OBJECT__12
10
0
20
0
30
0
70
128
71
6
72
8
73
7
0
VERTEX
8
OBJECT__12
10
0
20
0
30
0
70
128
71
9
72
6
73
1
0
VERTEX
8
OBJECT__12
10
0
20
0
30
0
70
128
71
1
72
10
73
9
0
VERTEX
8
OBJECT__12
10
0
20
0
30
0
70
128
71
6
72
11
73
12
0
VERTEX
8
OBJECT__12
10
0
20
0
30
0
70
128
71
11
72
13
73
12
0
VERTEX
8
OBJECT__12
10
0
20
0
30
0
70
128
71
6
72
14
73
15
0
VERTEX
8
OBJECT__12
10
0
20
0
30
0
70
128
71
15
72
11
73
6
0
VERTEX
8
OBJECT__12
10
0
20
0
30
0
70
128
71
16
72
11
73
17
0
VERTEX
8
OBJECT__12
10
0
20
0
30
0
70
128
71
17
72
18
73
16
0
VERTEX
8
OBJECT__12
10
0
20
0
30
0
70
128
71
17
72
11
73
19
0
VERTEX
8
OBJECT__12
10
0
20
0
30
0
70
128
71
11
72
20
73
19
0
VERTEX
8
OBJECT__12
10
0
20
0
30
0
70
128
71
17
72
4
73
3
0
VERTEX
8
OBJECT__12
10
0
20
0
30
0
70
128
71
17
72
21
73
5
0
VERTEX
8
OBJECT__12
10
0
20
0
30
0
70
128
71
5
72
4
73
17
0
VERTEX
8
OBJECT__12
10
0
20
0
30
0
70
128
71
3
72
18
73
17
0
VERTEX
8
OBJECT__12
10
0
20
0
30
0
70
128
71
19
72
21
73
17
0
VERTEX
8
OBJECT__12
10
0
20
0
30
0
70
128
71
16
72
13
73
11
0
VERTEX
8
OBJECT__12
10
0
20
0
30
0
70
128
71
15
72
20
73
11
0
VERTEX
8
OBJECT__12
10
0
20
0
30
0
70
128
71
12
72
8
73
6
0
VERTEX
8
OBJECT__12
10
0
20
0
30
0
70
128
71
9
72
14
73
6
0
VERTEX
8
OBJECT__12
10
0
20
0
30
0
70
128
71
7
72
2
73
1
0
VERTEX
8
OBJECT__12
10
0
20
0
30
0
70
128
71
5
72
10
73
1
0
VERTEX
8
OBJECT__12
10
0
20
0
30
0
70
128
71
3
72
4
73
1
0
SEQEND
8
OBJECT__12
0
POLYLINE
8
OBJECT__14
66
1
70
64
71
12
72
12
62
253
0
VERTEX
8
OBJECT__14
10
-42.000000
20
0.000000
30
42.174000
70
192
0
VERTEX
8
OBJECT__14
10
-42.000000
20
2.000000
30
44.174000
70
192
0
VERTEX
8
OBJECT__14
10
-28.533001
20
1.902000
30
43.556000
70
192
0
VERTEX
8
OBJECT__14
10
-28.533001
20
1.730000
30
44.085999
70
192
0
VERTEX
8
OBJECT__14
10
-42.000000
20
0.000000
30
46.174000
70
192
0
VERTEX
8
OBJECT__14
10
-28.533001
20
1.176000
30
45.792000
70
192
0
VERTEX
8
OBJECT__14
10
-28.533001
20
0.000000
30
46.174000
70
192
0
VERTEX
8
OBJECT__14
10
-42.000000
20
-2.000000
30
44.174000
70
192
0
VERTEX
8
OBJECT__14
10
-28.533001
20
-1.730000
30
44.085999
70
192
0
VERTEX
8
OBJECT__14
10
-28.533001
20
-1.176000
30
45.792000
70
192
0
VERTEX
8
OBJECT__14
10
-28.533001
20
0.000000
30
42.174000
70
192
0
VERTEX
8
OBJECT__14
10
-28.533001
20
-1.902000
30
43.556000
70
192
0
VERTEX
8
OBJECT__14
10
0
20
0
30
0
70
128
71
1
72
2
73
3
0
VERTEX
8
OBJECT__14
10
0
20
0
30
0
70
128
71
2
72
4
73
3
0
VERTEX
8
OBJECT__14
10
0
20
0
30
0
70
128
71
2
72
5
73
6
0
VERTEX
8
OBJECT__14
10
0
20
0
30
0
70
128
71
5
72
7
73
6
0
VERTEX
8
OBJECT__14
10
0
20
0
30
0
70
128
71
8
72
9
73
10
0
VERTEX
8
OBJECT__14
10
0
20
0
30
0
70
128
71
10
72
5
73
8
0
VERTEX
8
OBJECT__14
10
0
20
0
30
0
70
128
71
1
72
11
73
12
0
VERTEX
8
OBJECT__14
10
0
20
0
30
0
70
128
71
12
72
8
73
1
0
VERTEX
8
OBJECT__14
10
0
20
0
30
0
70
128
71
12
72
9
73
8
0
VERTEX
8
OBJECT__14
10
0
20
0
30
0
70
128
71
10
72
7
73
5
0
VERTEX
8
OBJECT__14
10
0
20
0
30
0
70
128
71
6
72
4
73
2
0
VERTEX
8
OBJECT__14
10
0
20
0
30
0
70
128
71
3
72
11
73
1
0
SEQEND
8
OBJECT__14
0
POLYLINE
8
OBJECT__15
66
1
70
64
71
4
72
2
62
253
0
VERTEX
8
OBJECT__15
10
-42.000000
20
2.000000
30
44.174000
70
192
0
VERTEX
8
OBJECT__15
10
-42.000000
20
0.000000
30
42.174000
70
192
0
VERTEX
8
OBJECT__15
10
-42.000000
20
-2.000000
30
44.174000
70
192
0
VERTEX
8
OBJECT__15
10
-42.000000
20
0.000000
30
46.174000
70
192
0
VERTEX
8
OBJECT__15
10
0
20
0
30
0
70
128
71
1
72
2
73
3
0
VERTEX
8
OBJECT__15
10
0
20
0
30
0
70
128
71
3
72
4
73
1
0
SEQEND
8
OBJECT__15
0
POLYLINE
8
OBJECT__16
66
1
70
64
71
11
72
9
62
253
0
VERTEX
8
OBJECT__16
10
10.813000
20
79.945999
30
56.473000
70
192
0
VERTEX
8
OBJECT__16
10
15.115000
20
79.126999
30
86.384003
70
192
0
VERTEX
8
OBJECT__16
10
19.796000
20
79.406998
30
76.137001
70
192
0
VERTEX
8
OBJECT__16
10
5.635000
20
78.959999
30
92.474998
70
192
0
VERTEX
8
OBJECT__16
10
-19.796000
20
79.406998
30
76.137001
70
192
0
VERTEX
8
OBJECT__16
10
-15.115000
20
79.126999
30
86.384003
70
192
0
VERTEX
8
OBJECT__16
10
0.000000
20
80.031998
30
53.299000
70
192
0
VERTEX
8
OBJECT__16
10
-18.193001
20
79.711998
30
64.987000
70
192
0
VERTEX
8
OBJECT__16
10
18.193001
20
79.711998
30
64.987000
70
192
0
VERTEX
8
OBJECT__16
10
-10.813000
20
79.945999
30
56.473000
70
192
0
VERTEX
8
OBJECT__16
10
-5.635000
20
78.959999
30
92.474998
70
192
0
VERTEX
8
OBJECT__16
10
0
20
0
30
0
70
128
71
1
72
2
73
3
0
VERTEX
8
OBJECT__16
10
0
20
0
30
0
70
128
71
4
72
5
73
6
0
VERTEX
8
OBJECT__16
10
0
20
0
30
0
70
128
71
4
72
1
73
7
0
VERTEX
8
OBJECT__16
10
0
20
0
30
0
70
128
71
1
72
4
73
2
0
VERTEX
8
OBJECT__16
10
0
20
0
30
0
70
128
71
4
72
8
73
5
0
VERTEX
8
OBJECT__16
10
0
20
0
30
0
70
128
71
3
72
9
73
1
0
VERTEX
8
OBJECT__16
10
0
20
0
30
0
70
128
71
4
72
10
73
8
0
VERTEX
8
OBJECT__16
10
0
20
0
30
0
70
128
71
6
72
11
73
4
0
VERTEX
8
OBJECT__16
10
0
20
0
30
0
70
128
71
7
72
10
73
4
0
SEQEND
8
OBJECT__16
0
POLYLINE
8
OBJECT__17
66
1
70
64
71
39
72
41
62
253
0
VERTEX
8
OBJECT__17
10
15.115000
20
79.126999
30
86.384003
70
192
0
VERTEX
8
OBJECT__17
10
15.115000
20
49.138000
30
85.563004
70
192
0
VERTEX
8
OBJECT__17
10
19.796000
20
49.417999
30
75.316002
70
192
0
VERTEX
8
OBJECT__17
10
-19.796000
20
49.417999
30
75.316002
70
192
0
VERTEX
8
OBJECT__17
10
-15.115000
20
49.138000
30
85.563004
70
192
0
VERTEX
8
OBJECT__17
10
-15.115000
20
79.126999
30
86.384003
70
192
0
VERTEX
8
OBJECT__17
10
-5.635000
20
78.959999
30
92.474998
70
192
0
VERTEX
8
OBJECT__17
10
-5.635000
20
74.960999
30
92.364998
70
192
0
VERTEX
8
OBJECT__17
10
5.635000
20
74.960999
30
92.364998
70
192
0
VERTEX
8
OBJECT__17
10
5.635000
20
48.971001
30
91.653999
70
192
0
VERTEX
8
OBJECT__17
10
8.500000
20
68.992996
30
91.114998
70
192
0
VERTEX
8
OBJECT__17
10
8.500000
20
74.990997
30
91.279999
70
192
0
VERTEX
8
OBJECT__17
10
5.635000
20
78.959999
30
92.474998
70
192
0
VERTEX
8
OBJECT__17
10
5.635000
20
68.963997
30
92.200996
70
192
0
VERTEX
8
OBJECT__17
10
-5.635000
20
68.963997
30
92.200996
70
192
0
VERTEX
8
OBJECT__17
10
-8.500000
20
74.990997
30
91.279999
70
192
0
VERTEX
8
OBJECT__17
10
-8.500000
20
68.992996
30
91.114998
70
192
0
VERTEX
8
OBJECT__17
10
-5.635000
20
48.971001
30
91.653999
70
192
0
VERTEX
8
OBJECT__17
10
19.796000
20
79.406998
30
76.137001
70
192
0
VERTEX
8
OBJECT__17
10
20.000000
20
50.612000
30
72.499001
70
192
0
VERTEX
8
OBJECT__17
10
18.041000
20
54.868999
30
64.345001
70
192
0
VERTEX
8
OBJECT__17
10
19.868999
20
49.433998
30
74.755997
70
192
0
VERTEX
8
OBJECT__17
10
10.813000
20
79.945999
30
56.473000
70
192
0
VERTEX
8
OBJECT__17
10
18.193001
20
79.711998
30
64.987000
70
192
0
VERTEX
8
OBJECT__17
10
11.950000
20
58.868000
30
56.683998
70
192
0
VERTEX
8
OBJECT__17
10
17.874001
20
55.230999
30
63.652000
70
192
0
VERTEX
8
OBJECT__17
10
10.704000
20
59.146000
30
56.153000
70
192
0
VERTEX
8
OBJECT__17
10
3.487000
20
60.750999
30
53.077999
70
192
0
VERTEX
8
OBJECT__17
10
0.000000
20
80.031998
30
53.299000
70
192
0
VERTEX
8
OBJECT__17
10
0.029000
20
60.648998
30
53.273998
70
192
0
VERTEX
8
OBJECT__17
10
-5.717000
20
60.479000
30
53.598999
70
192
0
VERTEX
8
OBJECT__17
10
-10.813000
20
79.945999
30
56.473000
70
192
0
VERTEX
8
OBJECT__17
10
-18.193001
20
79.711998
30
64.987000
70
192
0
VERTEX
8
OBJECT__17
10
-10.556000
20
59.044998
30
56.347000
70
192
0
VERTEX
8
OBJECT__17
10
-13.706000
20
58.110001
30
58.136002
70
192
0
VERTEX
8
OBJECT__17
10
-19.796000
20
79.406998
30
76.137001
70
192
0
VERTEX
8
OBJECT__17
10
-18.783001
20
54.147999
30
65.725998
70
192
0
VERTEX
8
OBJECT__17
10
-19.868999
20
49.433998
30
74.755997
70
192
0
VERTEX
8
OBJECT__17
10
-17.941999
20
54.805000
30
64.468002
70
192
0
VERTEX
8
OBJECT__17
10
0
20
0
30
0
70
128
71
1
72
2
73
3
0
VERTEX
8
OBJECT__17
10
0
20
0
30
0
70
128
71
4
72
5
73
6
0
VERTEX
8
OBJECT__17
10
0
20
0
30
0
70
128
71
7
72
8
73
9
0
VERTEX
8
OBJECT__17
10
0
20
0
30
0
70
128
71
10
72
2
73
11
0
VERTEX
8
OBJECT__17
10
0
20
0
30
0
70
128
71
1
72
12
73
11
0
VERTEX
8
OBJECT__17
10
0
20
0
30
0
70
128
71
13
72
9
73
12
0
VERTEX
8
OBJECT__17
10
0
20
0
30
0
70
128
71
12
72
1
73
13
0
VERTEX
8
OBJECT__17
10
0
20
0
30
0
70
128
71
11
72
2
73
1
0
VERTEX
8
OBJECT__17
10
0
20
0
30
0
70
128
71
10
72
14
73
15
0
VERTEX
8
OBJECT__17
10
0
20
0
30
0
70
128
71
7
72
6
73
16
0
VERTEX
8
OBJECT__17
10
0
20
0
30
0
70
128
71
6
72
5
73
17
0
VERTEX
8
OBJECT__17
10
0
20
0
30
0
70
128
71
17
72
16
73
6
0
VERTEX
8
OBJECT__17
10
0
20
0
30
0
70
128
71
18
72
15
73
17
0
VERTEX
8
OBJECT__17
10
0
20
0
30
0
70
128
71
17
72
5
73
18
0
VERTEX
8
OBJECT__17
10
0
20
0
30
0
70
128
71
19
72
20
73
21
0
VERTEX
8
OBJECT__17
10
0
20
0
30
0
70
128
71
19
72
3
73
22
0
VERTEX
8
OBJECT__17
10
0
20
0
30
0
70
128
71
22
72
20
73
19
0
VERTEX
8
OBJECT__17
10
0
20
0
30
0
70
128
71
23
72
24
73
25
0
VERTEX
8
OBJECT__17
10
0
20
0
30
0
70
128
71
24
72
21
73
26
0
VERTEX
8
OBJECT__17
10
0
20
0
30
0
70
128
71
26
72
25
73
24
0
VERTEX
8
OBJECT__17
10
0
20
0
30
0
70
128
71
23
72
27
73
28
0
VERTEX
8
OBJECT__17
10
0
20
0
30
0
70
128
71
28
72
29
73
23
0
VERTEX
8
OBJECT__17
10
0
20
0
30
0
70
128
71
29
72
30
73
31
0
VERTEX
8
OBJECT__17
10
0
20
0
30
0
70
128
71
31
72
32
73
29
0
VERTEX
8
OBJECT__17
10
0
20
0
30
0
70
128
71
33
72
32
73
34
0
VERTEX
8
OBJECT__17
10
0
20
0
30
0
70
128
71
34
72
35
73
33
0
VERTEX
8
OBJECT__17
10
0
20
0
30
0
70
128
71
36
72
37
73
38
0
VERTEX
8
OBJECT__17
10
0
20
0
30
0
70
128
71
36
72
33
73
39
0
VERTEX
8
OBJECT__17
10
0
20
0
30
0
70
128
71
39
72
37
73
36
0
VERTEX
8
OBJECT__17
10
0
20
0
30
0
70
128
71
38
72
4
73
36
0
VERTEX
8
OBJECT__17
10
0
20
0
30
0
70
128
71
35
72
39
73
33
0
VERTEX
8
OBJECT__17
10
0
20
0
30
0
70
128
71
31
72
34
73
32
0
VERTEX
8
OBJECT__17
10
0
20
0
30
0
70
128
71
28
72
30
73
29
0
VERTEX
8
OBJECT__17
10
0
20
0
30
0
70
128
71
25
72
27
73
23
0
VERTEX
8
OBJECT__17
10
0
20
0
30
0
70
128
71
21
72
24
73
19
0
VERTEX
8
OBJECT__17
10
0
20
0
30
0
70
128
71
16
72
8
73
7
0
VERTEX
8
OBJECT__17
10
0
20
0
30
0
70
128
71
15
72
18
73
10
0
VERTEX
8
OBJECT__17
10
0
20
0
30
0
70
128
71
11
72
14
73
10
0
VERTEX
8
OBJECT__17
10
0
20
0
30
0
70
128
71
9
72
13
73
7
0
VERTEX
8
OBJECT__17
10
0
20
0
30
0
70
128
71
6
72
36
73
4
0
VERTEX
8
OBJECT__17
10
0
20
0
30
0
70
128
71
3
72
19
73
1
0
SEQEND
8
OBJECT__17
0
POLYLINE
8
OBJECT__19
66
1
70
64
71
8
72
6
62
253
0
VERTEX
8
OBJECT__19
10
-15.115000
20
49.138000
30
85.563004
70
192
0
VERTEX
8
OBJECT__19
10
15.115000
20
49.138000
30
85.563004
70
192
0
VERTEX
8
OBJECT__19
10
5.635000
20
48.971001
30
91.653999
70
192
0
VERTEX
8
OBJECT__19
10
-5.635000
20
48.971001
30
91.653999
70
192
0
VERTEX
8
OBJECT__19
10
-19.796000
20
49.417999
30
75.316002
70
192
0
VERTEX
8
OBJECT__19
10
19.796000
20
49.417999
30
75.316002
70
192
0
VERTEX
8
OBJECT__19
10
-19.868999
20
49.433998
30
74.755997
70
192
0
VERTEX
8
OBJECT__19
10
19.868999
20
49.433998
30
74.755997
70
192
0
VERTEX
8
OBJECT__19
10
0
20
0
30
0
70
128
71
1
72
2
73
3
0
VERTEX
8
OBJECT__19
10
0
20
0
30
0
70
128
71
3
72
4
73
1
0
VERTEX
8
OBJECT__19
10
0
20
0
30
0
70
128
71
5
72
6
73
2
0
VERTEX
8
OBJECT__19
10
0
20
0
30
0
70
128
71
1
72
5
73
2
0
VERTEX
8
OBJECT__19
10
0
20
0
30
0
70
128
71
7
72
8
73
6
0
VERTEX
8
OBJECT__19
10
0
20
0
30
0
70
128
71
5
72
7
73
6
0
SEQEND
8
OBJECT__19
0
POLYLINE
8
OBJECT__20
66
1
70
64
71
14
72
12
62
253
0
VERTEX
8
OBJECT__20
10
-10.556000
20
59.044998
30
56.347000
70
192
0
VERTEX
8
OBJECT__20
10
-19.868999
20
49.433998
30
74.755997
70
192
0
VERTEX
8
OBJECT__20
10
-17.941999
20
54.805000
30
64.468002
70
192
0
VERTEX
8
OBJECT__20
10
-5.717000
20
60.479000
30
53.598999
70
192
0
VERTEX
8
OBJECT__20
10
-18.783001
20
54.147999
30
65.725998
70
192
0
VERTEX
8
OBJECT__20
10
10.704000
20
59.146000
30
56.153000
70
192
0
VERTEX
8
OBJECT__20
10
11.950000
20
58.868000
30
56.683998
70
192
0
VERTEX
8
OBJECT__20
10
0.029000
20
60.648998
30
53.273998
70
192
0
VERTEX
8
OBJECT__20
10
3.487000
20
60.750999
30
53.077999
70
192
0
VERTEX
8
OBJECT__20
10
-13.706000
20
58.110001
30
58.136002
70
192
0
VERTEX
8
OBJECT__20
10
17.874001
20
55.230999
30
63.652000
70
192
0
VERTEX
8
OBJECT__20
10
18.041000
20
54.868999
30
64.345001
70
192
0
VERTEX
8
OBJECT__20
10
20.000000
20
50.612000
30
72.499001
70
192
0
VERTEX
8
OBJECT__20
10
19.868999
20
49.433998
30
74.755997
70
192
0
VERTEX
8
OBJECT__20
10
0
20
0
30
0
70
128
71
1
72
2
73
3
0
VERTEX
8
OBJECT__20
10
0
20
0
30
0
70
128
71
2
72
1
73
4
0
VERTEX
8
OBJECT__20
10
0
20
0
30
0
70
128
71
2
72
5
73
3
0
VERTEX
8
OBJECT__20
10
0
20
0
30
0
70
128
71
2
72
6
73
7
0
VERTEX
8
OBJECT__20
10
0
20
0
30
0
70
128
71
2
72
8
73
9
0
VERTEX
8
OBJECT__20
10
0
20
0
30
0
70
128
71
3
72
10
73
1
0
VERTEX
8
OBJECT__20
10
0
20
0
30
0
70
128
71
7
72
11
73
2
0
VERTEX
8
OBJECT__20
10
0
20
0
30
0
70
128
71
4
72
8
73
2
0
VERTEX
8
OBJECT__20
10
0
20
0
30
0
70
128
71
2
72
12
73
13
0
VERTEX
8
OBJECT__20
10
0
20
0
30
0
70
128
71
9
72
6
73
2
0
VERTEX
8
OBJECT__20
10
0
20
0
30
0
70
128
71
11
72
12
73
2
0
VERTEX
8
OBJECT__20
10
0
20
0
30
0
70
128
71
13
72
14
73
2
0
SEQEND
8
OBJECT__20
0
POLYLINE
8
OBJECT__21
66
1
70
64
71
4
72
2
62
253
0
VERTEX
8
OBJECT__21
10
-8.500000
20
73.554001
30
143.755997
70
192
0
VERTEX
8
OBJECT__21
10
-8.500000
20
74.990997
30
91.279999
70
192
0
VERTEX
8
OBJECT__21
10
-8.500000
20
68.992996
30
91.114998
70
192
0
VERTEX
8
OBJECT__21
10
-8.500000
20
67.556999
30
143.591995
70
192
0
VERTEX
8
OBJECT__21
10
0
20
0
30
0
70
128
71
1
72
2
73
3
0
VERTEX
8
OBJECT__21
10
0
20
0
30
0
70
128
71
3
72
4
73
1
0
SEQEND
8
OBJECT__21
0
POLYLINE
8
OBJECT__22
66
1
70
64
71
6
72
4
62
253
0
VERTEX
8
OBJECT__22
10
8.500000
20
67.556999
30
143.591995
70
192
0
VERTEX
8
OBJECT__22
10
-8.500000
20
67.556999
30
143.591995
70
192
0
VERTEX
8
OBJECT__22
10
-5.635000
20
68.963997
30
92.200996
70
192
0
VERTEX
8
OBJECT__22
10
-8.500000
20
68.992996
30
91.114998
70
192
0
VERTEX
8
OBJECT__22
10
5.635000
20
68.963997
30
92.200996
70
192
0
VERTEX
8
OBJECT__22
10
8.500000
20
68.992996
30
91.114998
70
192
0
VERTEX
8
OBJECT__22
10
0
20
0
30
0
70
128
71
1
72
2
73
3
0
VERTEX
8
OBJECT__22
10
0
20
0
30
0
70
128
71
2
72
4
73
3
0
VERTEX
8
OBJECT__22
10
0
20
0
30
0
70
128
71
3
72
5
73
1
0
VERTEX
8
OBJECT__22
10
0
20
0
30
0
70
128
71
5
72
6
73
1
0
SEQEND
8
OBJECT__22
0
POLYLINE
8
OBJECT__23
66
1
70
64
71
4
72
2
62
253
0
VERTEX
8
OBJECT__23
10
8.500000
20
73.554001
30
143.755997
70
192
0
VERTEX
8
OBJECT__23
10
8.500000
20
67.556999
30
143.591995
70
192
0
VERTEX
8
OBJECT__23
10
8.500000
20
68.992996
30
91.114998
70
192
0
VERTEX
8
OBJECT__23
10
8.500000
20
74.990997
30
91.279999
70
192
0
VERTEX
8
OBJECT__23
10
0
20
0
30
0
70
128
71
1
72
2
73
3
0
VERTEX
8
OBJECT__23
10
0
20
0
30
0
70
128
71
3
72
4
73
1
0
SEQEND
8
OBJECT__23
0
POLYLINE
8
OBJECT__24
66
1
70
64
71
6
72
4
62
253
0
VERTEX
8
OBJECT__24
10
8.500000
20
73.554001
30
143.755997
70
192
0
VERTEX
8
OBJECT__24
10
5.635000
20
74.960999
30
92.364998
70
192
0
VERTEX
8
OBJECT__24
10
-5.635000
20
74.960999
30
92.364998
70
192
0
VERTEX
8
OBJECT__24
10
8.500000
20
74.990997
30
91.279999
70
192
0
VERTEX
8
OBJECT__24
10
-8.500000
20
73.554001
30
143.755997
70
192
0
VERTEX
8
OBJECT__24
10
-8.500000
20
74.990997
30
91.279999
70
192
0
VERTEX
8
OBJECT__24
10
0
20
0
30
0
70
128
71
1
72
2
73
3
0
VERTEX
8
OBJECT__24
10
0
20
0
30
0
70
128
71
1
72
4
73
2
0
VERTEX
8
OBJECT__24
10
0
20
0
30
0
70
128
71
3
72
5
73
1
0
VERTEX
8
OBJECT__24
10
0
20
0
30
0
70
128
71
3
72
6
73
5
0
SEQEND
8
OBJECT__24
0
POLYLINE
8
OBJECT__25
66
1
70
64
71
4
72
2
62
253
0
VERTEX
8
OBJECT__25
10
8.500000
20
67.556999
30
143.591995
70
192
0
VERTEX
8
OBJECT__25
10
8.500000
20
73.554001
30
143.755997
70
192
0
VERTEX
8
OBJECT__25
10
-8.500000
20
73.554001
30
143.755997
70
192
0
VERTEX
8
OBJECT__25
10
-8.500000
20
67.556999
30
143.591995
70
192
0
VERTEX
8
OBJECT__25
10
0
20
0
30
0
70
128
71
1
72
2
73
3
0
VERTEX
8
OBJECT__25
10
0
20
0
30
0
70
128
71
3
72
4
73
1
0
SEQEND
8
OBJECT__25
0
POLYLINE
8
OBJECT__26
66
1
70
64
71
5
72
3
62
253
0
VERTEX
8
OBJECT__26
10
5.500000
20
14.500000
30
106.500000
70
192
0
VERTEX
8
OBJECT__26
10
5.500000
20
14.500000
30
187.503006
70
192
0
VERTEX
8
OBJECT__26
10
5.854000
20
14.354000
30
187.503006
70
192
0
VERTEX
8
OBJECT__26
10
6.000000
20
14.000000
30
106.500000
70
192
0
VERTEX
8
OBJECT__26
10
6.000000
20
14.000000
30
187.503006
70
192
0
VERTEX
8
OBJECT__26
10
0
20
0
30
0
70
128
71
1
72
2
73
3
0
VERTEX
8
OBJECT__26
10
0
20
0
30
0
70
128
71
3
72
4
73
1
0
VERTEX
8
OBJECT__26
10
0
20
0
30
0
70
128
71
3
72
5
73
4
0
SEQEND
8
OBJECT__26
0
POLYLINE
8
OBJECT__27
66
1
70
64
71
20
72
22
62
253
0
VERTEX
8
OBJECT__27
10
5.500000
20
14.500000
30
187.503006
70
192
0
VERTEX
8
OBJECT__27
10
6.797000
20
14.500000
30
195.692001
70
192
0
VERTEX
8
OBJECT__27
10
7.133000
20
14.354000
30
195.582001
70
192
0
VERTEX
8
OBJECT__27
10
10.561000
20
14.500000
30
203.078995
70
192
0
VERTEX
8
OBJECT__27
10
10.847000
20
14.354000
30
202.871002
70
192
0
VERTEX
8
OBJECT__27
10
16.424000
20
14.500000
30
208.942001
70
192
0
VERTEX
8
OBJECT__27
10
16.632000
20
14.354000
30
208.654999
70
192
0
VERTEX
8
OBJECT__27
10
23.811001
20
14.500000
30
212.705994
70
192
0
VERTEX
8
OBJECT__27
10
23.920000
20
14.354000
30
212.369003
70
192
0
VERTEX
8
OBJECT__27
10
32.000000
20
14.500000
30
214.003006
70
192
0
VERTEX
8
OBJECT__27
10
32.000000
20
14.354000
30
213.649002
70
192
0
VERTEX
8
OBJECT__27
10
7.273000
20
14.000000
30
195.537003
70
192
0
VERTEX
8
OBJECT__27
10
6.000000
20
14.000000
30
187.503006
70
192
0
VERTEX
8
OBJECT__27
10
9.737000
20
14.000000
30
200.373001
70
192
0
VERTEX
8
OBJECT__27
10
10.966000
20
14.000000
30
202.785004
70
192
0
VERTEX
8
OBJECT__27
10
16.718000
20
14.000000
30
208.537003
70
192
0
VERTEX
8
OBJECT__27
10
23.966000
20
14.000000
30
212.229996
70
192
0
VERTEX
8
OBJECT__27
10
19.129000
20
14.000000
30
209.766006
70
192
0
VERTEX
8
OBJECT__27
10
32.000000
20
14.000000
30
213.503006
70
192
0
VERTEX
8
OBJECT__27
10
5.854000
20
14.354000
30
187.503006
70
192
0
VERTEX
8
OBJECT__27
10
0
20
0
30
0
70
128
71
1
72
2
73
3
0
VERTEX
8
OBJECT__27
10
0
20
0
30
0
70
128
71
2
72
4
73
5
0
VERTEX
8
OBJECT__27
10
0
20
0
30
0
70
128
71
6
72
7
73
5
0
VERTEX
8
OBJECT__27
10
0
20
0
30
0
70
128
71
6
72
8
73
9
0
VERTEX
8
OBJECT__27
10
0
20
0
30
0
70
128
71
10
72
11
73
9
0
VERTEX
8
OBJECT__27
10
0
20
0
30
0
70
128
71
3
72
12
73
13
0
VERTEX
8
OBJECT__27
10
0
20
0
30
0
70
128
71
3
72
5
73
14
0
VERTEX
8
OBJECT__27
10
0
20
0
30
0
70
128
71
5
72
15
73
14
0
VERTEX
8
OBJECT__27
10
0
20
0
30
0
70
128
71
7
72
16
73
15
0
VERTEX
8
OBJECT__27
10
0
20
0
30
0
70
128
71
9
72
17
73
18
0
VERTEX
8
OBJECT__27
10
0
20
0
30
0
70
128
71
18
72
7
73
9
0
VERTEX
8
OBJECT__27
10
0
20
0
30
0
70
128
71
9
72
11
73
19
0
VERTEX
8
OBJECT__27
10
0
20
0
30
0
70
128
71
19
72
17
73
9
0
VERTEX
8
OBJECT__27
10
0
20
0
30
0
70
128
71
18
72
16
73
7
0
VERTEX
8
OBJECT__27
10
0
20
0
30
0
70
128
71
15
72
5
73
7
0
VERTEX
8
OBJECT__27
10
0
20
0
30
0
70
128
71
14
72
12
73
3
0
VERTEX
8
OBJECT__27
10
0
20
0
30
0
70
128
71
13
72
20
73
3
0
VERTEX
8
OBJECT__27
10
0
20
0
30
0
70
128
71
9
72
8
73
10
0
VERTEX
8
OBJECT__27
10
0
20
0
30
0
70
128
71
9
72
7
73
6
0
VERTEX
8
OBJECT__27
10
0
20
0
30
0
70
128
71
5
72
4
73
6
0
VERTEX
8
OBJECT__27
10
0
20
0
30
0
70
128
71
5
72
3
73
2
0
VERTEX
8
OBJECT__27
10
0
20
0
30
0
70
128
71
3
72
20
73
1
0
SEQEND
8
OBJECT__27
0
POLYLINE
8
OBJECT__29
66
1
70
64
71
4
72
2
62
253
0
VERTEX
8
OBJECT__29
10
6.000000
20
14.000000
30
106.500000
70
192
0
VERTEX
8
OBJECT__29
10
6.000000
20
14.000000
30
187.503006
70
192
0
VERTEX
8
OBJECT__29
10
6.000000
20
-14.000000
30
187.503006
70
192
0
VERTEX
8
OBJECT__29
10
6.000000
20
-14.000000
30
106.500000
70
192
0
VERTEX
8
OBJECT__29
10
0
20
0
30
0
70
128
71
1
72
2
73
3
0
VERTEX
8
OBJECT__29
10
0
20
0
30
0
70
128
71
3
72
4
73
1
0
SEQEND
8
OBJECT__29
0
POLYLINE
8
OBJECT__30
66
1
70
64
71
5
72
3
62
253
0
VERTEX
8
OBJECT__30
10
106.431999
20
14.000000
30
213.503006
70
192
0
VERTEX
8
OBJECT__30
10
32.000000
20
14.000000
30
213.503006
70
192
0
VERTEX
8
OBJECT__30
10
32.000000
20
14.354000
30
213.649002
70
192
0
VERTEX
8
OBJECT__30
10
106.431999
20
14.500000
30
214.003006
70
192
0
VERTEX
8
OBJECT__30
10
32.000000
20
14.500000
30
214.003006
70
192
0
VERTEX
8
OBJECT__30
10
0
20
0
30
0
70
128
71
1
72
2
73
3
0
VERTEX
8
OBJECT__30
10
0
20
0
30
0
70
128
71
3
72
4
73
1
0
VERTEX
8
OBJECT__30
10
0
20
0
30
0
70
128
71
3
72
5
73
4
0
SEQEND
8
OBJECT__30
0
POLYLINE
8
OBJECT__31
66
1
70
64
71
16
72
14
62
253
0
VERTEX
8
OBJECT__31
10
19.129000
20
-14.000000
30
209.766006
70
192
0
VERTEX
8
OBJECT__31
10
19.129000
20
14.000000
30
209.766006
70
192
0
VERTEX
8
OBJECT__31
10
23.966000
20
14.000000
30
212.229996
70
192
0
VERTEX
8
OBJECT__31
10
23.966000
20
-14.000000
30
212.229996
70
192
0
VERTEX
8
OBJECT__31
10
32.000000
20
14.000000
30
213.503006
70
192
0
VERTEX
8
OBJECT__31
10
32.000000
20
-14.000000
30
213.503006
70
192
0
VERTEX
8
OBJECT__31
10
10.966000
20
14.000000
30
202.785004
70
192
0
VERTEX
8
OBJECT__31
10
10.966000
20
-14.000000
30
202.785004
70
192
0
VERTEX
8
OBJECT__31
10
9.737000
20
-14.000000
30
200.373001
70
192
0
VERTEX
8
OBJECT__31
10
16.718000
20
14.000000
30
208.537003
70
192
0
VERTEX
8
OBJECT__31
10
16.718000
20
-14.000000
30
208.537003
70
192
0
VERTEX
8
OBJECT__31
10
6.000000
20
14.000000
30
187.503006
70
192
0
VERTEX
8
OBJECT__31
10
7.273000
20
14.000000
30
195.537003
70
192
0
VERTEX
8
OBJECT__31
10
7.273000
20
-14.000000
30
195.537003
70
192
0
VERTEX
8
OBJECT__31
10
9.737000
20
14.000000
30
200.373001
70
192
0
VERTEX
8
OBJECT__31
10
6.000000
20
-14.000000
30
187.503006
70
192
0
VERTEX
8
OBJECT__31
10
0
20
0
30
0
70
128
71
1
72
2
73
3
0
VERTEX
8
OBJECT__31
10
0
20
0
30
0
70
128
71
4
72
3
73
5
0
VERTEX
8
OBJECT__31
10
0
20
0
30
0
70
128
71
5
72
6
73
4
0
VERTEX
8
OBJECT__31
10
0
20
0
30
0
70
128
71
7
72
8
73
9
0
VERTEX
8
OBJECT__31
10
0
20
0
30
0
70
128
71
8
72
7
73
10
0
VERTEX
8
OBJECT__31
10
0
20
0
30
0
70
128
71
10
72
11
73
8
0
VERTEX
8
OBJECT__31
10
0
20
0
30
0
70
128
71
11
72
10
73
2
0
VERTEX
8
OBJECT__31
10
0
20
0
30
0
70
128
71
2
72
1
73
11
0
VERTEX
8
OBJECT__31
10
0
20
0
30
0
70
128
71
12
72
13
73
14
0
VERTEX
8
OBJECT__31
10
0
20
0
30
0
70
128
71
14
72
13
73
15
0
VERTEX
8
OBJECT__31
10
0
20
0
30
0
70
128
71
15
72
9
73
14
0
VERTEX
8
OBJECT__31
10
0
20
0
30
0
70
128
71
14
72
16
73
12
0
VERTEX
8
OBJECT__31
10
0
20
0
30
0
70
128
71
9
72
15
73
7
0
VERTEX
8
OBJECT__31
10
0
20
0
30
0
70
128
71
3
72
4
73
1
0
SEQEND
8
OBJECT__31
0
POLYLINE
8
OBJECT__32
66
1
70
64
71
5
72
3
62
253
0
VERTEX
8
OBJECT__32
10
6.000000
20
-14.000000
30
106.500000
70
192
0
VERTEX
8
OBJECT__32
10
6.000000
20
-14.000000
30
187.503006
70
192
0
VERTEX
8
OBJECT__32
10
5.854000
20
-14.354000
30
187.503006
70
192
0
VERTEX
8
OBJECT__32
10
5.500000
20
-14.500000
30
106.500000
70
192
0
VERTEX
8
OBJECT__32
10
5.500000
20
-14.500000
30
187.503006
70
192
0
VERTEX
8
OBJECT__32
10
0
20
0
30
0
70
128
71
1
72
2
73
3
0
VERTEX
8
OBJECT__32
10
0
20
0
30
0
70
128
71
3
72
4
73
1
0
VERTEX
8
OBJECT__32
10
0
20
0
30
0
70
128
71
3
72
5
73
4
0
SEQEND
8
OBJECT__32
0
POLYLINE
8
OBJECT__33
66
1
70
64
71
20
72
22
62
253
0
VERTEX
8
OBJECT__33
10
7.133000
20
-14.354000
30
195.582001
70
192
0
VERTEX
8
OBJECT__33
10
5.854000
20
-14.354000
30
187.503006
70
192
0
VERTEX
8
OBJECT__33
10
6.000000
20
-14.000000
30
187.503006
70
192
0
VERTEX
8
OBJECT__33
10
7.273000
20
-14.000000
30
195.537003
70
192
0
VERTEX
8
OBJECT__33
10
9.737000
20
-14.000000
30
200.373001
70
192
0
VERTEX
8
OBJECT__33
10
10.847000
20
-14.354000
30
202.871002
70
192
0
VERTEX
8
OBJECT__33
10
16.632000
20
-14.354000
30
208.654999
70
192
0
VERTEX
8
OBJECT__33
10
10.966000
20
-14.000000
30
202.785004
70
192
0
VERTEX
8
OBJECT__33
10
23.920000
20
-14.354000
30
212.369003
70
192
0
VERTEX
8
OBJECT__33
10
19.129000
20
-14.000000
30
209.766006
70
192
0
VERTEX
8
OBJECT__33
10
16.718000
20
-14.000000
30
208.537003
70
192
0
VERTEX
8
OBJECT__33
10
32.000000
20
-14.354000
30
213.649002
70
192
0
VERTEX
8
OBJECT__33
10
23.966000
20
-14.000000
30
212.229996
70
192
0
VERTEX
8
OBJECT__33
10
5.500000
20
-14.500000
30
187.503006
70
192
0
VERTEX
8
OBJECT__33
10
6.797000
20
-14.500000
30
195.692001
70
192
0
VERTEX
8
OBJECT__33
10
16.424000
20
-14.500000
30
208.942001
70
192
0
VERTEX
8
OBJECT__33
10
10.561000
20
-14.500000
30
203.078995
70
192
0
VERTEX
8
OBJECT__33
10
32.000000
20
-14.500000
30
214.003006
70
192
0
VERTEX
8
OBJECT__33
10
23.811001
20
-14.500000
30
212.705994
70
192
0
VERTEX
8
OBJECT__33
10
32.000000
20
-14.000000
30
213.503006
70
192
0
VERTEX
8
OBJECT__33
10
0
20
0
30
0
70
128
71
1
72
2
73
3
0
VERTEX
8
OBJECT__33
10
0
20
0
30
0
70
128
71
1
72
4
73
5
0
VERTEX
8
OBJECT__33
10
0
20
0
30
0
70
128
71
5
72
6
73
1
0
VERTEX
8
OBJECT__33
10
0
20
0
30
0
70
128
71
7
72
6
73
8
0
VERTEX
8
OBJECT__33
10
0
20
0
30
0
70
128
71
9
72
7
73
10
0
VERTEX
8
OBJECT__33
10
0
20
0
30
0
70
128
71
7
72
11
73
10
0
VERTEX
8
OBJECT__33
10
0
20
0
30
0
70
128
71
12
72
9
73
13
0
VERTEX
8
OBJECT__33
10
0
20
0
30
0
70
128
71
14
72
2
73
1
0
VERTEX
8
OBJECT__33
10
0
20
0
30
0
70
128
71
15
72
1
73
6
0
VERTEX
8
OBJECT__33
10
0
20
0
30
0
70
128
71
16
72
17
73
6
0
VERTEX
8
OBJECT__33
10
0
20
0
30
0
70
128
71
16
72
7
73
9
0
VERTEX
8
OBJECT__33
10
0
20
0
30
0
70
128
71
18
72
19
73
9
0
VERTEX
8
OBJECT__33
10
0
20
0
30
0
70
128
71
9
72
12
73
18
0
VERTEX
8
OBJECT__33
10
0
20
0
30
0
70
128
71
9
72
19
73
16
0
VERTEX
8
OBJECT__33
10
0
20
0
30
0
70
128
71
6
72
7
73
16
0
VERTEX
8
OBJECT__33
10
0
20
0
30
0
70
128
71
6
72
17
73
15
0
VERTEX
8
OBJECT__33
10
0
20
0
30
0
70
128
71
1
72
15
73
14
0
VERTEX
8
OBJECT__33
10
0
20
0
30
0
70
128
71
13
72
20
73
12
0
VERTEX
8
OBJECT__33
10
0
20
0
30
0
70
128
71
10
72
13
73
9
0
VERTEX
8
OBJECT__33
10
0
20
0
30
0
70
128
71
8
72
11
73
7
0
VERTEX
8
OBJECT__33
10
0
20
0
30
0
70
128
71
5
72
8
73
6
0
VERTEX
8
OBJECT__33
10
0
20
0
30
0
70
128
71
3
72
4
73
1
0
SEQEND
8
OBJECT__33
0
POLYLINE
8
OBJECT__34
66
1
70
64
71
5
72
3
62
253
0
VERTEX
8
OBJECT__34
10
106.431999
20
-14.500000
30
214.003006
70
192
0
VERTEX
8
OBJECT__34
10
32.000000
20
-14.500000
30
214.003006
70
192
0
VERTEX
8
OBJECT__34
10
32.000000
20
-14.354000
30
213.649002
70
192
0
VERTEX
8
OBJECT__34
10
106.431999
20
-14.000000
30
213.503006
70
192
0
VERTEX
8
OBJECT__34
10
32.000000
20
-14.000000
30
213.503006
70
192
0
VERTEX
8
OBJECT__34
10
0
20
0
30
0
70
128
71
1
72
2
73
3
0
VERTEX
8
OBJECT__34
10
0
20
0
30
0
70
128
71
3
72
4
73
1
0
VERTEX
8
OBJECT__34
10
0
20
0
30
0
70
128
71
3
72
5
73
4
0
SEQEND
8
OBJECT__34
0
POLYLINE
8
OBJECT__35
66
1
70
64
71
4
72
2
62
253
0
VERTEX
8
OBJECT__35
10
32.000000
20
14.000000
30
213.503006
70
192
0
VERTEX
8
OBJECT__35
10
106.431999
20
14.000000
30
213.503006
70
192
0
VERTEX
8
OBJECT__35
10
106.431999
20
-14.000000
30
213.503006
70
192
0
VERTEX
8
OBJECT__35
10
32.000000
20
-14.000000
30
213.503006
70
192
0
VERTEX
8
OBJECT__35
10
0
20
0
30
0
70
128
71
1
72
2
73
3
0
VERTEX
8
OBJECT__35
10
0
20
0
30
0
70
128
71
3
72
4
73
1
0
SEQEND
8
OBJECT__35
0
POLYLINE
8
OBJECT__36
66
1
70
64
71
12
72
10
62
253
0
VERTEX
8
OBJECT__36
10
115.498001
20
14.500000
30
212.404007
70
192
0
VERTEX
8
OBJECT__36
10
115.327003
20
14.000000
30
211.934006
70
192
0
VERTEX
8
OBJECT__36
10
106.431999
20
14.000000
30
213.503006
70
192
0
VERTEX
8
OBJECT__36
10
123.469002
20
14.500000
30
207.800003
70
192
0
VERTEX
8
OBJECT__36
10
123.148003
20
14.000000
30
207.417007
70
192
0
VERTEX
8
OBJECT__36
10
117.928001
20
14.000000
30
210.432007
70
192
0
VERTEX
8
OBJECT__36
10
129.384995
20
14.500000
30
200.746994
70
192
0
VERTEX
8
OBJECT__36
10
127.022003
20
14.000000
30
202.798996
70
192
0
VERTEX
8
OBJECT__36
10
128.951996
20
14.000000
30
200.498001
70
192
0
VERTEX
8
OBJECT__36
10
132.531006
20
14.500000
30
192.097000
70
192
0
VERTEX
8
OBJECT__36
10
132.039001
20
14.000000
30
192.009995
70
192
0
VERTEX
8
OBJECT__36
10
106.431999
20
14.500000
30
214.003006
70
192
0
VERTEX
8
OBJECT__36
10
0
20
0
30
0
70
128
71
1
72
2
73
3
0
VERTEX
8
OBJECT__36
10
0
20
0
30
0
70
128
71
4
72
5
73
6
0
VERTEX
8
OBJECT__36
10
0
20
0
30
0
70
128
71
6
72
1
73
4
0
VERTEX
8
OBJECT__36
10
0
20
0
30
0
70
128
71
4
72
7
73
8
0
VERTEX
8
OBJECT__36
10
0
20
0
30
0
70
128
71
7
72
9
73
8
0
VERTEX
8
OBJECT__36
10
0
20
0
30
0
70
128
71
7
72
10
73
11
0
VERTEX
8
OBJECT__36
10
0
20
0
30
0
70
128
71
11
72
9
73
7
0
VERTEX
8
OBJECT__36
10
0
20
0
30
0
70
128
71
8
72
5
73
4
0
VERTEX
8
OBJECT__36
10
0
20
0
30
0
70
128
71
6
72
2
73
1
0
VERTEX
8
OBJECT__36
10
0
20
0
30
0
70
128
71
3
72
12
73
1
0
SEQEND
8
OBJECT__36
0
POLYLINE
8
OBJECT__37
66
1
70
64
71
12
72
10
62
253
0
VERTEX
8
OBJECT__37
10
115.498001
20
-14.500000
30
212.404007
70
192
0
VERTEX
8
OBJECT__37
10
106.431999
20
-14.500000
30
214.003006
70
192
0
VERTEX
8
OBJECT__37
10
106.431999
20
-14.000000
30
213.503006
70
192
0
VERTEX
8
OBJECT__37
10
123.469002
20
-14.500000
30
207.800003
70
192
0
VERTEX
8
OBJECT__37
10
117.928001
20
-14.000000
30
210.432007
70
192
0
VERTEX
8
OBJECT__37
10
115.327003
20
-14.000000
30
211.934006
70
192
0
VERTEX
8
OBJECT__37
10
123.148003
20
-14.000000
30
207.417007
70
192
0
VERTEX
8
OBJECT__37
10
127.022003
20
-14.000000
30
202.798996
70
192
0
VERTEX
8
OBJECT__37
10
129.384995
20
-14.500000
30
200.746994
70
192
0
VERTEX
8
OBJECT__37
10
128.951996
20
-14.000000
30
200.498001
70
192
0
VERTEX
8
OBJECT__37
10
132.039001
20
-14.000000
30
192.009995
70
192
0
VERTEX
8
OBJECT__37
10
132.531006
20
-14.500000
30
192.097000
70
192
0
VERTEX
8
OBJECT__37
10
0
20
0
30
0
70
128
71
1
72
2
73
3
0
VERTEX
8
OBJECT__37
10
0
20
0
30
0
70
128
71
4
72
1
73
5
0
VERTEX
8
OBJECT__37
10
0
20
0
30
0
70
128
71
1
72
6
73
5
0
VERTEX
8
OBJECT__37
10
0
20
0
30
0
70
128
71
4
72
7
73
8
0
VERTEX
8
OBJECT__37
10
0
20
0
30
0
70
128
71
8
72
9
73
4
0
VERTEX
8
OBJECT__37
10
0
20
0
30
0
70
128
71
9
72
10
73
11
0
VERTEX
8
OBJECT__37
10
0
20
0
30
0
70
128
71
11
72
12
73
9
0
VERTEX
8
OBJECT__37
10
0
20
0
30
0
70
128
71
8
72
10
73
9
0
VERTEX
8
OBJECT__37
10
0
20
0
30
0
70
128
71
5
72
7
73
4
0
VERTEX
8
OBJECT__37
10
0
20
0
30
0
70
128
71
3
72
6
73
1
0
SEQEND
8
OBJECT__37
0
POLYLINE
8
OBJECT__38
66
1
70
64
71
14
72
12
62
253
0
VERTEX
8
OBJECT__38
10
128.951996
20
-14.000000
30
200.498001
70
192
0
VERTEX
8
OBJECT__38
10
128.951996
20
14.000000
30
200.498001
70
192
0
VERTEX
8
OBJECT__38
10
132.039001
20
14.000000
30
192.009995
70
192
0
VERTEX
8
OBJECT__38
10
127.022003
20
14.000000
30
202.798996
70
192
0
VERTEX
8
OBJECT__38
10
127.022003
20
-14.000000
30
202.798996
70
192
0
VERTEX
8
OBJECT__38
10
123.148003
20
14.000000
30
207.417007
70
192
0
VERTEX
8
OBJECT__38
10
123.148003
20
-14.000000
30
207.417007
70
192
0
VERTEX
8
OBJECT__38
10
117.928001
20
-14.000000
30
210.432007
70
192
0
VERTEX
8
OBJECT__38
10
115.327003
20
14.000000
30
211.934006
70
192
0
VERTEX
8
OBJECT__38
10
115.327003
20
-14.000000
30
211.934006
70
192
0
VERTEX
8
OBJECT__38
10
106.431999
20
-14.000000
30
213.503006
70
192
0
VERTEX
8
OBJECT__38
10
117.928001
20
14.000000
30
210.432007
70
192
0
VERTEX
8
OBJECT__38
10
106.431999
20
14.000000
30
213.503006
70
192
0
VERTEX
8
OBJECT__38
10
132.039001
20
-14.000000
30
192.009995
70
192
0
VERTEX
8
OBJECT__38
10
0
20
0
30
0
70
128
71
1
72
2
73
3
0
VERTEX
8
OBJECT__38
10
0
20
0
30
0
70
128
71
4
72
2
73
1
0
VERTEX
8
OBJECT__38
10
0
20
0
30
0
70
128
71
1
72
5
73
4
0
VERTEX
8
OBJECT__38
10
0
20
0
30
0
70
128
71
6
72
7
73
8
0
VERTEX
8
OBJECT__38
10
0
20
0
30
0
70
128
71
7
72
6
73
4
0
VERTEX
8
OBJECT__38
10
0
20
0
30
0
70
128
71
4
72
5
73
7
0
VERTEX
8
OBJECT__38
10
0
20
0
30
0
70
128
71
9
72
10
73
11
0
VERTEX
8
OBJECT__38
10
0
20
0
30
0
70
128
71
8
72
10
73
9
0
VERTEX
8
OBJECT__38
10
0
20
0
30
0
70
128
71
9
72
12
73
8
0
VERTEX
8
OBJECT__38
10
0
20
0
30
0
70
128
71
11
72
13
73
9
0
VERTEX
8
OBJECT__38
10
0
20
0
30
0
70
128
71
8
72
12
73
6
0
VERTEX
8
OBJECT__38
10
0
20
0
30
0
70
128
71
3
72
14
73
1
0
SEQEND
8
OBJECT__38
0
POLYLINE
8
OBJECT__39
66
1
70
64
71
4
72
2
62
253
0
VERTEX
8
OBJECT__39
10
132.531006
20
14.500000
30
192.097000
70
192
0
VERTEX
8
OBJECT__39
10
133.983002
20
14.500000
30
183.847000
70
192
0
VERTEX
8
OBJECT__39
10
133.490997
20
14.000000
30
183.759995
70
192
0
VERTEX
8
OBJECT__39
10
132.039001
20
14.000000
30
192.009995
70
192
0
VERTEX
8
OBJECT__39
10
0
20
0
30
0
70
128
71
1
72
2
73
3
0
VERTEX
8
OBJECT__39
10
0
20
0
30
0
70
128
71
3
72
4
73
1
0
SEQEND
8
OBJECT__39
0
POLYLINE
8
OBJECT__40
66
1
70
64
71
4
72
2
62
253
0
VERTEX
8
OBJECT__40
10
132.531006
20
-14.500000
30
192.097000
70
192
0
VERTEX
8
OBJECT__40
10
132.039001
20
-14.000000
30
192.009995
70
192
0
VERTEX
8
OBJECT__40
10
133.490997
20
-14.000000
30
183.759995
70
192
0
VERTEX
8
OBJECT__40
10
133.983002
20
-14.500000
30
183.847000
70
192
0
VERTEX
8
OBJECT__40
10
0
20
0
30
0
70
128
71
1
72
2
73
3
0
VERTEX
8
OBJECT__40
10
0
20
0
30
0
70
128
71
3
72
4
73
1
0
SEQEND
8
OBJECT__40
0
POLYLINE
8
OBJECT__41
66
1
70
64
71
4
72
2
62
253
0
VERTEX
8
OBJECT__41
10
133.490997
20
14.000000
30
183.759995
70
192
0
VERTEX
8
OBJECT__41
10
133.490997
20
-14.000000
30
183.759995
70
192
0
VERTEX
8
OBJECT__41
10
132.039001
20
-14.000000
30
192.009995
70
192
0
VERTEX
8
OBJECT__41
10
132.039001
20
14.000000
30
192.009995
70
192
0
VERTEX
8
OBJECT__41
10
0
20
0
30
0
70
128
71
1
72
2
73
3
0
VERTEX
8
OBJECT__41
10
0
20
0
30
0
70
128
71
3
72
4
73
1
0
SEQEND
8
OBJECT__41
0
POLYLINE
8
OBJECT__42
66
1
70
64
71
8
72
6
62
253
0
VERTEX
8
OBJECT__42
10
145.309006
20
-14.000000
30
185.839996
70
192
0
VERTEX
8
OBJECT__42
10
144.817001
20
-14.500000
30
185.753006
70
192
0
VERTEX
8
OBJECT__42
10
133.983002
20
-14.500000
30
183.847000
70
192
0
VERTEX
8
OBJECT__42
10
145.309006
20
14.000000
30
185.839996
70
192
0
VERTEX
8
OBJECT__42
10
133.490997
20
-14.000000
30
183.759995
70
192
0
VERTEX
8
OBJECT__42
10
133.490997
20
14.000000
30
183.759995
70
192
0
VERTEX
8
OBJECT__42
10
133.983002
20
14.500000
30
183.847000
70
192
0
VERTEX
8
OBJECT__42
10
144.817001
20
14.500000
30
185.753006
70
192
0
VERTEX
8
OBJECT__42
10
0
20
0
30
0
70
128
71
1
72
2
73
3
0
VERTEX
8
OBJECT__42
10
0
20
0
30
0
70
128
71
4
72
1
73
5
0
VERTEX
8
OBJECT__42
10
0
20
0
30
0
70
128
71
5
72
6
73
4
0
VERTEX
8
OBJECT__42
10
0
20
0
30
0
70
128
71
4
72
6
73
7
0
VERTEX
8
OBJECT__42
10
0
20
0
30
0
70
128
71
7
72
8
73
4
0
VERTEX
8
OBJECT__42
10
0
20
0
30
0
70
128
71
3
72
5
73
1
0
SEQEND
8
OBJECT__42
0
POLYLINE
8
OBJECT__43
66
1
70
64
71
4
72
2
62
253
0
VERTEX
8
OBJECT__43
10
143.365005
20
14.500000
30
194.003006
70
192
0
VERTEX
8
OBJECT__43
10
143.856995
20
14.000000
30
194.089996
70
192
0
VERTEX
8
OBJECT__43
10
145.309006
20
14.000000
30
185.839996
70
192
0
VERTEX
8
OBJECT__43
10
144.817001
20
14.500000
30
185.753006
70
192
0
VERTEX
8
OBJECT__43
10
0
20
0
30
0
70
128
71
1
72
2
73
3
0
VERTEX
8
OBJECT__43
10
0
20
0
30
0
70
128
71
3
72
4
73
1
0
SEQEND
8
OBJECT__43
0
POLYLINE
8
OBJECT__44
66
1
70
64
71
4
72
2
62
253
0
VERTEX
8
OBJECT__44
10
145.309006
20
14.000000
30
185.839996
70
192
0
VERTEX
8
OBJECT__44
10
143.856995
20
14.000000
30
194.089996
70
192
0
VERTEX
8
OBJECT__44
10
143.856995
20
-14.000000
30
194.089996
70
192
0
VERTEX
8
OBJECT__44
10
145.309006
20
-14.000000
30
185.839996
70
192
0
VERTEX
8
OBJECT__44
10
0
20
0
30
0
70
128
71
1
72
2
73
3
0
VERTEX
8
OBJECT__44
10
0
20
0
30
0
70
128
71
3
72
4
73
1
0
SEQEND
8
OBJECT__44
0
POLYLINE
8
OBJECT__45
66
1
70
64
71
4
72
2
62
253
0
VERTEX
8
OBJECT__45
10
143.365005
20
-14.500000
30
194.003006
70
192
0
VERTEX
8
OBJECT__45
10
144.817001
20
-14.500000
30
185.753006
70
192
0
VERTEX
8
OBJECT__45
10
145.309006
20
-14.000000
30
185.839996
70
192
0
VERTEX
8
OBJECT__45
10
143.856995
20
-14.000000
30
194.089996
70
192
0
VERTEX
8
OBJECT__45
10
0
20
0
30
0
70
128
71
1
72
2
73
3
0
VERTEX
8
OBJECT__45
10
0
20
0
30
0
70
128
71
3
72
4
73
1
0
SEQEND
8
OBJECT__45
0
POLYLINE
8
OBJECT__46
66
1
70
64
71
15
72
13
62
253
0
VERTEX
8
OBJECT__46
10
106.431999
20
14.000000
30
225.503006
70
192
0
VERTEX
8
OBJECT__46
10
116.908997
20
14.000000
30
224.029999
70
192
0
VERTEX
8
OBJECT__46
10
116.771004
20
14.500000
30
223.548996
70
192
0
VERTEX
8
OBJECT__46
10
126.307999
20
14.500000
30
219.302002
70
192
0
VERTEX
8
OBJECT__46
10
119.319000
20
14.000000
30
222.957001
70
192
0
VERTEX
8
OBJECT__46
10
126.572998
20
14.000000
30
219.725998
70
192
0
VERTEX
8
OBJECT__46
10
130.625000
20
14.000000
30
216.324997
70
192
0
VERTEX
8
OBJECT__46
10
134.304993
20
14.500000
30
212.589996
70
192
0
VERTEX
8
OBJECT__46
10
134.675995
20
14.000000
30
212.925003
70
192
0
VERTEX
8
OBJECT__46
10
139.115997
20
14.000000
30
206.339996
70
192
0
VERTEX
8
OBJECT__46
10
140.141006
20
14.500000
30
203.934006
70
192
0
VERTEX
8
OBJECT__46
10
140.589996
20
14.000000
30
204.153000
70
192
0
VERTEX
8
OBJECT__46
10
143.856995
20
14.000000
30
194.089996
70
192
0
VERTEX
8
OBJECT__46
10
143.365005
20
14.500000
30
194.003006
70
192
0
VERTEX
8
OBJECT__46
10
106.431999
20
14.500000
30
225.003006
70
192
0
VERTEX
8
OBJECT__46
10
0
20
0
30
0
70
128
71
1
72
2
73
3
0
VERTEX
8
OBJECT__46
10
0
20
0
30
0
70
128
71
4
72
3
73
5
0
VERTEX
8
OBJECT__46
10
0
20
0
30
0
70
128
71
3
72
2
73
5
0
VERTEX
8
OBJECT__46
10
0
20
0
30
0
70
128
71
4
72
6
73
7
0
VERTEX
8
OBJECT__46
10
0
20
0
30
0
70
128
71
7
72
8
73
4
0
VERTEX
8
OBJECT__46
10
0
20
0
30
0
70
128
71
8
72
9
73
10
0
VERTEX
8
OBJECT__46
10
0
20
0
30
0
70
128
71
10
72
11
73
8
0
VERTEX
8
OBJECT__46
10
0
20
0
30
0
70
128
71
12
72
13
73
14
0
VERTEX
8
OBJECT__46
10
0
20
0
30
0
70
128
71
14
72
11
73
12
0
VERTEX
8
OBJECT__46
10
0
20
0
30
0
70
128
71
10
72
12
73
11
0
VERTEX
8
OBJECT__46
10
0
20
0
30
0
70
128
71
7
72
9
73
8
0
VERTEX
8
OBJECT__46
10
0
20
0
30
0
70
128
71
5
72
6
73
4
0
VERTEX
8
OBJECT__46
10
0
20
0
30
0
70
128
71
3
72
15
73
1
0
SEQEND
8
OBJECT__46
0
POLYLINE
8
OBJECT__47
66
1
70
64
71
18
72
16
62
253
0
VERTEX
8
OBJECT__47
10
119.319000
20
14.000000
30
222.957001
70
192
0
VERTEX
8
OBJECT__47
10
116.908997
20
14.000000
30
224.029999
70
192
0
VERTEX
8
OBJECT__47
10
116.908997
20
-14.000000
30
224.029999
70
192
0
VERTEX
8
OBJECT__47
10
106.431999
20
-14.000000
30
225.503006
70
192
0
VERTEX
8
OBJECT__47
10
106.431999
20
14.000000
30
225.503006
70
192
0
VERTEX
8
OBJECT__47
10
130.625000
20
14.000000
30
216.324997
70
192
0
VERTEX
8
OBJECT__47
10
126.572998
20
14.000000
30
219.725998
70
192
0
VERTEX
8
OBJECT__47
10
126.572998
20
-14.000000
30
219.725998
70
192
0
VERTEX
8
OBJECT__47
10
119.319000
20
-14.000000
30
222.957001
70
192
0
VERTEX
8
OBJECT__47
10
139.115997
20
14.000000
30
206.339996
70
192
0
VERTEX
8
OBJECT__47
10
134.675995
20
14.000000
30
212.925003
70
192
0
VERTEX
8
OBJECT__47
10
134.675995
20
-14.000000
30
212.925003
70
192
0
VERTEX
8
OBJECT__47
10
130.625000
20
-14.000000
30
216.324997
70
192
0
VERTEX
8
OBJECT__47
10
139.115997
20
-14.000000
30
206.339996
70
192
0
VERTEX
8
OBJECT__47
10
140.589996
20
-14.000000
30
204.153000
70
192
0
VERTEX
8
OBJECT__47
10
140.589996
20
14.000000
30
204.153000
70
192
0
VERTEX
8
OBJECT__47
10
143.856995
20
-14.000000
30
194.089996
70
192
0
VERTEX
8
OBJECT__47
10
143.856995
20
14.000000
30
194.089996
70
192
0
VERTEX
8
OBJECT__47
10
0
20
0
30
0
70
128
71
1
72
2
73
3
0
VERTEX
8
OBJECT__47
10
0
20
0
30
0
70
128
71
4
72
3
73
2
0
VERTEX
8
OBJECT__47
10
0
20
0
30
0
70
128
71
2
72
5
73
4
0
VERTEX
8
OBJECT__47
10
0
20
0
30
0
70
128
71
6
72
7
73
8
0
VERTEX
8
OBJECT__47
10
0
20
0
30
0
70
128
71
9
72
8
73
7
0
VERTEX
8
OBJECT__47
10
0
20
0
30
0
70
128
71
7
72
1
73
9
0
VERTEX
8
OBJECT__47
10
0
20
0
30
0
70
128
71
10
72
11
73
12
0
VERTEX
8
OBJECT__47
10
0
20
0
30
0
70
128
71
13
72
12
73
11
0
VERTEX
8
OBJECT__47
10
0
20
0
30
0
70
128
71
11
72
6
73
13
0
VERTEX
8
OBJECT__47
10
0
20
0
30
0
70
128
71
14
72
15
73
16
0
VERTEX
8
OBJECT__47
10
0
20
0
30
0
70
128
71
16
72
15
73
17
0
VERTEX
8
OBJECT__47
10
0
20
0
30
0
70
128
71
17
72
18
73
16
0
VERTEX
8
OBJECT__47
10
0
20
0
30
0
70
128
71
16
72
10
73
14
0
VERTEX
8
OBJECT__47
10
0
20
0
30
0
70
128
71
12
72
14
73
10
0
VERTEX
8
OBJECT__47
10
0
20
0
30
0
70
128
71
8
72
13
73
6
0
VERTEX
8
OBJECT__47
10
0
20
0
30
0
70
128
71
3
72
9
73
1
0
SEQEND
8
OBJECT__47
0
POLYLINE
8
OBJECT__48
66
1
70
64
71
15
72
13
62
253
0
VERTEX
8
OBJECT__48
10
106.431999
20
-14.000000
30
225.503006
70
192
0
VERTEX
8
OBJECT__48
10
106.431999
20
-14.500000
30
225.003006
70
192
0
VERTEX
8
OBJECT__48
10
116.771004
20
-14.500000
30
223.548996
70
192
0
VERTEX
8
OBJECT__48
10
126.307999
20
-14.500000
30
219.302002
70
192
0
VERTEX
8
OBJECT__48
10
126.572998
20
-14.000000
30
219.725998
70
192
0
VERTEX
8
OBJECT__48
10
119.319000
20
-14.000000
30
222.957001
70
192
0
VERTEX
8
OBJECT__48
10
134.304993
20
-14.500000
30
212.589996
70
192
0
VERTEX
8
OBJECT__48
10
130.625000
20
-14.000000
30
216.324997
70
192
0
VERTEX
8
OBJECT__48
10
134.675995
20
-14.000000
30
212.925003
70
192
0
VERTEX
8
OBJECT__48
10
140.141006
20
-14.500000
30
203.934006
70
192
0
VERTEX
8
OBJECT__48
10
139.115997
20
-14.000000
30
206.339996
70
192
0
VERTEX
8
OBJECT__48
10
140.589996
20
-14.000000
30
204.153000
70
192
0
VERTEX
8
OBJECT__48
10
143.365005
20
-14.500000
30
194.003006
70
192
0
VERTEX
8
OBJECT__48
10
143.856995
20
-14.000000
30
194.089996
70
192
0
VERTEX
8
OBJECT__48
10
116.908997
20
-14.000000
30
224.029999
70
192
0
VERTEX
8
OBJECT__48
10
0
20
0
30
0
70
128
71
1
72
2
73
3
0
VERTEX
8
OBJECT__48
10
0
20
0
30
0
70
128
71
4
72
5
73
6
0
VERTEX
8
OBJECT__48
10
0
20
0
30
0
70
128
71
6
72
3
73
4
0
VERTEX
8
OBJECT__48
10
0
20
0
30
0
70
128
71
4
72
7
73
8
0
VERTEX
8
OBJECT__48
10
0
20
0
30
0
70
128
71
7
72
9
73
8
0
VERTEX
8
OBJECT__48
10
0
20
0
30
0
70
128
71
7
72
10
73
11
0
VERTEX
8
OBJECT__48
10
0
20
0
30
0
70
128
71
10
72
12
73
11
0
VERTEX
8
OBJECT__48
10
0
20
0
30
0
70
128
71
12
72
10
73
13
0
VERTEX
8
OBJECT__48
10
0
20
0
30
0
70
128
71
13
72
14
73
12
0
VERTEX
8
OBJECT__48
10
0
20
0
30
0
70
128
71
11
72
9
73
7
0
VERTEX
8
OBJECT__48
10
0
20
0
30
0
70
128
71
8
72
5
73
4
0
VERTEX
8
OBJECT__48
10
0
20
0
30
0
70
128
71
6
72
15
73
3
0
VERTEX
8
OBJECT__48
10
0
20
0
30
0
70
128
71
3
72
15
73
1
0
SEQEND
8
OBJECT__48
0
POLYLINE
8
OBJECT__49
66
1
70
64
71
5
72
3
62
253
0
VERTEX
8
OBJECT__49
10
106.431999
20
14.500000
30
225.003006
70
192
0
VERTEX
8
OBJECT__49
10
32.000000
20
14.500000
30
225.003006
70
192
0
VERTEX
8
OBJECT__49
10
32.000000
20
14.354000
30
225.356003
70
192
0
VERTEX
8
OBJECT__49
10
106.431999
20
14.000000
30
225.503006
70
192
0
VERTEX
8
OBJECT__49
10
32.000000
20
14.000000
30
225.503006
70
192
0
VERTEX
8
OBJECT__49
10
0
20
0
30
0
70
128
71
1
72
2
73
3
0
VERTEX
8
OBJECT__49
10
0
20
0
30
0
70
128
71
3
72
4
73
1
0
VERTEX
8
OBJECT__49
10
0
20
0
30
0
70
128
71
3
72
5
73
4
0
SEQEND
8
OBJECT__49
0
POLYLINE
8
OBJECT__50
66
1
70
64
71
28
72
26
62
253
0
VERTEX
8
OBJECT__50
10
5.483000
20
14.500000
30
214.018997
70
192
0
VERTEX
8
OBJECT__50
10
16.424000
20
14.500000
30
208.942001
70
192
0
VERTEX
8
OBJECT__50
10
10.561000
20
14.500000
30
203.078995
70
192
0
VERTEX
8
OBJECT__50
10
-0.476000
20
14.500000
30
206.253006
70
192
0
VERTEX
8
OBJECT__50
10
13.250000
20
14.500000
30
219.979004
70
192
0
VERTEX
8
OBJECT__50
10
22.294001
20
14.500000
30
223.725006
70
192
0
VERTEX
8
OBJECT__50
10
23.811001
20
14.500000
30
212.705994
70
192
0
VERTEX
8
OBJECT__50
10
32.000000
20
14.500000
30
225.003006
70
192
0
VERTEX
8
OBJECT__50
10
32.000000
20
14.500000
30
214.003006
70
192
0
VERTEX
8
OBJECT__50
10
106.431999
20
14.500000
30
225.003006
70
192
0
VERTEX
8
OBJECT__50
10
6.797000
20
14.500000
30
195.692001
70
192
0
VERTEX
8
OBJECT__50
10
106.431999
20
14.500000
30
214.003006
70
192
0
VERTEX
8
OBJECT__50
10
116.771004
20
14.500000
30
223.548996
70
192
0
VERTEX
8
OBJECT__50
10
115.498001
20
14.500000
30
212.404007
70
192
0
VERTEX
8
OBJECT__50
10
-5.500000
20
14.500000
30
106.500000
70
192
0
VERTEX
8
OBJECT__50
10
-5.500000
20
14.500000
30
187.503006
70
192
0
VERTEX
8
OBJECT__50
10
5.500000
20
14.500000
30
187.503006
70
192
0
VERTEX
8
OBJECT__50
10
-4.222000
20
14.500000
30
197.207993
70
192
0
VERTEX
8
OBJECT__50
10
126.307999
20
14.500000
30
219.302002
70
192
0
VERTEX
8
OBJECT__50
10
123.469002
20
14.500000
30
207.800003
70
192
0
VERTEX
8
OBJECT__50
10
140.141006
20
14.500000
30
203.934006
70
192
0
VERTEX
8
OBJECT__50
10
143.365005
20
14.500000
30
194.003006
70
192
0
VERTEX
8
OBJECT__50
10
132.531006
20
14.500000
30
192.097000
70
192
0
VERTEX
8
OBJECT__50
10
133.983002
20
14.500000
30
183.847000
70
192
0
VERTEX
8
OBJECT__50
10
134.304993
20
14.500000
30
212.589996
70
192
0
VERTEX
8
OBJECT__50
10
129.384995
20
14.500000
30
200.746994
70
192
0
VERTEX
8
OBJECT__50
10
144.817001
20
14.500000
30
185.753006
70
192
0
VERTEX
8
OBJECT__50
10
5.500000
20
14.500000
30
106.500000
70
192
0
VERTEX
8
OBJECT__50
10
0
20
0
30
0
70
128
71
1
72
2
73
3
0
VERTEX
8
OBJECT__50
10
0
20
0
30
0
70
128
71
3
72
4
73
1
0
VERTEX
8
OBJECT__50
10
0
20
0
30
0
70
128
71
5
72
6
73
7
0
VERTEX
8
OBJECT__50
10
0
20
0
30
0
70
128
71
6
72
8
73
9
0
VERTEX
8
OBJECT__50
10
0
20
0
30
0
70
128
71
9
72
8
73
10
0
VERTEX
8
OBJECT__50
10
0
20
0
30
0
70
128
71
4
72
3
73
11
0
VERTEX
8
OBJECT__50
10
0
20
0
30
0
70
128
71
7
72
2
73
5
0
VERTEX
8
OBJECT__50
10
0
20
0
30
0
70
128
71
10
72
12
73
9
0
VERTEX
8
OBJECT__50
10
0
20
0
30
0
70
128
71
13
72
14
73
12
0
VERTEX
8
OBJECT__50
10
0
20
0
30
0
70
128
71
15
72
16
73
17
0
VERTEX
8
OBJECT__50
10
0
20
0
30
0
70
128
71
18
72
11
73
17
0
VERTEX
8
OBJECT__50
10
0
20
0
30
0
70
128
71
1
72
5
73
2
0
VERTEX
8
OBJECT__50
10
0
20
0
30
0
70
128
71
12
72
10
73
13
0
VERTEX
8
OBJECT__50
10
0
20
0
30
0
70
128
71
17
72
16
73
18
0
VERTEX
8
OBJECT__50
10
0
20
0
30
0
70
128
71
9
72
7
73
6
0
VERTEX
8
OBJECT__50
10
0
20
0
30
0
70
128
71
19
72
20
73
14
0
VERTEX
8
OBJECT__50
10
0
20
0
30
0
70
128
71
21
72
22
73
23
0
VERTEX
8
OBJECT__50
10
0
20
0
30
0
70
128
71
24
72
23
73
22
0
VERTEX
8
OBJECT__50
10
0
20
0
30
0
70
128
71
11
72
18
73
4
0
VERTEX
8
OBJECT__50
10
0
20
0
30
0
70
128
71
14
72
13
73
19
0
VERTEX
8
OBJECT__50
10
0
20
0
30
0
70
128
71
25
72
21
73
26
0
VERTEX
8
OBJECT__50
10
0
20
0
30
0
70
128
71
22
72
27
73
24
0
VERTEX
8
OBJECT__50
10
0
20
0
30
0
70
128
71
19
72
25
73
20
0
VERTEX
8
OBJECT__50
10
0
20
0
30
0
70
128
71
23
72
26
73
21
0
VERTEX
8
OBJECT__50
10
0
20
0
30
0
70
128
71
26
72
20
73
25
0
VERTEX
8
OBJECT__50
10
0
20
0
30
0
70
128
71
17
72
28
73
15
0
SEQEND
8
OBJECT__50
0
POLYLINE
8
OBJECT__51
66
1
70
64
71
4
72
2
62
253
0
VERTEX
8
OBJECT__51
10
106.431999
20
14.000000
30
225.503006
70
192
0
VERTEX
8
OBJECT__51
10
32.000000
20
14.000000
30
225.503006
70
192
0
VERTEX
8
OBJECT__51
10
32.000000
20
-14.000000
30
225.503006
70
192
0
VERTEX
8
OBJECT__51
10
106.431999
20
-14.000000
30
225.503006
70
192
0
VERTEX
8
OBJECT__51
10
0
20
0
30
0
70
128
71
1
72
2
73
3
0
VERTEX
8
OBJECT__51
10
0
20
0
30
0
70
128
71
3
72
4
73
1
0
SEQEND
8
OBJECT__51
0
POLYLINE
8
OBJECT__52
66
1
70
64
71
23
72
26
62
253
0
VERTEX
8
OBJECT__52
10
-4.705000
20
14.000000
30
197.337997
70
192
0
VERTEX
8
OBJECT__52
10
-4.564000
20
14.354000
30
197.300003
70
192
0
VERTEX
8
OBJECT__52
10
-5.854000
20
14.354000
30
187.503006
70
192
0
VERTEX
8
OBJECT__52
10
-0.782000
20
14.354000
30
206.429001
70
192
0
VERTEX
8
OBJECT__52
10
-2.807000
20
14.000000
30
201.919998
70
192
0
VERTEX
8
OBJECT__52
10
-0.909000
20
14.000000
30
206.503006
70
192
0
VERTEX
8
OBJECT__52
10
5.130000
20
14.000000
30
214.373001
70
192
0
VERTEX
8
OBJECT__52
10
5.233000
20
14.354000
30
214.268997
70
192
0
VERTEX
8
OBJECT__52
10
13.000000
20
14.000000
30
220.412003
70
192
0
VERTEX
8
OBJECT__52
10
13.073000
20
14.354000
30
220.285004
70
192
0
VERTEX
8
OBJECT__52
10
22.202999
20
14.354000
30
224.065994
70
192
0
VERTEX
8
OBJECT__52
10
17.582001
20
14.000000
30
222.309998
70
192
0
VERTEX
8
OBJECT__52
10
22.165001
20
14.000000
30
224.207993
70
192
0
VERTEX
8
OBJECT__52
10
32.000000
20
14.000000
30
225.503006
70
192
0
VERTEX
8
OBJECT__52
10
32.000000
20
14.354000
30
225.356003
70
192
0
VERTEX
8
OBJECT__52
10
-4.222000
20
14.500000
30
197.207993
70
192
0
VERTEX
8
OBJECT__52
10
-5.500000
20
14.500000
30
187.503006
70
192
0
VERTEX
8
OBJECT__52
10
-0.476000
20
14.500000
30
206.253006
70
192
0
VERTEX
8
OBJECT__52
10
5.483000
20
14.500000
30
214.018997
70
192
0
VERTEX
8
OBJECT__52
10
13.250000
20
14.500000
30
219.979004
70
192
0
VERTEX
8
OBJECT__52
10
22.294001
20
14.500000
30
223.725006
70
192
0
VERTEX
8
OBJECT__52
10
32.000000
20
14.500000
30
225.003006
70
192
0
VERTEX
8
OBJECT__52
10
-6.000000
20
14.000000
30
187.503006
70
192
0
VERTEX
8
OBJECT__52
10
0
20
0
30
0
70
128
71
1
72
2
73
3
0
VERTEX
8
OBJECT__52
10
0
20
0
30
0
70
128
71
4
72
2
73
5
0
VERTEX
8
OBJECT__52
10
0
20
0
30
0
70
128
71
2
72
1
73
5
0
VERTEX
8
OBJECT__52
10
0
20
0
30
0
70
128
71
6
72
7
73
8
0
VERTEX
8
OBJECT__52
10
0
20
0
30
0
70
128
71
7
72
9
73
10
0
VERTEX
8
OBJECT__52
10
0
20
0
30
0
70
128
71
11
72
10
73
12
0
VERTEX
8
OBJECT__52
10
0
20
0
30
0
70
128
71
10
72
9
73
12
0
VERTEX
8
OBJECT__52
10
0
20
0
30
0
70
128
71
13
72
14
73
15
0
VERTEX
8
OBJECT__52
10
0
20
0
30
0
70
128
71
2
72
16
73
17
0
VERTEX
8
OBJECT__52
10
0
20
0
30
0
70
128
71
2
72
4
73
18
0
VERTEX
8
OBJECT__52
10
0
20
0
30
0
70
128
71
4
72
8
73
19
0
VERTEX
8
OBJECT__52
10
0
20
0
30
0
70
128
71
10
72
20
73
19
0
VERTEX
8
OBJECT__52
10
0
20
0
30
0
70
128
71
10
72
11
73
21
0
VERTEX
8
OBJECT__52
10
0
20
0
30
0
70
128
71
11
72
15
73
22
0
VERTEX
8
OBJECT__52
10
0
20
0
30
0
70
128
71
22
72
21
73
11
0
VERTEX
8
OBJECT__52
10
0
20
0
30
0
70
128
71
21
72
20
73
10
0
VERTEX
8
OBJECT__52
10
0
20
0
30
0
70
128
71
19
72
8
73
10
0
VERTEX
8
OBJECT__52
10
0
20
0
30
0
70
128
71
19
72
18
73
4
0
VERTEX
8
OBJECT__52
10
0
20
0
30
0
70
128
71
18
72
16
73
2
0
VERTEX
8
OBJECT__52
10
0
20
0
30
0
70
128
71
17
72
3
73
2
0
VERTEX
8
OBJECT__52
10
0
20
0
30
0
70
128
71
15
72
11
73
13
0
VERTEX
8
OBJECT__52
10
0
20
0
30
0
70
128
71
12
72
13
73
11
0
VERTEX
8
OBJECT__52
10
0
20
0
30
0
70
128
71
10
72
8
73
7
0
VERTEX
8
OBJECT__52
10
0
20
0
30
0
70
128
71
8
72
4
73
6
0
VERTEX
8
OBJECT__52
10
0
20
0
30
0
70
128
71
5
72
6
73
4
0
VERTEX
8
OBJECT__52
10
0
20
0
30
0
70
128
71
3
72
23
73
1
0
SEQEND
8
OBJECT__52
0
POLYLINE
8
OBJECT__53
66
1
70
64
71
4
72
2
62
253
0
VERTEX
8
OBJECT__53
10
32.000000
20
-14.000000
30
225.503006
70
192
0
VERTEX
8
OBJECT__53
10
32.000000
20
-14.500000
30
225.003006
70
192
0
VERTEX
8
OBJECT__53
10
106.431999
20
-14.500000
30
225.003006
70
192
0
VERTEX
8
OBJECT__53
10
106.431999
20
-14.000000
30
225.503006
70
192
0
VERTEX
8
OBJECT__53
10
0
20
0
30
0
70
128
71
1
72
2
73
3
0
VERTEX
8
OBJECT__53
10
0
20
0
30
0
70
128
71
3
72
4
73
1
0
SEQEND
8
OBJECT__53
0
POLYLINE
8
OBJECT__54
66
1
70
64
71
28
72
26
62
253
0
VERTEX
8
OBJECT__54
10
5.483000
20
-14.500000
30
214.018997
70
192
0
VERTEX
8
OBJECT__54
10
-0.476000
20
-14.500000
30
206.253006
70
192
0
VERTEX
8
OBJECT__54
10
10.561000
20
-14.500000
30
203.078995
70
192
0
VERTEX
8
OBJECT__54
10
32.000000
20
-14.500000
30
214.003006
70
192
0
VERTEX
8
OBJECT__54
10
106.431999
20
-14.500000
30
214.003006
70
192
0
VERTEX
8
OBJECT__54
10
106.431999
20
-14.500000
30
225.003006
70
192
0
VERTEX
8
OBJECT__54
10
22.294001
20
-14.500000
30
223.725006
70
192
0
VERTEX
8
OBJECT__54
10
23.811001
20
-14.500000
30
212.705994
70
192
0
VERTEX
8
OBJECT__54
10
13.250000
20
-14.500000
30
219.979004
70
192
0
VERTEX
8
OBJECT__54
10
16.424000
20
-14.500000
30
208.942001
70
192
0
VERTEX
8
OBJECT__54
10
116.771004
20
-14.500000
30
223.548996
70
192
0
VERTEX
8
OBJECT__54
10
32.000000
20
-14.500000
30
225.003006
70
192
0
VERTEX
8
OBJECT__54
10
-4.222000
20
-14.500000
30
197.207993
70
192
0
VERTEX
8
OBJECT__54
10
6.797000
20
-14.500000
30
195.692001
70
192
0
VERTEX
8
OBJECT__54
10
-5.500000
20
-14.500000
30
187.503006
70
192
0
VERTEX
8
OBJECT__54
10
5.500000
20
-14.500000
30
187.503006
70
192
0
VERTEX
8
OBJECT__54
10
5.500000
20
-14.500000
30
106.500000
70
192
0
VERTEX
8
OBJECT__54
10
133.983002
20
-14.500000
30
183.847000
70
192
0
VERTEX
8
OBJECT__54
10
144.817001
20
-14.500000
30
185.753006
70
192
0
VERTEX
8
OBJECT__54
10
143.365005
20
-14.500000
30
194.003006
70
192
0
VERTEX
8
OBJECT__54
10
140.141006
20
-14.500000
30
203.934006
70
192
0
VERTEX
8
OBJECT__54
10
129.384995
20
-14.500000
30
200.746994
70
192
0
VERTEX
8
OBJECT__54
10
132.531006
20
-14.500000
30
192.097000
70
192
0
VERTEX
8
OBJECT__54
10
126.307999
20
-14.500000
30
219.302002
70
192
0
VERTEX
8
OBJECT__54
10
115.498001
20
-14.500000
30
212.404007
70
192
0
VERTEX
8
OBJECT__54
10
-5.500000
20
-14.500000
30
106.500000
70
192
0
VERTEX
8
OBJECT__54
10
134.304993
20
-14.500000
30
212.589996
70
192
0
VERTEX
8
OBJECT__54
10
123.469002
20
-14.500000
30
207.800003
70
192
0
VERTEX
8
OBJECT__54
10
0
20
0
30
0
70
128
71
1
72
2
73
3
0
VERTEX
8
OBJECT__54
10
0
20
0
30
0
70
128
71
4
72
5
73
6
0
VERTEX
8
OBJECT__54
10
0
20
0
30
0
70
128
71
7
72
8
73
4
0
VERTEX
8
OBJECT__54
10
0
20
0
30
0
70
128
71
9
72
10
73
8
0
VERTEX
8
OBJECT__54
10
0
20
0
30
0
70
128
71
10
72
9
73
1
0
VERTEX
8
OBJECT__54
10
0
20
0
30
0
70
128
71
11
72
6
73
5
0
VERTEX
8
OBJECT__54
10
0
20
0
30
0
70
128
71
4
72
12
73
7
0
VERTEX
8
OBJECT__54
10
0
20
0
30
0
70
128
71
3
72
10
73
1
0
VERTEX
8
OBJECT__54
10
0
20
0
30
0
70
128
71
2
72
13
73
14
0
VERTEX
8
OBJECT__54
10
0
20
0
30
0
70
128
71
6
72
12
73
4
0
VERTEX
8
OBJECT__54
10
0
20
0
30
0
70
128
71
14
72
3
73
2
0
VERTEX
8
OBJECT__54
10
0
20
0
30
0
70
128
71
13
72
15
73
16
0
VERTEX
8
OBJECT__54
10
0
20
0
30
0
70
128
71
17
72
16
73
15
0
VERTEX
8
OBJECT__54
10
0
20
0
30
0
70
128
71
18
72
19
73
20
0
VERTEX
8
OBJECT__54
10
0
20
0
30
0
70
128
71
21
72
22
73
23
0
VERTEX
8
OBJECT__54
10
0
20
0
30
0
70
128
71
24
72
11
73
25
0
VERTEX
8
OBJECT__54
10
0
20
0
30
0
70
128
71
8
72
7
73
9
0
VERTEX
8
OBJECT__54
10
0
20
0
30
0
70
128
71
15
72
26
73
17
0
VERTEX
8
OBJECT__54
10
0
20
0
30
0
70
128
71
23
72
20
73
21
0
VERTEX
8
OBJECT__54
10
0
20
0
30
0
70
128
71
27
72
28
73
22
0
VERTEX
8
OBJECT__54
10
0
20
0
30
0
70
128
71
28
72
27
73
24
0
VERTEX
8
OBJECT__54
10
0
20
0
30
0
70
128
71
16
72
14
73
13
0
VERTEX
8
OBJECT__54
10
0
20
0
30
0
70
128
71
22
72
21
73
27
0
VERTEX
8
OBJECT__54
10
0
20
0
30
0
70
128
71
5
72
25
73
11
0
VERTEX
8
OBJECT__54
10
0
20
0
30
0
70
128
71
25
72
28
73
24
0
VERTEX
8
OBJECT__54
10
0
20
0
30
0
70
128
71
20
72
23
73
18
0
SEQEND
8
OBJECT__54
0
POLYLINE
8
OBJECT__55
66
1
70
64
71
16
72
14
62
253
0
VERTEX
8
OBJECT__55
10
-4.705000
20
-14.000000
30
197.337997
70
192
0
VERTEX
8
OBJECT__55
10
-6.000000
20
-14.000000
30
187.503006
70
192
0
VERTEX
8
OBJECT__55
10
-5.500000
20
-14.500000
30
187.503006
70
192
0
VERTEX
8
OBJECT__55
10
-4.222000
20
-14.500000
30
197.207993
70
192
0
VERTEX
8
OBJECT__55
10
-0.476000
20
-14.500000
30
206.253006
70
192
0
VERTEX
8
OBJECT__55
10
-2.807000
20
-14.000000
30
201.919998
70
192
0
VERTEX
8
OBJECT__55
10
-0.909000
20
-14.000000
30
206.503006
70
192
0
VERTEX
8
OBJECT__55
10
5.483000
20
-14.500000
30
214.018997
70
192
0
VERTEX
8
OBJECT__55
10
5.130000
20
-14.000000
30
214.373001
70
192
0
VERTEX
8
OBJECT__55
10
13.250000
20
-14.500000
30
219.979004
70
192
0
VERTEX
8
OBJECT__55
10
22.294001
20
-14.500000
30
223.725006
70
192
0
VERTEX
8
OBJECT__55
10
22.165001
20
-14.000000
30
224.207993
70
192
0
VERTEX
8
OBJECT__55
10
17.582001
20
-14.000000
30
222.309998
70
192
0
VERTEX
8
OBJECT__55
10
32.000000
20
-14.500000
30
225.003006
70
192
0
VERTEX
8
OBJECT__55
10
32.000000
20
-14.000000
30
225.503006
70
192
0
VERTEX
8
OBJECT__55
10
13.000000
20
-14.000000
30
220.412003
70
192
0
VERTEX
8
OBJECT__55
10
0
20
0
30
0
70
128
71
1
72
2
73
3
0
VERTEX
8
OBJECT__55
10
0
20
0
30
0
70
128
71
4
72
5
73
6
0
VERTEX
8
OBJECT__55
10
0
20
0
30
0
70
128
71
5
72
7
73
6
0
VERTEX
8
OBJECT__55
10
0
20
0
30
0
70
128
71
7
72
5
73
8
0
VERTEX
8
OBJECT__55
10
0
20
0
30
0
70
128
71
9
72
8
73
10
0
VERTEX
8
OBJECT__55
10
0
20
0
30
0
70
128
71
11
72
12
73
13
0
VERTEX
8
OBJECT__55
10
0
20
0
30
0
70
128
71
13
72
10
73
11
0
VERTEX
8
OBJECT__55
10
0
20
0
30
0
70
128
71
12
72
11
73
14
0
VERTEX
8
OBJECT__55
10
0
20
0
30
0
70
128
71
14
72
15
73
12
0
VERTEX
8
OBJECT__55
10
0
20
0
30
0
70
128
71
13
72
16
73
10
0
VERTEX
8
OBJECT__55
10
0
20
0
30
0
70
128
71
10
72
16
73
9
0
VERTEX
8
OBJECT__55
10
0
20
0
30
0
70
128
71
8
72
9
73
7
0
VERTEX
8
OBJECT__55
10
0
20
0
30
0
70
128
71
6
72
1
73
4
0
VERTEX
8
OBJECT__55
10
0
20
0
30
0
70
128
71
3
72
4
73
1
0
SEQEND
8
OBJECT__55
0
POLYLINE
8
OBJECT__56
66
1
70
64
71
18
72
16
62
253
0
VERTEX
8
OBJECT__56
10
-2.807000
20
14.000000
30
201.919998
70
192
0
VERTEX
8
OBJECT__56
10
-4.705000
20
14.000000
30
197.337997
70
192
0
VERTEX
8
OBJECT__56
10
-4.705000
20
-14.000000
30
197.337997
70
192
0
VERTEX
8
OBJECT__56
10
-6.000000
20
14.000000
30
187.503006
70
192
0
VERTEX
8
OBJECT__56
10
-6.000000
20
-14.000000
30
187.503006
70
192
0
VERTEX
8
OBJECT__56
10
5.130000
20
14.000000
30
214.373001
70
192
0
VERTEX
8
OBJECT__56
10
-0.909000
20
14.000000
30
206.503006
70
192
0
VERTEX
8
OBJECT__56
10
-0.909000
20
-14.000000
30
206.503006
70
192
0
VERTEX
8
OBJECT__56
10
-2.807000
20
-14.000000
30
201.919998
70
192
0
VERTEX
8
OBJECT__56
10
17.582001
20
14.000000
30
222.309998
70
192
0
VERTEX
8
OBJECT__56
10
13.000000
20
14.000000
30
220.412003
70
192
0
VERTEX
8
OBJECT__56
10
13.000000
20
-14.000000
30
220.412003
70
192
0
VERTEX
8
OBJECT__56
10
5.130000
20
-14.000000
30
214.373001
70
192
0
VERTEX
8
OBJECT__56
10
32.000000
20
14.000000
30
225.503006
70
192
0
VERTEX
8
OBJECT__56
10
22.165001
20
14.000000
30
224.207993
70
192
0
VERTEX
8
OBJECT__56
10
22.165001
20
-14.000000
30
224.207993
70
192
0
VERTEX
8
OBJECT__56
10
17.582001
20
-14.000000
30
222.309998
70
192
0
VERTEX
8
OBJECT__56
10
32.000000
20
-14.000000
30
225.503006
70
192
0
VERTEX
8
OBJECT__56
10
0
20
0
30
0
70
128
71
1
72
2
73
3
0
VERTEX
8
OBJECT__56
10
0
20
0
30
0
70
128
71
3
72
2
73
4
0
VERTEX
8
OBJECT__56
10
0
20
0
30
0
70
128
71
4
72
5
73
3
0
VERTEX
8
OBJECT__56
10
0
20
0
30
0
70
128
71
6
72
7
73
8
0
VERTEX
8
OBJECT__56
10
0
20
0
30
0
70
128
71
9
72
8
73
7
0
VERTEX
8
OBJECT__56
10
0
20
0
30
0
70
128
71
7
72
1
73
9
0
VERTEX
8
OBJECT__56
10
0
20
0
30
0
70
128
71
10
72
11
73
12
0
VERTEX
8
OBJECT__56
10
0
20
0
30
0
70
128
71
12
72
11
73
6
0
VERTEX
8
OBJECT__56
10
0
20
0
30
0
70
128
71
6
72
13
73
12
0
VERTEX
8
OBJECT__56
10
0
20
0
30
0
70
128
71
14
72
15
73
16
0
VERTEX
8
OBJECT__56
10
0
20
0
30
0
70
128
71
17
72
16
73
15
0
VERTEX
8
OBJECT__56
10
0
20
0
30
0
70
128
71
15
72
10
73
17
0
VERTEX
8
OBJECT__56
10
0
20
0
30
0
70
128
71
16
72
18
73
14
0
VERTEX
8
OBJECT__56
10
0
20
0
30
0
70
128
71
12
72
17
73
10
0
VERTEX
8
OBJECT__56
10
0
20
0
30
0
70
128
71
8
72
13
73
6
0
VERTEX
8
OBJECT__56
10
0
20
0
30
0
70
128
71
3
72
9
73
1
0
SEQEND
8
OBJECT__56
0
POLYLINE
8
OBJECT__57
66
1
70
64
71
5
72
3
62
253
0
VERTEX
8
OBJECT__57
10
-6.000000
20
14.000000
30
106.500000
70
192
0
VERTEX
8
OBJECT__57
10
-6.000000
20
14.000000
30
187.503006
70
192
0
VERTEX
8
OBJECT__57
10
-5.854000
20
14.354000
30
187.503006
70
192
0
VERTEX
8
OBJECT__57
10
-5.500000
20
14.500000
30
106.500000
70
192
0
VERTEX
8
OBJECT__57
10
-5.500000
20
14.500000
30
187.503006
70
192
0
VERTEX
8
OBJECT__57
10
0
20
0
30
0
70
128
71
1
72
2
73
3
0
VERTEX
8
OBJECT__57
10
0
20
0
30
0
70
128
71
3
72
4
73
1
0
VERTEX
8
OBJECT__57
10
0
20
0
30
0
70
128
71
3
72
5
73
4
0
SEQEND
8
OBJECT__57
0
POLYLINE
8
OBJECT__58
66
1
70
64
71
4
72
2
62
253
0
VERTEX
8
OBJECT__58
10
-6.000000
20
14.000000
30
187.503006
70
192
0
VERTEX
8
OBJECT__58
10
-6.000000
20
14.000000
30
106.500000
70
192
0
VERTEX
8
OBJECT__58
10
-6.000000
20
-14.000000
30
106.500000
70
192
0
VERTEX
8
OBJECT__58
10
-6.000000
20
-14.000000
30
187.503006
70
192
0
VERTEX
8
OBJECT__58
10
0
20
0
30
0
70
128
71
1
72
2
73
3
0
VERTEX
8
OBJECT__58
10
0
20
0
30
0
70
128
71
3
72
4
73
1
0
SEQEND
8
OBJECT__58
0
POLYLINE
8
OBJECT__59
66
1
70
64
71
4
72
2
62
253
0
VERTEX
8
OBJECT__59
10
-5.500000
20
-14.500000
30
106.500000
70
192
0
VERTEX
8
OBJECT__59
10
-5.500000
20
-14.500000
30
187.503006
70
192
0
VERTEX
8
OBJECT__59
10
-6.000000
20
-14.000000
30
187.503006
70
192
0
VERTEX
8
OBJECT__59
10
-6.000000
20
-14.000000
30
106.500000
70
192
0
VERTEX
8
OBJECT__59
10
0
20
0
30
0
70
128
71
1
72
2
73
3
0
VERTEX
8
OBJECT__59
10
0
20
0
30
0
70
128
71
3
72
4
73
1
0
SEQEND
8
OBJECT__59
0
POLYLINE
8
OBJECT__60
66
1
70
64
71
46
72
75
62
253
0
VERTEX
8
OBJECT__60
10
-18.150000
20
48.000000
30
72.199997
70
192
0
VERTEX
8
OBJECT__60
10
-16.580999
20
48.000000
30
79.582001
70
192
0
VERTEX
8
OBJECT__60
10
-12.564000
20
54.120998
30
77.793999
70
192
0
VERTEX
8
OBJECT__60
10
-13.753000
20
54.120998
30
72.199997
70
192
0
VERTEX
8
OBJECT__60
10
-12.145000
20
48.000000
30
85.688004
70
192
0
VERTEX
8
OBJECT__60
10
-9.202000
20
54.120998
30
82.419998
70
192
0
VERTEX
8
OBJECT__60
10
-5.609000
20
48.000000
30
89.461998
70
192
0
VERTEX
8
OBJECT__60
10
-4.250000
20
54.120998
30
85.279999
70
192
0
VERTEX
8
OBJECT__60
10
1.897000
20
48.000000
30
90.250999
70
192
0
VERTEX
8
OBJECT__60
10
1.438000
20
54.120998
30
85.876999
70
192
0
VERTEX
8
OBJECT__60
10
9.075000
20
48.000000
30
87.918999
70
192
0
VERTEX
8
OBJECT__60
10
6.876000
20
54.120998
30
84.110001
70
192
0
VERTEX
8
OBJECT__60
10
14.684000
20
48.000000
30
82.869003
70
192
0
VERTEX
8
OBJECT__60
10
11.126000
20
54.120998
30
80.283997
70
192
0
VERTEX
8
OBJECT__60
10
17.754000
20
48.000000
30
75.973999
70
192
0
VERTEX
8
OBJECT__60
10
13.452000
20
54.120998
30
75.058998
70
192
0
VERTEX
8
OBJECT__60
10
17.754000
20
48.000000
30
68.426003
70
192
0
VERTEX
8
OBJECT__60
10
13.452000
20
54.120998
30
69.341003
70
192
0
VERTEX
8
OBJECT__60
10
14.684000
20
48.000000
30
61.530998
70
192
0
VERTEX
8
OBJECT__60
10
11.126000
20
54.120998
30
64.115997
70
192
0
VERTEX
8
OBJECT__60
10
9.075000
20
48.000000
30
56.480999
70
192
0
VERTEX
8
OBJECT__60
10
6.876000
20
54.120998
30
60.290001
70
192
0
VERTEX
8
OBJECT__60
10
1.897000
20
48.000000
30
54.148998
70
192
0
VERTEX
8
OBJECT__60
10
1.438000
20
54.120998
30
58.522999
70
192
0
VERTEX
8
OBJECT__60
10
-5.609000
20
48.000000
30
54.938000
70
192
0
VERTEX
8
OBJECT__60
10
-4.250000
20
54.120998
30
59.119999
70
192
0
VERTEX
8
OBJECT__60
10
-12.145000
20
48.000000
30
58.712002
70
192
0
VERTEX
8
OBJECT__60
10
-9.202000
20
54.120998
30
61.980000
70
192
0
VERTEX
8
OBJECT__60
10
-16.580999
20
48.000000
30
64.818001
70
192
0
VERTEX
8
OBJECT__60
10
-12.564000
20
54.120998
30
66.606003
70
192
0
VERTEX
8
OBJECT__60
10
-6.762000
20
58.180000
30
75.210999
70
192
0
VERTEX
8
OBJECT__60
10
-7.402000
20
58.180000
30
72.199997
70
192
0
VERTEX
8
OBJECT__60
10
-4.953000
20
58.180000
30
77.700996
70
192
0
VERTEX
8
OBJECT__60
10
-2.287000
20
58.180000
30
79.239998
70
192
0
VERTEX
8
OBJECT__60
10
0.774000
20
58.180000
30
79.560997
70
192
0
VERTEX
8
OBJECT__60
10
3.701000
20
58.180000
30
78.610001
70
192
0
VERTEX
8
OBJECT__60
10
5.988000
20
58.180000
30
76.551003
70
192
0
VERTEX
8
OBJECT__60
10
7.240000
20
58.180000
30
73.738998
70
192
0
VERTEX
8
OBJECT__60
10
7.240000
20
58.180000
30
70.661003
70
192
0
VERTEX
8
OBJECT__60
10
5.988000
20
58.180000
30
67.848999
70
192
0
VERTEX
8
OBJECT__60
10
3.701000
20
58.180000
30
65.790001
70
192
0
VERTEX
8
OBJECT__60
10
0.774000
20
58.180000
30
64.838997
70
192
0
VERTEX
8
OBJECT__60
10
-2.287000
20
58.180000
30
65.160004
70
192
0
VERTEX
8
OBJECT__60
10
-4.953000
20
58.180000
30
66.698997
70
192
0
VERTEX
8
OBJECT__60
10
-6.762000
20
58.180000
30
69.189003
70
192
0
VERTEX
8
OBJECT__60
10
0.000000
20
59.599998
30
72.199997
70
192
0
VERTEX
8
OBJECT__60
10
0
20
0
30
0
70
128
71
1
72
2
73
3
0
VERTEX
8
OBJECT__60
10
0
20
0
30
0
70
128
71
1
72
3
73
4
0
VERTEX
8
OBJECT__60
10
0
20
0
30
0
70
128
71
2
72
5
73
6
0
VERTEX
8
OBJECT__60
10
0
20
0
30
0
70
128
71
2
72
6
73
3
0
VERTEX
8
OBJECT__60
10
0
20
0
30
0
70
128
71
5
72
7
73
8
0
VERTEX
8
OBJECT__60
10
0
20
0
30
0
70
128
71
5
72
8
73
6
0
VERTEX
8
OBJECT__60
10
0
20
0
30
0
70
128
71
7
72
9
73
10
0
VERTEX
8
OBJECT__60
10
0
20
0
30
0
70
128
71
7
72
10
73
8
0
VERTEX
8
OBJECT__60
10
0
20
0
30
0
70
128
71
9
72
11
73
12
0
VERTEX
8
OBJECT__60
10
0
20
0
30
0
70
128
71
9
72
12
73
10
0
VERTEX
8
OBJECT__60
10
0
20
0
30
0
70
128
71
11
72
13
73
14
0
VERTEX
8
OBJECT__60
10
0
20
0
30
0
70
128
71
11
72
14
73
12
0
VERTEX
8
OBJECT__60
10
0
20
0
30
0
70
128
71
13
72
15
73
16
0
VERTEX
8
OBJECT__60
10
0
20
0
30
0
70
128
71
13
72
16
73
14
0
VERTEX
8
OBJECT__60
10
0
20
0
30
0
70
128
71
15
72
17
73
18
0
VERTEX
8
OBJECT__60
10
0
20
0
30
0
70
128
71
15
72
18
73
16
0
VERTEX
8
OBJECT__60
10
0
20
0
30
0
70
128
71
17
72
19
73
20
0
VERTEX
8
OBJECT__60
10
0
20
0
30
0
70
128
71
17
72
20
73
18
0
VERTEX
8
OBJECT__60
10
0
20
0
30
0
70
128
71
19
72
21
73
22
0
VERTEX
8
OBJECT__60
10
0
20
0
30
0
70
128
71
19
72
22
73
20
0
VERTEX
8
OBJECT__60
10
0
20
0
30
0
70
128
71
21
72
23
73
24
0
VERTEX
8
OBJECT__60
10
0
20
0
30
0
70
128
71
21
72
24
73
22
0
VERTEX
8
OBJECT__60
10
0
20
0
30
0
70
128
71
23
72
25
73
26
0
VERTEX
8
OBJECT__60
10
0
20
0
30
0
70
128
71
23
72
26
73
24
0
VERTEX
8
OBJECT__60
10
0
20
0
30
0
70
128
71
25
72
27
73
28
0
VERTEX
8
OBJECT__60
10
0
20
0
30
0
70
128
71
25
72
28
73
26
0
VERTEX
8
OBJECT__60
10
0
20
0
30
0
70
128
71
27
72
29
73
30
0
VERTEX
8
OBJECT__60
10
0
20
0
30
0
70
128
71
27
72
30
73
28
0
VERTEX
8
OBJECT__60
10
0
20
0
30
0
70
128
71
29
72
1
73
4
0
VERTEX
8
OBJECT__60
10
0
20
0
30
0
70
128
71
29
72
4
73
30
0
VERTEX
8
OBJECT__60
10
0
20
0
30
0
70
128
71
4
72
3
73
31
0
VERTEX
8
OBJECT__60
10
0
20
0
30
0
70
128
71
4
72
31
73
32
0
VERTEX
8
OBJECT__60
10
0
20
0
30
0
70
128
71
3
72
6
73
33
0
VERTEX
8
OBJECT__60
10
0
20
0
30
0
70
128
71
3
72
33
73
31
0
VERTEX
8
OBJECT__60
10
0
20
0
30
0
70
128
71
6
72
8
73
34
0
VERTEX
8
OBJECT__60
10
0
20
0
30
0
70
128
71
6
72
34
73
33
0
VERTEX
8
OBJECT__60
10
0
20
0
30
0
70
128
71
8
72
10
73
35
0
VERTEX
8
OBJECT__60
10
0
20
0
30
0
70
128
71
8
72
35
73
34
0
VERTEX
8
OBJECT__60
10
0
20
0
30
0
70
128
71
10
72
12
73
36
0
VERTEX
8
OBJECT__60
10
0
20
0
30
0
70
128
71
10
72
36
73
35
0
VERTEX
8
OBJECT__60
10
0
20
0
30
0
70
128
71
12
72
14
73
37
0
VERTEX
8
OBJECT__60
10
0
20
0
30
0
70
128
71
12
72
37
73
36
0
VERTEX
8
OBJECT__60
10
0
20
0
30
0
70
128
71
14
72
16
73
38
0
VERTEX
8
OBJECT__60
10
0
20
0
30
0
70
128
71
14
72
38
73
37
0
VERTEX
8
OBJECT__60
10
0
20
0
30
0
70
128
71
16
72
18
73
39
0
VERTEX
8
OBJECT__60
10
0
20
0
30
0
70
128
71
16
72
39
73
38
0
VERTEX
8
OBJECT__60
10
0
20
0
30
0
70
128
71
18
72
20
73
40
0
VERTEX
8
OBJECT__60
10
0
20
0
30
0
70
128
71
18
72
40
73
39
0
VERTEX
8
OBJECT__60
10
0
20
0
30
0
70
128
71
20
72
22
73
41
0
VERTEX
8
OBJECT__60
10
0
20
0
30
0
70
128
71
20
72
41
73
40
0
VERTEX
8
OBJECT__60
10
0
20
0
30
0
70
128
71
22
72
24
73
42
0
VERTEX
8
OBJECT__60
10
0
20
0
30
0
70
128
71
22
72
42
73
41
0
VERTEX
8
OBJECT__60
10
0
20
0
30
0
70
128
71
24
72
26
73
43
0
VERTEX
8
OBJECT__60
10
0
20
0
30
0
70
128
71
24
72
43
73
42
0
VERTEX
8
OBJECT__60
10
0
20
0
30
0
70
128
71
26
72
28
73
44
0
VERTEX
8
OBJECT__60
10
0
20
0
30
0
70
128
71
26
72
44
73
43
0
VERTEX
8
OBJECT__60
10
0
20
0
30
0
70
128
71
28
72
30
73
45
0
VERTEX
8
OBJECT__60
10
0
20
0
30
0
70
128
71
28
72
45
73
44
0
VERTEX
8
OBJECT__60
10
0
20
0
30
0
70
128
71
30
72
4
73
32
0
VERTEX
8
OBJECT__60
10
0
20
0
30
0
70
128
71
30
72
32
73
45
0
VERTEX
8
OBJECT__60
10
0
20
0
30
0
70
128
71
32
72
31
73
46
0
VERTEX
8
OBJECT__60
10
0
20
0
30
0
70
128
71
31
72
33
73
46
0
VERTEX
8
OBJECT__60
10
0
20
0
30
0
70
128
71
33
72
34
73
46
0
VERTEX
8
OBJECT__60
10
0
20
0
30
0
70
128
71
34
72
35
73
46
0
VERTEX
8
OBJECT__60
10
0
20
0
30
0
70
128
71
35
72
36
73
46
0
VERTEX
8
OBJECT__60
10
0
20
0
30
0
70
128
71
36
72
37
73
46
0
VERTEX
8
OBJECT__60
10
0
20
0
30
0
70
128
71
37
72
38
73
46
0
VERTEX
8
OBJECT__60
10
0
20
0
30
0
70
128
71
38
72
39
73
46
0
VERTEX
8
OBJECT__60
10
0
20
0
30
0
70
128
71
39
72
40
73
46
0
VERTEX
8
OBJECT__60
10
0
20
0
30
0
70
128
71
40
72
41
73
46
0
VERTEX
8
OBJECT__60
10
0
20
0
30
0
70
128
71
41
72
42
73
46
0
VERTEX
8
OBJECT__60
10
0
20
0
30
0
70
128
71
42
72
43
73
46
0
VERTEX
8
OBJECT__60
10
0
20
0
30
0
70
128
71
43
72
44
73
46
0
VERTEX
8
OBJECT__60
10
0
20
0
30
0
70
128
71
44
72
45
73
46
0
VERTEX
8
OBJECT__60
10
0
20
0
30
0
70
128
71
45
72
32
73
46
0
SEQEND
8
OBJECT__60
0
POLYLINE
8
OBJECT__62
66
1
70
64
71
12
72
10
62
253
0
VERTEX
8
OBJECT__62
10
10.813000
20
48.000000
30
55.375000
70
192
0
VERTEX
8
OBJECT__62
10
-10.813000
20
48.000000
30
55.375000
70
192
0
VERTEX
8
OBJECT__62
10
-18.193001
20
48.000000
30
63.891998
70
192
0
VERTEX
8
OBJECT__62
10
-5.635000
20
48.000000
30
91.389999
70
192
0
VERTEX
8
OBJECT__62
10
5.635000
20
48.000000
30
91.389999
70
192
0
VERTEX
8
OBJECT__62
10
15.115000
20
48.000000
30
85.296997
70
192
0
VERTEX
8
OBJECT__62
10
0.000000
20
48.000000
30
52.200001
70
192
0
VERTEX
8
OBJECT__62
10
19.796000
20
48.000000
30
75.045998
70
192
0
VERTEX
8
OBJECT__62
10
-15.115000
20
48.000000
30
85.296997
70
192
0
VERTEX
8
OBJECT__62
10
-19.796000
20
48.000000
30
75.045998
70
192
0
VERTEX
8
OBJECT__62
10
18.193001
20
48.000000
30
63.891998
70
192
0
VERTEX
8
OBJECT__62
10
20.000000
20
48.000000
30
72.199997
70
192
0
VERTEX
8
OBJECT__62
10
0
20
0
30
0
70
128
71
1
72
2
73
3
0
VERTEX
8
OBJECT__62
10
0
20
0
30
0
70
128
71
4
72
5
73
6
0
VERTEX
8
OBJECT__62
10
0
20
0
30
0
70
128
71
1
72
7
73
2
0
VERTEX
8
OBJECT__62
10
0
20
0
30
0
70
128
71
8
72
9
73
4
0
VERTEX
8
OBJECT__62
10
0
20
0
30
0
70
128
71
10
72
11
73
1
0
VERTEX
8
OBJECT__62
10
0
20
0
30
0
70
128
71
8
72
10
73
9
0
VERTEX
8
OBJECT__62
10
0
20
0
30
0
70
128
71
10
72
12
73
11
0
VERTEX
8
OBJECT__62
10
0
20
0
30
0
70
128
71
6
72
8
73
4
0
VERTEX
8
OBJECT__62
10
0
20
0
30
0
70
128
71
8
72
12
73
10
0
VERTEX
8
OBJECT__62
10
0
20
0
30
0
70
128
71
3
72
10
73
1
0
SEQEND
8
OBJECT__62
0
POLYLINE
8
OBJECT__63
66
1
70
64
71
75
72
75
62
253
0
VERTEX
8
OBJECT__63
10
-19.796000
20
48.000000
30
75.045998
70
192
0
VERTEX
8
OBJECT__63
10
-15.553000
20
14.591000
30
84.774002
70
192
0
VERTEX
8
OBJECT__63
10
-15.073000
20
15.248000
30
85.255997
70
192
0
VERTEX
8
OBJECT__63
10
-18.483999
20
8.036000
30
79.511002
70
192
0
VERTEX
8
OBJECT__63
10
-17.915001
20
9.885000
30
81.089996
70
192
0
VERTEX
8
OBJECT__63
10
-19.672001
20
2.990000
30
75.030998
70
192
0
VERTEX
8
OBJECT__63
10
-19.469999
20
4.832000
30
76.775002
70
192
0
VERTEX
8
OBJECT__63
10
-15.115000
20
48.000000
30
85.296997
70
192
0
VERTEX
8
OBJECT__63
10
-5.931000
20
23.694000
30
91.300003
70
192
0
VERTEX
8
OBJECT__63
10
-5.629000
20
23.787001
30
91.363998
70
192
0
VERTEX
8
OBJECT__63
10
-9.461000
20
21.568001
30
89.820999
70
192
0
VERTEX
8
OBJECT__63
10
-8.635000
20
22.065001
30
90.167000
70
192
0
VERTEX
8
OBJECT__63
10
-12.641000
20
18.572001
30
87.698997
70
192
0
VERTEX
8
OBJECT__63
10
-12.021000
20
19.156000
30
88.112999
70
192
0
VERTEX
8
OBJECT__63
10
-14.729000
20
15.717000
30
85.600998
70
192
0
VERTEX
8
OBJECT__63
10
5.635000
20
48.000000
30
91.389999
70
192
0
VERTEX
8
OBJECT__63
10
1.375000
20
24.931000
30
92.153000
70
192
0
VERTEX
8
OBJECT__63
10
4.607000
20
24.219000
30
91.662003
70
192
0
VERTEX
8
OBJECT__63
10
-5.635000
20
48.000000
30
91.389999
70
192
0
VERTEX
8
OBJECT__63
10
0.006000
20
24.884001
30
92.120003
70
192
0
VERTEX
8
OBJECT__63
10
-2.311000
20
24.804001
30
92.066002
70
192
0
VERTEX
8
OBJECT__63
10
-4.560000
20
24.115000
30
91.589996
70
192
0
VERTEX
8
OBJECT__63
10
15.115000
20
48.000000
30
85.296997
70
192
0
VERTEX
8
OBJECT__63
10
13.688000
20
17.305000
30
86.781998
70
192
0
VERTEX
8
OBJECT__63
10
14.720000
20
15.721000
30
85.598999
70
192
0
VERTEX
8
OBJECT__63
10
10.809000
20
20.440001
30
89.028000
70
192
0
VERTEX
8
OBJECT__63
10
11.995000
20
19.148001
30
88.102997
70
192
0
VERTEX
8
OBJECT__63
10
7.747000
20
22.740999
30
90.639000
70
192
0
VERTEX
8
OBJECT__63
10
8.632000
20
22.076000
30
90.172997
70
192
0
VERTEX
8
OBJECT__63
10
5.616000
20
23.743999
30
91.333000
70
192
0
VERTEX
8
OBJECT__63
10
19.796000
20
48.000000
30
75.045998
70
192
0
VERTEX
8
OBJECT__63
10
18.562000
20
8.035000
30
79.542999
70
192
0
VERTEX
8
OBJECT__63
10
19.632000
20
3.995000
30
76.016998
70
192
0
VERTEX
8
OBJECT__63
10
18.444000
20
8.483000
30
79.934998
70
192
0
VERTEX
8
OBJECT__63
10
16.302999
20
13.293000
30
83.785004
70
192
0
VERTEX
8
OBJECT__63
10
15.040000
20
15.230000
30
85.232002
70
192
0
VERTEX
8
OBJECT__63
10
20.000000
20
48.000000
30
72.199997
70
192
0
VERTEX
8
OBJECT__63
10
18.483999
20
8.036000
30
64.889000
70
192
0
VERTEX
8
OBJECT__63
10
18.132999
20
9.177000
30
63.914001
70
192
0
VERTEX
8
OBJECT__63
10
18.193001
20
48.000000
30
63.891998
70
192
0
VERTEX
8
OBJECT__63
10
19.469999
20
4.832000
30
67.625000
70
192
0
VERTEX
8
OBJECT__63
10
19.726999
20
2.971000
30
75.039001
70
192
0
VERTEX
8
OBJECT__63
10
20.000000
20
0.000000
30
72.199997
70
192
0
VERTEX
8
OBJECT__63
10
12.021000
20
19.157000
30
56.287998
70
192
0
VERTEX
8
OBJECT__63
10
10.764000
20
20.341000
30
55.449001
70
192
0
VERTEX
8
OBJECT__63
10
12.641000
20
18.572001
30
56.701000
70
192
0
VERTEX
8
OBJECT__63
10
15.554000
20
14.591000
30
59.626999
70
192
0
VERTEX
8
OBJECT__63
10
14.729000
20
15.718000
30
58.799000
70
192
0
VERTEX
8
OBJECT__63
10
17.915001
20
9.885000
30
63.310001
70
192
0
VERTEX
8
OBJECT__63
10
0.000000
20
48.000000
30
52.200001
70
192
0
VERTEX
8
OBJECT__63
10
10.813000
20
48.000000
30
55.375000
70
192
0
VERTEX
8
OBJECT__63
10
2.311000
20
24.805000
30
52.334000
70
192
0
VERTEX
8
OBJECT__63
10
5.932000
20
23.694000
30
53.099998
70
192
0
VERTEX
8
OBJECT__63
10
4.560000
20
24.115000
30
52.810001
70
192
0
VERTEX
8
OBJECT__63
10
9.461000
20
21.568001
30
54.578999
70
192
0
VERTEX
8
OBJECT__63
10
8.635000
20
22.066000
30
54.233002
70
192
0
VERTEX
8
OBJECT__63
10
-10.813000
20
48.000000
30
55.375000
70
192
0
VERTEX
8
OBJECT__63
10
-7.747000
20
22.740000
30
53.761002
70
192
0
VERTEX
8
OBJECT__63
10
-8.631000
20
22.075001
30
54.227001
70
192
0
VERTEX
8
OBJECT__63
10
-10.809000
20
20.438999
30
55.372002
70
192
0
VERTEX
8
OBJECT__63
10
-4.607000
20
24.218000
30
52.737999
70
192
0
VERTEX
8
OBJECT__63
10
-1.375000
20
24.931000
30
52.247002
70
192
0
VERTEX
8
OBJECT__63
10
-0.002000
20
24.884001
30
52.279999
70
192
0
VERTEX
8
OBJECT__63
10
-0.006000
20
24.884001
30
52.279999
70
192
0
VERTEX
8
OBJECT__63
10
-18.193001
20
48.000000
30
63.891998
70
192
0
VERTEX
8
OBJECT__63
10
-13.688000
20
17.304001
30
57.618000
70
192
0
VERTEX
8
OBJECT__63
10
-14.720000
20
15.720000
30
58.800999
70
192
0
VERTEX
8
OBJECT__63
10
-16.302999
20
13.292000
30
60.615002
70
192
0
VERTEX
8
OBJECT__63
10
-10.813000
20
20.434999
30
55.375000
70
192
0
VERTEX
8
OBJECT__63
10
-11.995000
20
19.146999
30
56.297001
70
192
0
VERTEX
8
OBJECT__63
10
-19.632000
20
3.995000
30
68.383003
70
192
0
VERTEX
8
OBJECT__63
10
-20.000000
20
0.000000
30
72.199997
70
192
0
VERTEX
8
OBJECT__63
10
-18.563000
20
8.034000
30
64.856003
70
192
0
VERTEX
8
OBJECT__63
10
-18.139999
20
9.164000
30
63.919998
70
192
0
VERTEX
8
OBJECT__63
10
-18.444000
20
8.481000
30
64.466003
70
192
0
VERTEX
8
OBJECT__63
10
0
20
0
30
0
70
128
71
1
72
2
73
3
0
VERTEX
8
OBJECT__63
10
0
20
0
30
0
70
128
71
1
72
4
73
5
0
VERTEX
8
OBJECT__63
10
0
20
0
30
0
70
128
71
1
72
6
73
7
0
VERTEX
8
OBJECT__63
10
0
20
0
30
0
70
128
71
7
72
4
73
1
0
VERTEX
8
OBJECT__63
10
0
20
0
30
0
70
128
71
5
72
2
73
1
0
VERTEX
8
OBJECT__63
10
0
20
0
30
0
70
128
71
8
72
9
73
10
0
VERTEX
8
OBJECT__63
10
0
20
0
30
0
70
128
71
8
72
11
73
12
0
VERTEX
8
OBJECT__63
10
0
20
0
30
0
70
128
71
8
72
13
73
14
0
VERTEX
8
OBJECT__63
10
0
20
0
30
0
70
128
71
8
72
3
73
15
0
VERTEX
8
OBJECT__63
10
0
20
0
30
0
70
128
71
15
72
13
73
8
0
VERTEX
8
OBJECT__63
10
0
20
0
30
0
70
128
71
14
72
11
73
8
0
VERTEX
8
OBJECT__63
10
0
20
0
30
0
70
128
71
12
72
9
73
8
0
VERTEX
8
OBJECT__63
10
0
20
0
30
0
70
128
71
16
72
17
73
18
0
VERTEX
8
OBJECT__63
10
0
20
0
30
0
70
128
71
19
72
20
73
17
0
VERTEX
8
OBJECT__63
10
0
20
0
30
0
70
128
71
19
72
21
73
20
0
VERTEX
8
OBJECT__63
10
0
20
0
30
0
70
128
71
17
72
16
73
19
0
VERTEX
8
OBJECT__63
10
0
20
0
30
0
70
128
71
19
72
10
73
22
0
VERTEX
8
OBJECT__63
10
0
20
0
30
0
70
128
71
22
72
21
73
19
0
VERTEX
8
OBJECT__63
10
0
20
0
30
0
70
128
71
23
72
24
73
25
0
VERTEX
8
OBJECT__63
10
0
20
0
30
0
70
128
71
23
72
26
73
27
0
VERTEX
8
OBJECT__63
10
0
20
0
30
0
70
128
71
27
72
24
73
23
0
VERTEX
8
OBJECT__63
10
0
20
0
30
0
70
128
71
23
72
28
73
29
0
VERTEX
8
OBJECT__63
10
0
20
0
30
0
70
128
71
29
72
26
73
23
0
VERTEX
8
OBJECT__63
10
0
20
0
30
0
70
128
71
23
72
16
73
30
0
VERTEX
8
OBJECT__63
10
0
20
0
30
0
70
128
71
30
72
28
73
23
0
VERTEX
8
OBJECT__63
10
0
20
0
30
0
70
128
71
31
72
32
73
33
0
VERTEX
8
OBJECT__63
10
0
20
0
30
0
70
128
71
31
72
34
73
32
0
VERTEX
8
OBJECT__63
10
0
20
0
30
0
70
128
71
31
72
35
73
34
0
VERTEX
8
OBJECT__63
10
0
20
0
30
0
70
128
71
31
72
23
73
36
0
VERTEX
8
OBJECT__63
10
0
20
0
30
0
70
128
71
36
72
35
73
31
0
VERTEX
8
OBJECT__63
10
0
20
0
30
0
70
128
71
37
72
38
73
39
0
VERTEX
8
OBJECT__63
10
0
20
0
30
0
70
128
71
39
72
40
73
37
0
VERTEX
8
OBJECT__63
10
0
20
0
30
0
70
128
71
41
72
31
73
42
0
VERTEX
8
OBJECT__63
10
0
20
0
30
0
70
128
71
42
72
43
73
41
0
VERTEX
8
OBJECT__63
10
0
20
0
30
0
70
128
71
41
72
38
73
31
0
VERTEX
8
OBJECT__63
10
0
20
0
30
0
70
128
71
40
72
44
73
45
0
VERTEX
8
OBJECT__63
10
0
20
0
30
0
70
128
71
40
72
46
73
44
0
VERTEX
8
OBJECT__63
10
0
20
0
30
0
70
128
71
40
72
47
73
48
0
VERTEX
8
OBJECT__63
10
0
20
0
30
0
70
128
71
40
72
39
73
49
0
VERTEX
8
OBJECT__63
10
0
20
0
30
0
70
128
71
49
72
47
73
40
0
VERTEX
8
OBJECT__63
10
0
20
0
30
0
70
128
71
48
72
46
73
40
0
VERTEX
8
OBJECT__63
10
0
20
0
30
0
70
128
71
50
72
51
73
52
0
VERTEX
8
OBJECT__63
10
0
20
0
30
0
70
128
71
51
72
53
73
54
0
VERTEX
8
OBJECT__63
10
0
20
0
30
0
70
128
71
51
72
55
73
56
0
VERTEX
8
OBJECT__63
10
0
20
0
30
0
70
128
71
51
72
45
73
55
0
VERTEX
8
OBJECT__63
10
0
20
0
30
0
70
128
71
56
72
53
73
51
0
VERTEX
8
OBJECT__63
10
0
20
0
30
0
70
128
71
54
72
52
73
51
0
VERTEX
8
OBJECT__63
10
0
20
0
30
0
70
128
71
57
72
58
73
59
0
VERTEX
8
OBJECT__63
10
0
20
0
30
0
70
128
71
59
72
60
73
57
0
VERTEX
8
OBJECT__63
10
0
20
0
30
0
70
128
71
57
72
61
73
58
0
VERTEX
8
OBJECT__63
10
0
20
0
30
0
70
128
71
57
72
50
73
62
0
VERTEX
8
OBJECT__63
10
0
20
0
30
0
70
128
71
62
72
61
73
57
0
VERTEX
8
OBJECT__63
10
0
20
0
30
0
70
128
71
50
72
63
73
64
0
VERTEX
8
OBJECT__63
10
0
20
0
30
0
70
128
71
64
72
62
73
50
0
VERTEX
8
OBJECT__63
10
0
20
0
30
0
70
128
71
65
72
66
73
67
0
VERTEX
8
OBJECT__63
10
0
20
0
30
0
70
128
71
67
72
68
73
65
0
VERTEX
8
OBJECT__63
10
0
20
0
30
0
70
128
71
65
72
57
73
69
0
VERTEX
8
OBJECT__63
10
0
20
0
30
0
70
128
71
69
72
70
73
65
0
VERTEX
8
OBJECT__63
10
0
20
0
30
0
70
128
71
70
72
66
73
65
0
VERTEX
8
OBJECT__63
10
0
20
0
30
0
70
128
71
71
72
72
73
6
0
VERTEX
8
OBJECT__63
10
0
20
0
30
0
70
128
71
1
72
73
73
71
0
VERTEX
8
OBJECT__63
10
0
20
0
30
0
70
128
71
1
72
65
73
74
0
VERTEX
8
OBJECT__63
10
0
20
0
30
0
70
128
71
74
72
75
73
1
0
VERTEX
8
OBJECT__63
10
0
20
0
30
0
70
128
71
75
72
73
73
1
0
VERTEX
8
OBJECT__63
10
0
20
0
30
0
70
128
71
6
72
1
73
71
0
VERTEX
8
OBJECT__63
10
0
20
0
30
0
70
128
71
68
72
74
73
65
0
VERTEX
8
OBJECT__63
10
0
20
0
30
0
70
128
71
60
72
69
73
57
0
VERTEX
8
OBJECT__63
10
0
20
0
30
0
70
128
71
52
72
63
73
50
0
VERTEX
8
OBJECT__63
10
0
20
0
30
0
70
128
71
45
72
51
73
40
0
VERTEX
8
OBJECT__63
10
0
20
0
30
0
70
128
71
37
72
31
73
38
0
VERTEX
8
OBJECT__63
10
0
20
0
30
0
70
128
71
33
72
42
73
31
0
VERTEX
8
OBJECT__63
10
0
20
0
30
0
70
128
71
25
72
36
73
23
0
VERTEX
8
OBJECT__63
10
0
20
0
30
0
70
128
71
18
72
30
73
16
0
VERTEX
8
OBJECT__63
10
0
20
0
30
0
70
128
71
10
72
19
73
8
0
VERTEX
8
OBJECT__63
10
0
20
0
30
0
70
128
71
3
72
8
73
1
0
SEQEND
8
OBJECT__63
0
POLYLINE
8
OBJECT__65
66
1
70
64
71
74
72
84
62
253
0
VERTEX
8
OBJECT__65
10
-4.183000
20
20.941000
30
51.258999
70
192
0
VERTEX
8
OBJECT__65
10
0.000000
20
21.464001
30
50.736000
70
192
0
VERTEX
8
OBJECT__65
10
-2.311000
20
19.865999
30
47.396000
70
192
0
VERTEX
8
OBJECT__65
10
0.006000
20
19.920000
30
47.316002
70
192
0
VERTEX
8
OBJECT__65
10
-4.607000
20
24.218000
30
52.737999
70
192
0
VERTEX
8
OBJECT__65
10
-1.375000
20
24.931000
30
52.247002
70
192
0
VERTEX
8
OBJECT__65
10
18.540001
20
7.676000
30
64.524002
70
192
0
VERTEX
8
OBJECT__65
10
19.632000
20
3.817000
30
68.205002
70
192
0
VERTEX
8
OBJECT__65
10
19.090000
20
5.605000
30
66.156998
70
192
0
VERTEX
8
OBJECT__65
10
20.000000
20
0.000000
30
72.199997
70
192
0
VERTEX
8
OBJECT__65
10
18.483999
20
8.036000
30
64.889000
70
192
0
VERTEX
8
OBJECT__65
10
19.469999
20
4.832000
30
67.625000
70
192
0
VERTEX
8
OBJECT__65
10
-18.540001
20
7.676000
30
64.524002
70
192
0
VERTEX
8
OBJECT__65
10
-14.473000
20
14.428000
30
57.771999
70
192
0
VERTEX
8
OBJECT__65
10
-17.915001
20
8.890000
30
62.314999
70
192
0
VERTEX
8
OBJECT__65
10
-16.724001
20
10.748000
30
59.942001
70
192
0
VERTEX
8
OBJECT__65
10
-14.729000
20
13.401000
30
56.483002
70
192
0
VERTEX
8
OBJECT__65
10
-15.553000
20
12.574000
30
57.609001
70
192
0
VERTEX
8
OBJECT__65
10
-8.108000
20
19.457001
30
52.743000
70
192
0
VERTEX
8
OBJECT__65
10
-9.461000
20
17.621000
30
50.632000
70
192
0
VERTEX
8
OBJECT__65
10
-12.021000
20
15.913000
30
53.043999
70
192
0
VERTEX
8
OBJECT__65
10
-8.635000
20
17.966999
30
50.134998
70
192
0
VERTEX
8
OBJECT__65
10
-5.931000
20
19.100000
30
48.506001
70
192
0
VERTEX
8
OBJECT__65
10
-8.276000
20
18.117001
30
49.918999
70
192
0
VERTEX
8
OBJECT__65
10
-4.560000
20
19.389999
30
48.084999
70
192
0
VERTEX
8
OBJECT__65
10
-11.569000
20
17.218000
30
54.981998
70
192
0
VERTEX
8
OBJECT__65
10
-12.641000
20
15.499000
30
53.627998
70
192
0
VERTEX
8
OBJECT__65
10
-18.483999
20
7.311000
30
64.164001
70
192
0
VERTEX
8
OBJECT__65
10
-19.469999
20
4.575000
30
67.367996
70
192
0
VERTEX
8
OBJECT__65
10
-18.139999
20
9.164000
30
63.919998
70
192
0
VERTEX
8
OBJECT__65
10
-16.302999
20
13.292000
30
60.615002
70
192
0
VERTEX
8
OBJECT__65
10
-18.444000
20
8.481000
30
64.466003
70
192
0
VERTEX
8
OBJECT__65
10
-18.563000
20
8.034000
30
64.856003
70
192
0
VERTEX
8
OBJECT__65
10
-10.813000
20
20.434999
30
55.375000
70
192
0
VERTEX
8
OBJECT__65
10
-10.809000
20
20.438999
30
55.372002
70
192
0
VERTEX
8
OBJECT__65
10
-11.995000
20
19.146999
30
56.297001
70
192
0
VERTEX
8
OBJECT__65
10
-7.747000
20
22.740000
30
53.761002
70
192
0
VERTEX
8
OBJECT__65
10
-8.631000
20
22.075001
30
54.227001
70
192
0
VERTEX
8
OBJECT__65
10
-14.720000
20
15.720000
30
58.800999
70
192
0
VERTEX
8
OBJECT__65
10
-13.688000
20
17.304001
30
57.618000
70
192
0
VERTEX
8
OBJECT__65
10
-20.000000
20
0.000000
30
72.199997
70
192
0
VERTEX
8
OBJECT__65
10
-19.632000
20
3.995000
30
68.383003
70
192
0
VERTEX
8
OBJECT__65
10
14.473000
20
14.428000
30
57.771999
70
192
0
VERTEX
8
OBJECT__65
10
11.569000
20
17.218000
30
54.981998
70
192
0
VERTEX
8
OBJECT__65
10
12.641000
20
18.572001
30
56.701000
70
192
0
VERTEX
8
OBJECT__65
10
12.021000
20
19.157000
30
56.287998
70
192
0
VERTEX
8
OBJECT__65
10
17.915001
20
9.885000
30
63.310001
70
192
0
VERTEX
8
OBJECT__65
10
14.729000
20
15.718000
30
58.799000
70
192
0
VERTEX
8
OBJECT__65
10
15.554000
20
14.591000
30
59.626999
70
192
0
VERTEX
8
OBJECT__65
10
18.132999
20
9.177000
30
63.914001
70
192
0
VERTEX
8
OBJECT__65
10
8.108000
20
19.457001
30
52.743000
70
192
0
VERTEX
8
OBJECT__65
10
4.183000
20
20.941000
30
51.258999
70
192
0
VERTEX
8
OBJECT__65
10
5.932000
20
23.694000
30
53.099998
70
192
0
VERTEX
8
OBJECT__65
10
4.560000
20
24.115000
30
52.810001
70
192
0
VERTEX
8
OBJECT__65
10
10.764000
20
20.341000
30
55.449001
70
192
0
VERTEX
8
OBJECT__65
10
8.635000
20
22.066000
30
54.233002
70
192
0
VERTEX
8
OBJECT__65
10
9.461000
20
21.568001
30
54.578999
70
192
0
VERTEX
8
OBJECT__65
10
2.311000
20
24.805000
30
52.334000
70
192
0
VERTEX
8
OBJECT__65
10
2.335000
20
24.743999
30
52.335999
70
192
0
VERTEX
8
OBJECT__65
10
-0.002000
20
24.884001
30
52.279999
70
192
0
VERTEX
8
OBJECT__65
10
-0.006000
20
24.884001
30
52.279999
70
192
0
VERTEX
8
OBJECT__65
10
14.720000
20
13.399000
30
56.479000
70
192
0
VERTEX
8
OBJECT__65
10
13.688000
20
14.582000
30
54.895000
70
192
0
VERTEX
8
OBJECT__65
10
13.062000
20
15.070000
30
54.214001
70
192
0
VERTEX
8
OBJECT__65
10
18.444000
20
7.735000
30
63.716999
70
192
0
VERTEX
8
OBJECT__65
10
16.302999
20
11.585000
30
58.907001
70
192
0
VERTEX
8
OBJECT__65
10
18.562000
20
7.343000
30
64.165001
70
192
0
VERTEX
8
OBJECT__65
10
7.747000
20
18.438999
30
49.459000
70
192
0
VERTEX
8
OBJECT__65
10
8.632000
20
17.973000
30
50.124001
70
192
0
VERTEX
8
OBJECT__65
10
11.995000
20
15.903000
30
53.051998
70
192
0
VERTEX
8
OBJECT__65
10
10.809000
20
16.827999
30
51.759998
70
192
0
VERTEX
8
OBJECT__65
10
2.836000
20
19.731001
30
47.591000
70
192
0
VERTEX
8
OBJECT__65
10
1.375000
20
19.952999
30
47.269001
70
192
0
VERTEX
8
OBJECT__65
10
4.607000
20
19.462000
30
47.980999
70
192
0
VERTEX
8
OBJECT__65
10
0
20
0
30
0
70
128
71
1
72
2
73
3
0
VERTEX
8
OBJECT__65
10
0
20
0
30
0
70
128
71
2
72
4
73
3
0
VERTEX
8
OBJECT__65
10
0
20
0
30
0
70
128
71
1
72
5
73
6
0
VERTEX
8
OBJECT__65
10
0
20
0
30
0
70
128
71
6
72
2
73
1
0
VERTEX
8
OBJECT__65
10
0
20
0
30
0
70
128
71
7
72
8
73
9
0
VERTEX
8
OBJECT__65
10
0
20
0
30
0
70
128
71
7
72
10
73
8
0
VERTEX
8
OBJECT__65
10
0
20
0
30
0
70
128
71
7
72
11
73
12
0
VERTEX
8
OBJECT__65
10
0
20
0
30
0
70
128
71
13
72
14
73
15
0
VERTEX
8
OBJECT__65
10
0
20
0
30
0
70
128
71
14
72
16
73
15
0
VERTEX
8
OBJECT__65
10
0
20
0
30
0
70
128
71
14
72
17
73
18
0
VERTEX
8
OBJECT__65
10
0
20
0
30
0
70
128
71
18
72
16
73
14
0
VERTEX
8
OBJECT__65
10
0
20
0
30
0
70
128
71
19
72
20
73
21
0
VERTEX
8
OBJECT__65
10
0
20
0
30
0
70
128
71
19
72
22
73
20
0
VERTEX
8
OBJECT__65
10
0
20
0
30
0
70
128
71
1
72
23
73
24
0
VERTEX
8
OBJECT__65
10
0
20
0
30
0
70
128
71
1
72
25
73
23
0
VERTEX
8
OBJECT__65
10
0
20
0
30
0
70
128
71
24
72
19
73
1
0
VERTEX
8
OBJECT__65
10
0
20
0
30
0
70
128
71
14
72
26
73
27
0
VERTEX
8
OBJECT__65
10
0
20
0
30
0
70
128
71
26
72
21
73
27
0
VERTEX
8
OBJECT__65
10
0
20
0
30
0
70
128
71
13
72
28
73
29
0
VERTEX
8
OBJECT__65
10
0
20
0
30
0
70
128
71
14
72
13
73
30
0
VERTEX
8
OBJECT__65
10
0
20
0
30
0
70
128
71
30
72
31
73
14
0
VERTEX
8
OBJECT__65
10
0
20
0
30
0
70
128
71
13
72
32
73
30
0
VERTEX
8
OBJECT__65
10
0
20
0
30
0
70
128
71
13
72
33
73
32
0
VERTEX
8
OBJECT__65
10
0
20
0
30
0
70
128
71
19
72
34
73
35
0
VERTEX
8
OBJECT__65
10
0
20
0
30
0
70
128
71
26
72
36
73
34
0
VERTEX
8
OBJECT__65
10
0
20
0
30
0
70
128
71
34
72
19
73
26
0
VERTEX
8
OBJECT__65
10
0
20
0
30
0
70
128
71
1
72
19
73
37
0
VERTEX
8
OBJECT__65
10
0
20
0
30
0
70
128
71
19
72
38
73
37
0
VERTEX
8
OBJECT__65
10
0
20
0
30
0
70
128
71
14
72
39
73
40
0
VERTEX
8
OBJECT__65
10
0
20
0
30
0
70
128
71
40
72
26
73
14
0
VERTEX
8
OBJECT__65
10
0
20
0
30
0
70
128
71
13
72
41
73
42
0
VERTEX
8
OBJECT__65
10
0
20
0
30
0
70
128
71
43
72
44
73
45
0
VERTEX
8
OBJECT__65
10
0
20
0
30
0
70
128
71
44
72
46
73
45
0
VERTEX
8
OBJECT__65
10
0
20
0
30
0
70
128
71
7
72
43
73
47
0
VERTEX
8
OBJECT__65
10
0
20
0
30
0
70
128
71
43
72
48
73
49
0
VERTEX
8
OBJECT__65
10
0
20
0
30
0
70
128
71
49
72
47
73
43
0
VERTEX
8
OBJECT__65
10
0
20
0
30
0
70
128
71
47
72
50
73
7
0
VERTEX
8
OBJECT__65
10
0
20
0
30
0
70
128
71
51
72
52
73
53
0
VERTEX
8
OBJECT__65
10
0
20
0
30
0
70
128
71
52
72
54
73
53
0
VERTEX
8
OBJECT__65
10
0
20
0
30
0
70
128
71
44
72
51
73
55
0
VERTEX
8
OBJECT__65
10
0
20
0
30
0
70
128
71
51
72
56
73
57
0
VERTEX
8
OBJECT__65
10
0
20
0
30
0
70
128
71
57
72
55
73
51
0
VERTEX
8
OBJECT__65
10
0
20
0
30
0
70
128
71
58
72
54
73
59
0
VERTEX
8
OBJECT__65
10
0
20
0
30
0
70
128
71
52
72
2
73
59
0
VERTEX
8
OBJECT__65
10
0
20
0
30
0
70
128
71
2
72
60
73
59
0
VERTEX
8
OBJECT__65
10
0
20
0
30
0
70
128
71
2
72
61
73
60
0
VERTEX
8
OBJECT__65
10
0
20
0
30
0
70
128
71
59
72
54
73
52
0
VERTEX
8
OBJECT__65
10
0
20
0
30
0
70
128
71
59
72
60
73
58
0
VERTEX
8
OBJECT__65
10
0
20
0
30
0
70
128
71
43
72
62
73
63
0
VERTEX
8
OBJECT__65
10
0
20
0
30
0
70
128
71
63
72
44
73
43
0
VERTEX
8
OBJECT__65
10
0
20
0
30
0
70
128
71
63
72
64
73
44
0
VERTEX
8
OBJECT__65
10
0
20
0
30
0
70
128
71
7
72
65
73
66
0
VERTEX
8
OBJECT__65
10
0
20
0
30
0
70
128
71
66
72
43
73
7
0
VERTEX
8
OBJECT__65
10
0
20
0
30
0
70
128
71
7
72
67
73
65
0
VERTEX
8
OBJECT__65
10
0
20
0
30
0
70
128
71
52
72
51
73
68
0
VERTEX
8
OBJECT__65
10
0
20
0
30
0
70
128
71
51
72
69
73
68
0
VERTEX
8
OBJECT__65
10
0
20
0
30
0
70
128
71
44
72
70
73
71
0
VERTEX
8
OBJECT__65
10
0
20
0
30
0
70
128
71
71
72
51
73
44
0
VERTEX
8
OBJECT__65
10
0
20
0
30
0
70
128
71
2
72
52
73
72
0
VERTEX
8
OBJECT__65
10
0
20
0
30
0
70
128
71
72
72
73
73
2
0
VERTEX
8
OBJECT__65
10
0
20
0
30
0
70
128
71
52
72
74
73
72
0
VERTEX
8
OBJECT__65
10
0
20
0
30
0
70
128
71
73
72
4
73
2
0
VERTEX
8
OBJECT__65
10
0
20
0
30
0
70
128
71
71
72
69
73
51
0
VERTEX
8
OBJECT__65
10
0
20
0
30
0
70
128
71
68
72
74
73
52
0
VERTEX
8
OBJECT__65
10
0
20
0
30
0
70
128
71
66
72
62
73
43
0
VERTEX
8
OBJECT__65
10
0
20
0
30
0
70
128
71
64
72
70
73
44
0
VERTEX
8
OBJECT__65
10
0
20
0
30
0
70
128
71
55
72
46
73
44
0
VERTEX
8
OBJECT__65
10
0
20
0
30
0
70
128
71
53
72
56
73
51
0
VERTEX
8
OBJECT__65
10
0
20
0
30
0
70
128
71
50
72
11
73
7
0
VERTEX
8
OBJECT__65
10
0
20
0
30
0
70
128
71
45
72
48
73
43
0
VERTEX
8
OBJECT__65
10
0
20
0
30
0
70
128
71
42
72
33
73
13
0
VERTEX
8
OBJECT__65
10
0
20
0
30
0
70
128
71
40
72
36
73
26
0
VERTEX
8
OBJECT__65
10
0
20
0
30
0
70
128
71
37
72
5
73
1
0
VERTEX
8
OBJECT__65
10
0
20
0
30
0
70
128
71
35
72
38
73
19
0
VERTEX
8
OBJECT__65
10
0
20
0
30
0
70
128
71
31
72
39
73
14
0
VERTEX
8
OBJECT__65
10
0
20
0
30
0
70
128
71
29
72
41
73
13
0
VERTEX
8
OBJECT__65
10
0
20
0
30
0
70
128
71
27
72
17
73
14
0
VERTEX
8
OBJECT__65
10
0
20
0
30
0
70
128
71
24
72
22
73
19
0
VERTEX
8
OBJECT__65
10
0
20
0
30
0
70
128
71
21
72
26
73
19
0
VERTEX
8
OBJECT__65
10
0
20
0
30
0
70
128
71
15
72
28
73
13
0
VERTEX
8
OBJECT__65
10
0
20
0
30
0
70
128
71
12
72
10
73
7
0
VERTEX
8
OBJECT__65
10
0
20
0
30
0
70
128
71
9
72
67
73
7
0
VERTEX
8
OBJECT__65
10
0
20
0
30
0
70
128
71
6
72
61
73
2
0
VERTEX
8
OBJECT__65
10
0
20
0
30
0
70
128
71
3
72
25
73
1
0
SEQEND
8
OBJECT__65
0
POLYLINE
8
OBJECT__66
66
1
70
64
71
74
72
83
62
253
0
VERTEX
8
OBJECT__66
10
-4.183000
20
20.941000
30
93.140999
70
192
0
VERTEX
8
OBJECT__66
10
0.000000
20
21.464001
30
93.664001
70
192
0
VERTEX
8
OBJECT__66
10
-2.311000
20
24.804001
30
92.066002
70
192
0
VERTEX
8
OBJECT__66
10
0.006000
20
24.884001
30
92.120003
70
192
0
VERTEX
8
OBJECT__66
10
-4.607000
20
19.462000
30
96.417999
70
192
0
VERTEX
8
OBJECT__66
10
-1.375000
20
19.952999
30
97.130997
70
192
0
VERTEX
8
OBJECT__66
10
18.540001
20
7.676000
30
79.875999
70
192
0
VERTEX
8
OBJECT__66
10
20.000000
20
0.000000
30
72.199997
70
192
0
VERTEX
8
OBJECT__66
10
19.726999
20
2.971000
30
75.039001
70
192
0
VERTEX
8
OBJECT__66
10
19.632000
20
3.995000
30
76.016998
70
192
0
VERTEX
8
OBJECT__66
10
18.483999
20
7.311000
30
80.236000
70
192
0
VERTEX
8
OBJECT__66
10
19.099001
20
5.603000
30
78.236000
70
192
0
VERTEX
8
OBJECT__66
10
19.469999
20
4.575000
30
77.031998
70
192
0
VERTEX
8
OBJECT__66
10
-18.540001
20
7.676000
30
79.875999
70
192
0
VERTEX
8
OBJECT__66
10
-14.473000
20
14.428000
30
86.627998
70
192
0
VERTEX
8
OBJECT__66
10
-17.915001
20
9.885000
30
81.089996
70
192
0
VERTEX
8
OBJECT__66
10
-15.073000
20
15.248000
30
85.255997
70
192
0
VERTEX
8
OBJECT__66
10
-15.553000
20
14.591000
30
84.774002
70
192
0
VERTEX
8
OBJECT__66
10
-14.729000
20
15.717000
30
85.600998
70
192
0
VERTEX
8
OBJECT__66
10
-8.108000
20
19.457001
30
91.656998
70
192
0
VERTEX
8
OBJECT__66
10
-9.461000
20
21.568001
30
89.820999
70
192
0
VERTEX
8
OBJECT__66
10
-12.021000
20
19.156000
30
88.112999
70
192
0
VERTEX
8
OBJECT__66
10
-8.635000
20
22.065001
30
90.167000
70
192
0
VERTEX
8
OBJECT__66
10
-5.931000
20
23.694000
30
91.300003
70
192
0
VERTEX
8
OBJECT__66
10
-5.629000
20
23.787001
30
91.363998
70
192
0
VERTEX
8
OBJECT__66
10
-4.560000
20
24.115000
30
91.589996
70
192
0
VERTEX
8
OBJECT__66
10
-11.569000
20
17.218000
30
89.417999
70
192
0
VERTEX
8
OBJECT__66
10
-12.641000
20
18.572001
30
87.698997
70
192
0
VERTEX
8
OBJECT__66
10
-19.469999
20
4.832000
30
76.775002
70
192
0
VERTEX
8
OBJECT__66
10
-19.672001
20
2.990000
30
75.030998
70
192
0
VERTEX
8
OBJECT__66
10
-18.483999
20
8.036000
30
79.511002
70
192
0
VERTEX
8
OBJECT__66
10
-16.754999
20
10.773000
30
84.477997
70
192
0
VERTEX
8
OBJECT__66
10
-16.302999
20
11.585000
30
85.491997
70
192
0
VERTEX
8
OBJECT__66
10
-18.444000
20
7.734000
30
80.681000
70
192
0
VERTEX
8
OBJECT__66
10
-18.563000
20
7.344000
30
80.234001
70
192
0
VERTEX
8
OBJECT__66
10
-11.995000
20
15.903000
30
91.347000
70
192
0
VERTEX
8
OBJECT__66
10
-10.809000
20
16.827999
30
92.639000
70
192
0
VERTEX
8
OBJECT__66
10
-7.747000
20
18.438999
30
94.940002
70
192
0
VERTEX
8
OBJECT__66
10
-8.288000
20
18.153999
30
94.532997
70
192
0
VERTEX
8
OBJECT__66
10
-8.631000
20
17.973000
30
94.275002
70
192
0
VERTEX
8
OBJECT__66
10
-14.720000
20
13.399000
30
87.919998
70
192
0
VERTEX
8
OBJECT__66
10
-13.688000
20
14.582000
30
89.503998
70
192
0
VERTEX
8
OBJECT__66
10
-20.000000
20
0.000000
30
72.199997
70
192
0
VERTEX
8
OBJECT__66
10
-19.632000
20
3.817000
30
76.195000
70
192
0
VERTEX
8
OBJECT__66
10
14.473000
20
14.428000
30
86.627998
70
192
0
VERTEX
8
OBJECT__66
10
11.569000
20
17.218000
30
89.417999
70
192
0
VERTEX
8
OBJECT__66
10
13.060000
20
15.077000
30
90.198997
70
192
0
VERTEX
8
OBJECT__66
10
12.021000
20
15.912000
30
91.357002
70
192
0
VERTEX
8
OBJECT__66
10
12.641000
20
15.499000
30
90.772003
70
192
0
VERTEX
8
OBJECT__66
10
17.915001
20
8.890000
30
82.084999
70
192
0
VERTEX
8
OBJECT__66
10
14.729000
20
13.401000
30
87.917999
70
192
0
VERTEX
8
OBJECT__66
10
15.554000
20
12.573000
30
86.791000
70
192
0
VERTEX
8
OBJECT__66
10
8.108000
20
19.457001
30
91.656998
70
192
0
VERTEX
8
OBJECT__66
10
4.183000
20
20.941000
30
93.140999
70
192
0
VERTEX
8
OBJECT__66
10
5.932000
20
19.100000
30
95.893997
70
192
0
VERTEX
8
OBJECT__66
10
4.560000
20
19.389999
30
96.315002
70
192
0
VERTEX
8
OBJECT__66
10
9.461000
20
17.621000
30
93.767998
70
192
0
VERTEX
8
OBJECT__66
10
8.635000
20
17.966999
30
94.265999
70
192
0
VERTEX
8
OBJECT__66
10
2.838000
20
19.754999
30
96.843002
70
192
0
VERTEX
8
OBJECT__66
10
-0.006000
20
19.920000
30
97.084000
70
192
0
VERTEX
8
OBJECT__66
10
2.311000
20
19.865999
30
97.004997
70
192
0
VERTEX
8
OBJECT__66
10
14.720000
20
15.721000
30
85.598999
70
192
0
VERTEX
8
OBJECT__66
10
13.688000
20
17.305000
30
86.781998
70
192
0
VERTEX
8
OBJECT__66
10
18.444000
20
8.483000
30
79.934998
70
192
0
VERTEX
8
OBJECT__66
10
16.302999
20
13.293000
30
83.785004
70
192
0
VERTEX
8
OBJECT__66
10
15.040000
20
15.230000
30
85.232002
70
192
0
VERTEX
8
OBJECT__66
10
18.562000
20
8.035000
30
79.542999
70
192
0
VERTEX
8
OBJECT__66
10
7.747000
20
22.740999
30
90.639000
70
192
0
VERTEX
8
OBJECT__66
10
8.632000
20
22.076000
30
90.172997
70
192
0
VERTEX
8
OBJECT__66
10
5.616000
20
23.743999
30
91.333000
70
192
0
VERTEX
8
OBJECT__66
10
11.995000
20
19.148001
30
88.102997
70
192
0
VERTEX
8
OBJECT__66
10
10.809000
20
20.440001
30
89.028000
70
192
0
VERTEX
8
OBJECT__66
10
4.607000
20
24.219000
30
91.662003
70
192
0
VERTEX
8
OBJECT__66
10
1.375000
20
24.931000
30
92.153000
70
192
0
VERTEX
8
OBJECT__66
10
0
20
0
30
0
70
128
71
1
72
2
73
3
0
VERTEX
8
OBJECT__66
10
0
20
0
30
0
70
128
71
2
72
4
73
3
0
VERTEX
8
OBJECT__66
10
0
20
0
30
0
70
128
71
1
72
5
73
6
0
VERTEX
8
OBJECT__66
10
0
20
0
30
0
70
128
71
6
72
2
73
1
0
VERTEX
8
OBJECT__66
10
0
20
0
30
0
70
128
71
7
72
8
73
9
0
VERTEX
8
OBJECT__66
10
0
20
0
30
0
70
128
71
9
72
10
73
7
0
VERTEX
8
OBJECT__66
10
0
20
0
30
0
70
128
71
7
72
11
73
12
0
VERTEX
8
OBJECT__66
10
0
20
0
30
0
70
128
71
12
72
13
73
7
0
VERTEX
8
OBJECT__66
10
0
20
0
30
0
70
128
71
14
72
15
73
16
0
VERTEX
8
OBJECT__66
10
0
20
0
30
0
70
128
71
15
72
17
73
18
0
VERTEX
8
OBJECT__66
10
0
20
0
30
0
70
128
71
18
72
16
73
15
0
VERTEX
8
OBJECT__66
10
0
20
0
30
0
70
128
71
15
72
19
73
17
0
VERTEX
8
OBJECT__66
10
0
20
0
30
0
70
128
71
20
72
21
73
22
0
VERTEX
8
OBJECT__66
10
0
20
0
30
0
70
128
71
20
72
23
73
21
0
VERTEX
8
OBJECT__66
10
0
20
0
30
0
70
128
71
20
72
1
73
24
0
VERTEX
8
OBJECT__66
10
0
20
0
30
0
70
128
71
1
72
25
73
24
0
VERTEX
8
OBJECT__66
10
0
20
0
30
0
70
128
71
1
72
26
73
25
0
VERTEX
8
OBJECT__66
10
0
20
0
30
0
70
128
71
15
72
27
73
28
0
VERTEX
8
OBJECT__66
10
0
20
0
30
0
70
128
71
27
72
22
73
28
0
VERTEX
8
OBJECT__66
10
0
20
0
30
0
70
128
71
14
72
29
73
30
0
VERTEX
8
OBJECT__66
10
0
20
0
30
0
70
128
71
14
72
31
73
29
0
VERTEX
8
OBJECT__66
10
0
20
0
30
0
70
128
71
15
72
32
73
33
0
VERTEX
8
OBJECT__66
10
0
20
0
30
0
70
128
71
14
72
34
73
32
0
VERTEX
8
OBJECT__66
10
0
20
0
30
0
70
128
71
32
72
15
73
14
0
VERTEX
8
OBJECT__66
10
0
20
0
30
0
70
128
71
14
72
35
73
34
0
VERTEX
8
OBJECT__66
10
0
20
0
30
0
70
128
71
27
72
36
73
37
0
VERTEX
8
OBJECT__66
10
0
20
0
30
0
70
128
71
37
72
20
73
27
0
VERTEX
8
OBJECT__66
10
0
20
0
30
0
70
128
71
1
72
20
73
38
0
VERTEX
8
OBJECT__66
10
0
20
0
30
0
70
128
71
20
72
39
73
38
0
VERTEX
8
OBJECT__66
10
0
20
0
30
0
70
128
71
20
72
40
73
39
0
VERTEX
8
OBJECT__66
10
0
20
0
30
0
70
128
71
15
72
41
73
42
0
VERTEX
8
OBJECT__66
10
0
20
0
30
0
70
128
71
42
72
27
73
15
0
VERTEX
8
OBJECT__66
10
0
20
0
30
0
70
128
71
14
72
43
73
44
0
VERTEX
8
OBJECT__66
10
0
20
0
30
0
70
128
71
45
72
46
73
47
0
VERTEX
8
OBJECT__66
10
0
20
0
30
0
70
128
71
46
72
48
73
49
0
VERTEX
8
OBJECT__66
10
0
20
0
30
0
70
128
71
49
72
47
73
46
0
VERTEX
8
OBJECT__66
10
0
20
0
30
0
70
128
71
7
72
45
73
50
0
VERTEX
8
OBJECT__66
10
0
20
0
30
0
70
128
71
45
72
51
73
52
0
VERTEX
8
OBJECT__66
10
0
20
0
30
0
70
128
71
52
72
50
73
45
0
VERTEX
8
OBJECT__66
10
0
20
0
30
0
70
128
71
53
72
54
73
55
0
VERTEX
8
OBJECT__66
10
0
20
0
30
0
70
128
71
54
72
56
73
55
0
VERTEX
8
OBJECT__66
10
0
20
0
30
0
70
128
71
53
72
57
73
48
0
VERTEX
8
OBJECT__66
10
0
20
0
30
0
70
128
71
53
72
58
73
57
0
VERTEX
8
OBJECT__66
10
0
20
0
30
0
70
128
71
54
72
2
73
59
0
VERTEX
8
OBJECT__66
10
0
20
0
30
0
70
128
71
2
72
60
73
61
0
VERTEX
8
OBJECT__66
10
0
20
0
30
0
70
128
71
61
72
59
73
2
0
VERTEX
8
OBJECT__66
10
0
20
0
30
0
70
128
71
45
72
62
73
63
0
VERTEX
8
OBJECT__66
10
0
20
0
30
0
70
128
71
63
72
46
73
45
0
VERTEX
8
OBJECT__66
10
0
20
0
30
0
70
128
71
7
72
64
73
65
0
VERTEX
8
OBJECT__66
10
0
20
0
30
0
70
128
71
65
72
45
73
7
0
VERTEX
8
OBJECT__66
10
0
20
0
30
0
70
128
71
65
72
66
73
45
0
VERTEX
8
OBJECT__66
10
0
20
0
30
0
70
128
71
7
72
67
73
64
0
VERTEX
8
OBJECT__66
10
0
20
0
30
0
70
128
71
54
72
53
73
68
0
VERTEX
8
OBJECT__66
10
0
20
0
30
0
70
128
71
53
72
69
73
68
0
VERTEX
8
OBJECT__66
10
0
20
0
30
0
70
128
71
68
72
70
73
54
0
VERTEX
8
OBJECT__66
10
0
20
0
30
0
70
128
71
46
72
71
73
72
0
VERTEX
8
OBJECT__66
10
0
20
0
30
0
70
128
71
72
72
53
73
46
0
VERTEX
8
OBJECT__66
10
0
20
0
30
0
70
128
71
54
72
73
73
74
0
VERTEX
8
OBJECT__66
10
0
20
0
30
0
70
128
71
74
72
2
73
54
0
VERTEX
8
OBJECT__66
10
0
20
0
30
0
70
128
71
74
72
4
73
2
0
VERTEX
8
OBJECT__66
10
0
20
0
30
0
70
128
71
72
72
69
73
53
0
VERTEX
8
OBJECT__66
10
0
20
0
30
0
70
128
71
70
72
73
73
54
0
VERTEX
8
OBJECT__66
10
0
20
0
30
0
70
128
71
66
72
62
73
45
0
VERTEX
8
OBJECT__66
10
0
20
0
30
0
70
128
71
63
72
71
73
46
0
VERTEX
8
OBJECT__66
10
0
20
0
30
0
70
128
71
59
72
56
73
54
0
VERTEX
8
OBJECT__66
10
0
20
0
30
0
70
128
71
48
72
46
73
53
0
VERTEX
8
OBJECT__66
10
0
20
0
30
0
70
128
71
55
72
58
73
53
0
VERTEX
8
OBJECT__66
10
0
20
0
30
0
70
128
71
50
72
11
73
7
0
VERTEX
8
OBJECT__66
10
0
20
0
30
0
70
128
71
47
72
51
73
45
0
VERTEX
8
OBJECT__66
10
0
20
0
30
0
70
128
71
44
72
35
73
14
0
VERTEX
8
OBJECT__66
10
0
20
0
30
0
70
128
71
42
72
36
73
27
0
VERTEX
8
OBJECT__66
10
0
20
0
30
0
70
128
71
38
72
5
73
1
0
VERTEX
8
OBJECT__66
10
0
20
0
30
0
70
128
71
37
72
40
73
20
0
VERTEX
8
OBJECT__66
10
0
20
0
30
0
70
128
71
33
72
41
73
15
0
VERTEX
8
OBJECT__66
10
0
20
0
30
0
70
128
71
30
72
43
73
14
0
VERTEX
8
OBJECT__66
10
0
20
0
30
0
70
128
71
28
72
19
73
15
0
VERTEX
8
OBJECT__66
10
0
20
0
30
0
70
128
71
24
72
23
73
20
0
VERTEX
8
OBJECT__66
10
0
20
0
30
0
70
128
71
22
72
27
73
20
0
VERTEX
8
OBJECT__66
10
0
20
0
30
0
70
128
71
16
72
31
73
14
0
VERTEX
8
OBJECT__66
10
0
20
0
30
0
70
128
71
13
72
8
73
7
0
VERTEX
8
OBJECT__66
10
0
20
0
30
0
70
128
71
10
72
67
73
7
0
VERTEX
8
OBJECT__66
10
0
20
0
30
0
70
128
71
6
72
60
73
2
0
VERTEX
8
OBJECT__66
10
0
20
0
30
0
70
128
71
3
72
26
73
1
0
SEQEND
8
OBJECT__66
0
POLYLINE
8
OBJECT__67
66
1
70
64
71
86
72
88
62
253
0
VERTEX
8
OBJECT__67
10
13.097000
20
-15.115000
30
106.500000
70
192
0
VERTEX
8
OBJECT__67
10
13.097000
20
-15.115000
30
2.500000
70
192
0
VERTEX
8
OBJECT__67
10
19.190001
20
-5.635000
30
2.500000
70
192
0
VERTEX
8
OBJECT__67
10
2.846000
20
-19.796000
30
106.500000
70
192
0
VERTEX
8
OBJECT__67
10
2.846000
20
-19.796000
30
2.500000
70
192
0
VERTEX
8
OBJECT__67
10
-8.308000
20
-18.193001
30
106.500000
70
192
0
VERTEX
8
OBJECT__67
10
-8.308000
20
-18.193001
30
2.500000
70
192
0
VERTEX
8
OBJECT__67
10
-16.825001
20
-10.813000
30
106.500000
70
192
0
VERTEX
8
OBJECT__67
10
-16.825001
20
-10.813000
30
2.500000
70
192
0
VERTEX
8
OBJECT__67
10
-20.000000
20
0.000000
30
72.199997
70
192
0
VERTEX
8
OBJECT__67
10
-20.000000
20
0.000000
30
106.500000
70
192
0
VERTEX
8
OBJECT__67
10
19.190001
20
5.635000
30
106.500000
70
192
0
VERTEX
8
OBJECT__67
10
14.729000
20
13.401000
30
87.917999
70
192
0
VERTEX
8
OBJECT__67
10
13.060000
20
15.077000
30
90.198997
70
192
0
VERTEX
8
OBJECT__67
10
15.554000
20
12.573000
30
86.791000
70
192
0
VERTEX
8
OBJECT__67
10
19.099001
20
5.603000
30
78.236000
70
192
0
VERTEX
8
OBJECT__67
10
18.483999
20
7.311000
30
80.236000
70
192
0
VERTEX
8
OBJECT__67
10
17.915001
20
8.890000
30
82.084999
70
192
0
VERTEX
8
OBJECT__67
10
2.846000
20
19.796000
30
106.500000
70
192
0
VERTEX
8
OBJECT__67
10
13.097000
20
15.115000
30
106.500000
70
192
0
VERTEX
8
OBJECT__67
10
4.560000
20
19.389999
30
96.315002
70
192
0
VERTEX
8
OBJECT__67
10
5.932000
20
19.100000
30
95.893997
70
192
0
VERTEX
8
OBJECT__67
10
9.461000
20
17.621000
30
93.767998
70
192
0
VERTEX
8
OBJECT__67
10
8.635000
20
17.966999
30
94.265999
70
192
0
VERTEX
8
OBJECT__67
10
12.641000
20
15.499000
30
90.772003
70
192
0
VERTEX
8
OBJECT__67
10
12.021000
20
15.912000
30
91.357002
70
192
0
VERTEX
8
OBJECT__67
10
-8.308000
20
18.193001
30
106.500000
70
192
0
VERTEX
8
OBJECT__67
10
-4.607000
20
19.462000
30
96.417999
70
192
0
VERTEX
8
OBJECT__67
10
-7.747000
20
18.438999
30
94.940002
70
192
0
VERTEX
8
OBJECT__67
10
-1.375000
20
19.952999
30
97.130997
70
192
0
VERTEX
8
OBJECT__67
10
2.311000
20
19.865999
30
97.004997
70
192
0
VERTEX
8
OBJECT__67
10
-0.006000
20
19.920000
30
97.084000
70
192
0
VERTEX
8
OBJECT__67
10
2.838000
20
19.754999
30
96.843002
70
192
0
VERTEX
8
OBJECT__67
10
-16.825001
20
10.813000
30
106.500000
70
192
0
VERTEX
8
OBJECT__67
10
-13.688000
20
14.582000
30
89.503998
70
192
0
VERTEX
8
OBJECT__67
10
-14.720000
20
13.399000
30
87.919998
70
192
0
VERTEX
8
OBJECT__67
10
-16.302999
20
11.585000
30
85.491997
70
192
0
VERTEX
8
OBJECT__67
10
-10.809000
20
16.827999
30
92.639000
70
192
0
VERTEX
8
OBJECT__67
10
-11.995000
20
15.903000
30
91.347000
70
192
0
VERTEX
8
OBJECT__67
10
-8.288000
20
18.153999
30
94.532997
70
192
0
VERTEX
8
OBJECT__67
10
-8.631000
20
17.973000
30
94.275002
70
192
0
VERTEX
8
OBJECT__67
10
-18.563000
20
7.344000
30
80.234001
70
192
0
VERTEX
8
OBJECT__67
10
-19.632000
20
3.817000
30
76.195000
70
192
0
VERTEX
8
OBJECT__67
10
-16.754999
20
10.773000
30
84.477997
70
192
0
VERTEX
8
OBJECT__67
10
-18.444000
20
7.734000
30
80.681000
70
192
0
VERTEX
8
OBJECT__67
10
-20.000000
20
0.000000
30
2.500000
70
192
0
VERTEX
8
OBJECT__67
10
-17.915001
20
8.890000
30
62.314999
70
192
0
VERTEX
8
OBJECT__67
10
-16.724001
20
10.748000
30
59.942001
70
192
0
VERTEX
8
OBJECT__67
10
-18.483999
20
7.311000
30
64.164001
70
192
0
VERTEX
8
OBJECT__67
10
-19.469999
20
4.575000
30
67.367996
70
192
0
VERTEX
8
OBJECT__67
10
-16.825001
20
10.813000
30
2.500000
70
192
0
VERTEX
8
OBJECT__67
10
-8.635000
20
17.966999
30
50.134998
70
192
0
VERTEX
8
OBJECT__67
10
-8.276000
20
18.117001
30
49.918999
70
192
0
VERTEX
8
OBJECT__67
10
-9.461000
20
17.621000
30
50.632000
70
192
0
VERTEX
8
OBJECT__67
10
-12.641000
20
15.499000
30
53.627998
70
192
0
VERTEX
8
OBJECT__67
10
-12.021000
20
15.913000
30
53.043999
70
192
0
VERTEX
8
OBJECT__67
10
-15.553000
20
12.574000
30
57.609001
70
192
0
VERTEX
8
OBJECT__67
10
-14.729000
20
13.401000
30
56.483002
70
192
0
VERTEX
8
OBJECT__67
10
2.846000
20
19.796000
30
2.500000
70
192
0
VERTEX
8
OBJECT__67
10
-8.308000
20
18.193001
30
2.500000
70
192
0
VERTEX
8
OBJECT__67
10
-2.311000
20
19.865999
30
47.396000
70
192
0
VERTEX
8
OBJECT__67
10
0.006000
20
19.920000
30
47.316002
70
192
0
VERTEX
8
OBJECT__67
10
1.375000
20
19.952999
30
47.269001
70
192
0
VERTEX
8
OBJECT__67
10
-5.931000
20
19.100000
30
48.506001
70
192
0
VERTEX
8
OBJECT__67
10
-4.560000
20
19.389999
30
48.084999
70
192
0
VERTEX
8
OBJECT__67
10
13.097000
20
15.115000
30
2.500000
70
192
0
VERTEX
8
OBJECT__67
10
10.809000
20
16.827999
30
51.759998
70
192
0
VERTEX
8
OBJECT__67
10
11.995000
20
15.903000
30
53.051998
70
192
0
VERTEX
8
OBJECT__67
10
7.747000
20
18.438999
30
49.459000
70
192
0
VERTEX
8
OBJECT__67
10
8.632000
20
17.973000
30
50.124001
70
192
0
VERTEX
8
OBJECT__67
10
4.607000
20
19.462000
30
47.980999
70
192
0
VERTEX
8
OBJECT__67
10
2.836000
20
19.731001
30
47.591000
70
192
0
VERTEX
8
OBJECT__67
10
19.190001
20
5.635000
30
2.500000
70
192
0
VERTEX
8
OBJECT__67
10
18.444000
20
7.735000
30
63.716999
70
192
0
VERTEX
8
OBJECT__67
10
18.562000
20
7.343000
30
64.165001
70
192
0
VERTEX
8
OBJECT__67
10
16.302999
20
11.585000
30
58.907001
70
192
0
VERTEX
8
OBJECT__67
10
13.688000
20
14.582000
30
54.895000
70
192
0
VERTEX
8
OBJECT__67
10
14.720000
20
13.399000
30
56.479000
70
192
0
VERTEX
8
OBJECT__67
10
13.062000
20
15.070000
30
54.214001
70
192
0
VERTEX
8
OBJECT__67
10
20.000000
20
0.000000
30
106.500000
70
192
0
VERTEX
8
OBJECT__67
10
19.469999
20
4.575000
30
77.031998
70
192
0
VERTEX
8
OBJECT__67
10
20.000000
20
0.000000
30
72.199997
70
192
0
VERTEX
8
OBJECT__67
10
20.000000
20
0.000000
30
2.500000
70
192
0
VERTEX
8
OBJECT__67
10
19.090000
20
5.605000
30
66.156998
70
192
0
VERTEX
8
OBJECT__67
10
19.632000
20
3.817000
30
68.205002
70
192
0
VERTEX
8
OBJECT__67
10
19.190001
20
-5.635000
30
106.500000
70
192
0
VERTEX
8
OBJECT__67
10
0
20
0
30
0
70
128
71
1
72
2
73
3
0
VERTEX
8
OBJECT__67
10
0
20
0
30
0
70
128
71
4
72
5
73
2
0
VERTEX
8
OBJECT__67
10
0
20
0
30
0
70
128
71
6
72
7
73
5
0
VERTEX
8
OBJECT__67
10
0
20
0
30
0
70
128
71
8
72
9
73
7
0
VERTEX
8
OBJECT__67
10
0
20
0
30
0
70
128
71
9
72
8
73
10
0
VERTEX
8
OBJECT__67
10
0
20
0
30
0
70
128
71
8
72
11
73
10
0
VERTEX
8
OBJECT__67
10
0
20
0
30
0
70
128
71
12
72
13
73
14
0
VERTEX
8
OBJECT__67
10
0
20
0
30
0
70
128
71
12
72
15
73
13
0
VERTEX
8
OBJECT__67
10
0
20
0
30
0
70
128
71
12
72
16
73
17
0
VERTEX
8
OBJECT__67
10
0
20
0
30
0
70
128
71
17
72
18
73
12
0
VERTEX
8
OBJECT__67
10
0
20
0
30
0
70
128
71
18
72
15
73
12
0
VERTEX
8
OBJECT__67
10
0
20
0
30
0
70
128
71
19
72
20
73
21
0
VERTEX
8
OBJECT__67
10
0
20
0
30
0
70
128
71
20
72
22
73
21
0
VERTEX
8
OBJECT__67
10
0
20
0
30
0
70
128
71
20
72
23
73
24
0
VERTEX
8
OBJECT__67
10
0
20
0
30
0
70
128
71
20
72
25
73
26
0
VERTEX
8
OBJECT__67
10
0
20
0
30
0
70
128
71
20
72
14
73
25
0
VERTEX
8
OBJECT__67
10
0
20
0
30
0
70
128
71
26
72
23
73
20
0
VERTEX
8
OBJECT__67
10
0
20
0
30
0
70
128
71
24
72
22
73
20
0
VERTEX
8
OBJECT__67
10
0
20
0
30
0
70
128
71
27
72
28
73
29
0
VERTEX
8
OBJECT__67
10
0
20
0
30
0
70
128
71
27
72
19
73
30
0
VERTEX
8
OBJECT__67
10
0
20
0
30
0
70
128
71
30
72
28
73
27
0
VERTEX
8
OBJECT__67
10
0
20
0
30
0
70
128
71
19
72
31
73
32
0
VERTEX
8
OBJECT__67
10
0
20
0
30
0
70
128
71
32
72
30
73
19
0
VERTEX
8
OBJECT__67
10
0
20
0
30
0
70
128
71
19
72
33
73
31
0
VERTEX
8
OBJECT__67
10
0
20
0
30
0
70
128
71
34
72
35
73
36
0
VERTEX
8
OBJECT__67
10
0
20
0
30
0
70
128
71
36
72
37
73
34
0
VERTEX
8
OBJECT__67
10
0
20
0
30
0
70
128
71
34
72
38
73
39
0
VERTEX
8
OBJECT__67
10
0
20
0
30
0
70
128
71
39
72
35
73
34
0
VERTEX
8
OBJECT__67
10
0
20
0
30
0
70
128
71
34
72
27
73
40
0
VERTEX
8
OBJECT__67
10
0
20
0
30
0
70
128
71
40
72
41
73
34
0
VERTEX
8
OBJECT__67
10
0
20
0
30
0
70
128
71
41
72
38
73
34
0
VERTEX
8
OBJECT__67
10
0
20
0
30
0
70
128
71
11
72
42
73
43
0
VERTEX
8
OBJECT__67
10
0
20
0
30
0
70
128
71
11
72
34
73
44
0
VERTEX
8
OBJECT__67
10
0
20
0
30
0
70
128
71
44
72
45
73
11
0
VERTEX
8
OBJECT__67
10
0
20
0
30
0
70
128
71
45
72
42
73
11
0
VERTEX
8
OBJECT__67
10
0
20
0
30
0
70
128
71
46
72
47
73
48
0
VERTEX
8
OBJECT__67
10
0
20
0
30
0
70
128
71
46
72
49
73
47
0
VERTEX
8
OBJECT__67
10
0
20
0
30
0
70
128
71
46
72
10
73
50
0
VERTEX
8
OBJECT__67
10
0
20
0
30
0
70
128
71
50
72
49
73
46
0
VERTEX
8
OBJECT__67
10
0
20
0
30
0
70
128
71
51
72
52
73
53
0
VERTEX
8
OBJECT__67
10
0
20
0
30
0
70
128
71
51
72
54
73
52
0
VERTEX
8
OBJECT__67
10
0
20
0
30
0
70
128
71
51
72
55
73
56
0
VERTEX
8
OBJECT__67
10
0
20
0
30
0
70
128
71
51
72
57
73
58
0
VERTEX
8
OBJECT__67
10
0
20
0
30
0
70
128
71
51
72
48
73
57
0
VERTEX
8
OBJECT__67
10
0
20
0
30
0
70
128
71
58
72
55
73
51
0
VERTEX
8
OBJECT__67
10
0
20
0
30
0
70
128
71
56
72
54
73
51
0
VERTEX
8
OBJECT__67
10
0
20
0
30
0
70
128
71
59
72
60
73
61
0
VERTEX
8
OBJECT__67
10
0
20
0
30
0
70
128
71
61
72
62
73
59
0
VERTEX
8
OBJECT__67
10
0
20
0
30
0
70
128
71
62
72
63
73
59
0
VERTEX
8
OBJECT__67
10
0
20
0
30
0
70
128
71
60
72
64
73
65
0
VERTEX
8
OBJECT__67
10
0
20
0
30
0
70
128
71
60
72
53
73
64
0
VERTEX
8
OBJECT__67
10
0
20
0
30
0
70
128
71
65
72
61
73
60
0
VERTEX
8
OBJECT__67
10
0
20
0
30
0
70
128
71
66
72
67
73
68
0
VERTEX
8
OBJECT__67
10
0
20
0
30
0
70
128
71
66
72
69
73
70
0
VERTEX
8
OBJECT__67
10
0
20
0
30
0
70
128
71
70
72
67
73
66
0
VERTEX
8
OBJECT__67
10
0
20
0
30
0
70
128
71
66
72
71
73
69
0
VERTEX
8
OBJECT__67
10
0
20
0
30
0
70
128
71
66
72
59
73
72
0
VERTEX
8
OBJECT__67
10
0
20
0
30
0
70
128
71
72
72
71
73
66
0
VERTEX
8
OBJECT__67
10
0
20
0
30
0
70
128
71
73
72
74
73
75
0
VERTEX
8
OBJECT__67
10
0
20
0
30
0
70
128
71
73
72
76
73
74
0
VERTEX
8
OBJECT__67
10
0
20
0
30
0
70
128
71
73
72
77
73
78
0
VERTEX
8
OBJECT__67
10
0
20
0
30
0
70
128
71
78
72
76
73
73
0
VERTEX
8
OBJECT__67
10
0
20
0
30
0
70
128
71
73
72
66
73
79
0
VERTEX
8
OBJECT__67
10
0
20
0
30
0
70
128
71
79
72
77
73
73
0
VERTEX
8
OBJECT__67
10
0
20
0
30
0
70
128
71
80
72
81
73
16
0
VERTEX
8
OBJECT__67
10
0
20
0
30
0
70
128
71
80
72
82
73
81
0
VERTEX
8
OBJECT__67
10
0
20
0
30
0
70
128
71
16
72
12
73
80
0
VERTEX
8
OBJECT__67
10
0
20
0
30
0
70
128
71
83
72
73
73
84
0
VERTEX
8
OBJECT__67
10
0
20
0
30
0
70
128
71
84
72
85
73
83
0
VERTEX
8
OBJECT__67
10
0
20
0
30
0
70
128
71
82
72
3
73
83
0
VERTEX
8
OBJECT__67
10
0
20
0
30
0
70
128
71
85
72
82
73
83
0
VERTEX
8
OBJECT__67
10
0
20
0
30
0
70
128
71
82
72
86
73
3
0
VERTEX
8
OBJECT__67
10
0
20
0
30
0
70
128
71
80
72
86
73
82
0
VERTEX
8
OBJECT__67
10
0
20
0
30
0
70
128
71
75
72
84
73
73
0
VERTEX
8
OBJECT__67
10
0
20
0
30
0
70
128
71
68
72
79
73
66
0
VERTEX
8
OBJECT__67
10
0
20
0
30
0
70
128
71
63
72
72
73
59
0
VERTEX
8
OBJECT__67
10
0
20
0
30
0
70
128
71
53
72
60
73
51
0
VERTEX
8
OBJECT__67
10
0
20
0
30
0
70
128
71
48
72
51
73
46
0
VERTEX
8
OBJECT__67
10
0
20
0
30
0
70
128
71
43
72
10
73
11
0
VERTEX
8
OBJECT__67
10
0
20
0
30
0
70
128
71
37
72
44
73
34
0
VERTEX
8
OBJECT__67
10
0
20
0
30
0
70
128
71
29
72
40
73
27
0
VERTEX
8
OBJECT__67
10
0
20
0
30
0
70
128
71
21
72
33
73
19
0
VERTEX
8
OBJECT__67
10
0
20
0
30
0
70
128
71
14
72
20
73
12
0
VERTEX
8
OBJECT__67
10
0
20
0
30
0
70
128
71
10
72
46
73
9
0
VERTEX
8
OBJECT__67
10
0
20
0
30
0
70
128
71
7
72
6
73
8
0
VERTEX
8
OBJECT__67
10
0
20
0
30
0
70
128
71
5
72
4
73
6
0
VERTEX
8
OBJECT__67
10
0
20
0
30
0
70
128
71
2
72
1
73
4
0
VERTEX
8
OBJECT__67
10
0
20
0
30
0
70
128
71
3
72
86
73
1
0
SEQEND
8
OBJECT__67
0
POLYLINE
8
OBJECT__68
66
1
70
64
71
12
72
10
62
253
0
VERTEX
8
OBJECT__68
10
-20.000000
20
0.000000
30
106.500000
70
192
0
VERTEX
8
OBJECT__68
10
2.846000
20
19.796000
30
106.500000
70
192
0
VERTEX
8
OBJECT__68
10
-8.308000
20
18.193001
30
106.500000
70
192
0
VERTEX
8
OBJECT__68
10
19.190001
20
-5.635000
30
106.500000
70
192
0
VERTEX
8
OBJECT__68
10
-8.308000
20
-18.193001
30
106.500000
70
192
0
VERTEX
8
OBJECT__68
10
2.846000
20
-19.796000
30
106.500000
70
192
0
VERTEX
8
OBJECT__68
10
13.097000
20
15.115000
30
106.500000
70
192
0
VERTEX
8
OBJECT__68
10
-16.825001
20
-10.813000
30
106.500000
70
192
0
VERTEX
8
OBJECT__68
10
19.190001
20
5.635000
30
106.500000
70
192
0
VERTEX
8
OBJECT__68
10
20.000000
20
0.000000
30
106.500000
70
192
0
VERTEX
8
OBJECT__68
10
13.097000
20
-15.115000
30
106.500000
70
192
0
VERTEX
8
OBJECT__68
10
-16.825001
20
10.813000
30
106.500000
70
192
0
VERTEX
8
OBJECT__68
10
0
20
0
30
0
70
128
71
1
72
2
73
3
0
VERTEX
8
OBJECT__68
10
0
20
0
30
0
70
128
71
4
72
5
73
6
0
VERTEX
8
OBJECT__68
10
0
20
0
30
0
70
128
71
1
72
7
73
2
0
VERTEX
8
OBJECT__68
10
0
20
0
30
0
70
128
71
4
72
8
73
5
0
VERTEX
8
OBJECT__68
10
0
20
0
30
0
70
128
71
1
72
9
73
7
0
VERTEX
8
OBJECT__68
10
0
20
0
30
0
70
128
71
4
72
1
73
8
0
VERTEX
8
OBJECT__68
10
0
20
0
30
0
70
128
71
1
72
10
73
9
0
VERTEX
8
OBJECT__68
10
0
20
0
30
0
70
128
71
6
72
11
73
4
0
VERTEX
8
OBJECT__68
10
0
20
0
30
0
70
128
71
4
72
10
73
1
0
VERTEX
8
OBJECT__68
10
0
20
0
30
0
70
128
71
3
72
12
73
1
0
SEQEND
8
OBJECT__68
0
ENDSEC
0
EOF
