999
Converted by 3D Exploration 
999
XDimension Software, LLC
999
http://www.xdsoft.com/explorer/
0
SECTION
2
HEADER
9
$ACADVER
1
AC1008
9
$UCSORG
10
0.0
20
0.0
30
0.0
9
$UCSXDIR
10
1.0
20
0.0
30
0.0
9
$TILEMODE
70
1
9
$UCSYDIR
10
0.0
20
1.0
30
0.0
9
$EXTMIN
10
-41.948002
20
-26.000000
30
-26.000000
9
$EXTMAX
10
145.309006
20
80.031998
30
411.002991
0
ENDSEC
0
SECTION
2
TABLES
0
TABLE
2
LTYPE
70
1
0
LTYPE
2
CONTINUOUS
70
64
3
Solid line
72
65
73
0
40
0.0
0
ENDTAB
0
TABLE
2
LAYER
70
70
0
LAYER
2
OBJECT__0
70
0
62
253
6
CONTINUOUS
0
LAYER
2
OBJECT__1
70
0
62
253
6
CONTINUOUS
0
LAYER
2
OBJECT__3
70
0
62
253
6
CONTINUOUS
0
LAYER
2
OBJECT__4
70
0
62
253
6
CONTINUOUS
0
LAYER
2
OBJECT__5
70
0
62
253
6
CONTINUOUS
0
LAYER
2
OBJECT__6
70
0
62
253
6
CONTINUOUS
0
LAYER
2
OBJECT__7
70
0
62
253
6
CONTINUOUS
0
LAYER
2
OBJECT__8
70
0
62
253
6
CONTINUOUS
0
LAYER
2
OBJECT__9
70
0
62
253
6
CONTINUOUS
0
LAYER
2
OBJECT__10
70
0
62
253
6
CONTINUOUS
0
LAYER
2
OBJECT__11
70
0
62
253
6
CONTINUOUS
0
LAYER
2
OBJECT__13
70
0
62
253
6
CONTINUOUS
0
LAYER
2
OBJECT__14
70
0
62
253
6
CONTINUOUS
0
LAYER
2
OBJECT__15
70
0
62
253
6
CONTINUOUS
0
LAYER
2
OBJECT__16
70
0
62
253
6
CONTINUOUS
0
LAYER
2
OBJECT__17
70
0
62
253
6
CONTINUOUS
0
LAYER
2
OBJECT__18
70
0
62
253
6
CONTINUOUS
0
LAYER
2
OBJECT__19
70
0
62
253
6
CONTINUOUS
0
LAYER
2
OBJECT__20
70
0
62
253
6
CONTINUOUS
0
LAYER
2
OBJECT__21
70
0
62
253
6
CONTINUOUS
0
LAYER
2
OBJECT__22
70
0
62
253
6
CONTINUOUS
0
LAYER
2
OBJECT__23
70
0
62
253
6
CONTINUOUS
0
LAYER
2
OBJECT__24
70
0
62
253
6
CONTINUOUS
0
LAYER
2
OBJECT__25
70
0
62
253
6
CONTINUOUS
0
LAYER
2
OBJECT__26
70
0
62
253
6
CONTINUOUS
0
LAYER
2
OBJECT__27
70
0
62
253
6
CONTINUOUS
0
LAYER
2
OBJECT__28
70
0
62
253
6
CONTINUOUS
0
LAYER
2
OBJECT__29
70
0
62
253
6
CONTINUOUS
0
LAYER
2
OBJECT__30
70
0
62
253
6
CONTINUOUS
0
LAYER
2
OBJECT__31
70
0
62
253
6
CONTINUOUS
0
LAYER
2
OBJECT__32
70
0
62
253
6
CONTINUOUS
0
LAYER
2
OBJECT__33
70
0
62
253
6
CONTINUOUS
0
LAYER
2
OBJECT__34
70
0
62
253
6
CONTINUOUS
0
LAYER
2
OBJECT__35
70
0
62
253
6
CONTINUOUS
0
LAYER
2
OBJECT__36
70
0
62
253
6
CONTINUOUS
0
LAYER
2
OBJECT__37
70
0
62
253
6
CONTINUOUS
0
LAYER
2
OBJECT__38
70
0
62
253
6
CONTINUOUS
0
LAYER
2
OBJECT__39
70
0
62
253
6
CONTINUOUS
0
LAYER
2
OBJECT__40
70
0
62
253
6
CONTINUOUS
0
LAYER
2
OBJECT__41
70
0
62
253
6
CONTINUOUS
0
LAYER
2
OBJECT__42
70
0
62
253
6
CONTINUOUS
0
LAYER
2
OBJECT__43
70
0
62
253
6
CONTINUOUS
0
LAYER
2
OBJECT__44
70
0
62
253
6
CONTINUOUS
0
LAYER
2
OBJECT__46
70
0
62
253
6
CONTINUOUS
0
LAYER
2
OBJECT__47
70
0
62
253
6
CONTINUOUS
0
LAYER
2
OBJECT__49
70
0
62
253
6
CONTINUOUS
0
LAYER
2
OBJECT__50
70
0
62
253
6
CONTINUOUS
0
LAYER
2
OBJECT__51
70
0
62
253
6
CONTINUOUS
0
LAYER
2
OBJECT__52
70
0
62
253
6
CONTINUOUS
0
LAYER
2
OBJECT__53
70
0
62
253
6
CONTINUOUS
0
LAYER
2
OBJECT__54
70
0
62
253
6
CONTINUOUS
0
LAYER
2
OBJECT__55
70
0
62
253
6
CONTINUOUS
0
LAYER
2
OBJECT__56
70
0
62
253
6
CONTINUOUS
0
LAYER
2
OBJECT__57
70
0
62
253
6
CONTINUOUS
0
LAYER
2
OBJECT__58
70
0
62
253
6
CONTINUOUS
0
LAYER
2
OBJECT__60
70
0
62
253
6
CONTINUOUS
0
LAYER
2
OBJECT__61
70
0
62
253
6
CONTINUOUS
0
LAYER
2
OBJECT__62
70
0
62
253
6
CONTINUOUS
0
LAYER
2
OBJECT__63
70
0
62
253
6
CONTINUOUS
0
LAYER
2
OBJECT__65
70
0
62
253
6
CONTINUOUS
0
LAYER
2
OBJECT__66
70
0
62
253
6
CONTINUOUS
0
LAYER
2
OBJECT__67
70
0
62
253
6
CONTINUOUS
0
LAYER
2
OBJECT__68
70
0
62
253
6
CONTINUOUS
0
LAYER
2
OBJECT__69
70
0
62
253
6
CONTINUOUS
0
ENDTAB
0
TABLE
2
STYLE
70
1
0
STYLE
2
STANDARD
70
0
40
0.0
41
1.0
50
0.0
71
0
42
0.2
3
txt
4
1
0
ENDTAB
0
TABLE
2
UCS
70
0
0
ENDTAB
0
ENDSEC
0
SECTION
2
ENTITIES
0
POLYLINE
8
OBJECT__0
66
1
70
64
71
12
72
10
62
253
0
VERTEX
8
OBJECT__0
10
0.000000
20
78.938004
30
278.783997
70
192
0
VERTEX
8
OBJECT__0
10
17.320999
20
79.210999
30
268.787994
70
192
0
VERTEX
8
OBJECT__0
10
20.000000
20
79.485001
30
258.791992
70
192
0
VERTEX
8
OBJECT__0
10
-10.000000
20
79.959000
30
241.477997
70
192
0
VERTEX
8
OBJECT__0
10
-17.320999
20
79.210999
30
268.787994
70
192
0
VERTEX
8
OBJECT__0
10
-10.000000
20
79.011002
30
276.105988
70
192
0
VERTEX
8
OBJECT__0
10
-17.320999
20
79.759003
30
248.796005
70
192
0
VERTEX
8
OBJECT__0
10
-20.000000
20
79.485001
30
258.791992
70
192
0
VERTEX
8
OBJECT__0
10
17.320999
20
79.759003
30
248.796005
70
192
0
VERTEX
8
OBJECT__0
10
10.000000
20
79.959000
30
241.477997
70
192
0
VERTEX
8
OBJECT__0
10
10.000000
20
79.011002
30
276.105988
70
192
0
VERTEX
8
OBJECT__0
10
0.000000
20
80.031998
30
238.798996
70
192
0
VERTEX
8
OBJECT__0
10
0
20
0
30
0
70
128
71
1
72
2
73
3
0
VERTEX
8
OBJECT__0
10
0
20
0
30
0
70
128
71
4
72
5
73
6
0
VERTEX
8
OBJECT__0
10
0
20
0
30
0
70
128
71
4
72
7
73
8
0
VERTEX
8
OBJECT__0
10
0
20
0
30
0
70
128
71
1
72
9
73
10
0
VERTEX
8
OBJECT__0
10
0
20
0
30
0
70
128
71
1
72
11
73
2
0
VERTEX
8
OBJECT__0
10
0
20
0
30
0
70
128
71
8
72
5
73
4
0
VERTEX
8
OBJECT__0
10
0
20
0
30
0
70
128
71
3
72
9
73
1
0
VERTEX
8
OBJECT__0
10
0
20
0
30
0
70
128
71
1
72
12
73
4
0
VERTEX
8
OBJECT__0
10
0
20
0
30
0
70
128
71
6
72
1
73
4
0
VERTEX
8
OBJECT__0
10
0
20
0
30
0
70
128
71
10
72
12
73
1
0
SEQEND
8
OBJECT__0
0
POLYLINE
8
OBJECT__1
66
1
70
64
71
39
72
41
62
253
0
VERTEX
8
OBJECT__1
10
10.000000
20
49.021999
30
275.285004
70
192
0
VERTEX
8
OBJECT__1
10
17.320999
20
49.223000
30
267.967010
70
192
0
VERTEX
8
OBJECT__1
10
17.320999
20
79.210999
30
268.787994
70
192
0
VERTEX
8
OBJECT__1
10
-17.320999
20
79.210999
30
268.787994
70
192
0
VERTEX
8
OBJECT__1
10
-17.320999
20
49.223000
30
267.967010
70
192
0
VERTEX
8
OBJECT__1
10
-10.000000
20
49.021999
30
275.285004
70
192
0
VERTEX
8
OBJECT__1
10
0.000000
20
48.949001
30
277.963013
70
192
0
VERTEX
8
OBJECT__1
10
8.500000
20
68.992996
30
276.614990
70
192
0
VERTEX
8
OBJECT__1
10
10.000000
20
79.011002
30
276.105988
70
192
0
VERTEX
8
OBJECT__1
10
8.500000
20
74.990997
30
276.779999
70
192
0
VERTEX
8
OBJECT__1
10
0.000000
20
78.938004
30
278.783997
70
192
0
VERTEX
8
OBJECT__1
10
0.000000
20
74.939003
30
278.674988
70
192
0
VERTEX
8
OBJECT__1
10
-10.000000
20
79.011002
30
276.105988
70
192
0
VERTEX
8
OBJECT__1
10
-8.500000
20
74.990997
30
276.779999
70
192
0
VERTEX
8
OBJECT__1
10
-8.500000
20
68.992996
30
276.614990
70
192
0
VERTEX
8
OBJECT__1
10
0.000000
20
68.941002
30
278.510986
70
192
0
VERTEX
8
OBJECT__1
10
19.868999
20
49.433998
30
260.256012
70
192
0
VERTEX
8
OBJECT__1
10
19.782000
20
50.606998
30
258.009003
70
192
0
VERTEX
8
OBJECT__1
10
20.000000
20
79.485001
30
258.791992
70
192
0
VERTEX
8
OBJECT__1
10
19.636999
20
52.563999
30
254.261002
70
192
0
VERTEX
8
OBJECT__1
10
17.002001
20
55.687000
30
248.276993
70
192
0
VERTEX
8
OBJECT__1
10
17.320999
20
79.759003
30
248.796005
70
192
0
VERTEX
8
OBJECT__1
10
16.176001
20
56.667000
30
246.401001
70
192
0
VERTEX
8
OBJECT__1
10
9.947000
20
59.498001
30
240.979004
70
192
0
VERTEX
8
OBJECT__1
10
10.000000
20
79.959000
30
241.477997
70
192
0
VERTEX
8
OBJECT__1
10
9.662000
20
59.626999
30
240.729996
70
192
0
VERTEX
8
OBJECT__1
10
1.325000
20
60.886002
30
238.319000
70
192
0
VERTEX
8
OBJECT__1
10
0.000000
20
80.031998
30
238.798996
70
192
0
VERTEX
8
OBJECT__1
10
-10.000000
20
79.959000
30
241.477997
70
192
0
VERTEX
8
OBJECT__1
10
0.037000
20
60.784000
30
238.514999
70
192
0
VERTEX
8
OBJECT__1
10
-7.262000
20
60.206001
30
239.621994
70
192
0
VERTEX
8
OBJECT__1
10
-17.320999
20
79.759003
30
248.796005
70
192
0
VERTEX
8
OBJECT__1
10
-9.760000
20
59.344002
30
241.272995
70
192
0
VERTEX
8
OBJECT__1
10
-14.479000
20
57.715000
30
244.393997
70
192
0
VERTEX
8
OBJECT__1
10
-20.000000
20
79.485001
30
258.791992
70
192
0
VERTEX
8
OBJECT__1
10
-16.914000
20
55.633999
30
248.380005
70
192
0
VERTEX
8
OBJECT__1
10
-18.962999
20
53.882999
30
251.733002
70
192
0
VERTEX
8
OBJECT__1
10
-19.632999
20
50.591999
30
258.036987
70
192
0
VERTEX
8
OBJECT__1
10
-19.868999
20
49.433998
30
260.256012
70
192
0
VERTEX
8
OBJECT__1
10
0
20
0
30
0
70
128
71
1
72
2
73
3
0
VERTEX
8
OBJECT__1
10
0
20
0
30
0
70
128
71
4
72
5
73
6
0
VERTEX
8
OBJECT__1
10
0
20
0
30
0
70
128
71
7
72
1
73
8
0
VERTEX
8
OBJECT__1
10
0
20
0
30
0
70
128
71
9
72
10
73
8
0
VERTEX
8
OBJECT__1
10
0
20
0
30
0
70
128
71
11
72
12
73
10
0
VERTEX
8
OBJECT__1
10
0
20
0
30
0
70
128
71
10
72
9
73
11
0
VERTEX
8
OBJECT__1
10
0
20
0
30
0
70
128
71
8
72
1
73
9
0
VERTEX
8
OBJECT__1
10
0
20
0
30
0
70
128
71
11
72
13
73
14
0
VERTEX
8
OBJECT__1
10
0
20
0
30
0
70
128
71
13
72
6
73
15
0
VERTEX
8
OBJECT__1
10
0
20
0
30
0
70
128
71
7
72
16
73
15
0
VERTEX
8
OBJECT__1
10
0
20
0
30
0
70
128
71
15
72
6
73
7
0
VERTEX
8
OBJECT__1
10
0
20
0
30
0
70
128
71
15
72
14
73
13
0
VERTEX
8
OBJECT__1
10
0
20
0
30
0
70
128
71
3
72
17
73
18
0
VERTEX
8
OBJECT__1
10
0
20
0
30
0
70
128
71
3
72
2
73
17
0
VERTEX
8
OBJECT__1
10
0
20
0
30
0
70
128
71
19
72
20
73
21
0
VERTEX
8
OBJECT__1
10
0
20
0
30
0
70
128
71
19
72
18
73
20
0
VERTEX
8
OBJECT__1
10
0
20
0
30
0
70
128
71
22
72
23
73
24
0
VERTEX
8
OBJECT__1
10
0
20
0
30
0
70
128
71
22
72
21
73
23
0
VERTEX
8
OBJECT__1
10
0
20
0
30
0
70
128
71
25
72
26
73
27
0
VERTEX
8
OBJECT__1
10
0
20
0
30
0
70
128
71
25
72
24
73
26
0
VERTEX
8
OBJECT__1
10
0
20
0
30
0
70
128
71
27
72
28
73
25
0
VERTEX
8
OBJECT__1
10
0
20
0
30
0
70
128
71
29
72
28
73
30
0
VERTEX
8
OBJECT__1
10
0
20
0
30
0
70
128
71
30
72
31
73
29
0
VERTEX
8
OBJECT__1
10
0
20
0
30
0
70
128
71
32
72
29
73
33
0
VERTEX
8
OBJECT__1
10
0
20
0
30
0
70
128
71
33
72
34
73
32
0
VERTEX
8
OBJECT__1
10
0
20
0
30
0
70
128
71
35
72
32
73
36
0
VERTEX
8
OBJECT__1
10
0
20
0
30
0
70
128
71
36
72
37
73
35
0
VERTEX
8
OBJECT__1
10
0
20
0
30
0
70
128
71
4
72
35
73
38
0
VERTEX
8
OBJECT__1
10
0
20
0
30
0
70
128
71
38
72
39
73
4
0
VERTEX
8
OBJECT__1
10
0
20
0
30
0
70
128
71
39
72
5
73
4
0
VERTEX
8
OBJECT__1
10
0
20
0
30
0
70
128
71
37
72
38
73
35
0
VERTEX
8
OBJECT__1
10
0
20
0
30
0
70
128
71
34
72
36
73
32
0
VERTEX
8
OBJECT__1
10
0
20
0
30
0
70
128
71
31
72
33
73
29
0
VERTEX
8
OBJECT__1
10
0
20
0
30
0
70
128
71
27
72
30
73
28
0
VERTEX
8
OBJECT__1
10
0
20
0
30
0
70
128
71
24
72
25
73
22
0
VERTEX
8
OBJECT__1
10
0
20
0
30
0
70
128
71
21
72
22
73
19
0
VERTEX
8
OBJECT__1
10
0
20
0
30
0
70
128
71
18
72
19
73
3
0
VERTEX
8
OBJECT__1
10
0
20
0
30
0
70
128
71
14
72
12
73
11
0
VERTEX
8
OBJECT__1
10
0
20
0
30
0
70
128
71
8
72
16
73
7
0
VERTEX
8
OBJECT__1
10
0
20
0
30
0
70
128
71
6
72
13
73
4
0
VERTEX
8
OBJECT__1
10
0
20
0
30
0
70
128
71
3
72
9
73
1
0
SEQEND
8
OBJECT__1
0
POLYLINE
8
OBJECT__3
66
1
70
64
71
7
72
5
62
253
0
VERTEX
8
OBJECT__3
10
-17.320999
20
49.223000
30
267.967010
70
192
0
VERTEX
8
OBJECT__3
10
17.320999
20
49.223000
30
267.967010
70
192
0
VERTEX
8
OBJECT__3
10
10.000000
20
49.021999
30
275.285004
70
192
0
VERTEX
8
OBJECT__3
10
0.000000
20
48.949001
30
277.963013
70
192
0
VERTEX
8
OBJECT__3
10
-10.000000
20
49.021999
30
275.285004
70
192
0
VERTEX
8
OBJECT__3
10
-19.868999
20
49.433998
30
260.256012
70
192
0
VERTEX
8
OBJECT__3
10
19.868999
20
49.433998
30
260.256012
70
192
0
VERTEX
8
OBJECT__3
10
0
20
0
30
0
70
128
71
1
72
2
73
3
0
VERTEX
8
OBJECT__3
10
0
20
0
30
0
70
128
71
3
72
4
73
1
0
VERTEX
8
OBJECT__3
10
0
20
0
30
0
70
128
71
4
72
5
73
1
0
VERTEX
8
OBJECT__3
10
0
20
0
30
0
70
128
71
6
72
7
73
2
0
VERTEX
8
OBJECT__3
10
0
20
0
30
0
70
128
71
1
72
6
73
2
0
SEQEND
8
OBJECT__3
0
POLYLINE
8
OBJECT__4
66
1
70
64
71
16
72
14
62
253
0
VERTEX
8
OBJECT__4
10
-9.760000
20
59.344002
30
241.272995
70
192
0
VERTEX
8
OBJECT__4
10
-19.868999
20
49.433998
30
260.256012
70
192
0
VERTEX
8
OBJECT__4
10
-16.914000
20
55.633999
30
248.380005
70
192
0
VERTEX
8
OBJECT__4
10
-19.632999
20
50.591999
30
258.036987
70
192
0
VERTEX
8
OBJECT__4
10
17.002001
20
55.687000
30
248.276993
70
192
0
VERTEX
8
OBJECT__4
10
19.636999
20
52.563999
30
254.261002
70
192
0
VERTEX
8
OBJECT__4
10
0.037000
20
60.784000
30
238.514999
70
192
0
VERTEX
8
OBJECT__4
10
1.325000
20
60.886002
30
238.319000
70
192
0
VERTEX
8
OBJECT__4
10
-7.262000
20
60.206001
30
239.621994
70
192
0
VERTEX
8
OBJECT__4
10
-18.962999
20
53.882999
30
251.733002
70
192
0
VERTEX
8
OBJECT__4
10
19.782000
20
50.606998
30
258.009003
70
192
0
VERTEX
8
OBJECT__4
10
9.947000
20
59.498001
30
240.979004
70
192
0
VERTEX
8
OBJECT__4
10
16.176001
20
56.667000
30
246.401001
70
192
0
VERTEX
8
OBJECT__4
10
9.662000
20
59.626999
30
240.729996
70
192
0
VERTEX
8
OBJECT__4
10
-14.479000
20
57.715000
30
244.393997
70
192
0
VERTEX
8
OBJECT__4
10
19.868999
20
49.433998
30
260.256012
70
192
0
VERTEX
8
OBJECT__4
10
0
20
0
30
0
70
128
71
1
72
2
73
3
0
VERTEX
8
OBJECT__4
10
0
20
0
30
0
70
128
71
3
72
2
73
4
0
VERTEX
8
OBJECT__4
10
0
20
0
30
0
70
128
71
2
72
5
73
6
0
VERTEX
8
OBJECT__4
10
0
20
0
30
0
70
128
71
2
72
7
73
8
0
VERTEX
8
OBJECT__4
10
0
20
0
30
0
70
128
71
2
72
1
73
9
0
VERTEX
8
OBJECT__4
10
0
20
0
30
0
70
128
71
4
72
10
73
3
0
VERTEX
8
OBJECT__4
10
0
20
0
30
0
70
128
71
6
72
11
73
2
0
VERTEX
8
OBJECT__4
10
0
20
0
30
0
70
128
71
2
72
12
73
13
0
VERTEX
8
OBJECT__4
10
0
20
0
30
0
70
128
71
8
72
14
73
2
0
VERTEX
8
OBJECT__4
10
0
20
0
30
0
70
128
71
3
72
15
73
1
0
VERTEX
8
OBJECT__4
10
0
20
0
30
0
70
128
71
13
72
5
73
2
0
VERTEX
8
OBJECT__4
10
0
20
0
30
0
70
128
71
9
72
7
73
2
0
VERTEX
8
OBJECT__4
10
0
20
0
30
0
70
128
71
14
72
12
73
2
0
VERTEX
8
OBJECT__4
10
0
20
0
30
0
70
128
71
11
72
16
73
2
0
SEQEND
8
OBJECT__4
0
POLYLINE
8
OBJECT__5
66
1
70
64
71
4
72
2
62
253
0
VERTEX
8
OBJECT__5
10
-8.500000
20
73.554001
30
329.256012
70
192
0
VERTEX
8
OBJECT__5
10
-8.500000
20
74.990997
30
276.779999
70
192
0
VERTEX
8
OBJECT__5
10
-8.500000
20
68.992996
30
276.614990
70
192
0
VERTEX
8
OBJECT__5
10
-8.500000
20
67.556999
30
329.092010
70
192
0
VERTEX
8
OBJECT__5
10
0
20
0
30
0
70
128
71
1
72
2
73
3
0
VERTEX
8
OBJECT__5
10
0
20
0
30
0
70
128
71
3
72
4
73
1
0
SEQEND
8
OBJECT__5
0
POLYLINE
8
OBJECT__6
66
1
70
64
71
5
72
3
62
253
0
VERTEX
8
OBJECT__6
10
-8.500000
20
67.556999
30
329.092010
70
192
0
VERTEX
8
OBJECT__6
10
-8.500000
20
68.992996
30
276.614990
70
192
0
VERTEX
8
OBJECT__6
10
0.000000
20
68.941002
30
278.510986
70
192
0
VERTEX
8
OBJECT__6
10
8.500000
20
67.556999
30
329.092010
70
192
0
VERTEX
8
OBJECT__6
10
8.500000
20
68.992996
30
276.614990
70
192
0
VERTEX
8
OBJECT__6
10
0
20
0
30
0
70
128
71
1
72
2
73
3
0
VERTEX
8
OBJECT__6
10
0
20
0
30
0
70
128
71
3
72
4
73
1
0
VERTEX
8
OBJECT__6
10
0
20
0
30
0
70
128
71
3
72
5
73
4
0
SEQEND
8
OBJECT__6
0
POLYLINE
8
OBJECT__7
66
1
70
64
71
4
72
2
62
253
0
VERTEX
8
OBJECT__7
10
8.500000
20
73.554001
30
329.256012
70
192
0
VERTEX
8
OBJECT__7
10
8.500000
20
67.556999
30
329.092010
70
192
0
VERTEX
8
OBJECT__7
10
8.500000
20
68.992996
30
276.614990
70
192
0
VERTEX
8
OBJECT__7
10
8.500000
20
74.990997
30
276.779999
70
192
0
VERTEX
8
OBJECT__7
10
0
20
0
30
0
70
128
71
1
72
2
73
3
0
VERTEX
8
OBJECT__7
10
0
20
0
30
0
70
128
71
3
72
4
73
1
0
SEQEND
8
OBJECT__7
0
POLYLINE
8
OBJECT__8
66
1
70
64
71
5
72
3
62
253
0
VERTEX
8
OBJECT__8
10
8.500000
20
73.554001
30
329.256012
70
192
0
VERTEX
8
OBJECT__8
10
8.500000
20
74.990997
30
276.779999
70
192
0
VERTEX
8
OBJECT__8
10
0.000000
20
74.939003
30
278.674988
70
192
0
VERTEX
8
OBJECT__8
10
-8.500000
20
73.554001
30
329.256012
70
192
0
VERTEX
8
OBJECT__8
10
-8.500000
20
74.990997
30
276.779999
70
192
0
VERTEX
8
OBJECT__8
10
0
20
0
30
0
70
128
71
1
72
2
73
3
0
VERTEX
8
OBJECT__8
10
0
20
0
30
0
70
128
71
3
72
4
73
1
0
VERTEX
8
OBJECT__8
10
0
20
0
30
0
70
128
71
3
72
5
73
4
0
SEQEND
8
OBJECT__8
0
POLYLINE
8
OBJECT__9
66
1
70
64
71
4
72
2
62
253
0
VERTEX
8
OBJECT__9
10
8.500000
20
67.556999
30
329.092010
70
192
0
VERTEX
8
OBJECT__9
10
8.500000
20
73.554001
30
329.256012
70
192
0
VERTEX
8
OBJECT__9
10
-8.500000
20
73.554001
30
329.256012
70
192
0
VERTEX
8
OBJECT__9
10
-8.500000
20
67.556999
30
329.092010
70
192
0
VERTEX
8
OBJECT__9
10
0
20
0
30
0
70
128
71
1
72
2
73
3
0
VERTEX
8
OBJECT__9
10
0
20
0
30
0
70
128
71
3
72
4
73
1
0
SEQEND
8
OBJECT__9
0
POLYLINE
8
OBJECT__10
66
1
70
64
71
5
72
3
62
253
0
VERTEX
8
OBJECT__10
10
5.500000
20
14.500000
30
292.000000
70
192
0
VERTEX
8
OBJECT__10
10
5.500000
20
14.500000
30
373.002991
70
192
0
VERTEX
8
OBJECT__10
10
5.854000
20
14.354000
30
373.002991
70
192
0
VERTEX
8
OBJECT__10
10
6.000000
20
14.000000
30
292.000000
70
192
0
VERTEX
8
OBJECT__10
10
6.000000
20
14.000000
30
373.002991
70
192
0
VERTEX
8
OBJECT__10
10
0
20
0
30
0
70
128
71
1
72
2
73
3
0
VERTEX
8
OBJECT__10
10
0
20
0
30
0
70
128
71
3
72
4
73
1
0
VERTEX
8
OBJECT__10
10
0
20
0
30
0
70
128
71
3
72
5
73
4
0
SEQEND
8
OBJECT__10
0
POLYLINE
8
OBJECT__11
66
1
70
64
71
21
72
23
62
253
0
VERTEX
8
OBJECT__11
10
5.500000
20
14.500000
30
373.002991
70
192
0
VERTEX
8
OBJECT__11
10
6.797000
20
14.500000
30
381.191986
70
192
0
VERTEX
8
OBJECT__11
10
7.133000
20
14.354000
30
381.082001
70
192
0
VERTEX
8
OBJECT__11
10
10.561000
20
14.500000
30
388.579010
70
192
0
VERTEX
8
OBJECT__11
10
10.847000
20
14.354000
30
388.371002
70
192
0
VERTEX
8
OBJECT__11
10
16.424000
20
14.500000
30
394.441986
70
192
0
VERTEX
8
OBJECT__11
10
16.632000
20
14.354000
30
394.154999
70
192
0
VERTEX
8
OBJECT__11
10
23.811001
20
14.500000
30
398.205994
70
192
0
VERTEX
8
OBJECT__11
10
23.920000
20
14.354000
30
397.868988
70
192
0
VERTEX
8
OBJECT__11
10
32.000000
20
14.500000
30
399.502991
70
192
0
VERTEX
8
OBJECT__11
10
32.000000
20
14.354000
30
399.148987
70
192
0
VERTEX
8
OBJECT__11
10
5.854000
20
14.354000
30
373.002991
70
192
0
VERTEX
8
OBJECT__11
10
7.273000
20
14.000000
30
381.036987
70
192
0
VERTEX
8
OBJECT__11
10
10.966000
20
14.000000
30
388.285004
70
192
0
VERTEX
8
OBJECT__11
10
8.193000
20
14.000000
30
382.842987
70
192
0
VERTEX
8
OBJECT__11
10
16.718000
20
14.000000
30
394.036987
70
192
0
VERTEX
8
OBJECT__11
10
13.842000
20
14.000000
30
391.161011
70
192
0
VERTEX
8
OBJECT__11
10
22.159000
20
14.000000
30
396.809998
70
192
0
VERTEX
8
OBJECT__11
10
23.966000
20
14.000000
30
397.730011
70
192
0
VERTEX
8
OBJECT__11
10
32.000000
20
14.000000
30
399.002991
70
192
0
VERTEX
8
OBJECT__11
10
6.000000
20
14.000000
30
373.002991
70
192
0
VERTEX
8
OBJECT__11
10
0
20
0
30
0
70
128
71
1
72
2
73
3
0
VERTEX
8
OBJECT__11
10
0
20
0
30
0
70
128
71
2
72
4
73
5
0
VERTEX
8
OBJECT__11
10
0
20
0
30
0
70
128
71
4
72
6
73
7
0
VERTEX
8
OBJECT__11
10
0
20
0
30
0
70
128
71
6
72
8
73
9
0
VERTEX
8
OBJECT__11
10
0
20
0
30
0
70
128
71
10
72
11
73
9
0
VERTEX
8
OBJECT__11
10
0
20
0
30
0
70
128
71
12
72
3
73
13
0
VERTEX
8
OBJECT__11
10
0
20
0
30
0
70
128
71
5
72
14
73
15
0
VERTEX
8
OBJECT__11
10
0
20
0
30
0
70
128
71
15
72
3
73
5
0
VERTEX
8
OBJECT__11
10
0
20
0
30
0
70
128
71
7
72
16
73
17
0
VERTEX
8
OBJECT__11
10
0
20
0
30
0
70
128
71
17
72
5
73
7
0
VERTEX
8
OBJECT__11
10
0
20
0
30
0
70
128
71
7
72
9
73
18
0
VERTEX
8
OBJECT__11
10
0
20
0
30
0
70
128
71
9
72
19
73
18
0
VERTEX
8
OBJECT__11
10
0
20
0
30
0
70
128
71
9
72
11
73
20
0
VERTEX
8
OBJECT__11
10
0
20
0
30
0
70
128
71
20
72
19
73
9
0
VERTEX
8
OBJECT__11
10
0
20
0
30
0
70
128
71
18
72
16
73
7
0
VERTEX
8
OBJECT__11
10
0
20
0
30
0
70
128
71
17
72
14
73
5
0
VERTEX
8
OBJECT__11
10
0
20
0
30
0
70
128
71
15
72
13
73
3
0
VERTEX
8
OBJECT__11
10
0
20
0
30
0
70
128
71
13
72
21
73
12
0
VERTEX
8
OBJECT__11
10
0
20
0
30
0
70
128
71
9
72
8
73
10
0
VERTEX
8
OBJECT__11
10
0
20
0
30
0
70
128
71
9
72
7
73
6
0
VERTEX
8
OBJECT__11
10
0
20
0
30
0
70
128
71
7
72
5
73
4
0
VERTEX
8
OBJECT__11
10
0
20
0
30
0
70
128
71
5
72
3
73
2
0
VERTEX
8
OBJECT__11
10
0
20
0
30
0
70
128
71
3
72
12
73
1
0
SEQEND
8
OBJECT__11
0
POLYLINE
8
OBJECT__13
66
1
70
64
71
4
72
2
62
253
0
VERTEX
8
OBJECT__13
10
6.000000
20
14.000000
30
292.000000
70
192
0
VERTEX
8
OBJECT__13
10
6.000000
20
14.000000
30
373.002991
70
192
0
VERTEX
8
OBJECT__13
10
6.000000
20
-14.000000
30
373.002991
70
192
0
VERTEX
8
OBJECT__13
10
6.000000
20
-14.000000
30
292.000000
70
192
0
VERTEX
8
OBJECT__13
10
0
20
0
30
0
70
128
71
1
72
2
73
3
0
VERTEX
8
OBJECT__13
10
0
20
0
30
0
70
128
71
3
72
4
73
1
0
SEQEND
8
OBJECT__13
0
POLYLINE
8
OBJECT__14
66
1
70
64
71
6
72
4
62
253
0
VERTEX
8
OBJECT__14
10
32.000000
20
14.500000
30
399.502991
70
192
0
VERTEX
8
OBJECT__14
10
106.431999
20
14.500000
30
399.502991
70
192
0
VERTEX
8
OBJECT__14
10
106.431999
20
14.354000
30
399.148987
70
192
0
VERTEX
8
OBJECT__14
10
32.000000
20
14.354000
30
399.148987
70
192
0
VERTEX
8
OBJECT__14
10
106.431999
20
14.000000
30
399.002991
70
192
0
VERTEX
8
OBJECT__14
10
32.000000
20
14.000000
30
399.002991
70
192
0
VERTEX
8
OBJECT__14
10
0
20
0
30
0
70
128
71
1
72
2
73
3
0
VERTEX
8
OBJECT__14
10
0
20
0
30
0
70
128
71
4
72
3
73
5
0
VERTEX
8
OBJECT__14
10
0
20
0
30
0
70
128
71
5
72
6
73
4
0
VERTEX
8
OBJECT__14
10
0
20
0
30
0
70
128
71
3
72
4
73
1
0
SEQEND
8
OBJECT__14
0
POLYLINE
8
OBJECT__15
66
1
70
64
71
18
72
16
62
253
0
VERTEX
8
OBJECT__15
10
22.159000
20
-14.000000
30
396.809998
70
192
0
VERTEX
8
OBJECT__15
10
22.159000
20
14.000000
30
396.809998
70
192
0
VERTEX
8
OBJECT__15
10
23.966000
20
14.000000
30
397.730011
70
192
0
VERTEX
8
OBJECT__15
10
23.966000
20
-14.000000
30
397.730011
70
192
0
VERTEX
8
OBJECT__15
10
32.000000
20
14.000000
30
399.002991
70
192
0
VERTEX
8
OBJECT__15
10
32.000000
20
-14.000000
30
399.002991
70
192
0
VERTEX
8
OBJECT__15
10
16.718000
20
14.000000
30
394.036987
70
192
0
VERTEX
8
OBJECT__15
10
16.718000
20
-14.000000
30
394.036987
70
192
0
VERTEX
8
OBJECT__15
10
13.842000
20
-14.000000
30
391.161011
70
192
0
VERTEX
8
OBJECT__15
10
10.966000
20
14.000000
30
388.285004
70
192
0
VERTEX
8
OBJECT__15
10
10.966000
20
-14.000000
30
388.285004
70
192
0
VERTEX
8
OBJECT__15
10
8.193000
20
-14.000000
30
382.842987
70
192
0
VERTEX
8
OBJECT__15
10
13.842000
20
14.000000
30
391.161011
70
192
0
VERTEX
8
OBJECT__15
10
6.000000
20
14.000000
30
373.002991
70
192
0
VERTEX
8
OBJECT__15
10
7.273000
20
14.000000
30
381.036987
70
192
0
VERTEX
8
OBJECT__15
10
7.273000
20
-14.000000
30
381.036987
70
192
0
VERTEX
8
OBJECT__15
10
8.193000
20
14.000000
30
382.842987
70
192
0
VERTEX
8
OBJECT__15
10
6.000000
20
-14.000000
30
373.002991
70
192
0
VERTEX
8
OBJECT__15
10
0
20
0
30
0
70
128
71
1
72
2
73
3
0
VERTEX
8
OBJECT__15
10
0
20
0
30
0
70
128
71
4
72
3
73
5
0
VERTEX
8
OBJECT__15
10
0
20
0
30
0
70
128
71
5
72
6
73
4
0
VERTEX
8
OBJECT__15
10
0
20
0
30
0
70
128
71
7
72
8
73
9
0
VERTEX
8
OBJECT__15
10
0
20
0
30
0
70
128
71
2
72
1
73
8
0
VERTEX
8
OBJECT__15
10
0
20
0
30
0
70
128
71
8
72
7
73
2
0
VERTEX
8
OBJECT__15
10
0
20
0
30
0
70
128
71
10
72
11
73
12
0
VERTEX
8
OBJECT__15
10
0
20
0
30
0
70
128
71
13
72
9
73
11
0
VERTEX
8
OBJECT__15
10
0
20
0
30
0
70
128
71
11
72
10
73
13
0
VERTEX
8
OBJECT__15
10
0
20
0
30
0
70
128
71
14
72
15
73
16
0
VERTEX
8
OBJECT__15
10
0
20
0
30
0
70
128
71
12
72
16
73
15
0
VERTEX
8
OBJECT__15
10
0
20
0
30
0
70
128
71
15
72
17
73
12
0
VERTEX
8
OBJECT__15
10
0
20
0
30
0
70
128
71
16
72
18
73
14
0
VERTEX
8
OBJECT__15
10
0
20
0
30
0
70
128
71
12
72
17
73
10
0
VERTEX
8
OBJECT__15
10
0
20
0
30
0
70
128
71
9
72
13
73
7
0
VERTEX
8
OBJECT__15
10
0
20
0
30
0
70
128
71
3
72
4
73
1
0
SEQEND
8
OBJECT__15
0
POLYLINE
8
OBJECT__16
66
1
70
64
71
5
72
3
62
253
0
VERTEX
8
OBJECT__16
10
6.000000
20
-14.000000
30
292.000000
70
192
0
VERTEX
8
OBJECT__16
10
6.000000
20
-14.000000
30
373.002991
70
192
0
VERTEX
8
OBJECT__16
10
5.854000
20
-14.354000
30
373.002991
70
192
0
VERTEX
8
OBJECT__16
10
5.500000
20
-14.500000
30
292.000000
70
192
0
VERTEX
8
OBJECT__16
10
5.500000
20
-14.500000
30
373.002991
70
192
0
VERTEX
8
OBJECT__16
10
0
20
0
30
0
70
128
71
1
72
2
73
3
0
VERTEX
8
OBJECT__16
10
0
20
0
30
0
70
128
71
3
72
4
73
1
0
VERTEX
8
OBJECT__16
10
0
20
0
30
0
70
128
71
3
72
5
73
4
0
SEQEND
8
OBJECT__16
0
POLYLINE
8
OBJECT__17
66
1
70
64
71
21
72
23
62
253
0
VERTEX
8
OBJECT__17
10
5.854000
20
-14.354000
30
373.002991
70
192
0
VERTEX
8
OBJECT__17
10
6.000000
20
-14.000000
30
373.002991
70
192
0
VERTEX
8
OBJECT__17
10
7.273000
20
-14.000000
30
381.036987
70
192
0
VERTEX
8
OBJECT__17
10
10.847000
20
-14.354000
30
388.371002
70
192
0
VERTEX
8
OBJECT__17
10
7.133000
20
-14.354000
30
381.082001
70
192
0
VERTEX
8
OBJECT__17
10
8.193000
20
-14.000000
30
382.842987
70
192
0
VERTEX
8
OBJECT__17
10
16.632000
20
-14.354000
30
394.154999
70
192
0
VERTEX
8
OBJECT__17
10
13.842000
20
-14.000000
30
391.161011
70
192
0
VERTEX
8
OBJECT__17
10
10.966000
20
-14.000000
30
388.285004
70
192
0
VERTEX
8
OBJECT__17
10
16.718000
20
-14.000000
30
394.036987
70
192
0
VERTEX
8
OBJECT__17
10
22.159000
20
-14.000000
30
396.809998
70
192
0
VERTEX
8
OBJECT__17
10
23.920000
20
-14.354000
30
397.868988
70
192
0
VERTEX
8
OBJECT__17
10
32.000000
20
-14.354000
30
399.148987
70
192
0
VERTEX
8
OBJECT__17
10
23.966000
20
-14.000000
30
397.730011
70
192
0
VERTEX
8
OBJECT__17
10
5.500000
20
-14.500000
30
373.002991
70
192
0
VERTEX
8
OBJECT__17
10
6.797000
20
-14.500000
30
381.191986
70
192
0
VERTEX
8
OBJECT__17
10
10.561000
20
-14.500000
30
388.579010
70
192
0
VERTEX
8
OBJECT__17
10
16.424000
20
-14.500000
30
394.441986
70
192
0
VERTEX
8
OBJECT__17
10
32.000000
20
-14.500000
30
399.502991
70
192
0
VERTEX
8
OBJECT__17
10
23.811001
20
-14.500000
30
398.205994
70
192
0
VERTEX
8
OBJECT__17
10
32.000000
20
-14.000000
30
399.002991
70
192
0
VERTEX
8
OBJECT__17
10
0
20
0
30
0
70
128
71
1
72
2
73
3
0
VERTEX
8
OBJECT__17
10
0
20
0
30
0
70
128
71
4
72
5
73
6
0
VERTEX
8
OBJECT__17
10
0
20
0
30
0
70
128
71
5
72
3
73
6
0
VERTEX
8
OBJECT__17
10
0
20
0
30
0
70
128
71
7
72
4
73
8
0
VERTEX
8
OBJECT__17
10
0
20
0
30
0
70
128
71
4
72
9
73
8
0
VERTEX
8
OBJECT__17
10
0
20
0
30
0
70
128
71
7
72
10
73
11
0
VERTEX
8
OBJECT__17
10
0
20
0
30
0
70
128
71
11
72
12
73
7
0
VERTEX
8
OBJECT__17
10
0
20
0
30
0
70
128
71
13
72
12
73
14
0
VERTEX
8
OBJECT__17
10
0
20
0
30
0
70
128
71
15
72
1
73
5
0
VERTEX
8
OBJECT__17
10
0
20
0
30
0
70
128
71
16
72
5
73
4
0
VERTEX
8
OBJECT__17
10
0
20
0
30
0
70
128
71
17
72
4
73
7
0
VERTEX
8
OBJECT__17
10
0
20
0
30
0
70
128
71
18
72
7
73
12
0
VERTEX
8
OBJECT__17
10
0
20
0
30
0
70
128
71
19
72
20
73
12
0
VERTEX
8
OBJECT__17
10
0
20
0
30
0
70
128
71
12
72
13
73
19
0
VERTEX
8
OBJECT__17
10
0
20
0
30
0
70
128
71
12
72
20
73
18
0
VERTEX
8
OBJECT__17
10
0
20
0
30
0
70
128
71
7
72
18
73
17
0
VERTEX
8
OBJECT__17
10
0
20
0
30
0
70
128
71
4
72
17
73
16
0
VERTEX
8
OBJECT__17
10
0
20
0
30
0
70
128
71
5
72
16
73
15
0
VERTEX
8
OBJECT__17
10
0
20
0
30
0
70
128
71
14
72
21
73
13
0
VERTEX
8
OBJECT__17
10
0
20
0
30
0
70
128
71
11
72
14
73
12
0
VERTEX
8
OBJECT__17
10
0
20
0
30
0
70
128
71
8
72
10
73
7
0
VERTEX
8
OBJECT__17
10
0
20
0
30
0
70
128
71
6
72
9
73
4
0
VERTEX
8
OBJECT__17
10
0
20
0
30
0
70
128
71
3
72
5
73
1
0
SEQEND
8
OBJECT__17
0
POLYLINE
8
OBJECT__18
66
1
70
64
71
6
72
4
62
253
0
VERTEX
8
OBJECT__18
10
106.431999
20
-14.000000
30
399.002991
70
192
0
VERTEX
8
OBJECT__18
10
106.431999
20
-14.354000
30
399.148987
70
192
0
VERTEX
8
OBJECT__18
10
32.000000
20
-14.354000
30
399.148987
70
192
0
VERTEX
8
OBJECT__18
10
32.000000
20
-14.500000
30
399.502991
70
192
0
VERTEX
8
OBJECT__18
10
106.431999
20
-14.500000
30
399.502991
70
192
0
VERTEX
8
OBJECT__18
10
32.000000
20
-14.000000
30
399.002991
70
192
0
VERTEX
8
OBJECT__18
10
0
20
0
30
0
70
128
71
1
72
2
73
3
0
VERTEX
8
OBJECT__18
10
0
20
0
30
0
70
128
71
4
72
3
73
2
0
VERTEX
8
OBJECT__18
10
0
20
0
30
0
70
128
71
2
72
5
73
4
0
VERTEX
8
OBJECT__18
10
0
20
0
30
0
70
128
71
3
72
6
73
1
0
SEQEND
8
OBJECT__18
0
POLYLINE
8
OBJECT__19
66
1
70
64
71
4
72
2
62
253
0
VERTEX
8
OBJECT__19
10
32.000000
20
14.000000
30
399.002991
70
192
0
VERTEX
8
OBJECT__19
10
106.431999
20
14.000000
30
399.002991
70
192
0
VERTEX
8
OBJECT__19
10
106.431999
20
-14.000000
30
399.002991
70
192
0
VERTEX
8
OBJECT__19
10
32.000000
20
-14.000000
30
399.002991
70
192
0
VERTEX
8
OBJECT__19
10
0
20
0
30
0
70
128
71
1
72
2
73
3
0
VERTEX
8
OBJECT__19
10
0
20
0
30
0
70
128
71
3
72
4
73
1
0
SEQEND
8
OBJECT__19
0
POLYLINE
8
OBJECT__20
66
1
70
64
71
20
72
22
62
253
0
VERTEX
8
OBJECT__20
10
113.737999
20
14.500000
30
398.476013
70
192
0
VERTEX
8
OBJECT__20
10
113.640999
20
14.354000
30
398.135986
70
192
0
VERTEX
8
OBJECT__20
10
106.431999
20
14.354000
30
399.148987
70
192
0
VERTEX
8
OBJECT__20
10
120.477997
20
14.500000
30
395.473999
70
192
0
VERTEX
8
OBJECT__20
10
120.290001
20
14.354000
30
395.174011
70
192
0
VERTEX
8
OBJECT__20
10
126.128998
20
14.500000
30
390.730988
70
192
0
VERTEX
8
OBJECT__20
10
125.865997
20
14.354000
30
390.494995
70
192
0
VERTEX
8
OBJECT__20
10
130.253006
20
14.500000
30
384.614014
70
192
0
VERTEX
8
OBJECT__20
10
129.934998
20
14.354000
30
384.459015
70
192
0
VERTEX
8
OBJECT__20
10
132.531006
20
14.500000
30
377.596985
70
192
0
VERTEX
8
OBJECT__20
10
132.182999
20
14.354000
30
377.535004
70
192
0
VERTEX
8
OBJECT__20
10
113.599998
20
14.000000
30
397.994995
70
192
0
VERTEX
8
OBJECT__20
10
106.431999
20
14.000000
30
399.002991
70
192
0
VERTEX
8
OBJECT__20
10
118.012001
20
14.000000
30
396.029999
70
192
0
VERTEX
8
OBJECT__20
10
120.212997
20
14.000000
30
395.049988
70
192
0
VERTEX
8
OBJECT__20
10
125.757004
20
14.000000
30
390.397003
70
192
0
VERTEX
8
OBJECT__20
10
129.804001
20
14.000000
30
384.394989
70
192
0
VERTEX
8
OBJECT__20
10
127.103996
20
14.000000
30
388.398987
70
192
0
VERTEX
8
OBJECT__20
10
132.039001
20
14.000000
30
377.510010
70
192
0
VERTEX
8
OBJECT__20
10
106.431999
20
14.500000
30
399.502991
70
192
0
VERTEX
8
OBJECT__20
10
0
20
0
30
0
70
128
71
1
72
2
73
3
0
VERTEX
8
OBJECT__20
10
0
20
0
30
0
70
128
71
1
72
4
73
5
0
VERTEX
8
OBJECT__20
10
0
20
0
30
0
70
128
71
4
72
6
73
7
0
VERTEX
8
OBJECT__20
10
0
20
0
30
0
70
128
71
6
72
8
73
9
0
VERTEX
8
OBJECT__20
10
0
20
0
30
0
70
128
71
8
72
10
73
11
0
VERTEX
8
OBJECT__20
10
0
20
0
30
0
70
128
71
2
72
12
73
13
0
VERTEX
8
OBJECT__20
10
0
20
0
30
0
70
128
71
2
72
5
73
14
0
VERTEX
8
OBJECT__20
10
0
20
0
30
0
70
128
71
5
72
15
73
14
0
VERTEX
8
OBJECT__20
10
0
20
0
30
0
70
128
71
7
72
16
73
15
0
VERTEX
8
OBJECT__20
10
0
20
0
30
0
70
128
71
9
72
17
73
18
0
VERTEX
8
OBJECT__20
10
0
20
0
30
0
70
128
71
18
72
7
73
9
0
VERTEX
8
OBJECT__20
10
0
20
0
30
0
70
128
71
11
72
19
73
17
0
VERTEX
8
OBJECT__20
10
0
20
0
30
0
70
128
71
17
72
9
73
11
0
VERTEX
8
OBJECT__20
10
0
20
0
30
0
70
128
71
18
72
16
73
7
0
VERTEX
8
OBJECT__20
10
0
20
0
30
0
70
128
71
15
72
5
73
7
0
VERTEX
8
OBJECT__20
10
0
20
0
30
0
70
128
71
14
72
12
73
2
0
VERTEX
8
OBJECT__20
10
0
20
0
30
0
70
128
71
13
72
3
73
2
0
VERTEX
8
OBJECT__20
10
0
20
0
30
0
70
128
71
11
72
9
73
8
0
VERTEX
8
OBJECT__20
10
0
20
0
30
0
70
128
71
9
72
7
73
6
0
VERTEX
8
OBJECT__20
10
0
20
0
30
0
70
128
71
7
72
5
73
4
0
VERTEX
8
OBJECT__20
10
0
20
0
30
0
70
128
71
5
72
2
73
1
0
VERTEX
8
OBJECT__20
10
0
20
0
30
0
70
128
71
3
72
20
73
1
0
SEQEND
8
OBJECT__20
0
POLYLINE
8
OBJECT__21
66
1
70
64
71
20
72
22
62
253
0
VERTEX
8
OBJECT__21
10
113.640999
20
-14.354000
30
398.135986
70
192
0
VERTEX
8
OBJECT__21
10
106.431999
20
-14.354000
30
399.148987
70
192
0
VERTEX
8
OBJECT__21
10
106.431999
20
-14.000000
30
399.002991
70
192
0
VERTEX
8
OBJECT__21
10
113.599998
20
-14.000000
30
397.994995
70
192
0
VERTEX
8
OBJECT__21
10
118.012001
20
-14.000000
30
396.029999
70
192
0
VERTEX
8
OBJECT__21
10
120.290001
20
-14.354000
30
395.174011
70
192
0
VERTEX
8
OBJECT__21
10
125.865997
20
-14.354000
30
390.494995
70
192
0
VERTEX
8
OBJECT__21
10
120.212997
20
-14.000000
30
395.049988
70
192
0
VERTEX
8
OBJECT__21
10
129.934998
20
-14.354000
30
384.459015
70
192
0
VERTEX
8
OBJECT__21
10
127.103996
20
-14.000000
30
388.398987
70
192
0
VERTEX
8
OBJECT__21
10
125.757004
20
-14.000000
30
390.397003
70
192
0
VERTEX
8
OBJECT__21
10
132.182999
20
-14.354000
30
377.535004
70
192
0
VERTEX
8
OBJECT__21
10
129.804001
20
-14.000000
30
384.394989
70
192
0
VERTEX
8
OBJECT__21
10
113.737999
20
-14.500000
30
398.476013
70
192
0
VERTEX
8
OBJECT__21
10
106.431999
20
-14.500000
30
399.502991
70
192
0
VERTEX
8
OBJECT__21
10
120.477997
20
-14.500000
30
395.473999
70
192
0
VERTEX
8
OBJECT__21
10
126.128998
20
-14.500000
30
390.730988
70
192
0
VERTEX
8
OBJECT__21
10
130.253006
20
-14.500000
30
384.614014
70
192
0
VERTEX
8
OBJECT__21
10
132.531006
20
-14.500000
30
377.596985
70
192
0
VERTEX
8
OBJECT__21
10
132.039001
20
-14.000000
30
377.510010
70
192
0
VERTEX
8
OBJECT__21
10
0
20
0
30
0
70
128
71
1
72
2
73
3
0
VERTEX
8
OBJECT__21
10
0
20
0
30
0
70
128
71
1
72
4
73
5
0
VERTEX
8
OBJECT__21
10
0
20
0
30
0
70
128
71
5
72
6
73
1
0
VERTEX
8
OBJECT__21
10
0
20
0
30
0
70
128
71
7
72
6
73
8
0
VERTEX
8
OBJECT__21
10
0
20
0
30
0
70
128
71
9
72
7
73
10
0
VERTEX
8
OBJECT__21
10
0
20
0
30
0
70
128
71
7
72
11
73
10
0
VERTEX
8
OBJECT__21
10
0
20
0
30
0
70
128
71
12
72
9
73
13
0
VERTEX
8
OBJECT__21
10
0
20
0
30
0
70
128
71
14
72
15
73
2
0
VERTEX
8
OBJECT__21
10
0
20
0
30
0
70
128
71
14
72
1
73
6
0
VERTEX
8
OBJECT__21
10
0
20
0
30
0
70
128
71
16
72
6
73
7
0
VERTEX
8
OBJECT__21
10
0
20
0
30
0
70
128
71
17
72
7
73
9
0
VERTEX
8
OBJECT__21
10
0
20
0
30
0
70
128
71
18
72
9
73
12
0
VERTEX
8
OBJECT__21
10
0
20
0
30
0
70
128
71
12
72
19
73
18
0
VERTEX
8
OBJECT__21
10
0
20
0
30
0
70
128
71
9
72
18
73
17
0
VERTEX
8
OBJECT__21
10
0
20
0
30
0
70
128
71
7
72
17
73
16
0
VERTEX
8
OBJECT__21
10
0
20
0
30
0
70
128
71
6
72
16
73
14
0
VERTEX
8
OBJECT__21
10
0
20
0
30
0
70
128
71
2
72
1
73
14
0
VERTEX
8
OBJECT__21
10
0
20
0
30
0
70
128
71
13
72
20
73
12
0
VERTEX
8
OBJECT__21
10
0
20
0
30
0
70
128
71
10
72
13
73
9
0
VERTEX
8
OBJECT__21
10
0
20
0
30
0
70
128
71
8
72
11
73
7
0
VERTEX
8
OBJECT__21
10
0
20
0
30
0
70
128
71
5
72
8
73
6
0
VERTEX
8
OBJECT__21
10
0
20
0
30
0
70
128
71
3
72
4
73
1
0
SEQEND
8
OBJECT__21
0
POLYLINE
8
OBJECT__22
66
1
70
64
71
16
72
14
62
253
0
VERTEX
8
OBJECT__22
10
129.804001
20
-14.000000
30
384.394989
70
192
0
VERTEX
8
OBJECT__22
10
129.804001
20
14.000000
30
384.394989
70
192
0
VERTEX
8
OBJECT__22
10
132.039001
20
14.000000
30
377.510010
70
192
0
VERTEX
8
OBJECT__22
10
127.103996
20
-14.000000
30
388.398987
70
192
0
VERTEX
8
OBJECT__22
10
127.103996
20
14.000000
30
388.398987
70
192
0
VERTEX
8
OBJECT__22
10
118.012001
20
-14.000000
30
396.029999
70
192
0
VERTEX
8
OBJECT__22
10
118.012001
20
14.000000
30
396.029999
70
192
0
VERTEX
8
OBJECT__22
10
120.212997
20
14.000000
30
395.049988
70
192
0
VERTEX
8
OBJECT__22
10
125.757004
20
14.000000
30
390.397003
70
192
0
VERTEX
8
OBJECT__22
10
125.757004
20
-14.000000
30
390.397003
70
192
0
VERTEX
8
OBJECT__22
10
120.212997
20
-14.000000
30
395.049988
70
192
0
VERTEX
8
OBJECT__22
10
113.599998
20
14.000000
30
397.994995
70
192
0
VERTEX
8
OBJECT__22
10
113.599998
20
-14.000000
30
397.994995
70
192
0
VERTEX
8
OBJECT__22
10
106.431999
20
-14.000000
30
399.002991
70
192
0
VERTEX
8
OBJECT__22
10
106.431999
20
14.000000
30
399.002991
70
192
0
VERTEX
8
OBJECT__22
10
132.039001
20
-14.000000
30
377.510010
70
192
0
VERTEX
8
OBJECT__22
10
0
20
0
30
0
70
128
71
1
72
2
73
3
0
VERTEX
8
OBJECT__22
10
0
20
0
30
0
70
128
71
2
72
1
73
4
0
VERTEX
8
OBJECT__22
10
0
20
0
30
0
70
128
71
4
72
5
73
2
0
VERTEX
8
OBJECT__22
10
0
20
0
30
0
70
128
71
6
72
7
73
8
0
VERTEX
8
OBJECT__22
10
0
20
0
30
0
70
128
71
9
72
10
73
11
0
VERTEX
8
OBJECT__22
10
0
20
0
30
0
70
128
71
11
72
8
73
9
0
VERTEX
8
OBJECT__22
10
0
20
0
30
0
70
128
71
4
72
10
73
9
0
VERTEX
8
OBJECT__22
10
0
20
0
30
0
70
128
71
9
72
5
73
4
0
VERTEX
8
OBJECT__22
10
0
20
0
30
0
70
128
71
12
72
13
73
14
0
VERTEX
8
OBJECT__22
10
0
20
0
30
0
70
128
71
13
72
12
73
7
0
VERTEX
8
OBJECT__22
10
0
20
0
30
0
70
128
71
7
72
6
73
13
0
VERTEX
8
OBJECT__22
10
0
20
0
30
0
70
128
71
14
72
15
73
12
0
VERTEX
8
OBJECT__22
10
0
20
0
30
0
70
128
71
8
72
11
73
6
0
VERTEX
8
OBJECT__22
10
0
20
0
30
0
70
128
71
3
72
16
73
1
0
SEQEND
8
OBJECT__22
0
POLYLINE
8
OBJECT__23
66
1
70
64
71
5
72
3
62
253
0
VERTEX
8
OBJECT__23
10
133.983002
20
14.500000
30
369.346985
70
192
0
VERTEX
8
OBJECT__23
10
133.490997
20
14.000000
30
369.260010
70
192
0
VERTEX
8
OBJECT__23
10
132.182999
20
14.354000
30
377.535004
70
192
0
VERTEX
8
OBJECT__23
10
132.039001
20
14.000000
30
377.510010
70
192
0
VERTEX
8
OBJECT__23
10
132.531006
20
14.500000
30
377.596985
70
192
0
VERTEX
8
OBJECT__23
10
0
20
0
30
0
70
128
71
1
72
2
73
3
0
VERTEX
8
OBJECT__23
10
0
20
0
30
0
70
128
71
2
72
4
73
3
0
VERTEX
8
OBJECT__23
10
0
20
0
30
0
70
128
71
3
72
5
73
1
0
SEQEND
8
OBJECT__23
0
POLYLINE
8
OBJECT__24
66
1
70
64
71
5
72
3
62
253
0
VERTEX
8
OBJECT__24
10
133.983002
20
-14.500000
30
369.346985
70
192
0
VERTEX
8
OBJECT__24
10
132.531006
20
-14.500000
30
377.596985
70
192
0
VERTEX
8
OBJECT__24
10
132.182999
20
-14.354000
30
377.535004
70
192
0
VERTEX
8
OBJECT__24
10
133.490997
20
-14.000000
30
369.260010
70
192
0
VERTEX
8
OBJECT__24
10
132.039001
20
-14.000000
30
377.510010
70
192
0
VERTEX
8
OBJECT__24
10
0
20
0
30
0
70
128
71
1
72
2
73
3
0
VERTEX
8
OBJECT__24
10
0
20
0
30
0
70
128
71
3
72
4
73
1
0
VERTEX
8
OBJECT__24
10
0
20
0
30
0
70
128
71
3
72
5
73
4
0
SEQEND
8
OBJECT__24
0
POLYLINE
8
OBJECT__25
66
1
70
64
71
4
72
2
62
253
0
VERTEX
8
OBJECT__25
10
133.490997
20
14.000000
30
369.260010
70
192
0
VERTEX
8
OBJECT__25
10
133.490997
20
-14.000000
30
369.260010
70
192
0
VERTEX
8
OBJECT__25
10
132.039001
20
-14.000000
30
377.510010
70
192
0
VERTEX
8
OBJECT__25
10
132.039001
20
14.000000
30
377.510010
70
192
0
VERTEX
8
OBJECT__25
10
0
20
0
30
0
70
128
71
1
72
2
73
3
0
VERTEX
8
OBJECT__25
10
0
20
0
30
0
70
128
71
3
72
4
73
1
0
SEQEND
8
OBJECT__25
0
POLYLINE
8
OBJECT__26
66
1
70
64
71
8
72
6
62
253
0
VERTEX
8
OBJECT__26
10
145.309006
20
-14.000000
30
371.339996
70
192
0
VERTEX
8
OBJECT__26
10
144.817001
20
-14.500000
30
371.252991
70
192
0
VERTEX
8
OBJECT__26
10
133.983002
20
-14.500000
30
369.346985
70
192
0
VERTEX
8
OBJECT__26
10
145.309006
20
14.000000
30
371.339996
70
192
0
VERTEX
8
OBJECT__26
10
133.490997
20
-14.000000
30
369.260010
70
192
0
VERTEX
8
OBJECT__26
10
133.490997
20
14.000000
30
369.260010
70
192
0
VERTEX
8
OBJECT__26
10
133.983002
20
14.500000
30
369.346985
70
192
0
VERTEX
8
OBJECT__26
10
144.817001
20
14.500000
30
371.252991
70
192
0
VERTEX
8
OBJECT__26
10
0
20
0
30
0
70
128
71
1
72
2
73
3
0
VERTEX
8
OBJECT__26
10
0
20
0
30
0
70
128
71
4
72
1
73
5
0
VERTEX
8
OBJECT__26
10
0
20
0
30
0
70
128
71
5
72
6
73
4
0
VERTEX
8
OBJECT__26
10
0
20
0
30
0
70
128
71
4
72
6
73
7
0
VERTEX
8
OBJECT__26
10
0
20
0
30
0
70
128
71
7
72
8
73
4
0
VERTEX
8
OBJECT__26
10
0
20
0
30
0
70
128
71
3
72
5
73
1
0
SEQEND
8
OBJECT__26
0
POLYLINE
8
OBJECT__27
66
1
70
64
71
4
72
2
62
253
0
VERTEX
8
OBJECT__27
10
143.365005
20
14.500000
30
379.502991
70
192
0
VERTEX
8
OBJECT__27
10
143.856995
20
14.000000
30
379.589996
70
192
0
VERTEX
8
OBJECT__27
10
145.309006
20
14.000000
30
371.339996
70
192
0
VERTEX
8
OBJECT__27
10
144.817001
20
14.500000
30
371.252991
70
192
0
VERTEX
8
OBJECT__27
10
0
20
0
30
0
70
128
71
1
72
2
73
3
0
VERTEX
8
OBJECT__27
10
0
20
0
30
0
70
128
71
3
72
4
73
1
0
SEQEND
8
OBJECT__27
0
POLYLINE
8
OBJECT__28
66
1
70
64
71
4
72
2
62
253
0
VERTEX
8
OBJECT__28
10
145.309006
20
14.000000
30
371.339996
70
192
0
VERTEX
8
OBJECT__28
10
143.856995
20
14.000000
30
379.589996
70
192
0
VERTEX
8
OBJECT__28
10
143.856995
20
-14.000000
30
379.589996
70
192
0
VERTEX
8
OBJECT__28
10
145.309006
20
-14.000000
30
371.339996
70
192
0
VERTEX
8
OBJECT__28
10
0
20
0
30
0
70
128
71
1
72
2
73
3
0
VERTEX
8
OBJECT__28
10
0
20
0
30
0
70
128
71
3
72
4
73
1
0
SEQEND
8
OBJECT__28
0
POLYLINE
8
OBJECT__29
66
1
70
64
71
4
72
2
62
253
0
VERTEX
8
OBJECT__29
10
143.365005
20
-14.500000
30
379.502991
70
192
0
VERTEX
8
OBJECT__29
10
144.817001
20
-14.500000
30
371.252991
70
192
0
VERTEX
8
OBJECT__29
10
145.309006
20
-14.000000
30
371.339996
70
192
0
VERTEX
8
OBJECT__29
10
143.856995
20
-14.000000
30
379.589996
70
192
0
VERTEX
8
OBJECT__29
10
0
20
0
30
0
70
128
71
1
72
2
73
3
0
VERTEX
8
OBJECT__29
10
0
20
0
30
0
70
128
71
3
72
4
73
1
0
SEQEND
8
OBJECT__29
0
POLYLINE
8
OBJECT__30
66
1
70
64
71
15
72
13
62
253
0
VERTEX
8
OBJECT__30
10
106.431999
20
14.000000
30
411.002991
70
192
0
VERTEX
8
OBJECT__30
10
116.908997
20
14.000000
30
409.529999
70
192
0
VERTEX
8
OBJECT__30
10
116.771004
20
14.500000
30
409.049011
70
192
0
VERTEX
8
OBJECT__30
10
126.307999
20
14.500000
30
404.802002
70
192
0
VERTEX
8
OBJECT__30
10
119.319000
20
14.000000
30
408.457001
70
192
0
VERTEX
8
OBJECT__30
10
134.304993
20
14.500000
30
398.089996
70
192
0
VERTEX
8
OBJECT__30
10
130.625000
20
14.000000
30
401.825012
70
192
0
VERTEX
8
OBJECT__30
10
126.572998
20
14.000000
30
405.226013
70
192
0
VERTEX
8
OBJECT__30
10
134.675995
20
14.000000
30
398.424988
70
192
0
VERTEX
8
OBJECT__30
10
139.115997
20
14.000000
30
391.839996
70
192
0
VERTEX
8
OBJECT__30
10
140.141006
20
14.500000
30
389.433990
70
192
0
VERTEX
8
OBJECT__30
10
143.856995
20
14.000000
30
379.589996
70
192
0
VERTEX
8
OBJECT__30
10
143.365005
20
14.500000
30
379.502991
70
192
0
VERTEX
8
OBJECT__30
10
140.589996
20
14.000000
30
389.653015
70
192
0
VERTEX
8
OBJECT__30
10
106.431999
20
14.500000
30
410.502991
70
192
0
VERTEX
8
OBJECT__30
10
0
20
0
30
0
70
128
71
1
72
2
73
3
0
VERTEX
8
OBJECT__30
10
0
20
0
30
0
70
128
71
4
72
3
73
5
0
VERTEX
8
OBJECT__30
10
0
20
0
30
0
70
128
71
3
72
2
73
5
0
VERTEX
8
OBJECT__30
10
0
20
0
30
0
70
128
71
6
72
4
73
7
0
VERTEX
8
OBJECT__30
10
0
20
0
30
0
70
128
71
4
72
8
73
7
0
VERTEX
8
OBJECT__30
10
0
20
0
30
0
70
128
71
6
72
9
73
10
0
VERTEX
8
OBJECT__30
10
0
20
0
30
0
70
128
71
10
72
11
73
6
0
VERTEX
8
OBJECT__30
10
0
20
0
30
0
70
128
71
12
72
13
73
11
0
VERTEX
8
OBJECT__30
10
0
20
0
30
0
70
128
71
11
72
14
73
12
0
VERTEX
8
OBJECT__30
10
0
20
0
30
0
70
128
71
10
72
14
73
11
0
VERTEX
8
OBJECT__30
10
0
20
0
30
0
70
128
71
7
72
9
73
6
0
VERTEX
8
OBJECT__30
10
0
20
0
30
0
70
128
71
5
72
8
73
4
0
VERTEX
8
OBJECT__30
10
0
20
0
30
0
70
128
71
3
72
15
73
1
0
SEQEND
8
OBJECT__30
0
POLYLINE
8
OBJECT__31
66
1
70
64
71
18
72
16
62
253
0
VERTEX
8
OBJECT__31
10
119.319000
20
14.000000
30
408.457001
70
192
0
VERTEX
8
OBJECT__31
10
116.908997
20
14.000000
30
409.529999
70
192
0
VERTEX
8
OBJECT__31
10
116.908997
20
-14.000000
30
409.529999
70
192
0
VERTEX
8
OBJECT__31
10
106.431999
20
-14.000000
30
411.002991
70
192
0
VERTEX
8
OBJECT__31
10
106.431999
20
14.000000
30
411.002991
70
192
0
VERTEX
8
OBJECT__31
10
130.625000
20
14.000000
30
401.825012
70
192
0
VERTEX
8
OBJECT__31
10
126.572998
20
14.000000
30
405.226013
70
192
0
VERTEX
8
OBJECT__31
10
126.572998
20
-14.000000
30
405.226013
70
192
0
VERTEX
8
OBJECT__31
10
119.319000
20
-14.000000
30
408.457001
70
192
0
VERTEX
8
OBJECT__31
10
139.115997
20
14.000000
30
391.839996
70
192
0
VERTEX
8
OBJECT__31
10
134.675995
20
14.000000
30
398.424988
70
192
0
VERTEX
8
OBJECT__31
10
134.675995
20
-14.000000
30
398.424988
70
192
0
VERTEX
8
OBJECT__31
10
130.625000
20
-14.000000
30
401.825012
70
192
0
VERTEX
8
OBJECT__31
10
139.115997
20
-14.000000
30
391.839996
70
192
0
VERTEX
8
OBJECT__31
10
140.589996
20
-14.000000
30
389.653015
70
192
0
VERTEX
8
OBJECT__31
10
140.589996
20
14.000000
30
389.653015
70
192
0
VERTEX
8
OBJECT__31
10
143.856995
20
-14.000000
30
379.589996
70
192
0
VERTEX
8
OBJECT__31
10
143.856995
20
14.000000
30
379.589996
70
192
0
VERTEX
8
OBJECT__31
10
0
20
0
30
0
70
128
71
1
72
2
73
3
0
VERTEX
8
OBJECT__31
10
0
20
0
30
0
70
128
71
4
72
3
73
2
0
VERTEX
8
OBJECT__31
10
0
20
0
30
0
70
128
71
2
72
5
73
4
0
VERTEX
8
OBJECT__31
10
0
20
0
30
0
70
128
71
6
72
7
73
8
0
VERTEX
8
OBJECT__31
10
0
20
0
30
0
70
128
71
9
72
8
73
7
0
VERTEX
8
OBJECT__31
10
0
20
0
30
0
70
128
71
7
72
1
73
9
0
VERTEX
8
OBJECT__31
10
0
20
0
30
0
70
128
71
10
72
11
73
12
0
VERTEX
8
OBJECT__31
10
0
20
0
30
0
70
128
71
13
72
12
73
11
0
VERTEX
8
OBJECT__31
10
0
20
0
30
0
70
128
71
11
72
6
73
13
0
VERTEX
8
OBJECT__31
10
0
20
0
30
0
70
128
71
14
72
15
73
16
0
VERTEX
8
OBJECT__31
10
0
20
0
30
0
70
128
71
16
72
15
73
17
0
VERTEX
8
OBJECT__31
10
0
20
0
30
0
70
128
71
17
72
18
73
16
0
VERTEX
8
OBJECT__31
10
0
20
0
30
0
70
128
71
16
72
10
73
14
0
VERTEX
8
OBJECT__31
10
0
20
0
30
0
70
128
71
12
72
14
73
10
0
VERTEX
8
OBJECT__31
10
0
20
0
30
0
70
128
71
8
72
13
73
6
0
VERTEX
8
OBJECT__31
10
0
20
0
30
0
70
128
71
3
72
9
73
1
0
SEQEND
8
OBJECT__31
0
POLYLINE
8
OBJECT__32
66
1
70
64
71
15
72
13
62
253
0
VERTEX
8
OBJECT__32
10
106.431999
20
-14.000000
30
411.002991
70
192
0
VERTEX
8
OBJECT__32
10
106.431999
20
-14.500000
30
410.502991
70
192
0
VERTEX
8
OBJECT__32
10
116.771004
20
-14.500000
30
409.049011
70
192
0
VERTEX
8
OBJECT__32
10
126.307999
20
-14.500000
30
404.802002
70
192
0
VERTEX
8
OBJECT__32
10
126.572998
20
-14.000000
30
405.226013
70
192
0
VERTEX
8
OBJECT__32
10
119.319000
20
-14.000000
30
408.457001
70
192
0
VERTEX
8
OBJECT__32
10
134.304993
20
-14.500000
30
398.089996
70
192
0
VERTEX
8
OBJECT__32
10
134.675995
20
-14.000000
30
398.424988
70
192
0
VERTEX
8
OBJECT__32
10
130.625000
20
-14.000000
30
401.825012
70
192
0
VERTEX
8
OBJECT__32
10
140.141006
20
-14.500000
30
389.433990
70
192
0
VERTEX
8
OBJECT__32
10
139.115997
20
-14.000000
30
391.839996
70
192
0
VERTEX
8
OBJECT__32
10
140.589996
20
-14.000000
30
389.653015
70
192
0
VERTEX
8
OBJECT__32
10
143.856995
20
-14.000000
30
379.589996
70
192
0
VERTEX
8
OBJECT__32
10
143.365005
20
-14.500000
30
379.502991
70
192
0
VERTEX
8
OBJECT__32
10
116.908997
20
-14.000000
30
409.529999
70
192
0
VERTEX
8
OBJECT__32
10
0
20
0
30
0
70
128
71
1
72
2
73
3
0
VERTEX
8
OBJECT__32
10
0
20
0
30
0
70
128
71
4
72
5
73
6
0
VERTEX
8
OBJECT__32
10
0
20
0
30
0
70
128
71
6
72
3
73
4
0
VERTEX
8
OBJECT__32
10
0
20
0
30
0
70
128
71
7
72
8
73
9
0
VERTEX
8
OBJECT__32
10
0
20
0
30
0
70
128
71
9
72
4
73
7
0
VERTEX
8
OBJECT__32
10
0
20
0
30
0
70
128
71
7
72
10
73
11
0
VERTEX
8
OBJECT__32
10
0
20
0
30
0
70
128
71
10
72
12
73
11
0
VERTEX
8
OBJECT__32
10
0
20
0
30
0
70
128
71
13
72
12
73
10
0
VERTEX
8
OBJECT__32
10
0
20
0
30
0
70
128
71
10
72
14
73
13
0
VERTEX
8
OBJECT__32
10
0
20
0
30
0
70
128
71
11
72
8
73
7
0
VERTEX
8
OBJECT__32
10
0
20
0
30
0
70
128
71
9
72
5
73
4
0
VERTEX
8
OBJECT__32
10
0
20
0
30
0
70
128
71
6
72
15
73
3
0
VERTEX
8
OBJECT__32
10
0
20
0
30
0
70
128
71
3
72
15
73
1
0
SEQEND
8
OBJECT__32
0
POLYLINE
8
OBJECT__33
66
1
70
64
71
5
72
3
62
253
0
VERTEX
8
OBJECT__33
10
106.431999
20
14.500000
30
410.502991
70
192
0
VERTEX
8
OBJECT__33
10
32.000000
20
14.500000
30
410.502991
70
192
0
VERTEX
8
OBJECT__33
10
32.000000
20
14.354000
30
410.855988
70
192
0
VERTEX
8
OBJECT__33
10
106.431999
20
14.000000
30
411.002991
70
192
0
VERTEX
8
OBJECT__33
10
32.000000
20
14.000000
30
411.002991
70
192
0
VERTEX
8
OBJECT__33
10
0
20
0
30
0
70
128
71
1
72
2
73
3
0
VERTEX
8
OBJECT__33
10
0
20
0
30
0
70
128
71
3
72
4
73
1
0
VERTEX
8
OBJECT__33
10
0
20
0
30
0
70
128
71
3
72
5
73
4
0
SEQEND
8
OBJECT__33
0
POLYLINE
8
OBJECT__34
66
1
70
64
71
29
72
27
62
253
0
VERTEX
8
OBJECT__34
10
32.000000
20
14.500000
30
399.502991
70
192
0
VERTEX
8
OBJECT__34
10
32.000000
20
14.500000
30
410.502991
70
192
0
VERTEX
8
OBJECT__34
10
106.431999
20
14.500000
30
410.502991
70
192
0
VERTEX
8
OBJECT__34
10
116.771004
20
14.500000
30
409.049011
70
192
0
VERTEX
8
OBJECT__34
10
113.737999
20
14.500000
30
398.476013
70
192
0
VERTEX
8
OBJECT__34
10
106.431999
20
14.500000
30
399.502991
70
192
0
VERTEX
8
OBJECT__34
10
140.141006
20
14.500000
30
389.433990
70
192
0
VERTEX
8
OBJECT__34
10
143.365005
20
14.500000
30
379.502991
70
192
0
VERTEX
8
OBJECT__34
10
132.531006
20
14.500000
30
377.596985
70
192
0
VERTEX
8
OBJECT__34
10
133.983002
20
14.500000
30
369.346985
70
192
0
VERTEX
8
OBJECT__34
10
5.483000
20
14.500000
30
399.519012
70
192
0
VERTEX
8
OBJECT__34
10
13.250000
20
14.500000
30
405.479004
70
192
0
VERTEX
8
OBJECT__34
10
16.424000
20
14.500000
30
394.441986
70
192
0
VERTEX
8
OBJECT__34
10
22.294001
20
14.500000
30
409.225006
70
192
0
VERTEX
8
OBJECT__34
10
130.253006
20
14.500000
30
384.614014
70
192
0
VERTEX
8
OBJECT__34
10
126.128998
20
14.500000
30
390.730988
70
192
0
VERTEX
8
OBJECT__34
10
144.817001
20
14.500000
30
371.252991
70
192
0
VERTEX
8
OBJECT__34
10
-0.476000
20
14.500000
30
391.752991
70
192
0
VERTEX
8
OBJECT__34
10
10.561000
20
14.500000
30
388.579010
70
192
0
VERTEX
8
OBJECT__34
10
6.797000
20
14.500000
30
381.191986
70
192
0
VERTEX
8
OBJECT__34
10
126.307999
20
14.500000
30
404.802002
70
192
0
VERTEX
8
OBJECT__34
10
120.477997
20
14.500000
30
395.473999
70
192
0
VERTEX
8
OBJECT__34
10
134.304993
20
14.500000
30
398.089996
70
192
0
VERTEX
8
OBJECT__34
10
23.811001
20
14.500000
30
398.205994
70
192
0
VERTEX
8
OBJECT__34
10
-5.500000
20
14.500000
30
292.000000
70
192
0
VERTEX
8
OBJECT__34
10
-5.500000
20
14.500000
30
373.002991
70
192
0
VERTEX
8
OBJECT__34
10
5.500000
20
14.500000
30
373.002991
70
192
0
VERTEX
8
OBJECT__34
10
-4.222000
20
14.500000
30
382.708008
70
192
0
VERTEX
8
OBJECT__34
10
5.500000
20
14.500000
30
292.000000
70
192
0
VERTEX
8
OBJECT__34
10
0
20
0
30
0
70
128
71
1
72
2
73
3
0
VERTEX
8
OBJECT__34
10
0
20
0
30
0
70
128
71
4
72
5
73
6
0
VERTEX
8
OBJECT__34
10
0
20
0
30
0
70
128
71
7
72
8
73
9
0
VERTEX
8
OBJECT__34
10
0
20
0
30
0
70
128
71
10
72
9
73
8
0
VERTEX
8
OBJECT__34
10
0
20
0
30
0
70
128
71
11
72
12
73
13
0
VERTEX
8
OBJECT__34
10
0
20
0
30
0
70
128
71
14
72
2
73
1
0
VERTEX
8
OBJECT__34
10
0
20
0
30
0
70
128
71
6
72
3
73
4
0
VERTEX
8
OBJECT__34
10
0
20
0
30
0
70
128
71
7
72
15
73
16
0
VERTEX
8
OBJECT__34
10
0
20
0
30
0
70
128
71
8
72
17
73
10
0
VERTEX
8
OBJECT__34
10
0
20
0
30
0
70
128
71
18
72
19
73
20
0
VERTEX
8
OBJECT__34
10
0
20
0
30
0
70
128
71
19
72
18
73
11
0
VERTEX
8
OBJECT__34
10
0
20
0
30
0
70
128
71
3
72
6
73
1
0
VERTEX
8
OBJECT__34
10
0
20
0
30
0
70
128
71
21
72
22
73
5
0
VERTEX
8
OBJECT__34
10
0
20
0
30
0
70
128
71
23
72
16
73
22
0
VERTEX
8
OBJECT__34
10
0
20
0
30
0
70
128
71
9
72
15
73
7
0
VERTEX
8
OBJECT__34
10
0
20
0
30
0
70
128
71
13
72
19
73
11
0
VERTEX
8
OBJECT__34
10
0
20
0
30
0
70
128
71
12
72
14
73
24
0
VERTEX
8
OBJECT__34
10
0
20
0
30
0
70
128
71
5
72
4
73
21
0
VERTEX
8
OBJECT__34
10
0
20
0
30
0
70
128
71
16
72
23
73
7
0
VERTEX
8
OBJECT__34
10
0
20
0
30
0
70
128
71
25
72
26
73
27
0
VERTEX
8
OBJECT__34
10
0
20
0
30
0
70
128
71
28
72
20
73
27
0
VERTEX
8
OBJECT__34
10
0
20
0
30
0
70
128
71
24
72
13
73
12
0
VERTEX
8
OBJECT__34
10
0
20
0
30
0
70
128
71
22
72
21
73
23
0
VERTEX
8
OBJECT__34
10
0
20
0
30
0
70
128
71
27
72
26
73
28
0
VERTEX
8
OBJECT__34
10
0
20
0
30
0
70
128
71
1
72
24
73
14
0
VERTEX
8
OBJECT__34
10
0
20
0
30
0
70
128
71
20
72
28
73
18
0
VERTEX
8
OBJECT__34
10
0
20
0
30
0
70
128
71
27
72
29
73
25
0
SEQEND
8
OBJECT__34
0
POLYLINE
8
OBJECT__35
66
1
70
64
71
4
72
2
62
253
0
VERTEX
8
OBJECT__35
10
106.431999
20
14.000000
30
411.002991
70
192
0
VERTEX
8
OBJECT__35
10
32.000000
20
14.000000
30
411.002991
70
192
0
VERTEX
8
OBJECT__35
10
32.000000
20
-14.000000
30
411.002991
70
192
0
VERTEX
8
OBJECT__35
10
106.431999
20
-14.000000
30
411.002991
70
192
0
VERTEX
8
OBJECT__35
10
0
20
0
30
0
70
128
71
1
72
2
73
3
0
VERTEX
8
OBJECT__35
10
0
20
0
30
0
70
128
71
3
72
4
73
1
0
SEQEND
8
OBJECT__35
0
POLYLINE
8
OBJECT__36
66
1
70
64
71
23
72
26
62
253
0
VERTEX
8
OBJECT__36
10
-4.705000
20
14.000000
30
382.838013
70
192
0
VERTEX
8
OBJECT__36
10
-4.564000
20
14.354000
30
382.799988
70
192
0
VERTEX
8
OBJECT__36
10
-5.854000
20
14.354000
30
373.002991
70
192
0
VERTEX
8
OBJECT__36
10
-2.807000
20
14.000000
30
387.420013
70
192
0
VERTEX
8
OBJECT__36
10
-0.782000
20
14.354000
30
391.928986
70
192
0
VERTEX
8
OBJECT__36
10
5.130000
20
14.000000
30
399.872986
70
192
0
VERTEX
8
OBJECT__36
10
5.233000
20
14.354000
30
399.769012
70
192
0
VERTEX
8
OBJECT__36
10
13.000000
20
14.000000
30
405.911987
70
192
0
VERTEX
8
OBJECT__36
10
13.073000
20
14.354000
30
405.785004
70
192
0
VERTEX
8
OBJECT__36
10
17.582001
20
14.000000
30
407.809998
70
192
0
VERTEX
8
OBJECT__36
10
22.202999
20
14.354000
30
409.566010
70
192
0
VERTEX
8
OBJECT__36
10
22.165001
20
14.000000
30
409.708008
70
192
0
VERTEX
8
OBJECT__36
10
32.000000
20
14.000000
30
411.002991
70
192
0
VERTEX
8
OBJECT__36
10
32.000000
20
14.354000
30
410.855988
70
192
0
VERTEX
8
OBJECT__36
10
-4.222000
20
14.500000
30
382.708008
70
192
0
VERTEX
8
OBJECT__36
10
-0.476000
20
14.500000
30
391.752991
70
192
0
VERTEX
8
OBJECT__36
10
5.483000
20
14.500000
30
399.519012
70
192
0
VERTEX
8
OBJECT__36
10
13.250000
20
14.500000
30
405.479004
70
192
0
VERTEX
8
OBJECT__36
10
22.294001
20
14.500000
30
409.225006
70
192
0
VERTEX
8
OBJECT__36
10
32.000000
20
14.500000
30
410.502991
70
192
0
VERTEX
8
OBJECT__36
10
-5.500000
20
14.500000
30
373.002991
70
192
0
VERTEX
8
OBJECT__36
10
-0.909000
20
14.000000
30
392.002991
70
192
0
VERTEX
8
OBJECT__36
10
-6.000000
20
14.000000
30
373.002991
70
192
0
VERTEX
8
OBJECT__36
10
0
20
0
30
0
70
128
71
1
72
2
73
3
0
VERTEX
8
OBJECT__36
10
0
20
0
30
0
70
128
71
2
72
1
73
4
0
VERTEX
8
OBJECT__36
10
0
20
0
30
0
70
128
71
4
72
5
73
2
0
VERTEX
8
OBJECT__36
10
0
20
0
30
0
70
128
71
6
72
7
73
5
0
VERTEX
8
OBJECT__36
10
0
20
0
30
0
70
128
71
8
72
9
73
7
0
VERTEX
8
OBJECT__36
10
0
20
0
30
0
70
128
71
9
72
8
73
10
0
VERTEX
8
OBJECT__36
10
0
20
0
30
0
70
128
71
10
72
11
73
9
0
VERTEX
8
OBJECT__36
10
0
20
0
30
0
70
128
71
12
72
13
73
14
0
VERTEX
8
OBJECT__36
10
0
20
0
30
0
70
128
71
3
72
2
73
15
0
VERTEX
8
OBJECT__36
10
0
20
0
30
0
70
128
71
5
72
16
73
15
0
VERTEX
8
OBJECT__36
10
0
20
0
30
0
70
128
71
7
72
17
73
16
0
VERTEX
8
OBJECT__36
10
0
20
0
30
0
70
128
71
9
72
18
73
17
0
VERTEX
8
OBJECT__36
10
0
20
0
30
0
70
128
71
11
72
19
73
18
0
VERTEX
8
OBJECT__36
10
0
20
0
30
0
70
128
71
11
72
14
73
20
0
VERTEX
8
OBJECT__36
10
0
20
0
30
0
70
128
71
20
72
19
73
11
0
VERTEX
8
OBJECT__36
10
0
20
0
30
0
70
128
71
18
72
9
73
11
0
VERTEX
8
OBJECT__36
10
0
20
0
30
0
70
128
71
17
72
7
73
9
0
VERTEX
8
OBJECT__36
10
0
20
0
30
0
70
128
71
16
72
5
73
7
0
VERTEX
8
OBJECT__36
10
0
20
0
30
0
70
128
71
15
72
2
73
5
0
VERTEX
8
OBJECT__36
10
0
20
0
30
0
70
128
71
15
72
21
73
3
0
VERTEX
8
OBJECT__36
10
0
20
0
30
0
70
128
71
14
72
11
73
12
0
VERTEX
8
OBJECT__36
10
0
20
0
30
0
70
128
71
10
72
12
73
11
0
VERTEX
8
OBJECT__36
10
0
20
0
30
0
70
128
71
7
72
6
73
8
0
VERTEX
8
OBJECT__36
10
0
20
0
30
0
70
128
71
5
72
22
73
6
0
VERTEX
8
OBJECT__36
10
0
20
0
30
0
70
128
71
4
72
22
73
5
0
VERTEX
8
OBJECT__36
10
0
20
0
30
0
70
128
71
3
72
23
73
1
0
SEQEND
8
OBJECT__36
0
POLYLINE
8
OBJECT__37
66
1
70
64
71
4
72
2
62
253
0
VERTEX
8
OBJECT__37
10
32.000000
20
-14.000000
30
411.002991
70
192
0
VERTEX
8
OBJECT__37
10
32.000000
20
-14.500000
30
410.502991
70
192
0
VERTEX
8
OBJECT__37
10
106.431999
20
-14.500000
30
410.502991
70
192
0
VERTEX
8
OBJECT__37
10
106.431999
20
-14.000000
30
411.002991
70
192
0
VERTEX
8
OBJECT__37
10
0
20
0
30
0
70
128
71
1
72
2
73
3
0
VERTEX
8
OBJECT__37
10
0
20
0
30
0
70
128
71
3
72
4
73
1
0
SEQEND
8
OBJECT__37
0
POLYLINE
8
OBJECT__38
66
1
70
64
71
29
72
27
62
253
0
VERTEX
8
OBJECT__38
10
143.365005
20
-14.500000
30
379.502991
70
192
0
VERTEX
8
OBJECT__38
10
132.531006
20
-14.500000
30
377.596985
70
192
0
VERTEX
8
OBJECT__38
10
133.983002
20
-14.500000
30
369.346985
70
192
0
VERTEX
8
OBJECT__38
10
140.141006
20
-14.500000
30
389.433990
70
192
0
VERTEX
8
OBJECT__38
10
130.253006
20
-14.500000
30
384.614014
70
192
0
VERTEX
8
OBJECT__38
10
116.771004
20
-14.500000
30
409.049011
70
192
0
VERTEX
8
OBJECT__38
10
106.431999
20
-14.500000
30
410.502991
70
192
0
VERTEX
8
OBJECT__38
10
106.431999
20
-14.500000
30
399.502991
70
192
0
VERTEX
8
OBJECT__38
10
32.000000
20
-14.500000
30
399.502991
70
192
0
VERTEX
8
OBJECT__38
10
134.304993
20
-14.500000
30
398.089996
70
192
0
VERTEX
8
OBJECT__38
10
126.128998
20
-14.500000
30
390.730988
70
192
0
VERTEX
8
OBJECT__38
10
32.000000
20
-14.500000
30
410.502991
70
192
0
VERTEX
8
OBJECT__38
10
22.294001
20
-14.500000
30
409.225006
70
192
0
VERTEX
8
OBJECT__38
10
23.811001
20
-14.500000
30
398.205994
70
192
0
VERTEX
8
OBJECT__38
10
5.483000
20
-14.500000
30
399.519012
70
192
0
VERTEX
8
OBJECT__38
10
10.561000
20
-14.500000
30
388.579010
70
192
0
VERTEX
8
OBJECT__38
10
16.424000
20
-14.500000
30
394.441986
70
192
0
VERTEX
8
OBJECT__38
10
126.307999
20
-14.500000
30
404.802002
70
192
0
VERTEX
8
OBJECT__38
10
120.477997
20
-14.500000
30
395.473999
70
192
0
VERTEX
8
OBJECT__38
10
113.737999
20
-14.500000
30
398.476013
70
192
0
VERTEX
8
OBJECT__38
10
13.250000
20
-14.500000
30
405.479004
70
192
0
VERTEX
8
OBJECT__38
10
-0.476000
20
-14.500000
30
391.752991
70
192
0
VERTEX
8
OBJECT__38
10
-4.222000
20
-14.500000
30
382.708008
70
192
0
VERTEX
8
OBJECT__38
10
6.797000
20
-14.500000
30
381.191986
70
192
0
VERTEX
8
OBJECT__38
10
-5.500000
20
-14.500000
30
373.002991
70
192
0
VERTEX
8
OBJECT__38
10
5.500000
20
-14.500000
30
373.002991
70
192
0
VERTEX
8
OBJECT__38
10
5.500000
20
-14.500000
30
292.000000
70
192
0
VERTEX
8
OBJECT__38
10
-5.500000
20
-14.500000
30
292.000000
70
192
0
VERTEX
8
OBJECT__38
10
144.817001
20
-14.500000
30
371.252991
70
192
0
VERTEX
8
OBJECT__38
10
0
20
0
30
0
70
128
71
1
72
2
73
3
0
VERTEX
8
OBJECT__38
10
0
20
0
30
0
70
128
71
4
72
5
73
2
0
VERTEX
8
OBJECT__38
10
0
20
0
30
0
70
128
71
6
72
7
73
8
0
VERTEX
8
OBJECT__38
10
0
20
0
30
0
70
128
71
9
72
8
73
7
0
VERTEX
8
OBJECT__38
10
0
20
0
30
0
70
128
71
2
72
1
73
4
0
VERTEX
8
OBJECT__38
10
0
20
0
30
0
70
128
71
4
72
10
73
11
0
VERTEX
8
OBJECT__38
10
0
20
0
30
0
70
128
71
7
72
12
73
9
0
VERTEX
8
OBJECT__38
10
0
20
0
30
0
70
128
71
13
72
14
73
9
0
VERTEX
8
OBJECT__38
10
0
20
0
30
0
70
128
71
15
72
16
73
17
0
VERTEX
8
OBJECT__38
10
0
20
0
30
0
70
128
71
11
72
5
73
4
0
VERTEX
8
OBJECT__38
10
0
20
0
30
0
70
128
71
10
72
18
73
19
0
VERTEX
8
OBJECT__38
10
0
20
0
30
0
70
128
71
18
72
6
73
20
0
VERTEX
8
OBJECT__38
10
0
20
0
30
0
70
128
71
9
72
12
73
13
0
VERTEX
8
OBJECT__38
10
0
20
0
30
0
70
128
71
17
72
21
73
15
0
VERTEX
8
OBJECT__38
10
0
20
0
30
0
70
128
71
22
72
23
73
24
0
VERTEX
8
OBJECT__38
10
0
20
0
30
0
70
128
71
19
72
11
73
10
0
VERTEX
8
OBJECT__38
10
0
20
0
30
0
70
128
71
8
72
20
73
6
0
VERTEX
8
OBJECT__38
10
0
20
0
30
0
70
128
71
21
72
17
73
14
0
VERTEX
8
OBJECT__38
10
0
20
0
30
0
70
128
71
24
72
16
73
22
0
VERTEX
8
OBJECT__38
10
0
20
0
30
0
70
128
71
20
72
19
73
18
0
VERTEX
8
OBJECT__38
10
0
20
0
30
0
70
128
71
15
72
22
73
16
0
VERTEX
8
OBJECT__38
10
0
20
0
30
0
70
128
71
23
72
25
73
26
0
VERTEX
8
OBJECT__38
10
0
20
0
30
0
70
128
71
27
72
26
73
25
0
VERTEX
8
OBJECT__38
10
0
20
0
30
0
70
128
71
14
72
13
73
21
0
VERTEX
8
OBJECT__38
10
0
20
0
30
0
70
128
71
25
72
28
73
27
0
VERTEX
8
OBJECT__38
10
0
20
0
30
0
70
128
71
26
72
24
73
23
0
VERTEX
8
OBJECT__38
10
0
20
0
30
0
70
128
71
3
72
29
73
1
0
SEQEND
8
OBJECT__38
0
POLYLINE
8
OBJECT__39
66
1
70
64
71
16
72
14
62
253
0
VERTEX
8
OBJECT__39
10
-6.000000
20
-14.000000
30
373.002991
70
192
0
VERTEX
8
OBJECT__39
10
-5.500000
20
-14.500000
30
373.002991
70
192
0
VERTEX
8
OBJECT__39
10
-4.222000
20
-14.500000
30
382.708008
70
192
0
VERTEX
8
OBJECT__39
10
-0.476000
20
-14.500000
30
391.752991
70
192
0
VERTEX
8
OBJECT__39
10
-2.807000
20
-14.000000
30
387.420013
70
192
0
VERTEX
8
OBJECT__39
10
-0.909000
20
-14.000000
30
392.002991
70
192
0
VERTEX
8
OBJECT__39
10
5.130000
20
-14.000000
30
399.872986
70
192
0
VERTEX
8
OBJECT__39
10
13.000000
20
-14.000000
30
405.911987
70
192
0
VERTEX
8
OBJECT__39
10
5.483000
20
-14.500000
30
399.519012
70
192
0
VERTEX
8
OBJECT__39
10
13.250000
20
-14.500000
30
405.479004
70
192
0
VERTEX
8
OBJECT__39
10
22.294001
20
-14.500000
30
409.225006
70
192
0
VERTEX
8
OBJECT__39
10
17.582001
20
-14.000000
30
407.809998
70
192
0
VERTEX
8
OBJECT__39
10
22.165001
20
-14.000000
30
409.708008
70
192
0
VERTEX
8
OBJECT__39
10
32.000000
20
-14.500000
30
410.502991
70
192
0
VERTEX
8
OBJECT__39
10
32.000000
20
-14.000000
30
411.002991
70
192
0
VERTEX
8
OBJECT__39
10
-4.705000
20
-14.000000
30
382.838013
70
192
0
VERTEX
8
OBJECT__39
10
0
20
0
30
0
70
128
71
1
72
2
73
3
0
VERTEX
8
OBJECT__39
10
0
20
0
30
0
70
128
71
3
72
4
73
5
0
VERTEX
8
OBJECT__39
10
0
20
0
30
0
70
128
71
4
72
6
73
5
0
VERTEX
8
OBJECT__39
10
0
20
0
30
0
70
128
71
7
72
6
73
4
0
VERTEX
8
OBJECT__39
10
0
20
0
30
0
70
128
71
8
72
7
73
9
0
VERTEX
8
OBJECT__39
10
0
20
0
30
0
70
128
71
10
72
11
73
12
0
VERTEX
8
OBJECT__39
10
0
20
0
30
0
70
128
71
11
72
13
73
12
0
VERTEX
8
OBJECT__39
10
0
20
0
30
0
70
128
71
13
72
11
73
14
0
VERTEX
8
OBJECT__39
10
0
20
0
30
0
70
128
71
14
72
15
73
13
0
VERTEX
8
OBJECT__39
10
0
20
0
30
0
70
128
71
12
72
8
73
10
0
VERTEX
8
OBJECT__39
10
0
20
0
30
0
70
128
71
9
72
10
73
8
0
VERTEX
8
OBJECT__39
10
0
20
0
30
0
70
128
71
4
72
9
73
7
0
VERTEX
8
OBJECT__39
10
0
20
0
30
0
70
128
71
5
72
16
73
3
0
VERTEX
8
OBJECT__39
10
0
20
0
30
0
70
128
71
3
72
16
73
1
0
SEQEND
8
OBJECT__39
0
POLYLINE
8
OBJECT__40
66
1
70
64
71
18
72
16
62
253
0
VERTEX
8
OBJECT__40
10
-2.807000
20
14.000000
30
387.420013
70
192
0
VERTEX
8
OBJECT__40
10
-4.705000
20
14.000000
30
382.838013
70
192
0
VERTEX
8
OBJECT__40
10
-4.705000
20
-14.000000
30
382.838013
70
192
0
VERTEX
8
OBJECT__40
10
-6.000000
20
14.000000
30
373.002991
70
192
0
VERTEX
8
OBJECT__40
10
-6.000000
20
-14.000000
30
373.002991
70
192
0
VERTEX
8
OBJECT__40
10
5.130000
20
14.000000
30
399.872986
70
192
0
VERTEX
8
OBJECT__40
10
-0.909000
20
14.000000
30
392.002991
70
192
0
VERTEX
8
OBJECT__40
10
-0.909000
20
-14.000000
30
392.002991
70
192
0
VERTEX
8
OBJECT__40
10
-2.807000
20
-14.000000
30
387.420013
70
192
0
VERTEX
8
OBJECT__40
10
17.582001
20
14.000000
30
407.809998
70
192
0
VERTEX
8
OBJECT__40
10
13.000000
20
14.000000
30
405.911987
70
192
0
VERTEX
8
OBJECT__40
10
13.000000
20
-14.000000
30
405.911987
70
192
0
VERTEX
8
OBJECT__40
10
5.130000
20
-14.000000
30
399.872986
70
192
0
VERTEX
8
OBJECT__40
10
32.000000
20
14.000000
30
411.002991
70
192
0
VERTEX
8
OBJECT__40
10
22.165001
20
14.000000
30
409.708008
70
192
0
VERTEX
8
OBJECT__40
10
22.165001
20
-14.000000
30
409.708008
70
192
0
VERTEX
8
OBJECT__40
10
17.582001
20
-14.000000
30
407.809998
70
192
0
VERTEX
8
OBJECT__40
10
32.000000
20
-14.000000
30
411.002991
70
192
0
VERTEX
8
OBJECT__40
10
0
20
0
30
0
70
128
71
1
72
2
73
3
0
VERTEX
8
OBJECT__40
10
0
20
0
30
0
70
128
71
3
72
2
73
4
0
VERTEX
8
OBJECT__40
10
0
20
0
30
0
70
128
71
4
72
5
73
3
0
VERTEX
8
OBJECT__40
10
0
20
0
30
0
70
128
71
6
72
7
73
8
0
VERTEX
8
OBJECT__40
10
0
20
0
30
0
70
128
71
9
72
8
73
7
0
VERTEX
8
OBJECT__40
10
0
20
0
30
0
70
128
71
7
72
1
73
9
0
VERTEX
8
OBJECT__40
10
0
20
0
30
0
70
128
71
10
72
11
73
12
0
VERTEX
8
OBJECT__40
10
0
20
0
30
0
70
128
71
12
72
11
73
6
0
VERTEX
8
OBJECT__40
10
0
20
0
30
0
70
128
71
6
72
13
73
12
0
VERTEX
8
OBJECT__40
10
0
20
0
30
0
70
128
71
14
72
15
73
16
0
VERTEX
8
OBJECT__40
10
0
20
0
30
0
70
128
71
17
72
16
73
15
0
VERTEX
8
OBJECT__40
10
0
20
0
30
0
70
128
71
15
72
10
73
17
0
VERTEX
8
OBJECT__40
10
0
20
0
30
0
70
128
71
16
72
18
73
14
0
VERTEX
8
OBJECT__40
10
0
20
0
30
0
70
128
71
12
72
17
73
10
0
VERTEX
8
OBJECT__40
10
0
20
0
30
0
70
128
71
8
72
13
73
6
0
VERTEX
8
OBJECT__40
10
0
20
0
30
0
70
128
71
3
72
9
73
1
0
SEQEND
8
OBJECT__40
0
POLYLINE
8
OBJECT__41
66
1
70
64
71
5
72
3
62
253
0
VERTEX
8
OBJECT__41
10
-6.000000
20
14.000000
30
292.000000
70
192
0
VERTEX
8
OBJECT__41
10
-6.000000
20
14.000000
30
373.002991
70
192
0
VERTEX
8
OBJECT__41
10
-5.854000
20
14.354000
30
373.002991
70
192
0
VERTEX
8
OBJECT__41
10
-5.500000
20
14.500000
30
292.000000
70
192
0
VERTEX
8
OBJECT__41
10
-5.500000
20
14.500000
30
373.002991
70
192
0
VERTEX
8
OBJECT__41
10
0
20
0
30
0
70
128
71
1
72
2
73
3
0
VERTEX
8
OBJECT__41
10
0
20
0
30
0
70
128
71
3
72
4
73
1
0
VERTEX
8
OBJECT__41
10
0
20
0
30
0
70
128
71
3
72
5
73
4
0
SEQEND
8
OBJECT__41
0
POLYLINE
8
OBJECT__42
66
1
70
64
71
4
72
2
62
253
0
VERTEX
8
OBJECT__42
10
-6.000000
20
14.000000
30
373.002991
70
192
0
VERTEX
8
OBJECT__42
10
-6.000000
20
14.000000
30
292.000000
70
192
0
VERTEX
8
OBJECT__42
10
-6.000000
20
-14.000000
30
292.000000
70
192
0
VERTEX
8
OBJECT__42
10
-6.000000
20
-14.000000
30
373.002991
70
192
0
VERTEX
8
OBJECT__42
10
0
20
0
30
0
70
128
71
1
72
2
73
3
0
VERTEX
8
OBJECT__42
10
0
20
0
30
0
70
128
71
3
72
4
73
1
0
SEQEND
8
OBJECT__42
0
POLYLINE
8
OBJECT__43
66
1
70
64
71
4
72
2
62
253
0
VERTEX
8
OBJECT__43
10
-5.500000
20
-14.500000
30
292.000000
70
192
0
VERTEX
8
OBJECT__43
10
-5.500000
20
-14.500000
30
373.002991
70
192
0
VERTEX
8
OBJECT__43
10
-6.000000
20
-14.000000
30
373.002991
70
192
0
VERTEX
8
OBJECT__43
10
-6.000000
20
-14.000000
30
292.000000
70
192
0
VERTEX
8
OBJECT__43
10
0
20
0
30
0
70
128
71
1
72
2
73
3
0
VERTEX
8
OBJECT__43
10
0
20
0
30
0
70
128
71
3
72
4
73
1
0
SEQEND
8
OBJECT__43
0
POLYLINE
8
OBJECT__44
66
1
70
64
71
46
72
75
62
253
0
VERTEX
8
OBJECT__44
10
-18.150000
20
48.000000
30
257.700012
70
192
0
VERTEX
8
OBJECT__44
10
-16.580999
20
48.000000
30
265.082001
70
192
0
VERTEX
8
OBJECT__44
10
-12.564000
20
54.120998
30
263.294006
70
192
0
VERTEX
8
OBJECT__44
10
-13.753000
20
54.120998
30
257.700012
70
192
0
VERTEX
8
OBJECT__44
10
-12.145000
20
48.000000
30
271.187988
70
192
0
VERTEX
8
OBJECT__44
10
-9.202000
20
54.120998
30
267.920013
70
192
0
VERTEX
8
OBJECT__44
10
-5.609000
20
48.000000
30
274.962006
70
192
0
VERTEX
8
OBJECT__44
10
-4.250000
20
54.120998
30
270.779999
70
192
0
VERTEX
8
OBJECT__44
10
1.897000
20
48.000000
30
275.751007
70
192
0
VERTEX
8
OBJECT__44
10
1.438000
20
54.120998
30
271.377014
70
192
0
VERTEX
8
OBJECT__44
10
9.075000
20
48.000000
30
273.419006
70
192
0
VERTEX
8
OBJECT__44
10
6.876000
20
54.120998
30
269.609985
70
192
0
VERTEX
8
OBJECT__44
10
14.684000
20
48.000000
30
268.368988
70
192
0
VERTEX
8
OBJECT__44
10
11.126000
20
54.120998
30
265.783997
70
192
0
VERTEX
8
OBJECT__44
10
17.754000
20
48.000000
30
261.473999
70
192
0
VERTEX
8
OBJECT__44
10
13.452000
20
54.120998
30
260.558990
70
192
0
VERTEX
8
OBJECT__44
10
17.754000
20
48.000000
30
253.925995
70
192
0
VERTEX
8
OBJECT__44
10
13.452000
20
54.120998
30
254.841003
70
192
0
VERTEX
8
OBJECT__44
10
14.684000
20
48.000000
30
247.031006
70
192
0
VERTEX
8
OBJECT__44
10
11.126000
20
54.120998
30
249.615997
70
192
0
VERTEX
8
OBJECT__44
10
9.075000
20
48.000000
30
241.981003
70
192
0
VERTEX
8
OBJECT__44
10
6.876000
20
54.120998
30
245.789993
70
192
0
VERTEX
8
OBJECT__44
10
1.897000
20
48.000000
30
239.649002
70
192
0
VERTEX
8
OBJECT__44
10
1.438000
20
54.120998
30
244.022995
70
192
0
VERTEX
8
OBJECT__44
10
-5.609000
20
48.000000
30
240.438004
70
192
0
VERTEX
8
OBJECT__44
10
-4.250000
20
54.120998
30
244.619995
70
192
0
VERTEX
8
OBJECT__44
10
-12.145000
20
48.000000
30
244.212006
70
192
0
VERTEX
8
OBJECT__44
10
-9.202000
20
54.120998
30
247.479996
70
192
0
VERTEX
8
OBJECT__44
10
-16.580999
20
48.000000
30
250.317993
70
192
0
VERTEX
8
OBJECT__44
10
-12.564000
20
54.120998
30
252.106003
70
192
0
VERTEX
8
OBJECT__44
10
-6.762000
20
58.180000
30
260.710999
70
192
0
VERTEX
8
OBJECT__44
10
-7.402000
20
58.180000
30
257.700012
70
192
0
VERTEX
8
OBJECT__44
10
-4.953000
20
58.180000
30
263.200989
70
192
0
VERTEX
8
OBJECT__44
10
-2.287000
20
58.180000
30
264.739990
70
192
0
VERTEX
8
OBJECT__44
10
0.774000
20
58.180000
30
265.061005
70
192
0
VERTEX
8
OBJECT__44
10
3.701000
20
58.180000
30
264.109985
70
192
0
VERTEX
8
OBJECT__44
10
5.988000
20
58.180000
30
262.050995
70
192
0
VERTEX
8
OBJECT__44
10
7.240000
20
58.180000
30
259.239014
70
192
0
VERTEX
8
OBJECT__44
10
7.240000
20
58.180000
30
256.161011
70
192
0
VERTEX
8
OBJECT__44
10
5.988000
20
58.180000
30
253.348999
70
192
0
VERTEX
8
OBJECT__44
10
3.701000
20
58.180000
30
251.289993
70
192
0
VERTEX
8
OBJECT__44
10
0.774000
20
58.180000
30
250.339005
70
192
0
VERTEX
8
OBJECT__44
10
-2.287000
20
58.180000
30
250.660004
70
192
0
VERTEX
8
OBJECT__44
10
-4.953000
20
58.180000
30
252.199005
70
192
0
VERTEX
8
OBJECT__44
10
-6.762000
20
58.180000
30
254.688995
70
192
0
VERTEX
8
OBJECT__44
10
0.000000
20
59.599998
30
257.700012
70
192
0
VERTEX
8
OBJECT__44
10
0
20
0
30
0
70
128
71
1
72
2
73
3
0
VERTEX
8
OBJECT__44
10
0
20
0
30
0
70
128
71
1
72
3
73
4
0
VERTEX
8
OBJECT__44
10
0
20
0
30
0
70
128
71
2
72
5
73
6
0
VERTEX
8
OBJECT__44
10
0
20
0
30
0
70
128
71
2
72
6
73
3
0
VERTEX
8
OBJECT__44
10
0
20
0
30
0
70
128
71
5
72
7
73
8
0
VERTEX
8
OBJECT__44
10
0
20
0
30
0
70
128
71
5
72
8
73
6
0
VERTEX
8
OBJECT__44
10
0
20
0
30
0
70
128
71
7
72
9
73
10
0
VERTEX
8
OBJECT__44
10
0
20
0
30
0
70
128
71
7
72
10
73
8
0
VERTEX
8
OBJECT__44
10
0
20
0
30
0
70
128
71
9
72
11
73
12
0
VERTEX
8
OBJECT__44
10
0
20
0
30
0
70
128
71
9
72
12
73
10
0
VERTEX
8
OBJECT__44
10
0
20
0
30
0
70
128
71
11
72
13
73
14
0
VERTEX
8
OBJECT__44
10
0
20
0
30
0
70
128
71
11
72
14
73
12
0
VERTEX
8
OBJECT__44
10
0
20
0
30
0
70
128
71
13
72
15
73
16
0
VERTEX
8
OBJECT__44
10
0
20
0
30
0
70
128
71
13
72
16
73
14
0
VERTEX
8
OBJECT__44
10
0
20
0
30
0
70
128
71
15
72
17
73
18
0
VERTEX
8
OBJECT__44
10
0
20
0
30
0
70
128
71
15
72
18
73
16
0
VERTEX
8
OBJECT__44
10
0
20
0
30
0
70
128
71
17
72
19
73
20
0
VERTEX
8
OBJECT__44
10
0
20
0
30
0
70
128
71
17
72
20
73
18
0
VERTEX
8
OBJECT__44
10
0
20
0
30
0
70
128
71
19
72
21
73
22
0
VERTEX
8
OBJECT__44
10
0
20
0
30
0
70
128
71
19
72
22
73
20
0
VERTEX
8
OBJECT__44
10
0
20
0
30
0
70
128
71
21
72
23
73
24
0
VERTEX
8
OBJECT__44
10
0
20
0
30
0
70
128
71
21
72
24
73
22
0
VERTEX
8
OBJECT__44
10
0
20
0
30
0
70
128
71
23
72
25
73
26
0
VERTEX
8
OBJECT__44
10
0
20
0
30
0
70
128
71
23
72
26
73
24
0
VERTEX
8
OBJECT__44
10
0
20
0
30
0
70
128
71
25
72
27
73
28
0
VERTEX
8
OBJECT__44
10
0
20
0
30
0
70
128
71
25
72
28
73
26
0
VERTEX
8
OBJECT__44
10
0
20
0
30
0
70
128
71
27
72
29
73
30
0
VERTEX
8
OBJECT__44
10
0
20
0
30
0
70
128
71
27
72
30
73
28
0
VERTEX
8
OBJECT__44
10
0
20
0
30
0
70
128
71
29
72
1
73
4
0
VERTEX
8
OBJECT__44
10
0
20
0
30
0
70
128
71
29
72
4
73
30
0
VERTEX
8
OBJECT__44
10
0
20
0
30
0
70
128
71
4
72
3
73
31
0
VERTEX
8
OBJECT__44
10
0
20
0
30
0
70
128
71
4
72
31
73
32
0
VERTEX
8
OBJECT__44
10
0
20
0
30
0
70
128
71
3
72
6
73
33
0
VERTEX
8
OBJECT__44
10
0
20
0
30
0
70
128
71
3
72
33
73
31
0
VERTEX
8
OBJECT__44
10
0
20
0
30
0
70
128
71
6
72
8
73
34
0
VERTEX
8
OBJECT__44
10
0
20
0
30
0
70
128
71
6
72
34
73
33
0
VERTEX
8
OBJECT__44
10
0
20
0
30
0
70
128
71
8
72
10
73
35
0
VERTEX
8
OBJECT__44
10
0
20
0
30
0
70
128
71
8
72
35
73
34
0
VERTEX
8
OBJECT__44
10
0
20
0
30
0
70
128
71
10
72
12
73
36
0
VERTEX
8
OBJECT__44
10
0
20
0
30
0
70
128
71
10
72
36
73
35
0
VERTEX
8
OBJECT__44
10
0
20
0
30
0
70
128
71
12
72
14
73
37
0
VERTEX
8
OBJECT__44
10
0
20
0
30
0
70
128
71
12
72
37
73
36
0
VERTEX
8
OBJECT__44
10
0
20
0
30
0
70
128
71
14
72
16
73
38
0
VERTEX
8
OBJECT__44
10
0
20
0
30
0
70
128
71
14
72
38
73
37
0
VERTEX
8
OBJECT__44
10
0
20
0
30
0
70
128
71
16
72
18
73
39
0
VERTEX
8
OBJECT__44
10
0
20
0
30
0
70
128
71
16
72
39
73
38
0
VERTEX
8
OBJECT__44
10
0
20
0
30
0
70
128
71
18
72
20
73
40
0
VERTEX
8
OBJECT__44
10
0
20
0
30
0
70
128
71
18
72
40
73
39
0
VERTEX
8
OBJECT__44
10
0
20
0
30
0
70
128
71
20
72
22
73
41
0
VERTEX
8
OBJECT__44
10
0
20
0
30
0
70
128
71
20
72
41
73
40
0
VERTEX
8
OBJECT__44
10
0
20
0
30
0
70
128
71
22
72
24
73
42
0
VERTEX
8
OBJECT__44
10
0
20
0
30
0
70
128
71
22
72
42
73
41
0
VERTEX
8
OBJECT__44
10
0
20
0
30
0
70
128
71
24
72
26
73
43
0
VERTEX
8
OBJECT__44
10
0
20
0
30
0
70
128
71
24
72
43
73
42
0
VERTEX
8
OBJECT__44
10
0
20
0
30
0
70
128
71
26
72
28
73
44
0
VERTEX
8
OBJECT__44
10
0
20
0
30
0
70
128
71
26
72
44
73
43
0
VERTEX
8
OBJECT__44
10
0
20
0
30
0
70
128
71
28
72
30
73
45
0
VERTEX
8
OBJECT__44
10
0
20
0
30
0
70
128
71
28
72
45
73
44
0
VERTEX
8
OBJECT__44
10
0
20
0
30
0
70
128
71
30
72
4
73
32
0
VERTEX
8
OBJECT__44
10
0
20
0
30
0
70
128
71
30
72
32
73
45
0
VERTEX
8
OBJECT__44
10
0
20
0
30
0
70
128
71
32
72
31
73
46
0
VERTEX
8
OBJECT__44
10
0
20
0
30
0
70
128
71
31
72
33
73
46
0
VERTEX
8
OBJECT__44
10
0
20
0
30
0
70
128
71
33
72
34
73
46
0
VERTEX
8
OBJECT__44
10
0
20
0
30
0
70
128
71
34
72
35
73
46
0
VERTEX
8
OBJECT__44
10
0
20
0
30
0
70
128
71
35
72
36
73
46
0
VERTEX
8
OBJECT__44
10
0
20
0
30
0
70
128
71
36
72
37
73
46
0
VERTEX
8
OBJECT__44
10
0
20
0
30
0
70
128
71
37
72
38
73
46
0
VERTEX
8
OBJECT__44
10
0
20
0
30
0
70
128
71
38
72
39
73
46
0
VERTEX
8
OBJECT__44
10
0
20
0
30
0
70
128
71
39
72
40
73
46
0
VERTEX
8
OBJECT__44
10
0
20
0
30
0
70
128
71
40
72
41
73
46
0
VERTEX
8
OBJECT__44
10
0
20
0
30
0
70
128
71
41
72
42
73
46
0
VERTEX
8
OBJECT__44
10
0
20
0
30
0
70
128
71
42
72
43
73
46
0
VERTEX
8
OBJECT__44
10
0
20
0
30
0
70
128
71
43
72
44
73
46
0
VERTEX
8
OBJECT__44
10
0
20
0
30
0
70
128
71
44
72
45
73
46
0
VERTEX
8
OBJECT__44
10
0
20
0
30
0
70
128
71
45
72
32
73
46
0
SEQEND
8
OBJECT__44
0
POLYLINE
8
OBJECT__46
66
1
70
64
71
4
72
2
62
253
0
VERTEX
8
OBJECT__46
10
26.000000
20
24.400000
30
8.000000
70
192
0
VERTEX
8
OBJECT__46
10
26.000000
20
24.400000
30
0.000000
70
192
0
VERTEX
8
OBJECT__46
10
24.400000
20
26.000000
30
0.000000
70
192
0
VERTEX
8
OBJECT__46
10
24.400000
20
26.000000
30
8.000000
70
192
0
VERTEX
8
OBJECT__46
10
0
20
0
30
0
70
128
71
1
72
2
73
3
0
VERTEX
8
OBJECT__46
10
0
20
0
30
0
70
128
71
3
72
4
73
1
0
SEQEND
8
OBJECT__46
0
POLYLINE
8
OBJECT__47
66
1
70
64
71
4
72
2
62
253
0
VERTEX
8
OBJECT__47
10
-24.400000
20
26.000000
30
0.000000
70
192
0
VERTEX
8
OBJECT__47
10
-24.400000
20
26.000000
30
8.000000
70
192
0
VERTEX
8
OBJECT__47
10
24.400000
20
26.000000
30
8.000000
70
192
0
VERTEX
8
OBJECT__47
10
24.400000
20
26.000000
30
0.000000
70
192
0
VERTEX
8
OBJECT__47
10
0
20
0
30
0
70
128
71
1
72
2
73
3
0
VERTEX
8
OBJECT__47
10
0
20
0
30
0
70
128
71
3
72
4
73
1
0
SEQEND
8
OBJECT__47
0
POLYLINE
8
OBJECT__49
66
1
70
64
71
4
72
2
62
253
0
VERTEX
8
OBJECT__49
10
-24.400000
20
26.000000
30
8.000000
70
192
0
VERTEX
8
OBJECT__49
10
-24.400000
20
26.000000
30
0.000000
70
192
0
VERTEX
8
OBJECT__49
10
-26.000000
20
24.400000
30
0.000000
70
192
0
VERTEX
8
OBJECT__49
10
-26.000000
20
24.400000
30
8.000000
70
192
0
VERTEX
8
OBJECT__49
10
0
20
0
30
0
70
128
71
1
72
2
73
3
0
VERTEX
8
OBJECT__49
10
0
20
0
30
0
70
128
71
3
72
4
73
1
0
SEQEND
8
OBJECT__49
0
POLYLINE
8
OBJECT__50
66
1
70
64
71
4
72
2
62
253
0
VERTEX
8
OBJECT__50
10
-26.000000
20
-24.400000
30
0.000000
70
192
0
VERTEX
8
OBJECT__50
10
-26.000000
20
-24.400000
30
8.000000
70
192
0
VERTEX
8
OBJECT__50
10
-26.000000
20
24.400000
30
8.000000
70
192
0
VERTEX
8
OBJECT__50
10
-26.000000
20
24.400000
30
0.000000
70
192
0
VERTEX
8
OBJECT__50
10
0
20
0
30
0
70
128
71
1
72
2
73
3
0
VERTEX
8
OBJECT__50
10
0
20
0
30
0
70
128
71
3
72
4
73
1
0
SEQEND
8
OBJECT__50
0
POLYLINE
8
OBJECT__51
66
1
70
64
71
4
72
2
62
253
0
VERTEX
8
OBJECT__51
10
-26.000000
20
-24.400000
30
8.000000
70
192
0
VERTEX
8
OBJECT__51
10
-26.000000
20
-24.400000
30
0.000000
70
192
0
VERTEX
8
OBJECT__51
10
-24.400000
20
-26.000000
30
0.000000
70
192
0
VERTEX
8
OBJECT__51
10
-24.400000
20
-26.000000
30
8.000000
70
192
0
VERTEX
8
OBJECT__51
10
0
20
0
30
0
70
128
71
1
72
2
73
3
0
VERTEX
8
OBJECT__51
10
0
20
0
30
0
70
128
71
3
72
4
73
1
0
SEQEND
8
OBJECT__51
0
POLYLINE
8
OBJECT__52
66
1
70
64
71
8
72
6
62
253
0
VERTEX
8
OBJECT__52
10
24.400000
20
26.000000
30
8.000000
70
192
0
VERTEX
8
OBJECT__52
10
-26.000000
20
24.400000
30
8.000000
70
192
0
VERTEX
8
OBJECT__52
10
-26.000000
20
-24.400000
30
8.000000
70
192
0
VERTEX
8
OBJECT__52
10
24.400000
20
-26.000000
30
8.000000
70
192
0
VERTEX
8
OBJECT__52
10
26.000000
20
-24.400000
30
8.000000
70
192
0
VERTEX
8
OBJECT__52
10
-24.400000
20
26.000000
30
8.000000
70
192
0
VERTEX
8
OBJECT__52
10
-24.400000
20
-26.000000
30
8.000000
70
192
0
VERTEX
8
OBJECT__52
10
26.000000
20
24.400000
30
8.000000
70
192
0
VERTEX
8
OBJECT__52
10
0
20
0
30
0
70
128
71
1
72
2
73
3
0
VERTEX
8
OBJECT__52
10
0
20
0
30
0
70
128
71
1
72
4
73
5
0
VERTEX
8
OBJECT__52
10
0
20
0
30
0
70
128
71
1
72
6
73
2
0
VERTEX
8
OBJECT__52
10
0
20
0
30
0
70
128
71
1
72
7
73
4
0
VERTEX
8
OBJECT__52
10
0
20
0
30
0
70
128
71
5
72
8
73
1
0
VERTEX
8
OBJECT__52
10
0
20
0
30
0
70
128
71
3
72
7
73
1
0
SEQEND
8
OBJECT__52
0
POLYLINE
8
OBJECT__53
66
1
70
64
71
8
72
6
62
253
0
VERTEX
8
OBJECT__53
10
-24.400000
20
26.000000
30
0.000000
70
192
0
VERTEX
8
OBJECT__53
10
-24.400000
20
-26.000000
30
0.000000
70
192
0
VERTEX
8
OBJECT__53
10
-26.000000
20
-24.400000
30
0.000000
70
192
0
VERTEX
8
OBJECT__53
10
24.400000
20
-26.000000
30
0.000000
70
192
0
VERTEX
8
OBJECT__53
10
24.400000
20
26.000000
30
0.000000
70
192
0
VERTEX
8
OBJECT__53
10
26.000000
20
24.400000
30
0.000000
70
192
0
VERTEX
8
OBJECT__53
10
26.000000
20
-24.400000
30
0.000000
70
192
0
VERTEX
8
OBJECT__53
10
-26.000000
20
24.400000
30
0.000000
70
192
0
VERTEX
8
OBJECT__53
10
0
20
0
30
0
70
128
71
1
72
2
73
3
0
VERTEX
8
OBJECT__53
10
0
20
0
30
0
70
128
71
4
72
5
73
6
0
VERTEX
8
OBJECT__53
10
0
20
0
30
0
70
128
71
1
72
4
73
2
0
VERTEX
8
OBJECT__53
10
0
20
0
30
0
70
128
71
4
72
1
73
5
0
VERTEX
8
OBJECT__53
10
0
20
0
30
0
70
128
71
6
72
7
73
4
0
VERTEX
8
OBJECT__53
10
0
20
0
30
0
70
128
71
3
72
8
73
1
0
SEQEND
8
OBJECT__53
0
POLYLINE
8
OBJECT__54
66
1
70
64
71
4
72
2
62
253
0
VERTEX
8
OBJECT__54
10
-24.400000
20
-26.000000
30
8.000000
70
192
0
VERTEX
8
OBJECT__54
10
-24.400000
20
-26.000000
30
0.000000
70
192
0
VERTEX
8
OBJECT__54
10
24.400000
20
-26.000000
30
0.000000
70
192
0
VERTEX
8
OBJECT__54
10
24.400000
20
-26.000000
30
8.000000
70
192
0
VERTEX
8
OBJECT__54
10
0
20
0
30
0
70
128
71
1
72
2
73
3
0
VERTEX
8
OBJECT__54
10
0
20
0
30
0
70
128
71
3
72
4
73
1
0
SEQEND
8
OBJECT__54
0
POLYLINE
8
OBJECT__55
66
1
70
64
71
4
72
2
62
253
0
VERTEX
8
OBJECT__55
10
24.400000
20
-26.000000
30
8.000000
70
192
0
VERTEX
8
OBJECT__55
10
24.400000
20
-26.000000
30
0.000000
70
192
0
VERTEX
8
OBJECT__55
10
26.000000
20
-24.400000
30
0.000000
70
192
0
VERTEX
8
OBJECT__55
10
26.000000
20
-24.400000
30
8.000000
70
192
0
VERTEX
8
OBJECT__55
10
0
20
0
30
0
70
128
71
1
72
2
73
3
0
VERTEX
8
OBJECT__55
10
0
20
0
30
0
70
128
71
3
72
4
73
1
0
SEQEND
8
OBJECT__55
0
POLYLINE
8
OBJECT__56
66
1
70
64
71
4
72
2
62
253
0
VERTEX
8
OBJECT__56
10
26.000000
20
24.400000
30
8.000000
70
192
0
VERTEX
8
OBJECT__56
10
26.000000
20
-24.400000
30
8.000000
70
192
0
VERTEX
8
OBJECT__56
10
26.000000
20
-24.400000
30
0.000000
70
192
0
VERTEX
8
OBJECT__56
10
26.000000
20
24.400000
30
0.000000
70
192
0
VERTEX
8
OBJECT__56
10
0
20
0
30
0
70
128
71
1
72
2
73
3
0
VERTEX
8
OBJECT__56
10
0
20
0
30
0
70
128
71
3
72
4
73
1
0
SEQEND
8
OBJECT__56
0
POLYLINE
8
OBJECT__57
66
1
70
64
71
19
72
19
62
253
0
VERTEX
8
OBJECT__57
10
-27.530001
20
0.000000
30
226.822998
70
192
0
VERTEX
8
OBJECT__57
10
-13.625000
20
-1.457000
30
186.067001
70
192
0
VERTEX
8
OBJECT__57
10
-13.625000
20
-1.956000
30
190.537003
70
192
0
VERTEX
8
OBJECT__57
10
-13.625000
20
0.000000
30
184.029007
70
192
0
VERTEX
8
OBJECT__57
10
-25.711000
20
-1.730000
30
227.414001
70
192
0
VERTEX
8
OBJECT__57
10
-26.215000
20
-1.902000
30
227.250000
70
192
0
VERTEX
8
OBJECT__57
10
-24.089001
20
-1.176000
30
227.940994
70
192
0
VERTEX
8
OBJECT__57
10
-13.625000
20
-1.279000
30
195.477997
70
192
0
VERTEX
8
OBJECT__57
10
-13.625000
20
0.020000
30
196.712006
70
192
0
VERTEX
8
OBJECT__57
10
-23.725000
20
0.000000
30
228.059006
70
192
0
VERTEX
8
OBJECT__57
10
-13.625000
20
-1.996000
30
190.897003
70
192
0
VERTEX
8
OBJECT__57
10
-25.711000
20
1.730000
30
227.414001
70
192
0
VERTEX
8
OBJECT__57
10
-13.625000
20
0.244000
30
196.925003
70
192
0
VERTEX
8
OBJECT__57
10
-13.625000
20
1.613000
30
194.326996
70
192
0
VERTEX
8
OBJECT__57
10
-24.089001
20
1.176000
30
227.940994
70
192
0
VERTEX
8
OBJECT__57
10
-13.625000
20
1.887000
30
190.444000
70
192
0
VERTEX
8
OBJECT__57
10
-26.215000
20
1.902000
30
227.250000
70
192
0
VERTEX
8
OBJECT__57
10
-13.625000
20
1.966000
30
189.320007
70
192
0
VERTEX
8
OBJECT__57
10
-13.625000
20
1.081000
30
185.057007
70
192
0
VERTEX
8
OBJECT__57
10
0
20
0
30
0
70
128
71
1
72
2
73
3
0
VERTEX
8
OBJECT__57
10
0
20
0
30
0
70
128
71
1
72
4
73
2
0
VERTEX
8
OBJECT__57
10
0
20
0
30
0
70
128
71
3
72
5
73
6
0
VERTEX
8
OBJECT__57
10
0
20
0
30
0
70
128
71
7
72
8
73
9
0
VERTEX
8
OBJECT__57
10
0
20
0
30
0
70
128
71
9
72
10
73
7
0
VERTEX
8
OBJECT__57
10
0
20
0
30
0
70
128
71
5
72
3
73
11
0
VERTEX
8
OBJECT__57
10
0
20
0
30
0
70
128
71
11
72
8
73
5
0
VERTEX
8
OBJECT__57
10
0
20
0
30
0
70
128
71
12
72
13
73
14
0
VERTEX
8
OBJECT__57
10
0
20
0
30
0
70
128
71
10
72
9
73
13
0
VERTEX
8
OBJECT__57
10
0
20
0
30
0
70
128
71
13
72
12
73
15
0
VERTEX
8
OBJECT__57
10
0
20
0
30
0
70
128
71
13
72
15
73
10
0
VERTEX
8
OBJECT__57
10
0
20
0
30
0
70
128
71
14
72
16
73
12
0
VERTEX
8
OBJECT__57
10
0
20
0
30
0
70
128
71
17
72
12
73
16
0
VERTEX
8
OBJECT__57
10
0
20
0
30
0
70
128
71
1
72
17
73
18
0
VERTEX
8
OBJECT__57
10
0
20
0
30
0
70
128
71
18
72
4
73
1
0
VERTEX
8
OBJECT__57
10
0
20
0
30
0
70
128
71
18
72
19
73
4
0
VERTEX
8
OBJECT__57
10
0
20
0
30
0
70
128
71
16
72
18
73
17
0
VERTEX
8
OBJECT__57
10
0
20
0
30
0
70
128
71
7
72
5
73
8
0
VERTEX
8
OBJECT__57
10
0
20
0
30
0
70
128
71
3
72
6
73
1
0
SEQEND
8
OBJECT__57
0
POLYLINE
8
OBJECT__58
66
1
70
64
71
21
72
26
62
253
0
VERTEX
8
OBJECT__58
10
-28.481001
20
-1.902000
30
228.895996
70
192
0
VERTEX
8
OBJECT__58
10
-28.481001
20
0.000000
30
227.514008
70
192
0
VERTEX
8
OBJECT__58
10
-27.893000
20
0.000000
30
227.322998
70
192
0
VERTEX
8
OBJECT__58
10
-26.215000
20
-1.902000
30
227.250000
70
192
0
VERTEX
8
OBJECT__58
10
-27.080999
20
-1.902000
30
228.440994
70
192
0
VERTEX
8
OBJECT__58
10
-25.766001
20
-1.176000
30
230.250000
70
192
0
VERTEX
8
OBJECT__58
10
-28.481001
20
-1.730000
30
229.425995
70
192
0
VERTEX
8
OBJECT__58
10
-28.481001
20
-1.176000
30
231.132004
70
192
0
VERTEX
8
OBJECT__58
10
-25.711000
20
-1.730000
30
227.414001
70
192
0
VERTEX
8
OBJECT__58
10
-25.766001
20
1.176000
30
230.250000
70
192
0
VERTEX
8
OBJECT__58
10
-28.481001
20
0.000000
30
231.514008
70
192
0
VERTEX
8
OBJECT__58
10
-28.481001
20
1.176000
30
231.132004
70
192
0
VERTEX
8
OBJECT__58
10
-24.089001
20
-1.176000
30
227.940994
70
192
0
VERTEX
8
OBJECT__58
10
-23.725000
20
0.000000
30
228.059006
70
192
0
VERTEX
8
OBJECT__58
10
-28.481001
20
1.730000
30
229.425995
70
192
0
VERTEX
8
OBJECT__58
10
-27.080999
20
1.902000
30
228.440994
70
192
0
VERTEX
8
OBJECT__58
10
-28.481001
20
1.902000
30
228.895996
70
192
0
VERTEX
8
OBJECT__58
10
-25.711000
20
1.730000
30
227.414001
70
192
0
VERTEX
8
OBJECT__58
10
-24.089001
20
1.176000
30
227.940994
70
192
0
VERTEX
8
OBJECT__58
10
-26.215000
20
1.902000
30
227.250000
70
192
0
VERTEX
8
OBJECT__58
10
-27.530001
20
0.000000
30
226.822998
70
192
0
VERTEX
8
OBJECT__58
10
0
20
0
30
0
70
128
71
1
72
2
73
3
0
VERTEX
8
OBJECT__58
10
0
20
0
30
0
70
128
71
4
72
5
73
3
0
VERTEX
8
OBJECT__58
10
0
20
0
30
0
70
128
71
5
72
6
73
7
0
VERTEX
8
OBJECT__58
10
0
20
0
30
0
70
128
71
6
72
8
73
7
0
VERTEX
8
OBJECT__58
10
0
20
0
30
0
70
128
71
9
72
6
73
5
0
VERTEX
8
OBJECT__58
10
0
20
0
30
0
70
128
71
5
72
4
73
9
0
VERTEX
8
OBJECT__58
10
0
20
0
30
0
70
128
71
6
72
10
73
11
0
VERTEX
8
OBJECT__58
10
0
20
0
30
0
70
128
71
10
72
12
73
11
0
VERTEX
8
OBJECT__58
10
0
20
0
30
0
70
128
71
6
72
13
73
14
0
VERTEX
8
OBJECT__58
10
0
20
0
30
0
70
128
71
14
72
10
73
6
0
VERTEX
8
OBJECT__58
10
0
20
0
30
0
70
128
71
15
72
10
73
16
0
VERTEX
8
OBJECT__58
10
0
20
0
30
0
70
128
71
16
72
17
73
15
0
VERTEX
8
OBJECT__58
10
0
20
0
30
0
70
128
71
16
72
10
73
18
0
VERTEX
8
OBJECT__58
10
0
20
0
30
0
70
128
71
10
72
19
73
18
0
VERTEX
8
OBJECT__58
10
0
20
0
30
0
70
128
71
17
72
16
73
3
0
VERTEX
8
OBJECT__58
10
0
20
0
30
0
70
128
71
20
72
21
73
3
0
VERTEX
8
OBJECT__58
10
0
20
0
30
0
70
128
71
3
72
16
73
20
0
VERTEX
8
OBJECT__58
10
0
20
0
30
0
70
128
71
3
72
2
73
17
0
VERTEX
8
OBJECT__58
10
0
20
0
30
0
70
128
71
18
72
20
73
16
0
VERTEX
8
OBJECT__58
10
0
20
0
30
0
70
128
71
15
72
12
73
10
0
VERTEX
8
OBJECT__58
10
0
20
0
30
0
70
128
71
14
72
19
73
10
0
VERTEX
8
OBJECT__58
10
0
20
0
30
0
70
128
71
11
72
8
73
6
0
VERTEX
8
OBJECT__58
10
0
20
0
30
0
70
128
71
9
72
13
73
6
0
VERTEX
8
OBJECT__58
10
0
20
0
30
0
70
128
71
7
72
1
73
5
0
VERTEX
8
OBJECT__58
10
0
20
0
30
0
70
128
71
3
72
21
73
4
0
VERTEX
8
OBJECT__58
10
0
20
0
30
0
70
128
71
3
72
5
73
1
0
SEQEND
8
OBJECT__58
0
POLYLINE
8
OBJECT__60
66
1
70
64
71
12
72
12
62
253
0
VERTEX
8
OBJECT__60
10
-41.948002
20
0.000000
30
227.514008
70
192
0
VERTEX
8
OBJECT__60
10
-41.948002
20
2.000000
30
229.514008
70
192
0
VERTEX
8
OBJECT__60
10
-28.481001
20
1.902000
30
228.895996
70
192
0
VERTEX
8
OBJECT__60
10
-28.481001
20
1.730000
30
229.425995
70
192
0
VERTEX
8
OBJECT__60
10
-41.948002
20
0.000000
30
231.514008
70
192
0
VERTEX
8
OBJECT__60
10
-28.481001
20
1.176000
30
231.132004
70
192
0
VERTEX
8
OBJECT__60
10
-28.481001
20
0.000000
30
231.514008
70
192
0
VERTEX
8
OBJECT__60
10
-41.948002
20
-2.000000
30
229.514008
70
192
0
VERTEX
8
OBJECT__60
10
-28.481001
20
-1.730000
30
229.425995
70
192
0
VERTEX
8
OBJECT__60
10
-28.481001
20
-1.176000
30
231.132004
70
192
0
VERTEX
8
OBJECT__60
10
-28.481001
20
0.000000
30
227.514008
70
192
0
VERTEX
8
OBJECT__60
10
-28.481001
20
-1.902000
30
228.895996
70
192
0
VERTEX
8
OBJECT__60
10
0
20
0
30
0
70
128
71
1
72
2
73
3
0
VERTEX
8
OBJECT__60
10
0
20
0
30
0
70
128
71
2
72
4
73
3
0
VERTEX
8
OBJECT__60
10
0
20
0
30
0
70
128
71
2
72
5
73
6
0
VERTEX
8
OBJECT__60
10
0
20
0
30
0
70
128
71
5
72
7
73
6
0
VERTEX
8
OBJECT__60
10
0
20
0
30
0
70
128
71
8
72
9
73
10
0
VERTEX
8
OBJECT__60
10
0
20
0
30
0
70
128
71
10
72
5
73
8
0
VERTEX
8
OBJECT__60
10
0
20
0
30
0
70
128
71
1
72
11
73
12
0
VERTEX
8
OBJECT__60
10
0
20
0
30
0
70
128
71
12
72
8
73
1
0
VERTEX
8
OBJECT__60
10
0
20
0
30
0
70
128
71
12
72
9
73
8
0
VERTEX
8
OBJECT__60
10
0
20
0
30
0
70
128
71
10
72
7
73
5
0
VERTEX
8
OBJECT__60
10
0
20
0
30
0
70
128
71
6
72
4
73
2
0
VERTEX
8
OBJECT__60
10
0
20
0
30
0
70
128
71
3
72
11
73
1
0
SEQEND
8
OBJECT__60
0
POLYLINE
8
OBJECT__61
66
1
70
64
71
4
72
2
62
253
0
VERTEX
8
OBJECT__61
10
-41.948002
20
-2.000000
30
229.514008
70
192
0
VERTEX
8
OBJECT__61
10
-41.948002
20
0.000000
30
231.514008
70
192
0
VERTEX
8
OBJECT__61
10
-41.948002
20
2.000000
30
229.514008
70
192
0
VERTEX
8
OBJECT__61
10
-41.948002
20
0.000000
30
227.514008
70
192
0
VERTEX
8
OBJECT__61
10
0
20
0
30
0
70
128
71
1
72
2
73
3
0
VERTEX
8
OBJECT__61
10
0
20
0
30
0
70
128
71
3
72
4
73
1
0
SEQEND
8
OBJECT__61
0
POLYLINE
8
OBJECT__62
66
1
70
64
71
24
72
24
62
253
0
VERTEX
8
OBJECT__62
10
-17.320999
20
10.000000
30
188.000000
70
192
0
VERTEX
8
OBJECT__62
10
-17.320999
20
10.000000
30
8.000000
70
192
0
VERTEX
8
OBJECT__62
10
-20.000000
20
0.000000
30
8.000000
70
192
0
VERTEX
8
OBJECT__62
10
-10.000000
20
17.320999
30
188.000000
70
192
0
VERTEX
8
OBJECT__62
10
-10.000000
20
17.320999
30
8.000000
70
192
0
VERTEX
8
OBJECT__62
10
0.000000
20
20.000000
30
188.000000
70
192
0
VERTEX
8
OBJECT__62
10
0.000000
20
20.000000
30
8.000000
70
192
0
VERTEX
8
OBJECT__62
10
10.000000
20
17.320999
30
188.000000
70
192
0
VERTEX
8
OBJECT__62
10
10.000000
20
17.320999
30
8.000000
70
192
0
VERTEX
8
OBJECT__62
10
17.320999
20
10.000000
30
188.000000
70
192
0
VERTEX
8
OBJECT__62
10
17.320999
20
10.000000
30
8.000000
70
192
0
VERTEX
8
OBJECT__62
10
20.000000
20
0.000000
30
188.000000
70
192
0
VERTEX
8
OBJECT__62
10
20.000000
20
0.000000
30
8.000000
70
192
0
VERTEX
8
OBJECT__62
10
17.320999
20
-10.000000
30
188.000000
70
192
0
VERTEX
8
OBJECT__62
10
17.320999
20
-10.000000
30
8.000000
70
192
0
VERTEX
8
OBJECT__62
10
10.000000
20
-17.320999
30
188.000000
70
192
0
VERTEX
8
OBJECT__62
10
10.000000
20
-17.320999
30
8.000000
70
192
0
VERTEX
8
OBJECT__62
10
0.000000
20
-20.000000
30
188.000000
70
192
0
VERTEX
8
OBJECT__62
10
0.000000
20
-20.000000
30
8.000000
70
192
0
VERTEX
8
OBJECT__62
10
-10.000000
20
-17.320999
30
188.000000
70
192
0
VERTEX
8
OBJECT__62
10
-10.000000
20
-17.320999
30
8.000000
70
192
0
VERTEX
8
OBJECT__62
10
-17.320999
20
-10.000000
30
188.000000
70
192
0
VERTEX
8
OBJECT__62
10
-17.320999
20
-10.000000
30
8.000000
70
192
0
VERTEX
8
OBJECT__62
10
-20.000000
20
0.000000
30
188.000000
70
192
0
VERTEX
8
OBJECT__62
10
0
20
0
30
0
70
128
71
1
72
2
73
3
0
VERTEX
8
OBJECT__62
10
0
20
0
30
0
70
128
71
4
72
5
73
2
0
VERTEX
8
OBJECT__62
10
0
20
0
30
0
70
128
71
6
72
7
73
5
0
VERTEX
8
OBJECT__62
10
0
20
0
30
0
70
128
71
8
72
9
73
7
0
VERTEX
8
OBJECT__62
10
0
20
0
30
0
70
128
71
10
72
11
73
9
0
VERTEX
8
OBJECT__62
10
0
20
0
30
0
70
128
71
12
72
13
73
11
0
VERTEX
8
OBJECT__62
10
0
20
0
30
0
70
128
71
14
72
15
73
13
0
VERTEX
8
OBJECT__62
10
0
20
0
30
0
70
128
71
16
72
17
73
15
0
VERTEX
8
OBJECT__62
10
0
20
0
30
0
70
128
71
18
72
19
73
17
0
VERTEX
8
OBJECT__62
10
0
20
0
30
0
70
128
71
20
72
21
73
19
0
VERTEX
8
OBJECT__62
10
0
20
0
30
0
70
128
71
22
72
23
73
21
0
VERTEX
8
OBJECT__62
10
0
20
0
30
0
70
128
71
24
72
3
73
23
0
VERTEX
8
OBJECT__62
10
0
20
0
30
0
70
128
71
23
72
22
73
24
0
VERTEX
8
OBJECT__62
10
0
20
0
30
0
70
128
71
21
72
20
73
22
0
VERTEX
8
OBJECT__62
10
0
20
0
30
0
70
128
71
19
72
18
73
20
0
VERTEX
8
OBJECT__62
10
0
20
0
30
0
70
128
71
17
72
16
73
18
0
VERTEX
8
OBJECT__62
10
0
20
0
30
0
70
128
71
15
72
14
73
16
0
VERTEX
8
OBJECT__62
10
0
20
0
30
0
70
128
71
13
72
12
73
14
0
VERTEX
8
OBJECT__62
10
0
20
0
30
0
70
128
71
11
72
10
73
12
0
VERTEX
8
OBJECT__62
10
0
20
0
30
0
70
128
71
9
72
8
73
10
0
VERTEX
8
OBJECT__62
10
0
20
0
30
0
70
128
71
7
72
6
73
8
0
VERTEX
8
OBJECT__62
10
0
20
0
30
0
70
128
71
5
72
4
73
6
0
VERTEX
8
OBJECT__62
10
0
20
0
30
0
70
128
71
2
72
1
73
4
0
VERTEX
8
OBJECT__62
10
0
20
0
30
0
70
128
71
3
72
24
73
1
0
SEQEND
8
OBJECT__62
0
POLYLINE
8
OBJECT__63
66
1
70
64
71
88
72
90
62
253
0
VERTEX
8
OBJECT__63
10
17.320999
20
-10.000000
30
188.000000
70
192
0
VERTEX
8
OBJECT__63
10
20.000000
20
0.000000
30
188.000000
70
192
0
VERTEX
8
OBJECT__63
10
20.000000
20
0.000000
30
257.700012
70
192
0
VERTEX
8
OBJECT__63
10
17.320999
20
-10.000000
30
292.000000
70
192
0
VERTEX
8
OBJECT__63
10
10.000000
20
-17.320999
30
292.000000
70
192
0
VERTEX
8
OBJECT__63
10
10.000000
20
-17.320999
30
188.000000
70
192
0
VERTEX
8
OBJECT__63
10
0.000000
20
-20.000000
30
292.000000
70
192
0
VERTEX
8
OBJECT__63
10
0.000000
20
-20.000000
30
188.000000
70
192
0
VERTEX
8
OBJECT__63
10
-10.000000
20
-17.320999
30
292.000000
70
192
0
VERTEX
8
OBJECT__63
10
-10.000000
20
-17.320999
30
188.000000
70
192
0
VERTEX
8
OBJECT__63
10
-17.320999
20
-10.000000
30
292.000000
70
192
0
VERTEX
8
OBJECT__63
10
-17.320999
20
-10.000000
30
188.000000
70
192
0
VERTEX
8
OBJECT__63
10
-20.000000
20
0.000000
30
257.700012
70
192
0
VERTEX
8
OBJECT__63
10
-20.000000
20
0.000000
30
292.000000
70
192
0
VERTEX
8
OBJECT__63
10
20.000000
20
0.000000
30
292.000000
70
192
0
VERTEX
8
OBJECT__63
10
18.084000
20
8.543000
30
267.158997
70
192
0
VERTEX
8
OBJECT__63
10
17.242001
20
9.953000
30
268.941986
70
192
0
VERTEX
8
OBJECT__63
10
18.503000
20
7.319000
30
265.735992
70
192
0
VERTEX
8
OBJECT__63
10
19.525000
20
4.335000
30
262.265015
70
192
0
VERTEX
8
OBJECT__63
10
17.320999
20
10.000000
30
292.000000
70
192
0
VERTEX
8
OBJECT__63
10
10.557000
20
16.987000
30
278.365997
70
192
0
VERTEX
8
OBJECT__63
10
9.980000
20
17.281000
30
278.786011
70
192
0
VERTEX
8
OBJECT__63
10
13.471000
20
14.783000
30
275.279999
70
192
0
VERTEX
8
OBJECT__63
10
11.993000
20
15.901000
30
276.845001
70
192
0
VERTEX
8
OBJECT__63
10
16.100000
20
11.866000
30
271.359009
70
192
0
VERTEX
8
OBJECT__63
10
14.719000
20
13.398000
30
273.419006
70
192
0
VERTEX
8
OBJECT__63
10
0.000000
20
20.000000
30
292.000000
70
192
0
VERTEX
8
OBJECT__63
10
1.469000
20
19.945999
30
282.621002
70
192
0
VERTEX
8
OBJECT__63
10
0.002000
20
19.931999
30
282.600006
70
192
0
VERTEX
8
OBJECT__63
10
10.000000
20
17.320999
30
292.000000
70
192
0
VERTEX
8
OBJECT__63
10
4.607000
20
19.462000
30
281.919006
70
192
0
VERTEX
8
OBJECT__63
10
8.627000
20
17.969000
30
279.769989
70
192
0
VERTEX
8
OBJECT__63
10
7.529000
20
18.528999
30
280.570007
70
192
0
VERTEX
8
OBJECT__63
10
-10.000000
20
17.320999
30
292.000000
70
192
0
VERTEX
8
OBJECT__63
10
-8.114000
20
18.280001
30
280.212006
70
192
0
VERTEX
8
OBJECT__63
10
-8.652000
20
17.987000
30
279.794006
70
192
0
VERTEX
8
OBJECT__63
10
-5.115000
20
19.334999
30
281.734009
70
192
0
VERTEX
8
OBJECT__63
10
-1.860000
20
19.913000
30
282.572998
70
192
0
VERTEX
8
OBJECT__63
10
-4.588000
20
19.427999
30
281.869995
70
192
0
VERTEX
8
OBJECT__63
10
0.001000
20
19.931999
30
282.600006
70
192
0
VERTEX
8
OBJECT__63
10
-17.320999
20
10.000000
30
292.000000
70
192
0
VERTEX
8
OBJECT__63
10
-13.691000
20
14.580000
30
275.000000
70
192
0
VERTEX
8
OBJECT__63
10
-14.729000
20
13.403000
30
273.423004
70
192
0
VERTEX
8
OBJECT__63
10
-16.174999
20
11.763000
30
271.223999
70
192
0
VERTEX
8
OBJECT__63
10
-10.955000
20
16.733000
30
278.005005
70
192
0
VERTEX
8
OBJECT__63
10
-12.004000
20
15.907000
30
276.852997
70
192
0
VERTEX
8
OBJECT__63
10
-9.971000
20
17.268999
30
278.769012
70
192
0
VERTEX
8
OBJECT__63
10
-18.524000
20
7.328000
30
265.735992
70
192
0
VERTEX
8
OBJECT__63
10
-19.534000
20
4.293000
30
262.218994
70
192
0
VERTEX
8
OBJECT__63
10
-17.232000
20
9.949000
30
268.940002
70
192
0
VERTEX
8
OBJECT__63
10
-18.209999
20
8.270000
30
266.826996
70
192
0
VERTEX
8
OBJECT__63
10
-20.000000
20
0.000000
30
188.000000
70
192
0
VERTEX
8
OBJECT__63
10
-18.084000
20
8.543000
30
248.240997
70
192
0
VERTEX
8
OBJECT__63
10
-17.242001
20
9.953000
30
246.459000
70
192
0
VERTEX
8
OBJECT__63
10
-18.503000
20
7.319000
30
249.664001
70
192
0
VERTEX
8
OBJECT__63
10
-19.525000
20
4.335000
30
253.134995
70
192
0
VERTEX
8
OBJECT__63
10
-17.320999
20
10.000000
30
188.000000
70
192
0
VERTEX
8
OBJECT__63
10
-10.556000
20
16.987000
30
237.033997
70
192
0
VERTEX
8
OBJECT__63
10
-9.980000
20
17.281000
30
236.615005
70
192
0
VERTEX
8
OBJECT__63
10
-13.470000
20
14.783000
30
240.119995
70
192
0
VERTEX
8
OBJECT__63
10
-11.993000
20
15.901000
30
238.554993
70
192
0
VERTEX
8
OBJECT__63
10
-16.099001
20
11.867000
30
244.039993
70
192
0
VERTEX
8
OBJECT__63
10
-14.719000
20
13.398000
30
241.981995
70
192
0
VERTEX
8
OBJECT__63
10
0.000000
20
20.000000
30
188.000000
70
192
0
VERTEX
8
OBJECT__63
10
-10.000000
20
17.320999
30
188.000000
70
192
0
VERTEX
8
OBJECT__63
10
-1.468000
20
19.945999
30
232.779007
70
192
0
VERTEX
8
OBJECT__63
10
-0.002000
20
19.931999
30
232.800003
70
192
0
VERTEX
8
OBJECT__63
10
-8.627000
20
17.969000
30
235.630005
70
192
0
VERTEX
8
OBJECT__63
10
-7.528000
20
18.528999
30
234.830002
70
192
0
VERTEX
8
OBJECT__63
10
-4.607000
20
19.462000
30
233.481995
70
192
0
VERTEX
8
OBJECT__63
10
10.000000
20
17.320999
30
188.000000
70
192
0
VERTEX
8
OBJECT__63
10
8.114000
20
18.280001
30
235.186996
70
192
0
VERTEX
8
OBJECT__63
10
8.652000
20
17.987000
30
235.604996
70
192
0
VERTEX
8
OBJECT__63
10
5.115000
20
19.334999
30
233.666000
70
192
0
VERTEX
8
OBJECT__63
10
1.860000
20
19.913000
30
232.826004
70
192
0
VERTEX
8
OBJECT__63
10
4.588000
20
19.427999
30
233.529999
70
192
0
VERTEX
8
OBJECT__63
10
-0.001000
20
19.931999
30
232.800003
70
192
0
VERTEX
8
OBJECT__63
10
17.320999
20
10.000000
30
188.000000
70
192
0
VERTEX
8
OBJECT__63
10
13.691000
20
14.580000
30
240.399002
70
192
0
VERTEX
8
OBJECT__63
10
14.729000
20
13.403000
30
241.977005
70
192
0
VERTEX
8
OBJECT__63
10
16.174999
20
11.763000
30
244.175003
70
192
0
VERTEX
8
OBJECT__63
10
10.955000
20
16.733000
30
237.393997
70
192
0
VERTEX
8
OBJECT__63
10
12.004000
20
15.907000
30
238.546997
70
192
0
VERTEX
8
OBJECT__63
10
9.972000
20
17.268999
30
236.630005
70
192
0
VERTEX
8
OBJECT__63
10
18.524000
20
7.328000
30
249.664001
70
192
0
VERTEX
8
OBJECT__63
10
19.534000
20
4.294000
30
253.179993
70
192
0
VERTEX
8
OBJECT__63
10
17.232000
20
9.949000
30
246.459000
70
192
0
VERTEX
8
OBJECT__63
10
18.209999
20
8.271000
30
248.570999
70
192
0
VERTEX
8
OBJECT__63
10
0
20
0
30
0
70
128
71
1
72
2
73
3
0
VERTEX
8
OBJECT__63
10
0
20
0
30
0
70
128
71
3
72
4
73
1
0
VERTEX
8
OBJECT__63
10
0
20
0
30
0
70
128
71
5
72
6
73
1
0
VERTEX
8
OBJECT__63
10
0
20
0
30
0
70
128
71
7
72
8
73
6
0
VERTEX
8
OBJECT__63
10
0
20
0
30
0
70
128
71
9
72
10
73
8
0
VERTEX
8
OBJECT__63
10
0
20
0
30
0
70
128
71
11
72
12
73
10
0
VERTEX
8
OBJECT__63
10
0
20
0
30
0
70
128
71
12
72
11
73
13
0
VERTEX
8
OBJECT__63
10
0
20
0
30
0
70
128
71
11
72
14
73
13
0
VERTEX
8
OBJECT__63
10
0
20
0
30
0
70
128
71
15
72
16
73
17
0
VERTEX
8
OBJECT__63
10
0
20
0
30
0
70
128
71
15
72
18
73
16
0
VERTEX
8
OBJECT__63
10
0
20
0
30
0
70
128
71
15
72
3
73
19
0
VERTEX
8
OBJECT__63
10
0
20
0
30
0
70
128
71
19
72
18
73
15
0
VERTEX
8
OBJECT__63
10
0
20
0
30
0
70
128
71
20
72
21
73
22
0
VERTEX
8
OBJECT__63
10
0
20
0
30
0
70
128
71
20
72
23
73
24
0
VERTEX
8
OBJECT__63
10
0
20
0
30
0
70
128
71
20
72
25
73
26
0
VERTEX
8
OBJECT__63
10
0
20
0
30
0
70
128
71
20
72
17
73
25
0
VERTEX
8
OBJECT__63
10
0
20
0
30
0
70
128
71
26
72
23
73
20
0
VERTEX
8
OBJECT__63
10
0
20
0
30
0
70
128
71
24
72
21
73
20
0
VERTEX
8
OBJECT__63
10
0
20
0
30
0
70
128
71
27
72
28
73
29
0
VERTEX
8
OBJECT__63
10
0
20
0
30
0
70
128
71
30
72
31
73
28
0
VERTEX
8
OBJECT__63
10
0
20
0
30
0
70
128
71
30
72
22
73
32
0
VERTEX
8
OBJECT__63
10
0
20
0
30
0
70
128
71
32
72
33
73
30
0
VERTEX
8
OBJECT__63
10
0
20
0
30
0
70
128
71
33
72
31
73
30
0
VERTEX
8
OBJECT__63
10
0
20
0
30
0
70
128
71
28
72
27
73
30
0
VERTEX
8
OBJECT__63
10
0
20
0
30
0
70
128
71
34
72
35
73
36
0
VERTEX
8
OBJECT__63
10
0
20
0
30
0
70
128
71
34
72
37
73
35
0
VERTEX
8
OBJECT__63
10
0
20
0
30
0
70
128
71
34
72
27
73
38
0
VERTEX
8
OBJECT__63
10
0
20
0
30
0
70
128
71
38
72
39
73
34
0
VERTEX
8
OBJECT__63
10
0
20
0
30
0
70
128
71
39
72
37
73
34
0
VERTEX
8
OBJECT__63
10
0
20
0
30
0
70
128
71
27
72
40
73
38
0
VERTEX
8
OBJECT__63
10
0
20
0
30
0
70
128
71
41
72
42
73
43
0
VERTEX
8
OBJECT__63
10
0
20
0
30
0
70
128
71
43
72
44
73
41
0
VERTEX
8
OBJECT__63
10
0
20
0
30
0
70
128
71
41
72
45
73
46
0
VERTEX
8
OBJECT__63
10
0
20
0
30
0
70
128
71
46
72
42
73
41
0
VERTEX
8
OBJECT__63
10
0
20
0
30
0
70
128
71
41
72
34
73
47
0
VERTEX
8
OBJECT__63
10
0
20
0
30
0
70
128
71
47
72
45
73
41
0
VERTEX
8
OBJECT__63
10
0
20
0
30
0
70
128
71
14
72
48
73
49
0
VERTEX
8
OBJECT__63
10
0
20
0
30
0
70
128
71
14
72
41
73
50
0
VERTEX
8
OBJECT__63
10
0
20
0
30
0
70
128
71
50
72
51
73
14
0
VERTEX
8
OBJECT__63
10
0
20
0
30
0
70
128
71
51
72
48
73
14
0
VERTEX
8
OBJECT__63
10
0
20
0
30
0
70
128
71
52
72
53
73
54
0
VERTEX
8
OBJECT__63
10
0
20
0
30
0
70
128
71
52
72
55
73
53
0
VERTEX
8
OBJECT__63
10
0
20
0
30
0
70
128
71
52
72
13
73
56
0
VERTEX
8
OBJECT__63
10
0
20
0
30
0
70
128
71
56
72
55
73
52
0
VERTEX
8
OBJECT__63
10
0
20
0
30
0
70
128
71
57
72
58
73
59
0
VERTEX
8
OBJECT__63
10
0
20
0
30
0
70
128
71
57
72
60
73
61
0
VERTEX
8
OBJECT__63
10
0
20
0
30
0
70
128
71
57
72
62
73
63
0
VERTEX
8
OBJECT__63
10
0
20
0
30
0
70
128
71
57
72
54
73
62
0
VERTEX
8
OBJECT__63
10
0
20
0
30
0
70
128
71
63
72
60
73
57
0
VERTEX
8
OBJECT__63
10
0
20
0
30
0
70
128
71
61
72
58
73
57
0
VERTEX
8
OBJECT__63
10
0
20
0
30
0
70
128
71
64
72
65
73
66
0
VERTEX
8
OBJECT__63
10
0
20
0
30
0
70
128
71
66
72
67
73
64
0
VERTEX
8
OBJECT__63
10
0
20
0
30
0
70
128
71
65
72
59
73
68
0
VERTEX
8
OBJECT__63
10
0
20
0
30
0
70
128
71
68
72
69
73
65
0
VERTEX
8
OBJECT__63
10
0
20
0
30
0
70
128
71
69
72
70
73
65
0
VERTEX
8
OBJECT__63
10
0
20
0
30
0
70
128
71
70
72
66
73
65
0
VERTEX
8
OBJECT__63
10
0
20
0
30
0
70
128
71
71
72
72
73
73
0
VERTEX
8
OBJECT__63
10
0
20
0
30
0
70
128
71
71
72
74
73
72
0
VERTEX
8
OBJECT__63
10
0
20
0
30
0
70
128
71
71
72
75
73
76
0
VERTEX
8
OBJECT__63
10
0
20
0
30
0
70
128
71
76
72
74
73
71
0
VERTEX
8
OBJECT__63
10
0
20
0
30
0
70
128
71
64
72
77
73
75
0
VERTEX
8
OBJECT__63
10
0
20
0
30
0
70
128
71
75
72
71
73
64
0
VERTEX
8
OBJECT__63
10
0
20
0
30
0
70
128
71
78
72
79
73
80
0
VERTEX
8
OBJECT__63
10
0
20
0
30
0
70
128
71
80
72
81
73
78
0
VERTEX
8
OBJECT__63
10
0
20
0
30
0
70
128
71
78
72
82
73
83
0
VERTEX
8
OBJECT__63
10
0
20
0
30
0
70
128
71
83
72
79
73
78
0
VERTEX
8
OBJECT__63
10
0
20
0
30
0
70
128
71
78
72
71
73
84
0
VERTEX
8
OBJECT__63
10
0
20
0
30
0
70
128
71
84
72
82
73
78
0
VERTEX
8
OBJECT__63
10
0
20
0
30
0
70
128
71
2
72
85
73
86
0
VERTEX
8
OBJECT__63
10
0
20
0
30
0
70
128
71
2
72
78
73
87
0
VERTEX
8
OBJECT__63
10
0
20
0
30
0
70
128
71
87
72
88
73
2
0
VERTEX
8
OBJECT__63
10
0
20
0
30
0
70
128
71
88
72
85
73
2
0
VERTEX
8
OBJECT__63
10
0
20
0
30
0
70
128
71
86
72
3
73
2
0
VERTEX
8
OBJECT__63
10
0
20
0
30
0
70
128
71
81
72
87
73
78
0
VERTEX
8
OBJECT__63
10
0
20
0
30
0
70
128
71
73
72
84
73
71
0
VERTEX
8
OBJECT__63
10
0
20
0
30
0
70
128
71
67
72
77
73
64
0
VERTEX
8
OBJECT__63
10
0
20
0
30
0
70
128
71
59
72
65
73
57
0
VERTEX
8
OBJECT__63
10
0
20
0
30
0
70
128
71
54
72
57
73
52
0
VERTEX
8
OBJECT__63
10
0
20
0
30
0
70
128
71
49
72
13
73
14
0
VERTEX
8
OBJECT__63
10
0
20
0
30
0
70
128
71
44
72
50
73
41
0
VERTEX
8
OBJECT__63
10
0
20
0
30
0
70
128
71
36
72
47
73
34
0
VERTEX
8
OBJECT__63
10
0
20
0
30
0
70
128
71
29
72
40
73
27
0
VERTEX
8
OBJECT__63
10
0
20
0
30
0
70
128
71
22
72
30
73
20
0
VERTEX
8
OBJECT__63
10
0
20
0
30
0
70
128
71
17
72
20
73
15
0
VERTEX
8
OBJECT__63
10
0
20
0
30
0
70
128
71
13
72
52
73
12
0
VERTEX
8
OBJECT__63
10
0
20
0
30
0
70
128
71
10
72
9
73
11
0
VERTEX
8
OBJECT__63
10
0
20
0
30
0
70
128
71
8
72
7
73
9
0
VERTEX
8
OBJECT__63
10
0
20
0
30
0
70
128
71
6
72
5
73
7
0
VERTEX
8
OBJECT__63
10
0
20
0
30
0
70
128
71
1
72
4
73
5
0
VERTEX
8
OBJECT__63
10
0
20
0
30
0
70
128
71
3
72
15
73
4
0
SEQEND
8
OBJECT__63
0
POLYLINE
8
OBJECT__65
66
1
70
64
71
12
72
10
62
253
0
VERTEX
8
OBJECT__65
10
17.320999
20
-10.000000
30
292.000000
70
192
0
VERTEX
8
OBJECT__65
10
10.000000
20
17.320999
30
292.000000
70
192
0
VERTEX
8
OBJECT__65
10
0.000000
20
20.000000
30
292.000000
70
192
0
VERTEX
8
OBJECT__65
10
-17.320999
20
10.000000
30
292.000000
70
192
0
VERTEX
8
OBJECT__65
10
-10.000000
20
-17.320999
30
292.000000
70
192
0
VERTEX
8
OBJECT__65
10
0.000000
20
-20.000000
30
292.000000
70
192
0
VERTEX
8
OBJECT__65
10
-10.000000
20
17.320999
30
292.000000
70
192
0
VERTEX
8
OBJECT__65
10
20.000000
20
0.000000
30
292.000000
70
192
0
VERTEX
8
OBJECT__65
10
10.000000
20
-17.320999
30
292.000000
70
192
0
VERTEX
8
OBJECT__65
10
-20.000000
20
0.000000
30
292.000000
70
192
0
VERTEX
8
OBJECT__65
10
-17.320999
20
-10.000000
30
292.000000
70
192
0
VERTEX
8
OBJECT__65
10
17.320999
20
10.000000
30
292.000000
70
192
0
VERTEX
8
OBJECT__65
10
0
20
0
30
0
70
128
71
1
72
2
73
3
0
VERTEX
8
OBJECT__65
10
0
20
0
30
0
70
128
71
4
72
5
73
6
0
VERTEX
8
OBJECT__65
10
0
20
0
30
0
70
128
71
3
72
7
73
1
0
VERTEX
8
OBJECT__65
10
0
20
0
30
0
70
128
71
2
72
1
73
8
0
VERTEX
8
OBJECT__65
10
0
20
0
30
0
70
128
71
6
72
9
73
4
0
VERTEX
8
OBJECT__65
10
0
20
0
30
0
70
128
71
4
72
10
73
11
0
VERTEX
8
OBJECT__65
10
0
20
0
30
0
70
128
71
8
72
12
73
2
0
VERTEX
8
OBJECT__65
10
0
20
0
30
0
70
128
71
11
72
5
73
4
0
VERTEX
8
OBJECT__65
10
0
20
0
30
0
70
128
71
9
72
1
73
4
0
VERTEX
8
OBJECT__65
10
0
20
0
30
0
70
128
71
7
72
4
73
1
0
SEQEND
8
OBJECT__65
0
POLYLINE
8
OBJECT__66
66
1
70
64
71
75
72
84
62
253
0
VERTEX
8
OBJECT__66
10
-4.183000
20
20.941000
30
236.759003
70
192
0
VERTEX
8
OBJECT__66
10
0.000000
20
21.464001
30
236.235992
70
192
0
VERTEX
8
OBJECT__66
10
-1.468000
20
19.945999
30
232.779007
70
192
0
VERTEX
8
OBJECT__66
10
-0.002000
20
19.931999
30
232.800003
70
192
0
VERTEX
8
OBJECT__66
10
-4.588000
20
24.170000
30
238.272003
70
192
0
VERTEX
8
OBJECT__66
10
-1.860000
20
24.872999
30
237.787003
70
192
0
VERTEX
8
OBJECT__66
10
0.001000
20
24.900000
30
237.768005
70
192
0
VERTEX
8
OBJECT__66
10
18.540001
20
7.676000
30
250.024002
70
192
0
VERTEX
8
OBJECT__66
10
20.000000
20
0.000000
30
257.700012
70
192
0
VERTEX
8
OBJECT__66
10
19.534000
20
4.294000
30
253.179993
70
192
0
VERTEX
8
OBJECT__66
10
18.503000
20
8.036000
30
250.380997
70
192
0
VERTEX
8
OBJECT__66
10
19.525000
20
4.565000
30
253.365005
70
192
0
VERTEX
8
OBJECT__66
10
-14.473000
20
14.428000
30
243.272003
70
192
0
VERTEX
8
OBJECT__66
10
-17.242001
20
9.953000
30
246.459000
70
192
0
VERTEX
8
OBJECT__66
10
-18.084000
20
8.543000
30
248.240997
70
192
0
VERTEX
8
OBJECT__66
10
-18.540001
20
7.676000
30
250.024002
70
192
0
VERTEX
8
OBJECT__66
10
-14.719000
20
13.398000
30
241.981995
70
192
0
VERTEX
8
OBJECT__66
10
-16.099001
20
11.867000
30
244.039993
70
192
0
VERTEX
8
OBJECT__66
10
-11.569000
20
17.218000
30
240.481995
70
192
0
VERTEX
8
OBJECT__66
10
-8.108000
20
19.457001
30
238.242996
70
192
0
VERTEX
8
OBJECT__66
10
-10.556000
20
16.987000
30
237.033997
70
192
0
VERTEX
8
OBJECT__66
10
-9.980000
20
17.281000
30
236.615005
70
192
0
VERTEX
8
OBJECT__66
10
-8.627000
20
17.969000
30
235.630005
70
192
0
VERTEX
8
OBJECT__66
10
-4.607000
20
19.462000
30
233.481995
70
192
0
VERTEX
8
OBJECT__66
10
-7.528000
20
18.528999
30
234.830002
70
192
0
VERTEX
8
OBJECT__66
10
-13.470000
20
14.783000
30
240.119995
70
192
0
VERTEX
8
OBJECT__66
10
-11.993000
20
15.901000
30
238.554993
70
192
0
VERTEX
8
OBJECT__66
10
-18.503000
20
7.319000
30
249.664001
70
192
0
VERTEX
8
OBJECT__66
10
-19.525000
20
4.335000
30
253.134995
70
192
0
VERTEX
8
OBJECT__66
10
-17.232000
20
11.240000
30
247.751007
70
192
0
VERTEX
8
OBJECT__66
10
-16.174999
20
13.524000
30
245.936996
70
192
0
VERTEX
8
OBJECT__66
10
-18.209999
20
9.127000
30
249.429993
70
192
0
VERTEX
8
OBJECT__66
10
-18.524000
20
8.036000
30
250.371994
70
192
0
VERTEX
8
OBJECT__66
10
-12.004000
20
19.153000
30
241.792999
70
192
0
VERTEX
8
OBJECT__66
10
-10.955000
20
20.305000
30
240.966995
70
192
0
VERTEX
8
OBJECT__66
10
-9.971000
20
21.069000
30
240.431000
70
192
0
VERTEX
8
OBJECT__66
10
-8.114000
20
22.511999
30
239.419998
70
192
0
VERTEX
8
OBJECT__66
10
-5.115000
20
24.034000
30
238.365005
70
192
0
VERTEX
8
OBJECT__66
10
-8.652000
20
22.094000
30
239.712997
70
192
0
VERTEX
8
OBJECT__66
10
-14.729000
20
15.723000
30
244.296997
70
192
0
VERTEX
8
OBJECT__66
10
-13.691000
20
17.299999
30
243.119995
70
192
0
VERTEX
8
OBJECT__66
10
-20.000000
20
0.000000
30
257.700012
70
192
0
VERTEX
8
OBJECT__66
10
-19.534000
20
4.519000
30
253.406998
70
192
0
VERTEX
8
OBJECT__66
10
14.473000
20
14.428000
30
243.272003
70
192
0
VERTEX
8
OBJECT__66
10
11.569000
20
17.218000
30
240.481995
70
192
0
VERTEX
8
OBJECT__66
10
13.471000
20
17.580000
30
242.917007
70
192
0
VERTEX
8
OBJECT__66
10
11.993000
20
19.145000
30
241.798996
70
192
0
VERTEX
8
OBJECT__66
10
17.242001
20
11.242000
30
247.746994
70
192
0
VERTEX
8
OBJECT__66
10
18.084000
20
9.459000
30
249.156998
70
192
0
VERTEX
8
OBJECT__66
10
14.719000
20
15.719000
30
244.302002
70
192
0
VERTEX
8
OBJECT__66
10
16.100000
20
13.659000
30
245.834000
70
192
0
VERTEX
8
OBJECT__66
10
4.183000
20
20.941000
30
236.759003
70
192
0
VERTEX
8
OBJECT__66
10
4.607000
20
24.219000
30
238.238007
70
192
0
VERTEX
8
OBJECT__66
10
7.529000
20
22.870001
30
239.171005
70
192
0
VERTEX
8
OBJECT__66
10
8.108000
20
19.457001
30
238.242996
70
192
0
VERTEX
8
OBJECT__66
10
10.557000
20
20.666000
30
240.712997
70
192
0
VERTEX
8
OBJECT__66
10
9.980000
20
21.086000
30
240.419006
70
192
0
VERTEX
8
OBJECT__66
10
8.627000
20
22.070000
30
239.731003
70
192
0
VERTEX
8
OBJECT__66
10
1.469000
20
24.921000
30
237.753998
70
192
0
VERTEX
8
OBJECT__66
10
0.002000
20
24.900000
30
237.768005
70
192
0
VERTEX
8
OBJECT__66
10
14.729000
20
13.403000
30
241.977005
70
192
0
VERTEX
8
OBJECT__66
10
13.691000
20
14.580000
30
240.399002
70
192
0
VERTEX
8
OBJECT__66
10
17.232000
20
9.949000
30
246.459000
70
192
0
VERTEX
8
OBJECT__66
10
16.174999
20
11.763000
30
244.175003
70
192
0
VERTEX
8
OBJECT__66
10
18.209999
20
8.271000
30
248.570999
70
192
0
VERTEX
8
OBJECT__66
10
18.524000
20
7.328000
30
249.664001
70
192
0
VERTEX
8
OBJECT__66
10
8.114000
20
18.280001
30
235.186996
70
192
0
VERTEX
8
OBJECT__66
10
5.115000
20
19.334999
30
233.666000
70
192
0
VERTEX
8
OBJECT__66
10
8.652000
20
17.987000
30
235.604996
70
192
0
VERTEX
8
OBJECT__66
10
12.004000
20
15.907000
30
238.546997
70
192
0
VERTEX
8
OBJECT__66
10
10.955000
20
16.733000
30
237.393997
70
192
0
VERTEX
8
OBJECT__66
10
9.972000
20
17.268999
30
236.630005
70
192
0
VERTEX
8
OBJECT__66
10
4.588000
20
19.427999
30
233.529999
70
192
0
VERTEX
8
OBJECT__66
10
1.860000
20
19.913000
30
232.826004
70
192
0
VERTEX
8
OBJECT__66
10
-0.001000
20
19.931999
30
232.800003
70
192
0
VERTEX
8
OBJECT__66
10
0
20
0
30
0
70
128
71
1
72
2
73
3
0
VERTEX
8
OBJECT__66
10
0
20
0
30
0
70
128
71
2
72
4
73
3
0
VERTEX
8
OBJECT__66
10
0
20
0
30
0
70
128
71
1
72
5
73
6
0
VERTEX
8
OBJECT__66
10
0
20
0
30
0
70
128
71
6
72
2
73
1
0
VERTEX
8
OBJECT__66
10
0
20
0
30
0
70
128
71
6
72
7
73
2
0
VERTEX
8
OBJECT__66
10
0
20
0
30
0
70
128
71
8
72
9
73
10
0
VERTEX
8
OBJECT__66
10
0
20
0
30
0
70
128
71
8
72
11
73
12
0
VERTEX
8
OBJECT__66
10
0
20
0
30
0
70
128
71
13
72
14
73
15
0
VERTEX
8
OBJECT__66
10
0
20
0
30
0
70
128
71
15
72
16
73
13
0
VERTEX
8
OBJECT__66
10
0
20
0
30
0
70
128
71
13
72
17
73
18
0
VERTEX
8
OBJECT__66
10
0
20
0
30
0
70
128
71
18
72
14
73
13
0
VERTEX
8
OBJECT__66
10
0
20
0
30
0
70
128
71
19
72
20
73
21
0
VERTEX
8
OBJECT__66
10
0
20
0
30
0
70
128
71
20
72
22
73
21
0
VERTEX
8
OBJECT__66
10
0
20
0
30
0
70
128
71
20
72
23
73
22
0
VERTEX
8
OBJECT__66
10
0
20
0
30
0
70
128
71
1
72
24
73
25
0
VERTEX
8
OBJECT__66
10
0
20
0
30
0
70
128
71
25
72
20
73
1
0
VERTEX
8
OBJECT__66
10
0
20
0
30
0
70
128
71
13
72
19
73
26
0
VERTEX
8
OBJECT__66
10
0
20
0
30
0
70
128
71
19
72
27
73
26
0
VERTEX
8
OBJECT__66
10
0
20
0
30
0
70
128
71
16
72
28
73
29
0
VERTEX
8
OBJECT__66
10
0
20
0
30
0
70
128
71
13
72
30
73
31
0
VERTEX
8
OBJECT__66
10
0
20
0
30
0
70
128
71
16
72
32
73
30
0
VERTEX
8
OBJECT__66
10
0
20
0
30
0
70
128
71
16
72
33
73
32
0
VERTEX
8
OBJECT__66
10
0
20
0
30
0
70
128
71
30
72
13
73
16
0
VERTEX
8
OBJECT__66
10
0
20
0
30
0
70
128
71
19
72
34
73
35
0
VERTEX
8
OBJECT__66
10
0
20
0
30
0
70
128
71
35
72
20
73
19
0
VERTEX
8
OBJECT__66
10
0
20
0
30
0
70
128
71
35
72
36
73
20
0
VERTEX
8
OBJECT__66
10
0
20
0
30
0
70
128
71
1
72
20
73
37
0
VERTEX
8
OBJECT__66
10
0
20
0
30
0
70
128
71
37
72
38
73
1
0
VERTEX
8
OBJECT__66
10
0
20
0
30
0
70
128
71
20
72
39
73
37
0
VERTEX
8
OBJECT__66
10
0
20
0
30
0
70
128
71
13
72
40
73
41
0
VERTEX
8
OBJECT__66
10
0
20
0
30
0
70
128
71
41
72
19
73
13
0
VERTEX
8
OBJECT__66
10
0
20
0
30
0
70
128
71
16
72
42
73
43
0
VERTEX
8
OBJECT__66
10
0
20
0
30
0
70
128
71
44
72
45
73
46
0
VERTEX
8
OBJECT__66
10
0
20
0
30
0
70
128
71
45
72
47
73
46
0
VERTEX
8
OBJECT__66
10
0
20
0
30
0
70
128
71
44
72
48
73
49
0
VERTEX
8
OBJECT__66
10
0
20
0
30
0
70
128
71
49
72
8
73
44
0
VERTEX
8
OBJECT__66
10
0
20
0
30
0
70
128
71
44
72
50
73
51
0
VERTEX
8
OBJECT__66
10
0
20
0
30
0
70
128
71
51
72
48
73
44
0
VERTEX
8
OBJECT__66
10
0
20
0
30
0
70
128
71
52
72
53
73
54
0
VERTEX
8
OBJECT__66
10
0
20
0
30
0
70
128
71
54
72
55
73
52
0
VERTEX
8
OBJECT__66
10
0
20
0
30
0
70
128
71
45
72
55
73
56
0
VERTEX
8
OBJECT__66
10
0
20
0
30
0
70
128
71
55
72
57
73
56
0
VERTEX
8
OBJECT__66
10
0
20
0
30
0
70
128
71
55
72
58
73
57
0
VERTEX
8
OBJECT__66
10
0
20
0
30
0
70
128
71
52
72
2
73
59
0
VERTEX
8
OBJECT__66
10
0
20
0
30
0
70
128
71
2
72
60
73
59
0
VERTEX
8
OBJECT__66
10
0
20
0
30
0
70
128
71
44
72
61
73
62
0
VERTEX
8
OBJECT__66
10
0
20
0
30
0
70
128
71
62
72
45
73
44
0
VERTEX
8
OBJECT__66
10
0
20
0
30
0
70
128
71
44
72
63
73
64
0
VERTEX
8
OBJECT__66
10
0
20
0
30
0
70
128
71
8
72
65
73
63
0
VERTEX
8
OBJECT__66
10
0
20
0
30
0
70
128
71
8
72
66
73
65
0
VERTEX
8
OBJECT__66
10
0
20
0
30
0
70
128
71
63
72
44
73
8
0
VERTEX
8
OBJECT__66
10
0
20
0
30
0
70
128
71
52
72
55
73
67
0
VERTEX
8
OBJECT__66
10
0
20
0
30
0
70
128
71
67
72
68
73
52
0
VERTEX
8
OBJECT__66
10
0
20
0
30
0
70
128
71
55
72
69
73
67
0
VERTEX
8
OBJECT__66
10
0
20
0
30
0
70
128
71
45
72
70
73
71
0
VERTEX
8
OBJECT__66
10
0
20
0
30
0
70
128
71
71
72
55
73
45
0
VERTEX
8
OBJECT__66
10
0
20
0
30
0
70
128
71
71
72
72
73
55
0
VERTEX
8
OBJECT__66
10
0
20
0
30
0
70
128
71
52
72
73
73
74
0
VERTEX
8
OBJECT__66
10
0
20
0
30
0
70
128
71
74
72
2
73
52
0
VERTEX
8
OBJECT__66
10
0
20
0
30
0
70
128
71
74
72
75
73
2
0
VERTEX
8
OBJECT__66
10
0
20
0
30
0
70
128
71
75
72
4
73
2
0
VERTEX
8
OBJECT__66
10
0
20
0
30
0
70
128
71
72
72
69
73
55
0
VERTEX
8
OBJECT__66
10
0
20
0
30
0
70
128
71
68
72
73
73
52
0
VERTEX
8
OBJECT__66
10
0
20
0
30
0
70
128
71
64
72
61
73
44
0
VERTEX
8
OBJECT__66
10
0
20
0
30
0
70
128
71
62
72
70
73
45
0
VERTEX
8
OBJECT__66
10
0
20
0
30
0
70
128
71
59
72
53
73
52
0
VERTEX
8
OBJECT__66
10
0
20
0
30
0
70
128
71
56
72
47
73
45
0
VERTEX
8
OBJECT__66
10
0
20
0
30
0
70
128
71
54
72
58
73
55
0
VERTEX
8
OBJECT__66
10
0
20
0
30
0
70
128
71
49
72
11
73
8
0
VERTEX
8
OBJECT__66
10
0
20
0
30
0
70
128
71
46
72
50
73
44
0
VERTEX
8
OBJECT__66
10
0
20
0
30
0
70
128
71
43
72
33
73
16
0
VERTEX
8
OBJECT__66
10
0
20
0
30
0
70
128
71
41
72
34
73
19
0
VERTEX
8
OBJECT__66
10
0
20
0
30
0
70
128
71
38
72
5
73
1
0
VERTEX
8
OBJECT__66
10
0
20
0
30
0
70
128
71
36
72
39
73
20
0
VERTEX
8
OBJECT__66
10
0
20
0
30
0
70
128
71
31
72
40
73
13
0
VERTEX
8
OBJECT__66
10
0
20
0
30
0
70
128
71
29
72
42
73
16
0
VERTEX
8
OBJECT__66
10
0
20
0
30
0
70
128
71
26
72
17
73
13
0
VERTEX
8
OBJECT__66
10
0
20
0
30
0
70
128
71
25
72
23
73
20
0
VERTEX
8
OBJECT__66
10
0
20
0
30
0
70
128
71
21
72
27
73
19
0
VERTEX
8
OBJECT__66
10
0
20
0
30
0
70
128
71
15
72
28
73
16
0
VERTEX
8
OBJECT__66
10
0
20
0
30
0
70
128
71
12
72
9
73
8
0
VERTEX
8
OBJECT__66
10
0
20
0
30
0
70
128
71
10
72
66
73
8
0
VERTEX
8
OBJECT__66
10
0
20
0
30
0
70
128
71
7
72
60
73
2
0
VERTEX
8
OBJECT__66
10
0
20
0
30
0
70
128
71
3
72
24
73
1
0
SEQEND
8
OBJECT__66
0
POLYLINE
8
OBJECT__67
66
1
70
64
71
75
72
84
62
253
0
VERTEX
8
OBJECT__67
10
-4.183000
20
20.941000
30
278.640991
70
192
0
VERTEX
8
OBJECT__67
10
0.000000
20
21.464001
30
279.164001
70
192
0
VERTEX
8
OBJECT__67
10
-1.468000
20
24.921000
30
277.645996
70
192
0
VERTEX
8
OBJECT__67
10
-0.002000
20
24.900000
30
277.631989
70
192
0
VERTEX
8
OBJECT__67
10
-4.588000
20
19.427999
30
281.869995
70
192
0
VERTEX
8
OBJECT__67
10
-1.860000
20
19.913000
30
282.572998
70
192
0
VERTEX
8
OBJECT__67
10
0.001000
20
19.931999
30
282.600006
70
192
0
VERTEX
8
OBJECT__67
10
18.540001
20
7.676000
30
265.376007
70
192
0
VERTEX
8
OBJECT__67
10
20.000000
20
0.000000
30
257.700012
70
192
0
VERTEX
8
OBJECT__67
10
19.534000
20
4.520000
30
261.993988
70
192
0
VERTEX
8
OBJECT__67
10
18.503000
20
7.319000
30
265.735992
70
192
0
VERTEX
8
OBJECT__67
10
19.525000
20
4.335000
30
262.265015
70
192
0
VERTEX
8
OBJECT__67
10
-14.473000
20
14.428000
30
272.127991
70
192
0
VERTEX
8
OBJECT__67
10
-17.242001
20
11.241000
30
267.653015
70
192
0
VERTEX
8
OBJECT__67
10
-18.084000
20
9.459000
30
266.243011
70
192
0
VERTEX
8
OBJECT__67
10
-18.540001
20
7.676000
30
265.376007
70
192
0
VERTEX
8
OBJECT__67
10
-14.719000
20
15.718000
30
271.097992
70
192
0
VERTEX
8
OBJECT__67
10
-16.099001
20
13.660000
30
269.566986
70
192
0
VERTEX
8
OBJECT__67
10
-11.569000
20
17.218000
30
274.917999
70
192
0
VERTEX
8
OBJECT__67
10
-8.108000
20
19.457001
30
277.157013
70
192
0
VERTEX
8
OBJECT__67
10
-10.556000
20
20.666000
30
274.687012
70
192
0
VERTEX
8
OBJECT__67
10
-9.980000
20
21.084999
30
274.980988
70
192
0
VERTEX
8
OBJECT__67
10
-8.627000
20
22.070000
30
275.669006
70
192
0
VERTEX
8
OBJECT__67
10
-4.607000
20
24.218000
30
277.161987
70
192
0
VERTEX
8
OBJECT__67
10
-7.528000
20
22.870001
30
276.229004
70
192
0
VERTEX
8
OBJECT__67
10
-13.470000
20
17.580000
30
272.483002
70
192
0
VERTEX
8
OBJECT__67
10
-11.993000
20
19.145000
30
273.601013
70
192
0
VERTEX
8
OBJECT__67
10
-18.503000
20
8.036000
30
265.019012
70
192
0
VERTEX
8
OBJECT__67
10
-19.525000
20
4.565000
30
262.035004
70
192
0
VERTEX
8
OBJECT__67
10
-17.232000
20
9.949000
30
268.940002
70
192
0
VERTEX
8
OBJECT__67
10
-16.174999
20
11.763000
30
271.223999
70
192
0
VERTEX
8
OBJECT__67
10
-18.209999
20
8.270000
30
266.826996
70
192
0
VERTEX
8
OBJECT__67
10
-18.524000
20
7.328000
30
265.735992
70
192
0
VERTEX
8
OBJECT__67
10
-12.004000
20
15.907000
30
276.852997
70
192
0
VERTEX
8
OBJECT__67
10
-10.955000
20
16.733000
30
278.005005
70
192
0
VERTEX
8
OBJECT__67
10
-9.971000
20
17.268999
30
278.769012
70
192
0
VERTEX
8
OBJECT__67
10
-8.114000
20
18.280001
30
280.212006
70
192
0
VERTEX
8
OBJECT__67
10
-5.115000
20
19.334999
30
281.734009
70
192
0
VERTEX
8
OBJECT__67
10
-8.652000
20
17.987000
30
279.794006
70
192
0
VERTEX
8
OBJECT__67
10
-14.729000
20
13.403000
30
273.423004
70
192
0
VERTEX
8
OBJECT__67
10
-13.691000
20
14.580000
30
275.000000
70
192
0
VERTEX
8
OBJECT__67
10
-20.000000
20
0.000000
30
257.700012
70
192
0
VERTEX
8
OBJECT__67
10
-19.534000
20
4.293000
30
262.218994
70
192
0
VERTEX
8
OBJECT__67
10
14.473000
20
14.428000
30
272.127991
70
192
0
VERTEX
8
OBJECT__67
10
11.569000
20
17.218000
30
274.917999
70
192
0
VERTEX
8
OBJECT__67
10
13.471000
20
14.783000
30
275.279999
70
192
0
VERTEX
8
OBJECT__67
10
11.993000
20
15.901000
30
276.845001
70
192
0
VERTEX
8
OBJECT__67
10
17.242001
20
9.953000
30
268.941986
70
192
0
VERTEX
8
OBJECT__67
10
18.084000
20
8.543000
30
267.158997
70
192
0
VERTEX
8
OBJECT__67
10
14.719000
20
13.398000
30
273.419006
70
192
0
VERTEX
8
OBJECT__67
10
16.100000
20
11.866000
30
271.359009
70
192
0
VERTEX
8
OBJECT__67
10
4.183000
20
20.941000
30
278.640991
70
192
0
VERTEX
8
OBJECT__67
10
4.607000
20
19.462000
30
281.919006
70
192
0
VERTEX
8
OBJECT__67
10
7.529000
20
18.528999
30
280.570007
70
192
0
VERTEX
8
OBJECT__67
10
8.108000
20
19.457001
30
277.157013
70
192
0
VERTEX
8
OBJECT__67
10
10.557000
20
16.987000
30
278.365997
70
192
0
VERTEX
8
OBJECT__67
10
9.980000
20
17.281000
30
278.786011
70
192
0
VERTEX
8
OBJECT__67
10
8.627000
20
17.969000
30
279.769989
70
192
0
VERTEX
8
OBJECT__67
10
1.469000
20
19.945999
30
282.621002
70
192
0
VERTEX
8
OBJECT__67
10
0.002000
20
19.931999
30
282.600006
70
192
0
VERTEX
8
OBJECT__67
10
14.729000
20
15.723000
30
271.102997
70
192
0
VERTEX
8
OBJECT__67
10
13.691000
20
17.301001
30
272.279999
70
192
0
VERTEX
8
OBJECT__67
10
17.232000
20
11.241000
30
267.648987
70
192
0
VERTEX
8
OBJECT__67
10
16.174999
20
13.525000
30
269.463013
70
192
0
VERTEX
8
OBJECT__67
10
18.209999
20
9.129000
30
265.971008
70
192
0
VERTEX
8
OBJECT__67
10
18.524000
20
8.036000
30
265.028015
70
192
0
VERTEX
8
OBJECT__67
10
8.114000
20
22.513000
30
275.980011
70
192
0
VERTEX
8
OBJECT__67
10
5.115000
20
24.034000
30
277.035004
70
192
0
VERTEX
8
OBJECT__67
10
8.652000
20
22.094999
30
275.687012
70
192
0
VERTEX
8
OBJECT__67
10
12.004000
20
19.153000
30
273.606995
70
192
0
VERTEX
8
OBJECT__67
10
10.955000
20
20.306000
30
274.433014
70
192
0
VERTEX
8
OBJECT__67
10
9.972000
20
21.070000
30
274.968994
70
192
0
VERTEX
8
OBJECT__67
10
4.588000
20
24.170000
30
277.127991
70
192
0
VERTEX
8
OBJECT__67
10
1.860000
20
24.874001
30
277.613007
70
192
0
VERTEX
8
OBJECT__67
10
-0.001000
20
24.900000
30
277.631989
70
192
0
VERTEX
8
OBJECT__67
10
0
20
0
30
0
70
128
71
1
72
2
73
3
0
VERTEX
8
OBJECT__67
10
0
20
0
30
0
70
128
71
2
72
4
73
3
0
VERTEX
8
OBJECT__67
10
0
20
0
30
0
70
128
71
1
72
5
73
6
0
VERTEX
8
OBJECT__67
10
0
20
0
30
0
70
128
71
6
72
2
73
1
0
VERTEX
8
OBJECT__67
10
0
20
0
30
0
70
128
71
6
72
7
73
2
0
VERTEX
8
OBJECT__67
10
0
20
0
30
0
70
128
71
8
72
9
73
10
0
VERTEX
8
OBJECT__67
10
0
20
0
30
0
70
128
71
8
72
11
73
12
0
VERTEX
8
OBJECT__67
10
0
20
0
30
0
70
128
71
13
72
14
73
15
0
VERTEX
8
OBJECT__67
10
0
20
0
30
0
70
128
71
15
72
16
73
13
0
VERTEX
8
OBJECT__67
10
0
20
0
30
0
70
128
71
13
72
17
73
18
0
VERTEX
8
OBJECT__67
10
0
20
0
30
0
70
128
71
18
72
14
73
13
0
VERTEX
8
OBJECT__67
10
0
20
0
30
0
70
128
71
19
72
20
73
21
0
VERTEX
8
OBJECT__67
10
0
20
0
30
0
70
128
71
20
72
22
73
21
0
VERTEX
8
OBJECT__67
10
0
20
0
30
0
70
128
71
20
72
23
73
22
0
VERTEX
8
OBJECT__67
10
0
20
0
30
0
70
128
71
1
72
24
73
25
0
VERTEX
8
OBJECT__67
10
0
20
0
30
0
70
128
71
25
72
20
73
1
0
VERTEX
8
OBJECT__67
10
0
20
0
30
0
70
128
71
13
72
19
73
26
0
VERTEX
8
OBJECT__67
10
0
20
0
30
0
70
128
71
19
72
27
73
26
0
VERTEX
8
OBJECT__67
10
0
20
0
30
0
70
128
71
16
72
28
73
29
0
VERTEX
8
OBJECT__67
10
0
20
0
30
0
70
128
71
13
72
30
73
31
0
VERTEX
8
OBJECT__67
10
0
20
0
30
0
70
128
71
16
72
32
73
30
0
VERTEX
8
OBJECT__67
10
0
20
0
30
0
70
128
71
16
72
33
73
32
0
VERTEX
8
OBJECT__67
10
0
20
0
30
0
70
128
71
30
72
13
73
16
0
VERTEX
8
OBJECT__67
10
0
20
0
30
0
70
128
71
19
72
34
73
35
0
VERTEX
8
OBJECT__67
10
0
20
0
30
0
70
128
71
35
72
20
73
19
0
VERTEX
8
OBJECT__67
10
0
20
0
30
0
70
128
71
35
72
36
73
20
0
VERTEX
8
OBJECT__67
10
0
20
0
30
0
70
128
71
1
72
20
73
37
0
VERTEX
8
OBJECT__67
10
0
20
0
30
0
70
128
71
37
72
38
73
1
0
VERTEX
8
OBJECT__67
10
0
20
0
30
0
70
128
71
20
72
39
73
37
0
VERTEX
8
OBJECT__67
10
0
20
0
30
0
70
128
71
13
72
40
73
41
0
VERTEX
8
OBJECT__67
10
0
20
0
30
0
70
128
71
41
72
19
73
13
0
VERTEX
8
OBJECT__67
10
0
20
0
30
0
70
128
71
16
72
42
73
43
0
VERTEX
8
OBJECT__67
10
0
20
0
30
0
70
128
71
44
72
45
73
46
0
VERTEX
8
OBJECT__67
10
0
20
0
30
0
70
128
71
45
72
47
73
46
0
VERTEX
8
OBJECT__67
10
0
20
0
30
0
70
128
71
44
72
48
73
49
0
VERTEX
8
OBJECT__67
10
0
20
0
30
0
70
128
71
49
72
8
73
44
0
VERTEX
8
OBJECT__67
10
0
20
0
30
0
70
128
71
44
72
50
73
51
0
VERTEX
8
OBJECT__67
10
0
20
0
30
0
70
128
71
51
72
48
73
44
0
VERTEX
8
OBJECT__67
10
0
20
0
30
0
70
128
71
52
72
53
73
54
0
VERTEX
8
OBJECT__67
10
0
20
0
30
0
70
128
71
54
72
55
73
52
0
VERTEX
8
OBJECT__67
10
0
20
0
30
0
70
128
71
45
72
55
73
56
0
VERTEX
8
OBJECT__67
10
0
20
0
30
0
70
128
71
55
72
57
73
56
0
VERTEX
8
OBJECT__67
10
0
20
0
30
0
70
128
71
55
72
58
73
57
0
VERTEX
8
OBJECT__67
10
0
20
0
30
0
70
128
71
52
72
2
73
59
0
VERTEX
8
OBJECT__67
10
0
20
0
30
0
70
128
71
2
72
60
73
59
0
VERTEX
8
OBJECT__67
10
0
20
0
30
0
70
128
71
44
72
61
73
62
0
VERTEX
8
OBJECT__67
10
0
20
0
30
0
70
128
71
62
72
45
73
44
0
VERTEX
8
OBJECT__67
10
0
20
0
30
0
70
128
71
44
72
63
73
64
0
VERTEX
8
OBJECT__67
10
0
20
0
30
0
70
128
71
8
72
65
73
63
0
VERTEX
8
OBJECT__67
10
0
20
0
30
0
70
128
71
8
72
66
73
65
0
VERTEX
8
OBJECT__67
10
0
20
0
30
0
70
128
71
63
72
44
73
8
0
VERTEX
8
OBJECT__67
10
0
20
0
30
0
70
128
71
52
72
55
73
67
0
VERTEX
8
OBJECT__67
10
0
20
0
30
0
70
128
71
67
72
68
73
52
0
VERTEX
8
OBJECT__67
10
0
20
0
30
0
70
128
71
55
72
69
73
67
0
VERTEX
8
OBJECT__67
10
0
20
0
30
0
70
128
71
45
72
70
73
71
0
VERTEX
8
OBJECT__67
10
0
20
0
30
0
70
128
71
71
72
55
73
45
0
VERTEX
8
OBJECT__67
10
0
20
0
30
0
70
128
71
71
72
72
73
55
0
VERTEX
8
OBJECT__67
10
0
20
0
30
0
70
128
71
52
72
73
73
74
0
VERTEX
8
OBJECT__67
10
0
20
0
30
0
70
128
71
74
72
2
73
52
0
VERTEX
8
OBJECT__67
10
0
20
0
30
0
70
128
71
74
72
75
73
2
0
VERTEX
8
OBJECT__67
10
0
20
0
30
0
70
128
71
75
72
4
73
2
0
VERTEX
8
OBJECT__67
10
0
20
0
30
0
70
128
71
72
72
69
73
55
0
VERTEX
8
OBJECT__67
10
0
20
0
30
0
70
128
71
68
72
73
73
52
0
VERTEX
8
OBJECT__67
10
0
20
0
30
0
70
128
71
64
72
61
73
44
0
VERTEX
8
OBJECT__67
10
0
20
0
30
0
70
128
71
62
72
70
73
45
0
VERTEX
8
OBJECT__67
10
0
20
0
30
0
70
128
71
59
72
53
73
52
0
VERTEX
8
OBJECT__67
10
0
20
0
30
0
70
128
71
56
72
47
73
45
0
VERTEX
8
OBJECT__67
10
0
20
0
30
0
70
128
71
54
72
58
73
55
0
VERTEX
8
OBJECT__67
10
0
20
0
30
0
70
128
71
49
72
11
73
8
0
VERTEX
8
OBJECT__67
10
0
20
0
30
0
70
128
71
46
72
50
73
44
0
VERTEX
8
OBJECT__67
10
0
20
0
30
0
70
128
71
43
72
33
73
16
0
VERTEX
8
OBJECT__67
10
0
20
0
30
0
70
128
71
41
72
34
73
19
0
VERTEX
8
OBJECT__67
10
0
20
0
30
0
70
128
71
38
72
5
73
1
0
VERTEX
8
OBJECT__67
10
0
20
0
30
0
70
128
71
36
72
39
73
20
0
VERTEX
8
OBJECT__67
10
0
20
0
30
0
70
128
71
31
72
40
73
13
0
VERTEX
8
OBJECT__67
10
0
20
0
30
0
70
128
71
29
72
42
73
16
0
VERTEX
8
OBJECT__67
10
0
20
0
30
0
70
128
71
26
72
17
73
13
0
VERTEX
8
OBJECT__67
10
0
20
0
30
0
70
128
71
25
72
23
73
20
0
VERTEX
8
OBJECT__67
10
0
20
0
30
0
70
128
71
21
72
27
73
19
0
VERTEX
8
OBJECT__67
10
0
20
0
30
0
70
128
71
15
72
28
73
16
0
VERTEX
8
OBJECT__67
10
0
20
0
30
0
70
128
71
12
72
9
73
8
0
VERTEX
8
OBJECT__67
10
0
20
0
30
0
70
128
71
10
72
66
73
8
0
VERTEX
8
OBJECT__67
10
0
20
0
30
0
70
128
71
7
72
60
73
2
0
VERTEX
8
OBJECT__67
10
0
20
0
30
0
70
128
71
3
72
24
73
1
0
SEQEND
8
OBJECT__67
0
POLYLINE
8
OBJECT__68
66
1
70
64
71
76
72
76
62
253
0
VERTEX
8
OBJECT__68
10
-20.000000
20
48.000000
30
257.700012
70
192
0
VERTEX
8
OBJECT__68
10
-18.084000
20
9.459000
30
266.243011
70
192
0
VERTEX
8
OBJECT__68
10
-17.242001
20
11.241000
30
267.653015
70
192
0
VERTEX
8
OBJECT__68
10
-18.503000
20
8.036000
30
265.019012
70
192
0
VERTEX
8
OBJECT__68
10
-20.000000
20
0.000000
30
257.700012
70
192
0
VERTEX
8
OBJECT__68
10
-19.525000
20
4.565000
30
262.035004
70
192
0
VERTEX
8
OBJECT__68
10
-17.320999
20
48.000000
30
267.700012
70
192
0
VERTEX
8
OBJECT__68
10
-10.556000
20
20.666000
30
274.687012
70
192
0
VERTEX
8
OBJECT__68
10
-9.980000
20
21.084999
30
274.980988
70
192
0
VERTEX
8
OBJECT__68
10
-13.470000
20
17.580000
30
272.483002
70
192
0
VERTEX
8
OBJECT__68
10
-11.993000
20
19.145000
30
273.601013
70
192
0
VERTEX
8
OBJECT__68
10
-16.099001
20
13.660000
30
269.566986
70
192
0
VERTEX
8
OBJECT__68
10
-14.719000
20
15.718000
30
271.097992
70
192
0
VERTEX
8
OBJECT__68
10
0.000000
20
48.000000
30
277.700012
70
192
0
VERTEX
8
OBJECT__68
10
-1.468000
20
24.921000
30
277.645996
70
192
0
VERTEX
8
OBJECT__68
10
-0.002000
20
24.900000
30
277.631989
70
192
0
VERTEX
8
OBJECT__68
10
-10.000000
20
48.000000
30
275.020996
70
192
0
VERTEX
8
OBJECT__68
10
-4.607000
20
24.218000
30
277.161987
70
192
0
VERTEX
8
OBJECT__68
10
-8.627000
20
22.070000
30
275.669006
70
192
0
VERTEX
8
OBJECT__68
10
-7.528000
20
22.870001
30
276.229004
70
192
0
VERTEX
8
OBJECT__68
10
10.000000
20
48.000000
30
275.020996
70
192
0
VERTEX
8
OBJECT__68
10
8.114000
20
22.513000
30
275.980011
70
192
0
VERTEX
8
OBJECT__68
10
8.652000
20
22.094999
30
275.687012
70
192
0
VERTEX
8
OBJECT__68
10
5.115000
20
24.034000
30
277.035004
70
192
0
VERTEX
8
OBJECT__68
10
1.860000
20
24.874001
30
277.613007
70
192
0
VERTEX
8
OBJECT__68
10
4.588000
20
24.170000
30
277.127991
70
192
0
VERTEX
8
OBJECT__68
10
-0.001000
20
24.900000
30
277.631989
70
192
0
VERTEX
8
OBJECT__68
10
17.320999
20
48.000000
30
267.700012
70
192
0
VERTEX
8
OBJECT__68
10
13.691000
20
17.301001
30
272.279999
70
192
0
VERTEX
8
OBJECT__68
10
14.729000
20
15.723000
30
271.102997
70
192
0
VERTEX
8
OBJECT__68
10
16.174999
20
13.525000
30
269.463013
70
192
0
VERTEX
8
OBJECT__68
10
10.955000
20
20.306000
30
274.433014
70
192
0
VERTEX
8
OBJECT__68
10
12.004000
20
19.153000
30
273.606995
70
192
0
VERTEX
8
OBJECT__68
10
9.972000
20
21.070000
30
274.968994
70
192
0
VERTEX
8
OBJECT__68
10
20.000000
20
48.000000
30
257.700012
70
192
0
VERTEX
8
OBJECT__68
10
18.524000
20
8.036000
30
265.028015
70
192
0
VERTEX
8
OBJECT__68
10
19.534000
20
4.520000
30
261.993988
70
192
0
VERTEX
8
OBJECT__68
10
17.232000
20
11.241000
30
267.648987
70
192
0
VERTEX
8
OBJECT__68
10
18.209999
20
9.129000
30
265.971008
70
192
0
VERTEX
8
OBJECT__68
10
18.084000
20
9.459000
30
249.156998
70
192
0
VERTEX
8
OBJECT__68
10
17.242001
20
11.242000
30
247.746994
70
192
0
VERTEX
8
OBJECT__68
10
18.503000
20
8.036000
30
250.380997
70
192
0
VERTEX
8
OBJECT__68
10
20.000000
20
0.000000
30
257.700012
70
192
0
VERTEX
8
OBJECT__68
10
19.525000
20
4.565000
30
253.365005
70
192
0
VERTEX
8
OBJECT__68
10
17.320999
20
48.000000
30
247.699997
70
192
0
VERTEX
8
OBJECT__68
10
10.557000
20
20.666000
30
240.712997
70
192
0
VERTEX
8
OBJECT__68
10
9.980000
20
21.086000
30
240.419006
70
192
0
VERTEX
8
OBJECT__68
10
13.471000
20
17.580000
30
242.917007
70
192
0
VERTEX
8
OBJECT__68
10
11.993000
20
19.145000
30
241.798996
70
192
0
VERTEX
8
OBJECT__68
10
16.100000
20
13.659000
30
245.834000
70
192
0
VERTEX
8
OBJECT__68
10
14.719000
20
15.719000
30
244.302002
70
192
0
VERTEX
8
OBJECT__68
10
0.000000
20
48.000000
30
237.699997
70
192
0
VERTEX
8
OBJECT__68
10
1.469000
20
24.921000
30
237.753998
70
192
0
VERTEX
8
OBJECT__68
10
0.002000
20
24.900000
30
237.768005
70
192
0
VERTEX
8
OBJECT__68
10
10.000000
20
48.000000
30
240.378998
70
192
0
VERTEX
8
OBJECT__68
10
4.607000
20
24.219000
30
238.238007
70
192
0
VERTEX
8
OBJECT__68
10
8.627000
20
22.070000
30
239.731003
70
192
0
VERTEX
8
OBJECT__68
10
7.529000
20
22.870001
30
239.171005
70
192
0
VERTEX
8
OBJECT__68
10
-10.000000
20
48.000000
30
240.378998
70
192
0
VERTEX
8
OBJECT__68
10
-8.114000
20
22.511999
30
239.419998
70
192
0
VERTEX
8
OBJECT__68
10
-8.652000
20
22.094000
30
239.712997
70
192
0
VERTEX
8
OBJECT__68
10
-5.115000
20
24.034000
30
238.365005
70
192
0
VERTEX
8
OBJECT__68
10
-1.860000
20
24.872999
30
237.787003
70
192
0
VERTEX
8
OBJECT__68
10
-4.588000
20
24.170000
30
238.272003
70
192
0
VERTEX
8
OBJECT__68
10
0.001000
20
24.900000
30
237.768005
70
192
0
VERTEX
8
OBJECT__68
10
-17.320999
20
48.000000
30
247.699997
70
192
0
VERTEX
8
OBJECT__68
10
-13.691000
20
17.299999
30
243.119995
70
192
0
VERTEX
8
OBJECT__68
10
-14.729000
20
15.723000
30
244.296997
70
192
0
VERTEX
8
OBJECT__68
10
-16.174999
20
13.524000
30
245.936996
70
192
0
VERTEX
8
OBJECT__68
10
-10.955000
20
20.305000
30
240.966995
70
192
0
VERTEX
8
OBJECT__68
10
-12.004000
20
19.153000
30
241.792999
70
192
0
VERTEX
8
OBJECT__68
10
-9.971000
20
21.069000
30
240.431000
70
192
0
VERTEX
8
OBJECT__68
10
-18.524000
20
8.036000
30
250.371994
70
192
0
VERTEX
8
OBJECT__68
10
-19.534000
20
4.519000
30
253.406998
70
192
0
VERTEX
8
OBJECT__68
10
-17.232000
20
11.240000
30
247.751007
70
192
0
VERTEX
8
OBJECT__68
10
-18.209999
20
9.127000
30
249.429993
70
192
0
VERTEX
8
OBJECT__68
10
0
20
0
30
0
70
128
71
1
72
2
73
3
0
VERTEX
8
OBJECT__68
10
0
20
0
30
0
70
128
71
1
72
4
73
2
0
VERTEX
8
OBJECT__68
10
0
20
0
30
0
70
128
71
1
72
5
73
6
0
VERTEX
8
OBJECT__68
10
0
20
0
30
0
70
128
71
6
72
4
73
1
0
VERTEX
8
OBJECT__68
10
0
20
0
30
0
70
128
71
7
72
8
73
9
0
VERTEX
8
OBJECT__68
10
0
20
0
30
0
70
128
71
7
72
10
73
11
0
VERTEX
8
OBJECT__68
10
0
20
0
30
0
70
128
71
7
72
12
73
13
0
VERTEX
8
OBJECT__68
10
0
20
0
30
0
70
128
71
7
72
3
73
12
0
VERTEX
8
OBJECT__68
10
0
20
0
30
0
70
128
71
13
72
10
73
7
0
VERTEX
8
OBJECT__68
10
0
20
0
30
0
70
128
71
11
72
8
73
7
0
VERTEX
8
OBJECT__68
10
0
20
0
30
0
70
128
71
14
72
15
73
16
0
VERTEX
8
OBJECT__68
10
0
20
0
30
0
70
128
71
17
72
18
73
15
0
VERTEX
8
OBJECT__68
10
0
20
0
30
0
70
128
71
17
72
9
73
19
0
VERTEX
8
OBJECT__68
10
0
20
0
30
0
70
128
71
19
72
20
73
17
0
VERTEX
8
OBJECT__68
10
0
20
0
30
0
70
128
71
20
72
18
73
17
0
VERTEX
8
OBJECT__68
10
0
20
0
30
0
70
128
71
15
72
14
73
17
0
VERTEX
8
OBJECT__68
10
0
20
0
30
0
70
128
71
21
72
22
73
23
0
VERTEX
8
OBJECT__68
10
0
20
0
30
0
70
128
71
21
72
24
73
22
0
VERTEX
8
OBJECT__68
10
0
20
0
30
0
70
128
71
21
72
14
73
25
0
VERTEX
8
OBJECT__68
10
0
20
0
30
0
70
128
71
25
72
26
73
21
0
VERTEX
8
OBJECT__68
10
0
20
0
30
0
70
128
71
26
72
24
73
21
0
VERTEX
8
OBJECT__68
10
0
20
0
30
0
70
128
71
14
72
27
73
25
0
VERTEX
8
OBJECT__68
10
0
20
0
30
0
70
128
71
28
72
29
73
30
0
VERTEX
8
OBJECT__68
10
0
20
0
30
0
70
128
71
30
72
31
73
28
0
VERTEX
8
OBJECT__68
10
0
20
0
30
0
70
128
71
28
72
32
73
33
0
VERTEX
8
OBJECT__68
10
0
20
0
30
0
70
128
71
33
72
29
73
28
0
VERTEX
8
OBJECT__68
10
0
20
0
30
0
70
128
71
28
72
21
73
34
0
VERTEX
8
OBJECT__68
10
0
20
0
30
0
70
128
71
34
72
32
73
28
0
VERTEX
8
OBJECT__68
10
0
20
0
30
0
70
128
71
35
72
36
73
37
0
VERTEX
8
OBJECT__68
10
0
20
0
30
0
70
128
71
35
72
28
73
38
0
VERTEX
8
OBJECT__68
10
0
20
0
30
0
70
128
71
38
72
39
73
35
0
VERTEX
8
OBJECT__68
10
0
20
0
30
0
70
128
71
39
72
36
73
35
0
VERTEX
8
OBJECT__68
10
0
20
0
30
0
70
128
71
35
72
40
73
41
0
VERTEX
8
OBJECT__68
10
0
20
0
30
0
70
128
71
35
72
42
73
40
0
VERTEX
8
OBJECT__68
10
0
20
0
30
0
70
128
71
35
72
43
73
44
0
VERTEX
8
OBJECT__68
10
0
20
0
30
0
70
128
71
44
72
42
73
35
0
VERTEX
8
OBJECT__68
10
0
20
0
30
0
70
128
71
45
72
46
73
47
0
VERTEX
8
OBJECT__68
10
0
20
0
30
0
70
128
71
45
72
48
73
49
0
VERTEX
8
OBJECT__68
10
0
20
0
30
0
70
128
71
45
72
50
73
51
0
VERTEX
8
OBJECT__68
10
0
20
0
30
0
70
128
71
45
72
41
73
50
0
VERTEX
8
OBJECT__68
10
0
20
0
30
0
70
128
71
51
72
48
73
45
0
VERTEX
8
OBJECT__68
10
0
20
0
30
0
70
128
71
49
72
46
73
45
0
VERTEX
8
OBJECT__68
10
0
20
0
30
0
70
128
71
52
72
53
73
54
0
VERTEX
8
OBJECT__68
10
0
20
0
30
0
70
128
71
55
72
56
73
53
0
VERTEX
8
OBJECT__68
10
0
20
0
30
0
70
128
71
55
72
47
73
57
0
VERTEX
8
OBJECT__68
10
0
20
0
30
0
70
128
71
57
72
58
73
55
0
VERTEX
8
OBJECT__68
10
0
20
0
30
0
70
128
71
58
72
56
73
55
0
VERTEX
8
OBJECT__68
10
0
20
0
30
0
70
128
71
53
72
52
73
55
0
VERTEX
8
OBJECT__68
10
0
20
0
30
0
70
128
71
59
72
60
73
61
0
VERTEX
8
OBJECT__68
10
0
20
0
30
0
70
128
71
59
72
62
73
60
0
VERTEX
8
OBJECT__68
10
0
20
0
30
0
70
128
71
59
72
52
73
63
0
VERTEX
8
OBJECT__68
10
0
20
0
30
0
70
128
71
63
72
64
73
59
0
VERTEX
8
OBJECT__68
10
0
20
0
30
0
70
128
71
64
72
62
73
59
0
VERTEX
8
OBJECT__68
10
0
20
0
30
0
70
128
71
52
72
65
73
63
0
VERTEX
8
OBJECT__68
10
0
20
0
30
0
70
128
71
66
72
67
73
68
0
VERTEX
8
OBJECT__68
10
0
20
0
30
0
70
128
71
68
72
69
73
66
0
VERTEX
8
OBJECT__68
10
0
20
0
30
0
70
128
71
66
72
70
73
71
0
VERTEX
8
OBJECT__68
10
0
20
0
30
0
70
128
71
71
72
67
73
66
0
VERTEX
8
OBJECT__68
10
0
20
0
30
0
70
128
71
66
72
59
73
72
0
VERTEX
8
OBJECT__68
10
0
20
0
30
0
70
128
71
72
72
70
73
66
0
VERTEX
8
OBJECT__68
10
0
20
0
30
0
70
128
71
1
72
73
73
74
0
VERTEX
8
OBJECT__68
10
0
20
0
30
0
70
128
71
1
72
66
73
75
0
VERTEX
8
OBJECT__68
10
0
20
0
30
0
70
128
71
75
72
76
73
1
0
VERTEX
8
OBJECT__68
10
0
20
0
30
0
70
128
71
76
72
73
73
1
0
VERTEX
8
OBJECT__68
10
0
20
0
30
0
70
128
71
74
72
5
73
1
0
VERTEX
8
OBJECT__68
10
0
20
0
30
0
70
128
71
69
72
75
73
66
0
VERTEX
8
OBJECT__68
10
0
20
0
30
0
70
128
71
61
72
72
73
59
0
VERTEX
8
OBJECT__68
10
0
20
0
30
0
70
128
71
54
72
65
73
52
0
VERTEX
8
OBJECT__68
10
0
20
0
30
0
70
128
71
47
72
55
73
45
0
VERTEX
8
OBJECT__68
10
0
20
0
30
0
70
128
71
41
72
45
73
35
0
VERTEX
8
OBJECT__68
10
0
20
0
30
0
70
128
71
37
72
43
73
35
0
VERTEX
8
OBJECT__68
10
0
20
0
30
0
70
128
71
31
72
38
73
28
0
VERTEX
8
OBJECT__68
10
0
20
0
30
0
70
128
71
23
72
34
73
21
0
VERTEX
8
OBJECT__68
10
0
20
0
30
0
70
128
71
16
72
27
73
14
0
VERTEX
8
OBJECT__68
10
0
20
0
30
0
70
128
71
9
72
17
73
7
0
VERTEX
8
OBJECT__68
10
0
20
0
30
0
70
128
71
3
72
7
73
1
0
SEQEND
8
OBJECT__68
0
POLYLINE
8
OBJECT__69
66
1
70
64
71
12
72
10
62
253
0
VERTEX
8
OBJECT__69
10
0.000000
20
48.000000
30
237.699997
70
192
0
VERTEX
8
OBJECT__69
10
20.000000
20
48.000000
30
257.700012
70
192
0
VERTEX
8
OBJECT__69
10
17.320999
20
48.000000
30
247.699997
70
192
0
VERTEX
8
OBJECT__69
10
17.320999
20
48.000000
30
267.700012
70
192
0
VERTEX
8
OBJECT__69
10
10.000000
20
48.000000
30
275.020996
70
192
0
VERTEX
8
OBJECT__69
10
-17.320999
20
48.000000
30
267.700012
70
192
0
VERTEX
8
OBJECT__69
10
-10.000000
20
48.000000
30
275.020996
70
192
0
VERTEX
8
OBJECT__69
10
-20.000000
20
48.000000
30
257.700012
70
192
0
VERTEX
8
OBJECT__69
10
-10.000000
20
48.000000
30
240.378998
70
192
0
VERTEX
8
OBJECT__69
10
-17.320999
20
48.000000
30
247.699997
70
192
0
VERTEX
8
OBJECT__69
10
10.000000
20
48.000000
30
240.378998
70
192
0
VERTEX
8
OBJECT__69
10
0.000000
20
48.000000
30
277.700012
70
192
0
VERTEX
8
OBJECT__69
10
0
20
0
30
0
70
128
71
1
72
2
73
3
0
VERTEX
8
OBJECT__69
10
0
20
0
30
0
70
128
71
1
72
4
73
2
0
VERTEX
8
OBJECT__69
10
0
20
0
30
0
70
128
71
5
72
6
73
7
0
VERTEX
8
OBJECT__69
10
0
20
0
30
0
70
128
71
1
72
5
73
4
0
VERTEX
8
OBJECT__69
10
0
20
0
30
0
70
128
71
5
72
8
73
6
0
VERTEX
8
OBJECT__69
10
0
20
0
30
0
70
128
71
5
72
9
73
10
0
VERTEX
8
OBJECT__69
10
0
20
0
30
0
70
128
71
3
72
11
73
1
0
VERTEX
8
OBJECT__69
10
0
20
0
30
0
70
128
71
10
72
8
73
5
0
VERTEX
8
OBJECT__69
10
0
20
0
30
0
70
128
71
7
72
12
73
5
0
VERTEX
8
OBJECT__69
10
0
20
0
30
0
70
128
71
1
72
9
73
5
0
SEQEND
8
OBJECT__69
0
ENDSEC
0
EOF
