999
Converted by 3D Exploration 
999
XDimension Software, LLC
999
http://www.xdsoft.com/explorer/
0
SECTION
2
HEADER
9
$ACADVER
1
AC1008
9
$UCSORG
10
0.0
20
0.0
30
0.0
9
$UCSXDIR
10
1.0
20
0.0
30
0.0
9
$TILEMODE
70
1
9
$UCSYDIR
10
0.0
20
1.0
30
0.0
9
$EXTMIN
10
-22.000000
20
-21.948999
30
-21.948999
9
$EXTMAX
10
113.720001
20
21.948999
30
73.705002
0
ENDSEC
0
SECTION
2
TABLES
0
TABLE
2
LTYPE
70
1
0
LTYPE
2
CONTINUOUS
70
64
3
Solid line
72
65
73
0
40
0.0
0
ENDTAB
0
TABLE
2
LAYER
70
18
0
LAYER
2
OBJECT__0
70
0
62
253
6
CONTINUOUS
0
LAYER
2
OBJECT__1
70
0
62
253
6
CONTINUOUS
0
LAYER
2
OBJECT__3
70
0
62
253
6
CONTINUOUS
0
LAYER
2
OBJECT__4
70
0
62
253
6
CONTINUOUS
0
LAYER
2
OBJECT__5
70
0
62
253
6
CONTINUOUS
0
LAYER
2
OBJECT__6
70
0
62
253
6
CONTINUOUS
0
LAYER
2
OBJECT__7
70
0
62
253
6
CONTINUOUS
0
LAYER
2
OBJECT__8
70
0
62
253
6
CONTINUOUS
0
LAYER
2
OBJECT__9
70
0
62
253
6
CONTINUOUS
0
LAYER
2
OBJECT__10
70
0
62
253
6
CONTINUOUS
0
LAYER
2
OBJECT__11
70
0
62
253
6
CONTINUOUS
0
LAYER
2
OBJECT__12
70
0
62
253
6
CONTINUOUS
0
LAYER
2
OBJECT__13
70
0
62
253
6
CONTINUOUS
0
LAYER
2
OBJECT__14
70
0
62
253
6
CONTINUOUS
0
LAYER
2
OBJECT__15
70
0
62
253
6
CONTINUOUS
0
LAYER
2
OBJECT__16
70
0
62
253
6
CONTINUOUS
0
LAYER
2
OBJECT__17
70
0
62
253
6
CONTINUOUS
0
ENDTAB
0
TABLE
2
STYLE
70
1
0
STYLE
2
STANDARD
70
0
40
0.0
41
1.0
50
0.0
71
0
42
0.2
3
txt
4
1
0
ENDTAB
0
TABLE
2
UCS
70
0
0
ENDTAB
0
ENDSEC
0
SECTION
2
ENTITIES
0
POLYLINE
8
OBJECT__0
66
1
70
64
71
22
72
21
62
253
0
VERTEX
8
OBJECT__0
10
-17.250000
20
0.000000
30
73.398003
70
192
0
VERTEX
8
OBJECT__0
10
-16.483999
20
-5.085000
30
73.398003
70
192
0
VERTEX
8
OBJECT__0
10
0.000000
20
0.000000
30
73.705002
70
192
0
VERTEX
8
OBJECT__0
10
-14.253000
20
-9.717000
30
73.398003
70
192
0
VERTEX
8
OBJECT__0
10
-10.755000
20
-13.487000
30
73.398003
70
192
0
VERTEX
8
OBJECT__0
10
-6.302000
20
-16.058001
30
73.398003
70
192
0
VERTEX
8
OBJECT__0
10
-1.289000
20
-17.202000
30
73.398003
70
192
0
VERTEX
8
OBJECT__0
10
3.838000
20
-16.818001
30
73.398003
70
192
0
VERTEX
8
OBJECT__0
10
8.625000
20
-14.939000
30
73.398003
70
192
0
VERTEX
8
OBJECT__0
10
12.645000
20
-11.733000
30
73.398003
70
192
0
VERTEX
8
OBJECT__0
10
15.542000
20
-7.484000
30
73.398003
70
192
0
VERTEX
8
OBJECT__0
10
17.056999
20
-2.571000
30
73.398003
70
192
0
VERTEX
8
OBJECT__0
10
17.056999
20
2.571000
30
73.398003
70
192
0
VERTEX
8
OBJECT__0
10
15.542000
20
7.484000
30
73.398003
70
192
0
VERTEX
8
OBJECT__0
10
12.645000
20
11.733000
30
73.398003
70
192
0
VERTEX
8
OBJECT__0
10
8.625000
20
14.939000
30
73.398003
70
192
0
VERTEX
8
OBJECT__0
10
3.838000
20
16.818001
30
73.398003
70
192
0
VERTEX
8
OBJECT__0
10
-1.289000
20
17.202000
30
73.398003
70
192
0
VERTEX
8
OBJECT__0
10
-6.302000
20
16.058001
30
73.398003
70
192
0
VERTEX
8
OBJECT__0
10
-10.755000
20
13.487000
30
73.398003
70
192
0
VERTEX
8
OBJECT__0
10
-14.253000
20
9.717000
30
73.398003
70
192
0
VERTEX
8
OBJECT__0
10
-16.483999
20
5.085000
30
73.398003
70
192
0
VERTEX
8
OBJECT__0
10
0
20
0
30
0
70
128
71
1
72
2
73
3
0
VERTEX
8
OBJECT__0
10
0
20
0
30
0
70
128
71
2
72
4
73
3
0
VERTEX
8
OBJECT__0
10
0
20
0
30
0
70
128
71
4
72
5
73
3
0
VERTEX
8
OBJECT__0
10
0
20
0
30
0
70
128
71
5
72
6
73
3
0
VERTEX
8
OBJECT__0
10
0
20
0
30
0
70
128
71
6
72
7
73
3
0
VERTEX
8
OBJECT__0
10
0
20
0
30
0
70
128
71
7
72
8
73
3
0
VERTEX
8
OBJECT__0
10
0
20
0
30
0
70
128
71
8
72
9
73
3
0
VERTEX
8
OBJECT__0
10
0
20
0
30
0
70
128
71
9
72
10
73
3
0
VERTEX
8
OBJECT__0
10
0
20
0
30
0
70
128
71
10
72
11
73
3
0
VERTEX
8
OBJECT__0
10
0
20
0
30
0
70
128
71
11
72
12
73
3
0
VERTEX
8
OBJECT__0
10
0
20
0
30
0
70
128
71
12
72
13
73
3
0
VERTEX
8
OBJECT__0
10
0
20
0
30
0
70
128
71
13
72
14
73
3
0
VERTEX
8
OBJECT__0
10
0
20
0
30
0
70
128
71
14
72
15
73
3
0
VERTEX
8
OBJECT__0
10
0
20
0
30
0
70
128
71
15
72
16
73
3
0
VERTEX
8
OBJECT__0
10
0
20
0
30
0
70
128
71
16
72
17
73
3
0
VERTEX
8
OBJECT__0
10
0
20
0
30
0
70
128
71
17
72
18
73
3
0
VERTEX
8
OBJECT__0
10
0
20
0
30
0
70
128
71
18
72
19
73
3
0
VERTEX
8
OBJECT__0
10
0
20
0
30
0
70
128
71
19
72
20
73
3
0
VERTEX
8
OBJECT__0
10
0
20
0
30
0
70
128
71
20
72
21
73
3
0
VERTEX
8
OBJECT__0
10
0
20
0
30
0
70
128
71
21
72
22
73
3
0
VERTEX
8
OBJECT__0
10
0
20
0
30
0
70
128
71
22
72
1
73
3
0
SEQEND
8
OBJECT__0
0
POLYLINE
8
OBJECT__1
66
1
70
64
71
42
72
42
62
253
0
VERTEX
8
OBJECT__1
10
-16.483999
20
5.085000
30
73.398003
70
192
0
VERTEX
8
OBJECT__1
10
-16.483999
20
5.085000
30
61.500000
70
192
0
VERTEX
8
OBJECT__1
10
-17.250000
20
0.000000
30
61.500000
70
192
0
VERTEX
8
OBJECT__1
10
-14.253000
20
9.717000
30
73.398003
70
192
0
VERTEX
8
OBJECT__1
10
-14.253000
20
9.717000
30
61.500000
70
192
0
VERTEX
8
OBJECT__1
10
-10.755000
20
13.487000
30
73.398003
70
192
0
VERTEX
8
OBJECT__1
10
-10.755000
20
13.487000
30
61.500000
70
192
0
VERTEX
8
OBJECT__1
10
-6.302000
20
16.058001
30
73.398003
70
192
0
VERTEX
8
OBJECT__1
10
-6.302000
20
16.058001
30
61.500000
70
192
0
VERTEX
8
OBJECT__1
10
-1.289000
20
17.202000
30
73.398003
70
192
0
VERTEX
8
OBJECT__1
10
-1.289000
20
17.202000
30
61.500000
70
192
0
VERTEX
8
OBJECT__1
10
3.838000
20
16.818001
30
73.398003
70
192
0
VERTEX
8
OBJECT__1
10
3.838000
20
16.818001
30
61.500000
70
192
0
VERTEX
8
OBJECT__1
10
8.625000
20
14.939000
30
73.398003
70
192
0
VERTEX
8
OBJECT__1
10
8.625000
20
14.939000
30
61.500000
70
192
0
VERTEX
8
OBJECT__1
10
12.645000
20
11.733000
30
73.398003
70
192
0
VERTEX
8
OBJECT__1
10
12.645000
20
11.733000
30
61.500000
70
192
0
VERTEX
8
OBJECT__1
10
15.542000
20
7.484000
30
73.398003
70
192
0
VERTEX
8
OBJECT__1
10
15.542000
20
7.484000
30
61.500000
70
192
0
VERTEX
8
OBJECT__1
10
17.056999
20
2.571000
30
73.398003
70
192
0
VERTEX
8
OBJECT__1
10
17.056999
20
2.571000
30
61.500000
70
192
0
VERTEX
8
OBJECT__1
10
17.056999
20
-2.571000
30
73.398003
70
192
0
VERTEX
8
OBJECT__1
10
17.056999
20
-2.571000
30
61.500000
70
192
0
VERTEX
8
OBJECT__1
10
15.542000
20
-7.484000
30
73.398003
70
192
0
VERTEX
8
OBJECT__1
10
15.542000
20
-7.484000
30
61.500000
70
192
0
VERTEX
8
OBJECT__1
10
12.645000
20
-11.733000
30
73.398003
70
192
0
VERTEX
8
OBJECT__1
10
12.645000
20
-11.733000
30
61.500000
70
192
0
VERTEX
8
OBJECT__1
10
8.625000
20
-14.939000
30
73.398003
70
192
0
VERTEX
8
OBJECT__1
10
8.625000
20
-14.939000
30
61.500000
70
192
0
VERTEX
8
OBJECT__1
10
3.838000
20
-16.818001
30
73.398003
70
192
0
VERTEX
8
OBJECT__1
10
3.838000
20
-16.818001
30
61.500000
70
192
0
VERTEX
8
OBJECT__1
10
-1.289000
20
-17.202000
30
73.398003
70
192
0
VERTEX
8
OBJECT__1
10
-1.289000
20
-17.202000
30
61.500000
70
192
0
VERTEX
8
OBJECT__1
10
-6.302000
20
-16.058001
30
73.398003
70
192
0
VERTEX
8
OBJECT__1
10
-6.302000
20
-16.058001
30
61.500000
70
192
0
VERTEX
8
OBJECT__1
10
-10.755000
20
-13.487000
30
73.398003
70
192
0
VERTEX
8
OBJECT__1
10
-10.755000
20
-13.487000
30
61.500000
70
192
0
VERTEX
8
OBJECT__1
10
-14.253000
20
-9.717000
30
73.398003
70
192
0
VERTEX
8
OBJECT__1
10
-14.253000
20
-9.717000
30
61.500000
70
192
0
VERTEX
8
OBJECT__1
10
-16.483999
20
-5.085000
30
73.398003
70
192
0
VERTEX
8
OBJECT__1
10
-16.483999
20
-5.085000
30
61.500000
70
192
0
VERTEX
8
OBJECT__1
10
-17.250000
20
0.000000
30
73.398003
70
192
0
VERTEX
8
OBJECT__1
10
0
20
0
30
0
70
128
71
1
72
2
73
3
0
VERTEX
8
OBJECT__1
10
0
20
0
30
0
70
128
71
4
72
5
73
2
0
VERTEX
8
OBJECT__1
10
0
20
0
30
0
70
128
71
6
72
7
73
5
0
VERTEX
8
OBJECT__1
10
0
20
0
30
0
70
128
71
8
72
9
73
7
0
VERTEX
8
OBJECT__1
10
0
20
0
30
0
70
128
71
10
72
11
73
9
0
VERTEX
8
OBJECT__1
10
0
20
0
30
0
70
128
71
12
72
13
73
11
0
VERTEX
8
OBJECT__1
10
0
20
0
30
0
70
128
71
14
72
15
73
13
0
VERTEX
8
OBJECT__1
10
0
20
0
30
0
70
128
71
16
72
17
73
15
0
VERTEX
8
OBJECT__1
10
0
20
0
30
0
70
128
71
18
72
19
73
17
0
VERTEX
8
OBJECT__1
10
0
20
0
30
0
70
128
71
20
72
21
73
19
0
VERTEX
8
OBJECT__1
10
0
20
0
30
0
70
128
71
22
72
23
73
21
0
VERTEX
8
OBJECT__1
10
0
20
0
30
0
70
128
71
24
72
25
73
23
0
VERTEX
8
OBJECT__1
10
0
20
0
30
0
70
128
71
26
72
27
73
25
0
VERTEX
8
OBJECT__1
10
0
20
0
30
0
70
128
71
28
72
29
73
27
0
VERTEX
8
OBJECT__1
10
0
20
0
30
0
70
128
71
30
72
31
73
29
0
VERTEX
8
OBJECT__1
10
0
20
0
30
0
70
128
71
32
72
33
73
31
0
VERTEX
8
OBJECT__1
10
0
20
0
30
0
70
128
71
34
72
35
73
33
0
VERTEX
8
OBJECT__1
10
0
20
0
30
0
70
128
71
36
72
37
73
35
0
VERTEX
8
OBJECT__1
10
0
20
0
30
0
70
128
71
38
72
39
73
37
0
VERTEX
8
OBJECT__1
10
0
20
0
30
0
70
128
71
40
72
41
73
39
0
VERTEX
8
OBJECT__1
10
0
20
0
30
0
70
128
71
42
72
3
73
41
0
VERTEX
8
OBJECT__1
10
0
20
0
30
0
70
128
71
41
72
40
73
42
0
VERTEX
8
OBJECT__1
10
0
20
0
30
0
70
128
71
39
72
38
73
40
0
VERTEX
8
OBJECT__1
10
0
20
0
30
0
70
128
71
37
72
36
73
38
0
VERTEX
8
OBJECT__1
10
0
20
0
30
0
70
128
71
35
72
34
73
36
0
VERTEX
8
OBJECT__1
10
0
20
0
30
0
70
128
71
33
72
32
73
34
0
VERTEX
8
OBJECT__1
10
0
20
0
30
0
70
128
71
31
72
30
73
32
0
VERTEX
8
OBJECT__1
10
0
20
0
30
0
70
128
71
29
72
28
73
30
0
VERTEX
8
OBJECT__1
10
0
20
0
30
0
70
128
71
27
72
26
73
28
0
VERTEX
8
OBJECT__1
10
0
20
0
30
0
70
128
71
25
72
24
73
26
0
VERTEX
8
OBJECT__1
10
0
20
0
30
0
70
128
71
23
72
22
73
24
0
VERTEX
8
OBJECT__1
10
0
20
0
30
0
70
128
71
21
72
20
73
22
0
VERTEX
8
OBJECT__1
10
0
20
0
30
0
70
128
71
19
72
18
73
20
0
VERTEX
8
OBJECT__1
10
0
20
0
30
0
70
128
71
17
72
16
73
18
0
VERTEX
8
OBJECT__1
10
0
20
0
30
0
70
128
71
15
72
14
73
16
0
VERTEX
8
OBJECT__1
10
0
20
0
30
0
70
128
71
13
72
12
73
14
0
VERTEX
8
OBJECT__1
10
0
20
0
30
0
70
128
71
11
72
10
73
12
0
VERTEX
8
OBJECT__1
10
0
20
0
30
0
70
128
71
9
72
8
73
10
0
VERTEX
8
OBJECT__1
10
0
20
0
30
0
70
128
71
7
72
6
73
8
0
VERTEX
8
OBJECT__1
10
0
20
0
30
0
70
128
71
5
72
4
73
6
0
VERTEX
8
OBJECT__1
10
0
20
0
30
0
70
128
71
2
72
1
73
4
0
VERTEX
8
OBJECT__1
10
0
20
0
30
0
70
128
71
3
72
42
73
1
0
SEQEND
8
OBJECT__1
0
POLYLINE
8
OBJECT__3
66
1
70
64
71
40
72
40
62
253
0
VERTEX
8
OBJECT__3
10
-16.483999
20
5.085000
30
61.500000
70
192
0
VERTEX
8
OBJECT__3
10
-13.241000
20
4.546000
30
61.500000
70
192
0
VERTEX
8
OBJECT__3
10
-14.000000
20
0.000000
30
61.500000
70
192
0
VERTEX
8
OBJECT__3
10
-14.253000
20
9.717000
30
61.500000
70
192
0
VERTEX
8
OBJECT__3
10
-11.048000
20
8.599000
30
61.500000
70
192
0
VERTEX
8
OBJECT__3
10
-1.289000
20
17.202000
30
61.500000
70
192
0
VERTEX
8
OBJECT__3
10
1.156000
20
13.952000
30
61.500000
70
192
0
VERTEX
8
OBJECT__3
10
-3.437000
20
13.572000
30
61.500000
70
192
0
VERTEX
8
OBJECT__3
10
15.542000
20
7.484000
30
61.500000
70
192
0
VERTEX
8
OBJECT__3
10
17.056999
20
2.571000
30
61.500000
70
192
0
VERTEX
8
OBJECT__3
10
13.809000
20
2.304000
30
61.500000
70
192
0
VERTEX
8
OBJECT__3
10
17.056999
20
-2.571000
30
61.500000
70
192
0
VERTEX
8
OBJECT__3
10
13.809000
20
-2.304000
30
61.500000
70
192
0
VERTEX
8
OBJECT__3
10
-10.755000
20
13.487000
30
61.500000
70
192
0
VERTEX
8
OBJECT__3
10
-7.657000
20
11.720000
30
61.500000
70
192
0
VERTEX
8
OBJECT__3
10
-6.302000
20
16.058001
30
61.500000
70
192
0
VERTEX
8
OBJECT__3
10
3.838000
20
16.818001
30
61.500000
70
192
0
VERTEX
8
OBJECT__3
10
8.625000
20
14.939000
30
61.500000
70
192
0
VERTEX
8
OBJECT__3
10
5.624000
20
12.821000
30
61.500000
70
192
0
VERTEX
8
OBJECT__3
10
12.645000
20
11.733000
30
61.500000
70
192
0
VERTEX
8
OBJECT__3
10
12.313000
20
6.663000
30
61.500000
70
192
0
VERTEX
8
OBJECT__3
10
-1.289000
20
-17.202000
30
61.500000
70
192
0
VERTEX
8
OBJECT__3
10
-6.302000
20
-16.058001
30
61.500000
70
192
0
VERTEX
8
OBJECT__3
10
-3.437000
20
-13.572000
30
61.500000
70
192
0
VERTEX
8
OBJECT__3
10
9.482000
20
10.300000
30
61.500000
70
192
0
VERTEX
8
OBJECT__3
10
15.542000
20
-7.484000
30
61.500000
70
192
0
VERTEX
8
OBJECT__3
10
12.313000
20
-6.663000
30
61.500000
70
192
0
VERTEX
8
OBJECT__3
10
12.645000
20
-11.733000
30
61.500000
70
192
0
VERTEX
8
OBJECT__3
10
9.482000
20
-10.300000
30
61.500000
70
192
0
VERTEX
8
OBJECT__3
10
8.625000
20
-14.939000
30
61.500000
70
192
0
VERTEX
8
OBJECT__3
10
5.624000
20
-12.821000
30
61.500000
70
192
0
VERTEX
8
OBJECT__3
10
3.838000
20
-16.818001
30
61.500000
70
192
0
VERTEX
8
OBJECT__3
10
1.156000
20
-13.952000
30
61.500000
70
192
0
VERTEX
8
OBJECT__3
10
-10.755000
20
-13.487000
30
61.500000
70
192
0
VERTEX
8
OBJECT__3
10
-7.657000
20
-11.720000
30
61.500000
70
192
0
VERTEX
8
OBJECT__3
10
-14.253000
20
-9.717000
30
61.500000
70
192
0
VERTEX
8
OBJECT__3
10
-11.048000
20
-8.599000
30
61.500000
70
192
0
VERTEX
8
OBJECT__3
10
-16.483999
20
-5.085000
30
61.500000
70
192
0
VERTEX
8
OBJECT__3
10
-13.241000
20
-4.546000
30
61.500000
70
192
0
VERTEX
8
OBJECT__3
10
-17.250000
20
0.000000
30
61.500000
70
192
0
VERTEX
8
OBJECT__3
10
0
20
0
30
0
70
128
71
1
72
2
73
3
0
VERTEX
8
OBJECT__3
10
0
20
0
30
0
70
128
71
4
72
5
73
2
0
VERTEX
8
OBJECT__3
10
0
20
0
30
0
70
128
71
6
72
7
73
8
0
VERTEX
8
OBJECT__3
10
0
20
0
30
0
70
128
71
9
72
10
73
11
0
VERTEX
8
OBJECT__3
10
0
20
0
30
0
70
128
71
10
72
12
73
13
0
VERTEX
8
OBJECT__3
10
0
20
0
30
0
70
128
71
2
72
1
73
4
0
VERTEX
8
OBJECT__3
10
0
20
0
30
0
70
128
71
14
72
15
73
5
0
VERTEX
8
OBJECT__3
10
0
20
0
30
0
70
128
71
8
72
16
73
6
0
VERTEX
8
OBJECT__3
10
0
20
0
30
0
70
128
71
17
72
18
73
19
0
VERTEX
8
OBJECT__3
10
0
20
0
30
0
70
128
71
20
72
9
73
21
0
VERTEX
8
OBJECT__3
10
0
20
0
30
0
70
128
71
13
72
11
73
10
0
VERTEX
8
OBJECT__3
10
0
20
0
30
0
70
128
71
22
72
23
73
24
0
VERTEX
8
OBJECT__3
10
0
20
0
30
0
70
128
71
5
72
4
73
14
0
VERTEX
8
OBJECT__3
10
0
20
0
30
0
70
128
71
16
72
8
73
15
0
VERTEX
8
OBJECT__3
10
0
20
0
30
0
70
128
71
19
72
7
73
17
0
VERTEX
8
OBJECT__3
10
0
20
0
30
0
70
128
71
18
72
20
73
25
0
VERTEX
8
OBJECT__3
10
0
20
0
30
0
70
128
71
11
72
21
73
9
0
VERTEX
8
OBJECT__3
10
0
20
0
30
0
70
128
71
26
72
27
73
13
0
VERTEX
8
OBJECT__3
10
0
20
0
30
0
70
128
71
28
72
29
73
27
0
VERTEX
8
OBJECT__3
10
0
20
0
30
0
70
128
71
30
72
31
73
29
0
VERTEX
8
OBJECT__3
10
0
20
0
30
0
70
128
71
32
72
33
73
31
0
VERTEX
8
OBJECT__3
10
0
20
0
30
0
70
128
71
33
72
32
73
22
0
VERTEX
8
OBJECT__3
10
0
20
0
30
0
70
128
71
15
72
14
73
16
0
VERTEX
8
OBJECT__3
10
0
20
0
30
0
70
128
71
25
72
19
73
18
0
VERTEX
8
OBJECT__3
10
0
20
0
30
0
70
128
71
13
72
12
73
26
0
VERTEX
8
OBJECT__3
10
0
20
0
30
0
70
128
71
29
72
28
73
30
0
VERTEX
8
OBJECT__3
10
0
20
0
30
0
70
128
71
24
72
33
73
22
0
VERTEX
8
OBJECT__3
10
0
20
0
30
0
70
128
71
23
72
34
73
35
0
VERTEX
8
OBJECT__3
10
0
20
0
30
0
70
128
71
34
72
36
73
37
0
VERTEX
8
OBJECT__3
10
0
20
0
30
0
70
128
71
36
72
38
73
39
0
VERTEX
8
OBJECT__3
10
0
20
0
30
0
70
128
71
6
72
17
73
7
0
VERTEX
8
OBJECT__3
10
0
20
0
30
0
70
128
71
27
72
26
73
28
0
VERTEX
8
OBJECT__3
10
0
20
0
30
0
70
128
71
35
72
24
73
23
0
VERTEX
8
OBJECT__3
10
0
20
0
30
0
70
128
71
39
72
37
73
36
0
VERTEX
8
OBJECT__3
10
0
20
0
30
0
70
128
71
21
72
25
73
20
0
VERTEX
8
OBJECT__3
10
0
20
0
30
0
70
128
71
37
72
35
73
34
0
VERTEX
8
OBJECT__3
10
0
20
0
30
0
70
128
71
31
72
30
73
32
0
VERTEX
8
OBJECT__3
10
0
20
0
30
0
70
128
71
38
72
40
73
3
0
VERTEX
8
OBJECT__3
10
0
20
0
30
0
70
128
71
3
72
39
73
38
0
VERTEX
8
OBJECT__3
10
0
20
0
30
0
70
128
71
3
72
40
73
1
0
SEQEND
8
OBJECT__3
0
POLYLINE
8
OBJECT__4
66
1
70
64
71
38
72
38
62
253
0
VERTEX
8
OBJECT__4
10
-13.241000
20
4.546000
30
61.500000
70
192
0
VERTEX
8
OBJECT__4
10
-13.241000
20
4.546000
30
51.500000
70
192
0
VERTEX
8
OBJECT__4
10
-14.000000
20
0.000000
30
51.500000
70
192
0
VERTEX
8
OBJECT__4
10
-11.048000
20
8.599000
30
61.500000
70
192
0
VERTEX
8
OBJECT__4
10
-11.048000
20
8.599000
30
51.500000
70
192
0
VERTEX
8
OBJECT__4
10
-7.657000
20
11.720000
30
61.500000
70
192
0
VERTEX
8
OBJECT__4
10
-7.657000
20
11.720000
30
51.500000
70
192
0
VERTEX
8
OBJECT__4
10
-3.437000
20
13.572000
30
61.500000
70
192
0
VERTEX
8
OBJECT__4
10
-3.437000
20
13.572000
30
51.500000
70
192
0
VERTEX
8
OBJECT__4
10
1.156000
20
13.952000
30
61.500000
70
192
0
VERTEX
8
OBJECT__4
10
1.156000
20
13.952000
30
51.500000
70
192
0
VERTEX
8
OBJECT__4
10
5.624000
20
12.821000
30
61.500000
70
192
0
VERTEX
8
OBJECT__4
10
5.624000
20
12.821000
30
51.500000
70
192
0
VERTEX
8
OBJECT__4
10
9.482000
20
10.300000
30
61.500000
70
192
0
VERTEX
8
OBJECT__4
10
9.482000
20
10.300000
30
51.500000
70
192
0
VERTEX
8
OBJECT__4
10
12.313000
20
6.663000
30
61.500000
70
192
0
VERTEX
8
OBJECT__4
10
12.313000
20
6.663000
30
51.500000
70
192
0
VERTEX
8
OBJECT__4
10
13.809000
20
2.304000
30
61.500000
70
192
0
VERTEX
8
OBJECT__4
10
13.809000
20
2.304000
30
51.500000
70
192
0
VERTEX
8
OBJECT__4
10
13.809000
20
-2.304000
30
61.500000
70
192
0
VERTEX
8
OBJECT__4
10
13.809000
20
-2.304000
30
51.500000
70
192
0
VERTEX
8
OBJECT__4
10
12.313000
20
-6.663000
30
61.500000
70
192
0
VERTEX
8
OBJECT__4
10
12.313000
20
-6.663000
30
51.500000
70
192
0
VERTEX
8
OBJECT__4
10
9.482000
20
-10.300000
30
61.500000
70
192
0
VERTEX
8
OBJECT__4
10
9.482000
20
-10.300000
30
51.500000
70
192
0
VERTEX
8
OBJECT__4
10
5.624000
20
-12.821000
30
61.500000
70
192
0
VERTEX
8
OBJECT__4
10
5.624000
20
-12.821000
30
51.500000
70
192
0
VERTEX
8
OBJECT__4
10
1.156000
20
-13.952000
30
61.500000
70
192
0
VERTEX
8
OBJECT__4
10
1.156000
20
-13.952000
30
51.500000
70
192
0
VERTEX
8
OBJECT__4
10
-3.437000
20
-13.572000
30
61.500000
70
192
0
VERTEX
8
OBJECT__4
10
-3.437000
20
-13.572000
30
51.500000
70
192
0
VERTEX
8
OBJECT__4
10
-7.657000
20
-11.720000
30
61.500000
70
192
0
VERTEX
8
OBJECT__4
10
-7.657000
20
-11.720000
30
51.500000
70
192
0
VERTEX
8
OBJECT__4
10
-11.048000
20
-8.599000
30
61.500000
70
192
0
VERTEX
8
OBJECT__4
10
-11.048000
20
-8.599000
30
51.500000
70
192
0
VERTEX
8
OBJECT__4
10
-13.241000
20
-4.546000
30
61.500000
70
192
0
VERTEX
8
OBJECT__4
10
-13.241000
20
-4.546000
30
51.500000
70
192
0
VERTEX
8
OBJECT__4
10
-14.000000
20
0.000000
30
61.500000
70
192
0
VERTEX
8
OBJECT__4
10
0
20
0
30
0
70
128
71
1
72
2
73
3
0
VERTEX
8
OBJECT__4
10
0
20
0
30
0
70
128
71
4
72
5
73
2
0
VERTEX
8
OBJECT__4
10
0
20
0
30
0
70
128
71
6
72
7
73
5
0
VERTEX
8
OBJECT__4
10
0
20
0
30
0
70
128
71
8
72
9
73
7
0
VERTEX
8
OBJECT__4
10
0
20
0
30
0
70
128
71
10
72
11
73
9
0
VERTEX
8
OBJECT__4
10
0
20
0
30
0
70
128
71
12
72
13
73
11
0
VERTEX
8
OBJECT__4
10
0
20
0
30
0
70
128
71
14
72
15
73
13
0
VERTEX
8
OBJECT__4
10
0
20
0
30
0
70
128
71
16
72
17
73
15
0
VERTEX
8
OBJECT__4
10
0
20
0
30
0
70
128
71
18
72
19
73
17
0
VERTEX
8
OBJECT__4
10
0
20
0
30
0
70
128
71
20
72
21
73
19
0
VERTEX
8
OBJECT__4
10
0
20
0
30
0
70
128
71
22
72
23
73
21
0
VERTEX
8
OBJECT__4
10
0
20
0
30
0
70
128
71
24
72
25
73
23
0
VERTEX
8
OBJECT__4
10
0
20
0
30
0
70
128
71
26
72
27
73
25
0
VERTEX
8
OBJECT__4
10
0
20
0
30
0
70
128
71
28
72
29
73
27
0
VERTEX
8
OBJECT__4
10
0
20
0
30
0
70
128
71
30
72
31
73
29
0
VERTEX
8
OBJECT__4
10
0
20
0
30
0
70
128
71
32
72
33
73
31
0
VERTEX
8
OBJECT__4
10
0
20
0
30
0
70
128
71
34
72
35
73
33
0
VERTEX
8
OBJECT__4
10
0
20
0
30
0
70
128
71
36
72
37
73
35
0
VERTEX
8
OBJECT__4
10
0
20
0
30
0
70
128
71
38
72
3
73
37
0
VERTEX
8
OBJECT__4
10
0
20
0
30
0
70
128
71
37
72
36
73
38
0
VERTEX
8
OBJECT__4
10
0
20
0
30
0
70
128
71
35
72
34
73
36
0
VERTEX
8
OBJECT__4
10
0
20
0
30
0
70
128
71
33
72
32
73
34
0
VERTEX
8
OBJECT__4
10
0
20
0
30
0
70
128
71
31
72
30
73
32
0
VERTEX
8
OBJECT__4
10
0
20
0
30
0
70
128
71
29
72
28
73
30
0
VERTEX
8
OBJECT__4
10
0
20
0
30
0
70
128
71
27
72
26
73
28
0
VERTEX
8
OBJECT__4
10
0
20
0
30
0
70
128
71
25
72
24
73
26
0
VERTEX
8
OBJECT__4
10
0
20
0
30
0
70
128
71
23
72
22
73
24
0
VERTEX
8
OBJECT__4
10
0
20
0
30
0
70
128
71
21
72
20
73
22
0
VERTEX
8
OBJECT__4
10
0
20
0
30
0
70
128
71
19
72
18
73
20
0
VERTEX
8
OBJECT__4
10
0
20
0
30
0
70
128
71
17
72
16
73
18
0
VERTEX
8
OBJECT__4
10
0
20
0
30
0
70
128
71
15
72
14
73
16
0
VERTEX
8
OBJECT__4
10
0
20
0
30
0
70
128
71
13
72
12
73
14
0
VERTEX
8
OBJECT__4
10
0
20
0
30
0
70
128
71
11
72
10
73
12
0
VERTEX
8
OBJECT__4
10
0
20
0
30
0
70
128
71
9
72
8
73
10
0
VERTEX
8
OBJECT__4
10
0
20
0
30
0
70
128
71
7
72
6
73
8
0
VERTEX
8
OBJECT__4
10
0
20
0
30
0
70
128
71
5
72
4
73
6
0
VERTEX
8
OBJECT__4
10
0
20
0
30
0
70
128
71
2
72
1
73
4
0
VERTEX
8
OBJECT__4
10
0
20
0
30
0
70
128
71
3
72
38
73
1
0
SEQEND
8
OBJECT__4
0
POLYLINE
8
OBJECT__5
66
1
70
64
71
39
72
39
62
253
0
VERTEX
8
OBJECT__5
10
-5.253000
20
16.167999
30
51.500000
70
192
0
VERTEX
8
OBJECT__5
10
-9.992000
20
13.753000
30
51.500000
70
192
0
VERTEX
8
OBJECT__5
10
-7.657000
20
11.720000
30
51.500000
70
192
0
VERTEX
8
OBJECT__5
10
-13.753000
20
9.992000
30
51.500000
70
192
0
VERTEX
8
OBJECT__5
10
-11.048000
20
8.599000
30
51.500000
70
192
0
VERTEX
8
OBJECT__5
10
-16.167999
20
5.253000
30
51.500000
70
192
0
VERTEX
8
OBJECT__5
10
-13.241000
20
4.546000
30
51.500000
70
192
0
VERTEX
8
OBJECT__5
10
-17.000000
20
0.000000
30
51.500000
70
192
0
VERTEX
8
OBJECT__5
10
-14.000000
20
0.000000
30
51.500000
70
192
0
VERTEX
8
OBJECT__5
10
-16.167999
20
-5.253000
30
51.500000
70
192
0
VERTEX
8
OBJECT__5
10
-13.241000
20
-4.546000
30
51.500000
70
192
0
VERTEX
8
OBJECT__5
10
-13.753000
20
-9.992000
30
51.500000
70
192
0
VERTEX
8
OBJECT__5
10
-11.048000
20
-8.599000
30
51.500000
70
192
0
VERTEX
8
OBJECT__5
10
-9.992000
20
-13.753000
30
51.500000
70
192
0
VERTEX
8
OBJECT__5
10
-7.657000
20
-11.720000
30
51.500000
70
192
0
VERTEX
8
OBJECT__5
10
-5.253000
20
-16.167999
30
51.500000
70
192
0
VERTEX
8
OBJECT__5
10
-3.437000
20
-13.572000
30
51.500000
70
192
0
VERTEX
8
OBJECT__5
10
0.000000
20
-17.000000
30
51.500000
70
192
0
VERTEX
8
OBJECT__5
10
1.156000
20
-13.952000
30
51.500000
70
192
0
VERTEX
8
OBJECT__5
10
5.253000
20
-16.167999
30
51.500000
70
192
0
VERTEX
8
OBJECT__5
10
5.624000
20
-12.821000
30
51.500000
70
192
0
VERTEX
8
OBJECT__5
10
13.753000
20
9.992000
30
51.500000
70
192
0
VERTEX
8
OBJECT__5
10
9.992000
20
13.753000
30
51.500000
70
192
0
VERTEX
8
OBJECT__5
10
9.482000
20
10.300000
30
51.500000
70
192
0
VERTEX
8
OBJECT__5
10
5.253000
20
16.167999
30
51.500000
70
192
0
VERTEX
8
OBJECT__5
10
5.624000
20
12.821000
30
51.500000
70
192
0
VERTEX
8
OBJECT__5
10
0.000000
20
17.000000
30
51.500000
70
192
0
VERTEX
8
OBJECT__5
10
1.156000
20
13.952000
30
51.500000
70
192
0
VERTEX
8
OBJECT__5
10
-3.437000
20
13.572000
30
51.500000
70
192
0
VERTEX
8
OBJECT__5
10
9.992000
20
-13.753000
30
51.500000
70
192
0
VERTEX
8
OBJECT__5
10
9.482000
20
-10.300000
30
51.500000
70
192
0
VERTEX
8
OBJECT__5
10
17.000000
20
0.000000
30
51.500000
70
192
0
VERTEX
8
OBJECT__5
10
13.809000
20
2.304000
30
51.500000
70
192
0
VERTEX
8
OBJECT__5
10
13.809000
20
-2.304000
30
51.500000
70
192
0
VERTEX
8
OBJECT__5
10
13.753000
20
-9.992000
30
51.500000
70
192
0
VERTEX
8
OBJECT__5
10
12.313000
20
-6.663000
30
51.500000
70
192
0
VERTEX
8
OBJECT__5
10
16.167999
20
-5.253000
30
51.500000
70
192
0
VERTEX
8
OBJECT__5
10
16.167999
20
5.253000
30
51.500000
70
192
0
VERTEX
8
OBJECT__5
10
12.313000
20
6.663000
30
51.500000
70
192
0
VERTEX
8
OBJECT__5
10
0
20
0
30
0
70
128
71
1
72
2
73
3
0
VERTEX
8
OBJECT__5
10
0
20
0
30
0
70
128
71
2
72
4
73
5
0
VERTEX
8
OBJECT__5
10
0
20
0
30
0
70
128
71
5
72
3
73
2
0
VERTEX
8
OBJECT__5
10
0
20
0
30
0
70
128
71
4
72
6
73
7
0
VERTEX
8
OBJECT__5
10
0
20
0
30
0
70
128
71
7
72
5
73
4
0
VERTEX
8
OBJECT__5
10
0
20
0
30
0
70
128
71
6
72
8
73
9
0
VERTEX
8
OBJECT__5
10
0
20
0
30
0
70
128
71
9
72
7
73
6
0
VERTEX
8
OBJECT__5
10
0
20
0
30
0
70
128
71
10
72
11
73
9
0
VERTEX
8
OBJECT__5
10
0
20
0
30
0
70
128
71
12
72
13
73
11
0
VERTEX
8
OBJECT__5
10
0
20
0
30
0
70
128
71
14
72
15
73
13
0
VERTEX
8
OBJECT__5
10
0
20
0
30
0
70
128
71
9
72
8
73
10
0
VERTEX
8
OBJECT__5
10
0
20
0
30
0
70
128
71
13
72
12
73
14
0
VERTEX
8
OBJECT__5
10
0
20
0
30
0
70
128
71
11
72
10
73
12
0
VERTEX
8
OBJECT__5
10
0
20
0
30
0
70
128
71
16
72
17
73
15
0
VERTEX
8
OBJECT__5
10
0
20
0
30
0
70
128
71
18
72
19
73
17
0
VERTEX
8
OBJECT__5
10
0
20
0
30
0
70
128
71
20
72
21
73
19
0
VERTEX
8
OBJECT__5
10
0
20
0
30
0
70
128
71
22
72
23
73
24
0
VERTEX
8
OBJECT__5
10
0
20
0
30
0
70
128
71
23
72
25
73
26
0
VERTEX
8
OBJECT__5
10
0
20
0
30
0
70
128
71
25
72
27
73
28
0
VERTEX
8
OBJECT__5
10
0
20
0
30
0
70
128
71
27
72
1
73
29
0
VERTEX
8
OBJECT__5
10
0
20
0
30
0
70
128
71
15
72
14
73
16
0
VERTEX
8
OBJECT__5
10
0
20
0
30
0
70
128
71
19
72
18
73
20
0
VERTEX
8
OBJECT__5
10
0
20
0
30
0
70
128
71
26
72
24
73
23
0
VERTEX
8
OBJECT__5
10
0
20
0
30
0
70
128
71
29
72
28
73
27
0
VERTEX
8
OBJECT__5
10
0
20
0
30
0
70
128
71
17
72
16
73
18
0
VERTEX
8
OBJECT__5
10
0
20
0
30
0
70
128
71
30
72
31
73
21
0
VERTEX
8
OBJECT__5
10
0
20
0
30
0
70
128
71
32
72
33
73
34
0
VERTEX
8
OBJECT__5
10
0
20
0
30
0
70
128
71
28
72
26
73
25
0
VERTEX
8
OBJECT__5
10
0
20
0
30
0
70
128
71
21
72
20
73
30
0
VERTEX
8
OBJECT__5
10
0
20
0
30
0
70
128
71
35
72
36
73
31
0
VERTEX
8
OBJECT__5
10
0
20
0
30
0
70
128
71
37
72
34
73
36
0
VERTEX
8
OBJECT__5
10
0
20
0
30
0
70
128
71
34
72
37
73
32
0
VERTEX
8
OBJECT__5
10
0
20
0
30
0
70
128
71
38
72
22
73
39
0
VERTEX
8
OBJECT__5
10
0
20
0
30
0
70
128
71
3
72
29
73
1
0
VERTEX
8
OBJECT__5
10
0
20
0
30
0
70
128
71
36
72
35
73
37
0
VERTEX
8
OBJECT__5
10
0
20
0
30
0
70
128
71
39
72
33
73
38
0
VERTEX
8
OBJECT__5
10
0
20
0
30
0
70
128
71
31
72
30
73
35
0
VERTEX
8
OBJECT__5
10
0
20
0
30
0
70
128
71
24
72
39
73
22
0
VERTEX
8
OBJECT__5
10
0
20
0
30
0
70
128
71
32
72
38
73
33
0
SEQEND
8
OBJECT__5
0
POLYLINE
8
OBJECT__6
66
1
70
64
71
96
72
98
62
253
0
VERTEX
8
OBJECT__6
10
-16.167999
20
5.253000
30
51.500000
70
192
0
VERTEX
8
OBJECT__6
10
-16.167999
20
5.253000
30
2.500000
70
192
0
VERTEX
8
OBJECT__6
10
-17.000000
20
0.000000
30
2.500000
70
192
0
VERTEX
8
OBJECT__6
10
-13.753000
20
9.992000
30
51.500000
70
192
0
VERTEX
8
OBJECT__6
10
-13.753000
20
9.992000
30
2.500000
70
192
0
VERTEX
8
OBJECT__6
10
-9.992000
20
13.753000
30
51.500000
70
192
0
VERTEX
8
OBJECT__6
10
-9.992000
20
13.753000
30
2.500000
70
192
0
VERTEX
8
OBJECT__6
10
-5.253000
20
16.167999
30
51.500000
70
192
0
VERTEX
8
OBJECT__6
10
-5.253000
20
16.167999
30
2.500000
70
192
0
VERTEX
8
OBJECT__6
10
0.000000
20
17.000000
30
51.500000
70
192
0
VERTEX
8
OBJECT__6
10
0.000000
20
17.000000
30
2.500000
70
192
0
VERTEX
8
OBJECT__6
10
5.253000
20
16.167999
30
51.500000
70
192
0
VERTEX
8
OBJECT__6
10
5.253000
20
16.167999
30
2.500000
70
192
0
VERTEX
8
OBJECT__6
10
9.992000
20
13.753000
30
51.500000
70
192
0
VERTEX
8
OBJECT__6
10
9.992000
20
13.753000
30
2.500000
70
192
0
VERTEX
8
OBJECT__6
10
13.753000
20
9.992000
30
51.500000
70
192
0
VERTEX
8
OBJECT__6
10
13.753000
20
9.992000
30
2.500000
70
192
0
VERTEX
8
OBJECT__6
10
9.992000
20
-13.753000
30
51.500000
70
192
0
VERTEX
8
OBJECT__6
10
9.992000
20
-13.753000
30
2.500000
70
192
0
VERTEX
8
OBJECT__6
10
13.753000
20
-9.992000
30
2.500000
70
192
0
VERTEX
8
OBJECT__6
10
5.253000
20
-16.167999
30
51.500000
70
192
0
VERTEX
8
OBJECT__6
10
5.253000
20
-16.167999
30
2.500000
70
192
0
VERTEX
8
OBJECT__6
10
0.000000
20
-17.000000
30
51.500000
70
192
0
VERTEX
8
OBJECT__6
10
0.000000
20
-17.000000
30
2.500000
70
192
0
VERTEX
8
OBJECT__6
10
-5.253000
20
-16.167999
30
51.500000
70
192
0
VERTEX
8
OBJECT__6
10
-5.253000
20
-16.167999
30
2.500000
70
192
0
VERTEX
8
OBJECT__6
10
-9.992000
20
-13.753000
30
51.500000
70
192
0
VERTEX
8
OBJECT__6
10
-9.992000
20
-13.753000
30
2.500000
70
192
0
VERTEX
8
OBJECT__6
10
-13.753000
20
-9.992000
30
51.500000
70
192
0
VERTEX
8
OBJECT__6
10
-13.753000
20
-9.992000
30
2.500000
70
192
0
VERTEX
8
OBJECT__6
10
-16.167999
20
-5.253000
30
51.500000
70
192
0
VERTEX
8
OBJECT__6
10
-16.167999
20
-5.253000
30
2.500000
70
192
0
VERTEX
8
OBJECT__6
10
-17.000000
20
0.000000
30
51.500000
70
192
0
VERTEX
8
OBJECT__6
10
13.753000
20
-9.992000
30
51.500000
70
192
0
VERTEX
8
OBJECT__6
10
16.014000
20
-5.706000
30
36.481998
70
192
0
VERTEX
8
OBJECT__6
10
16.165001
20
-5.252000
30
37.049000
70
192
0
VERTEX
8
OBJECT__6
10
15.777000
20
-6.331000
30
35.389000
70
192
0
VERTEX
8
OBJECT__6
10
15.602000
20
-6.751000
30
34.230999
70
192
0
VERTEX
8
OBJECT__6
10
15.698000
20
-6.520000
30
34.868000
70
192
0
VERTEX
8
OBJECT__6
10
15.506000
20
-6.968000
30
33.032001
70
192
0
VERTEX
8
OBJECT__6
10
15.502000
20
-6.977000
30
31.804001
70
192
0
VERTEX
8
OBJECT__6
10
15.592000
20
-6.774000
30
30.608000
70
192
0
VERTEX
8
OBJECT__6
10
15.523000
20
-6.930000
30
31.527000
70
192
0
VERTEX
8
OBJECT__6
10
16.145000
20
-5.323000
30
27.863001
70
192
0
VERTEX
8
OBJECT__6
10
15.996000
20
-5.752000
30
28.427000
70
192
0
VERTEX
8
OBJECT__6
10
16.167999
20
-5.253000
30
2.500000
70
192
0
VERTEX
8
OBJECT__6
10
16.167000
20
-5.253000
30
27.788000
70
192
0
VERTEX
8
OBJECT__6
10
15.953000
20
-5.873000
30
28.586000
70
192
0
VERTEX
8
OBJECT__6
10
15.727000
20
-6.455000
30
29.673000
70
192
0
VERTEX
8
OBJECT__6
10
17.000000
20
0.000000
30
51.500000
70
192
0
VERTEX
8
OBJECT__6
10
16.167999
20
-5.253000
30
51.500000
70
192
0
VERTEX
8
OBJECT__6
10
16.945000
20
-1.370000
30
39.384998
70
192
0
VERTEX
8
OBJECT__6
10
16.848000
20
-2.269000
30
39.132999
70
192
0
VERTEX
8
OBJECT__6
10
16.912001
20
-1.671000
30
39.300999
70
192
0
VERTEX
8
OBJECT__6
10
16.490999
20
-4.128000
30
38.130001
70
192
0
VERTEX
8
OBJECT__6
10
16.658001
20
-3.394000
30
38.615002
70
192
0
VERTEX
8
OBJECT__6
10
16.224001
20
-5.076000
30
37.270000
70
192
0
VERTEX
8
OBJECT__6
10
16.351999
20
-4.623000
30
37.681000
70
192
0
VERTEX
8
OBJECT__6
10
16.999001
20
-0.173000
30
39.523998
70
192
0
VERTEX
8
OBJECT__6
10
16.167999
20
5.253000
30
51.500000
70
192
0
VERTEX
8
OBJECT__6
10
16.440001
20
4.328000
30
37.972000
70
192
0
VERTEX
8
OBJECT__6
10
16.353001
20
4.628000
30
37.688000
70
192
0
VERTEX
8
OBJECT__6
10
16.674999
20
3.307000
30
38.664001
70
192
0
VERTEX
8
OBJECT__6
10
16.212000
20
5.115000
30
37.227001
70
192
0
VERTEX
8
OBJECT__6
10
16.864000
20
2.147000
30
39.174999
70
192
0
VERTEX
8
OBJECT__6
10
16.972000
20
0.980000
30
39.453999
70
192
0
VERTEX
8
OBJECT__6
10
16.908001
20
1.669000
30
39.289001
70
192
0
VERTEX
8
OBJECT__6
10
16.995001
20
0.000000
30
39.513000
70
192
0
VERTEX
8
OBJECT__6
10
16.167999
20
5.253000
30
27.784000
70
192
0
VERTEX
8
OBJECT__6
10
15.910000
20
5.988000
30
28.767000
70
192
0
VERTEX
8
OBJECT__6
10
15.997000
20
5.740000
30
28.436001
70
192
0
VERTEX
8
OBJECT__6
10
15.708000
20
6.501000
30
29.783001
70
192
0
VERTEX
8
OBJECT__6
10
15.558000
20
6.852000
30
30.938000
70
192
0
VERTEX
8
OBJECT__6
10
15.496000
20
6.992000
30
32.049999
70
192
0
VERTEX
8
OBJECT__6
10
15.525000
20
6.926000
30
31.527000
70
192
0
VERTEX
8
OBJECT__6
10
15.518000
20
6.942000
30
33.270000
70
192
0
VERTEX
8
OBJECT__6
10
15.778000
20
6.329000
30
35.394001
70
192
0
VERTEX
8
OBJECT__6
10
15.699000
20
6.519000
30
34.868000
70
192
0
VERTEX
8
OBJECT__6
10
16.165001
20
5.252000
30
37.046001
70
192
0
VERTEX
8
OBJECT__6
10
15.947000
20
5.891000
30
36.202000
70
192
0
VERTEX
8
OBJECT__6
10
15.599000
20
6.758000
30
34.207001
70
192
0
VERTEX
8
OBJECT__6
10
17.000000
20
0.000000
30
2.500000
70
192
0
VERTEX
8
OBJECT__6
10
16.997000
20
0.343000
30
25.482000
70
192
0
VERTEX
8
OBJECT__6
10
16.990999
20
0.001000
30
25.495001
70
192
0
VERTEX
8
OBJECT__6
10
16.167999
20
5.253000
30
2.500000
70
192
0
VERTEX
8
OBJECT__6
10
16.941999
20
1.400000
30
25.611000
70
192
0
VERTEX
8
OBJECT__6
10
16.639000
20
3.484000
30
26.374001
70
192
0
VERTEX
8
OBJECT__6
10
16.681999
20
3.247000
30
26.263000
70
192
0
VERTEX
8
OBJECT__6
10
16.801001
20
2.596000
30
25.957001
70
192
0
VERTEX
8
OBJECT__6
10
16.388000
20
4.520000
30
27.082001
70
192
0
VERTEX
8
OBJECT__6
10
16.502001
20
-4.085000
30
26.750999
70
192
0
VERTEX
8
OBJECT__6
10
16.236000
20
-5.039000
30
27.556999
70
192
0
VERTEX
8
OBJECT__6
10
16.705000
20
-3.153000
30
26.201000
70
192
0
VERTEX
8
OBJECT__6
10
16.684000
20
-3.249000
30
26.257999
70
192
0
VERTEX
8
OBJECT__6
10
16.882000
20
-2.000000
30
25.756001
70
192
0
VERTEX
8
OBJECT__6
10
16.976999
20
-0.894000
30
25.528999
70
192
0
VERTEX
8
OBJECT__6
10
0
20
0
30
0
70
128
71
1
72
2
73
3
0
VERTEX
8
OBJECT__6
10
0
20
0
30
0
70
128
71
4
72
5
73
2
0
VERTEX
8
OBJECT__6
10
0
20
0
30
0
70
128
71
6
72
7
73
5
0
VERTEX
8
OBJECT__6
10
0
20
0
30
0
70
128
71
8
72
9
73
7
0
VERTEX
8
OBJECT__6
10
0
20
0
30
0
70
128
71
10
72
11
73
9
0
VERTEX
8
OBJECT__6
10
0
20
0
30
0
70
128
71
12
72
13
73
11
0
VERTEX
8
OBJECT__6
10
0
20
0
30
0
70
128
71
14
72
15
73
13
0
VERTEX
8
OBJECT__6
10
0
20
0
30
0
70
128
71
16
72
17
73
15
0
VERTEX
8
OBJECT__6
10
0
20
0
30
0
70
128
71
18
72
19
73
20
0
VERTEX
8
OBJECT__6
10
0
20
0
30
0
70
128
71
21
72
22
73
19
0
VERTEX
8
OBJECT__6
10
0
20
0
30
0
70
128
71
23
72
24
73
22
0
VERTEX
8
OBJECT__6
10
0
20
0
30
0
70
128
71
25
72
26
73
24
0
VERTEX
8
OBJECT__6
10
0
20
0
30
0
70
128
71
27
72
28
73
26
0
VERTEX
8
OBJECT__6
10
0
20
0
30
0
70
128
71
29
72
30
73
28
0
VERTEX
8
OBJECT__6
10
0
20
0
30
0
70
128
71
31
72
32
73
30
0
VERTEX
8
OBJECT__6
10
0
20
0
30
0
70
128
71
33
72
3
73
32
0
VERTEX
8
OBJECT__6
10
0
20
0
30
0
70
128
71
34
72
35
73
36
0
VERTEX
8
OBJECT__6
10
0
20
0
30
0
70
128
71
34
72
37
73
35
0
VERTEX
8
OBJECT__6
10
0
20
0
30
0
70
128
71
34
72
38
73
39
0
VERTEX
8
OBJECT__6
10
0
20
0
30
0
70
128
71
39
72
37
73
34
0
VERTEX
8
OBJECT__6
10
0
20
0
30
0
70
128
71
34
72
40
73
38
0
VERTEX
8
OBJECT__6
10
0
20
0
30
0
70
128
71
34
72
20
73
41
0
VERTEX
8
OBJECT__6
10
0
20
0
30
0
70
128
71
41
72
40
73
34
0
VERTEX
8
OBJECT__6
10
0
20
0
30
0
70
128
71
20
72
42
73
43
0
VERTEX
8
OBJECT__6
10
0
20
0
30
0
70
128
71
20
72
44
73
45
0
VERTEX
8
OBJECT__6
10
0
20
0
30
0
70
128
71
20
72
46
73
47
0
VERTEX
8
OBJECT__6
10
0
20
0
30
0
70
128
71
47
72
44
73
20
0
VERTEX
8
OBJECT__6
10
0
20
0
30
0
70
128
71
45
72
48
73
20
0
VERTEX
8
OBJECT__6
10
0
20
0
30
0
70
128
71
48
72
49
73
20
0
VERTEX
8
OBJECT__6
10
0
20
0
30
0
70
128
71
49
72
42
73
20
0
VERTEX
8
OBJECT__6
10
0
20
0
30
0
70
128
71
43
72
41
73
20
0
VERTEX
8
OBJECT__6
10
0
20
0
30
0
70
128
71
50
72
51
73
52
0
VERTEX
8
OBJECT__6
10
0
20
0
30
0
70
128
71
51
72
53
73
54
0
VERTEX
8
OBJECT__6
10
0
20
0
30
0
70
128
71
51
72
55
73
56
0
VERTEX
8
OBJECT__6
10
0
20
0
30
0
70
128
71
51
72
57
73
58
0
VERTEX
8
OBJECT__6
10
0
20
0
30
0
70
128
71
58
72
55
73
51
0
VERTEX
8
OBJECT__6
10
0
20
0
30
0
70
128
71
56
72
53
73
51
0
VERTEX
8
OBJECT__6
10
0
20
0
30
0
70
128
71
51
72
36
73
57
0
VERTEX
8
OBJECT__6
10
0
20
0
30
0
70
128
71
54
72
52
73
51
0
VERTEX
8
OBJECT__6
10
0
20
0
30
0
70
128
71
52
72
59
73
50
0
VERTEX
8
OBJECT__6
10
0
20
0
30
0
70
128
71
60
72
61
73
62
0
VERTEX
8
OBJECT__6
10
0
20
0
30
0
70
128
71
60
72
63
73
61
0
VERTEX
8
OBJECT__6
10
0
20
0
30
0
70
128
71
62
72
64
73
60
0
VERTEX
8
OBJECT__6
10
0
20
0
30
0
70
128
71
60
72
65
73
63
0
VERTEX
8
OBJECT__6
10
0
20
0
30
0
70
128
71
60
72
66
73
67
0
VERTEX
8
OBJECT__6
10
0
20
0
30
0
70
128
71
50
72
68
73
66
0
VERTEX
8
OBJECT__6
10
0
20
0
30
0
70
128
71
66
72
60
73
50
0
VERTEX
8
OBJECT__6
10
0
20
0
30
0
70
128
71
67
72
65
73
60
0
VERTEX
8
OBJECT__6
10
0
20
0
30
0
70
128
71
17
72
70
73
71
0
VERTEX
8
OBJECT__6
10
0
20
0
30
0
70
128
71
71
72
69
73
17
0
VERTEX
8
OBJECT__6
10
0
20
0
30
0
70
128
71
17
72
72
73
70
0
VERTEX
8
OBJECT__6
10
0
20
0
30
0
70
128
71
17
72
73
73
72
0
VERTEX
8
OBJECT__6
10
0
20
0
30
0
70
128
71
17
72
74
73
75
0
VERTEX
8
OBJECT__6
10
0
20
0
30
0
70
128
71
75
72
73
73
17
0
VERTEX
8
OBJECT__6
10
0
20
0
30
0
70
128
71
16
72
76
73
74
0
VERTEX
8
OBJECT__6
10
0
20
0
30
0
70
128
71
16
72
77
73
78
0
VERTEX
8
OBJECT__6
10
0
20
0
30
0
70
128
71
16
72
60
73
79
0
VERTEX
8
OBJECT__6
10
0
20
0
30
0
70
128
71
79
72
80
73
16
0
VERTEX
8
OBJECT__6
10
0
20
0
30
0
70
128
71
80
72
77
73
16
0
VERTEX
8
OBJECT__6
10
0
20
0
30
0
70
128
71
78
72
81
73
16
0
VERTEX
8
OBJECT__6
10
0
20
0
30
0
70
128
71
81
72
76
73
16
0
VERTEX
8
OBJECT__6
10
0
20
0
30
0
70
128
71
74
72
17
73
16
0
VERTEX
8
OBJECT__6
10
0
20
0
30
0
70
128
71
82
72
83
73
84
0
VERTEX
8
OBJECT__6
10
0
20
0
30
0
70
128
71
85
72
86
73
83
0
VERTEX
8
OBJECT__6
10
0
20
0
30
0
70
128
71
85
72
87
73
88
0
VERTEX
8
OBJECT__6
10
0
20
0
30
0
70
128
71
88
72
89
73
85
0
VERTEX
8
OBJECT__6
10
0
20
0
30
0
70
128
71
85
72
90
73
87
0
VERTEX
8
OBJECT__6
10
0
20
0
30
0
70
128
71
89
72
86
73
85
0
VERTEX
8
OBJECT__6
10
0
20
0
30
0
70
128
71
85
72
69
73
90
0
VERTEX
8
OBJECT__6
10
0
20
0
30
0
70
128
71
83
72
82
73
85
0
VERTEX
8
OBJECT__6
10
0
20
0
30
0
70
128
71
46
72
91
73
92
0
VERTEX
8
OBJECT__6
10
0
20
0
30
0
70
128
71
46
72
93
73
94
0
VERTEX
8
OBJECT__6
10
0
20
0
30
0
70
128
71
46
72
95
73
93
0
VERTEX
8
OBJECT__6
10
0
20
0
30
0
70
128
71
46
72
96
73
95
0
VERTEX
8
OBJECT__6
10
0
20
0
30
0
70
128
71
94
72
91
73
46
0
VERTEX
8
OBJECT__6
10
0
20
0
30
0
70
128
71
82
72
84
73
96
0
VERTEX
8
OBJECT__6
10
0
20
0
30
0
70
128
71
96
72
46
73
82
0
VERTEX
8
OBJECT__6
10
0
20
0
30
0
70
128
71
92
72
47
73
46
0
VERTEX
8
OBJECT__6
10
0
20
0
30
0
70
128
71
69
72
85
73
17
0
VERTEX
8
OBJECT__6
10
0
20
0
30
0
70
128
71
64
72
79
73
60
0
VERTEX
8
OBJECT__6
10
0
20
0
30
0
70
128
71
59
72
68
73
50
0
VERTEX
8
OBJECT__6
10
0
20
0
30
0
70
128
71
36
72
51
73
34
0
VERTEX
8
OBJECT__6
10
0
20
0
30
0
70
128
71
32
72
31
73
33
0
VERTEX
8
OBJECT__6
10
0
20
0
30
0
70
128
71
30
72
29
73
31
0
VERTEX
8
OBJECT__6
10
0
20
0
30
0
70
128
71
28
72
27
73
29
0
VERTEX
8
OBJECT__6
10
0
20
0
30
0
70
128
71
26
72
25
73
27
0
VERTEX
8
OBJECT__6
10
0
20
0
30
0
70
128
71
24
72
23
73
25
0
VERTEX
8
OBJECT__6
10
0
20
0
30
0
70
128
71
22
72
21
73
23
0
VERTEX
8
OBJECT__6
10
0
20
0
30
0
70
128
71
19
72
18
73
21
0
VERTEX
8
OBJECT__6
10
0
20
0
30
0
70
128
71
20
72
34
73
18
0
VERTEX
8
OBJECT__6
10
0
20
0
30
0
70
128
71
15
72
14
73
16
0
VERTEX
8
OBJECT__6
10
0
20
0
30
0
70
128
71
13
72
12
73
14
0
VERTEX
8
OBJECT__6
10
0
20
0
30
0
70
128
71
11
72
10
73
12
0
VERTEX
8
OBJECT__6
10
0
20
0
30
0
70
128
71
9
72
8
73
10
0
VERTEX
8
OBJECT__6
10
0
20
0
30
0
70
128
71
7
72
6
73
8
0
VERTEX
8
OBJECT__6
10
0
20
0
30
0
70
128
71
5
72
4
73
6
0
VERTEX
8
OBJECT__6
10
0
20
0
30
0
70
128
71
2
72
1
73
4
0
VERTEX
8
OBJECT__6
10
0
20
0
30
0
70
128
71
3
72
33
73
1
0
SEQEND
8
OBJECT__6
0
POLYLINE
8
OBJECT__7
66
1
70
64
71
43
72
43
62
253
0
VERTEX
8
OBJECT__7
10
-10.121000
20
19.533001
30
2.500000
70
192
0
VERTEX
8
OBJECT__7
10
-9.992000
20
13.753000
30
2.500000
70
192
0
VERTEX
8
OBJECT__7
10
-5.253000
20
16.167999
30
2.500000
70
192
0
VERTEX
8
OBJECT__7
10
20.179001
20
8.765000
30
2.500000
70
192
0
VERTEX
8
OBJECT__7
10
17.066000
20
13.884000
30
2.500000
70
192
0
VERTEX
8
OBJECT__7
10
13.753000
20
9.992000
30
2.500000
70
192
0
VERTEX
8
OBJECT__7
10
12.687000
20
17.973000
30
2.500000
70
192
0
VERTEX
8
OBJECT__7
10
9.992000
20
13.753000
30
2.500000
70
192
0
VERTEX
8
OBJECT__7
10
-4.476000
20
21.540001
30
2.500000
70
192
0
VERTEX
8
OBJECT__7
10
-15.016000
20
16.077999
30
2.500000
70
192
0
VERTEX
8
OBJECT__7
10
-18.797001
20
11.431000
30
2.500000
70
192
0
VERTEX
8
OBJECT__7
10
-13.753000
20
9.992000
30
2.500000
70
192
0
VERTEX
8
OBJECT__7
10
7.367000
20
20.730000
30
2.500000
70
192
0
VERTEX
8
OBJECT__7
10
5.253000
20
16.167999
30
2.500000
70
192
0
VERTEX
8
OBJECT__7
10
1.501000
20
21.948999
30
2.500000
70
192
0
VERTEX
8
OBJECT__7
10
0.000000
20
17.000000
30
2.500000
70
192
0
VERTEX
8
OBJECT__7
10
-21.184000
20
5.936000
30
2.500000
70
192
0
VERTEX
8
OBJECT__7
10
-16.167999
20
5.253000
30
2.500000
70
192
0
VERTEX
8
OBJECT__7
10
1.501000
20
-21.948999
30
2.500000
70
192
0
VERTEX
8
OBJECT__7
10
7.367000
20
-20.730000
30
2.500000
70
192
0
VERTEX
8
OBJECT__7
10
5.253000
20
-16.167999
30
2.500000
70
192
0
VERTEX
8
OBJECT__7
10
12.687000
20
-17.973000
30
2.500000
70
192
0
VERTEX
8
OBJECT__7
10
9.992000
20
-13.753000
30
2.500000
70
192
0
VERTEX
8
OBJECT__7
10
21.795000
20
-2.996000
30
2.500000
70
192
0
VERTEX
8
OBJECT__7
10
17.000000
20
0.000000
30
2.500000
70
192
0
VERTEX
8
OBJECT__7
10
16.167999
20
-5.253000
30
2.500000
70
192
0
VERTEX
8
OBJECT__7
10
-22.000000
20
0.000000
30
2.500000
70
192
0
VERTEX
8
OBJECT__7
10
-17.000000
20
0.000000
30
2.500000
70
192
0
VERTEX
8
OBJECT__7
10
-21.184000
20
-5.936000
30
2.500000
70
192
0
VERTEX
8
OBJECT__7
10
-16.167999
20
-5.253000
30
2.500000
70
192
0
VERTEX
8
OBJECT__7
10
-18.797001
20
-11.431000
30
2.500000
70
192
0
VERTEX
8
OBJECT__7
10
-13.753000
20
-9.992000
30
2.500000
70
192
0
VERTEX
8
OBJECT__7
10
-10.121000
20
-19.533001
30
2.500000
70
192
0
VERTEX
8
OBJECT__7
10
-4.476000
20
-21.540001
30
2.500000
70
192
0
VERTEX
8
OBJECT__7
10
-5.253000
20
-16.167999
30
2.500000
70
192
0
VERTEX
8
OBJECT__7
10
17.066000
20
-13.884000
30
2.500000
70
192
0
VERTEX
8
OBJECT__7
10
13.753000
20
-9.992000
30
2.500000
70
192
0
VERTEX
8
OBJECT__7
10
20.179001
20
-8.765000
30
2.500000
70
192
0
VERTEX
8
OBJECT__7
10
-15.016000
20
-16.077999
30
2.500000
70
192
0
VERTEX
8
OBJECT__7
10
-9.992000
20
-13.753000
30
2.500000
70
192
0
VERTEX
8
OBJECT__7
10
0.000000
20
-17.000000
30
2.500000
70
192
0
VERTEX
8
OBJECT__7
10
21.795000
20
2.996000
30
2.500000
70
192
0
VERTEX
8
OBJECT__7
10
16.167999
20
5.253000
30
2.500000
70
192
0
VERTEX
8
OBJECT__7
10
0
20
0
30
0
70
128
71
1
72
2
73
3
0
VERTEX
8
OBJECT__7
10
0
20
0
30
0
70
128
71
4
72
5
73
6
0
VERTEX
8
OBJECT__7
10
0
20
0
30
0
70
128
71
5
72
7
73
8
0
VERTEX
8
OBJECT__7
10
0
20
0
30
0
70
128
71
3
72
9
73
1
0
VERTEX
8
OBJECT__7
10
0
20
0
30
0
70
128
71
10
72
11
73
12
0
VERTEX
8
OBJECT__7
10
0
20
0
30
0
70
128
71
8
72
6
73
5
0
VERTEX
8
OBJECT__7
10
0
20
0
30
0
70
128
71
13
72
14
73
8
0
VERTEX
8
OBJECT__7
10
0
20
0
30
0
70
128
71
15
72
16
73
14
0
VERTEX
8
OBJECT__7
10
0
20
0
30
0
70
128
71
9
72
3
73
16
0
VERTEX
8
OBJECT__7
10
0
20
0
30
0
70
128
71
12
72
2
73
10
0
VERTEX
8
OBJECT__7
10
0
20
0
30
0
70
128
71
11
72
17
73
18
0
VERTEX
8
OBJECT__7
10
0
20
0
30
0
70
128
71
19
72
20
73
21
0
VERTEX
8
OBJECT__7
10
0
20
0
30
0
70
128
71
20
72
22
73
23
0
VERTEX
8
OBJECT__7
10
0
20
0
30
0
70
128
71
24
72
25
73
26
0
VERTEX
8
OBJECT__7
10
0
20
0
30
0
70
128
71
8
72
7
73
13
0
VERTEX
8
OBJECT__7
10
0
20
0
30
0
70
128
71
16
72
15
73
9
0
VERTEX
8
OBJECT__7
10
0
20
0
30
0
70
128
71
18
72
12
73
11
0
VERTEX
8
OBJECT__7
10
0
20
0
30
0
70
128
71
17
72
27
73
28
0
VERTEX
8
OBJECT__7
10
0
20
0
30
0
70
128
71
29
72
30
73
28
0
VERTEX
8
OBJECT__7
10
0
20
0
30
0
70
128
71
31
72
32
73
30
0
VERTEX
8
OBJECT__7
10
0
20
0
30
0
70
128
71
33
72
34
73
35
0
VERTEX
8
OBJECT__7
10
0
20
0
30
0
70
128
71
23
72
21
73
20
0
VERTEX
8
OBJECT__7
10
0
20
0
30
0
70
128
71
36
72
37
73
23
0
VERTEX
8
OBJECT__7
10
0
20
0
30
0
70
128
71
38
72
26
73
37
0
VERTEX
8
OBJECT__7
10
0
20
0
30
0
70
128
71
26
72
38
73
24
0
VERTEX
8
OBJECT__7
10
0
20
0
30
0
70
128
71
14
72
13
73
15
0
VERTEX
8
OBJECT__7
10
0
20
0
30
0
70
128
71
28
72
18
73
17
0
VERTEX
8
OBJECT__7
10
0
20
0
30
0
70
128
71
30
72
29
73
31
0
VERTEX
8
OBJECT__7
10
0
20
0
30
0
70
128
71
39
72
40
73
32
0
VERTEX
8
OBJECT__7
10
0
20
0
30
0
70
128
71
40
72
39
73
33
0
VERTEX
8
OBJECT__7
10
0
20
0
30
0
70
128
71
34
72
19
73
41
0
VERTEX
8
OBJECT__7
10
0
20
0
30
0
70
128
71
23
72
22
73
36
0
VERTEX
8
OBJECT__7
10
0
20
0
30
0
70
128
71
24
72
42
73
25
0
VERTEX
8
OBJECT__7
10
0
20
0
30
0
70
128
71
1
72
10
73
2
0
VERTEX
8
OBJECT__7
10
0
20
0
30
0
70
128
71
32
72
31
73
39
0
VERTEX
8
OBJECT__7
10
0
20
0
30
0
70
128
71
41
72
35
73
34
0
VERTEX
8
OBJECT__7
10
0
20
0
30
0
70
128
71
37
72
36
73
38
0
VERTEX
8
OBJECT__7
10
0
20
0
30
0
70
128
71
28
72
27
73
29
0
VERTEX
8
OBJECT__7
10
0
20
0
30
0
70
128
71
21
72
41
73
19
0
VERTEX
8
OBJECT__7
10
0
20
0
30
0
70
128
71
42
72
4
73
43
0
VERTEX
8
OBJECT__7
10
0
20
0
30
0
70
128
71
35
72
40
73
33
0
VERTEX
8
OBJECT__7
10
0
20
0
30
0
70
128
71
6
72
43
73
4
0
VERTEX
8
OBJECT__7
10
0
20
0
30
0
70
128
71
43
72
25
73
42
0
SEQEND
8
OBJECT__7
0
POLYLINE
8
OBJECT__8
66
1
70
64
71
46
72
46
62
253
0
VERTEX
8
OBJECT__8
10
-21.184000
20
5.936000
30
2.500000
70
192
0
VERTEX
8
OBJECT__8
10
-21.184000
20
5.936000
30
0.000000
70
192
0
VERTEX
8
OBJECT__8
10
-22.000000
20
0.000000
30
0.000000
70
192
0
VERTEX
8
OBJECT__8
10
-18.797001
20
11.431000
30
2.500000
70
192
0
VERTEX
8
OBJECT__8
10
-18.797001
20
11.431000
30
0.000000
70
192
0
VERTEX
8
OBJECT__8
10
-15.016000
20
16.077999
30
2.500000
70
192
0
VERTEX
8
OBJECT__8
10
-15.016000
20
16.077999
30
0.000000
70
192
0
VERTEX
8
OBJECT__8
10
-10.121000
20
19.533001
30
2.500000
70
192
0
VERTEX
8
OBJECT__8
10
-10.121000
20
19.533001
30
0.000000
70
192
0
VERTEX
8
OBJECT__8
10
-4.476000
20
21.540001
30
2.500000
70
192
0
VERTEX
8
OBJECT__8
10
-4.476000
20
21.540001
30
0.000000
70
192
0
VERTEX
8
OBJECT__8
10
1.501000
20
21.948999
30
2.500000
70
192
0
VERTEX
8
OBJECT__8
10
1.501000
20
21.948999
30
0.000000
70
192
0
VERTEX
8
OBJECT__8
10
7.367000
20
20.730000
30
2.500000
70
192
0
VERTEX
8
OBJECT__8
10
7.367000
20
20.730000
30
0.000000
70
192
0
VERTEX
8
OBJECT__8
10
12.687000
20
17.973000
30
2.500000
70
192
0
VERTEX
8
OBJECT__8
10
12.687000
20
17.973000
30
0.000000
70
192
0
VERTEX
8
OBJECT__8
10
17.066000
20
13.884000
30
2.500000
70
192
0
VERTEX
8
OBJECT__8
10
17.066000
20
13.884000
30
0.000000
70
192
0
VERTEX
8
OBJECT__8
10
20.179001
20
8.765000
30
2.500000
70
192
0
VERTEX
8
OBJECT__8
10
20.179001
20
8.765000
30
0.000000
70
192
0
VERTEX
8
OBJECT__8
10
21.795000
20
2.996000
30
2.500000
70
192
0
VERTEX
8
OBJECT__8
10
21.795000
20
2.996000
30
0.000000
70
192
0
VERTEX
8
OBJECT__8
10
21.795000
20
-2.996000
30
2.500000
70
192
0
VERTEX
8
OBJECT__8
10
21.795000
20
-2.996000
30
0.000000
70
192
0
VERTEX
8
OBJECT__8
10
20.179001
20
-8.765000
30
2.500000
70
192
0
VERTEX
8
OBJECT__8
10
20.179001
20
-8.765000
30
0.000000
70
192
0
VERTEX
8
OBJECT__8
10
17.066000
20
-13.884000
30
2.500000
70
192
0
VERTEX
8
OBJECT__8
10
17.066000
20
-13.884000
30
0.000000
70
192
0
VERTEX
8
OBJECT__8
10
12.687000
20
-17.973000
30
2.500000
70
192
0
VERTEX
8
OBJECT__8
10
12.687000
20
-17.973000
30
0.000000
70
192
0
VERTEX
8
OBJECT__8
10
7.367000
20
-20.730000
30
2.500000
70
192
0
VERTEX
8
OBJECT__8
10
7.367000
20
-20.730000
30
0.000000
70
192
0
VERTEX
8
OBJECT__8
10
1.501000
20
-21.948999
30
2.500000
70
192
0
VERTEX
8
OBJECT__8
10
1.501000
20
-21.948999
30
0.000000
70
192
0
VERTEX
8
OBJECT__8
10
-4.476000
20
-21.540001
30
2.500000
70
192
0
VERTEX
8
OBJECT__8
10
-4.476000
20
-21.540001
30
0.000000
70
192
0
VERTEX
8
OBJECT__8
10
-10.121000
20
-19.533001
30
2.500000
70
192
0
VERTEX
8
OBJECT__8
10
-10.121000
20
-19.533001
30
0.000000
70
192
0
VERTEX
8
OBJECT__8
10
-15.016000
20
-16.077999
30
2.500000
70
192
0
VERTEX
8
OBJECT__8
10
-15.016000
20
-16.077999
30
0.000000
70
192
0
VERTEX
8
OBJECT__8
10
-18.797001
20
-11.431000
30
2.500000
70
192
0
VERTEX
8
OBJECT__8
10
-18.797001
20
-11.431000
30
0.000000
70
192
0
VERTEX
8
OBJECT__8
10
-21.184000
20
-5.936000
30
2.500000
70
192
0
VERTEX
8
OBJECT__8
10
-21.184000
20
-5.936000
30
0.000000
70
192
0
VERTEX
8
OBJECT__8
10
-22.000000
20
0.000000
30
2.500000
70
192
0
VERTEX
8
OBJECT__8
10
0
20
0
30
0
70
128
71
1
72
2
73
3
0
VERTEX
8
OBJECT__8
10
0
20
0
30
0
70
128
71
4
72
5
73
2
0
VERTEX
8
OBJECT__8
10
0
20
0
30
0
70
128
71
6
72
7
73
5
0
VERTEX
8
OBJECT__8
10
0
20
0
30
0
70
128
71
8
72
9
73
7
0
VERTEX
8
OBJECT__8
10
0
20
0
30
0
70
128
71
10
72
11
73
9
0
VERTEX
8
OBJECT__8
10
0
20
0
30
0
70
128
71
12
72
13
73
11
0
VERTEX
8
OBJECT__8
10
0
20
0
30
0
70
128
71
14
72
15
73
13
0
VERTEX
8
OBJECT__8
10
0
20
0
30
0
70
128
71
16
72
17
73
15
0
VERTEX
8
OBJECT__8
10
0
20
0
30
0
70
128
71
18
72
19
73
17
0
VERTEX
8
OBJECT__8
10
0
20
0
30
0
70
128
71
20
72
21
73
19
0
VERTEX
8
OBJECT__8
10
0
20
0
30
0
70
128
71
22
72
23
73
21
0
VERTEX
8
OBJECT__8
10
0
20
0
30
0
70
128
71
24
72
25
73
23
0
VERTEX
8
OBJECT__8
10
0
20
0
30
0
70
128
71
26
72
27
73
25
0
VERTEX
8
OBJECT__8
10
0
20
0
30
0
70
128
71
28
72
29
73
27
0
VERTEX
8
OBJECT__8
10
0
20
0
30
0
70
128
71
30
72
31
73
29
0
VERTEX
8
OBJECT__8
10
0
20
0
30
0
70
128
71
32
72
33
73
31
0
VERTEX
8
OBJECT__8
10
0
20
0
30
0
70
128
71
34
72
35
73
33
0
VERTEX
8
OBJECT__8
10
0
20
0
30
0
70
128
71
36
72
37
73
35
0
VERTEX
8
OBJECT__8
10
0
20
0
30
0
70
128
71
38
72
39
73
37
0
VERTEX
8
OBJECT__8
10
0
20
0
30
0
70
128
71
40
72
41
73
39
0
VERTEX
8
OBJECT__8
10
0
20
0
30
0
70
128
71
42
72
43
73
41
0
VERTEX
8
OBJECT__8
10
0
20
0
30
0
70
128
71
44
72
45
73
43
0
VERTEX
8
OBJECT__8
10
0
20
0
30
0
70
128
71
46
72
3
73
45
0
VERTEX
8
OBJECT__8
10
0
20
0
30
0
70
128
71
45
72
44
73
46
0
VERTEX
8
OBJECT__8
10
0
20
0
30
0
70
128
71
43
72
42
73
44
0
VERTEX
8
OBJECT__8
10
0
20
0
30
0
70
128
71
41
72
40
73
42
0
VERTEX
8
OBJECT__8
10
0
20
0
30
0
70
128
71
39
72
38
73
40
0
VERTEX
8
OBJECT__8
10
0
20
0
30
0
70
128
71
37
72
36
73
38
0
VERTEX
8
OBJECT__8
10
0
20
0
30
0
70
128
71
35
72
34
73
36
0
VERTEX
8
OBJECT__8
10
0
20
0
30
0
70
128
71
33
72
32
73
34
0
VERTEX
8
OBJECT__8
10
0
20
0
30
0
70
128
71
31
72
30
73
32
0
VERTEX
8
OBJECT__8
10
0
20
0
30
0
70
128
71
29
72
28
73
30
0
VERTEX
8
OBJECT__8
10
0
20
0
30
0
70
128
71
27
72
26
73
28
0
VERTEX
8
OBJECT__8
10
0
20
0
30
0
70
128
71
25
72
24
73
26
0
VERTEX
8
OBJECT__8
10
0
20
0
30
0
70
128
71
23
72
22
73
24
0
VERTEX
8
OBJECT__8
10
0
20
0
30
0
70
128
71
21
72
20
73
22
0
VERTEX
8
OBJECT__8
10
0
20
0
30
0
70
128
71
19
72
18
73
20
0
VERTEX
8
OBJECT__8
10
0
20
0
30
0
70
128
71
17
72
16
73
18
0
VERTEX
8
OBJECT__8
10
0
20
0
30
0
70
128
71
15
72
14
73
16
0
VERTEX
8
OBJECT__8
10
0
20
0
30
0
70
128
71
13
72
12
73
14
0
VERTEX
8
OBJECT__8
10
0
20
0
30
0
70
128
71
11
72
10
73
12
0
VERTEX
8
OBJECT__8
10
0
20
0
30
0
70
128
71
9
72
8
73
10
0
VERTEX
8
OBJECT__8
10
0
20
0
30
0
70
128
71
7
72
6
73
8
0
VERTEX
8
OBJECT__8
10
0
20
0
30
0
70
128
71
5
72
4
73
6
0
VERTEX
8
OBJECT__8
10
0
20
0
30
0
70
128
71
2
72
1
73
4
0
VERTEX
8
OBJECT__8
10
0
20
0
30
0
70
128
71
3
72
46
73
1
0
SEQEND
8
OBJECT__8
0
POLYLINE
8
OBJECT__9
66
1
70
64
71
23
72
21
62
253
0
VERTEX
8
OBJECT__9
10
-22.000000
20
0.000000
30
0.000000
70
192
0
VERTEX
8
OBJECT__9
10
-21.184000
20
5.936000
30
0.000000
70
192
0
VERTEX
8
OBJECT__9
10
-18.797001
20
11.431000
30
0.000000
70
192
0
VERTEX
8
OBJECT__9
10
-15.016000
20
16.077999
30
0.000000
70
192
0
VERTEX
8
OBJECT__9
10
-21.184000
20
-5.936000
30
0.000000
70
192
0
VERTEX
8
OBJECT__9
10
-15.016000
20
-16.077999
30
0.000000
70
192
0
VERTEX
8
OBJECT__9
10
-18.797001
20
-11.431000
30
0.000000
70
192
0
VERTEX
8
OBJECT__9
10
7.367000
20
-20.730000
30
0.000000
70
192
0
VERTEX
8
OBJECT__9
10
1.501000
20
-21.948999
30
0.000000
70
192
0
VERTEX
8
OBJECT__9
10
17.066000
20
13.884000
30
0.000000
70
192
0
VERTEX
8
OBJECT__9
10
21.795000
20
-2.996000
30
0.000000
70
192
0
VERTEX
8
OBJECT__9
10
20.179001
20
-8.765000
30
0.000000
70
192
0
VERTEX
8
OBJECT__9
10
20.179001
20
8.765000
30
0.000000
70
192
0
VERTEX
8
OBJECT__9
10
21.795000
20
2.996000
30
0.000000
70
192
0
VERTEX
8
OBJECT__9
10
17.066000
20
-13.884000
30
0.000000
70
192
0
VERTEX
8
OBJECT__9
10
7.367000
20
20.730000
30
0.000000
70
192
0
VERTEX
8
OBJECT__9
10
12.687000
20
17.973000
30
0.000000
70
192
0
VERTEX
8
OBJECT__9
10
-4.476000
20
-21.540001
30
0.000000
70
192
0
VERTEX
8
OBJECT__9
10
12.687000
20
-17.973000
30
0.000000
70
192
0
VERTEX
8
OBJECT__9
10
1.501000
20
21.948999
30
0.000000
70
192
0
VERTEX
8
OBJECT__9
10
-10.121000
20
19.533001
30
0.000000
70
192
0
VERTEX
8
OBJECT__9
10
-10.121000
20
-19.533001
30
0.000000
70
192
0
VERTEX
8
OBJECT__9
10
-4.476000
20
21.540001
30
0.000000
70
192
0
VERTEX
8
OBJECT__9
10
0
20
0
30
0
70
128
71
1
72
2
73
3
0
VERTEX
8
OBJECT__9
10
0
20
0
30
0
70
128
71
4
72
5
73
1
0
VERTEX
8
OBJECT__9
10
0
20
0
30
0
70
128
71
4
72
6
73
7
0
VERTEX
8
OBJECT__9
10
0
20
0
30
0
70
128
71
4
72
8
73
9
0
VERTEX
8
OBJECT__9
10
0
20
0
30
0
70
128
71
10
72
11
73
12
0
VERTEX
8
OBJECT__9
10
0
20
0
30
0
70
128
71
10
72
13
73
14
0
VERTEX
8
OBJECT__9
10
0
20
0
30
0
70
128
71
15
72
16
73
17
0
VERTEX
8
OBJECT__9
10
0
20
0
30
0
70
128
71
7
72
5
73
4
0
VERTEX
8
OBJECT__9
10
0
20
0
30
0
70
128
71
9
72
18
73
4
0
VERTEX
8
OBJECT__9
10
0
20
0
30
0
70
128
71
4
72
15
73
19
0
VERTEX
8
OBJECT__9
10
0
20
0
30
0
70
128
71
14
72
11
73
10
0
VERTEX
8
OBJECT__9
10
0
20
0
30
0
70
128
71
15
72
20
73
16
0
VERTEX
8
OBJECT__9
10
0
20
0
30
0
70
128
71
15
72
4
73
21
0
VERTEX
8
OBJECT__9
10
0
20
0
30
0
70
128
71
4
72
22
73
6
0
VERTEX
8
OBJECT__9
10
0
20
0
30
0
70
128
71
19
72
8
73
4
0
VERTEX
8
OBJECT__9
10
0
20
0
30
0
70
128
71
17
72
10
73
15
0
VERTEX
8
OBJECT__9
10
0
20
0
30
0
70
128
71
21
72
23
73
15
0
VERTEX
8
OBJECT__9
10
0
20
0
30
0
70
128
71
18
72
22
73
4
0
VERTEX
8
OBJECT__9
10
0
20
0
30
0
70
128
71
23
72
20
73
15
0
VERTEX
8
OBJECT__9
10
0
20
0
30
0
70
128
71
12
72
15
73
10
0
VERTEX
8
OBJECT__9
10
0
20
0
30
0
70
128
71
3
72
4
73
1
0
SEQEND
8
OBJECT__9
0
POLYLINE
8
OBJECT__10
66
1
70
64
71
70
72
70
62
253
0
VERTEX
8
OBJECT__10
10
28.738001
20
0.000000
30
26.500000
70
192
0
VERTEX
8
OBJECT__10
10
16.976999
20
-0.894000
30
25.528999
70
192
0
VERTEX
8
OBJECT__10
10
16.990999
20
0.000000
30
25.495001
70
192
0
VERTEX
8
OBJECT__10
10
28.667999
20
-3.253000
30
27.299000
70
192
0
VERTEX
8
OBJECT__10
10
16.882000
20
-2.000000
30
25.756001
70
192
0
VERTEX
8
OBJECT__10
10
16.684000
20
-3.249000
30
26.257999
70
192
0
VERTEX
8
OBJECT__10
10
16.705000
20
-3.153000
30
26.201000
70
192
0
VERTEX
8
OBJECT__10
10
28.667999
20
3.253000
30
27.299000
70
192
0
VERTEX
8
OBJECT__10
10
16.941999
20
1.400000
30
25.611000
70
192
0
VERTEX
8
OBJECT__10
10
16.801001
20
2.596000
30
25.957001
70
192
0
VERTEX
8
OBJECT__10
10
16.997000
20
0.343000
30
25.482000
70
192
0
VERTEX
8
OBJECT__10
10
28.474001
20
5.761000
30
29.511999
70
192
0
VERTEX
8
OBJECT__10
10
16.167999
20
5.253000
30
27.784000
70
192
0
VERTEX
8
OBJECT__10
10
16.388000
20
4.520000
30
27.082001
70
192
0
VERTEX
8
OBJECT__10
10
16.639000
20
3.484000
30
26.374001
70
192
0
VERTEX
8
OBJECT__10
10
16.681999
20
3.247000
30
26.263000
70
192
0
VERTEX
8
OBJECT__10
10
28.201000
20
6.949000
30
32.632999
70
192
0
VERTEX
8
OBJECT__10
10
15.708000
20
6.501000
30
29.783001
70
192
0
VERTEX
8
OBJECT__10
10
15.558000
20
6.852000
30
30.938000
70
192
0
VERTEX
8
OBJECT__10
10
15.910000
20
5.988000
30
28.767000
70
192
0
VERTEX
8
OBJECT__10
10
15.997000
20
5.740000
30
28.436001
70
192
0
VERTEX
8
OBJECT__10
10
15.599000
20
6.758000
30
34.207001
70
192
0
VERTEX
8
OBJECT__10
10
15.699000
20
6.519000
30
34.868000
70
192
0
VERTEX
8
OBJECT__10
10
15.525000
20
6.926000
30
31.527000
70
192
0
VERTEX
8
OBJECT__10
10
15.496000
20
6.992000
30
32.049999
70
192
0
VERTEX
8
OBJECT__10
10
15.518000
20
6.942000
30
33.270000
70
192
0
VERTEX
8
OBJECT__10
10
27.910999
20
6.545000
30
35.945999
70
192
0
VERTEX
8
OBJECT__10
10
16.212000
20
5.115000
30
37.227001
70
192
0
VERTEX
8
OBJECT__10
10
16.353001
20
4.628000
30
37.688000
70
192
0
VERTEX
8
OBJECT__10
10
15.778000
20
6.329000
30
35.394001
70
192
0
VERTEX
8
OBJECT__10
10
15.947000
20
5.891000
30
36.202000
70
192
0
VERTEX
8
OBJECT__10
10
16.165001
20
5.252000
30
37.046001
70
192
0
VERTEX
8
OBJECT__10
10
27.535000
20
1.675000
30
40.243999
70
192
0
VERTEX
8
OBJECT__10
10
27.671000
20
4.642000
30
38.693001
70
192
0
VERTEX
8
OBJECT__10
10
16.864000
20
2.147000
30
39.174999
70
192
0
VERTEX
8
OBJECT__10
10
16.440001
20
4.328000
30
37.972000
70
192
0
VERTEX
8
OBJECT__10
10
16.674999
20
3.307000
30
38.664001
70
192
0
VERTEX
8
OBJECT__10
10
27.535000
20
-1.675000
30
40.243999
70
192
0
VERTEX
8
OBJECT__10
10
27.517000
20
0.000000
30
40.446999
70
192
0
VERTEX
8
OBJECT__10
10
16.999001
20
-0.173000
30
39.523998
70
192
0
VERTEX
8
OBJECT__10
10
16.945000
20
-1.370000
30
39.384998
70
192
0
VERTEX
8
OBJECT__10
10
16.972000
20
0.980000
30
39.453999
70
192
0
VERTEX
8
OBJECT__10
10
16.995001
20
0.000000
30
39.513000
70
192
0
VERTEX
8
OBJECT__10
10
16.908001
20
1.669000
30
39.289001
70
192
0
VERTEX
8
OBJECT__10
10
27.671000
20
-4.642000
30
38.693001
70
192
0
VERTEX
8
OBJECT__10
10
16.658001
20
-3.394000
30
38.615002
70
192
0
VERTEX
8
OBJECT__10
10
16.490999
20
-4.128000
30
38.130001
70
192
0
VERTEX
8
OBJECT__10
10
16.848000
20
-2.269000
30
39.132999
70
192
0
VERTEX
8
OBJECT__10
10
16.912001
20
-1.671000
30
39.300999
70
192
0
VERTEX
8
OBJECT__10
10
27.910999
20
-6.545000
30
35.945999
70
192
0
VERTEX
8
OBJECT__10
10
16.014000
20
-5.706000
30
36.481998
70
192
0
VERTEX
8
OBJECT__10
10
15.777000
20
-6.331000
30
35.389000
70
192
0
VERTEX
8
OBJECT__10
10
16.165001
20
-5.252000
30
37.049000
70
192
0
VERTEX
8
OBJECT__10
10
16.224001
20
-5.076000
30
37.270000
70
192
0
VERTEX
8
OBJECT__10
10
16.351999
20
-4.623000
30
37.681000
70
192
0
VERTEX
8
OBJECT__10
10
28.201000
20
-6.949000
30
32.632999
70
192
0
VERTEX
8
OBJECT__10
10
15.506000
20
-6.968000
30
33.032001
70
192
0
VERTEX
8
OBJECT__10
10
15.502000
20
-6.977000
30
31.804001
70
192
0
VERTEX
8
OBJECT__10
10
15.602000
20
-6.751000
30
34.230999
70
192
0
VERTEX
8
OBJECT__10
10
15.698000
20
-6.520000
30
34.868000
70
192
0
VERTEX
8
OBJECT__10
10
15.953000
20
-5.873000
30
28.586000
70
192
0
VERTEX
8
OBJECT__10
10
15.996000
20
-5.752000
30
28.427000
70
192
0
VERTEX
8
OBJECT__10
10
15.523000
20
-6.930000
30
31.527000
70
192
0
VERTEX
8
OBJECT__10
10
15.592000
20
-6.774000
30
30.608000
70
192
0
VERTEX
8
OBJECT__10
10
15.727000
20
-6.455000
30
29.673000
70
192
0
VERTEX
8
OBJECT__10
10
28.474001
20
-5.761000
30
29.511999
70
192
0
VERTEX
8
OBJECT__10
10
16.502001
20
-4.085000
30
26.750999
70
192
0
VERTEX
8
OBJECT__10
10
16.167000
20
-5.253000
30
27.788000
70
192
0
VERTEX
8
OBJECT__10
10
16.236000
20
-5.039000
30
27.556999
70
192
0
VERTEX
8
OBJECT__10
10
16.145000
20
-5.323000
30
27.863001
70
192
0
VERTEX
8
OBJECT__10
10
0
20
0
30
0
70
128
71
1
72
2
73
3
0
VERTEX
8
OBJECT__10
10
0
20
0
30
0
70
128
71
4
72
5
73
2
0
VERTEX
8
OBJECT__10
10
0
20
0
30
0
70
128
71
4
72
6
73
7
0
VERTEX
8
OBJECT__10
10
0
20
0
30
0
70
128
71
7
72
5
73
4
0
VERTEX
8
OBJECT__10
10
0
20
0
30
0
70
128
71
2
72
1
73
4
0
VERTEX
8
OBJECT__10
10
0
20
0
30
0
70
128
71
8
72
9
73
10
0
VERTEX
8
OBJECT__10
10
0
20
0
30
0
70
128
71
1
72
11
73
9
0
VERTEX
8
OBJECT__10
10
0
20
0
30
0
70
128
71
9
72
8
73
1
0
VERTEX
8
OBJECT__10
10
0
20
0
30
0
70
128
71
1
72
3
73
11
0
VERTEX
8
OBJECT__10
10
0
20
0
30
0
70
128
71
12
72
14
73
13
0
VERTEX
8
OBJECT__10
10
0
20
0
30
0
70
128
71
12
72
15
73
14
0
VERTEX
8
OBJECT__10
10
0
20
0
30
0
70
128
71
12
72
8
73
16
0
VERTEX
8
OBJECT__10
10
0
20
0
30
0
70
128
71
16
72
15
73
12
0
VERTEX
8
OBJECT__10
10
0
20
0
30
0
70
128
71
17
72
18
73
19
0
VERTEX
8
OBJECT__10
10
0
20
0
30
0
70
128
71
17
72
20
73
18
0
VERTEX
8
OBJECT__10
10
0
20
0
30
0
70
128
71
17
72
12
73
21
0
VERTEX
8
OBJECT__10
10
0
20
0
30
0
70
128
71
21
72
20
73
17
0
VERTEX
8
OBJECT__10
10
0
20
0
30
0
70
128
71
17
72
22
73
23
0
VERTEX
8
OBJECT__10
10
0
20
0
30
0
70
128
71
17
72
24
73
25
0
VERTEX
8
OBJECT__10
10
0
20
0
30
0
70
128
71
25
72
26
73
17
0
VERTEX
8
OBJECT__10
10
0
20
0
30
0
70
128
71
26
72
22
73
17
0
VERTEX
8
OBJECT__10
10
0
20
0
30
0
70
128
71
27
72
28
73
29
0
VERTEX
8
OBJECT__10
10
0
20
0
30
0
70
128
71
27
72
23
73
30
0
VERTEX
8
OBJECT__10
10
0
20
0
30
0
70
128
71
30
72
31
73
27
0
VERTEX
8
OBJECT__10
10
0
20
0
30
0
70
128
71
31
72
32
73
27
0
VERTEX
8
OBJECT__10
10
0
20
0
30
0
70
128
71
32
72
28
73
27
0
VERTEX
8
OBJECT__10
10
0
20
0
30
0
70
128
71
33
72
34
73
35
0
VERTEX
8
OBJECT__10
10
0
20
0
30
0
70
128
71
34
72
29
73
36
0
VERTEX
8
OBJECT__10
10
0
20
0
30
0
70
128
71
36
72
37
73
34
0
VERTEX
8
OBJECT__10
10
0
20
0
30
0
70
128
71
37
72
35
73
34
0
VERTEX
8
OBJECT__10
10
0
20
0
30
0
70
128
71
38
72
39
73
40
0
VERTEX
8
OBJECT__10
10
0
20
0
30
0
70
128
71
40
72
41
73
38
0
VERTEX
8
OBJECT__10
10
0
20
0
30
0
70
128
71
39
72
33
73
42
0
VERTEX
8
OBJECT__10
10
0
20
0
30
0
70
128
71
42
72
43
73
39
0
VERTEX
8
OBJECT__10
10
0
20
0
30
0
70
128
71
33
72
44
73
42
0
VERTEX
8
OBJECT__10
10
0
20
0
30
0
70
128
71
43
72
40
73
39
0
VERTEX
8
OBJECT__10
10
0
20
0
30
0
70
128
71
45
72
46
73
47
0
VERTEX
8
OBJECT__10
10
0
20
0
30
0
70
128
71
45
72
48
73
46
0
VERTEX
8
OBJECT__10
10
0
20
0
30
0
70
128
71
45
72
38
73
49
0
VERTEX
8
OBJECT__10
10
0
20
0
30
0
70
128
71
49
72
48
73
45
0
VERTEX
8
OBJECT__10
10
0
20
0
30
0
70
128
71
50
72
51
73
52
0
VERTEX
8
OBJECT__10
10
0
20
0
30
0
70
128
71
50
72
53
73
51
0
VERTEX
8
OBJECT__10
10
0
20
0
30
0
70
128
71
50
72
54
73
53
0
VERTEX
8
OBJECT__10
10
0
20
0
30
0
70
128
71
50
72
45
73
55
0
VERTEX
8
OBJECT__10
10
0
20
0
30
0
70
128
71
55
72
54
73
50
0
VERTEX
8
OBJECT__10
10
0
20
0
30
0
70
128
71
56
72
57
73
58
0
VERTEX
8
OBJECT__10
10
0
20
0
30
0
70
128
71
56
72
59
73
57
0
VERTEX
8
OBJECT__10
10
0
20
0
30
0
70
128
71
56
72
50
73
60
0
VERTEX
8
OBJECT__10
10
0
20
0
30
0
70
128
71
60
72
59
73
56
0
VERTEX
8
OBJECT__10
10
0
20
0
30
0
70
128
71
56
72
61
73
62
0
VERTEX
8
OBJECT__10
10
0
20
0
30
0
70
128
71
56
72
63
73
64
0
VERTEX
8
OBJECT__10
10
0
20
0
30
0
70
128
71
64
72
65
73
56
0
VERTEX
8
OBJECT__10
10
0
20
0
30
0
70
128
71
65
72
61
73
56
0
VERTEX
8
OBJECT__10
10
0
20
0
30
0
70
128
71
66
72
67
73
6
0
VERTEX
8
OBJECT__10
10
0
20
0
30
0
70
128
71
66
72
68
73
69
0
VERTEX
8
OBJECT__10
10
0
20
0
30
0
70
128
71
66
72
62
73
70
0
VERTEX
8
OBJECT__10
10
0
20
0
30
0
70
128
71
70
72
68
73
66
0
VERTEX
8
OBJECT__10
10
0
20
0
30
0
70
128
71
69
72
67
73
66
0
VERTEX
8
OBJECT__10
10
0
20
0
30
0
70
128
71
6
72
4
73
66
0
VERTEX
8
OBJECT__10
10
0
20
0
30
0
70
128
71
62
72
66
73
56
0
VERTEX
8
OBJECT__10
10
0
20
0
30
0
70
128
71
58
72
63
73
56
0
VERTEX
8
OBJECT__10
10
0
20
0
30
0
70
128
71
52
72
60
73
50
0
VERTEX
8
OBJECT__10
10
0
20
0
30
0
70
128
71
47
72
55
73
45
0
VERTEX
8
OBJECT__10
10
0
20
0
30
0
70
128
71
41
72
49
73
38
0
VERTEX
8
OBJECT__10
10
0
20
0
30
0
70
128
71
35
72
44
73
33
0
VERTEX
8
OBJECT__10
10
0
20
0
30
0
70
128
71
29
72
34
73
27
0
VERTEX
8
OBJECT__10
10
0
20
0
30
0
70
128
71
23
72
27
73
17
0
VERTEX
8
OBJECT__10
10
0
20
0
30
0
70
128
71
19
72
24
73
17
0
VERTEX
8
OBJECT__10
10
0
20
0
30
0
70
128
71
13
72
21
73
12
0
VERTEX
8
OBJECT__10
10
0
20
0
30
0
70
128
71
10
72
16
73
8
0
SEQEND
8
OBJECT__10
0
POLYLINE
8
OBJECT__11
66
1
70
64
71
25
72
25
62
253
0
VERTEX
8
OBJECT__11
10
27.910999
20
6.545000
30
35.945999
70
192
0
VERTEX
8
OBJECT__11
10
27.945999
20
4.548000
30
35.542999
70
192
0
VERTEX
8
OBJECT__11
10
28.188999
20
4.949000
30
32.764000
70
192
0
VERTEX
8
OBJECT__11
10
27.671000
20
4.642000
30
38.693001
70
192
0
VERTEX
8
OBJECT__11
10
27.761000
20
2.703000
30
37.664001
70
192
0
VERTEX
8
OBJECT__11
10
27.535000
20
1.675000
30
40.243999
70
192
0
VERTEX
8
OBJECT__11
10
27.691999
20
0.000000
30
38.455002
70
192
0
VERTEX
8
OBJECT__11
10
27.671000
20
-4.642000
30
38.693001
70
192
0
VERTEX
8
OBJECT__11
10
27.910999
20
-6.545000
30
35.945999
70
192
0
VERTEX
8
OBJECT__11
10
27.945999
20
-4.548000
30
35.542999
70
192
0
VERTEX
8
OBJECT__11
10
28.201000
20
-6.949000
30
32.632999
70
192
0
VERTEX
8
OBJECT__11
10
28.188999
20
-4.949000
30
32.764000
70
192
0
VERTEX
8
OBJECT__11
10
28.738001
20
0.000000
30
26.500000
70
192
0
VERTEX
8
OBJECT__11
10
28.546000
20
1.409000
30
28.694000
70
192
0
VERTEX
8
OBJECT__11
10
28.546000
20
-1.409000
30
28.694000
70
192
0
VERTEX
8
OBJECT__11
10
27.535000
20
-1.675000
30
40.243999
70
192
0
VERTEX
8
OBJECT__11
10
27.761000
20
-2.703000
30
37.664001
70
192
0
VERTEX
8
OBJECT__11
10
28.474001
20
-5.761000
30
29.511999
70
192
0
VERTEX
8
OBJECT__11
10
28.413000
20
-3.779000
30
30.211000
70
192
0
VERTEX
8
OBJECT__11
10
28.667999
20
-3.253000
30
27.299000
70
192
0
VERTEX
8
OBJECT__11
10
27.517000
20
0.000000
30
40.446999
70
192
0
VERTEX
8
OBJECT__11
10
28.667999
20
3.253000
30
27.299000
70
192
0
VERTEX
8
OBJECT__11
10
28.474001
20
5.761000
30
29.511999
70
192
0
VERTEX
8
OBJECT__11
10
28.413000
20
3.779000
30
30.211000
70
192
0
VERTEX
8
OBJECT__11
10
28.201000
20
6.949000
30
32.632999
70
192
0
VERTEX
8
OBJECT__11
10
0
20
0
30
0
70
128
71
1
72
2
73
3
0
VERTEX
8
OBJECT__11
10
0
20
0
30
0
70
128
71
4
72
5
73
2
0
VERTEX
8
OBJECT__11
10
0
20
0
30
0
70
128
71
6
72
7
73
5
0
VERTEX
8
OBJECT__11
10
0
20
0
30
0
70
128
71
8
72
9
73
10
0
VERTEX
8
OBJECT__11
10
0
20
0
30
0
70
128
71
9
72
11
73
12
0
VERTEX
8
OBJECT__11
10
0
20
0
30
0
70
128
71
13
72
14
73
15
0
VERTEX
8
OBJECT__11
10
0
20
0
30
0
70
128
71
2
72
1
73
4
0
VERTEX
8
OBJECT__11
10
0
20
0
30
0
70
128
71
5
72
4
73
6
0
VERTEX
8
OBJECT__11
10
0
20
0
30
0
70
128
71
16
72
8
73
17
0
VERTEX
8
OBJECT__11
10
0
20
0
30
0
70
128
71
12
72
10
73
9
0
VERTEX
8
OBJECT__11
10
0
20
0
30
0
70
128
71
18
72
19
73
12
0
VERTEX
8
OBJECT__11
10
0
20
0
30
0
70
128
71
20
72
15
73
19
0
VERTEX
8
OBJECT__11
10
0
20
0
30
0
70
128
71
15
72
20
73
13
0
VERTEX
8
OBJECT__11
10
0
20
0
30
0
70
128
71
6
72
21
73
7
0
VERTEX
8
OBJECT__11
10
0
20
0
30
0
70
128
71
7
72
21
73
16
0
VERTEX
8
OBJECT__11
10
0
20
0
30
0
70
128
71
12
72
11
73
18
0
VERTEX
8
OBJECT__11
10
0
20
0
30
0
70
128
71
13
72
22
73
14
0
VERTEX
8
OBJECT__11
10
0
20
0
30
0
70
128
71
22
72
23
73
24
0
VERTEX
8
OBJECT__11
10
0
20
0
30
0
70
128
71
23
72
25
73
3
0
VERTEX
8
OBJECT__11
10
0
20
0
30
0
70
128
71
17
72
7
73
16
0
VERTEX
8
OBJECT__11
10
0
20
0
30
0
70
128
71
19
72
18
73
20
0
VERTEX
8
OBJECT__11
10
0
20
0
30
0
70
128
71
3
72
24
73
23
0
VERTEX
8
OBJECT__11
10
0
20
0
30
0
70
128
71
10
72
17
73
8
0
VERTEX
8
OBJECT__11
10
0
20
0
30
0
70
128
71
3
72
25
73
1
0
VERTEX
8
OBJECT__11
10
0
20
0
30
0
70
128
71
24
72
14
73
22
0
SEQEND
8
OBJECT__11
0
POLYLINE
8
OBJECT__12
66
1
70
64
71
30
72
32
62
253
0
VERTEX
8
OBJECT__12
10
27.691999
20
0.000000
30
38.455002
70
192
0
VERTEX
8
OBJECT__12
10
112.865997
20
0.000000
30
45.907001
70
192
0
VERTEX
8
OBJECT__12
10
112.935997
20
2.703000
30
45.116001
70
192
0
VERTEX
8
OBJECT__12
10
27.945999
20
4.548000
30
35.542999
70
192
0
VERTEX
8
OBJECT__12
10
27.761000
20
2.703000
30
37.664001
70
192
0
VERTEX
8
OBJECT__12
10
28.188999
20
4.949000
30
32.764000
70
192
0
VERTEX
8
OBJECT__12
10
113.121002
20
4.548000
30
42.994999
70
192
0
VERTEX
8
OBJECT__12
10
28.413000
20
3.779000
30
30.211000
70
192
0
VERTEX
8
OBJECT__12
10
113.363998
20
4.949000
30
40.216000
70
192
0
VERTEX
8
OBJECT__12
10
113.587997
20
3.779000
30
37.662998
70
192
0
VERTEX
8
OBJECT__12
10
113.720001
20
1.409000
30
36.146000
70
192
0
VERTEX
8
OBJECT__12
10
107.262001
20
0.039000
30
35.377998
70
192
0
VERTEX
8
OBJECT__12
10
104.772003
20
0.016000
30
35.160000
70
192
0
VERTEX
8
OBJECT__12
10
109.751999
20
0.053000
30
35.596001
70
192
0
VERTEX
8
OBJECT__12
10
113.720001
20
-1.409000
30
36.146000
70
192
0
VERTEX
8
OBJECT__12
10
109.751999
20
-0.053000
30
35.596001
70
192
0
VERTEX
8
OBJECT__12
10
109.751999
20
0.000000
30
35.596001
70
192
0
VERTEX
8
OBJECT__12
10
28.546000
20
-1.409000
30
28.694000
70
192
0
VERTEX
8
OBJECT__12
10
104.772003
20
-0.016000
30
35.160000
70
192
0
VERTEX
8
OBJECT__12
10
107.262001
20
-0.039000
30
35.377998
70
192
0
VERTEX
8
OBJECT__12
10
28.546000
20
1.409000
30
28.694000
70
192
0
VERTEX
8
OBJECT__12
10
104.772003
20
0.000000
30
35.160000
70
192
0
VERTEX
8
OBJECT__12
10
28.413000
20
-3.779000
30
30.211000
70
192
0
VERTEX
8
OBJECT__12
10
113.587997
20
-3.779000
30
37.662998
70
192
0
VERTEX
8
OBJECT__12
10
113.363998
20
-4.949000
30
40.216000
70
192
0
VERTEX
8
OBJECT__12
10
28.188999
20
-4.949000
30
32.764000
70
192
0
VERTEX
8
OBJECT__12
10
113.121002
20
-4.548000
30
42.994999
70
192
0
VERTEX
8
OBJECT__12
10
27.945999
20
-4.548000
30
35.542999
70
192
0
VERTEX
8
OBJECT__12
10
112.935997
20
-2.703000
30
45.116001
70
192
0
VERTEX
8
OBJECT__12
10
27.761000
20
-2.703000
30
37.664001
70
192
0
VERTEX
8
OBJECT__12
10
0
20
0
30
0
70
128
71
1
72
2
73
3
0
VERTEX
8
OBJECT__12
10
0
20
0
30
0
70
128
71
4
72
5
73
3
0
VERTEX
8
OBJECT__12
10
0
20
0
30
0
70
128
71
6
72
4
73
7
0
VERTEX
8
OBJECT__12
10
0
20
0
30
0
70
128
71
8
72
6
73
9
0
VERTEX
8
OBJECT__12
10
0
20
0
30
0
70
128
71
8
72
10
73
11
0
VERTEX
8
OBJECT__12
10
0
20
0
30
0
70
128
71
11
72
12
73
13
0
VERTEX
8
OBJECT__12
10
0
20
0
30
0
70
128
71
11
72
14
73
12
0
VERTEX
8
OBJECT__12
10
0
20
0
30
0
70
128
71
15
72
16
73
17
0
VERTEX
8
OBJECT__12
10
0
20
0
30
0
70
128
71
17
72
11
73
15
0
VERTEX
8
OBJECT__12
10
0
20
0
30
0
70
128
71
17
72
14
73
11
0
VERTEX
8
OBJECT__12
10
0
20
0
30
0
70
128
71
15
72
18
73
19
0
VERTEX
8
OBJECT__12
10
0
20
0
30
0
70
128
71
19
72
20
73
15
0
VERTEX
8
OBJECT__12
10
0
20
0
30
0
70
128
71
21
72
13
73
22
0
VERTEX
8
OBJECT__12
10
0
20
0
30
0
70
128
71
22
72
18
73
21
0
VERTEX
8
OBJECT__12
10
0
20
0
30
0
70
128
71
22
72
19
73
18
0
VERTEX
8
OBJECT__12
10
0
20
0
30
0
70
128
71
20
72
16
73
15
0
VERTEX
8
OBJECT__12
10
0
20
0
30
0
70
128
71
23
72
18
73
15
0
VERTEX
8
OBJECT__12
10
0
20
0
30
0
70
128
71
23
72
24
73
25
0
VERTEX
8
OBJECT__12
10
0
20
0
30
0
70
128
71
26
72
25
73
27
0
VERTEX
8
OBJECT__12
10
0
20
0
30
0
70
128
71
28
72
27
73
29
0
VERTEX
8
OBJECT__12
10
0
20
0
30
0
70
128
71
1
72
30
73
29
0
VERTEX
8
OBJECT__12
10
0
20
0
30
0
70
128
71
29
72
2
73
1
0
VERTEX
8
OBJECT__12
10
0
20
0
30
0
70
128
71
29
72
30
73
28
0
VERTEX
8
OBJECT__12
10
0
20
0
30
0
70
128
71
27
72
28
73
26
0
VERTEX
8
OBJECT__12
10
0
20
0
30
0
70
128
71
25
72
26
73
23
0
VERTEX
8
OBJECT__12
10
0
20
0
30
0
70
128
71
15
72
24
73
23
0
VERTEX
8
OBJECT__12
10
0
20
0
30
0
70
128
71
13
72
21
73
11
0
VERTEX
8
OBJECT__12
10
0
20
0
30
0
70
128
71
11
72
21
73
8
0
VERTEX
8
OBJECT__12
10
0
20
0
30
0
70
128
71
9
72
10
73
8
0
VERTEX
8
OBJECT__12
10
0
20
0
30
0
70
128
71
7
72
9
73
6
0
VERTEX
8
OBJECT__12
10
0
20
0
30
0
70
128
71
3
72
7
73
4
0
VERTEX
8
OBJECT__12
10
0
20
0
30
0
70
128
71
3
72
5
73
1
0
SEQEND
8
OBJECT__12
0
POLYLINE
8
OBJECT__13
66
1
70
64
71
6
72
4
62
253
0
VERTEX
8
OBJECT__13
10
107.262001
20
0.039000
30
35.377998
70
192
0
VERTEX
8
OBJECT__13
10
109.751999
20
0.053000
30
35.596001
70
192
0
VERTEX
8
OBJECT__13
10
109.023003
20
1.768000
30
35.532001
70
192
0
VERTEX
8
OBJECT__13
10
107.262001
20
2.500000
30
35.377998
70
192
0
VERTEX
8
OBJECT__13
10
105.500999
20
1.768000
30
35.223999
70
192
0
VERTEX
8
OBJECT__13
10
104.772003
20
0.016000
30
35.160000
70
192
0
VERTEX
8
OBJECT__13
10
0
20
0
30
0
70
128
71
1
72
2
73
3
0
VERTEX
8
OBJECT__13
10
0
20
0
30
0
70
128
71
1
72
4
73
5
0
VERTEX
8
OBJECT__13
10
0
20
0
30
0
70
128
71
5
72
6
73
1
0
VERTEX
8
OBJECT__13
10
0
20
0
30
0
70
128
71
3
72
4
73
1
0
SEQEND
8
OBJECT__13
0
POLYLINE
8
OBJECT__14
66
1
70
64
71
6
72
4
62
253
0
VERTEX
8
OBJECT__14
10
107.262001
20
-0.039000
30
35.377998
70
192
0
VERTEX
8
OBJECT__14
10
104.772003
20
-0.016000
30
35.160000
70
192
0
VERTEX
8
OBJECT__14
10
105.500999
20
-1.768000
30
35.223999
70
192
0
VERTEX
8
OBJECT__14
10
107.262001
20
-2.500000
30
35.377998
70
192
0
VERTEX
8
OBJECT__14
10
109.023003
20
-1.768000
30
35.532001
70
192
0
VERTEX
8
OBJECT__14
10
109.751999
20
-0.053000
30
35.596001
70
192
0
VERTEX
8
OBJECT__14
10
0
20
0
30
0
70
128
71
1
72
2
73
3
0
VERTEX
8
OBJECT__14
10
0
20
0
30
0
70
128
71
1
72
4
73
5
0
VERTEX
8
OBJECT__14
10
0
20
0
30
0
70
128
71
5
72
6
73
1
0
VERTEX
8
OBJECT__14
10
0
20
0
30
0
70
128
71
3
72
4
73
1
0
SEQEND
8
OBJECT__14
0
POLYLINE
8
OBJECT__15
66
1
70
64
71
11
72
9
62
253
0
VERTEX
8
OBJECT__15
10
112.935997
20
2.703000
30
45.116001
70
192
0
VERTEX
8
OBJECT__15
10
113.121002
20
-4.548000
30
42.994999
70
192
0
VERTEX
8
OBJECT__15
10
113.363998
20
-4.949000
30
40.216000
70
192
0
VERTEX
8
OBJECT__15
10
112.865997
20
0.000000
30
45.907001
70
192
0
VERTEX
8
OBJECT__15
10
113.587997
20
-3.779000
30
37.662998
70
192
0
VERTEX
8
OBJECT__15
10
113.587997
20
3.779000
30
37.662998
70
192
0
VERTEX
8
OBJECT__15
10
113.363998
20
4.949000
30
40.216000
70
192
0
VERTEX
8
OBJECT__15
10
113.720001
20
-1.409000
30
36.146000
70
192
0
VERTEX
8
OBJECT__15
10
112.935997
20
-2.703000
30
45.116001
70
192
0
VERTEX
8
OBJECT__15
10
113.720001
20
1.409000
30
36.146000
70
192
0
VERTEX
8
OBJECT__15
10
113.121002
20
4.548000
30
42.994999
70
192
0
VERTEX
8
OBJECT__15
10
0
20
0
30
0
70
128
71
1
72
2
73
3
0
VERTEX
8
OBJECT__15
10
0
20
0
30
0
70
128
71
2
72
1
73
4
0
VERTEX
8
OBJECT__15
10
0
20
0
30
0
70
128
71
5
72
6
73
7
0
VERTEX
8
OBJECT__15
10
0
20
0
30
0
70
128
71
6
72
5
73
8
0
VERTEX
8
OBJECT__15
10
0
20
0
30
0
70
128
71
4
72
9
73
2
0
VERTEX
8
OBJECT__15
10
0
20
0
30
0
70
128
71
8
72
10
73
6
0
VERTEX
8
OBJECT__15
10
0
20
0
30
0
70
128
71
5
72
11
73
1
0
VERTEX
8
OBJECT__15
10
0
20
0
30
0
70
128
71
3
72
5
73
1
0
VERTEX
8
OBJECT__15
10
0
20
0
30
0
70
128
71
7
72
11
73
5
0
SEQEND
8
OBJECT__15
0
POLYLINE
8
OBJECT__16
66
1
70
64
71
20
72
20
62
253
0
VERTEX
8
OBJECT__16
10
105.580002
20
1.768000
30
34.330002
70
192
0
VERTEX
8
OBJECT__16
10
104.849998
20
0.000000
30
34.265999
70
192
0
VERTEX
8
OBJECT__16
10
104.772003
20
0.016000
30
35.160000
70
192
0
VERTEX
8
OBJECT__16
10
104.772003
20
0.000000
30
35.160000
70
192
0
VERTEX
8
OBJECT__16
10
107.341003
20
2.500000
30
34.484001
70
192
0
VERTEX
8
OBJECT__16
10
105.500999
20
1.768000
30
35.223999
70
192
0
VERTEX
8
OBJECT__16
10
109.101997
20
1.768000
30
34.638000
70
192
0
VERTEX
8
OBJECT__16
10
107.262001
20
2.500000
30
35.377998
70
192
0
VERTEX
8
OBJECT__16
10
109.023003
20
1.768000
30
35.532001
70
192
0
VERTEX
8
OBJECT__16
10
109.751999
20
0.053000
30
35.596001
70
192
0
VERTEX
8
OBJECT__16
10
109.831001
20
0.000000
30
34.702000
70
192
0
VERTEX
8
OBJECT__16
10
109.101997
20
-1.768000
30
34.638000
70
192
0
VERTEX
8
OBJECT__16
10
109.751999
20
-0.053000
30
35.596001
70
192
0
VERTEX
8
OBJECT__16
10
109.751999
20
0.000000
30
35.596001
70
192
0
VERTEX
8
OBJECT__16
10
107.262001
20
-2.500000
30
35.377998
70
192
0
VERTEX
8
OBJECT__16
10
107.341003
20
-2.500000
30
34.484001
70
192
0
VERTEX
8
OBJECT__16
10
105.500999
20
-1.768000
30
35.223999
70
192
0
VERTEX
8
OBJECT__16
10
105.580002
20
-1.768000
30
34.330002
70
192
0
VERTEX
8
OBJECT__16
10
104.772003
20
-0.016000
30
35.160000
70
192
0
VERTEX
8
OBJECT__16
10
109.023003
20
-1.768000
30
35.532001
70
192
0
VERTEX
8
OBJECT__16
10
0
20
0
30
0
70
128
71
1
72
2
73
3
0
VERTEX
8
OBJECT__16
10
0
20
0
30
0
70
128
71
2
72
4
73
3
0
VERTEX
8
OBJECT__16
10
0
20
0
30
0
70
128
71
5
72
1
73
6
0
VERTEX
8
OBJECT__16
10
0
20
0
30
0
70
128
71
7
72
5
73
8
0
VERTEX
8
OBJECT__16
10
0
20
0
30
0
70
128
71
7
72
9
73
10
0
VERTEX
8
OBJECT__16
10
0
20
0
30
0
70
128
71
10
72
11
73
7
0
VERTEX
8
OBJECT__16
10
0
20
0
30
0
70
128
71
12
72
11
73
13
0
VERTEX
8
OBJECT__16
10
0
20
0
30
0
70
128
71
11
72
14
73
13
0
VERTEX
8
OBJECT__16
10
0
20
0
30
0
70
128
71
15
72
16
73
12
0
VERTEX
8
OBJECT__16
10
0
20
0
30
0
70
128
71
17
72
18
73
16
0
VERTEX
8
OBJECT__16
10
0
20
0
30
0
70
128
71
18
72
17
73
19
0
VERTEX
8
OBJECT__16
10
0
20
0
30
0
70
128
71
19
72
2
73
18
0
VERTEX
8
OBJECT__16
10
0
20
0
30
0
70
128
71
19
72
4
73
2
0
VERTEX
8
OBJECT__16
10
0
20
0
30
0
70
128
71
16
72
15
73
17
0
VERTEX
8
OBJECT__16
10
0
20
0
30
0
70
128
71
12
72
20
73
15
0
VERTEX
8
OBJECT__16
10
0
20
0
30
0
70
128
71
13
72
20
73
12
0
VERTEX
8
OBJECT__16
10
0
20
0
30
0
70
128
71
10
72
14
73
11
0
VERTEX
8
OBJECT__16
10
0
20
0
30
0
70
128
71
8
72
9
73
7
0
VERTEX
8
OBJECT__16
10
0
20
0
30
0
70
128
71
6
72
8
73
5
0
VERTEX
8
OBJECT__16
10
0
20
0
30
0
70
128
71
3
72
6
73
1
0
SEQEND
8
OBJECT__16
0
POLYLINE
8
OBJECT__17
66
1
70
64
71
8
72
6
62
253
0
VERTEX
8
OBJECT__17
10
105.580002
20
1.768000
30
34.330002
70
192
0
VERTEX
8
OBJECT__17
10
109.101997
20
1.768000
30
34.638000
70
192
0
VERTEX
8
OBJECT__17
10
109.831001
20
0.000000
30
34.702000
70
192
0
VERTEX
8
OBJECT__17
10
109.101997
20
-1.768000
30
34.638000
70
192
0
VERTEX
8
OBJECT__17
10
107.341003
20
-2.500000
30
34.484001
70
192
0
VERTEX
8
OBJECT__17
10
107.341003
20
2.500000
30
34.484001
70
192
0
VERTEX
8
OBJECT__17
10
105.580002
20
-1.768000
30
34.330002
70
192
0
VERTEX
8
OBJECT__17
10
104.849998
20
0.000000
30
34.265999
70
192
0
VERTEX
8
OBJECT__17
10
0
20
0
30
0
70
128
71
1
72
2
73
3
0
VERTEX
8
OBJECT__17
10
0
20
0
30
0
70
128
71
1
72
4
73
5
0
VERTEX
8
OBJECT__17
10
0
20
0
30
0
70
128
71
1
72
6
73
2
0
VERTEX
8
OBJECT__17
10
0
20
0
30
0
70
128
71
5
72
7
73
1
0
VERTEX
8
OBJECT__17
10
0
20
0
30
0
70
128
71
7
72
8
73
1
0
VERTEX
8
OBJECT__17
10
0
20
0
30
0
70
128
71
3
72
4
73
1
0
SEQEND
8
OBJECT__17
0
ENDSEC
0
EOF
