999
Converted by 3D Exploration 
999
XDimension Software, LLC
999
http://www.xdsoft.com/explorer/
0
SECTION
2
HEADER
9
$ACADVER
1
AC1008
9
$UCSORG
10
0.0
20
0.0
30
0.0
9
$UCSXDIR
10
1.0
20
0.0
30
0.0
9
$TILEMODE
70
1
9
$UCSYDIR
10
0.0
20
1.0
30
0.0
9
$EXTMIN
10
0.000000
20
-78.000000
30
-78.000000
9
$EXTMAX
10
18.826000
20
78.000000
30
98.500000
0
ENDSEC
0
SECTION
2
TABLES
0
TABLE
2
LTYPE
70
1
0
LTYPE
2
CONTINUOUS
70
64
3
Solid line
72
65
73
0
40
0.0
0
ENDTAB
0
TABLE
2
LAYER
70
23
0
LAYER
2
OBJECT__0
70
0
62
253
6
CONTINUOUS
0
LAYER
2
OBJECT__1
70
0
62
253
6
CONTINUOUS
0
LAYER
2
OBJECT__3
70
0
62
253
6
CONTINUOUS
0
LAYER
2
OBJECT__4
70
0
62
253
6
CONTINUOUS
0
LAYER
2
OBJECT__5
70
0
62
253
6
CONTINUOUS
0
LAYER
2
OBJECT__6
70
0
62
253
6
CONTINUOUS
0
LAYER
2
OBJECT__7
70
0
62
253
6
CONTINUOUS
0
LAYER
2
OBJECT__8
70
0
62
253
6
CONTINUOUS
0
LAYER
2
OBJECT__9
70
0
62
253
6
CONTINUOUS
0
LAYER
2
OBJECT__10
70
0
62
253
6
CONTINUOUS
0
LAYER
2
OBJECT__11
70
0
62
253
6
CONTINUOUS
0
LAYER
2
OBJECT__12
70
0
62
253
6
CONTINUOUS
0
LAYER
2
OBJECT__13
70
0
62
253
6
CONTINUOUS
0
LAYER
2
OBJECT__14
70
0
62
253
6
CONTINUOUS
0
LAYER
2
OBJECT__15
70
0
62
253
6
CONTINUOUS
0
LAYER
2
OBJECT__16
70
0
62
253
6
CONTINUOUS
0
LAYER
2
OBJECT__17
70
0
62
253
6
CONTINUOUS
0
LAYER
2
OBJECT__18
70
0
62
253
6
CONTINUOUS
0
LAYER
2
OBJECT__19
70
0
62
253
6
CONTINUOUS
0
LAYER
2
OBJECT__20
70
0
62
253
6
CONTINUOUS
0
LAYER
2
OBJECT__21
70
0
62
253
6
CONTINUOUS
0
LAYER
2
OBJECT__22
70
0
62
253
6
CONTINUOUS
0
ENDTAB
0
TABLE
2
STYLE
70
1
0
STYLE
2
STANDARD
70
0
40
0.0
41
1.0
50
0.0
71
0
42
0.2
3
txt
4
1
0
ENDTAB
0
TABLE
2
UCS
70
0
0
ENDTAB
0
ENDSEC
0
SECTION
2
ENTITIES
0
POLYLINE
8
OBJECT__0
66
1
70
64
71
18
72
17
62
253
0
VERTEX
8
OBJECT__0
10
18.826000
20
0.000000
30
0.000000
70
192
0
VERTEX
8
OBJECT__0
10
18.825001
20
0.212000
30
0.028000
70
192
0
VERTEX
8
OBJECT__0
10
18.825001
20
0.150000
30
0.135000
70
192
0
VERTEX
8
OBJECT__0
10
18.825001
20
0.270000
30
-0.072000
70
192
0
VERTEX
8
OBJECT__0
10
18.825001
20
0.091000
30
0.238000
70
192
0
VERTEX
8
OBJECT__0
10
18.825001
20
0.342000
30
-0.198000
70
192
0
VERTEX
8
OBJECT__0
10
18.825001
20
0.000000
30
-0.198000
70
192
0
VERTEX
8
OBJECT__0
10
18.825001
20
0.122000
30
-0.198000
70
192
0
VERTEX
8
OBJECT__0
10
18.825001
20
-0.122000
30
-0.198000
70
192
0
VERTEX
8
OBJECT__0
10
18.825001
20
-0.232000
30
-0.198000
70
192
0
VERTEX
8
OBJECT__0
10
18.825001
20
-0.342000
30
-0.198000
70
192
0
VERTEX
8
OBJECT__0
10
18.825001
20
0.232000
30
-0.198000
70
192
0
VERTEX
8
OBJECT__0
10
18.825001
20
-0.150000
30
0.135000
70
192
0
VERTEX
8
OBJECT__0
10
18.825001
20
-0.212000
30
0.028000
70
192
0
VERTEX
8
OBJECT__0
10
18.825001
20
-0.091000
30
0.238000
70
192
0
VERTEX
8
OBJECT__0
10
18.825001
20
-0.039000
30
0.328000
70
192
0
VERTEX
8
OBJECT__0
10
18.825001
20
-0.270000
30
-0.072000
70
192
0
VERTEX
8
OBJECT__0
10
18.825001
20
0.000000
30
0.395000
70
192
0
VERTEX
8
OBJECT__0
10
0
20
0
30
0
70
128
71
1
72
2
73
3
0
VERTEX
8
OBJECT__0
10
0
20
0
30
0
70
128
71
1
72
4
73
2
0
VERTEX
8
OBJECT__0
10
0
20
0
30
0
70
128
71
3
72
5
73
1
0
VERTEX
8
OBJECT__0
10
0
20
0
30
0
70
128
71
1
72
6
73
4
0
VERTEX
8
OBJECT__0
10
0
20
0
30
0
70
128
71
1
72
7
73
8
0
VERTEX
8
OBJECT__0
10
0
20
0
30
0
70
128
71
1
72
9
73
7
0
VERTEX
8
OBJECT__0
10
0
20
0
30
0
70
128
71
1
72
10
73
9
0
VERTEX
8
OBJECT__0
10
0
20
0
30
0
70
128
71
1
72
11
73
10
0
VERTEX
8
OBJECT__0
10
0
20
0
30
0
70
128
71
8
72
12
73
1
0
VERTEX
8
OBJECT__0
10
0
20
0
30
0
70
128
71
1
72
13
73
14
0
VERTEX
8
OBJECT__0
10
0
20
0
30
0
70
128
71
1
72
15
73
13
0
VERTEX
8
OBJECT__0
10
0
20
0
30
0
70
128
71
1
72
16
73
15
0
VERTEX
8
OBJECT__0
10
0
20
0
30
0
70
128
71
14
72
17
73
1
0
VERTEX
8
OBJECT__0
10
0
20
0
30
0
70
128
71
1
72
18
73
16
0
VERTEX
8
OBJECT__0
10
0
20
0
30
0
70
128
71
17
72
11
73
1
0
VERTEX
8
OBJECT__0
10
0
20
0
30
0
70
128
71
12
72
6
73
1
0
VERTEX
8
OBJECT__0
10
0
20
0
30
0
70
128
71
5
72
18
73
1
0
SEQEND
8
OBJECT__0
0
POLYLINE
8
OBJECT__1
66
1
70
64
71
77
72
117
62
253
0
VERTEX
8
OBJECT__1
10
17.899000
20
7.129000
30
9.812000
70
192
0
VERTEX
8
OBJECT__1
10
17.899000
20
3.748000
30
11.535000
70
192
0
VERTEX
8
OBJECT__1
10
18.825001
20
0.000000
30
0.395000
70
192
0
VERTEX
8
OBJECT__1
10
17.899000
20
9.812000
30
7.129000
70
192
0
VERTEX
8
OBJECT__1
10
18.825001
20
0.091000
30
0.238000
70
192
0
VERTEX
8
OBJECT__1
10
18.825001
20
0.150000
30
0.135000
70
192
0
VERTEX
8
OBJECT__1
10
18.825001
20
0.212000
30
0.028000
70
192
0
VERTEX
8
OBJECT__1
10
17.899000
20
11.535000
30
3.748000
70
192
0
VERTEX
8
OBJECT__1
10
18.825001
20
0.270000
30
-0.072000
70
192
0
VERTEX
8
OBJECT__1
10
17.899000
20
12.129000
30
0.000000
70
192
0
VERTEX
8
OBJECT__1
10
18.825001
20
0.342000
30
-0.198000
70
192
0
VERTEX
8
OBJECT__1
10
17.899000
20
7.129000
30
-9.812000
70
192
0
VERTEX
8
OBJECT__1
10
17.899000
20
9.812000
30
-7.129000
70
192
0
VERTEX
8
OBJECT__1
10
17.899000
20
3.748000
30
-11.535000
70
192
0
VERTEX
8
OBJECT__1
10
18.825001
20
0.232000
30
-0.198000
70
192
0
VERTEX
8
OBJECT__1
10
17.899000
20
0.000000
30
-12.129000
70
192
0
VERTEX
8
OBJECT__1
10
18.825001
20
0.122000
30
-0.198000
70
192
0
VERTEX
8
OBJECT__1
10
18.825001
20
0.000000
30
-0.198000
70
192
0
VERTEX
8
OBJECT__1
10
18.825001
20
-0.122000
30
-0.198000
70
192
0
VERTEX
8
OBJECT__1
10
17.899000
20
-3.748000
30
-11.535000
70
192
0
VERTEX
8
OBJECT__1
10
18.825001
20
-0.232000
30
-0.198000
70
192
0
VERTEX
8
OBJECT__1
10
17.899000
20
-7.129000
30
-9.812000
70
192
0
VERTEX
8
OBJECT__1
10
18.825001
20
-0.342000
30
-0.198000
70
192
0
VERTEX
8
OBJECT__1
10
17.899000
20
-12.129000
30
0.000000
70
192
0
VERTEX
8
OBJECT__1
10
17.899000
20
-11.535000
30
-3.748000
70
192
0
VERTEX
8
OBJECT__1
10
17.899000
20
-11.535000
30
3.748000
70
192
0
VERTEX
8
OBJECT__1
10
18.825001
20
-0.270000
30
-0.072000
70
192
0
VERTEX
8
OBJECT__1
10
17.899000
20
-9.812000
30
7.129000
70
192
0
VERTEX
8
OBJECT__1
10
18.825001
20
-0.212000
30
0.028000
70
192
0
VERTEX
8
OBJECT__1
10
18.825001
20
-0.150000
30
0.135000
70
192
0
VERTEX
8
OBJECT__1
10
18.825001
20
-0.091000
30
0.238000
70
192
0
VERTEX
8
OBJECT__1
10
17.899000
20
-7.129000
30
9.812000
70
192
0
VERTEX
8
OBJECT__1
10
18.825001
20
-0.039000
30
0.328000
70
192
0
VERTEX
8
OBJECT__1
10
17.899000
20
-3.748000
30
11.535000
70
192
0
VERTEX
8
OBJECT__1
10
17.899000
20
0.000000
30
12.129000
70
192
0
VERTEX
8
OBJECT__1
10
15.261000
20
7.293000
30
22.445000
70
192
0
VERTEX
8
OBJECT__1
10
15.261000
20
13.872000
30
19.093000
70
192
0
VERTEX
8
OBJECT__1
10
15.261000
20
19.093000
30
13.872000
70
192
0
VERTEX
8
OBJECT__1
10
15.261000
20
22.445000
30
7.293000
70
192
0
VERTEX
8
OBJECT__1
10
15.261000
20
23.600000
30
0.000000
70
192
0
VERTEX
8
OBJECT__1
10
17.899000
20
11.535000
30
-3.748000
70
192
0
VERTEX
8
OBJECT__1
10
15.261000
20
22.445000
30
-7.293000
70
192
0
VERTEX
8
OBJECT__1
10
15.261000
20
19.093000
30
-13.872000
70
192
0
VERTEX
8
OBJECT__1
10
15.261000
20
13.872000
30
-19.093000
70
192
0
VERTEX
8
OBJECT__1
10
15.261000
20
7.293000
30
-22.445000
70
192
0
VERTEX
8
OBJECT__1
10
15.261000
20
0.000000
30
-23.600000
70
192
0
VERTEX
8
OBJECT__1
10
15.261000
20
-7.293000
30
-22.445000
70
192
0
VERTEX
8
OBJECT__1
10
15.261000
20
-13.872000
30
-19.093000
70
192
0
VERTEX
8
OBJECT__1
10
17.899000
20
-9.812000
30
-7.129000
70
192
0
VERTEX
8
OBJECT__1
10
15.261000
20
-19.093000
30
-13.872000
70
192
0
VERTEX
8
OBJECT__1
10
15.261000
20
-22.445000
30
-7.293000
70
192
0
VERTEX
8
OBJECT__1
10
15.261000
20
-23.600000
30
0.000000
70
192
0
VERTEX
8
OBJECT__1
10
15.261000
20
-22.445000
30
7.293000
70
192
0
VERTEX
8
OBJECT__1
10
15.261000
20
-19.093000
30
13.872000
70
192
0
VERTEX
8
OBJECT__1
10
15.261000
20
-13.872000
30
19.093000
70
192
0
VERTEX
8
OBJECT__1
10
15.261000
20
-7.293000
30
22.445000
70
192
0
VERTEX
8
OBJECT__1
10
15.261000
20
0.000000
30
23.600000
70
192
0
VERTEX
8
OBJECT__1
10
10.969000
20
10.679000
30
32.868000
70
192
0
VERTEX
8
OBJECT__1
10
10.969000
20
0.000000
30
34.560001
70
192
0
VERTEX
8
OBJECT__1
10
10.969000
20
20.313999
30
27.959000
70
192
0
VERTEX
8
OBJECT__1
10
10.969000
20
27.959000
30
20.313999
70
192
0
VERTEX
8
OBJECT__1
10
10.969000
20
32.868000
30
10.679000
70
192
0
VERTEX
8
OBJECT__1
10
10.969000
20
34.560001
30
0.000000
70
192
0
VERTEX
8
OBJECT__1
10
10.969000
20
32.868000
30
-10.679000
70
192
0
VERTEX
8
OBJECT__1
10
10.969000
20
27.959000
30
-20.313999
70
192
0
VERTEX
8
OBJECT__1
10
10.969000
20
20.313999
30
-27.959000
70
192
0
VERTEX
8
OBJECT__1
10
10.969000
20
10.679000
30
-32.868000
70
192
0
VERTEX
8
OBJECT__1
10
10.969000
20
0.000000
30
-34.560001
70
192
0
VERTEX
8
OBJECT__1
10
10.969000
20
-10.679000
30
-32.868000
70
192
0
VERTEX
8
OBJECT__1
10
10.969000
20
-20.313999
30
-27.959000
70
192
0
VERTEX
8
OBJECT__1
10
10.969000
20
-27.959000
30
-20.313999
70
192
0
VERTEX
8
OBJECT__1
10
10.969000
20
-34.560001
30
0.000000
70
192
0
VERTEX
8
OBJECT__1
10
10.969000
20
-32.868000
30
-10.679000
70
192
0
VERTEX
8
OBJECT__1
10
10.969000
20
-27.959000
30
20.313999
70
192
0
VERTEX
8
OBJECT__1
10
10.969000
20
-32.868000
30
10.679000
70
192
0
VERTEX
8
OBJECT__1
10
10.969000
20
-20.313999
30
27.959000
70
192
0
VERTEX
8
OBJECT__1
10
10.969000
20
-10.679000
30
32.868000
70
192
0
VERTEX
8
OBJECT__1
10
0
20
0
30
0
70
128
71
1
72
2
73
3
0
VERTEX
8
OBJECT__1
10
0
20
0
30
0
70
128
71
4
72
1
73
5
0
VERTEX
8
OBJECT__1
10
0
20
0
30
0
70
128
71
4
72
6
73
7
0
VERTEX
8
OBJECT__1
10
0
20
0
30
0
70
128
71
8
72
7
73
9
0
VERTEX
8
OBJECT__1
10
0
20
0
30
0
70
128
71
10
72
9
73
11
0
VERTEX
8
OBJECT__1
10
0
20
0
30
0
70
128
71
12
72
13
73
11
0
VERTEX
8
OBJECT__1
10
0
20
0
30
0
70
128
71
14
72
12
73
15
0
VERTEX
8
OBJECT__1
10
0
20
0
30
0
70
128
71
16
72
14
73
17
0
VERTEX
8
OBJECT__1
10
0
20
0
30
0
70
128
71
16
72
18
73
19
0
VERTEX
8
OBJECT__1
10
0
20
0
30
0
70
128
71
20
72
19
73
21
0
VERTEX
8
OBJECT__1
10
0
20
0
30
0
70
128
71
22
72
21
73
23
0
VERTEX
8
OBJECT__1
10
0
20
0
30
0
70
128
71
24
72
25
73
23
0
VERTEX
8
OBJECT__1
10
0
20
0
30
0
70
128
71
26
72
24
73
27
0
VERTEX
8
OBJECT__1
10
0
20
0
30
0
70
128
71
28
72
26
73
29
0
VERTEX
8
OBJECT__1
10
0
20
0
30
0
70
128
71
28
72
30
73
31
0
VERTEX
8
OBJECT__1
10
0
20
0
30
0
70
128
71
32
72
31
73
33
0
VERTEX
8
OBJECT__1
10
0
20
0
30
0
70
128
71
34
72
33
73
3
0
VERTEX
8
OBJECT__1
10
0
20
0
30
0
70
128
71
35
72
2
73
36
0
VERTEX
8
OBJECT__1
10
0
20
0
30
0
70
128
71
2
72
1
73
37
0
VERTEX
8
OBJECT__1
10
0
20
0
30
0
70
128
71
1
72
4
73
38
0
VERTEX
8
OBJECT__1
10
0
20
0
30
0
70
128
71
4
72
8
73
39
0
VERTEX
8
OBJECT__1
10
0
20
0
30
0
70
128
71
8
72
10
73
40
0
VERTEX
8
OBJECT__1
10
0
20
0
30
0
70
128
71
10
72
41
73
42
0
VERTEX
8
OBJECT__1
10
0
20
0
30
0
70
128
71
41
72
13
73
43
0
VERTEX
8
OBJECT__1
10
0
20
0
30
0
70
128
71
13
72
12
73
44
0
VERTEX
8
OBJECT__1
10
0
20
0
30
0
70
128
71
12
72
14
73
45
0
VERTEX
8
OBJECT__1
10
0
20
0
30
0
70
128
71
14
72
16
73
46
0
VERTEX
8
OBJECT__1
10
0
20
0
30
0
70
128
71
16
72
20
73
47
0
VERTEX
8
OBJECT__1
10
0
20
0
30
0
70
128
71
20
72
22
73
48
0
VERTEX
8
OBJECT__1
10
0
20
0
30
0
70
128
71
22
72
49
73
50
0
VERTEX
8
OBJECT__1
10
0
20
0
30
0
70
128
71
49
72
25
73
51
0
VERTEX
8
OBJECT__1
10
0
20
0
30
0
70
128
71
25
72
24
73
52
0
VERTEX
8
OBJECT__1
10
0
20
0
30
0
70
128
71
24
72
26
73
53
0
VERTEX
8
OBJECT__1
10
0
20
0
30
0
70
128
71
26
72
28
73
54
0
VERTEX
8
OBJECT__1
10
0
20
0
30
0
70
128
71
28
72
32
73
55
0
VERTEX
8
OBJECT__1
10
0
20
0
30
0
70
128
71
32
72
34
73
56
0
VERTEX
8
OBJECT__1
10
0
20
0
30
0
70
128
71
34
72
35
73
57
0
VERTEX
8
OBJECT__1
10
0
20
0
30
0
70
128
71
58
72
59
73
57
0
VERTEX
8
OBJECT__1
10
0
20
0
30
0
70
128
71
60
72
58
73
36
0
VERTEX
8
OBJECT__1
10
0
20
0
30
0
70
128
71
61
72
60
73
37
0
VERTEX
8
OBJECT__1
10
0
20
0
30
0
70
128
71
62
72
61
73
38
0
VERTEX
8
OBJECT__1
10
0
20
0
30
0
70
128
71
63
72
62
73
39
0
VERTEX
8
OBJECT__1
10
0
20
0
30
0
70
128
71
64
72
63
73
40
0
VERTEX
8
OBJECT__1
10
0
20
0
30
0
70
128
71
65
72
64
73
42
0
VERTEX
8
OBJECT__1
10
0
20
0
30
0
70
128
71
66
72
65
73
43
0
VERTEX
8
OBJECT__1
10
0
20
0
30
0
70
128
71
67
72
66
73
44
0
VERTEX
8
OBJECT__1
10
0
20
0
30
0
70
128
71
68
72
67
73
45
0
VERTEX
8
OBJECT__1
10
0
20
0
30
0
70
128
71
69
72
68
73
46
0
VERTEX
8
OBJECT__1
10
0
20
0
30
0
70
128
71
70
72
69
73
47
0
VERTEX
8
OBJECT__1
10
0
20
0
30
0
70
128
71
71
72
70
73
48
0
VERTEX
8
OBJECT__1
10
0
20
0
30
0
70
128
71
71
72
50
73
51
0
VERTEX
8
OBJECT__1
10
0
20
0
30
0
70
128
71
72
72
73
73
51
0
VERTEX
8
OBJECT__1
10
0
20
0
30
0
70
128
71
72
72
52
73
53
0
VERTEX
8
OBJECT__1
10
0
20
0
30
0
70
128
71
74
72
75
73
53
0
VERTEX
8
OBJECT__1
10
0
20
0
30
0
70
128
71
76
72
74
73
54
0
VERTEX
8
OBJECT__1
10
0
20
0
30
0
70
128
71
77
72
76
73
55
0
VERTEX
8
OBJECT__1
10
0
20
0
30
0
70
128
71
77
72
56
73
57
0
VERTEX
8
OBJECT__1
10
0
20
0
30
0
70
128
71
57
72
59
73
77
0
VERTEX
8
OBJECT__1
10
0
20
0
30
0
70
128
71
55
72
56
73
77
0
VERTEX
8
OBJECT__1
10
0
20
0
30
0
70
128
71
54
72
55
73
76
0
VERTEX
8
OBJECT__1
10
0
20
0
30
0
70
128
71
53
72
54
73
74
0
VERTEX
8
OBJECT__1
10
0
20
0
30
0
70
128
71
53
72
75
73
72
0
VERTEX
8
OBJECT__1
10
0
20
0
30
0
70
128
71
51
72
52
73
72
0
VERTEX
8
OBJECT__1
10
0
20
0
30
0
70
128
71
51
72
73
73
71
0
VERTEX
8
OBJECT__1
10
0
20
0
30
0
70
128
71
48
72
50
73
71
0
VERTEX
8
OBJECT__1
10
0
20
0
30
0
70
128
71
47
72
48
73
70
0
VERTEX
8
OBJECT__1
10
0
20
0
30
0
70
128
71
46
72
47
73
69
0
VERTEX
8
OBJECT__1
10
0
20
0
30
0
70
128
71
45
72
46
73
68
0
VERTEX
8
OBJECT__1
10
0
20
0
30
0
70
128
71
44
72
45
73
67
0
VERTEX
8
OBJECT__1
10
0
20
0
30
0
70
128
71
43
72
44
73
66
0
VERTEX
8
OBJECT__1
10
0
20
0
30
0
70
128
71
42
72
43
73
65
0
VERTEX
8
OBJECT__1
10
0
20
0
30
0
70
128
71
40
72
42
73
64
0
VERTEX
8
OBJECT__1
10
0
20
0
30
0
70
128
71
39
72
40
73
63
0
VERTEX
8
OBJECT__1
10
0
20
0
30
0
70
128
71
38
72
39
73
62
0
VERTEX
8
OBJECT__1
10
0
20
0
30
0
70
128
71
37
72
38
73
61
0
VERTEX
8
OBJECT__1
10
0
20
0
30
0
70
128
71
36
72
37
73
60
0
VERTEX
8
OBJECT__1
10
0
20
0
30
0
70
128
71
57
72
36
73
58
0
VERTEX
8
OBJECT__1
10
0
20
0
30
0
70
128
71
57
72
56
73
34
0
VERTEX
8
OBJECT__1
10
0
20
0
30
0
70
128
71
56
72
55
73
32
0
VERTEX
8
OBJECT__1
10
0
20
0
30
0
70
128
71
55
72
54
73
28
0
VERTEX
8
OBJECT__1
10
0
20
0
30
0
70
128
71
54
72
53
73
26
0
VERTEX
8
OBJECT__1
10
0
20
0
30
0
70
128
71
53
72
52
73
24
0
VERTEX
8
OBJECT__1
10
0
20
0
30
0
70
128
71
52
72
51
73
25
0
VERTEX
8
OBJECT__1
10
0
20
0
30
0
70
128
71
51
72
50
73
49
0
VERTEX
8
OBJECT__1
10
0
20
0
30
0
70
128
71
50
72
48
73
22
0
VERTEX
8
OBJECT__1
10
0
20
0
30
0
70
128
71
48
72
47
73
20
0
VERTEX
8
OBJECT__1
10
0
20
0
30
0
70
128
71
47
72
46
73
16
0
VERTEX
8
OBJECT__1
10
0
20
0
30
0
70
128
71
46
72
45
73
14
0
VERTEX
8
OBJECT__1
10
0
20
0
30
0
70
128
71
45
72
44
73
12
0
VERTEX
8
OBJECT__1
10
0
20
0
30
0
70
128
71
44
72
43
73
13
0
VERTEX
8
OBJECT__1
10
0
20
0
30
0
70
128
71
43
72
42
73
41
0
VERTEX
8
OBJECT__1
10
0
20
0
30
0
70
128
71
42
72
40
73
10
0
VERTEX
8
OBJECT__1
10
0
20
0
30
0
70
128
71
40
72
39
73
8
0
VERTEX
8
OBJECT__1
10
0
20
0
30
0
70
128
71
39
72
38
73
4
0
VERTEX
8
OBJECT__1
10
0
20
0
30
0
70
128
71
38
72
37
73
1
0
VERTEX
8
OBJECT__1
10
0
20
0
30
0
70
128
71
37
72
36
73
2
0
VERTEX
8
OBJECT__1
10
0
20
0
30
0
70
128
71
36
72
57
73
35
0
VERTEX
8
OBJECT__1
10
0
20
0
30
0
70
128
71
3
72
35
73
34
0
VERTEX
8
OBJECT__1
10
0
20
0
30
0
70
128
71
33
72
34
73
32
0
VERTEX
8
OBJECT__1
10
0
20
0
30
0
70
128
71
31
72
32
73
28
0
VERTEX
8
OBJECT__1
10
0
20
0
30
0
70
128
71
29
72
30
73
28
0
VERTEX
8
OBJECT__1
10
0
20
0
30
0
70
128
71
27
72
29
73
26
0
VERTEX
8
OBJECT__1
10
0
20
0
30
0
70
128
71
23
72
27
73
24
0
VERTEX
8
OBJECT__1
10
0
20
0
30
0
70
128
71
25
72
49
73
23
0
VERTEX
8
OBJECT__1
10
0
20
0
30
0
70
128
71
23
72
49
73
22
0
VERTEX
8
OBJECT__1
10
0
20
0
30
0
70
128
71
21
72
22
73
20
0
VERTEX
8
OBJECT__1
10
0
20
0
30
0
70
128
71
19
72
20
73
16
0
VERTEX
8
OBJECT__1
10
0
20
0
30
0
70
128
71
17
72
18
73
16
0
VERTEX
8
OBJECT__1
10
0
20
0
30
0
70
128
71
15
72
17
73
14
0
VERTEX
8
OBJECT__1
10
0
20
0
30
0
70
128
71
11
72
15
73
12
0
VERTEX
8
OBJECT__1
10
0
20
0
30
0
70
128
71
13
72
41
73
11
0
VERTEX
8
OBJECT__1
10
0
20
0
30
0
70
128
71
11
72
41
73
10
0
VERTEX
8
OBJECT__1
10
0
20
0
30
0
70
128
71
9
72
10
73
8
0
VERTEX
8
OBJECT__1
10
0
20
0
30
0
70
128
71
7
72
8
73
4
0
VERTEX
8
OBJECT__1
10
0
20
0
30
0
70
128
71
5
72
6
73
4
0
VERTEX
8
OBJECT__1
10
0
20
0
30
0
70
128
71
3
72
5
73
1
0
VERTEX
8
OBJECT__1
10
0
20
0
30
0
70
128
71
2
72
35
73
3
0
SEQEND
8
OBJECT__1
0
POLYLINE
8
OBJECT__3
66
1
70
64
71
52
72
52
62
253
0
VERTEX
8
OBJECT__3
10
9.617000
20
0.000000
30
35.410999
70
192
0
VERTEX
8
OBJECT__3
10
10.969000
20
0.000000
30
34.560001
70
192
0
VERTEX
8
OBJECT__3
10
10.969000
20
10.679000
30
32.868000
70
192
0
VERTEX
8
OBJECT__3
10
10.969000
20
20.313999
30
27.959000
70
192
0
VERTEX
8
OBJECT__3
10
9.617000
20
20.813999
30
28.648001
70
192
0
VERTEX
8
OBJECT__3
10
9.617000
20
15.171000
30
31.524000
70
192
0
VERTEX
8
OBJECT__3
10
10.969000
20
27.959000
30
20.313999
70
192
0
VERTEX
8
OBJECT__3
10
9.617000
20
27.535000
30
21.927999
70
192
0
VERTEX
8
OBJECT__3
10
9.617000
20
28.648001
30
20.813999
70
192
0
VERTEX
8
OBJECT__3
10
10.969000
20
32.868000
30
10.679000
70
192
0
VERTEX
8
OBJECT__3
10
10.969000
20
34.560001
30
0.000000
70
192
0
VERTEX
8
OBJECT__3
10
9.617000
20
35.410999
30
0.000000
70
192
0
VERTEX
8
OBJECT__3
10
9.617000
20
34.172001
30
7.824000
70
192
0
VERTEX
8
OBJECT__3
10
10.969000
20
32.868000
30
-10.679000
70
192
0
VERTEX
8
OBJECT__3
10
9.617000
20
34.172001
30
-7.824000
70
192
0
VERTEX
8
OBJECT__3
10
9.617000
20
33.678001
30
-10.943000
70
192
0
VERTEX
8
OBJECT__3
10
10.969000
20
27.959000
30
-20.313999
70
192
0
VERTEX
8
OBJECT__3
10
10.969000
20
20.313999
30
-27.959000
70
192
0
VERTEX
8
OBJECT__3
10
9.617000
20
20.813999
30
-28.648001
70
192
0
VERTEX
8
OBJECT__3
10
9.617000
20
27.535000
30
-21.927999
70
192
0
VERTEX
8
OBJECT__3
10
10.969000
20
10.679000
30
-32.868000
70
192
0
VERTEX
8
OBJECT__3
10
9.617000
20
15.171000
30
-31.524000
70
192
0
VERTEX
8
OBJECT__3
10
9.617000
20
10.943000
30
-33.678001
70
192
0
VERTEX
8
OBJECT__3
10
9.617000
20
0.000000
30
-35.410999
70
192
0
VERTEX
8
OBJECT__3
10
9.617000
20
-10.943000
30
-33.678001
70
192
0
VERTEX
8
OBJECT__3
10
10.969000
20
0.000000
30
-34.560001
70
192
0
VERTEX
8
OBJECT__3
10
10.969000
20
-20.313999
30
-27.959000
70
192
0
VERTEX
8
OBJECT__3
10
9.617000
20
-20.813999
30
-28.648001
70
192
0
VERTEX
8
OBJECT__3
10
9.617000
20
-15.171000
30
-31.524000
70
192
0
VERTEX
8
OBJECT__3
10
10.969000
20
-10.679000
30
-32.868000
70
192
0
VERTEX
8
OBJECT__3
10
10.969000
20
-27.959000
30
-20.313999
70
192
0
VERTEX
8
OBJECT__3
10
9.617000
20
-27.535000
30
-21.927999
70
192
0
VERTEX
8
OBJECT__3
10
9.617000
20
-28.648001
30
-20.813999
70
192
0
VERTEX
8
OBJECT__3
10
10.969000
20
-32.868000
30
-10.679000
70
192
0
VERTEX
8
OBJECT__3
10
10.969000
20
-34.560001
30
0.000000
70
192
0
VERTEX
8
OBJECT__3
10
9.617000
20
-35.410999
30
0.000000
70
192
0
VERTEX
8
OBJECT__3
10
9.617000
20
-34.172001
30
-7.824000
70
192
0
VERTEX
8
OBJECT__3
10
10.969000
20
-32.868000
30
10.679000
70
192
0
VERTEX
8
OBJECT__3
10
9.617000
20
-34.172001
30
7.824000
70
192
0
VERTEX
8
OBJECT__3
10
9.617000
20
-33.678001
30
10.943000
70
192
0
VERTEX
8
OBJECT__3
10
10.969000
20
-27.959000
30
20.313999
70
192
0
VERTEX
8
OBJECT__3
10
10.969000
20
-20.313999
30
27.959000
70
192
0
VERTEX
8
OBJECT__3
10
9.617000
20
-20.813999
30
28.648001
70
192
0
VERTEX
8
OBJECT__3
10
9.617000
20
-27.535000
30
21.927999
70
192
0
VERTEX
8
OBJECT__3
10
10.969000
20
-10.679000
30
32.868000
70
192
0
VERTEX
8
OBJECT__3
10
9.617000
20
-15.171000
30
31.524000
70
192
0
VERTEX
8
OBJECT__3
10
9.617000
20
-10.943000
30
33.678001
70
192
0
VERTEX
8
OBJECT__3
10
9.617000
20
-28.648001
30
20.813999
70
192
0
VERTEX
8
OBJECT__3
10
9.617000
20
-33.678001
30
-10.943000
70
192
0
VERTEX
8
OBJECT__3
10
9.617000
20
28.648001
30
-20.813999
70
192
0
VERTEX
8
OBJECT__3
10
9.617000
20
33.678001
30
10.943000
70
192
0
VERTEX
8
OBJECT__3
10
9.617000
20
10.943000
30
33.678001
70
192
0
VERTEX
8
OBJECT__3
10
0
20
0
30
0
70
128
71
1
72
2
73
3
0
VERTEX
8
OBJECT__3
10
0
20
0
30
0
70
128
71
4
72
5
73
6
0
VERTEX
8
OBJECT__3
10
0
20
0
30
0
70
128
71
6
72
3
73
4
0
VERTEX
8
OBJECT__3
10
0
20
0
30
0
70
128
71
4
72
7
73
8
0
VERTEX
8
OBJECT__3
10
0
20
0
30
0
70
128
71
7
72
9
73
8
0
VERTEX
8
OBJECT__3
10
0
20
0
30
0
70
128
71
9
72
7
73
10
0
VERTEX
8
OBJECT__3
10
0
20
0
30
0
70
128
71
11
72
12
73
13
0
VERTEX
8
OBJECT__3
10
0
20
0
30
0
70
128
71
13
72
10
73
11
0
VERTEX
8
OBJECT__3
10
0
20
0
30
0
70
128
71
11
72
14
73
15
0
VERTEX
8
OBJECT__3
10
0
20
0
30
0
70
128
71
14
72
16
73
15
0
VERTEX
8
OBJECT__3
10
0
20
0
30
0
70
128
71
16
72
14
73
17
0
VERTEX
8
OBJECT__3
10
0
20
0
30
0
70
128
71
18
72
19
73
20
0
VERTEX
8
OBJECT__3
10
0
20
0
30
0
70
128
71
20
72
17
73
18
0
VERTEX
8
OBJECT__3
10
0
20
0
30
0
70
128
71
18
72
21
73
22
0
VERTEX
8
OBJECT__3
10
0
20
0
30
0
70
128
71
21
72
23
73
22
0
VERTEX
8
OBJECT__3
10
0
20
0
30
0
70
128
71
24
72
23
73
21
0
VERTEX
8
OBJECT__3
10
0
20
0
30
0
70
128
71
25
72
24
73
26
0
VERTEX
8
OBJECT__3
10
0
20
0
30
0
70
128
71
27
72
28
73
29
0
VERTEX
8
OBJECT__3
10
0
20
0
30
0
70
128
71
29
72
30
73
27
0
VERTEX
8
OBJECT__3
10
0
20
0
30
0
70
128
71
27
72
31
73
32
0
VERTEX
8
OBJECT__3
10
0
20
0
30
0
70
128
71
31
72
33
73
32
0
VERTEX
8
OBJECT__3
10
0
20
0
30
0
70
128
71
33
72
31
73
34
0
VERTEX
8
OBJECT__3
10
0
20
0
30
0
70
128
71
35
72
36
73
37
0
VERTEX
8
OBJECT__3
10
0
20
0
30
0
70
128
71
37
72
34
73
35
0
VERTEX
8
OBJECT__3
10
0
20
0
30
0
70
128
71
35
72
38
73
39
0
VERTEX
8
OBJECT__3
10
0
20
0
30
0
70
128
71
38
72
40
73
39
0
VERTEX
8
OBJECT__3
10
0
20
0
30
0
70
128
71
40
72
38
73
41
0
VERTEX
8
OBJECT__3
10
0
20
0
30
0
70
128
71
42
72
43
73
44
0
VERTEX
8
OBJECT__3
10
0
20
0
30
0
70
128
71
44
72
41
73
42
0
VERTEX
8
OBJECT__3
10
0
20
0
30
0
70
128
71
42
72
45
73
46
0
VERTEX
8
OBJECT__3
10
0
20
0
30
0
70
128
71
45
72
47
73
46
0
VERTEX
8
OBJECT__3
10
0
20
0
30
0
70
128
71
47
72
45
73
2
0
VERTEX
8
OBJECT__3
10
0
20
0
30
0
70
128
71
2
72
1
73
47
0
VERTEX
8
OBJECT__3
10
0
20
0
30
0
70
128
71
46
72
43
73
42
0
VERTEX
8
OBJECT__3
10
0
20
0
30
0
70
128
71
44
72
48
73
41
0
VERTEX
8
OBJECT__3
10
0
20
0
30
0
70
128
71
41
72
48
73
40
0
VERTEX
8
OBJECT__3
10
0
20
0
30
0
70
128
71
39
72
36
73
35
0
VERTEX
8
OBJECT__3
10
0
20
0
30
0
70
128
71
37
72
49
73
34
0
VERTEX
8
OBJECT__3
10
0
20
0
30
0
70
128
71
34
72
49
73
33
0
VERTEX
8
OBJECT__3
10
0
20
0
30
0
70
128
71
32
72
28
73
27
0
VERTEX
8
OBJECT__3
10
0
20
0
30
0
70
128
71
29
72
25
73
30
0
VERTEX
8
OBJECT__3
10
0
20
0
30
0
70
128
71
26
72
30
73
25
0
VERTEX
8
OBJECT__3
10
0
20
0
30
0
70
128
71
21
72
26
73
24
0
VERTEX
8
OBJECT__3
10
0
20
0
30
0
70
128
71
22
72
19
73
18
0
VERTEX
8
OBJECT__3
10
0
20
0
30
0
70
128
71
20
72
50
73
17
0
VERTEX
8
OBJECT__3
10
0
20
0
30
0
70
128
71
17
72
50
73
16
0
VERTEX
8
OBJECT__3
10
0
20
0
30
0
70
128
71
15
72
12
73
11
0
VERTEX
8
OBJECT__3
10
0
20
0
30
0
70
128
71
13
72
51
73
10
0
VERTEX
8
OBJECT__3
10
0
20
0
30
0
70
128
71
10
72
51
73
9
0
VERTEX
8
OBJECT__3
10
0
20
0
30
0
70
128
71
8
72
5
73
4
0
VERTEX
8
OBJECT__3
10
0
20
0
30
0
70
128
71
6
72
52
73
3
0
VERTEX
8
OBJECT__3
10
0
20
0
30
0
70
128
71
3
72
52
73
1
0
SEQEND
8
OBJECT__3
0
POLYLINE
8
OBJECT__4
66
1
70
64
71
47
72
47
62
253
0
VERTEX
8
OBJECT__4
10
9.000000
20
0.000000
30
35.410999
70
192
0
VERTEX
8
OBJECT__4
10
9.617000
20
0.000000
30
35.410999
70
192
0
VERTEX
8
OBJECT__4
10
9.617000
20
10.943000
30
33.678001
70
192
0
VERTEX
8
OBJECT__4
10
9.000000
20
15.364000
30
31.903999
70
192
0
VERTEX
8
OBJECT__4
10
9.000000
20
27.686001
30
22.079000
70
192
0
VERTEX
8
OBJECT__4
10
9.617000
20
20.813999
30
28.648001
70
192
0
VERTEX
8
OBJECT__4
10
9.617000
20
15.171000
30
31.524000
70
192
0
VERTEX
8
OBJECT__4
10
9.617000
20
28.648001
30
20.813999
70
192
0
VERTEX
8
OBJECT__4
10
9.617000
20
33.678001
30
10.943000
70
192
0
VERTEX
8
OBJECT__4
10
9.000000
20
34.522999
30
7.880000
70
192
0
VERTEX
8
OBJECT__4
10
9.617000
20
27.535000
30
21.927999
70
192
0
VERTEX
8
OBJECT__4
10
9.000000
20
35.410999
30
0.000000
70
192
0
VERTEX
8
OBJECT__4
10
9.617000
20
35.410999
30
0.000000
70
192
0
VERTEX
8
OBJECT__4
10
9.617000
20
34.172001
30
-7.824000
70
192
0
VERTEX
8
OBJECT__4
10
9.617000
20
34.172001
30
7.824000
70
192
0
VERTEX
8
OBJECT__4
10
9.000000
20
27.686001
30
-22.079000
70
192
0
VERTEX
8
OBJECT__4
10
9.000000
20
34.522999
30
-7.880000
70
192
0
VERTEX
8
OBJECT__4
10
9.617000
20
33.678001
30
-10.943000
70
192
0
VERTEX
8
OBJECT__4
10
9.617000
20
28.648001
30
-20.813999
70
192
0
VERTEX
8
OBJECT__4
10
9.617000
20
27.535000
30
-21.927999
70
192
0
VERTEX
8
OBJECT__4
10
9.617000
20
20.813999
30
-28.648001
70
192
0
VERTEX
8
OBJECT__4
10
9.000000
20
15.364000
30
-31.903999
70
192
0
VERTEX
8
OBJECT__4
10
9.000000
20
0.000000
30
-35.410999
70
192
0
VERTEX
8
OBJECT__4
10
9.617000
20
10.943000
30
-33.678001
70
192
0
VERTEX
8
OBJECT__4
10
9.617000
20
15.171000
30
-31.524000
70
192
0
VERTEX
8
OBJECT__4
10
9.617000
20
0.000000
30
-35.410999
70
192
0
VERTEX
8
OBJECT__4
10
9.617000
20
-10.943000
30
-33.678001
70
192
0
VERTEX
8
OBJECT__4
10
9.000000
20
-15.364000
30
-31.903999
70
192
0
VERTEX
8
OBJECT__4
10
9.000000
20
-27.686001
30
-22.079000
70
192
0
VERTEX
8
OBJECT__4
10
9.617000
20
-20.813999
30
-28.648001
70
192
0
VERTEX
8
OBJECT__4
10
9.617000
20
-15.171000
30
-31.524000
70
192
0
VERTEX
8
OBJECT__4
10
9.617000
20
-28.648001
30
-20.813999
70
192
0
VERTEX
8
OBJECT__4
10
9.617000
20
-33.678001
30
-10.943000
70
192
0
VERTEX
8
OBJECT__4
10
9.000000
20
-34.522999
30
-7.880000
70
192
0
VERTEX
8
OBJECT__4
10
9.617000
20
-27.535000
30
-21.927999
70
192
0
VERTEX
8
OBJECT__4
10
9.000000
20
-34.522999
30
7.880000
70
192
0
VERTEX
8
OBJECT__4
10
9.617000
20
-35.410999
30
0.000000
70
192
0
VERTEX
8
OBJECT__4
10
9.617000
20
-34.172001
30
-7.824000
70
192
0
VERTEX
8
OBJECT__4
10
9.000000
20
-27.686001
30
22.079000
70
192
0
VERTEX
8
OBJECT__4
10
9.617000
20
-33.678001
30
10.943000
70
192
0
VERTEX
8
OBJECT__4
10
9.617000
20
-28.648001
30
20.813999
70
192
0
VERTEX
8
OBJECT__4
10
9.617000
20
-34.172001
30
7.824000
70
192
0
VERTEX
8
OBJECT__4
10
9.617000
20
-27.535000
30
21.927999
70
192
0
VERTEX
8
OBJECT__4
10
9.617000
20
-20.813999
30
28.648001
70
192
0
VERTEX
8
OBJECT__4
10
9.000000
20
-15.364000
30
31.903999
70
192
0
VERTEX
8
OBJECT__4
10
9.617000
20
-10.943000
30
33.678001
70
192
0
VERTEX
8
OBJECT__4
10
9.617000
20
-15.171000
30
31.524000
70
192
0
VERTEX
8
OBJECT__4
10
0
20
0
30
0
70
128
71
1
72
2
73
3
0
VERTEX
8
OBJECT__4
10
0
20
0
30
0
70
128
71
3
72
4
73
1
0
VERTEX
8
OBJECT__4
10
0
20
0
30
0
70
128
71
5
72
4
73
6
0
VERTEX
8
OBJECT__4
10
0
20
0
30
0
70
128
71
4
72
7
73
6
0
VERTEX
8
OBJECT__4
10
0
20
0
30
0
70
128
71
5
72
8
73
9
0
VERTEX
8
OBJECT__4
10
0
20
0
30
0
70
128
71
9
72
10
73
5
0
VERTEX
8
OBJECT__4
10
0
20
0
30
0
70
128
71
5
72
11
73
8
0
VERTEX
8
OBJECT__4
10
0
20
0
30
0
70
128
71
12
72
13
73
14
0
VERTEX
8
OBJECT__4
10
0
20
0
30
0
70
128
71
12
72
10
73
15
0
VERTEX
8
OBJECT__4
10
0
20
0
30
0
70
128
71
15
72
13
73
12
0
VERTEX
8
OBJECT__4
10
0
20
0
30
0
70
128
71
16
72
17
73
18
0
VERTEX
8
OBJECT__4
10
0
20
0
30
0
70
128
71
18
72
19
73
16
0
VERTEX
8
OBJECT__4
10
0
20
0
30
0
70
128
71
17
72
14
73
18
0
VERTEX
8
OBJECT__4
10
0
20
0
30
0
70
128
71
16
72
20
73
21
0
VERTEX
8
OBJECT__4
10
0
20
0
30
0
70
128
71
21
72
22
73
16
0
VERTEX
8
OBJECT__4
10
0
20
0
30
0
70
128
71
23
72
22
73
24
0
VERTEX
8
OBJECT__4
10
0
20
0
30
0
70
128
71
22
72
25
73
24
0
VERTEX
8
OBJECT__4
10
0
20
0
30
0
70
128
71
23
72
26
73
27
0
VERTEX
8
OBJECT__4
10
0
20
0
30
0
70
128
71
27
72
28
73
23
0
VERTEX
8
OBJECT__4
10
0
20
0
30
0
70
128
71
29
72
28
73
30
0
VERTEX
8
OBJECT__4
10
0
20
0
30
0
70
128
71
28
72
31
73
30
0
VERTEX
8
OBJECT__4
10
0
20
0
30
0
70
128
71
29
72
32
73
33
0
VERTEX
8
OBJECT__4
10
0
20
0
30
0
70
128
71
33
72
34
73
29
0
VERTEX
8
OBJECT__4
10
0
20
0
30
0
70
128
71
29
72
35
73
32
0
VERTEX
8
OBJECT__4
10
0
20
0
30
0
70
128
71
36
72
34
73
37
0
VERTEX
8
OBJECT__4
10
0
20
0
30
0
70
128
71
34
72
38
73
37
0
VERTEX
8
OBJECT__4
10
0
20
0
30
0
70
128
71
39
72
36
73
40
0
VERTEX
8
OBJECT__4
10
0
20
0
30
0
70
128
71
40
72
41
73
39
0
VERTEX
8
OBJECT__4
10
0
20
0
30
0
70
128
71
36
72
42
73
40
0
VERTEX
8
OBJECT__4
10
0
20
0
30
0
70
128
71
39
72
43
73
44
0
VERTEX
8
OBJECT__4
10
0
20
0
30
0
70
128
71
44
72
45
73
39
0
VERTEX
8
OBJECT__4
10
0
20
0
30
0
70
128
71
1
72
45
73
46
0
VERTEX
8
OBJECT__4
10
0
20
0
30
0
70
128
71
45
72
47
73
46
0
VERTEX
8
OBJECT__4
10
0
20
0
30
0
70
128
71
46
72
2
73
1
0
VERTEX
8
OBJECT__4
10
0
20
0
30
0
70
128
71
44
72
47
73
45
0
VERTEX
8
OBJECT__4
10
0
20
0
30
0
70
128
71
41
72
43
73
39
0
VERTEX
8
OBJECT__4
10
0
20
0
30
0
70
128
71
37
72
42
73
36
0
VERTEX
8
OBJECT__4
10
0
20
0
30
0
70
128
71
33
72
38
73
34
0
VERTEX
8
OBJECT__4
10
0
20
0
30
0
70
128
71
30
72
35
73
29
0
VERTEX
8
OBJECT__4
10
0
20
0
30
0
70
128
71
27
72
31
73
28
0
VERTEX
8
OBJECT__4
10
0
20
0
30
0
70
128
71
24
72
26
73
23
0
VERTEX
8
OBJECT__4
10
0
20
0
30
0
70
128
71
21
72
25
73
22
0
VERTEX
8
OBJECT__4
10
0
20
0
30
0
70
128
71
19
72
20
73
16
0
VERTEX
8
OBJECT__4
10
0
20
0
30
0
70
128
71
14
72
17
73
12
0
VERTEX
8
OBJECT__4
10
0
20
0
30
0
70
128
71
9
72
15
73
10
0
VERTEX
8
OBJECT__4
10
0
20
0
30
0
70
128
71
6
72
11
73
5
0
VERTEX
8
OBJECT__4
10
0
20
0
30
0
70
128
71
3
72
7
73
4
0
SEQEND
8
OBJECT__4
0
POLYLINE
8
OBJECT__5
66
1
70
64
71
31
72
31
62
253
0
VERTEX
8
OBJECT__5
10
9.000000
20
27.686001
30
22.079000
70
192
0
VERTEX
8
OBJECT__5
10
9.000000
20
72.000000
30
93.232002
70
192
0
VERTEX
8
OBJECT__5
10
9.000000
20
71.000000
30
93.500000
70
192
0
VERTEX
8
OBJECT__5
10
9.000000
20
73.000000
30
91.500000
70
192
0
VERTEX
8
OBJECT__5
10
9.000000
20
72.732002
30
92.500000
70
192
0
VERTEX
8
OBJECT__5
10
9.000000
20
-15.364000
30
31.903999
70
192
0
VERTEX
8
OBJECT__5
10
9.000000
20
-72.732002
30
92.500000
70
192
0
VERTEX
8
OBJECT__5
10
9.000000
20
-73.000000
30
91.500000
70
192
0
VERTEX
8
OBJECT__5
10
9.000000
20
-71.000000
30
93.500000
70
192
0
VERTEX
8
OBJECT__5
10
9.000000
20
-72.000000
30
93.232002
70
192
0
VERTEX
8
OBJECT__5
10
9.000000
20
0.000000
30
35.410999
70
192
0
VERTEX
8
OBJECT__5
10
9.000000
20
15.364000
30
31.903999
70
192
0
VERTEX
8
OBJECT__5
10
9.000000
20
-34.522999
30
7.880000
70
192
0
VERTEX
8
OBJECT__5
10
9.000000
20
-27.686001
30
22.079000
70
192
0
VERTEX
8
OBJECT__5
10
9.000000
20
-73.000000
30
-91.500000
70
192
0
VERTEX
8
OBJECT__5
10
9.000000
20
-34.522999
30
-7.880000
70
192
0
VERTEX
8
OBJECT__5
10
9.000000
20
-15.364000
30
-31.903999
70
192
0
VERTEX
8
OBJECT__5
10
9.000000
20
-72.732002
30
-92.500000
70
192
0
VERTEX
8
OBJECT__5
10
9.000000
20
-72.000000
30
-93.232002
70
192
0
VERTEX
8
OBJECT__5
10
9.000000
20
-27.686001
30
-22.079000
70
192
0
VERTEX
8
OBJECT__5
10
9.000000
20
15.364000
30
-31.903999
70
192
0
VERTEX
8
OBJECT__5
10
9.000000
20
72.732002
30
-92.500000
70
192
0
VERTEX
8
OBJECT__5
10
9.000000
20
73.000000
30
-91.500000
70
192
0
VERTEX
8
OBJECT__5
10
9.000000
20
71.000000
30
-93.500000
70
192
0
VERTEX
8
OBJECT__5
10
9.000000
20
72.000000
30
-93.232002
70
192
0
VERTEX
8
OBJECT__5
10
9.000000
20
34.522999
30
7.880000
70
192
0
VERTEX
8
OBJECT__5
10
9.000000
20
-71.000000
30
-93.500000
70
192
0
VERTEX
8
OBJECT__5
10
9.000000
20
0.000000
30
-35.410999
70
192
0
VERTEX
8
OBJECT__5
10
9.000000
20
27.686001
30
-22.079000
70
192
0
VERTEX
8
OBJECT__5
10
9.000000
20
35.410999
30
0.000000
70
192
0
VERTEX
8
OBJECT__5
10
9.000000
20
34.522999
30
-7.880000
70
192
0
VERTEX
8
OBJECT__5
10
0
20
0
30
0
70
128
71
1
72
2
73
3
0
VERTEX
8
OBJECT__5
10
0
20
0
30
0
70
128
71
1
72
4
73
5
0
VERTEX
8
OBJECT__5
10
0
20
0
30
0
70
128
71
6
72
7
73
8
0
VERTEX
8
OBJECT__5
10
0
20
0
30
0
70
128
71
6
72
9
73
10
0
VERTEX
8
OBJECT__5
10
0
20
0
30
0
70
128
71
5
72
2
73
1
0
VERTEX
8
OBJECT__5
10
0
20
0
30
0
70
128
71
3
72
9
73
11
0
VERTEX
8
OBJECT__5
10
0
20
0
30
0
70
128
71
10
72
7
73
6
0
VERTEX
8
OBJECT__5
10
0
20
0
30
0
70
128
71
11
72
12
73
3
0
VERTEX
8
OBJECT__5
10
0
20
0
30
0
70
128
71
8
72
13
73
14
0
VERTEX
8
OBJECT__5
10
0
20
0
30
0
70
128
71
8
72
15
73
16
0
VERTEX
8
OBJECT__5
10
0
20
0
30
0
70
128
71
17
72
18
73
19
0
VERTEX
8
OBJECT__5
10
0
20
0
30
0
70
128
71
17
72
20
73
15
0
VERTEX
8
OBJECT__5
10
0
20
0
30
0
70
128
71
21
72
22
73
23
0
VERTEX
8
OBJECT__5
10
0
20
0
30
0
70
128
71
21
72
24
73
25
0
VERTEX
8
OBJECT__5
10
0
20
0
30
0
70
128
71
4
72
1
73
26
0
VERTEX
8
OBJECT__5
10
0
20
0
30
0
70
128
71
9
72
6
73
11
0
VERTEX
8
OBJECT__5
10
0
20
0
30
0
70
128
71
16
72
13
73
8
0
VERTEX
8
OBJECT__5
10
0
20
0
30
0
70
128
71
15
72
18
73
17
0
VERTEX
8
OBJECT__5
10
0
20
0
30
0
70
128
71
27
72
24
73
28
0
VERTEX
8
OBJECT__5
10
0
20
0
30
0
70
128
71
25
72
22
73
21
0
VERTEX
8
OBJECT__5
10
0
20
0
30
0
70
128
71
3
72
12
73
1
0
VERTEX
8
OBJECT__5
10
0
20
0
30
0
70
128
71
15
72
20
73
16
0
VERTEX
8
OBJECT__5
10
0
20
0
30
0
70
128
71
28
72
17
73
27
0
VERTEX
8
OBJECT__5
10
0
20
0
30
0
70
128
71
23
72
29
73
21
0
VERTEX
8
OBJECT__5
10
0
20
0
30
0
70
128
71
8
72
14
73
6
0
VERTEX
8
OBJECT__5
10
0
20
0
30
0
70
128
71
21
72
28
73
24
0
VERTEX
8
OBJECT__5
10
0
20
0
30
0
70
128
71
23
72
4
73
30
0
VERTEX
8
OBJECT__5
10
0
20
0
30
0
70
128
71
19
72
27
73
17
0
VERTEX
8
OBJECT__5
10
0
20
0
30
0
70
128
71
30
72
31
73
23
0
VERTEX
8
OBJECT__5
10
0
20
0
30
0
70
128
71
31
72
29
73
23
0
VERTEX
8
OBJECT__5
10
0
20
0
30
0
70
128
71
26
72
30
73
4
0
SEQEND
8
OBJECT__5
0
POLYLINE
8
OBJECT__6
66
1
70
64
71
13
72
13
62
253
0
VERTEX
8
OBJECT__6
10
4.000000
20
-71.000000
30
98.500000
70
192
0
VERTEX
8
OBJECT__6
10
4.000000
20
-74.500000
30
97.561996
70
192
0
VERTEX
8
OBJECT__6
10
7.536000
20
-73.767998
30
96.293999
70
192
0
VERTEX
8
OBJECT__6
10
4.000000
20
-75.780998
30
96.280998
70
192
0
VERTEX
8
OBJECT__6
10
7.536000
20
-75.793999
30
94.267998
70
192
0
VERTEX
8
OBJECT__6
10
4.000000
20
-78.000000
30
91.500000
70
192
0
VERTEX
8
OBJECT__6
10
7.536000
20
-76.536003
30
91.500000
70
192
0
VERTEX
8
OBJECT__6
10
7.536000
20
-71.000000
30
97.036003
70
192
0
VERTEX
8
OBJECT__6
10
9.000000
20
-72.000000
30
93.232002
70
192
0
VERTEX
8
OBJECT__6
10
9.000000
20
-72.732002
30
92.500000
70
192
0
VERTEX
8
OBJECT__6
10
9.000000
20
-73.000000
30
91.500000
70
192
0
VERTEX
8
OBJECT__6
10
9.000000
20
-71.000000
30
93.500000
70
192
0
VERTEX
8
OBJECT__6
10
4.000000
20
-77.061996
30
95.000000
70
192
0
VERTEX
8
OBJECT__6
10
0
20
0
30
0
70
128
71
1
72
2
73
3
0
VERTEX
8
OBJECT__6
10
0
20
0
30
0
70
128
71
3
72
2
73
4
0
VERTEX
8
OBJECT__6
10
0
20
0
30
0
70
128
71
4
72
5
73
3
0
VERTEX
8
OBJECT__6
10
0
20
0
30
0
70
128
71
6
72
7
73
5
0
VERTEX
8
OBJECT__6
10
0
20
0
30
0
70
128
71
8
72
3
73
9
0
VERTEX
8
OBJECT__6
10
0
20
0
30
0
70
128
71
3
72
5
73
10
0
VERTEX
8
OBJECT__6
10
0
20
0
30
0
70
128
71
7
72
11
73
10
0
VERTEX
8
OBJECT__6
10
0
20
0
30
0
70
128
71
10
72
5
73
7
0
VERTEX
8
OBJECT__6
10
0
20
0
30
0
70
128
71
10
72
9
73
3
0
VERTEX
8
OBJECT__6
10
0
20
0
30
0
70
128
71
9
72
12
73
8
0
VERTEX
8
OBJECT__6
10
0
20
0
30
0
70
128
71
5
72
13
73
6
0
VERTEX
8
OBJECT__6
10
0
20
0
30
0
70
128
71
4
72
13
73
5
0
VERTEX
8
OBJECT__6
10
0
20
0
30
0
70
128
71
3
72
8
73
1
0
SEQEND
8
OBJECT__6
0
POLYLINE
8
OBJECT__7
66
1
70
64
71
6
72
4
62
253
0
VERTEX
8
OBJECT__7
10
7.536000
20
-76.536003
30
-91.500000
70
192
0
VERTEX
8
OBJECT__7
10
7.536000
20
-76.536003
30
91.500000
70
192
0
VERTEX
8
OBJECT__7
10
4.000000
20
-78.000000
30
91.500000
70
192
0
VERTEX
8
OBJECT__7
10
9.000000
20
-73.000000
30
-91.500000
70
192
0
VERTEX
8
OBJECT__7
10
9.000000
20
-73.000000
30
91.500000
70
192
0
VERTEX
8
OBJECT__7
10
4.000000
20
-78.000000
30
-91.500000
70
192
0
VERTEX
8
OBJECT__7
10
0
20
0
30
0
70
128
71
1
72
2
73
3
0
VERTEX
8
OBJECT__7
10
0
20
0
30
0
70
128
71
4
72
5
73
2
0
VERTEX
8
OBJECT__7
10
0
20
0
30
0
70
128
71
2
72
1
73
4
0
VERTEX
8
OBJECT__7
10
0
20
0
30
0
70
128
71
3
72
6
73
1
0
SEQEND
8
OBJECT__7
0
POLYLINE
8
OBJECT__8
66
1
70
64
71
6
72
4
62
253
0
VERTEX
8
OBJECT__8
10
7.536000
20
-71.000000
30
97.036003
70
192
0
VERTEX
8
OBJECT__8
10
7.536000
20
71.000000
30
97.036003
70
192
0
VERTEX
8
OBJECT__8
10
4.000000
20
71.000000
30
98.500000
70
192
0
VERTEX
8
OBJECT__8
10
9.000000
20
-71.000000
30
93.500000
70
192
0
VERTEX
8
OBJECT__8
10
9.000000
20
71.000000
30
93.500000
70
192
0
VERTEX
8
OBJECT__8
10
4.000000
20
-71.000000
30
98.500000
70
192
0
VERTEX
8
OBJECT__8
10
0
20
0
30
0
70
128
71
1
72
2
73
3
0
VERTEX
8
OBJECT__8
10
0
20
0
30
0
70
128
71
4
72
5
73
2
0
VERTEX
8
OBJECT__8
10
0
20
0
30
0
70
128
71
2
72
1
73
4
0
VERTEX
8
OBJECT__8
10
0
20
0
30
0
70
128
71
3
72
6
73
1
0
SEQEND
8
OBJECT__8
0
POLYLINE
8
OBJECT__9
66
1
70
64
71
8
72
6
62
253
0
VERTEX
8
OBJECT__9
10
0.000000
20
-78.000000
30
91.500000
70
192
0
VERTEX
8
OBJECT__9
10
4.000000
20
-78.000000
30
91.500000
70
192
0
VERTEX
8
OBJECT__9
10
4.000000
20
-77.061996
30
95.000000
70
192
0
VERTEX
8
OBJECT__9
10
0.000000
20
-75.949997
30
96.449997
70
192
0
VERTEX
8
OBJECT__9
10
0.000000
20
-71.000000
30
98.500000
70
192
0
VERTEX
8
OBJECT__9
10
4.000000
20
-74.500000
30
97.561996
70
192
0
VERTEX
8
OBJECT__9
10
4.000000
20
-75.780998
30
96.280998
70
192
0
VERTEX
8
OBJECT__9
10
4.000000
20
-71.000000
30
98.500000
70
192
0
VERTEX
8
OBJECT__9
10
0
20
0
30
0
70
128
71
1
72
2
73
3
0
VERTEX
8
OBJECT__9
10
0
20
0
30
0
70
128
71
3
72
4
73
1
0
VERTEX
8
OBJECT__9
10
0
20
0
30
0
70
128
71
5
72
4
73
6
0
VERTEX
8
OBJECT__9
10
0
20
0
30
0
70
128
71
4
72
7
73
6
0
VERTEX
8
OBJECT__9
10
0
20
0
30
0
70
128
71
6
72
8
73
5
0
VERTEX
8
OBJECT__9
10
0
20
0
30
0
70
128
71
3
72
7
73
4
0
SEQEND
8
OBJECT__9
0
POLYLINE
8
OBJECT__10
66
1
70
64
71
4
72
2
62
253
0
VERTEX
8
OBJECT__10
10
4.000000
20
-78.000000
30
-91.500000
70
192
0
VERTEX
8
OBJECT__10
10
4.000000
20
-78.000000
30
91.500000
70
192
0
VERTEX
8
OBJECT__10
10
0.000000
20
-78.000000
30
91.500000
70
192
0
VERTEX
8
OBJECT__10
10
0.000000
20
-78.000000
30
-91.500000
70
192
0
VERTEX
8
OBJECT__10
10
0
20
0
30
0
70
128
71
1
72
2
73
3
0
VERTEX
8
OBJECT__10
10
0
20
0
30
0
70
128
71
3
72
4
73
1
0
SEQEND
8
OBJECT__10
0
POLYLINE
8
OBJECT__11
66
1
70
64
71
13
72
13
62
253
0
VERTEX
8
OBJECT__11
10
4.000000
20
-78.000000
30
-91.500000
70
192
0
VERTEX
8
OBJECT__11
10
4.000000
20
-77.061996
30
-95.000000
70
192
0
VERTEX
8
OBJECT__11
10
7.536000
20
-75.793999
30
-94.267998
70
192
0
VERTEX
8
OBJECT__11
10
7.536000
20
-73.767998
30
-96.293999
70
192
0
VERTEX
8
OBJECT__11
10
4.000000
20
-75.780998
30
-96.280998
70
192
0
VERTEX
8
OBJECT__11
10
4.000000
20
-71.000000
30
-98.500000
70
192
0
VERTEX
8
OBJECT__11
10
7.536000
20
-71.000000
30
-97.036003
70
192
0
VERTEX
8
OBJECT__11
10
7.536000
20
-76.536003
30
-91.500000
70
192
0
VERTEX
8
OBJECT__11
10
9.000000
20
-72.732002
30
-92.500000
70
192
0
VERTEX
8
OBJECT__11
10
9.000000
20
-72.000000
30
-93.232002
70
192
0
VERTEX
8
OBJECT__11
10
9.000000
20
-71.000000
30
-93.500000
70
192
0
VERTEX
8
OBJECT__11
10
9.000000
20
-73.000000
30
-91.500000
70
192
0
VERTEX
8
OBJECT__11
10
4.000000
20
-74.500000
30
-97.561996
70
192
0
VERTEX
8
OBJECT__11
10
0
20
0
30
0
70
128
71
1
72
2
73
3
0
VERTEX
8
OBJECT__11
10
0
20
0
30
0
70
128
71
4
72
3
73
5
0
VERTEX
8
OBJECT__11
10
0
20
0
30
0
70
128
71
3
72
2
73
5
0
VERTEX
8
OBJECT__11
10
0
20
0
30
0
70
128
71
6
72
7
73
4
0
VERTEX
8
OBJECT__11
10
0
20
0
30
0
70
128
71
8
72
3
73
9
0
VERTEX
8
OBJECT__11
10
0
20
0
30
0
70
128
71
4
72
10
73
9
0
VERTEX
8
OBJECT__11
10
0
20
0
30
0
70
128
71
7
72
11
73
10
0
VERTEX
8
OBJECT__11
10
0
20
0
30
0
70
128
71
10
72
4
73
7
0
VERTEX
8
OBJECT__11
10
0
20
0
30
0
70
128
71
9
72
3
73
4
0
VERTEX
8
OBJECT__11
10
0
20
0
30
0
70
128
71
9
72
12
73
8
0
VERTEX
8
OBJECT__11
10
0
20
0
30
0
70
128
71
4
72
13
73
6
0
VERTEX
8
OBJECT__11
10
0
20
0
30
0
70
128
71
5
72
13
73
4
0
VERTEX
8
OBJECT__11
10
0
20
0
30
0
70
128
71
3
72
8
73
1
0
SEQEND
8
OBJECT__11
0
POLYLINE
8
OBJECT__12
66
1
70
64
71
8
72
6
62
253
0
VERTEX
8
OBJECT__12
10
0.000000
20
-71.000000
30
-98.500000
70
192
0
VERTEX
8
OBJECT__12
10
4.000000
20
-71.000000
30
-98.500000
70
192
0
VERTEX
8
OBJECT__12
10
4.000000
20
-74.500000
30
-97.561996
70
192
0
VERTEX
8
OBJECT__12
10
0.000000
20
-75.949997
30
-96.449997
70
192
0
VERTEX
8
OBJECT__12
10
0.000000
20
-78.000000
30
-91.500000
70
192
0
VERTEX
8
OBJECT__12
10
4.000000
20
-77.061996
30
-95.000000
70
192
0
VERTEX
8
OBJECT__12
10
4.000000
20
-75.780998
30
-96.280998
70
192
0
VERTEX
8
OBJECT__12
10
4.000000
20
-78.000000
30
-91.500000
70
192
0
VERTEX
8
OBJECT__12
10
0
20
0
30
0
70
128
71
1
72
2
73
3
0
VERTEX
8
OBJECT__12
10
0
20
0
30
0
70
128
71
3
72
4
73
1
0
VERTEX
8
OBJECT__12
10
0
20
0
30
0
70
128
71
5
72
4
73
6
0
VERTEX
8
OBJECT__12
10
0
20
0
30
0
70
128
71
4
72
7
73
6
0
VERTEX
8
OBJECT__12
10
0
20
0
30
0
70
128
71
6
72
8
73
5
0
VERTEX
8
OBJECT__12
10
0
20
0
30
0
70
128
71
3
72
7
73
4
0
SEQEND
8
OBJECT__12
0
POLYLINE
8
OBJECT__13
66
1
70
64
71
6
72
4
62
253
0
VERTEX
8
OBJECT__13
10
7.536000
20
-71.000000
30
-97.036003
70
192
0
VERTEX
8
OBJECT__13
10
4.000000
20
-71.000000
30
-98.500000
70
192
0
VERTEX
8
OBJECT__13
10
4.000000
20
71.000000
30
-98.500000
70
192
0
VERTEX
8
OBJECT__13
10
9.000000
20
71.000000
30
-93.500000
70
192
0
VERTEX
8
OBJECT__13
10
9.000000
20
-71.000000
30
-93.500000
70
192
0
VERTEX
8
OBJECT__13
10
7.536000
20
71.000000
30
-97.036003
70
192
0
VERTEX
8
OBJECT__13
10
0
20
0
30
0
70
128
71
1
72
2
73
3
0
VERTEX
8
OBJECT__13
10
0
20
0
30
0
70
128
71
4
72
5
73
1
0
VERTEX
8
OBJECT__13
10
0
20
0
30
0
70
128
71
1
72
6
73
4
0
VERTEX
8
OBJECT__13
10
0
20
0
30
0
70
128
71
3
72
6
73
1
0
SEQEND
8
OBJECT__13
0
POLYLINE
8
OBJECT__14
66
1
70
64
71
4
72
2
62
253
0
VERTEX
8
OBJECT__14
10
0.000000
20
71.000000
30
-98.500000
70
192
0
VERTEX
8
OBJECT__14
10
4.000000
20
71.000000
30
-98.500000
70
192
0
VERTEX
8
OBJECT__14
10
4.000000
20
-71.000000
30
-98.500000
70
192
0
VERTEX
8
OBJECT__14
10
0.000000
20
-71.000000
30
-98.500000
70
192
0
VERTEX
8
OBJECT__14
10
0
20
0
30
0
70
128
71
1
72
2
73
3
0
VERTEX
8
OBJECT__14
10
0
20
0
30
0
70
128
71
3
72
4
73
1
0
SEQEND
8
OBJECT__14
0
POLYLINE
8
OBJECT__15
66
1
70
64
71
13
72
13
62
253
0
VERTEX
8
OBJECT__15
10
4.000000
20
71.000000
30
-98.500000
70
192
0
VERTEX
8
OBJECT__15
10
4.000000
20
74.500000
30
-97.561996
70
192
0
VERTEX
8
OBJECT__15
10
7.536000
20
73.767998
30
-96.293999
70
192
0
VERTEX
8
OBJECT__15
10
4.000000
20
75.780998
30
-96.280998
70
192
0
VERTEX
8
OBJECT__15
10
7.536000
20
75.793999
30
-94.267998
70
192
0
VERTEX
8
OBJECT__15
10
4.000000
20
77.061996
30
-95.000000
70
192
0
VERTEX
8
OBJECT__15
10
4.000000
20
78.000000
30
-91.500000
70
192
0
VERTEX
8
OBJECT__15
10
7.536000
20
76.536003
30
-91.500000
70
192
0
VERTEX
8
OBJECT__15
10
7.536000
20
71.000000
30
-97.036003
70
192
0
VERTEX
8
OBJECT__15
10
9.000000
20
72.000000
30
-93.232002
70
192
0
VERTEX
8
OBJECT__15
10
9.000000
20
72.732002
30
-92.500000
70
192
0
VERTEX
8
OBJECT__15
10
9.000000
20
73.000000
30
-91.500000
70
192
0
VERTEX
8
OBJECT__15
10
9.000000
20
71.000000
30
-93.500000
70
192
0
VERTEX
8
OBJECT__15
10
0
20
0
30
0
70
128
71
1
72
2
73
3
0
VERTEX
8
OBJECT__15
10
0
20
0
30
0
70
128
71
3
72
2
73
4
0
VERTEX
8
OBJECT__15
10
0
20
0
30
0
70
128
71
4
72
5
73
3
0
VERTEX
8
OBJECT__15
10
0
20
0
30
0
70
128
71
6
72
7
73
8
0
VERTEX
8
OBJECT__15
10
0
20
0
30
0
70
128
71
9
72
3
73
10
0
VERTEX
8
OBJECT__15
10
0
20
0
30
0
70
128
71
3
72
5
73
11
0
VERTEX
8
OBJECT__15
10
0
20
0
30
0
70
128
71
8
72
12
73
11
0
VERTEX
8
OBJECT__15
10
0
20
0
30
0
70
128
71
11
72
5
73
8
0
VERTEX
8
OBJECT__15
10
0
20
0
30
0
70
128
71
11
72
10
73
3
0
VERTEX
8
OBJECT__15
10
0
20
0
30
0
70
128
71
10
72
13
73
9
0
VERTEX
8
OBJECT__15
10
0
20
0
30
0
70
128
71
8
72
5
73
6
0
VERTEX
8
OBJECT__15
10
0
20
0
30
0
70
128
71
4
72
6
73
5
0
VERTEX
8
OBJECT__15
10
0
20
0
30
0
70
128
71
3
72
9
73
1
0
SEQEND
8
OBJECT__15
0
POLYLINE
8
OBJECT__16
66
1
70
64
71
8
72
6
62
253
0
VERTEX
8
OBJECT__16
10
0.000000
20
78.000000
30
-91.500000
70
192
0
VERTEX
8
OBJECT__16
10
4.000000
20
78.000000
30
-91.500000
70
192
0
VERTEX
8
OBJECT__16
10
4.000000
20
77.061996
30
-95.000000
70
192
0
VERTEX
8
OBJECT__16
10
0.000000
20
75.949997
30
-96.449997
70
192
0
VERTEX
8
OBJECT__16
10
0.000000
20
71.000000
30
-98.500000
70
192
0
VERTEX
8
OBJECT__16
10
4.000000
20
74.500000
30
-97.561996
70
192
0
VERTEX
8
OBJECT__16
10
4.000000
20
75.780998
30
-96.280998
70
192
0
VERTEX
8
OBJECT__16
10
4.000000
20
71.000000
30
-98.500000
70
192
0
VERTEX
8
OBJECT__16
10
0
20
0
30
0
70
128
71
1
72
2
73
3
0
VERTEX
8
OBJECT__16
10
0
20
0
30
0
70
128
71
3
72
4
73
1
0
VERTEX
8
OBJECT__16
10
0
20
0
30
0
70
128
71
5
72
4
73
6
0
VERTEX
8
OBJECT__16
10
0
20
0
30
0
70
128
71
4
72
7
73
6
0
VERTEX
8
OBJECT__16
10
0
20
0
30
0
70
128
71
6
72
8
73
5
0
VERTEX
8
OBJECT__16
10
0
20
0
30
0
70
128
71
3
72
7
73
4
0
SEQEND
8
OBJECT__16
0
POLYLINE
8
OBJECT__17
66
1
70
64
71
6
72
4
62
253
0
VERTEX
8
OBJECT__17
10
7.536000
20
76.536003
30
91.500000
70
192
0
VERTEX
8
OBJECT__17
10
7.536000
20
76.536003
30
-91.500000
70
192
0
VERTEX
8
OBJECT__17
10
4.000000
20
78.000000
30
-91.500000
70
192
0
VERTEX
8
OBJECT__17
10
9.000000
20
73.000000
30
91.500000
70
192
0
VERTEX
8
OBJECT__17
10
9.000000
20
73.000000
30
-91.500000
70
192
0
VERTEX
8
OBJECT__17
10
4.000000
20
78.000000
30
91.500000
70
192
0
VERTEX
8
OBJECT__17
10
0
20
0
30
0
70
128
71
1
72
2
73
3
0
VERTEX
8
OBJECT__17
10
0
20
0
30
0
70
128
71
4
72
5
73
2
0
VERTEX
8
OBJECT__17
10
0
20
0
30
0
70
128
71
2
72
1
73
4
0
VERTEX
8
OBJECT__17
10
0
20
0
30
0
70
128
71
3
72
6
73
1
0
SEQEND
8
OBJECT__17
0
POLYLINE
8
OBJECT__18
66
1
70
64
71
12
72
10
62
253
0
VERTEX
8
OBJECT__18
10
0.000000
20
71.000000
30
-98.500000
70
192
0
VERTEX
8
OBJECT__18
10
0.000000
20
71.000000
30
98.500000
70
192
0
VERTEX
8
OBJECT__18
10
0.000000
20
78.000000
30
91.500000
70
192
0
VERTEX
8
OBJECT__18
10
0.000000
20
-71.000000
30
98.500000
70
192
0
VERTEX
8
OBJECT__18
10
0.000000
20
-71.000000
30
-98.500000
70
192
0
VERTEX
8
OBJECT__18
10
0.000000
20
-78.000000
30
-91.500000
70
192
0
VERTEX
8
OBJECT__18
10
0.000000
20
75.949997
30
96.449997
70
192
0
VERTEX
8
OBJECT__18
10
0.000000
20
-78.000000
30
91.500000
70
192
0
VERTEX
8
OBJECT__18
10
0.000000
20
78.000000
30
-91.500000
70
192
0
VERTEX
8
OBJECT__18
10
0.000000
20
-75.949997
30
-96.449997
70
192
0
VERTEX
8
OBJECT__18
10
0.000000
20
75.949997
30
-96.449997
70
192
0
VERTEX
8
OBJECT__18
10
0.000000
20
-75.949997
30
96.449997
70
192
0
VERTEX
8
OBJECT__18
10
0
20
0
30
0
70
128
71
1
72
2
73
3
0
VERTEX
8
OBJECT__18
10
0
20
0
30
0
70
128
71
4
72
5
73
6
0
VERTEX
8
OBJECT__18
10
0
20
0
30
0
70
128
71
2
72
7
73
3
0
VERTEX
8
OBJECT__18
10
0
20
0
30
0
70
128
71
6
72
8
73
4
0
VERTEX
8
OBJECT__18
10
0
20
0
30
0
70
128
71
4
72
2
73
1
0
VERTEX
8
OBJECT__18
10
0
20
0
30
0
70
128
71
3
72
9
73
1
0
VERTEX
8
OBJECT__18
10
0
20
0
30
0
70
128
71
5
72
10
73
6
0
VERTEX
8
OBJECT__18
10
0
20
0
30
0
70
128
71
9
72
11
73
1
0
VERTEX
8
OBJECT__18
10
0
20
0
30
0
70
128
71
1
72
5
73
4
0
VERTEX
8
OBJECT__18
10
0
20
0
30
0
70
128
71
8
72
12
73
4
0
SEQEND
8
OBJECT__18
0
POLYLINE
8
OBJECT__19
66
1
70
64
71
4
72
2
62
253
0
VERTEX
8
OBJECT__19
10
4.000000
20
78.000000
30
91.500000
70
192
0
VERTEX
8
OBJECT__19
10
4.000000
20
78.000000
30
-91.500000
70
192
0
VERTEX
8
OBJECT__19
10
0.000000
20
78.000000
30
-91.500000
70
192
0
VERTEX
8
OBJECT__19
10
0.000000
20
78.000000
30
91.500000
70
192
0
VERTEX
8
OBJECT__19
10
0
20
0
30
0
70
128
71
1
72
2
73
3
0
VERTEX
8
OBJECT__19
10
0
20
0
30
0
70
128
71
3
72
4
73
1
0
SEQEND
8
OBJECT__19
0
POLYLINE
8
OBJECT__20
66
1
70
64
71
8
72
6
62
253
0
VERTEX
8
OBJECT__20
10
0.000000
20
71.000000
30
98.500000
70
192
0
VERTEX
8
OBJECT__20
10
4.000000
20
71.000000
30
98.500000
70
192
0
VERTEX
8
OBJECT__20
10
4.000000
20
74.500000
30
97.561996
70
192
0
VERTEX
8
OBJECT__20
10
0.000000
20
75.949997
30
96.449997
70
192
0
VERTEX
8
OBJECT__20
10
0.000000
20
78.000000
30
91.500000
70
192
0
VERTEX
8
OBJECT__20
10
4.000000
20
77.061996
30
95.000000
70
192
0
VERTEX
8
OBJECT__20
10
4.000000
20
75.780998
30
96.280998
70
192
0
VERTEX
8
OBJECT__20
10
4.000000
20
78.000000
30
91.500000
70
192
0
VERTEX
8
OBJECT__20
10
0
20
0
30
0
70
128
71
1
72
2
73
3
0
VERTEX
8
OBJECT__20
10
0
20
0
30
0
70
128
71
3
72
4
73
1
0
VERTEX
8
OBJECT__20
10
0
20
0
30
0
70
128
71
5
72
4
73
6
0
VERTEX
8
OBJECT__20
10
0
20
0
30
0
70
128
71
4
72
7
73
6
0
VERTEX
8
OBJECT__20
10
0
20
0
30
0
70
128
71
6
72
8
73
5
0
VERTEX
8
OBJECT__20
10
0
20
0
30
0
70
128
71
3
72
7
73
4
0
SEQEND
8
OBJECT__20
0
POLYLINE
8
OBJECT__21
66
1
70
64
71
4
72
2
62
253
0
VERTEX
8
OBJECT__21
10
4.000000
20
71.000000
30
98.500000
70
192
0
VERTEX
8
OBJECT__21
10
0.000000
20
71.000000
30
98.500000
70
192
0
VERTEX
8
OBJECT__21
10
0.000000
20
-71.000000
30
98.500000
70
192
0
VERTEX
8
OBJECT__21
10
4.000000
20
-71.000000
30
98.500000
70
192
0
VERTEX
8
OBJECT__21
10
0
20
0
30
0
70
128
71
1
72
2
73
3
0
VERTEX
8
OBJECT__21
10
0
20
0
30
0
70
128
71
3
72
4
73
1
0
SEQEND
8
OBJECT__21
0
POLYLINE
8
OBJECT__22
66
1
70
64
71
13
72
13
62
253
0
VERTEX
8
OBJECT__22
10
4.000000
20
77.061996
30
95.000000
70
192
0
VERTEX
8
OBJECT__22
10
7.536000
20
75.793999
30
94.267998
70
192
0
VERTEX
8
OBJECT__22
10
7.536000
20
76.536003
30
91.500000
70
192
0
VERTEX
8
OBJECT__22
10
7.536000
20
73.767998
30
96.293999
70
192
0
VERTEX
8
OBJECT__22
10
4.000000
20
75.780998
30
96.280998
70
192
0
VERTEX
8
OBJECT__22
10
4.000000
20
74.500000
30
97.561996
70
192
0
VERTEX
8
OBJECT__22
10
4.000000
20
71.000000
30
98.500000
70
192
0
VERTEX
8
OBJECT__22
10
7.536000
20
71.000000
30
97.036003
70
192
0
VERTEX
8
OBJECT__22
10
9.000000
20
72.732002
30
92.500000
70
192
0
VERTEX
8
OBJECT__22
10
9.000000
20
73.000000
30
91.500000
70
192
0
VERTEX
8
OBJECT__22
10
9.000000
20
72.000000
30
93.232002
70
192
0
VERTEX
8
OBJECT__22
10
9.000000
20
71.000000
30
93.500000
70
192
0
VERTEX
8
OBJECT__22
10
4.000000
20
78.000000
30
91.500000
70
192
0
VERTEX
8
OBJECT__22
10
0
20
0
30
0
70
128
71
1
72
2
73
3
0
VERTEX
8
OBJECT__22
10
0
20
0
30
0
70
128
71
4
72
2
73
5
0
VERTEX
8
OBJECT__22
10
0
20
0
30
0
70
128
71
2
72
1
73
5
0
VERTEX
8
OBJECT__22
10
0
20
0
30
0
70
128
71
6
72
7
73
8
0
VERTEX
8
OBJECT__22
10
0
20
0
30
0
70
128
71
2
72
9
73
10
0
VERTEX
8
OBJECT__22
10
0
20
0
30
0
70
128
71
4
72
11
73
9
0
VERTEX
8
OBJECT__22
10
0
20
0
30
0
70
128
71
4
72
8
73
12
0
VERTEX
8
OBJECT__22
10
0
20
0
30
0
70
128
71
12
72
11
73
4
0
VERTEX
8
OBJECT__22
10
0
20
0
30
0
70
128
71
9
72
2
73
4
0
VERTEX
8
OBJECT__22
10
0
20
0
30
0
70
128
71
10
72
3
73
2
0
VERTEX
8
OBJECT__22
10
0
20
0
30
0
70
128
71
8
72
4
73
6
0
VERTEX
8
OBJECT__22
10
0
20
0
30
0
70
128
71
5
72
6
73
4
0
VERTEX
8
OBJECT__22
10
0
20
0
30
0
70
128
71
3
72
13
73
1
0
SEQEND
8
OBJECT__22
0
ENDSEC
0
EOF
