999
Converted by 3D Exploration 
999
XDimension Software, LLC
999
http://www.xdsoft.com/explorer/
0
SECTION
2
HEADER
9
$ACADVER
1
AC1008
9
$UCSORG
10
0.0
20
0.0
30
0.0
9
$UCSXDIR
10
1.0
20
0.0
30
0.0
9
$TILEMODE
70
1
9
$UCSYDIR
10
0.0
20
1.0
30
0.0
9
$EXTMIN
10
-110.000000
20
-136.000000
30
-136.000000
9
$EXTMAX
10
247.000000
20
78.199997
30
233.699997
0
ENDSEC
0
SECTION
2
TABLES
0
TABLE
2
LTYPE
70
1
0
LTYPE
2
CONTINUOUS
70
64
3
Solid line
72
65
73
0
40
0.0
0
ENDTAB
0
TABLE
2
LAYER
70
104
0
LAYER
2
OBJECT__0
70
0
62
253
6
CONTINUOUS
0
LAYER
2
OBJECT__1
70
0
62
253
6
CONTINUOUS
0
LAYER
2
OBJECT__3
70
0
62
253
6
CONTINUOUS
0
LAYER
2
OBJECT__4
70
0
62
253
6
CONTINUOUS
0
LAYER
2
OBJECT__5
70
0
62
253
6
CONTINUOUS
0
LAYER
2
OBJECT__7
70
0
62
253
6
CONTINUOUS
0
LAYER
2
OBJECT__8
70
0
62
253
6
CONTINUOUS
0
LAYER
2
OBJECT__9
70
0
62
253
6
CONTINUOUS
0
LAYER
2
OBJECT__11
70
0
62
253
6
CONTINUOUS
0
LAYER
2
OBJECT__12
70
0
62
253
6
CONTINUOUS
0
LAYER
2
OBJECT__13
70
0
62
253
6
CONTINUOUS
0
LAYER
2
OBJECT__15
70
0
62
253
6
CONTINUOUS
0
LAYER
2
OBJECT__16
70
0
62
253
6
CONTINUOUS
0
LAYER
2
OBJECT__17
70
0
62
253
6
CONTINUOUS
0
LAYER
2
OBJECT__18
70
0
62
253
6
CONTINUOUS
0
LAYER
2
OBJECT__19
70
0
62
253
6
CONTINUOUS
0
LAYER
2
OBJECT__20
70
0
62
253
6
CONTINUOUS
0
LAYER
2
OBJECT__21
70
0
62
253
6
CONTINUOUS
0
LAYER
2
OBJECT__22
70
0
62
253
6
CONTINUOUS
0
LAYER
2
OBJECT__23
70
0
62
253
6
CONTINUOUS
0
LAYER
2
OBJECT__24
70
0
62
253
6
CONTINUOUS
0
LAYER
2
OBJECT__25
70
0
62
253
6
CONTINUOUS
0
LAYER
2
OBJECT__26
70
0
62
253
6
CONTINUOUS
0
LAYER
2
OBJECT__28
70
0
62
253
6
CONTINUOUS
0
LAYER
2
OBJECT__29
70
0
62
253
6
CONTINUOUS
0
LAYER
2
OBJECT__30
70
0
62
253
6
CONTINUOUS
0
LAYER
2
OBJECT__31
70
0
62
253
6
CONTINUOUS
0
LAYER
2
OBJECT__32
70
0
62
253
6
CONTINUOUS
0
LAYER
2
OBJECT__33
70
0
62
253
6
CONTINUOUS
0
LAYER
2
OBJECT__34
70
0
62
253
6
CONTINUOUS
0
LAYER
2
OBJECT__35
70
0
62
253
6
CONTINUOUS
0
LAYER
2
OBJECT__36
70
0
62
253
6
CONTINUOUS
0
LAYER
2
OBJECT__37
70
0
62
253
6
CONTINUOUS
0
LAYER
2
OBJECT__38
70
0
62
253
6
CONTINUOUS
0
LAYER
2
OBJECT__39
70
0
62
253
6
CONTINUOUS
0
LAYER
2
OBJECT__40
70
0
62
253
6
CONTINUOUS
0
LAYER
2
OBJECT__41
70
0
62
253
6
CONTINUOUS
0
LAYER
2
OBJECT__42
70
0
62
253
6
CONTINUOUS
0
LAYER
2
OBJECT__43
70
0
62
253
6
CONTINUOUS
0
LAYER
2
OBJECT__44
70
0
62
253
6
CONTINUOUS
0
LAYER
2
OBJECT__46
70
0
62
253
6
CONTINUOUS
0
LAYER
2
OBJECT__48
70
0
62
253
6
CONTINUOUS
0
LAYER
2
OBJECT__49
70
0
62
253
6
CONTINUOUS
0
LAYER
2
OBJECT__51
70
0
62
253
6
CONTINUOUS
0
LAYER
2
OBJECT__52
70
0
62
253
6
CONTINUOUS
0
LAYER
2
OBJECT__53
70
0
62
253
6
CONTINUOUS
0
LAYER
2
OBJECT__55
70
0
62
253
6
CONTINUOUS
0
LAYER
2
OBJECT__56
70
0
62
253
6
CONTINUOUS
0
LAYER
2
OBJECT__57
70
0
62
253
6
CONTINUOUS
0
LAYER
2
OBJECT__59
70
0
62
253
6
CONTINUOUS
0
LAYER
2
OBJECT__60
70
0
62
253
6
CONTINUOUS
0
LAYER
2
OBJECT__61
70
0
62
253
6
CONTINUOUS
0
LAYER
2
OBJECT__62
70
0
62
253
6
CONTINUOUS
0
LAYER
2
OBJECT__63
70
0
62
253
6
CONTINUOUS
0
LAYER
2
OBJECT__64
70
0
62
253
6
CONTINUOUS
0
LAYER
2
OBJECT__65
70
0
62
253
6
CONTINUOUS
0
LAYER
2
OBJECT__66
70
0
62
253
6
CONTINUOUS
0
LAYER
2
OBJECT__67
70
0
62
253
6
CONTINUOUS
0
LAYER
2
OBJECT__68
70
0
62
253
6
CONTINUOUS
0
LAYER
2
OBJECT__69
70
0
62
253
6
CONTINUOUS
0
LAYER
2
OBJECT__70
70
0
62
253
6
CONTINUOUS
0
LAYER
2
OBJECT__71
70
0
62
253
6
CONTINUOUS
0
LAYER
2
OBJECT__72
70
0
62
253
6
CONTINUOUS
0
LAYER
2
OBJECT__73
70
0
62
253
6
CONTINUOUS
0
LAYER
2
OBJECT__74
70
0
62
253
6
CONTINUOUS
0
LAYER
2
OBJECT__75
70
0
62
253
6
CONTINUOUS
0
LAYER
2
OBJECT__76
70
0
62
253
6
CONTINUOUS
0
LAYER
2
OBJECT__77
70
0
62
253
6
CONTINUOUS
0
LAYER
2
OBJECT__78
70
0
62
253
6
CONTINUOUS
0
LAYER
2
OBJECT__79
70
0
62
253
6
CONTINUOUS
0
LAYER
2
OBJECT__80
70
0
62
253
6
CONTINUOUS
0
LAYER
2
OBJECT__82
70
0
62
253
6
CONTINUOUS
0
LAYER
2
OBJECT__83
70
0
62
253
6
CONTINUOUS
0
LAYER
2
OBJECT__84
70
0
62
253
6
CONTINUOUS
0
LAYER
2
OBJECT__85
70
0
62
253
6
CONTINUOUS
0
LAYER
2
OBJECT__86
70
0
62
253
6
CONTINUOUS
0
LAYER
2
OBJECT__87
70
0
62
253
6
CONTINUOUS
0
LAYER
2
OBJECT__88
70
0
62
253
6
CONTINUOUS
0
LAYER
2
OBJECT__89
70
0
62
253
6
CONTINUOUS
0
LAYER
2
OBJECT__90
70
0
62
253
6
CONTINUOUS
0
LAYER
2
OBJECT__92
70
0
62
253
6
CONTINUOUS
0
LAYER
2
OBJECT__93
70
0
62
253
6
CONTINUOUS
0
LAYER
2
OBJECT__94
70
0
62
253
6
CONTINUOUS
0
LAYER
2
OBJECT__95
70
0
62
253
6
CONTINUOUS
0
LAYER
2
OBJECT__96
70
0
62
253
6
CONTINUOUS
0
LAYER
2
OBJECT__98
70
0
62
253
6
CONTINUOUS
0
LAYER
2
OBJECT__99
70
0
62
253
6
CONTINUOUS
0
LAYER
2
OBJECT__100
70
0
62
253
6
CONTINUOUS
0
LAYER
2
OBJECT__102
70
0
62
253
6
CONTINUOUS
0
ENDTAB
0
TABLE
2
STYLE
70
1
0
STYLE
2
STANDARD
70
0
40
0.0
41
1.0
50
0.0
71
0
42
0.2
3
txt
4
1
0
ENDTAB
0
TABLE
2
UCS
70
0
0
ENDTAB
0
ENDSEC
0
SECTION
2
ENTITIES
0
POLYLINE
8
OBJECT__0
66
1
70
64
71
10
72
8
62
253
0
VERTEX
8
OBJECT__0
10
58.000000
20
-20.750000
30
56.450001
70
192
0
VERTEX
8
OBJECT__0
10
52.784000
20
8.830000
30
56.450001
70
192
0
VERTEX
8
OBJECT__0
10
44.792999
20
2.125000
30
56.450001
70
192
0
VERTEX
8
OBJECT__0
10
63.216000
20
8.830000
30
56.450001
70
192
0
VERTEX
8
OBJECT__0
10
67.803001
20
-17.181999
30
56.450001
70
192
0
VERTEX
8
OBJECT__0
10
42.981998
20
-8.148000
30
56.450001
70
192
0
VERTEX
8
OBJECT__0
10
73.017998
20
-8.148000
30
56.450001
70
192
0
VERTEX
8
OBJECT__0
10
58.000000
20
9.750000
30
56.450001
70
192
0
VERTEX
8
OBJECT__0
10
71.207001
20
2.125000
30
56.450001
70
192
0
VERTEX
8
OBJECT__0
10
48.196999
20
-17.181999
30
56.450001
70
192
0
VERTEX
8
OBJECT__0
10
0
20
0
30
0
70
128
71
1
72
2
73
3
0
VERTEX
8
OBJECT__0
10
0
20
0
30
0
70
128
71
4
72
1
73
5
0
VERTEX
8
OBJECT__0
10
0
20
0
30
0
70
128
71
3
72
6
73
1
0
VERTEX
8
OBJECT__0
10
0
20
0
30
0
70
128
71
5
72
7
73
4
0
VERTEX
8
OBJECT__0
10
0
20
0
30
0
70
128
71
1
72
8
73
2
0
VERTEX
8
OBJECT__0
10
0
20
0
30
0
70
128
71
7
72
9
73
4
0
VERTEX
8
OBJECT__0
10
0
20
0
30
0
70
128
71
4
72
8
73
1
0
VERTEX
8
OBJECT__0
10
0
20
0
30
0
70
128
71
6
72
10
73
1
0
SEQEND
8
OBJECT__0
0
POLYLINE
8
OBJECT__1
66
1
70
64
71
20
72
20
62
253
0
VERTEX
8
OBJECT__1
10
48.196999
20
-17.181999
30
56.450001
70
192
0
VERTEX
8
OBJECT__1
10
48.196999
20
-17.181999
30
31.950001
70
192
0
VERTEX
8
OBJECT__1
10
58.000000
20
-20.750000
30
31.950001
70
192
0
VERTEX
8
OBJECT__1
10
42.981998
20
-8.148000
30
31.950001
70
192
0
VERTEX
8
OBJECT__1
10
44.792999
20
2.125000
30
31.950001
70
192
0
VERTEX
8
OBJECT__1
10
42.981998
20
-8.148000
30
56.450001
70
192
0
VERTEX
8
OBJECT__1
10
52.784000
20
8.830000
30
56.450001
70
192
0
VERTEX
8
OBJECT__1
10
52.784000
20
8.830000
30
31.950001
70
192
0
VERTEX
8
OBJECT__1
10
58.000000
20
9.750000
30
31.950001
70
192
0
VERTEX
8
OBJECT__1
10
58.000000
20
9.750000
30
56.450001
70
192
0
VERTEX
8
OBJECT__1
10
63.216000
20
8.830000
30
56.450001
70
192
0
VERTEX
8
OBJECT__1
10
71.207001
20
2.125000
30
56.450001
70
192
0
VERTEX
8
OBJECT__1
10
71.207001
20
2.125000
30
31.950001
70
192
0
VERTEX
8
OBJECT__1
10
63.216000
20
8.830000
30
31.950001
70
192
0
VERTEX
8
OBJECT__1
10
73.017998
20
-8.148000
30
31.950001
70
192
0
VERTEX
8
OBJECT__1
10
67.803001
20
-17.181999
30
56.450001
70
192
0
VERTEX
8
OBJECT__1
10
67.803001
20
-17.181999
30
31.950001
70
192
0
VERTEX
8
OBJECT__1
10
58.000000
20
-20.750000
30
56.450001
70
192
0
VERTEX
8
OBJECT__1
10
73.017998
20
-8.148000
30
56.450001
70
192
0
VERTEX
8
OBJECT__1
10
44.792999
20
2.125000
30
56.450001
70
192
0
VERTEX
8
OBJECT__1
10
0
20
0
30
0
70
128
71
1
72
2
73
3
0
VERTEX
8
OBJECT__1
10
0
20
0
30
0
70
128
71
4
72
2
73
1
0
VERTEX
8
OBJECT__1
10
0
20
0
30
0
70
128
71
5
72
4
73
6
0
VERTEX
8
OBJECT__1
10
0
20
0
30
0
70
128
71
7
72
8
73
5
0
VERTEX
8
OBJECT__1
10
0
20
0
30
0
70
128
71
9
72
10
73
11
0
VERTEX
8
OBJECT__1
10
0
20
0
30
0
70
128
71
10
72
9
73
8
0
VERTEX
8
OBJECT__1
10
0
20
0
30
0
70
128
71
8
72
7
73
10
0
VERTEX
8
OBJECT__1
10
0
20
0
30
0
70
128
71
12
72
13
73
14
0
VERTEX
8
OBJECT__1
10
0
20
0
30
0
70
128
71
15
72
13
73
12
0
VERTEX
8
OBJECT__1
10
0
20
0
30
0
70
128
71
16
72
17
73
15
0
VERTEX
8
OBJECT__1
10
0
20
0
30
0
70
128
71
18
72
3
73
17
0
VERTEX
8
OBJECT__1
10
0
20
0
30
0
70
128
71
17
72
16
73
18
0
VERTEX
8
OBJECT__1
10
0
20
0
30
0
70
128
71
15
72
19
73
16
0
VERTEX
8
OBJECT__1
10
0
20
0
30
0
70
128
71
12
72
19
73
15
0
VERTEX
8
OBJECT__1
10
0
20
0
30
0
70
128
71
14
72
11
73
12
0
VERTEX
8
OBJECT__1
10
0
20
0
30
0
70
128
71
11
72
14
73
9
0
VERTEX
8
OBJECT__1
10
0
20
0
30
0
70
128
71
5
72
20
73
7
0
VERTEX
8
OBJECT__1
10
0
20
0
30
0
70
128
71
6
72
20
73
5
0
VERTEX
8
OBJECT__1
10
0
20
0
30
0
70
128
71
1
72
6
73
4
0
VERTEX
8
OBJECT__1
10
0
20
0
30
0
70
128
71
3
72
18
73
1
0
SEQEND
8
OBJECT__1
0
POLYLINE
8
OBJECT__3
66
1
70
64
71
10
72
8
62
253
0
VERTEX
8
OBJECT__3
10
63.216000
20
8.830000
30
31.950001
70
192
0
VERTEX
8
OBJECT__3
10
73.017998
20
-8.148000
30
31.950001
70
192
0
VERTEX
8
OBJECT__3
10
67.803001
20
-17.181999
30
31.950001
70
192
0
VERTEX
8
OBJECT__3
10
58.000000
20
-20.750000
30
31.950001
70
192
0
VERTEX
8
OBJECT__3
10
42.981998
20
-8.148000
30
31.950001
70
192
0
VERTEX
8
OBJECT__3
10
44.792999
20
2.125000
30
31.950001
70
192
0
VERTEX
8
OBJECT__3
10
71.207001
20
2.125000
30
31.950001
70
192
0
VERTEX
8
OBJECT__3
10
48.196999
20
-17.181999
30
31.950001
70
192
0
VERTEX
8
OBJECT__3
10
58.000000
20
9.750000
30
31.950001
70
192
0
VERTEX
8
OBJECT__3
10
52.784000
20
8.830000
30
31.950001
70
192
0
VERTEX
8
OBJECT__3
10
0
20
0
30
0
70
128
71
1
72
2
73
3
0
VERTEX
8
OBJECT__3
10
0
20
0
30
0
70
128
71
4
72
5
73
6
0
VERTEX
8
OBJECT__3
10
0
20
0
30
0
70
128
71
1
72
7
73
2
0
VERTEX
8
OBJECT__3
10
0
20
0
30
0
70
128
71
4
72
8
73
5
0
VERTEX
8
OBJECT__3
10
0
20
0
30
0
70
128
71
4
72
9
73
1
0
VERTEX
8
OBJECT__3
10
0
20
0
30
0
70
128
71
6
72
10
73
4
0
VERTEX
8
OBJECT__3
10
0
20
0
30
0
70
128
71
10
72
9
73
4
0
VERTEX
8
OBJECT__3
10
0
20
0
30
0
70
128
71
3
72
4
73
1
0
SEQEND
8
OBJECT__3
0
POLYLINE
8
OBJECT__4
66
1
70
64
71
15
72
15
62
253
0
VERTEX
8
OBJECT__4
10
0.000000
20
-102.500000
30
7.100000
70
192
0
VERTEX
8
OBJECT__4
10
13.315000
20
-112.174004
30
7.100000
70
192
0
VERTEX
8
OBJECT__4
10
8.229000
20
-105.174004
30
-10.078000
70
192
0
VERTEX
8
OBJECT__4
10
10.772000
20
-113.000000
30
-10.078000
70
192
0
VERTEX
8
OBJECT__4
10
8.229000
20
-127.825996
30
7.100000
70
192
0
VERTEX
8
OBJECT__4
10
13.315000
20
-120.825996
30
-10.078000
70
192
0
VERTEX
8
OBJECT__4
10
6.657000
20
-125.663002
30
-10.078000
70
192
0
VERTEX
8
OBJECT__4
10
-8.229000
20
-127.825996
30
7.100000
70
192
0
VERTEX
8
OBJECT__4
10
0.000000
20
-130.500000
30
-10.078000
70
192
0
VERTEX
8
OBJECT__4
10
-6.657000
20
-125.663002
30
-10.078000
70
192
0
VERTEX
8
OBJECT__4
10
-13.315000
20
-112.174004
30
7.100000
70
192
0
VERTEX
8
OBJECT__4
10
-10.772000
20
-113.000000
30
-10.078000
70
192
0
VERTEX
8
OBJECT__4
10
-13.315000
20
-120.825996
30
-10.078000
70
192
0
VERTEX
8
OBJECT__4
10
0.000000
20
-102.500000
30
-10.078000
70
192
0
VERTEX
8
OBJECT__4
10
-8.229000
20
-105.174004
30
-10.078000
70
192
0
VERTEX
8
OBJECT__4
10
0
20
0
30
0
70
128
71
1
72
2
73
3
0
VERTEX
8
OBJECT__4
10
0
20
0
30
0
70
128
71
2
72
4
73
3
0
VERTEX
8
OBJECT__4
10
0
20
0
30
0
70
128
71
2
72
5
73
6
0
VERTEX
8
OBJECT__4
10
0
20
0
30
0
70
128
71
5
72
7
73
6
0
VERTEX
8
OBJECT__4
10
0
20
0
30
0
70
128
71
5
72
8
73
9
0
VERTEX
8
OBJECT__4
10
0
20
0
30
0
70
128
71
8
72
10
73
9
0
VERTEX
8
OBJECT__4
10
0
20
0
30
0
70
128
71
11
72
12
73
13
0
VERTEX
8
OBJECT__4
10
0
20
0
30
0
70
128
71
13
72
8
73
11
0
VERTEX
8
OBJECT__4
10
0
20
0
30
0
70
128
71
1
72
14
73
15
0
VERTEX
8
OBJECT__4
10
0
20
0
30
0
70
128
71
15
72
11
73
1
0
VERTEX
8
OBJECT__4
10
0
20
0
30
0
70
128
71
15
72
12
73
11
0
VERTEX
8
OBJECT__4
10
0
20
0
30
0
70
128
71
13
72
10
73
8
0
VERTEX
8
OBJECT__4
10
0
20
0
30
0
70
128
71
9
72
7
73
5
0
VERTEX
8
OBJECT__4
10
0
20
0
30
0
70
128
71
6
72
4
73
2
0
VERTEX
8
OBJECT__4
10
0
20
0
30
0
70
128
71
3
72
14
73
1
0
SEQEND
8
OBJECT__4
0
POLYLINE
8
OBJECT__5
66
1
70
64
71
16
72
16
62
253
0
VERTEX
8
OBJECT__5
10
12.126000
20
-120.440002
30
-10.800000
70
192
0
VERTEX
8
OBJECT__5
10
13.315000
20
-120.825996
30
-10.078000
70
192
0
VERTEX
8
OBJECT__5
10
6.657000
20
-125.663002
30
-10.078000
70
192
0
VERTEX
8
OBJECT__5
10
0.000000
20
-129.250000
30
-10.800000
70
192
0
VERTEX
8
OBJECT__5
10
7.494000
20
-106.184998
30
-10.800000
70
192
0
VERTEX
8
OBJECT__5
10
10.772000
20
-113.000000
30
-10.078000
70
192
0
VERTEX
8
OBJECT__5
10
8.229000
20
-105.174004
30
-10.078000
70
192
0
VERTEX
8
OBJECT__5
10
-8.229000
20
-105.174004
30
-10.078000
70
192
0
VERTEX
8
OBJECT__5
10
0.000000
20
-102.500000
30
-10.078000
70
192
0
VERTEX
8
OBJECT__5
10
0.000000
20
-103.750000
30
-10.800000
70
192
0
VERTEX
8
OBJECT__5
10
-12.126000
20
-120.440002
30
-10.800000
70
192
0
VERTEX
8
OBJECT__5
10
-13.315000
20
-120.825996
30
-10.078000
70
192
0
VERTEX
8
OBJECT__5
10
-10.772000
20
-113.000000
30
-10.078000
70
192
0
VERTEX
8
OBJECT__5
10
-7.494000
20
-106.184998
30
-10.800000
70
192
0
VERTEX
8
OBJECT__5
10
0.000000
20
-130.500000
30
-10.078000
70
192
0
VERTEX
8
OBJECT__5
10
-6.657000
20
-125.663002
30
-10.078000
70
192
0
VERTEX
8
OBJECT__5
10
0
20
0
30
0
70
128
71
1
72
2
73
3
0
VERTEX
8
OBJECT__5
10
0
20
0
30
0
70
128
71
3
72
4
73
1
0
VERTEX
8
OBJECT__5
10
0
20
0
30
0
70
128
71
1
72
5
73
6
0
VERTEX
8
OBJECT__5
10
0
20
0
30
0
70
128
71
5
72
7
73
6
0
VERTEX
8
OBJECT__5
10
0
20
0
30
0
70
128
71
8
72
9
73
10
0
VERTEX
8
OBJECT__5
10
0
20
0
30
0
70
128
71
7
72
5
73
10
0
VERTEX
8
OBJECT__5
10
0
20
0
30
0
70
128
71
10
72
9
73
7
0
VERTEX
8
OBJECT__5
10
0
20
0
30
0
70
128
71
11
72
12
73
13
0
VERTEX
8
OBJECT__5
10
0
20
0
30
0
70
128
71
13
72
14
73
11
0
VERTEX
8
OBJECT__5
10
0
20
0
30
0
70
128
71
4
72
15
73
16
0
VERTEX
8
OBJECT__5
10
0
20
0
30
0
70
128
71
16
72
11
73
4
0
VERTEX
8
OBJECT__5
10
0
20
0
30
0
70
128
71
16
72
12
73
11
0
VERTEX
8
OBJECT__5
10
0
20
0
30
0
70
128
71
13
72
8
73
14
0
VERTEX
8
OBJECT__5
10
0
20
0
30
0
70
128
71
10
72
14
73
8
0
VERTEX
8
OBJECT__5
10
0
20
0
30
0
70
128
71
6
72
2
73
1
0
VERTEX
8
OBJECT__5
10
0
20
0
30
0
70
128
71
3
72
15
73
4
0
SEQEND
8
OBJECT__5
0
POLYLINE
8
OBJECT__7
66
1
70
64
71
6
72
4
62
253
0
VERTEX
8
OBJECT__7
10
0.000000
20
-129.250000
30
-10.800000
70
192
0
VERTEX
8
OBJECT__7
10
0.000000
20
-103.750000
30
-10.800000
70
192
0
VERTEX
8
OBJECT__7
10
7.494000
20
-106.184998
30
-10.800000
70
192
0
VERTEX
8
OBJECT__7
10
-12.126000
20
-120.440002
30
-10.800000
70
192
0
VERTEX
8
OBJECT__7
10
-7.494000
20
-106.184998
30
-10.800000
70
192
0
VERTEX
8
OBJECT__7
10
12.126000
20
-120.440002
30
-10.800000
70
192
0
VERTEX
8
OBJECT__7
10
0
20
0
30
0
70
128
71
1
72
2
73
3
0
VERTEX
8
OBJECT__7
10
0
20
0
30
0
70
128
71
1
72
4
73
5
0
VERTEX
8
OBJECT__7
10
0
20
0
30
0
70
128
71
5
72
2
73
1
0
VERTEX
8
OBJECT__7
10
0
20
0
30
0
70
128
71
3
72
6
73
1
0
SEQEND
8
OBJECT__7
0
POLYLINE
8
OBJECT__8
66
1
70
64
71
22
72
22
62
253
0
VERTEX
8
OBJECT__8
10
-16.368000
20
20.524000
30
22.000000
70
192
0
VERTEX
8
OBJECT__8
10
-26.252001
20
0.000000
30
22.000000
70
192
0
VERTEX
8
OBJECT__8
10
-23.381001
20
11.260000
30
56.400002
70
192
0
VERTEX
8
OBJECT__8
10
-25.951000
20
0.000000
30
56.400002
70
192
0
VERTEX
8
OBJECT__8
10
-16.180000
20
20.290001
30
56.400002
70
192
0
VERTEX
8
OBJECT__8
10
-5.775000
20
25.301001
30
56.400002
70
192
0
VERTEX
8
OBJECT__8
10
5.842000
20
25.593000
30
22.000000
70
192
0
VERTEX
8
OBJECT__8
10
23.652000
20
11.390000
30
22.000000
70
192
0
VERTEX
8
OBJECT__8
10
16.180000
20
20.290001
30
56.400002
70
192
0
VERTEX
8
OBJECT__8
10
5.775000
20
25.301001
30
56.400002
70
192
0
VERTEX
8
OBJECT__8
10
23.652000
20
-11.390000
30
22.000000
70
192
0
VERTEX
8
OBJECT__8
10
26.252001
20
0.000000
30
22.000000
70
192
0
VERTEX
8
OBJECT__8
10
25.951000
20
0.000000
30
56.400002
70
192
0
VERTEX
8
OBJECT__8
10
23.381001
20
11.260000
30
56.400002
70
192
0
VERTEX
8
OBJECT__8
10
23.381001
20
-11.260000
30
56.400002
70
192
0
VERTEX
8
OBJECT__8
10
16.180000
20
-20.290001
30
56.400002
70
192
0
VERTEX
8
OBJECT__8
10
5.842000
20
-25.593000
30
22.000000
70
192
0
VERTEX
8
OBJECT__8
10
5.775000
20
-25.301001
30
56.400002
70
192
0
VERTEX
8
OBJECT__8
10
-5.775000
20
-25.301001
30
56.400002
70
192
0
VERTEX
8
OBJECT__8
10
-16.368000
20
-20.524000
30
22.000000
70
192
0
VERTEX
8
OBJECT__8
10
-23.381001
20
-11.260000
30
56.400002
70
192
0
VERTEX
8
OBJECT__8
10
-16.180000
20
-20.290001
30
56.400002
70
192
0
VERTEX
8
OBJECT__8
10
0
20
0
30
0
70
128
71
1
72
2
73
3
0
VERTEX
8
OBJECT__8
10
0
20
0
30
0
70
128
71
2
72
4
73
3
0
VERTEX
8
OBJECT__8
10
0
20
0
30
0
70
128
71
1
72
5
73
6
0
VERTEX
8
OBJECT__8
10
0
20
0
30
0
70
128
71
6
72
7
73
1
0
VERTEX
8
OBJECT__8
10
0
20
0
30
0
70
128
71
8
72
7
73
9
0
VERTEX
8
OBJECT__8
10
0
20
0
30
0
70
128
71
7
72
10
73
9
0
VERTEX
8
OBJECT__8
10
0
20
0
30
0
70
128
71
11
72
12
73
13
0
VERTEX
8
OBJECT__8
10
0
20
0
30
0
70
128
71
12
72
8
73
14
0
VERTEX
8
OBJECT__8
10
0
20
0
30
0
70
128
71
14
72
13
73
12
0
VERTEX
8
OBJECT__8
10
0
20
0
30
0
70
128
71
11
72
15
73
16
0
VERTEX
8
OBJECT__8
10
0
20
0
30
0
70
128
71
16
72
17
73
11
0
VERTEX
8
OBJECT__8
10
0
20
0
30
0
70
128
71
17
72
18
73
19
0
VERTEX
8
OBJECT__8
10
0
20
0
30
0
70
128
71
19
72
20
73
17
0
VERTEX
8
OBJECT__8
10
0
20
0
30
0
70
128
71
2
72
20
73
21
0
VERTEX
8
OBJECT__8
10
0
20
0
30
0
70
128
71
20
72
22
73
21
0
VERTEX
8
OBJECT__8
10
0
20
0
30
0
70
128
71
21
72
4
73
2
0
VERTEX
8
OBJECT__8
10
0
20
0
30
0
70
128
71
19
72
22
73
20
0
VERTEX
8
OBJECT__8
10
0
20
0
30
0
70
128
71
16
72
18
73
17
0
VERTEX
8
OBJECT__8
10
0
20
0
30
0
70
128
71
13
72
15
73
11
0
VERTEX
8
OBJECT__8
10
0
20
0
30
0
70
128
71
9
72
14
73
8
0
VERTEX
8
OBJECT__8
10
0
20
0
30
0
70
128
71
6
72
10
73
7
0
VERTEX
8
OBJECT__8
10
0
20
0
30
0
70
128
71
3
72
5
73
1
0
SEQEND
8
OBJECT__8
0
POLYLINE
8
OBJECT__9
66
1
70
64
71
31
72
31
62
253
0
VERTEX
8
OBJECT__9
10
-16.180000
20
20.290001
30
56.400002
70
192
0
VERTEX
8
OBJECT__9
10
-14.265000
20
19.634001
30
56.400002
70
192
0
VERTEX
8
OBJECT__9
10
-7.500000
20
23.080999
30
56.400002
70
192
0
VERTEX
8
OBJECT__9
10
-23.381001
20
11.260000
30
56.400002
70
192
0
VERTEX
8
OBJECT__9
10
-19.634001
20
14.265000
30
56.400002
70
192
0
VERTEX
8
OBJECT__9
10
-23.080999
20
7.500000
30
56.400002
70
192
0
VERTEX
8
OBJECT__9
10
-25.951000
20
0.000000
30
56.400002
70
192
0
VERTEX
8
OBJECT__9
10
-24.268999
20
0.000000
30
56.400002
70
192
0
VERTEX
8
OBJECT__9
10
-23.381001
20
-11.260000
30
56.400002
70
192
0
VERTEX
8
OBJECT__9
10
-16.180000
20
-20.290001
30
56.400002
70
192
0
VERTEX
8
OBJECT__9
10
-14.265000
20
-19.634001
30
56.400002
70
192
0
VERTEX
8
OBJECT__9
10
-19.634001
20
-14.265000
30
56.400002
70
192
0
VERTEX
8
OBJECT__9
10
-5.775000
20
-25.301001
30
56.400002
70
192
0
VERTEX
8
OBJECT__9
10
-7.500000
20
-23.080999
30
56.400002
70
192
0
VERTEX
8
OBJECT__9
10
5.775000
20
-25.301001
30
56.400002
70
192
0
VERTEX
8
OBJECT__9
10
0.000000
20
-24.268999
30
56.400002
70
192
0
VERTEX
8
OBJECT__9
10
7.500000
20
23.080999
30
56.400002
70
192
0
VERTEX
8
OBJECT__9
10
5.775000
20
25.301001
30
56.400002
70
192
0
VERTEX
8
OBJECT__9
10
7.500000
20
-23.080999
30
56.400002
70
192
0
VERTEX
8
OBJECT__9
10
25.951000
20
0.000000
30
56.400002
70
192
0
VERTEX
8
OBJECT__9
10
23.381001
20
11.260000
30
56.400002
70
192
0
VERTEX
8
OBJECT__9
10
23.080999
20
7.500000
30
56.400002
70
192
0
VERTEX
8
OBJECT__9
10
16.180000
20
20.290001
30
56.400002
70
192
0
VERTEX
8
OBJECT__9
10
14.265000
20
19.634001
30
56.400002
70
192
0
VERTEX
8
OBJECT__9
10
19.634001
20
14.265000
30
56.400002
70
192
0
VERTEX
8
OBJECT__9
10
-5.775000
20
25.301001
30
56.400002
70
192
0
VERTEX
8
OBJECT__9
10
16.180000
20
-20.290001
30
56.400002
70
192
0
VERTEX
8
OBJECT__9
10
19.634001
20
-14.265000
30
56.400002
70
192
0
VERTEX
8
OBJECT__9
10
23.381001
20
-11.260000
30
56.400002
70
192
0
VERTEX
8
OBJECT__9
10
24.268999
20
0.000000
30
56.400002
70
192
0
VERTEX
8
OBJECT__9
10
23.080999
20
-7.500000
30
56.400002
70
192
0
VERTEX
8
OBJECT__9
10
0
20
0
30
0
70
128
71
1
72
2
73
3
0
VERTEX
8
OBJECT__9
10
0
20
0
30
0
70
128
71
1
72
4
73
5
0
VERTEX
8
OBJECT__9
10
0
20
0
30
0
70
128
71
5
72
2
73
1
0
VERTEX
8
OBJECT__9
10
0
20
0
30
0
70
128
71
4
72
6
73
5
0
VERTEX
8
OBJECT__9
10
0
20
0
30
0
70
128
71
7
72
8
73
6
0
VERTEX
8
OBJECT__9
10
0
20
0
30
0
70
128
71
6
72
4
73
7
0
VERTEX
8
OBJECT__9
10
0
20
0
30
0
70
128
71
8
72
7
73
9
0
VERTEX
8
OBJECT__9
10
0
20
0
30
0
70
128
71
10
72
11
73
12
0
VERTEX
8
OBJECT__9
10
0
20
0
30
0
70
128
71
10
72
13
73
14
0
VERTEX
8
OBJECT__9
10
0
20
0
30
0
70
128
71
13
72
15
73
16
0
VERTEX
8
OBJECT__9
10
0
20
0
30
0
70
128
71
3
72
17
73
18
0
VERTEX
8
OBJECT__9
10
0
20
0
30
0
70
128
71
9
72
12
73
8
0
VERTEX
8
OBJECT__9
10
0
20
0
30
0
70
128
71
14
72
11
73
10
0
VERTEX
8
OBJECT__9
10
0
20
0
30
0
70
128
71
15
72
19
73
16
0
VERTEX
8
OBJECT__9
10
0
20
0
30
0
70
128
71
20
72
21
73
22
0
VERTEX
8
OBJECT__9
10
0
20
0
30
0
70
128
71
23
72
24
73
25
0
VERTEX
8
OBJECT__9
10
0
20
0
30
0
70
128
71
23
72
18
73
17
0
VERTEX
8
OBJECT__9
10
0
20
0
30
0
70
128
71
3
72
26
73
1
0
VERTEX
8
OBJECT__9
10
0
20
0
30
0
70
128
71
16
72
14
73
13
0
VERTEX
8
OBJECT__9
10
0
20
0
30
0
70
128
71
27
72
28
73
19
0
VERTEX
8
OBJECT__9
10
0
20
0
30
0
70
128
71
21
72
25
73
22
0
VERTEX
8
OBJECT__9
10
0
20
0
30
0
70
128
71
17
72
24
73
23
0
VERTEX
8
OBJECT__9
10
0
20
0
30
0
70
128
71
12
72
9
73
10
0
VERTEX
8
OBJECT__9
10
0
20
0
30
0
70
128
71
27
72
29
73
28
0
VERTEX
8
OBJECT__9
10
0
20
0
30
0
70
128
71
25
72
21
73
23
0
VERTEX
8
OBJECT__9
10
0
20
0
30
0
70
128
71
19
72
15
73
27
0
VERTEX
8
OBJECT__9
10
0
20
0
30
0
70
128
71
20
72
30
73
31
0
VERTEX
8
OBJECT__9
10
0
20
0
30
0
70
128
71
18
72
26
73
3
0
VERTEX
8
OBJECT__9
10
0
20
0
30
0
70
128
71
31
72
29
73
20
0
VERTEX
8
OBJECT__9
10
0
20
0
30
0
70
128
71
31
72
28
73
29
0
VERTEX
8
OBJECT__9
10
0
20
0
30
0
70
128
71
22
72
30
73
20
0
SEQEND
8
OBJECT__9
0
POLYLINE
8
OBJECT__11
66
1
70
64
71
37
72
47
62
253
0
VERTEX
8
OBJECT__11
10
-16.864000
20
12.252000
30
64.200996
70
192
0
VERTEX
8
OBJECT__11
10
-20.844999
20
0.000000
30
64.200996
70
192
0
VERTEX
8
OBJECT__11
10
-15.000000
20
0.000000
30
70.400002
70
192
0
VERTEX
8
OBJECT__11
10
-6.442000
20
19.825001
30
64.200996
70
192
0
VERTEX
8
OBJECT__11
10
-12.135000
20
8.817000
30
70.400002
70
192
0
VERTEX
8
OBJECT__11
10
6.442000
20
19.825001
30
64.200996
70
192
0
VERTEX
8
OBJECT__11
10
-4.635000
20
14.266000
30
70.400002
70
192
0
VERTEX
8
OBJECT__11
10
16.864000
20
12.252000
30
64.200996
70
192
0
VERTEX
8
OBJECT__11
10
4.635000
20
14.266000
30
70.400002
70
192
0
VERTEX
8
OBJECT__11
10
20.844999
20
0.000000
30
64.200996
70
192
0
VERTEX
8
OBJECT__11
10
12.135000
20
8.817000
30
70.400002
70
192
0
VERTEX
8
OBJECT__11
10
16.864000
20
-12.252000
30
64.200996
70
192
0
VERTEX
8
OBJECT__11
10
15.000000
20
0.000000
30
70.400002
70
192
0
VERTEX
8
OBJECT__11
10
6.442000
20
-19.825001
30
64.200996
70
192
0
VERTEX
8
OBJECT__11
10
12.135000
20
-8.817000
30
70.400002
70
192
0
VERTEX
8
OBJECT__11
10
-6.442000
20
-19.825001
30
64.200996
70
192
0
VERTEX
8
OBJECT__11
10
4.635000
20
-14.266000
30
70.400002
70
192
0
VERTEX
8
OBJECT__11
10
-16.864000
20
-12.252000
30
64.200996
70
192
0
VERTEX
8
OBJECT__11
10
-4.635000
20
-14.266000
30
70.400002
70
192
0
VERTEX
8
OBJECT__11
10
-12.135000
20
-8.817000
30
70.400002
70
192
0
VERTEX
8
OBJECT__11
10
-19.634001
20
14.265000
30
56.400002
70
192
0
VERTEX
8
OBJECT__11
10
-23.080999
20
7.500000
30
56.400002
70
192
0
VERTEX
8
OBJECT__11
10
-7.500000
20
23.080999
30
56.400002
70
192
0
VERTEX
8
OBJECT__11
10
-14.265000
20
19.634001
30
56.400002
70
192
0
VERTEX
8
OBJECT__11
10
7.500000
20
23.080999
30
56.400002
70
192
0
VERTEX
8
OBJECT__11
10
19.634001
20
14.265000
30
56.400002
70
192
0
VERTEX
8
OBJECT__11
10
14.265000
20
19.634001
30
56.400002
70
192
0
VERTEX
8
OBJECT__11
10
24.268999
20
0.000000
30
56.400002
70
192
0
VERTEX
8
OBJECT__11
10
23.080999
20
7.500000
30
56.400002
70
192
0
VERTEX
8
OBJECT__11
10
19.634001
20
-14.265000
30
56.400002
70
192
0
VERTEX
8
OBJECT__11
10
23.080999
20
-7.500000
30
56.400002
70
192
0
VERTEX
8
OBJECT__11
10
7.500000
20
-23.080999
30
56.400002
70
192
0
VERTEX
8
OBJECT__11
10
-7.500000
20
-23.080999
30
56.400002
70
192
0
VERTEX
8
OBJECT__11
10
0.000000
20
-24.268999
30
56.400002
70
192
0
VERTEX
8
OBJECT__11
10
-19.634001
20
-14.265000
30
56.400002
70
192
0
VERTEX
8
OBJECT__11
10
-14.265000
20
-19.634001
30
56.400002
70
192
0
VERTEX
8
OBJECT__11
10
-24.268999
20
0.000000
30
56.400002
70
192
0
VERTEX
8
OBJECT__11
10
0
20
0
30
0
70
128
71
1
72
2
73
3
0
VERTEX
8
OBJECT__11
10
0
20
0
30
0
70
128
71
4
72
1
73
5
0
VERTEX
8
OBJECT__11
10
0
20
0
30
0
70
128
71
6
72
4
73
7
0
VERTEX
8
OBJECT__11
10
0
20
0
30
0
70
128
71
8
72
6
73
9
0
VERTEX
8
OBJECT__11
10
0
20
0
30
0
70
128
71
10
72
8
73
11
0
VERTEX
8
OBJECT__11
10
0
20
0
30
0
70
128
71
12
72
10
73
13
0
VERTEX
8
OBJECT__11
10
0
20
0
30
0
70
128
71
14
72
12
73
15
0
VERTEX
8
OBJECT__11
10
0
20
0
30
0
70
128
71
16
72
14
73
17
0
VERTEX
8
OBJECT__11
10
0
20
0
30
0
70
128
71
18
72
16
73
19
0
VERTEX
8
OBJECT__11
10
0
20
0
30
0
70
128
71
2
72
18
73
20
0
VERTEX
8
OBJECT__11
10
0
20
0
30
0
70
128
71
1
72
21
73
22
0
VERTEX
8
OBJECT__11
10
0
20
0
30
0
70
128
71
22
72
2
73
1
0
VERTEX
8
OBJECT__11
10
0
20
0
30
0
70
128
71
4
72
23
73
24
0
VERTEX
8
OBJECT__11
10
0
20
0
30
0
70
128
71
24
72
1
73
4
0
VERTEX
8
OBJECT__11
10
0
20
0
30
0
70
128
71
25
72
23
73
4
0
VERTEX
8
OBJECT__11
10
0
20
0
30
0
70
128
71
8
72
26
73
27
0
VERTEX
8
OBJECT__11
10
0
20
0
30
0
70
128
71
27
72
6
73
8
0
VERTEX
8
OBJECT__11
10
0
20
0
30
0
70
128
71
10
72
28
73
29
0
VERTEX
8
OBJECT__11
10
0
20
0
30
0
70
128
71
29
72
8
73
10
0
VERTEX
8
OBJECT__11
10
0
20
0
30
0
70
128
71
12
72
30
73
31
0
VERTEX
8
OBJECT__11
10
0
20
0
30
0
70
128
71
31
72
10
73
12
0
VERTEX
8
OBJECT__11
10
0
20
0
30
0
70
128
71
32
72
30
73
12
0
VERTEX
8
OBJECT__11
10
0
20
0
30
0
70
128
71
16
72
33
73
34
0
VERTEX
8
OBJECT__11
10
0
20
0
30
0
70
128
71
34
72
14
73
16
0
VERTEX
8
OBJECT__11
10
0
20
0
30
0
70
128
71
18
72
35
73
36
0
VERTEX
8
OBJECT__11
10
0
20
0
30
0
70
128
71
36
72
16
73
18
0
VERTEX
8
OBJECT__11
10
0
20
0
30
0
70
128
71
37
72
35
73
18
0
VERTEX
8
OBJECT__11
10
0
20
0
30
0
70
128
71
18
72
2
73
37
0
VERTEX
8
OBJECT__11
10
0
20
0
30
0
70
128
71
36
72
33
73
16
0
VERTEX
8
OBJECT__11
10
0
20
0
30
0
70
128
71
34
72
32
73
14
0
VERTEX
8
OBJECT__11
10
0
20
0
30
0
70
128
71
12
72
14
73
32
0
VERTEX
8
OBJECT__11
10
0
20
0
30
0
70
128
71
31
72
28
73
10
0
VERTEX
8
OBJECT__11
10
0
20
0
30
0
70
128
71
29
72
26
73
8
0
VERTEX
8
OBJECT__11
10
0
20
0
30
0
70
128
71
27
72
25
73
6
0
VERTEX
8
OBJECT__11
10
0
20
0
30
0
70
128
71
4
72
6
73
25
0
VERTEX
8
OBJECT__11
10
0
20
0
30
0
70
128
71
24
72
21
73
1
0
VERTEX
8
OBJECT__11
10
0
20
0
30
0
70
128
71
22
72
37
73
2
0
VERTEX
8
OBJECT__11
10
0
20
0
30
0
70
128
71
20
72
3
73
2
0
VERTEX
8
OBJECT__11
10
0
20
0
30
0
70
128
71
19
72
20
73
18
0
VERTEX
8
OBJECT__11
10
0
20
0
30
0
70
128
71
17
72
19
73
16
0
VERTEX
8
OBJECT__11
10
0
20
0
30
0
70
128
71
15
72
17
73
14
0
VERTEX
8
OBJECT__11
10
0
20
0
30
0
70
128
71
13
72
15
73
12
0
VERTEX
8
OBJECT__11
10
0
20
0
30
0
70
128
71
11
72
13
73
10
0
VERTEX
8
OBJECT__11
10
0
20
0
30
0
70
128
71
9
72
11
73
8
0
VERTEX
8
OBJECT__11
10
0
20
0
30
0
70
128
71
7
72
9
73
6
0
VERTEX
8
OBJECT__11
10
0
20
0
30
0
70
128
71
5
72
7
73
4
0
VERTEX
8
OBJECT__11
10
0
20
0
30
0
70
128
71
3
72
5
73
1
0
SEQEND
8
OBJECT__11
0
POLYLINE
8
OBJECT__12
66
1
70
64
71
6
72
4
62
253
0
VERTEX
8
OBJECT__12
10
-25.348000
20
-5.808000
30
58.685001
70
192
0
VERTEX
8
OBJECT__12
10
25.348000
20
-5.808000
30
58.685001
70
192
0
VERTEX
8
OBJECT__12
10
11.281000
20
-23.448000
30
58.685001
70
192
0
VERTEX
8
OBJECT__12
10
-11.281000
20
-23.448000
30
58.685001
70
192
0
VERTEX
8
OBJECT__12
10
-26.000000
20
-0.023000
30
58.685001
70
192
0
VERTEX
8
OBJECT__12
10
26.000000
20
-0.023000
30
58.685001
70
192
0
VERTEX
8
OBJECT__12
10
0
20
0
30
0
70
128
71
1
72
2
73
3
0
VERTEX
8
OBJECT__12
10
0
20
0
30
0
70
128
71
3
72
4
73
1
0
VERTEX
8
OBJECT__12
10
0
20
0
30
0
70
128
71
5
72
6
73
2
0
VERTEX
8
OBJECT__12
10
0
20
0
30
0
70
128
71
1
72
5
73
2
0
SEQEND
8
OBJECT__12
0
POLYLINE
8
OBJECT__13
66
1
70
64
71
9
72
7
62
253
0
VERTEX
8
OBJECT__13
10
0.193000
20
24.785999
30
74.188004
70
192
0
VERTEX
8
OBJECT__13
10
4.783000
20
25.534000
30
74.654999
70
192
0
VERTEX
8
OBJECT__13
10
20.004000
20
16.584999
30
69.063004
70
192
0
VERTEX
8
OBJECT__13
10
-19.177999
20
15.193000
30
68.193001
70
192
0
VERTEX
8
OBJECT__13
10
-12.644000
20
22.695999
30
72.880997
70
192
0
VERTEX
8
OBJECT__13
10
20.170000
20
16.125999
30
68.776001
70
192
0
VERTEX
8
OBJECT__13
10
-26.000000
20
-0.023000
30
58.685001
70
192
0
VERTEX
8
OBJECT__13
10
-24.240000
20
9.380000
30
64.560997
70
192
0
VERTEX
8
OBJECT__13
10
26.000000
20
-0.023000
30
58.685001
70
192
0
VERTEX
8
OBJECT__13
10
0
20
0
30
0
70
128
71
1
72
2
73
3
0
VERTEX
8
OBJECT__13
10
0
20
0
30
0
70
128
71
4
72
5
73
1
0
VERTEX
8
OBJECT__13
10
0
20
0
30
0
70
128
71
1
72
6
73
4
0
VERTEX
8
OBJECT__13
10
0
20
0
30
0
70
128
71
6
72
7
73
8
0
VERTEX
8
OBJECT__13
10
0
20
0
30
0
70
128
71
8
72
4
73
6
0
VERTEX
8
OBJECT__13
10
0
20
0
30
0
70
128
71
3
72
6
73
1
0
VERTEX
8
OBJECT__13
10
0
20
0
30
0
70
128
71
6
72
9
73
7
0
SEQEND
8
OBJECT__13
0
POLYLINE
8
OBJECT__15
66
1
70
64
71
24
72
24
62
253
0
VERTEX
8
OBJECT__15
10
11.281000
20
-23.448000
30
58.685001
70
192
0
VERTEX
8
OBJECT__15
10
25.348000
20
-5.808000
30
58.685001
70
192
0
VERTEX
8
OBJECT__15
10
13.191000
20
-22.427999
30
81.184998
70
192
0
VERTEX
8
OBJECT__15
10
25.348000
20
-5.808000
30
92.684998
70
192
0
VERTEX
8
OBJECT__15
10
13.191000
20
-22.427999
30
92.684998
70
192
0
VERTEX
8
OBJECT__15
10
11.281000
20
-23.448000
30
81.184998
70
192
0
VERTEX
8
OBJECT__15
10
-11.281000
20
-23.448000
30
81.184998
70
192
0
VERTEX
8
OBJECT__15
10
-25.348000
20
-5.808000
30
92.684998
70
192
0
VERTEX
8
OBJECT__15
10
-25.348000
20
-5.808000
30
58.685001
70
192
0
VERTEX
8
OBJECT__15
10
-13.191000
20
-22.427999
30
81.184998
70
192
0
VERTEX
8
OBJECT__15
10
-11.281000
20
-23.448000
30
58.685001
70
192
0
VERTEX
8
OBJECT__15
10
26.000000
20
-0.023000
30
58.685001
70
192
0
VERTEX
8
OBJECT__15
10
20.170000
20
16.125999
30
68.776001
70
192
0
VERTEX
8
OBJECT__15
10
20.327999
20
16.188000
30
92.684998
70
192
0
VERTEX
8
OBJECT__15
10
20.004000
20
16.584999
30
69.063004
70
192
0
VERTEX
8
OBJECT__15
10
4.783000
20
25.534000
30
74.654999
70
192
0
VERTEX
8
OBJECT__15
10
0.000000
20
25.976999
30
92.684998
70
192
0
VERTEX
8
OBJECT__15
10
0.193000
20
24.785999
30
74.188004
70
192
0
VERTEX
8
OBJECT__15
10
-12.644000
20
22.695999
30
72.880997
70
192
0
VERTEX
8
OBJECT__15
10
-20.327999
20
16.188000
30
92.684998
70
192
0
VERTEX
8
OBJECT__15
10
-24.240000
20
9.380000
30
64.560997
70
192
0
VERTEX
8
OBJECT__15
10
-26.000000
20
-0.023000
30
58.685001
70
192
0
VERTEX
8
OBJECT__15
10
-19.177999
20
15.193000
30
68.193001
70
192
0
VERTEX
8
OBJECT__15
10
-13.191000
20
-22.427999
30
92.684998
70
192
0
VERTEX
8
OBJECT__15
10
0
20
0
30
0
70
128
71
1
72
2
73
3
0
VERTEX
8
OBJECT__15
10
0
20
0
30
0
70
128
71
4
72
5
73
3
0
VERTEX
8
OBJECT__15
10
0
20
0
30
0
70
128
71
3
72
2
73
4
0
VERTEX
8
OBJECT__15
10
0
20
0
30
0
70
128
71
1
72
6
73
7
0
VERTEX
8
OBJECT__15
10
0
20
0
30
0
70
128
71
8
72
9
73
10
0
VERTEX
8
OBJECT__15
10
0
20
0
30
0
70
128
71
11
72
7
73
10
0
VERTEX
8
OBJECT__15
10
0
20
0
30
0
70
128
71
10
72
9
73
11
0
VERTEX
8
OBJECT__15
10
0
20
0
30
0
70
128
71
4
72
12
73
13
0
VERTEX
8
OBJECT__15
10
0
20
0
30
0
70
128
71
4
72
2
73
12
0
VERTEX
8
OBJECT__15
10
0
20
0
30
0
70
128
71
14
72
15
73
16
0
VERTEX
8
OBJECT__15
10
0
20
0
30
0
70
128
71
14
72
13
73
15
0
VERTEX
8
OBJECT__15
10
0
20
0
30
0
70
128
71
16
72
17
73
14
0
VERTEX
8
OBJECT__15
10
0
20
0
30
0
70
128
71
17
72
18
73
19
0
VERTEX
8
OBJECT__15
10
0
20
0
30
0
70
128
71
19
72
20
73
17
0
VERTEX
8
OBJECT__15
10
0
20
0
30
0
70
128
71
8
72
21
73
22
0
VERTEX
8
OBJECT__15
10
0
20
0
30
0
70
128
71
8
72
20
73
23
0
VERTEX
8
OBJECT__15
10
0
20
0
30
0
70
128
71
23
72
21
73
8
0
VERTEX
8
OBJECT__15
10
0
20
0
30
0
70
128
71
22
72
9
73
8
0
VERTEX
8
OBJECT__15
10
0
20
0
30
0
70
128
71
19
72
23
73
20
0
VERTEX
8
OBJECT__15
10
0
20
0
30
0
70
128
71
16
72
18
73
17
0
VERTEX
8
OBJECT__15
10
0
20
0
30
0
70
128
71
13
72
14
73
4
0
VERTEX
8
OBJECT__15
10
0
20
0
30
0
70
128
71
10
72
24
73
8
0
VERTEX
8
OBJECT__15
10
0
20
0
30
0
70
128
71
7
72
11
73
1
0
VERTEX
8
OBJECT__15
10
0
20
0
30
0
70
128
71
3
72
6
73
1
0
SEQEND
8
OBJECT__15
0
POLYLINE
8
OBJECT__16
66
1
70
64
71
6
72
4
62
253
0
VERTEX
8
OBJECT__16
10
-13.191000
20
-22.427999
30
81.184998
70
192
0
VERTEX
8
OBJECT__16
10
-10.305000
20
-25.351000
30
81.184998
70
192
0
VERTEX
8
OBJECT__16
10
-10.305000
20
-25.351000
30
92.684998
70
192
0
VERTEX
8
OBJECT__16
10
-9.250000
20
-29.322001
30
92.684998
70
192
0
VERTEX
8
OBJECT__16
10
-9.250000
20
-29.322001
30
81.184998
70
192
0
VERTEX
8
OBJECT__16
10
-13.191000
20
-22.427999
30
92.684998
70
192
0
VERTEX
8
OBJECT__16
10
0
20
0
30
0
70
128
71
1
72
2
73
3
0
VERTEX
8
OBJECT__16
10
0
20
0
30
0
70
128
71
4
72
3
73
2
0
VERTEX
8
OBJECT__16
10
0
20
0
30
0
70
128
71
2
72
5
73
4
0
VERTEX
8
OBJECT__16
10
0
20
0
30
0
70
128
71
3
72
6
73
1
0
SEQEND
8
OBJECT__16
0
POLYLINE
8
OBJECT__17
66
1
70
64
71
4
72
2
62
253
0
VERTEX
8
OBJECT__17
10
-9.250000
20
-97.023003
30
81.184998
70
192
0
VERTEX
8
OBJECT__17
10
-9.250000
20
-97.023003
30
92.684998
70
192
0
VERTEX
8
OBJECT__17
10
-9.250000
20
-29.322001
30
92.684998
70
192
0
VERTEX
8
OBJECT__17
10
-9.250000
20
-29.322001
30
81.184998
70
192
0
VERTEX
8
OBJECT__17
10
0
20
0
30
0
70
128
71
1
72
2
73
3
0
VERTEX
8
OBJECT__17
10
0
20
0
30
0
70
128
71
3
72
4
73
1
0
SEQEND
8
OBJECT__17
0
POLYLINE
8
OBJECT__18
66
1
70
64
71
6
72
4
62
253
0
VERTEX
8
OBJECT__18
10
9.250000
20
-29.322001
30
92.684998
70
192
0
VERTEX
8
OBJECT__18
10
9.250000
20
-29.322001
30
81.184998
70
192
0
VERTEX
8
OBJECT__18
10
10.305000
20
-25.351000
30
81.184998
70
192
0
VERTEX
8
OBJECT__18
10
13.191000
20
-22.427999
30
81.184998
70
192
0
VERTEX
8
OBJECT__18
10
13.191000
20
-22.427999
30
92.684998
70
192
0
VERTEX
8
OBJECT__18
10
10.305000
20
-25.351000
30
92.684998
70
192
0
VERTEX
8
OBJECT__18
10
0
20
0
30
0
70
128
71
1
72
2
73
3
0
VERTEX
8
OBJECT__18
10
0
20
0
30
0
70
128
71
4
72
5
73
6
0
VERTEX
8
OBJECT__18
10
0
20
0
30
0
70
128
71
6
72
3
73
4
0
VERTEX
8
OBJECT__18
10
0
20
0
30
0
70
128
71
3
72
6
73
1
0
SEQEND
8
OBJECT__18
0
POLYLINE
8
OBJECT__19
66
1
70
64
71
4
72
2
62
253
0
VERTEX
8
OBJECT__19
10
9.250000
20
-97.023003
30
92.684998
70
192
0
VERTEX
8
OBJECT__19
10
9.250000
20
-97.023003
30
81.184998
70
192
0
VERTEX
8
OBJECT__19
10
9.250000
20
-29.322001
30
81.184998
70
192
0
VERTEX
8
OBJECT__19
10
9.250000
20
-29.322001
30
92.684998
70
192
0
VERTEX
8
OBJECT__19
10
0
20
0
30
0
70
128
71
1
72
2
73
3
0
VERTEX
8
OBJECT__19
10
0
20
0
30
0
70
128
71
3
72
4
73
1
0
SEQEND
8
OBJECT__19
0
POLYLINE
8
OBJECT__20
66
1
70
64
71
17
72
15
62
253
0
VERTEX
8
OBJECT__20
10
9.250000
20
-97.023003
30
92.684998
70
192
0
VERTEX
8
OBJECT__20
10
-6.250000
20
-100.023003
30
92.684998
70
192
0
VERTEX
8
OBJECT__20
10
6.250000
20
-100.023003
30
92.684998
70
192
0
VERTEX
8
OBJECT__20
10
9.250000
20
-29.322001
30
92.684998
70
192
0
VERTEX
8
OBJECT__20
10
-9.250000
20
-29.322001
30
92.684998
70
192
0
VERTEX
8
OBJECT__20
10
-9.250000
20
-97.023003
30
92.684998
70
192
0
VERTEX
8
OBJECT__20
10
8.371000
20
-99.143997
30
92.684998
70
192
0
VERTEX
8
OBJECT__20
10
-8.371000
20
-99.143997
30
92.684998
70
192
0
VERTEX
8
OBJECT__20
10
-25.348000
20
-5.808000
30
92.684998
70
192
0
VERTEX
8
OBJECT__20
10
20.327999
20
16.188000
30
92.684998
70
192
0
VERTEX
8
OBJECT__20
10
0.000000
20
25.976999
30
92.684998
70
192
0
VERTEX
8
OBJECT__20
10
-10.305000
20
-25.351000
30
92.684998
70
192
0
VERTEX
8
OBJECT__20
10
10.305000
20
-25.351000
30
92.684998
70
192
0
VERTEX
8
OBJECT__20
10
13.191000
20
-22.427999
30
92.684998
70
192
0
VERTEX
8
OBJECT__20
10
-13.191000
20
-22.427999
30
92.684998
70
192
0
VERTEX
8
OBJECT__20
10
-20.327999
20
16.188000
30
92.684998
70
192
0
VERTEX
8
OBJECT__20
10
25.348000
20
-5.808000
30
92.684998
70
192
0
VERTEX
8
OBJECT__20
10
0
20
0
30
0
70
128
71
1
72
2
73
3
0
VERTEX
8
OBJECT__20
10
0
20
0
30
0
70
128
71
4
72
5
73
6
0
VERTEX
8
OBJECT__20
10
0
20
0
30
0
70
128
71
3
72
7
73
1
0
VERTEX
8
OBJECT__20
10
0
20
0
30
0
70
128
71
6
72
2
73
4
0
VERTEX
8
OBJECT__20
10
0
20
0
30
0
70
128
71
6
72
8
73
2
0
VERTEX
8
OBJECT__20
10
0
20
0
30
0
70
128
71
1
72
4
73
2
0
VERTEX
8
OBJECT__20
10
0
20
0
30
0
70
128
71
9
72
10
73
11
0
VERTEX
8
OBJECT__20
10
0
20
0
30
0
70
128
71
12
72
13
73
14
0
VERTEX
8
OBJECT__20
10
0
20
0
30
0
70
128
71
13
72
12
73
5
0
VERTEX
8
OBJECT__20
10
0
20
0
30
0
70
128
71
10
72
15
73
12
0
VERTEX
8
OBJECT__20
10
0
20
0
30
0
70
128
71
11
72
16
73
9
0
VERTEX
8
OBJECT__20
10
0
20
0
30
0
70
128
71
4
72
13
73
5
0
VERTEX
8
OBJECT__20
10
0
20
0
30
0
70
128
71
9
72
15
73
10
0
VERTEX
8
OBJECT__20
10
0
20
0
30
0
70
128
71
12
72
17
73
10
0
VERTEX
8
OBJECT__20
10
0
20
0
30
0
70
128
71
14
72
17
73
12
0
SEQEND
8
OBJECT__20
0
POLYLINE
8
OBJECT__21
66
1
70
64
71
14
72
12
62
253
0
VERTEX
8
OBJECT__21
10
-9.250000
20
-97.023003
30
81.184998
70
192
0
VERTEX
8
OBJECT__21
10
6.250000
20
-100.023003
30
81.184998
70
192
0
VERTEX
8
OBJECT__21
10
-6.250000
20
-100.023003
30
81.184998
70
192
0
VERTEX
8
OBJECT__21
10
-9.250000
20
-29.322001
30
81.184998
70
192
0
VERTEX
8
OBJECT__21
10
9.250000
20
-29.322001
30
81.184998
70
192
0
VERTEX
8
OBJECT__21
10
9.250000
20
-97.023003
30
81.184998
70
192
0
VERTEX
8
OBJECT__21
10
-8.371000
20
-99.143997
30
81.184998
70
192
0
VERTEX
8
OBJECT__21
10
8.371000
20
-99.143997
30
81.184998
70
192
0
VERTEX
8
OBJECT__21
10
10.305000
20
-25.351000
30
81.184998
70
192
0
VERTEX
8
OBJECT__21
10
-10.305000
20
-25.351000
30
81.184998
70
192
0
VERTEX
8
OBJECT__21
10
-13.191000
20
-22.427999
30
81.184998
70
192
0
VERTEX
8
OBJECT__21
10
-11.281000
20
-23.448000
30
81.184998
70
192
0
VERTEX
8
OBJECT__21
10
11.281000
20
-23.448000
30
81.184998
70
192
0
VERTEX
8
OBJECT__21
10
13.191000
20
-22.427999
30
81.184998
70
192
0
VERTEX
8
OBJECT__21
10
0
20
0
30
0
70
128
71
1
72
2
73
3
0
VERTEX
8
OBJECT__21
10
0
20
0
30
0
70
128
71
4
72
5
73
6
0
VERTEX
8
OBJECT__21
10
0
20
0
30
0
70
128
71
3
72
7
73
1
0
VERTEX
8
OBJECT__21
10
0
20
0
30
0
70
128
71
6
72
2
73
4
0
VERTEX
8
OBJECT__21
10
0
20
0
30
0
70
128
71
6
72
8
73
2
0
VERTEX
8
OBJECT__21
10
0
20
0
30
0
70
128
71
4
72
9
73
5
0
VERTEX
8
OBJECT__21
10
0
20
0
30
0
70
128
71
10
72
11
73
12
0
VERTEX
8
OBJECT__21
10
0
20
0
30
0
70
128
71
1
72
4
73
2
0
VERTEX
8
OBJECT__21
10
0
20
0
30
0
70
128
71
4
72
10
73
9
0
VERTEX
8
OBJECT__21
10
0
20
0
30
0
70
128
71
9
72
12
73
13
0
VERTEX
8
OBJECT__21
10
0
20
0
30
0
70
128
71
13
72
14
73
9
0
VERTEX
8
OBJECT__21
10
0
20
0
30
0
70
128
71
12
72
9
73
10
0
SEQEND
8
OBJECT__21
0
POLYLINE
8
OBJECT__22
66
1
70
64
71
4
72
2
62
253
0
VERTEX
8
OBJECT__22
10
6.250000
20
-100.023003
30
81.184998
70
192
0
VERTEX
8
OBJECT__22
10
6.250000
20
-100.023003
30
92.684998
70
192
0
VERTEX
8
OBJECT__22
10
-6.250000
20
-100.023003
30
92.684998
70
192
0
VERTEX
8
OBJECT__22
10
-6.250000
20
-100.023003
30
81.184998
70
192
0
VERTEX
8
OBJECT__22
10
0
20
0
30
0
70
128
71
1
72
2
73
3
0
VERTEX
8
OBJECT__22
10
0
20
0
30
0
70
128
71
3
72
4
73
1
0
SEQEND
8
OBJECT__22
0
POLYLINE
8
OBJECT__23
66
1
70
64
71
6
72
4
62
253
0
VERTEX
8
OBJECT__23
10
9.250000
20
-97.023003
30
81.184998
70
192
0
VERTEX
8
OBJECT__23
10
9.250000
20
-97.023003
30
92.684998
70
192
0
VERTEX
8
OBJECT__23
10
8.371000
20
-99.143997
30
92.684998
70
192
0
VERTEX
8
OBJECT__23
10
6.250000
20
-100.023003
30
92.684998
70
192
0
VERTEX
8
OBJECT__23
10
6.250000
20
-100.023003
30
81.184998
70
192
0
VERTEX
8
OBJECT__23
10
8.371000
20
-99.143997
30
81.184998
70
192
0
VERTEX
8
OBJECT__23
10
0
20
0
30
0
70
128
71
1
72
2
73
3
0
VERTEX
8
OBJECT__23
10
0
20
0
30
0
70
128
71
4
72
5
73
6
0
VERTEX
8
OBJECT__23
10
0
20
0
30
0
70
128
71
6
72
3
73
4
0
VERTEX
8
OBJECT__23
10
0
20
0
30
0
70
128
71
3
72
6
73
1
0
SEQEND
8
OBJECT__23
0
POLYLINE
8
OBJECT__24
66
1
70
64
71
6
72
4
62
253
0
VERTEX
8
OBJECT__24
10
-6.250000
20
-100.023003
30
81.184998
70
192
0
VERTEX
8
OBJECT__24
10
-6.250000
20
-100.023003
30
92.684998
70
192
0
VERTEX
8
OBJECT__24
10
-8.371000
20
-99.143997
30
92.684998
70
192
0
VERTEX
8
OBJECT__24
10
-9.250000
20
-97.023003
30
92.684998
70
192
0
VERTEX
8
OBJECT__24
10
-9.250000
20
-97.023003
30
81.184998
70
192
0
VERTEX
8
OBJECT__24
10
-8.371000
20
-99.143997
30
81.184998
70
192
0
VERTEX
8
OBJECT__24
10
0
20
0
30
0
70
128
71
1
72
2
73
3
0
VERTEX
8
OBJECT__24
10
0
20
0
30
0
70
128
71
4
72
5
73
6
0
VERTEX
8
OBJECT__24
10
0
20
0
30
0
70
128
71
6
72
3
73
4
0
VERTEX
8
OBJECT__24
10
0
20
0
30
0
70
128
71
3
72
6
73
1
0
SEQEND
8
OBJECT__24
0
POLYLINE
8
OBJECT__25
66
1
70
64
71
18
72
18
62
253
0
VERTEX
8
OBJECT__25
10
217.830002
20
42.191002
30
28.200001
70
192
0
VERTEX
8
OBJECT__25
10
213.500000
20
33.200001
30
28.200001
70
192
0
VERTEX
8
OBJECT__25
10
214.000000
20
33.200001
30
28.700001
70
192
0
VERTEX
8
OBJECT__25
10
227.447998
20
43.924000
30
28.700001
70
192
0
VERTEX
8
OBJECT__25
10
227.559006
20
44.411999
30
28.200001
70
192
0
VERTEX
8
OBJECT__25
10
221.688995
20
43.071999
30
28.200001
70
192
0
VERTEX
8
OBJECT__25
10
218.141998
20
41.799999
30
28.700001
70
192
0
VERTEX
8
OBJECT__25
10
234.910995
20
37.973000
30
28.700001
70
192
0
VERTEX
8
OBJECT__25
10
233.852005
20
39.393002
30
28.200001
70
192
0
VERTEX
8
OBJECT__25
10
235.360992
20
38.189999
30
28.200001
70
192
0
VERTEX
8
OBJECT__25
10
235.360992
20
28.209999
30
28.200001
70
192
0
VERTEX
8
OBJECT__25
10
227.447998
20
22.476000
30
28.700001
70
192
0
VERTEX
8
OBJECT__25
10
227.559006
20
21.988001
30
28.200001
70
192
0
VERTEX
8
OBJECT__25
10
233.852005
20
27.007000
30
28.200001
70
192
0
VERTEX
8
OBJECT__25
10
234.910995
20
28.427000
30
28.700001
70
192
0
VERTEX
8
OBJECT__25
10
218.141998
20
24.600000
30
28.700001
70
192
0
VERTEX
8
OBJECT__25
10
221.688995
20
23.327999
30
28.200001
70
192
0
VERTEX
8
OBJECT__25
10
217.830002
20
24.209000
30
28.200001
70
192
0
VERTEX
8
OBJECT__25
10
0
20
0
30
0
70
128
71
1
72
2
73
3
0
VERTEX
8
OBJECT__25
10
0
20
0
30
0
70
128
71
4
72
5
73
6
0
VERTEX
8
OBJECT__25
10
0
20
0
30
0
70
128
71
6
72
7
73
4
0
VERTEX
8
OBJECT__25
10
0
20
0
30
0
70
128
71
4
72
8
73
9
0
VERTEX
8
OBJECT__25
10
0
20
0
30
0
70
128
71
8
72
10
73
9
0
VERTEX
8
OBJECT__25
10
0
20
0
30
0
70
128
71
11
72
10
73
8
0
VERTEX
8
OBJECT__25
10
0
20
0
30
0
70
128
71
12
72
13
73
14
0
VERTEX
8
OBJECT__25
10
0
20
0
30
0
70
128
71
14
72
15
73
12
0
VERTEX
8
OBJECT__25
10
0
20
0
30
0
70
128
71
12
72
16
73
17
0
VERTEX
8
OBJECT__25
10
0
20
0
30
0
70
128
71
16
72
18
73
17
0
VERTEX
8
OBJECT__25
10
0
20
0
30
0
70
128
71
18
72
16
73
3
0
VERTEX
8
OBJECT__25
10
0
20
0
30
0
70
128
71
3
72
2
73
18
0
VERTEX
8
OBJECT__25
10
0
20
0
30
0
70
128
71
17
72
13
73
12
0
VERTEX
8
OBJECT__25
10
0
20
0
30
0
70
128
71
14
72
11
73
15
0
VERTEX
8
OBJECT__25
10
0
20
0
30
0
70
128
71
8
72
15
73
11
0
VERTEX
8
OBJECT__25
10
0
20
0
30
0
70
128
71
9
72
5
73
4
0
VERTEX
8
OBJECT__25
10
0
20
0
30
0
70
128
71
6
72
1
73
7
0
VERTEX
8
OBJECT__25
10
0
20
0
30
0
70
128
71
3
72
7
73
1
0
SEQEND
8
OBJECT__25
0
POLYLINE
8
OBJECT__26
66
1
70
64
71
16
72
16
62
253
0
VERTEX
8
OBJECT__26
10
213.500000
20
33.200001
30
25.500000
70
192
0
VERTEX
8
OBJECT__26
10
213.500000
20
33.200001
30
28.200001
70
192
0
VERTEX
8
OBJECT__26
10
217.830002
20
42.191002
30
28.200001
70
192
0
VERTEX
8
OBJECT__26
10
221.445999
20
44.137001
30
25.500000
70
192
0
VERTEX
8
OBJECT__26
10
234.304001
20
39.959999
30
25.500000
70
192
0
VERTEX
8
OBJECT__26
10
227.559006
20
44.411999
30
28.200001
70
192
0
VERTEX
8
OBJECT__26
10
221.688995
20
43.071999
30
28.200001
70
192
0
VERTEX
8
OBJECT__26
10
234.304001
20
26.440001
30
25.500000
70
192
0
VERTEX
8
OBJECT__26
10
235.360992
20
38.189999
30
28.200001
70
192
0
VERTEX
8
OBJECT__26
10
235.360992
20
28.209999
30
28.200001
70
192
0
VERTEX
8
OBJECT__26
10
233.852005
20
39.393002
30
28.200001
70
192
0
VERTEX
8
OBJECT__26
10
233.852005
20
27.007000
30
28.200001
70
192
0
VERTEX
8
OBJECT__26
10
227.559006
20
21.988001
30
28.200001
70
192
0
VERTEX
8
OBJECT__26
10
221.445999
20
22.263000
30
25.500000
70
192
0
VERTEX
8
OBJECT__26
10
217.830002
20
24.209000
30
28.200001
70
192
0
VERTEX
8
OBJECT__26
10
221.688995
20
23.327999
30
28.200001
70
192
0
VERTEX
8
OBJECT__26
10
0
20
0
30
0
70
128
71
1
72
2
73
3
0
VERTEX
8
OBJECT__26
10
0
20
0
30
0
70
128
71
3
72
4
73
1
0
VERTEX
8
OBJECT__26
10
0
20
0
30
0
70
128
71
5
72
4
73
6
0
VERTEX
8
OBJECT__26
10
0
20
0
30
0
70
128
71
4
72
7
73
6
0
VERTEX
8
OBJECT__26
10
0
20
0
30
0
70
128
71
8
72
5
73
9
0
VERTEX
8
OBJECT__26
10
0
20
0
30
0
70
128
71
9
72
10
73
8
0
VERTEX
8
OBJECT__26
10
0
20
0
30
0
70
128
71
5
72
11
73
9
0
VERTEX
8
OBJECT__26
10
0
20
0
30
0
70
128
71
8
72
12
73
13
0
VERTEX
8
OBJECT__26
10
0
20
0
30
0
70
128
71
13
72
14
73
8
0
VERTEX
8
OBJECT__26
10
0
20
0
30
0
70
128
71
1
72
14
73
15
0
VERTEX
8
OBJECT__26
10
0
20
0
30
0
70
128
71
14
72
16
73
15
0
VERTEX
8
OBJECT__26
10
0
20
0
30
0
70
128
71
15
72
2
73
1
0
VERTEX
8
OBJECT__26
10
0
20
0
30
0
70
128
71
13
72
16
73
14
0
VERTEX
8
OBJECT__26
10
0
20
0
30
0
70
128
71
10
72
12
73
8
0
VERTEX
8
OBJECT__26
10
0
20
0
30
0
70
128
71
6
72
11
73
5
0
VERTEX
8
OBJECT__26
10
0
20
0
30
0
70
128
71
3
72
7
73
4
0
SEQEND
8
OBJECT__26
0
POLYLINE
8
OBJECT__28
66
1
70
64
71
15
72
15
62
253
0
VERTEX
8
OBJECT__28
10
213.500000
20
33.200001
30
25.500000
70
192
0
VERTEX
8
OBJECT__28
10
221.445999
20
44.137001
30
25.500000
70
192
0
VERTEX
8
OBJECT__28
10
217.276993
20
38.811001
30
25.200001
70
192
0
VERTEX
8
OBJECT__28
10
221.354004
20
44.422001
30
25.200001
70
192
0
VERTEX
8
OBJECT__28
10
234.304001
20
39.959999
30
25.500000
70
192
0
VERTEX
8
OBJECT__28
10
234.546005
20
40.136002
30
25.200001
70
192
0
VERTEX
8
OBJECT__28
10
227.949997
20
42.278999
30
25.200001
70
192
0
VERTEX
8
OBJECT__28
10
234.304001
20
26.440001
30
25.500000
70
192
0
VERTEX
8
OBJECT__28
10
234.546005
20
33.200001
30
25.200001
70
192
0
VERTEX
8
OBJECT__28
10
234.546005
20
26.264000
30
25.200001
70
192
0
VERTEX
8
OBJECT__28
10
221.445999
20
22.263000
30
25.500000
70
192
0
VERTEX
8
OBJECT__28
10
221.354004
20
21.978001
30
25.200001
70
192
0
VERTEX
8
OBJECT__28
10
227.949997
20
24.121000
30
25.200001
70
192
0
VERTEX
8
OBJECT__28
10
213.199997
20
33.200001
30
25.200001
70
192
0
VERTEX
8
OBJECT__28
10
217.276993
20
27.589001
30
25.200001
70
192
0
VERTEX
8
OBJECT__28
10
0
20
0
30
0
70
128
71
1
72
2
73
3
0
VERTEX
8
OBJECT__28
10
0
20
0
30
0
70
128
71
2
72
4
73
3
0
VERTEX
8
OBJECT__28
10
0
20
0
30
0
70
128
71
5
72
6
73
7
0
VERTEX
8
OBJECT__28
10
0
20
0
30
0
70
128
71
7
72
2
73
5
0
VERTEX
8
OBJECT__28
10
0
20
0
30
0
70
128
71
5
72
8
73
9
0
VERTEX
8
OBJECT__28
10
0
20
0
30
0
70
128
71
8
72
10
73
9
0
VERTEX
8
OBJECT__28
10
0
20
0
30
0
70
128
71
11
72
12
73
13
0
VERTEX
8
OBJECT__28
10
0
20
0
30
0
70
128
71
13
72
8
73
11
0
VERTEX
8
OBJECT__28
10
0
20
0
30
0
70
128
71
1
72
14
73
15
0
VERTEX
8
OBJECT__28
10
0
20
0
30
0
70
128
71
15
72
11
73
1
0
VERTEX
8
OBJECT__28
10
0
20
0
30
0
70
128
71
15
72
12
73
11
0
VERTEX
8
OBJECT__28
10
0
20
0
30
0
70
128
71
13
72
10
73
8
0
VERTEX
8
OBJECT__28
10
0
20
0
30
0
70
128
71
9
72
6
73
5
0
VERTEX
8
OBJECT__28
10
0
20
0
30
0
70
128
71
7
72
4
73
2
0
VERTEX
8
OBJECT__28
10
0
20
0
30
0
70
128
71
3
72
14
73
1
0
SEQEND
8
OBJECT__28
0
POLYLINE
8
OBJECT__29
66
1
70
64
71
16
72
16
62
253
0
VERTEX
8
OBJECT__29
10
235.320999
20
33.200001
30
-3.029000
70
192
0
VERTEX
8
OBJECT__29
10
228.188995
20
43.014999
30
-3.029000
70
192
0
VERTEX
8
OBJECT__29
10
234.546005
20
40.136002
30
25.200001
70
192
0
VERTEX
8
OBJECT__29
10
227.949997
20
42.278999
30
25.200001
70
192
0
VERTEX
8
OBJECT__29
10
216.649994
20
39.265999
30
-3.029000
70
192
0
VERTEX
8
OBJECT__29
10
221.354004
20
44.422001
30
25.200001
70
192
0
VERTEX
8
OBJECT__29
10
217.276993
20
38.811001
30
25.200001
70
192
0
VERTEX
8
OBJECT__29
10
214.679001
20
33.200001
30
-3.029000
70
192
0
VERTEX
8
OBJECT__29
10
216.649994
20
27.134001
30
-3.029000
70
192
0
VERTEX
8
OBJECT__29
10
217.276993
20
27.589001
30
25.200001
70
192
0
VERTEX
8
OBJECT__29
10
213.199997
20
33.200001
30
25.200001
70
192
0
VERTEX
8
OBJECT__29
10
228.188995
20
23.385000
30
-3.029000
70
192
0
VERTEX
8
OBJECT__29
10
227.949997
20
24.121000
30
25.200001
70
192
0
VERTEX
8
OBJECT__29
10
221.354004
20
21.978001
30
25.200001
70
192
0
VERTEX
8
OBJECT__29
10
234.546005
20
33.200001
30
25.200001
70
192
0
VERTEX
8
OBJECT__29
10
234.546005
20
26.264000
30
25.200001
70
192
0
VERTEX
8
OBJECT__29
10
0
20
0
30
0
70
128
71
1
72
2
73
3
0
VERTEX
8
OBJECT__29
10
0
20
0
30
0
70
128
71
2
72
4
73
3
0
VERTEX
8
OBJECT__29
10
0
20
0
30
0
70
128
71
2
72
5
73
6
0
VERTEX
8
OBJECT__29
10
0
20
0
30
0
70
128
71
5
72
7
73
6
0
VERTEX
8
OBJECT__29
10
0
20
0
30
0
70
128
71
8
72
9
73
10
0
VERTEX
8
OBJECT__29
10
0
20
0
30
0
70
128
71
8
72
11
73
7
0
VERTEX
8
OBJECT__29
10
0
20
0
30
0
70
128
71
7
72
5
73
8
0
VERTEX
8
OBJECT__29
10
0
20
0
30
0
70
128
71
12
72
13
73
14
0
VERTEX
8
OBJECT__29
10
0
20
0
30
0
70
128
71
14
72
9
73
12
0
VERTEX
8
OBJECT__29
10
0
20
0
30
0
70
128
71
1
72
15
73
16
0
VERTEX
8
OBJECT__29
10
0
20
0
30
0
70
128
71
16
72
12
73
1
0
VERTEX
8
OBJECT__29
10
0
20
0
30
0
70
128
71
16
72
13
73
12
0
VERTEX
8
OBJECT__29
10
0
20
0
30
0
70
128
71
14
72
10
73
9
0
VERTEX
8
OBJECT__29
10
0
20
0
30
0
70
128
71
10
72
11
73
8
0
VERTEX
8
OBJECT__29
10
0
20
0
30
0
70
128
71
6
72
4
73
2
0
VERTEX
8
OBJECT__29
10
0
20
0
30
0
70
128
71
3
72
15
73
1
0
SEQEND
8
OBJECT__29
0
POLYLINE
8
OBJECT__30
66
1
70
64
71
16
72
16
62
253
0
VERTEX
8
OBJECT__30
10
228.188995
20
43.014999
30
-3.029000
70
192
0
VERTEX
8
OBJECT__30
10
235.320999
20
33.200001
30
-3.029000
70
192
0
VERTEX
8
OBJECT__30
10
231.511993
20
37.931999
30
-3.400000
70
192
0
VERTEX
8
OBJECT__30
10
234.949997
20
33.200001
30
-3.400000
70
192
0
VERTEX
8
OBJECT__30
10
216.649994
20
39.265999
30
-3.029000
70
192
0
VERTEX
8
OBJECT__30
10
222.513000
20
40.855999
30
-3.400000
70
192
0
VERTEX
8
OBJECT__30
10
228.074997
20
42.662998
30
-3.400000
70
192
0
VERTEX
8
OBJECT__30
10
216.649994
20
27.134001
30
-3.029000
70
192
0
VERTEX
8
OBJECT__30
10
214.679001
20
33.200001
30
-3.029000
70
192
0
VERTEX
8
OBJECT__30
10
215.050003
20
33.200001
30
-3.400000
70
192
0
VERTEX
8
OBJECT__30
10
216.949997
20
39.048000
30
-3.400000
70
192
0
VERTEX
8
OBJECT__30
10
228.188995
20
23.385000
30
-3.029000
70
192
0
VERTEX
8
OBJECT__30
10
222.513000
20
25.544001
30
-3.400000
70
192
0
VERTEX
8
OBJECT__30
10
216.949997
20
27.351999
30
-3.400000
70
192
0
VERTEX
8
OBJECT__30
10
228.074997
20
23.737000
30
-3.400000
70
192
0
VERTEX
8
OBJECT__30
10
231.511993
20
28.468000
30
-3.400000
70
192
0
VERTEX
8
OBJECT__30
10
0
20
0
30
0
70
128
71
1
72
2
73
3
0
VERTEX
8
OBJECT__30
10
0
20
0
30
0
70
128
71
2
72
4
73
3
0
VERTEX
8
OBJECT__30
10
0
20
0
30
0
70
128
71
5
72
1
73
6
0
VERTEX
8
OBJECT__30
10
0
20
0
30
0
70
128
71
1
72
7
73
6
0
VERTEX
8
OBJECT__30
10
0
20
0
30
0
70
128
71
8
72
9
73
10
0
VERTEX
8
OBJECT__30
10
0
20
0
30
0
70
128
71
5
72
11
73
10
0
VERTEX
8
OBJECT__30
10
0
20
0
30
0
70
128
71
10
72
9
73
5
0
VERTEX
8
OBJECT__30
10
0
20
0
30
0
70
128
71
12
72
8
73
13
0
VERTEX
8
OBJECT__30
10
0
20
0
30
0
70
128
71
8
72
14
73
13
0
VERTEX
8
OBJECT__30
10
0
20
0
30
0
70
128
71
12
72
15
73
16
0
VERTEX
8
OBJECT__30
10
0
20
0
30
0
70
128
71
16
72
2
73
12
0
VERTEX
8
OBJECT__30
10
0
20
0
30
0
70
128
71
16
72
4
73
2
0
VERTEX
8
OBJECT__30
10
0
20
0
30
0
70
128
71
13
72
15
73
12
0
VERTEX
8
OBJECT__30
10
0
20
0
30
0
70
128
71
10
72
14
73
8
0
VERTEX
8
OBJECT__30
10
0
20
0
30
0
70
128
71
6
72
11
73
5
0
VERTEX
8
OBJECT__30
10
0
20
0
30
0
70
128
71
3
72
7
73
1
0
SEQEND
8
OBJECT__30
0
POLYLINE
8
OBJECT__31
66
1
70
64
71
20
72
20
62
253
0
VERTEX
8
OBJECT__31
10
222.513000
20
40.855999
30
-3.400000
70
192
0
VERTEX
8
OBJECT__31
10
221.925003
20
41.817001
30
-6.400000
70
192
0
VERTEX
8
OBJECT__31
10
220.024994
20
41.817001
30
-6.400000
70
192
0
VERTEX
8
OBJECT__31
10
215.050003
20
33.200001
30
-6.400000
70
192
0
VERTEX
8
OBJECT__31
10
215.050003
20
33.200001
30
-3.400000
70
192
0
VERTEX
8
OBJECT__31
10
216.949997
20
39.048000
30
-3.400000
70
192
0
VERTEX
8
OBJECT__31
10
231.511993
20
37.931999
30
-3.400000
70
192
0
VERTEX
8
OBJECT__31
10
231.942001
20
38.409000
30
-6.400000
70
192
0
VERTEX
8
OBJECT__31
10
229.975006
20
41.817001
30
-6.400000
70
192
0
VERTEX
8
OBJECT__31
10
228.074997
20
42.662998
30
-3.400000
70
192
0
VERTEX
8
OBJECT__31
10
234.949997
20
33.200001
30
-6.400000
70
192
0
VERTEX
8
OBJECT__31
10
234.949997
20
33.200001
30
-3.400000
70
192
0
VERTEX
8
OBJECT__31
10
231.511993
20
28.468000
30
-3.400000
70
192
0
VERTEX
8
OBJECT__31
10
221.925003
20
24.583000
30
-6.400000
70
192
0
VERTEX
8
OBJECT__31
10
229.975006
20
24.583000
30
-6.400000
70
192
0
VERTEX
8
OBJECT__31
10
228.074997
20
23.737000
30
-3.400000
70
192
0
VERTEX
8
OBJECT__31
10
231.942001
20
27.990999
30
-6.400000
70
192
0
VERTEX
8
OBJECT__31
10
220.024994
20
24.583000
30
-6.400000
70
192
0
VERTEX
8
OBJECT__31
10
216.949997
20
27.351999
30
-3.400000
70
192
0
VERTEX
8
OBJECT__31
10
222.513000
20
25.544001
30
-3.400000
70
192
0
VERTEX
8
OBJECT__31
10
0
20
0
30
0
70
128
71
1
72
2
73
3
0
VERTEX
8
OBJECT__31
10
0
20
0
30
0
70
128
71
4
72
5
73
6
0
VERTEX
8
OBJECT__31
10
0
20
0
30
0
70
128
71
6
72
3
73
4
0
VERTEX
8
OBJECT__31
10
0
20
0
30
0
70
128
71
7
72
8
73
9
0
VERTEX
8
OBJECT__31
10
0
20
0
30
0
70
128
71
2
72
1
73
10
0
VERTEX
8
OBJECT__31
10
0
20
0
30
0
70
128
71
10
72
9
73
2
0
VERTEX
8
OBJECT__31
10
0
20
0
30
0
70
128
71
11
72
12
73
13
0
VERTEX
8
OBJECT__31
10
0
20
0
30
0
70
128
71
11
72
8
73
7
0
VERTEX
8
OBJECT__31
10
0
20
0
30
0
70
128
71
7
72
12
73
11
0
VERTEX
8
OBJECT__31
10
0
20
0
30
0
70
128
71
14
72
15
73
16
0
VERTEX
8
OBJECT__31
10
0
20
0
30
0
70
128
71
13
72
16
73
15
0
VERTEX
8
OBJECT__31
10
0
20
0
30
0
70
128
71
15
72
17
73
13
0
VERTEX
8
OBJECT__31
10
0
20
0
30
0
70
128
71
4
72
18
73
19
0
VERTEX
8
OBJECT__31
10
0
20
0
30
0
70
128
71
20
72
19
73
18
0
VERTEX
8
OBJECT__31
10
0
20
0
30
0
70
128
71
18
72
14
73
20
0
VERTEX
8
OBJECT__31
10
0
20
0
30
0
70
128
71
19
72
5
73
4
0
VERTEX
8
OBJECT__31
10
0
20
0
30
0
70
128
71
16
72
20
73
14
0
VERTEX
8
OBJECT__31
10
0
20
0
30
0
70
128
71
13
72
17
73
11
0
VERTEX
8
OBJECT__31
10
0
20
0
30
0
70
128
71
9
72
10
73
7
0
VERTEX
8
OBJECT__31
10
0
20
0
30
0
70
128
71
3
72
6
73
1
0
SEQEND
8
OBJECT__31
0
POLYLINE
8
OBJECT__32
66
1
70
64
71
16
72
16
62
253
0
VERTEX
8
OBJECT__32
10
215.050003
20
33.200001
30
-6.400000
70
192
0
VERTEX
8
OBJECT__32
10
220.024994
20
41.817001
30
-6.400000
70
192
0
VERTEX
8
OBJECT__32
10
220.125000
20
41.644001
30
-6.600000
70
192
0
VERTEX
8
OBJECT__32
10
229.875000
20
41.644001
30
-6.600000
70
192
0
VERTEX
8
OBJECT__32
10
221.925003
20
41.817001
30
-6.400000
70
192
0
VERTEX
8
OBJECT__32
10
234.750000
20
33.200001
30
-6.600000
70
192
0
VERTEX
8
OBJECT__32
10
231.942001
20
38.409000
30
-6.400000
70
192
0
VERTEX
8
OBJECT__32
10
229.975006
20
41.817001
30
-6.400000
70
192
0
VERTEX
8
OBJECT__32
10
234.949997
20
33.200001
30
-6.400000
70
192
0
VERTEX
8
OBJECT__32
10
231.942001
20
27.990999
30
-6.400000
70
192
0
VERTEX
8
OBJECT__32
10
229.875000
20
24.756001
30
-6.600000
70
192
0
VERTEX
8
OBJECT__32
10
229.975006
20
24.583000
30
-6.400000
70
192
0
VERTEX
8
OBJECT__32
10
221.925003
20
24.583000
30
-6.400000
70
192
0
VERTEX
8
OBJECT__32
10
220.125000
20
24.756001
30
-6.600000
70
192
0
VERTEX
8
OBJECT__32
10
220.024994
20
24.583000
30
-6.400000
70
192
0
VERTEX
8
OBJECT__32
10
215.250000
20
33.200001
30
-6.600000
70
192
0
VERTEX
8
OBJECT__32
10
0
20
0
30
0
70
128
71
1
72
2
73
3
0
VERTEX
8
OBJECT__32
10
0
20
0
30
0
70
128
71
4
72
3
73
5
0
VERTEX
8
OBJECT__32
10
0
20
0
30
0
70
128
71
3
72
2
73
5
0
VERTEX
8
OBJECT__32
10
0
20
0
30
0
70
128
71
6
72
4
73
7
0
VERTEX
8
OBJECT__32
10
0
20
0
30
0
70
128
71
4
72
8
73
7
0
VERTEX
8
OBJECT__32
10
0
20
0
30
0
70
128
71
6
72
9
73
10
0
VERTEX
8
OBJECT__32
10
0
20
0
30
0
70
128
71
10
72
11
73
6
0
VERTEX
8
OBJECT__32
10
0
20
0
30
0
70
128
71
11
72
12
73
13
0
VERTEX
8
OBJECT__32
10
0
20
0
30
0
70
128
71
13
72
14
73
11
0
VERTEX
8
OBJECT__32
10
0
20
0
30
0
70
128
71
15
72
1
73
16
0
VERTEX
8
OBJECT__32
10
0
20
0
30
0
70
128
71
16
72
14
73
15
0
VERTEX
8
OBJECT__32
10
0
20
0
30
0
70
128
71
13
72
15
73
14
0
VERTEX
8
OBJECT__32
10
0
20
0
30
0
70
128
71
10
72
12
73
11
0
VERTEX
8
OBJECT__32
10
0
20
0
30
0
70
128
71
7
72
9
73
6
0
VERTEX
8
OBJECT__32
10
0
20
0
30
0
70
128
71
5
72
8
73
4
0
VERTEX
8
OBJECT__32
10
0
20
0
30
0
70
128
71
3
72
16
73
1
0
SEQEND
8
OBJECT__32
0
POLYLINE
8
OBJECT__33
66
1
70
64
71
10
72
10
62
253
0
VERTEX
8
OBJECT__33
10
229.875000
20
41.644001
30
-6.600000
70
192
0
VERTEX
8
OBJECT__33
10
234.750000
20
33.200001
30
-6.600000
70
192
0
VERTEX
8
OBJECT__33
10
231.899994
20
33.200001
30
-6.600000
70
192
0
VERTEX
8
OBJECT__33
10
229.875000
20
24.756001
30
-6.600000
70
192
0
VERTEX
8
OBJECT__33
10
225.000000
20
26.299999
30
-6.600000
70
192
0
VERTEX
8
OBJECT__33
10
220.125000
20
24.756001
30
-6.600000
70
192
0
VERTEX
8
OBJECT__33
10
215.250000
20
33.200001
30
-6.600000
70
192
0
VERTEX
8
OBJECT__33
10
218.100006
20
33.200001
30
-6.600000
70
192
0
VERTEX
8
OBJECT__33
10
220.125000
20
41.644001
30
-6.600000
70
192
0
VERTEX
8
OBJECT__33
10
225.000000
20
40.099998
30
-6.600000
70
192
0
VERTEX
8
OBJECT__33
10
0
20
0
30
0
70
128
71
1
72
2
73
3
0
VERTEX
8
OBJECT__33
10
0
20
0
30
0
70
128
71
4
72
5
73
3
0
VERTEX
8
OBJECT__33
10
0
20
0
30
0
70
128
71
6
72
7
73
8
0
VERTEX
8
OBJECT__33
10
0
20
0
30
0
70
128
71
9
72
10
73
8
0
VERTEX
8
OBJECT__33
10
0
20
0
30
0
70
128
71
3
72
2
73
4
0
VERTEX
8
OBJECT__33
10
0
20
0
30
0
70
128
71
8
72
5
73
6
0
VERTEX
8
OBJECT__33
10
0
20
0
30
0
70
128
71
9
72
1
73
10
0
VERTEX
8
OBJECT__33
10
0
20
0
30
0
70
128
71
5
72
4
73
6
0
VERTEX
8
OBJECT__33
10
0
20
0
30
0
70
128
71
3
72
10
73
1
0
VERTEX
8
OBJECT__33
10
0
20
0
30
0
70
128
71
8
72
7
73
9
0
SEQEND
8
OBJECT__33
0
POLYLINE
8
OBJECT__34
66
1
70
64
71
16
72
16
62
253
0
VERTEX
8
OBJECT__34
10
231.899994
20
33.200001
30
-6.600000
70
192
0
VERTEX
8
OBJECT__34
10
230.072998
20
35.027000
30
-286.000000
70
192
0
VERTEX
8
OBJECT__34
10
226.988007
20
38.112000
30
-286.000000
70
192
0
VERTEX
8
OBJECT__34
10
225.000000
20
40.099998
30
-6.600000
70
192
0
VERTEX
8
OBJECT__34
10
231.899994
20
33.200001
30
-286.000000
70
192
0
VERTEX
8
OBJECT__34
10
218.100006
20
33.200001
30
-6.600000
70
192
0
VERTEX
8
OBJECT__34
10
223.173004
20
38.272999
30
-286.000000
70
192
0
VERTEX
8
OBJECT__34
10
225.000000
20
40.099998
30
-286.000000
70
192
0
VERTEX
8
OBJECT__34
10
218.843002
20
33.943001
30
-286.000000
70
192
0
VERTEX
8
OBJECT__34
10
218.776001
20
30.222000
30
-286.000000
70
192
0
VERTEX
8
OBJECT__34
10
222.360992
20
27.962999
30
-286.000000
70
192
0
VERTEX
8
OBJECT__34
10
218.100006
20
33.200001
30
-286.000000
70
192
0
VERTEX
8
OBJECT__34
10
225.000000
20
26.299999
30
-6.600000
70
192
0
VERTEX
8
OBJECT__34
10
226.826996
20
28.127001
30
-286.000000
70
192
0
VERTEX
8
OBJECT__34
10
225.000000
20
26.299999
30
-286.000000
70
192
0
VERTEX
8
OBJECT__34
10
231.156998
20
32.457001
30
-286.000000
70
192
0
VERTEX
8
OBJECT__34
10
0
20
0
30
0
70
128
71
1
72
2
73
3
0
VERTEX
8
OBJECT__34
10
0
20
0
30
0
70
128
71
3
72
4
73
1
0
VERTEX
8
OBJECT__34
10
0
20
0
30
0
70
128
71
1
72
5
73
2
0
VERTEX
8
OBJECT__34
10
0
20
0
30
0
70
128
71
6
72
4
73
7
0
VERTEX
8
OBJECT__34
10
0
20
0
30
0
70
128
71
4
72
8
73
7
0
VERTEX
8
OBJECT__34
10
0
20
0
30
0
70
128
71
7
72
9
73
6
0
VERTEX
8
OBJECT__34
10
0
20
0
30
0
70
128
71
6
72
10
73
11
0
VERTEX
8
OBJECT__34
10
0
20
0
30
0
70
128
71
6
72
12
73
10
0
VERTEX
8
OBJECT__34
10
0
20
0
30
0
70
128
71
11
72
13
73
6
0
VERTEX
8
OBJECT__34
10
0
20
0
30
0
70
128
71
1
72
13
73
14
0
VERTEX
8
OBJECT__34
10
0
20
0
30
0
70
128
71
13
72
15
73
14
0
VERTEX
8
OBJECT__34
10
0
20
0
30
0
70
128
71
14
72
16
73
1
0
VERTEX
8
OBJECT__34
10
0
20
0
30
0
70
128
71
16
72
5
73
1
0
VERTEX
8
OBJECT__34
10
0
20
0
30
0
70
128
71
11
72
15
73
13
0
VERTEX
8
OBJECT__34
10
0
20
0
30
0
70
128
71
9
72
12
73
6
0
VERTEX
8
OBJECT__34
10
0
20
0
30
0
70
128
71
3
72
8
73
4
0
SEQEND
8
OBJECT__34
0
POLYLINE
8
OBJECT__35
66
1
70
64
71
140
72
260
62
253
0
VERTEX
8
OBJECT__35
10
126.043999
20
-2.813000
30
-375.066010
70
192
0
VERTEX
8
OBJECT__35
10
125.654999
20
1.231000
30
-373.475006
70
192
0
VERTEX
8
OBJECT__35
10
142.727005
20
4.575000
30
-374.726990
70
192
0
VERTEX
8
OBJECT__35
10
144.462006
20
-4.202000
30
-364.220001
70
192
0
VERTEX
8
OBJECT__35
10
143.524994
20
-0.264000
30
-362.588989
70
192
0
VERTEX
8
OBJECT__35
10
128.462006
20
-3.215000
30
-361.484985
70
192
0
VERTEX
8
OBJECT__35
10
229.399002
20
35.076000
30
-304.183990
70
192
0
VERTEX
8
OBJECT__35
10
226.391006
20
38.229000
30
-303.955994
70
192
0
VERTEX
8
OBJECT__35
10
226.988007
20
38.112000
30
-286.000000
70
192
0
VERTEX
8
OBJECT__35
10
220.274994
20
26.158001
30
-301.248993
70
192
0
VERTEX
8
OBJECT__35
10
222.360992
20
27.962999
30
-286.000000
70
192
0
VERTEX
8
OBJECT__35
10
218.776001
20
30.222000
30
-286.000000
70
192
0
VERTEX
8
OBJECT__35
10
66.833000
20
-6.517000
30
-336.959015
70
192
0
VERTEX
8
OBJECT__35
10
67.984001
20
-2.363000
30
-336.281006
70
192
0
VERTEX
8
OBJECT__35
10
79.416000
20
-2.572000
30
-349.875000
70
192
0
VERTEX
8
OBJECT__35
10
142.056000
20
6.900000
30
-369.049011
70
192
0
VERTEX
8
OBJECT__35
10
126.200996
20
3.794000
30
-367.886993
70
192
0
VERTEX
8
OBJECT__35
10
127.588997
20
0.910000
30
-362.609985
70
192
0
VERTEX
8
OBJECT__35
10
92.641998
20
-6.371000
30
-362.058990
70
192
0
VERTEX
8
OBJECT__35
10
93.222000
20
-2.221000
30
-360.838989
70
192
0
VERTEX
8
OBJECT__35
10
108.864998
20
-1.021000
30
-368.804993
70
192
0
VERTEX
8
OBJECT__35
10
108.731003
20
-5.137000
30
-370.252014
70
192
0
VERTEX
8
OBJECT__35
10
110.623001
20
1.704000
30
-363.554993
70
192
0
VERTEX
8
OBJECT__35
10
96.093002
20
0.589000
30
-356.153992
70
192
0
VERTEX
8
OBJECT__35
10
78.497002
20
-6.730000
30
-350.828003
70
192
0
VERTEX
8
OBJECT__35
10
83.234001
20
0.263000
30
-345.941986
70
192
0
VERTEX
8
OBJECT__35
10
99.184998
20
-2.115000
30
-351.548004
70
192
0
VERTEX
8
OBJECT__35
10
142.615005
20
3.854000
30
-363.710999
70
192
0
VERTEX
8
OBJECT__35
10
112.871002
20
-1.065000
30
-358.518005
70
192
0
VERTEX
8
OBJECT__35
10
113.737999
20
-5.191000
30
-357.391998
70
192
0
VERTEX
8
OBJECT__35
10
100.096001
20
-6.238000
30
-350.446014
70
192
0
VERTEX
8
OBJECT__35
10
87.109001
20
-2.421000
30
-341.959015
70
192
0
VERTEX
8
OBJECT__35
10
88.112999
20
-6.542000
30
-340.932007
70
192
0
VERTEX
8
OBJECT__35
10
72.551003
20
0.458000
30
-333.237000
70
192
0
VERTEX
8
OBJECT__35
10
77.102997
20
-2.239000
30
-330.059998
70
192
0
VERTEX
8
OBJECT__35
10
52.889000
20
-5.658000
30
-303.898010
70
192
0
VERTEX
8
OBJECT__35
10
54.249001
20
-1.516000
30
-303.694000
70
192
0
VERTEX
8
OBJECT__35
10
59.507000
20
-1.917000
30
-320.733002
70
192
0
VERTEX
8
OBJECT__35
10
58.217999
20
-6.065000
30
-321.158997
70
192
0
VERTEX
8
OBJECT__35
10
64.605003
20
0.876000
30
-318.660004
70
192
0
VERTEX
8
OBJECT__35
10
59.664001
20
1.253000
30
-302.648010
70
192
0
VERTEX
8
OBJECT__35
10
51.099998
20
-5.500000
30
-286.000000
70
192
0
VERTEX
8
OBJECT__35
10
53.860001
20
-2.740000
30
-286.000000
70
192
0
VERTEX
8
OBJECT__35
10
58.000000
20
1.400000
30
-286.000000
70
192
0
VERTEX
8
OBJECT__35
10
65.070000
20
-1.497000
30
-301.509003
70
192
0
VERTEX
8
OBJECT__35
10
78.232002
20
-6.362000
30
-329.183014
70
192
0
VERTEX
8
OBJECT__35
10
69.679001
20
-1.849000
30
-316.440002
70
192
0
VERTEX
8
OBJECT__35
10
70.931999
20
-5.978000
30
-315.794006
70
192
0
VERTEX
8
OBJECT__35
10
66.416000
20
-5.634000
30
-301.165985
70
192
0
VERTEX
8
OBJECT__35
10
62.139999
20
-2.740000
30
-286.000000
70
192
0
VERTEX
8
OBJECT__35
10
64.900002
20
-5.500000
30
-286.000000
70
192
0
VERTEX
8
OBJECT__35
10
144.574005
20
-3.480000
30
-375.235992
70
192
0
VERTEX
8
OBJECT__35
10
145.134003
20
-6.526000
30
-369.898010
70
192
0
VERTEX
8
OBJECT__35
10
128.304993
20
-9.822000
30
-368.664001
70
192
0
VERTEX
8
OBJECT__35
10
77.081001
20
-10.516000
30
-329.860992
70
192
0
VERTEX
8
OBJECT__35
10
87.194000
20
-10.701000
30
-341.884003
70
192
0
VERTEX
8
OBJECT__35
10
128.850998
20
-7.260000
30
-363.076996
70
192
0
VERTEX
8
OBJECT__35
10
99.516998
20
-10.388000
30
-351.666992
70
192
0
VERTEX
8
OBJECT__35
10
113.605003
20
-9.306000
30
-358.838989
70
192
0
VERTEX
8
OBJECT__35
10
96.646004
20
-13.198000
30
-356.351990
70
192
0
VERTEX
8
OBJECT__35
10
111.847000
20
-12.032000
30
-364.088989
70
192
0
VERTEX
8
OBJECT__35
10
83.375999
20
-13.535000
30
-345.817993
70
192
0
VERTEX
8
OBJECT__35
10
72.513000
20
-13.338000
30
-332.906006
70
192
0
VERTEX
8
OBJECT__35
10
65.056999
20
-9.776000
30
-301.368988
70
192
0
VERTEX
8
OBJECT__35
10
69.641998
20
-10.126000
30
-316.221008
70
192
0
VERTEX
8
OBJECT__35
10
59.641998
20
-12.545000
30
-302.415009
70
192
0
VERTEX
8
OBJECT__35
10
64.543999
20
-12.919000
30
-318.294006
70
192
0
VERTEX
8
OBJECT__35
10
62.139999
20
-8.260000
30
-286.000000
70
192
0
VERTEX
8
OBJECT__35
10
79.500999
20
-10.851000
30
-349.800995
70
192
0
VERTEX
8
OBJECT__35
10
126.917000
20
-6.938000
30
-373.941010
70
192
0
VERTEX
8
OBJECT__35
10
143.664993
20
0.638000
30
-376.359009
70
192
0
VERTEX
8
OBJECT__35
10
109.598999
20
-9.263000
30
-369.126007
70
192
0
VERTEX
8
OBJECT__35
10
93.554001
20
-10.494000
30
-360.957001
70
192
0
VERTEX
8
OBJECT__35
10
67.960999
20
-10.641000
30
-336.082001
70
192
0
VERTEX
8
OBJECT__35
10
59.471001
20
-10.194000
30
-320.513000
70
192
0
VERTEX
8
OBJECT__35
10
53.860001
20
-8.260000
30
-286.000000
70
192
0
VERTEX
8
OBJECT__35
10
54.235001
20
-9.795000
30
-303.553986
70
192
0
VERTEX
8
OBJECT__35
10
199.248001
20
14.869000
30
-340.553986
70
192
0
VERTEX
8
OBJECT__35
10
196.654999
20
18.243999
30
-339.588013
70
192
0
VERTEX
8
OBJECT__35
10
185.391006
20
13.187000
30
-349.009003
70
192
0
VERTEX
8
OBJECT__35
10
229.981003
20
30.770000
30
-303.778992
70
192
0
VERTEX
8
OBJECT__35
10
231.156998
20
32.457001
30
-286.000000
70
192
0
VERTEX
8
OBJECT__35
10
226.826996
20
28.127001
30
-286.000000
70
192
0
VERTEX
8
OBJECT__35
10
215.850006
20
23.569000
30
-315.653992
70
192
0
VERTEX
8
OBJECT__35
10
212.914001
20
26.764999
30
-315.191010
70
192
0
VERTEX
8
OBJECT__35
10
205.903000
20
22.905001
30
-328.253998
70
192
0
VERTEX
8
OBJECT__35
10
226.324997
20
25.978001
30
-302.454987
70
192
0
VERTEX
8
OBJECT__35
10
225.000000
20
26.299999
30
-286.000000
70
192
0
VERTEX
8
OBJECT__35
10
217.266006
20
29.311001
30
-301.022003
70
192
0
VERTEX
8
OBJECT__35
10
221.565994
20
23.193001
30
-317.950989
70
192
0
VERTEX
8
OBJECT__35
10
213.910004
20
18.978001
30
-332.216003
70
192
0
VERTEX
8
OBJECT__35
10
208.703995
20
19.635000
30
-328.967010
70
192
0
VERTEX
8
OBJECT__35
10
203.807999
20
13.887000
30
-344.595001
70
192
0
VERTEX
8
OBJECT__35
10
216.718002
20
23.291000
30
-335.622009
70
192
0
VERTEX
8
OBJECT__35
10
224.871002
20
27.780001
30
-320.425995
70
192
0
VERTEX
8
OBJECT__35
10
231.899994
20
33.200001
30
-286.000000
70
192
0
VERTEX
8
OBJECT__35
10
230.072998
20
35.027000
30
-286.000000
70
192
0
VERTEX
8
OBJECT__35
10
224.190994
20
32.028000
30
-321.156006
70
192
0
VERTEX
8
OBJECT__35
10
215.921005
20
27.475000
30
-336.571991
70
192
0
VERTEX
8
OBJECT__35
10
206.042999
20
17.910999
30
-348.705994
70
192
0
VERTEX
8
OBJECT__35
10
205.149002
20
22.046000
30
-349.777008
70
192
0
VERTEX
8
OBJECT__35
10
193.084000
20
12.092000
30
-359.545013
70
192
0
VERTEX
8
OBJECT__35
10
174.460007
20
4.542000
30
-357.561005
70
192
0
VERTEX
8
OBJECT__35
10
172.535995
20
8.193000
30
-356.144012
70
192
0
VERTEX
8
OBJECT__35
10
158.440002
20
3.614000
30
-360.751007
70
192
0
VERTEX
8
OBJECT__35
10
187.692993
20
9.682000
30
-350.217010
70
192
0
VERTEX
8
OBJECT__35
10
191.473999
20
8.350000
30
-354.910004
70
192
0
VERTEX
8
OBJECT__35
10
177.332001
20
2.857000
30
-362.756989
70
192
0
VERTEX
8
OBJECT__35
10
159.903000
20
-0.187000
30
-362.317993
70
192
0
VERTEX
8
OBJECT__35
10
161.733002
20
-2.210000
30
-367.854004
70
192
0
VERTEX
8
OBJECT__35
10
161.953995
20
1.039000
30
-373.096985
70
192
0
VERTEX
8
OBJECT__35
10
178.274002
20
6.340000
30
-367.764008
70
192
0
VERTEX
8
OBJECT__35
10
192.130005
20
16.200001
30
-360.667999
70
192
0
VERTEX
8
OBJECT__35
10
177.302994
20
10.441000
30
-368.898010
70
192
0
VERTEX
8
OBJECT__35
10
161.003998
20
5.146000
30
-374.223999
70
192
0
VERTEX
8
OBJECT__35
10
223.173004
20
38.272999
30
-286.000000
70
192
0
VERTEX
8
OBJECT__35
10
220.341003
20
38.409000
30
-302.751007
70
192
0
VERTEX
8
OBJECT__35
10
216.684006
20
33.617001
30
-301.427002
70
192
0
VERTEX
8
OBJECT__35
10
189.828003
20
19.705000
30
-359.459015
70
192
0
VERTEX
8
OBJECT__35
10
225.000000
20
40.099998
30
-286.000000
70
192
0
VERTEX
8
OBJECT__35
10
213.121002
20
30.745001
30
-335.859009
70
192
0
VERTEX
8
OBJECT__35
10
221.255005
20
35.223999
30
-320.692993
70
192
0
VERTEX
8
OBJECT__35
10
202.556000
20
25.420000
30
-348.811005
70
192
0
VERTEX
8
OBJECT__35
10
207.914993
20
31.402000
30
-332.609985
70
192
0
VERTEX
8
OBJECT__35
10
215.539993
20
35.599998
30
-318.395996
70
192
0
VERTEX
8
OBJECT__35
10
197.996002
20
26.402000
30
-344.769989
70
192
0
VERTEX
8
OBJECT__35
10
186.046997
20
21.037001
30
-354.766998
70
192
0
VERTEX
8
OBJECT__35
10
159.539993
20
8.947000
30
-372.657013
70
192
0
VERTEX
8
OBJECT__35
10
175.378006
20
14.092000
30
-367.480011
70
192
0
VERTEX
8
OBJECT__35
10
157.710007
20
10.970000
30
-367.121002
70
192
0
VERTEX
8
OBJECT__35
10
172.507004
20
15.777000
30
-362.283997
70
192
0
VERTEX
8
OBJECT__35
10
184.436996
20
17.294001
30
-350.131989
70
192
0
VERTEX
8
OBJECT__35
10
195.761002
20
22.378000
30
-340.658997
70
192
0
VERTEX
8
OBJECT__35
10
218.100006
20
33.200001
30
-286.000000
70
192
0
VERTEX
8
OBJECT__35
10
205.106995
20
27.089001
30
-329.204010
70
192
0
VERTEX
8
OBJECT__35
10
212.233994
20
31.013000
30
-315.920990
70
192
0
VERTEX
8
OBJECT__35
10
157.488998
20
7.721000
30
-361.877991
70
192
0
VERTEX
8
OBJECT__35
10
171.565002
20
12.294000
30
-357.277008
70
192
0
VERTEX
8
OBJECT__35
10
218.843002
20
33.943001
30
-286.000000
70
192
0
VERTEX
8
OBJECT__35
10
58.000000
20
-12.400000
30
-286.000000
70
192
0
VERTEX
8
OBJECT__35
10
0
20
0
30
0
70
128
71
1
72
2
73
3
0
VERTEX
8
OBJECT__35
10
0
20
0
30
0
70
128
71
4
72
5
73
6
0
VERTEX
8
OBJECT__35
10
0
20
0
30
0
70
128
71
7
72
8
73
9
0
VERTEX
8
OBJECT__35
10
0
20
0
30
0
70
128
71
10
72
11
73
12
0
VERTEX
8
OBJECT__35
10
0
20
0
30
0
70
128
71
13
72
14
73
15
0
VERTEX
8
OBJECT__35
10
0
20
0
30
0
70
128
71
16
72
17
73
18
0
VERTEX
8
OBJECT__35
10
0
20
0
30
0
70
128
71
19
72
20
73
21
0
VERTEX
8
OBJECT__35
10
0
20
0
30
0
70
128
71
3
72
2
73
17
0
VERTEX
8
OBJECT__35
10
0
20
0
30
0
70
128
71
22
72
21
73
2
0
VERTEX
8
OBJECT__35
10
0
20
0
30
0
70
128
71
21
72
23
73
17
0
VERTEX
8
OBJECT__35
10
0
20
0
30
0
70
128
71
20
72
24
73
23
0
VERTEX
8
OBJECT__35
10
0
20
0
30
0
70
128
71
25
72
15
73
20
0
VERTEX
8
OBJECT__35
10
0
20
0
30
0
70
128
71
15
72
26
73
24
0
VERTEX
8
OBJECT__35
10
0
20
0
30
0
70
128
71
23
72
24
73
27
0
VERTEX
8
OBJECT__35
10
0
20
0
30
0
70
128
71
6
72
5
73
28
0
VERTEX
8
OBJECT__35
10
0
20
0
30
0
70
128
71
17
72
23
73
29
0
VERTEX
8
OBJECT__35
10
0
20
0
30
0
70
128
71
30
72
6
73
18
0
VERTEX
8
OBJECT__35
10
0
20
0
30
0
70
128
71
29
72
27
73
31
0
VERTEX
8
OBJECT__35
10
0
20
0
30
0
70
128
71
24
72
26
73
32
0
VERTEX
8
OBJECT__35
10
0
20
0
30
0
70
128
71
27
72
32
73
33
0
VERTEX
8
OBJECT__35
10
0
20
0
30
0
70
128
71
26
72
34
73
35
0
VERTEX
8
OBJECT__35
10
0
20
0
30
0
70
128
71
36
72
37
73
38
0
VERTEX
8
OBJECT__35
10
0
20
0
30
0
70
128
71
14
72
34
73
26
0
VERTEX
8
OBJECT__35
10
0
20
0
30
0
70
128
71
39
72
38
73
14
0
VERTEX
8
OBJECT__35
10
0
20
0
30
0
70
128
71
38
72
40
73
34
0
VERTEX
8
OBJECT__35
10
0
20
0
30
0
70
128
71
37
72
41
73
40
0
VERTEX
8
OBJECT__35
10
0
20
0
30
0
70
128
71
36
72
42
73
43
0
VERTEX
8
OBJECT__35
10
0
20
0
30
0
70
128
71
43
72
44
73
41
0
VERTEX
8
OBJECT__35
10
0
20
0
30
0
70
128
71
40
72
41
73
45
0
VERTEX
8
OBJECT__35
10
0
20
0
30
0
70
128
71
32
72
35
73
46
0
VERTEX
8
OBJECT__35
10
0
20
0
30
0
70
128
71
34
72
40
73
47
0
VERTEX
8
OBJECT__35
10
0
20
0
30
0
70
128
71
35
72
47
73
48
0
VERTEX
8
OBJECT__35
10
0
20
0
30
0
70
128
71
47
72
45
73
49
0
VERTEX
8
OBJECT__35
10
0
20
0
30
0
70
128
71
41
72
44
73
50
0
VERTEX
8
OBJECT__35
10
0
20
0
30
0
70
128
71
45
72
50
73
51
0
VERTEX
8
OBJECT__35
10
0
20
0
30
0
70
128
71
52
72
53
73
54
0
VERTEX
8
OBJECT__35
10
0
20
0
30
0
70
128
71
55
72
56
73
33
0
VERTEX
8
OBJECT__35
10
0
20
0
30
0
70
128
71
53
72
4
73
57
0
VERTEX
8
OBJECT__35
10
0
20
0
30
0
70
128
71
58
72
59
73
30
0
VERTEX
8
OBJECT__35
10
0
20
0
30
0
70
128
71
59
72
57
73
6
0
VERTEX
8
OBJECT__35
10
0
20
0
30
0
70
128
71
56
72
58
73
31
0
VERTEX
8
OBJECT__35
10
0
20
0
30
0
70
128
71
60
72
61
73
59
0
VERTEX
8
OBJECT__35
10
0
20
0
30
0
70
128
71
54
72
57
73
59
0
VERTEX
8
OBJECT__35
10
0
20
0
30
0
70
128
71
62
72
60
73
58
0
VERTEX
8
OBJECT__35
10
0
20
0
30
0
70
128
71
63
72
62
73
56
0
VERTEX
8
OBJECT__35
10
0
20
0
30
0
70
128
71
64
72
65
73
48
0
VERTEX
8
OBJECT__35
10
0
20
0
30
0
70
128
71
65
72
55
73
46
0
VERTEX
8
OBJECT__35
10
0
20
0
30
0
70
128
71
64
72
49
73
51
0
VERTEX
8
OBJECT__35
10
0
20
0
30
0
70
128
71
66
72
67
73
65
0
VERTEX
8
OBJECT__35
10
0
20
0
30
0
70
128
71
67
72
63
73
55
0
VERTEX
8
OBJECT__35
10
0
20
0
30
0
70
128
71
66
72
64
73
68
0
VERTEX
8
OBJECT__35
10
0
20
0
30
0
70
128
71
69
72
62
73
63
0
VERTEX
8
OBJECT__35
10
0
20
0
30
0
70
128
71
70
72
1
73
71
0
VERTEX
8
OBJECT__35
10
0
20
0
30
0
70
128
71
72
72
61
73
60
0
VERTEX
8
OBJECT__35
10
0
20
0
30
0
70
128
71
70
72
54
73
61
0
VERTEX
8
OBJECT__35
10
0
20
0
30
0
70
128
71
73
72
60
73
62
0
VERTEX
8
OBJECT__35
10
0
20
0
30
0
70
128
71
22
72
72
73
73
0
VERTEX
8
OBJECT__35
10
0
20
0
30
0
70
128
71
72
72
22
73
1
0
VERTEX
8
OBJECT__35
10
0
20
0
30
0
70
128
71
19
72
73
73
69
0
VERTEX
8
OBJECT__35
10
0
20
0
30
0
70
128
71
25
72
69
73
74
0
VERTEX
8
OBJECT__35
10
0
20
0
30
0
70
128
71
75
72
67
73
66
0
VERTEX
8
OBJECT__35
10
0
20
0
30
0
70
128
71
74
72
63
73
67
0
VERTEX
8
OBJECT__35
10
0
20
0
30
0
70
128
71
76
72
77
73
66
0
VERTEX
8
OBJECT__35
10
0
20
0
30
0
70
128
71
39
72
75
73
77
0
VERTEX
8
OBJECT__35
10
0
20
0
30
0
70
128
71
13
72
74
73
75
0
VERTEX
8
OBJECT__35
10
0
20
0
30
0
70
128
71
36
72
77
73
76
0
VERTEX
8
OBJECT__35
10
0
20
0
30
0
70
128
71
78
72
79
73
80
0
VERTEX
8
OBJECT__35
10
0
20
0
30
0
70
128
71
81
72
82
73
83
0
VERTEX
8
OBJECT__35
10
0
20
0
30
0
70
128
71
84
72
85
73
86
0
VERTEX
8
OBJECT__35
10
0
20
0
30
0
70
128
71
10
72
87
73
88
0
VERTEX
8
OBJECT__35
10
0
20
0
30
0
70
128
71
87
72
83
73
88
0
VERTEX
8
OBJECT__35
10
0
20
0
30
0
70
128
71
10
72
89
73
85
0
VERTEX
8
OBJECT__35
10
0
20
0
30
0
70
128
71
90
72
87
73
10
0
VERTEX
8
OBJECT__35
10
0
20
0
30
0
70
128
71
91
72
90
73
84
0
VERTEX
8
OBJECT__35
10
0
20
0
30
0
70
128
71
92
72
86
73
79
0
VERTEX
8
OBJECT__35
10
0
20
0
30
0
70
128
71
93
72
91
73
92
0
VERTEX
8
OBJECT__35
10
0
20
0
30
0
70
128
71
94
72
95
73
90
0
VERTEX
8
OBJECT__35
10
0
20
0
30
0
70
128
71
7
72
96
73
82
0
VERTEX
8
OBJECT__35
10
0
20
0
30
0
70
128
71
7
72
97
73
96
0
VERTEX
8
OBJECT__35
10
0
20
0
30
0
70
128
71
95
72
81
73
87
0
VERTEX
8
OBJECT__35
10
0
20
0
30
0
70
128
71
98
72
7
73
81
0
VERTEX
8
OBJECT__35
10
0
20
0
30
0
70
128
71
99
72
98
73
95
0
VERTEX
8
OBJECT__35
10
0
20
0
30
0
70
128
71
100
72
94
73
91
0
VERTEX
8
OBJECT__35
10
0
20
0
30
0
70
128
71
101
72
99
73
94
0
VERTEX
8
OBJECT__35
10
0
20
0
30
0
70
128
71
102
72
100
73
93
0
VERTEX
8
OBJECT__35
10
0
20
0
30
0
70
128
71
103
72
104
73
105
0
VERTEX
8
OBJECT__35
10
0
20
0
30
0
70
128
71
93
72
78
73
106
0
VERTEX
8
OBJECT__35
10
0
20
0
30
0
70
128
71
106
72
80
73
104
0
VERTEX
8
OBJECT__35
10
0
20
0
30
0
70
128
71
107
72
106
73
103
0
VERTEX
8
OBJECT__35
10
0
20
0
30
0
70
128
71
108
72
103
73
109
0
VERTEX
8
OBJECT__35
10
0
20
0
30
0
70
128
71
109
72
105
73
5
0
VERTEX
8
OBJECT__35
10
0
20
0
30
0
70
128
71
110
72
109
73
4
0
VERTEX
8
OBJECT__35
10
0
20
0
30
0
70
128
71
111
72
112
73
108
0
VERTEX
8
OBJECT__35
10
0
20
0
30
0
70
128
71
113
72
101
73
100
0
VERTEX
8
OBJECT__35
10
0
20
0
30
0
70
128
71
112
72
102
73
107
0
VERTEX
8
OBJECT__35
10
0
20
0
30
0
70
128
71
114
72
113
73
102
0
VERTEX
8
OBJECT__35
10
0
20
0
30
0
70
128
71
112
72
111
73
115
0
VERTEX
8
OBJECT__35
10
0
20
0
30
0
70
128
71
111
72
110
73
53
0
VERTEX
8
OBJECT__35
10
0
20
0
30
0
70
128
71
111
72
52
73
71
0
VERTEX
8
OBJECT__35
10
0
20
0
30
0
70
128
71
116
72
117
73
118
0
VERTEX
8
OBJECT__35
10
0
20
0
30
0
70
128
71
101
72
113
73
119
0
VERTEX
8
OBJECT__35
10
0
20
0
30
0
70
128
71
8
72
117
73
116
0
VERTEX
8
OBJECT__35
10
0
20
0
30
0
70
128
71
116
72
120
73
8
0
VERTEX
8
OBJECT__35
10
0
20
0
30
0
70
128
71
98
72
99
73
121
0
VERTEX
8
OBJECT__35
10
0
20
0
30
0
70
128
71
7
72
98
73
122
0
VERTEX
8
OBJECT__35
10
0
20
0
30
0
70
128
71
99
72
101
73
123
0
VERTEX
8
OBJECT__35
10
0
20
0
30
0
70
128
71
121
72
124
73
125
0
VERTEX
8
OBJECT__35
10
0
20
0
30
0
70
128
71
122
72
125
73
117
0
VERTEX
8
OBJECT__35
10
0
20
0
30
0
70
128
71
123
72
126
73
124
0
VERTEX
8
OBJECT__35
10
0
20
0
30
0
70
128
71
123
72
119
73
127
0
VERTEX
8
OBJECT__35
10
0
20
0
30
0
70
128
71
114
72
115
73
128
0
VERTEX
8
OBJECT__35
10
0
20
0
30
0
70
128
71
113
72
114
73
129
0
VERTEX
8
OBJECT__35
10
0
20
0
30
0
70
128
71
115
72
71
73
3
0
VERTEX
8
OBJECT__35
10
0
20
0
30
0
70
128
71
129
72
128
73
130
0
VERTEX
8
OBJECT__35
10
0
20
0
30
0
70
128
71
119
72
129
73
131
0
VERTEX
8
OBJECT__35
10
0
20
0
30
0
70
128
71
128
72
3
73
16
0
VERTEX
8
OBJECT__35
10
0
20
0
30
0
70
128
71
127
72
132
73
133
0
VERTEX
8
OBJECT__35
10
0
20
0
30
0
70
128
71
89
72
12
73
134
0
VERTEX
8
OBJECT__35
10
0
20
0
30
0
70
128
71
134
72
118
73
89
0
VERTEX
8
OBJECT__35
10
0
20
0
30
0
70
128
71
124
72
135
73
136
0
VERTEX
8
OBJECT__35
10
0
20
0
30
0
70
128
71
125
72
136
73
118
0
VERTEX
8
OBJECT__35
10
0
20
0
30
0
70
128
71
126
72
133
73
135
0
VERTEX
8
OBJECT__35
10
0
20
0
30
0
70
128
71
135
72
86
73
85
0
VERTEX
8
OBJECT__35
10
0
20
0
30
0
70
128
71
136
72
85
73
89
0
VERTEX
8
OBJECT__35
10
0
20
0
30
0
70
128
71
133
72
79
73
86
0
VERTEX
8
OBJECT__35
10
0
20
0
30
0
70
128
71
132
72
80
73
79
0
VERTEX
8
OBJECT__35
10
0
20
0
30
0
70
128
71
131
72
130
73
137
0
VERTEX
8
OBJECT__35
10
0
20
0
30
0
70
128
71
131
72
138
73
132
0
VERTEX
8
OBJECT__35
10
0
20
0
30
0
70
128
71
130
72
16
73
28
0
VERTEX
8
OBJECT__35
10
0
20
0
30
0
70
128
71
104
72
138
73
137
0
VERTEX
8
OBJECT__35
10
0
20
0
30
0
70
128
71
138
72
104
73
80
0
VERTEX
8
OBJECT__35
10
0
20
0
30
0
70
128
71
105
72
137
73
28
0
VERTEX
8
OBJECT__35
10
0
20
0
30
0
70
128
71
28
72
5
73
105
0
VERTEX
8
OBJECT__35
10
0
20
0
30
0
70
128
71
80
72
132
73
138
0
VERTEX
8
OBJECT__35
10
0
20
0
30
0
70
128
71
137
72
105
73
104
0
VERTEX
8
OBJECT__35
10
0
20
0
30
0
70
128
71
28
72
137
73
130
0
VERTEX
8
OBJECT__35
10
0
20
0
30
0
70
128
71
132
72
127
73
131
0
VERTEX
8
OBJECT__35
10
0
20
0
30
0
70
128
71
137
72
138
73
131
0
VERTEX
8
OBJECT__35
10
0
20
0
30
0
70
128
71
79
72
133
73
132
0
VERTEX
8
OBJECT__35
10
0
20
0
30
0
70
128
71
86
72
135
73
133
0
VERTEX
8
OBJECT__35
10
0
20
0
30
0
70
128
71
89
72
118
73
136
0
VERTEX
8
OBJECT__35
10
0
20
0
30
0
70
128
71
85
72
136
73
135
0
VERTEX
8
OBJECT__35
10
0
20
0
30
0
70
128
71
135
72
124
73
126
0
VERTEX
8
OBJECT__35
10
0
20
0
30
0
70
128
71
118
72
117
73
125
0
VERTEX
8
OBJECT__35
10
0
20
0
30
0
70
128
71
136
72
125
73
124
0
VERTEX
8
OBJECT__35
10
0
20
0
30
0
70
128
71
134
72
139
73
118
0
VERTEX
8
OBJECT__35
10
0
20
0
30
0
70
128
71
133
72
126
73
127
0
VERTEX
8
OBJECT__35
10
0
20
0
30
0
70
128
71
16
72
130
73
128
0
VERTEX
8
OBJECT__35
10
0
20
0
30
0
70
128
71
131
72
127
73
119
0
VERTEX
8
OBJECT__35
10
0
20
0
30
0
70
128
71
130
72
131
73
129
0
VERTEX
8
OBJECT__35
10
0
20
0
30
0
70
128
71
3
72
128
73
115
0
VERTEX
8
OBJECT__35
10
0
20
0
30
0
70
128
71
129
72
119
73
113
0
VERTEX
8
OBJECT__35
10
0
20
0
30
0
70
128
71
128
72
129
73
114
0
VERTEX
8
OBJECT__35
10
0
20
0
30
0
70
128
71
127
72
126
73
123
0
VERTEX
8
OBJECT__35
10
0
20
0
30
0
70
128
71
124
72
121
73
123
0
VERTEX
8
OBJECT__35
10
0
20
0
30
0
70
128
71
117
72
8
73
122
0
VERTEX
8
OBJECT__35
10
0
20
0
30
0
70
128
71
125
72
122
73
121
0
VERTEX
8
OBJECT__35
10
0
20
0
30
0
70
128
71
123
72
121
73
99
0
VERTEX
8
OBJECT__35
10
0
20
0
30
0
70
128
71
122
72
8
73
7
0
VERTEX
8
OBJECT__35
10
0
20
0
30
0
70
128
71
121
72
122
73
98
0
VERTEX
8
OBJECT__35
10
0
20
0
30
0
70
128
71
120
72
9
73
8
0
VERTEX
8
OBJECT__35
10
0
20
0
30
0
70
128
71
119
72
123
73
101
0
VERTEX
8
OBJECT__35
10
0
20
0
30
0
70
128
71
118
72
139
73
116
0
VERTEX
8
OBJECT__35
10
0
20
0
30
0
70
128
71
71
72
115
73
111
0
VERTEX
8
OBJECT__35
10
0
20
0
30
0
70
128
71
53
72
52
73
111
0
VERTEX
8
OBJECT__35
10
0
20
0
30
0
70
128
71
115
72
114
73
112
0
VERTEX
8
OBJECT__35
10
0
20
0
30
0
70
128
71
102
72
112
73
114
0
VERTEX
8
OBJECT__35
10
0
20
0
30
0
70
128
71
107
72
108
73
112
0
VERTEX
8
OBJECT__35
10
0
20
0
30
0
70
128
71
100
72
102
73
113
0
VERTEX
8
OBJECT__35
10
0
20
0
30
0
70
128
71
108
72
110
73
111
0
VERTEX
8
OBJECT__35
10
0
20
0
30
0
70
128
71
4
72
53
73
110
0
VERTEX
8
OBJECT__35
10
0
20
0
30
0
70
128
71
5
72
4
73
109
0
VERTEX
8
OBJECT__35
10
0
20
0
30
0
70
128
71
109
72
110
73
108
0
VERTEX
8
OBJECT__35
10
0
20
0
30
0
70
128
71
103
72
108
73
107
0
VERTEX
8
OBJECT__35
10
0
20
0
30
0
70
128
71
104
72
103
73
106
0
VERTEX
8
OBJECT__35
10
0
20
0
30
0
70
128
71
106
72
107
73
93
0
VERTEX
8
OBJECT__35
10
0
20
0
30
0
70
128
71
105
72
109
73
103
0
VERTEX
8
OBJECT__35
10
0
20
0
30
0
70
128
71
93
72
107
73
102
0
VERTEX
8
OBJECT__35
10
0
20
0
30
0
70
128
71
94
72
100
73
101
0
VERTEX
8
OBJECT__35
10
0
20
0
30
0
70
128
71
91
72
93
73
100
0
VERTEX
8
OBJECT__35
10
0
20
0
30
0
70
128
71
95
72
94
73
99
0
VERTEX
8
OBJECT__35
10
0
20
0
30
0
70
128
71
81
72
95
73
98
0
VERTEX
8
OBJECT__35
10
0
20
0
30
0
70
128
71
87
72
90
73
95
0
VERTEX
8
OBJECT__35
10
0
20
0
30
0
70
128
71
82
72
81
73
7
0
VERTEX
8
OBJECT__35
10
0
20
0
30
0
70
128
71
90
72
91
73
94
0
VERTEX
8
OBJECT__35
10
0
20
0
30
0
70
128
71
92
72
78
73
93
0
VERTEX
8
OBJECT__35
10
0
20
0
30
0
70
128
71
79
72
78
73
92
0
VERTEX
8
OBJECT__35
10
0
20
0
30
0
70
128
71
84
72
92
73
91
0
VERTEX
8
OBJECT__35
10
0
20
0
30
0
70
128
71
10
72
84
73
90
0
VERTEX
8
OBJECT__35
10
0
20
0
30
0
70
128
71
85
72
84
73
10
0
VERTEX
8
OBJECT__35
10
0
20
0
30
0
70
128
71
88
72
11
73
10
0
VERTEX
8
OBJECT__35
10
0
20
0
30
0
70
128
71
86
72
92
73
84
0
VERTEX
8
OBJECT__35
10
0
20
0
30
0
70
128
71
83
72
87
73
81
0
VERTEX
8
OBJECT__35
10
0
20
0
30
0
70
128
71
80
72
106
73
78
0
VERTEX
8
OBJECT__35
10
0
20
0
30
0
70
128
71
76
72
42
73
36
0
VERTEX
8
OBJECT__35
10
0
20
0
30
0
70
128
71
75
72
39
73
13
0
VERTEX
8
OBJECT__35
10
0
20
0
30
0
70
128
71
77
72
36
73
39
0
VERTEX
8
OBJECT__35
10
0
20
0
30
0
70
128
71
66
72
140
73
76
0
VERTEX
8
OBJECT__35
10
0
20
0
30
0
70
128
71
67
72
75
73
74
0
VERTEX
8
OBJECT__35
10
0
20
0
30
0
70
128
71
66
72
77
73
75
0
VERTEX
8
OBJECT__35
10
0
20
0
30
0
70
128
71
74
72
13
73
25
0
VERTEX
8
OBJECT__35
10
0
20
0
30
0
70
128
71
69
72
25
73
19
0
VERTEX
8
OBJECT__35
10
0
20
0
30
0
70
128
71
1
72
70
73
72
0
VERTEX
8
OBJECT__35
10
0
20
0
30
0
70
128
71
73
72
19
73
22
0
VERTEX
8
OBJECT__35
10
0
20
0
30
0
70
128
71
62
72
69
73
73
0
VERTEX
8
OBJECT__35
10
0
20
0
30
0
70
128
71
61
72
72
73
70
0
VERTEX
8
OBJECT__35
10
0
20
0
30
0
70
128
71
60
72
73
73
72
0
VERTEX
8
OBJECT__35
10
0
20
0
30
0
70
128
71
71
72
52
73
70
0
VERTEX
8
OBJECT__35
10
0
20
0
30
0
70
128
71
63
72
74
73
69
0
VERTEX
8
OBJECT__35
10
0
20
0
30
0
70
128
71
68
72
140
73
66
0
VERTEX
8
OBJECT__35
10
0
20
0
30
0
70
128
71
55
72
65
73
67
0
VERTEX
8
OBJECT__35
10
0
20
0
30
0
70
128
71
65
72
64
73
66
0
VERTEX
8
OBJECT__35
10
0
20
0
30
0
70
128
71
51
72
68
73
64
0
VERTEX
8
OBJECT__35
10
0
20
0
30
0
70
128
71
46
72
48
73
65
0
VERTEX
8
OBJECT__35
10
0
20
0
30
0
70
128
71
48
72
49
73
64
0
VERTEX
8
OBJECT__35
10
0
20
0
30
0
70
128
71
56
72
55
73
63
0
VERTEX
8
OBJECT__35
10
0
20
0
30
0
70
128
71
58
72
56
73
62
0
VERTEX
8
OBJECT__35
10
0
20
0
30
0
70
128
71
59
72
61
73
54
0
VERTEX
8
OBJECT__35
10
0
20
0
30
0
70
128
71
59
72
58
73
60
0
VERTEX
8
OBJECT__35
10
0
20
0
30
0
70
128
71
31
72
33
73
56
0
VERTEX
8
OBJECT__35
10
0
20
0
30
0
70
128
71
6
72
30
73
59
0
VERTEX
8
OBJECT__35
10
0
20
0
30
0
70
128
71
30
72
31
73
58
0
VERTEX
8
OBJECT__35
10
0
20
0
30
0
70
128
71
57
72
54
73
53
0
VERTEX
8
OBJECT__35
10
0
20
0
30
0
70
128
71
33
72
46
73
55
0
VERTEX
8
OBJECT__35
10
0
20
0
30
0
70
128
71
54
72
70
73
52
0
VERTEX
8
OBJECT__35
10
0
20
0
30
0
70
128
71
51
72
49
73
45
0
VERTEX
8
OBJECT__35
10
0
20
0
30
0
70
128
71
50
72
45
73
41
0
VERTEX
8
OBJECT__35
10
0
20
0
30
0
70
128
71
49
72
48
73
47
0
VERTEX
8
OBJECT__35
10
0
20
0
30
0
70
128
71
48
72
46
73
35
0
VERTEX
8
OBJECT__35
10
0
20
0
30
0
70
128
71
47
72
35
73
34
0
VERTEX
8
OBJECT__35
10
0
20
0
30
0
70
128
71
46
72
33
73
32
0
VERTEX
8
OBJECT__35
10
0
20
0
30
0
70
128
71
45
72
47
73
40
0
VERTEX
8
OBJECT__35
10
0
20
0
30
0
70
128
71
41
72
37
73
43
0
VERTEX
8
OBJECT__35
10
0
20
0
30
0
70
128
71
43
72
37
73
36
0
VERTEX
8
OBJECT__35
10
0
20
0
30
0
70
128
71
40
72
38
73
37
0
VERTEX
8
OBJECT__35
10
0
20
0
30
0
70
128
71
34
72
14
73
38
0
VERTEX
8
OBJECT__35
10
0
20
0
30
0
70
128
71
14
72
13
73
39
0
VERTEX
8
OBJECT__35
10
0
20
0
30
0
70
128
71
26
72
15
73
14
0
VERTEX
8
OBJECT__35
10
0
20
0
30
0
70
128
71
38
72
39
73
36
0
VERTEX
8
OBJECT__35
10
0
20
0
30
0
70
128
71
35
72
32
73
26
0
VERTEX
8
OBJECT__35
10
0
20
0
30
0
70
128
71
33
72
31
73
27
0
VERTEX
8
OBJECT__35
10
0
20
0
30
0
70
128
71
32
72
27
73
24
0
VERTEX
8
OBJECT__35
10
0
20
0
30
0
70
128
71
31
72
30
73
29
0
VERTEX
8
OBJECT__35
10
0
20
0
30
0
70
128
71
18
72
29
73
30
0
VERTEX
8
OBJECT__35
10
0
20
0
30
0
70
128
71
29
72
18
73
17
0
VERTEX
8
OBJECT__35
10
0
20
0
30
0
70
128
71
28
72
18
73
6
0
VERTEX
8
OBJECT__35
10
0
20
0
30
0
70
128
71
27
72
29
73
23
0
VERTEX
8
OBJECT__35
10
0
20
0
30
0
70
128
71
24
72
20
73
15
0
VERTEX
8
OBJECT__35
10
0
20
0
30
0
70
128
71
20
72
19
73
25
0
VERTEX
8
OBJECT__35
10
0
20
0
30
0
70
128
71
23
72
21
73
20
0
VERTEX
8
OBJECT__35
10
0
20
0
30
0
70
128
71
17
72
2
73
21
0
VERTEX
8
OBJECT__35
10
0
20
0
30
0
70
128
71
2
72
1
73
22
0
VERTEX
8
OBJECT__35
10
0
20
0
30
0
70
128
71
17
72
16
73
3
0
VERTEX
8
OBJECT__35
10
0
20
0
30
0
70
128
71
21
72
22
73
19
0
VERTEX
8
OBJECT__35
10
0
20
0
30
0
70
128
71
18
72
28
73
16
0
VERTEX
8
OBJECT__35
10
0
20
0
30
0
70
128
71
15
72
25
73
13
0
VERTEX
8
OBJECT__35
10
0
20
0
30
0
70
128
71
12
72
89
73
10
0
VERTEX
8
OBJECT__35
10
0
20
0
30
0
70
128
71
9
72
97
73
7
0
VERTEX
8
OBJECT__35
10
0
20
0
30
0
70
128
71
6
72
57
73
4
0
VERTEX
8
OBJECT__35
10
0
20
0
30
0
70
128
71
3
72
71
73
1
0
SEQEND
8
OBJECT__35
0
POLYLINE
8
OBJECT__36
66
1
70
64
71
12
72
12
62
253
0
VERTEX
8
OBJECT__36
10
58.000000
20
1.400000
30
-56.000000
70
192
0
VERTEX
8
OBJECT__36
10
58.000000
20
1.400000
30
-286.000000
70
192
0
VERTEX
8
OBJECT__36
10
53.860001
20
-2.740000
30
-286.000000
70
192
0
VERTEX
8
OBJECT__36
10
51.099998
20
-5.500000
30
-56.000000
70
192
0
VERTEX
8
OBJECT__36
10
64.900002
20
-5.500000
30
-56.000000
70
192
0
VERTEX
8
OBJECT__36
10
62.139999
20
-2.740000
30
-286.000000
70
192
0
VERTEX
8
OBJECT__36
10
64.900002
20
-5.500000
30
-286.000000
70
192
0
VERTEX
8
OBJECT__36
10
58.000000
20
-12.400000
30
-56.000000
70
192
0
VERTEX
8
OBJECT__36
10
58.000000
20
-12.400000
30
-286.000000
70
192
0
VERTEX
8
OBJECT__36
10
62.139999
20
-8.260000
30
-286.000000
70
192
0
VERTEX
8
OBJECT__36
10
53.860001
20
-8.260000
30
-286.000000
70
192
0
VERTEX
8
OBJECT__36
10
51.099998
20
-5.500000
30
-286.000000
70
192
0
VERTEX
8
OBJECT__36
10
0
20
0
30
0
70
128
71
1
72
2
73
3
0
VERTEX
8
OBJECT__36
10
0
20
0
30
0
70
128
71
3
72
4
73
1
0
VERTEX
8
OBJECT__36
10
0
20
0
30
0
70
128
71
1
72
5
73
6
0
VERTEX
8
OBJECT__36
10
0
20
0
30
0
70
128
71
5
72
7
73
6
0
VERTEX
8
OBJECT__36
10
0
20
0
30
0
70
128
71
8
72
9
73
10
0
VERTEX
8
OBJECT__36
10
0
20
0
30
0
70
128
71
10
72
5
73
8
0
VERTEX
8
OBJECT__36
10
0
20
0
30
0
70
128
71
8
72
4
73
11
0
VERTEX
8
OBJECT__36
10
0
20
0
30
0
70
128
71
4
72
12
73
11
0
VERTEX
8
OBJECT__36
10
0
20
0
30
0
70
128
71
11
72
9
73
8
0
VERTEX
8
OBJECT__36
10
0
20
0
30
0
70
128
71
10
72
7
73
5
0
VERTEX
8
OBJECT__36
10
0
20
0
30
0
70
128
71
6
72
2
73
1
0
VERTEX
8
OBJECT__36
10
0
20
0
30
0
70
128
71
3
72
12
73
4
0
SEQEND
8
OBJECT__36
0
POLYLINE
8
OBJECT__37
66
1
70
64
71
8
72
8
62
253
0
VERTEX
8
OBJECT__37
10
65.499001
20
-5.500000
30
-56.000000
70
192
0
VERTEX
8
OBJECT__37
10
64.900002
20
-5.500000
30
-56.000000
70
192
0
VERTEX
8
OBJECT__37
10
58.000000
20
1.400000
30
-56.000000
70
192
0
VERTEX
8
OBJECT__37
10
58.000000
20
-12.999000
30
-56.000000
70
192
0
VERTEX
8
OBJECT__37
10
58.000000
20
-12.400000
30
-56.000000
70
192
0
VERTEX
8
OBJECT__37
10
50.500999
20
-5.500000
30
-56.000000
70
192
0
VERTEX
8
OBJECT__37
10
51.099998
20
-5.500000
30
-56.000000
70
192
0
VERTEX
8
OBJECT__37
10
58.000000
20
1.999000
30
-56.000000
70
192
0
VERTEX
8
OBJECT__37
10
0
20
0
30
0
70
128
71
1
72
2
73
3
0
VERTEX
8
OBJECT__37
10
0
20
0
30
0
70
128
71
1
72
4
73
5
0
VERTEX
8
OBJECT__37
10
0
20
0
30
0
70
128
71
5
72
2
73
1
0
VERTEX
8
OBJECT__37
10
0
20
0
30
0
70
128
71
4
72
6
73
7
0
VERTEX
8
OBJECT__37
10
0
20
0
30
0
70
128
71
6
72
8
73
3
0
VERTEX
8
OBJECT__37
10
0
20
0
30
0
70
128
71
7
72
5
73
4
0
VERTEX
8
OBJECT__37
10
0
20
0
30
0
70
128
71
3
72
8
73
1
0
VERTEX
8
OBJECT__37
10
0
20
0
30
0
70
128
71
3
72
7
73
6
0
SEQEND
8
OBJECT__37
0
POLYLINE
8
OBJECT__38
66
1
70
64
71
8
72
8
62
253
0
VERTEX
8
OBJECT__38
10
58.000000
20
1.999000
30
-38.500000
70
192
0
VERTEX
8
OBJECT__38
10
58.000000
20
1.999000
30
-56.000000
70
192
0
VERTEX
8
OBJECT__38
10
50.500999
20
-5.500000
30
-56.000000
70
192
0
VERTEX
8
OBJECT__38
10
65.499001
20
-5.500000
30
-38.500000
70
192
0
VERTEX
8
OBJECT__38
10
65.499001
20
-5.500000
30
-56.000000
70
192
0
VERTEX
8
OBJECT__38
10
58.000000
20
-12.999000
30
-38.500000
70
192
0
VERTEX
8
OBJECT__38
10
58.000000
20
-12.999000
30
-56.000000
70
192
0
VERTEX
8
OBJECT__38
10
50.500999
20
-5.500000
30
-38.500000
70
192
0
VERTEX
8
OBJECT__38
10
0
20
0
30
0
70
128
71
1
72
2
73
3
0
VERTEX
8
OBJECT__38
10
0
20
0
30
0
70
128
71
4
72
5
73
2
0
VERTEX
8
OBJECT__38
10
0
20
0
30
0
70
128
71
6
72
7
73
5
0
VERTEX
8
OBJECT__38
10
0
20
0
30
0
70
128
71
8
72
3
73
7
0
VERTEX
8
OBJECT__38
10
0
20
0
30
0
70
128
71
7
72
6
73
8
0
VERTEX
8
OBJECT__38
10
0
20
0
30
0
70
128
71
5
72
4
73
6
0
VERTEX
8
OBJECT__38
10
0
20
0
30
0
70
128
71
2
72
1
73
4
0
VERTEX
8
OBJECT__38
10
0
20
0
30
0
70
128
71
3
72
8
73
1
0
SEQEND
8
OBJECT__38
0
POLYLINE
8
OBJECT__39
66
1
70
64
71
11
72
11
62
253
0
VERTEX
8
OBJECT__39
10
51.141998
20
3.100000
30
-38.500000
70
192
0
VERTEX
8
OBJECT__39
10
60.448002
20
5.224000
30
-38.500000
70
192
0
VERTEX
8
OBJECT__39
10
58.000000
20
1.999000
30
-38.500000
70
192
0
VERTEX
8
OBJECT__39
10
67.911003
20
-0.727000
30
-38.500000
70
192
0
VERTEX
8
OBJECT__39
10
58.000000
20
-12.999000
30
-38.500000
70
192
0
VERTEX
8
OBJECT__39
10
65.499001
20
-5.500000
30
-38.500000
70
192
0
VERTEX
8
OBJECT__39
10
67.911003
20
-10.273000
30
-38.500000
70
192
0
VERTEX
8
OBJECT__39
10
60.448002
20
-16.224001
30
-38.500000
70
192
0
VERTEX
8
OBJECT__39
10
51.141998
20
-14.100000
30
-38.500000
70
192
0
VERTEX
8
OBJECT__39
10
47.000000
20
-5.500000
30
-38.500000
70
192
0
VERTEX
8
OBJECT__39
10
50.500999
20
-5.500000
30
-38.500000
70
192
0
VERTEX
8
OBJECT__39
10
0
20
0
30
0
70
128
71
1
72
2
73
3
0
VERTEX
8
OBJECT__39
10
0
20
0
30
0
70
128
71
3
72
2
73
4
0
VERTEX
8
OBJECT__39
10
0
20
0
30
0
70
128
71
5
72
6
73
7
0
VERTEX
8
OBJECT__39
10
0
20
0
30
0
70
128
71
4
72
6
73
3
0
VERTEX
8
OBJECT__39
10
0
20
0
30
0
70
128
71
7
72
8
73
5
0
VERTEX
8
OBJECT__39
10
0
20
0
30
0
70
128
71
9
72
10
73
11
0
VERTEX
8
OBJECT__39
10
0
20
0
30
0
70
128
71
6
72
4
73
7
0
VERTEX
8
OBJECT__39
10
0
20
0
30
0
70
128
71
11
72
5
73
9
0
VERTEX
8
OBJECT__39
10
0
20
0
30
0
70
128
71
5
72
8
73
9
0
VERTEX
8
OBJECT__39
10
0
20
0
30
0
70
128
71
3
72
11
73
1
0
VERTEX
8
OBJECT__39
10
0
20
0
30
0
70
128
71
11
72
10
73
1
0
SEQEND
8
OBJECT__39
0
POLYLINE
8
OBJECT__40
66
1
70
64
71
18
72
18
62
253
0
VERTEX
8
OBJECT__40
10
46.500000
20
-5.500000
30
-38.000000
70
192
0
VERTEX
8
OBJECT__40
10
50.830002
20
3.491000
30
-38.000000
70
192
0
VERTEX
8
OBJECT__40
10
51.141998
20
3.100000
30
-38.500000
70
192
0
VERTEX
8
OBJECT__40
10
60.448002
20
5.224000
30
-38.500000
70
192
0
VERTEX
8
OBJECT__40
10
54.688999
20
4.372000
30
-38.000000
70
192
0
VERTEX
8
OBJECT__40
10
60.558998
20
5.712000
30
-38.000000
70
192
0
VERTEX
8
OBJECT__40
10
66.851997
20
0.693000
30
-38.000000
70
192
0
VERTEX
8
OBJECT__40
10
67.911003
20
-0.727000
30
-38.500000
70
192
0
VERTEX
8
OBJECT__40
10
68.361000
20
-10.490000
30
-38.000000
70
192
0
VERTEX
8
OBJECT__40
10
67.911003
20
-10.273000
30
-38.500000
70
192
0
VERTEX
8
OBJECT__40
10
60.448002
20
-16.224001
30
-38.500000
70
192
0
VERTEX
8
OBJECT__40
10
66.851997
20
-11.693000
30
-38.000000
70
192
0
VERTEX
8
OBJECT__40
10
60.558998
20
-16.712000
30
-38.000000
70
192
0
VERTEX
8
OBJECT__40
10
54.688999
20
-15.372000
30
-38.000000
70
192
0
VERTEX
8
OBJECT__40
10
51.141998
20
-14.100000
30
-38.500000
70
192
0
VERTEX
8
OBJECT__40
10
47.000000
20
-5.500000
30
-38.500000
70
192
0
VERTEX
8
OBJECT__40
10
50.830002
20
-14.491000
30
-38.000000
70
192
0
VERTEX
8
OBJECT__40
10
68.361000
20
-0.510000
30
-38.000000
70
192
0
VERTEX
8
OBJECT__40
10
0
20
0
30
0
70
128
71
1
72
2
73
3
0
VERTEX
8
OBJECT__40
10
0
20
0
30
0
70
128
71
4
72
3
73
5
0
VERTEX
8
OBJECT__40
10
0
20
0
30
0
70
128
71
3
72
2
73
5
0
VERTEX
8
OBJECT__40
10
0
20
0
30
0
70
128
71
4
72
6
73
7
0
VERTEX
8
OBJECT__40
10
0
20
0
30
0
70
128
71
7
72
8
73
4
0
VERTEX
8
OBJECT__40
10
0
20
0
30
0
70
128
71
9
72
10
73
8
0
VERTEX
8
OBJECT__40
10
0
20
0
30
0
70
128
71
11
72
10
73
12
0
VERTEX
8
OBJECT__40
10
0
20
0
30
0
70
128
71
10
72
9
73
12
0
VERTEX
8
OBJECT__40
10
0
20
0
30
0
70
128
71
11
72
13
73
14
0
VERTEX
8
OBJECT__40
10
0
20
0
30
0
70
128
71
14
72
15
73
11
0
VERTEX
8
OBJECT__40
10
0
20
0
30
0
70
128
71
1
72
16
73
15
0
VERTEX
8
OBJECT__40
10
0
20
0
30
0
70
128
71
15
72
17
73
1
0
VERTEX
8
OBJECT__40
10
0
20
0
30
0
70
128
71
14
72
17
73
15
0
VERTEX
8
OBJECT__40
10
0
20
0
30
0
70
128
71
12
72
13
73
11
0
VERTEX
8
OBJECT__40
10
0
20
0
30
0
70
128
71
8
72
18
73
9
0
VERTEX
8
OBJECT__40
10
0
20
0
30
0
70
128
71
7
72
18
73
8
0
VERTEX
8
OBJECT__40
10
0
20
0
30
0
70
128
71
5
72
6
73
4
0
VERTEX
8
OBJECT__40
10
0
20
0
30
0
70
128
71
3
72
16
73
1
0
SEQEND
8
OBJECT__40
0
POLYLINE
8
OBJECT__41
66
1
70
64
71
22
72
22
62
253
0
VERTEX
8
OBJECT__41
10
54.688999
20
4.372000
30
-38.000000
70
192
0
VERTEX
8
OBJECT__41
10
50.830002
20
3.491000
30
-38.000000
70
192
0
VERTEX
8
OBJECT__41
10
50.830002
20
3.491000
30
-25.500000
70
192
0
VERTEX
8
OBJECT__41
10
46.500000
20
-5.500000
30
-25.500000
70
192
0
VERTEX
8
OBJECT__41
10
46.500000
20
-5.500000
30
-38.000000
70
192
0
VERTEX
8
OBJECT__41
10
66.851997
20
0.693000
30
-38.000000
70
192
0
VERTEX
8
OBJECT__41
10
60.558998
20
5.712000
30
-38.000000
70
192
0
VERTEX
8
OBJECT__41
10
60.558998
20
5.712000
30
-25.500000
70
192
0
VERTEX
8
OBJECT__41
10
54.688999
20
4.372000
30
-25.500000
70
192
0
VERTEX
8
OBJECT__41
10
66.851997
20
-11.693000
30
-38.000000
70
192
0
VERTEX
8
OBJECT__41
10
68.361000
20
-10.490000
30
-38.000000
70
192
0
VERTEX
8
OBJECT__41
10
68.361000
20
-10.490000
30
-25.500000
70
192
0
VERTEX
8
OBJECT__41
10
68.361000
20
-0.510000
30
-25.500000
70
192
0
VERTEX
8
OBJECT__41
10
68.361000
20
-0.510000
30
-38.000000
70
192
0
VERTEX
8
OBJECT__41
10
66.851997
20
0.693000
30
-25.500000
70
192
0
VERTEX
8
OBJECT__41
10
54.688999
20
-15.372000
30
-38.000000
70
192
0
VERTEX
8
OBJECT__41
10
60.558998
20
-16.712000
30
-38.000000
70
192
0
VERTEX
8
OBJECT__41
10
60.558998
20
-16.712000
30
-25.500000
70
192
0
VERTEX
8
OBJECT__41
10
66.851997
20
-11.693000
30
-25.500000
70
192
0
VERTEX
8
OBJECT__41
10
50.830002
20
-14.491000
30
-38.000000
70
192
0
VERTEX
8
OBJECT__41
10
50.830002
20
-14.491000
30
-25.500000
70
192
0
VERTEX
8
OBJECT__41
10
54.688999
20
-15.372000
30
-25.500000
70
192
0
VERTEX
8
OBJECT__41
10
0
20
0
30
0
70
128
71
1
72
2
73
3
0
VERTEX
8
OBJECT__41
10
0
20
0
30
0
70
128
71
4
72
3
73
2
0
VERTEX
8
OBJECT__41
10
0
20
0
30
0
70
128
71
2
72
5
73
4
0
VERTEX
8
OBJECT__41
10
0
20
0
30
0
70
128
71
6
72
7
73
8
0
VERTEX
8
OBJECT__41
10
0
20
0
30
0
70
128
71
9
72
8
73
7
0
VERTEX
8
OBJECT__41
10
0
20
0
30
0
70
128
71
7
72
1
73
9
0
VERTEX
8
OBJECT__41
10
0
20
0
30
0
70
128
71
10
72
11
73
12
0
VERTEX
8
OBJECT__41
10
0
20
0
30
0
70
128
71
13
72
12
73
11
0
VERTEX
8
OBJECT__41
10
0
20
0
30
0
70
128
71
11
72
14
73
13
0
VERTEX
8
OBJECT__41
10
0
20
0
30
0
70
128
71
15
72
13
73
14
0
VERTEX
8
OBJECT__41
10
0
20
0
30
0
70
128
71
14
72
6
73
15
0
VERTEX
8
OBJECT__41
10
0
20
0
30
0
70
128
71
16
72
17
73
18
0
VERTEX
8
OBJECT__41
10
0
20
0
30
0
70
128
71
19
72
18
73
17
0
VERTEX
8
OBJECT__41
10
0
20
0
30
0
70
128
71
17
72
10
73
19
0
VERTEX
8
OBJECT__41
10
0
20
0
30
0
70
128
71
5
72
20
73
21
0
VERTEX
8
OBJECT__41
10
0
20
0
30
0
70
128
71
22
72
21
73
20
0
VERTEX
8
OBJECT__41
10
0
20
0
30
0
70
128
71
20
72
16
73
22
0
VERTEX
8
OBJECT__41
10
0
20
0
30
0
70
128
71
21
72
4
73
5
0
VERTEX
8
OBJECT__41
10
0
20
0
30
0
70
128
71
18
72
22
73
16
0
VERTEX
8
OBJECT__41
10
0
20
0
30
0
70
128
71
12
72
19
73
10
0
VERTEX
8
OBJECT__41
10
0
20
0
30
0
70
128
71
8
72
15
73
6
0
VERTEX
8
OBJECT__41
10
0
20
0
30
0
70
128
71
3
72
9
73
1
0
SEQEND
8
OBJECT__41
0
POLYLINE
8
OBJECT__42
66
1
70
64
71
18
72
18
62
253
0
VERTEX
8
OBJECT__42
10
46.500000
20
-5.500000
30
-25.500000
70
192
0
VERTEX
8
OBJECT__42
10
47.000000
20
-5.500000
30
-25.000000
70
192
0
VERTEX
8
OBJECT__42
10
51.141998
20
3.100000
30
-25.000000
70
192
0
VERTEX
8
OBJECT__42
10
60.448002
20
5.224000
30
-25.000000
70
192
0
VERTEX
8
OBJECT__42
10
60.558998
20
5.712000
30
-25.500000
70
192
0
VERTEX
8
OBJECT__42
10
54.688999
20
4.372000
30
-25.500000
70
192
0
VERTEX
8
OBJECT__42
10
67.911003
20
-0.727000
30
-25.000000
70
192
0
VERTEX
8
OBJECT__42
10
66.851997
20
0.693000
30
-25.500000
70
192
0
VERTEX
8
OBJECT__42
10
68.361000
20
-0.510000
30
-25.500000
70
192
0
VERTEX
8
OBJECT__42
10
68.361000
20
-10.490000
30
-25.500000
70
192
0
VERTEX
8
OBJECT__42
10
60.448002
20
-16.224001
30
-25.000000
70
192
0
VERTEX
8
OBJECT__42
10
60.558998
20
-16.712000
30
-25.500000
70
192
0
VERTEX
8
OBJECT__42
10
66.851997
20
-11.693000
30
-25.500000
70
192
0
VERTEX
8
OBJECT__42
10
67.911003
20
-10.273000
30
-25.000000
70
192
0
VERTEX
8
OBJECT__42
10
51.141998
20
-14.100000
30
-25.000000
70
192
0
VERTEX
8
OBJECT__42
10
54.688999
20
-15.372000
30
-25.500000
70
192
0
VERTEX
8
OBJECT__42
10
50.830002
20
-14.491000
30
-25.500000
70
192
0
VERTEX
8
OBJECT__42
10
50.830002
20
3.491000
30
-25.500000
70
192
0
VERTEX
8
OBJECT__42
10
0
20
0
30
0
70
128
71
1
72
2
73
3
0
VERTEX
8
OBJECT__42
10
0
20
0
30
0
70
128
71
4
72
5
73
6
0
VERTEX
8
OBJECT__42
10
0
20
0
30
0
70
128
71
6
72
3
73
4
0
VERTEX
8
OBJECT__42
10
0
20
0
30
0
70
128
71
4
72
7
73
8
0
VERTEX
8
OBJECT__42
10
0
20
0
30
0
70
128
71
7
72
9
73
8
0
VERTEX
8
OBJECT__42
10
0
20
0
30
0
70
128
71
10
72
9
73
7
0
VERTEX
8
OBJECT__42
10
0
20
0
30
0
70
128
71
11
72
12
73
13
0
VERTEX
8
OBJECT__42
10
0
20
0
30
0
70
128
71
13
72
14
73
11
0
VERTEX
8
OBJECT__42
10
0
20
0
30
0
70
128
71
11
72
15
73
16
0
VERTEX
8
OBJECT__42
10
0
20
0
30
0
70
128
71
15
72
17
73
16
0
VERTEX
8
OBJECT__42
10
0
20
0
30
0
70
128
71
1
72
17
73
15
0
VERTEX
8
OBJECT__42
10
0
20
0
30
0
70
128
71
15
72
2
73
1
0
VERTEX
8
OBJECT__42
10
0
20
0
30
0
70
128
71
16
72
12
73
11
0
VERTEX
8
OBJECT__42
10
0
20
0
30
0
70
128
71
13
72
10
73
14
0
VERTEX
8
OBJECT__42
10
0
20
0
30
0
70
128
71
7
72
14
73
10
0
VERTEX
8
OBJECT__42
10
0
20
0
30
0
70
128
71
8
72
5
73
4
0
VERTEX
8
OBJECT__42
10
0
20
0
30
0
70
128
71
6
72
18
73
3
0
VERTEX
8
OBJECT__42
10
0
20
0
30
0
70
128
71
3
72
18
73
1
0
SEQEND
8
OBJECT__42
0
POLYLINE
8
OBJECT__43
66
1
70
64
71
17
72
17
62
253
0
VERTEX
8
OBJECT__43
10
65.347000
20
-15.613000
30
-25.000000
70
192
0
VERTEX
8
OBJECT__43
10
63.240002
20
-14.576000
30
-25.000000
70
192
0
VERTEX
8
OBJECT__43
10
67.075996
20
-10.740000
30
-25.000000
70
192
0
VERTEX
8
OBJECT__43
10
58.000000
20
-18.000000
30
-25.000000
70
192
0
VERTEX
8
OBJECT__43
10
58.000000
20
-15.980000
30
-25.000000
70
192
0
VERTEX
8
OBJECT__43
10
50.653000
20
-15.613000
30
-25.000000
70
192
0
VERTEX
8
OBJECT__43
10
52.759998
20
-14.576000
30
-25.000000
70
192
0
VERTEX
8
OBJECT__43
10
46.112000
20
-9.363000
30
-25.000000
70
192
0
VERTEX
8
OBJECT__43
10
48.924000
20
-10.740000
30
-25.000000
70
192
0
VERTEX
8
OBJECT__43
10
69.888000
20
-1.637000
30
-25.000000
70
192
0
VERTEX
8
OBJECT__43
10
69.888000
20
-9.363000
30
-25.000000
70
192
0
VERTEX
8
OBJECT__43
10
68.480003
20
-5.500000
30
-25.000000
70
192
0
VERTEX
8
OBJECT__43
10
48.924000
20
-0.260000
30
-25.000000
70
192
0
VERTEX
8
OBJECT__43
10
58.000000
20
7.000000
30
-25.000000
70
192
0
VERTEX
8
OBJECT__43
10
67.075996
20
-0.260000
30
-25.000000
70
192
0
VERTEX
8
OBJECT__43
10
46.112000
20
-1.637000
30
-25.000000
70
192
0
VERTEX
8
OBJECT__43
10
58.000000
20
4.980000
30
-25.000000
70
192
0
VERTEX
8
OBJECT__43
10
0
20
0
30
0
70
128
71
1
72
2
73
3
0
VERTEX
8
OBJECT__43
10
0
20
0
30
0
70
128
71
4
72
5
73
2
0
VERTEX
8
OBJECT__43
10
0
20
0
30
0
70
128
71
4
72
6
73
7
0
VERTEX
8
OBJECT__43
10
0
20
0
30
0
70
128
71
6
72
8
73
9
0
VERTEX
8
OBJECT__43
10
0
20
0
30
0
70
128
71
10
72
11
73
12
0
VERTEX
8
OBJECT__43
10
0
20
0
30
0
70
128
71
2
72
1
73
4
0
VERTEX
8
OBJECT__43
10
0
20
0
30
0
70
128
71
9
72
7
73
6
0
VERTEX
8
OBJECT__43
10
0
20
0
30
0
70
128
71
11
72
3
73
12
0
VERTEX
8
OBJECT__43
10
0
20
0
30
0
70
128
71
7
72
5
73
4
0
VERTEX
8
OBJECT__43
10
0
20
0
30
0
70
128
71
3
72
11
73
1
0
VERTEX
8
OBJECT__43
10
0
20
0
30
0
70
128
71
13
72
9
73
8
0
VERTEX
8
OBJECT__43
10
0
20
0
30
0
70
128
71
14
72
10
73
15
0
VERTEX
8
OBJECT__43
10
0
20
0
30
0
70
128
71
8
72
16
73
13
0
VERTEX
8
OBJECT__43
10
0
20
0
30
0
70
128
71
12
72
15
73
10
0
VERTEX
8
OBJECT__43
10
0
20
0
30
0
70
128
71
15
72
17
73
14
0
VERTEX
8
OBJECT__43
10
0
20
0
30
0
70
128
71
17
72
13
73
14
0
VERTEX
8
OBJECT__43
10
0
20
0
30
0
70
128
71
13
72
16
73
14
0
SEQEND
8
OBJECT__43
0
POLYLINE
8
OBJECT__44
66
1
70
64
71
13
72
13
62
253
0
VERTEX
8
OBJECT__44
10
69.888000
20
-1.637000
30
-22.000000
70
192
0
VERTEX
8
OBJECT__44
10
69.888000
20
-1.637000
30
-25.000000
70
192
0
VERTEX
8
OBJECT__44
10
58.000000
20
7.000000
30
-25.000000
70
192
0
VERTEX
8
OBJECT__44
10
65.347000
20
-15.613000
30
-22.000000
70
192
0
VERTEX
8
OBJECT__44
10
69.888000
20
-9.363000
30
-25.000000
70
192
0
VERTEX
8
OBJECT__44
10
65.347000
20
-15.613000
30
-25.000000
70
192
0
VERTEX
8
OBJECT__44
10
50.653000
20
-15.613000
30
-22.000000
70
192
0
VERTEX
8
OBJECT__44
10
58.000000
20
-18.000000
30
-25.000000
70
192
0
VERTEX
8
OBJECT__44
10
50.653000
20
-15.613000
30
-25.000000
70
192
0
VERTEX
8
OBJECT__44
10
46.112000
20
-1.637000
30
-22.000000
70
192
0
VERTEX
8
OBJECT__44
10
46.112000
20
-9.363000
30
-25.000000
70
192
0
VERTEX
8
OBJECT__44
10
46.112000
20
-1.637000
30
-25.000000
70
192
0
VERTEX
8
OBJECT__44
10
58.000000
20
7.000000
30
-22.000000
70
192
0
VERTEX
8
OBJECT__44
10
0
20
0
30
0
70
128
71
1
72
2
73
3
0
VERTEX
8
OBJECT__44
10
0
20
0
30
0
70
128
71
1
72
4
73
5
0
VERTEX
8
OBJECT__44
10
0
20
0
30
0
70
128
71
4
72
6
73
5
0
VERTEX
8
OBJECT__44
10
0
20
0
30
0
70
128
71
4
72
7
73
8
0
VERTEX
8
OBJECT__44
10
0
20
0
30
0
70
128
71
7
72
9
73
8
0
VERTEX
8
OBJECT__44
10
0
20
0
30
0
70
128
71
7
72
10
73
11
0
VERTEX
8
OBJECT__44
10
0
20
0
30
0
70
128
71
10
72
12
73
11
0
VERTEX
8
OBJECT__44
10
0
20
0
30
0
70
128
71
13
72
3
73
12
0
VERTEX
8
OBJECT__44
10
0
20
0
30
0
70
128
71
12
72
10
73
13
0
VERTEX
8
OBJECT__44
10
0
20
0
30
0
70
128
71
11
72
9
73
7
0
VERTEX
8
OBJECT__44
10
0
20
0
30
0
70
128
71
8
72
6
73
4
0
VERTEX
8
OBJECT__44
10
0
20
0
30
0
70
128
71
5
72
2
73
1
0
VERTEX
8
OBJECT__44
10
0
20
0
30
0
70
128
71
3
72
13
73
1
0
SEQEND
8
OBJECT__44
0
POLYLINE
8
OBJECT__46
66
1
70
64
71
12
72
12
62
253
0
VERTEX
8
OBJECT__46
10
-59.500000
20
58.200001
30
0.000000
70
192
0
VERTEX
8
OBJECT__46
10
-67.250000
20
58.200001
30
13.423000
70
192
0
VERTEX
8
OBJECT__46
10
-67.250000
20
15.200000
30
13.423000
70
192
0
VERTEX
8
OBJECT__46
10
-59.500000
20
15.200000
30
0.000000
70
192
0
VERTEX
8
OBJECT__46
10
-82.750000
20
58.200001
30
13.423000
70
192
0
VERTEX
8
OBJECT__46
10
-82.750000
20
15.200000
30
13.423000
70
192
0
VERTEX
8
OBJECT__46
10
-90.500000
20
58.200001
30
0.000000
70
192
0
VERTEX
8
OBJECT__46
10
-90.500000
20
15.200000
30
0.000000
70
192
0
VERTEX
8
OBJECT__46
10
-82.750000
20
58.200001
30
-13.423000
70
192
0
VERTEX
8
OBJECT__46
10
-82.750000
20
15.200000
30
-13.423000
70
192
0
VERTEX
8
OBJECT__46
10
-67.250000
20
58.200001
30
-13.423000
70
192
0
VERTEX
8
OBJECT__46
10
-67.250000
20
15.200000
30
-13.423000
70
192
0
VERTEX
8
OBJECT__46
10
0
20
0
30
0
70
128
71
1
72
2
73
3
0
VERTEX
8
OBJECT__46
10
0
20
0
30
0
70
128
71
1
72
3
73
4
0
VERTEX
8
OBJECT__46
10
0
20
0
30
0
70
128
71
2
72
5
73
6
0
VERTEX
8
OBJECT__46
10
0
20
0
30
0
70
128
71
2
72
6
73
3
0
VERTEX
8
OBJECT__46
10
0
20
0
30
0
70
128
71
5
72
7
73
8
0
VERTEX
8
OBJECT__46
10
0
20
0
30
0
70
128
71
5
72
8
73
6
0
VERTEX
8
OBJECT__46
10
0
20
0
30
0
70
128
71
7
72
9
73
10
0
VERTEX
8
OBJECT__46
10
0
20
0
30
0
70
128
71
7
72
10
73
8
0
VERTEX
8
OBJECT__46
10
0
20
0
30
0
70
128
71
9
72
11
73
12
0
VERTEX
8
OBJECT__46
10
0
20
0
30
0
70
128
71
9
72
12
73
10
0
VERTEX
8
OBJECT__46
10
0
20
0
30
0
70
128
71
11
72
1
73
4
0
VERTEX
8
OBJECT__46
10
0
20
0
30
0
70
128
71
11
72
4
73
12
0
SEQEND
8
OBJECT__46
0
POLYLINE
8
OBJECT__48
66
1
70
64
71
8
72
6
62
253
0
VERTEX
8
OBJECT__48
10
-50.250999
20
78.199997
30
24.749001
70
192
0
VERTEX
8
OBJECT__48
10
-110.000000
20
78.199997
30
0.000000
70
192
0
VERTEX
8
OBJECT__48
10
-99.749001
20
78.199997
30
24.749001
70
192
0
VERTEX
8
OBJECT__48
10
-50.250999
20
78.199997
30
-24.749001
70
192
0
VERTEX
8
OBJECT__48
10
-75.000000
20
78.199997
30
-35.000000
70
192
0
VERTEX
8
OBJECT__48
10
-75.000000
20
78.199997
30
35.000000
70
192
0
VERTEX
8
OBJECT__48
10
-40.000000
20
78.199997
30
0.000000
70
192
0
VERTEX
8
OBJECT__48
10
-99.749001
20
78.199997
30
-24.749001
70
192
0
VERTEX
8
OBJECT__48
10
0
20
0
30
0
70
128
71
1
72
2
73
3
0
VERTEX
8
OBJECT__48
10
0
20
0
30
0
70
128
71
2
72
4
73
5
0
VERTEX
8
OBJECT__48
10
0
20
0
30
0
70
128
71
3
72
6
73
1
0
VERTEX
8
OBJECT__48
10
0
20
0
30
0
70
128
71
2
72
7
73
4
0
VERTEX
8
OBJECT__48
10
0
20
0
30
0
70
128
71
5
72
8
73
2
0
VERTEX
8
OBJECT__48
10
0
20
0
30
0
70
128
71
1
72
7
73
2
0
SEQEND
8
OBJECT__48
0
POLYLINE
8
OBJECT__49
66
1
70
64
71
16
72
16
62
253
0
VERTEX
8
OBJECT__49
10
-50.250999
20
78.199997
30
24.749001
70
192
0
VERTEX
8
OBJECT__49
10
-75.000000
20
78.199997
30
35.000000
70
192
0
VERTEX
8
OBJECT__49
10
-75.000000
20
50.200001
30
35.000000
70
192
0
VERTEX
8
OBJECT__49
10
-40.000000
20
50.200001
30
0.000000
70
192
0
VERTEX
8
OBJECT__49
10
-40.000000
20
78.199997
30
0.000000
70
192
0
VERTEX
8
OBJECT__49
10
-50.250999
20
78.199997
30
-24.749001
70
192
0
VERTEX
8
OBJECT__49
10
-50.250999
20
50.200001
30
-24.749001
70
192
0
VERTEX
8
OBJECT__49
10
-75.000000
20
50.200001
30
-35.000000
70
192
0
VERTEX
8
OBJECT__49
10
-99.749001
20
50.200001
30
-24.749001
70
192
0
VERTEX
8
OBJECT__49
10
-99.749001
20
78.199997
30
-24.749001
70
192
0
VERTEX
8
OBJECT__49
10
-75.000000
20
78.199997
30
-35.000000
70
192
0
VERTEX
8
OBJECT__49
10
-110.000000
20
50.200001
30
0.000000
70
192
0
VERTEX
8
OBJECT__49
10
-110.000000
20
78.199997
30
0.000000
70
192
0
VERTEX
8
OBJECT__49
10
-99.749001
20
50.200001
30
24.749001
70
192
0
VERTEX
8
OBJECT__49
10
-99.749001
20
78.199997
30
24.749001
70
192
0
VERTEX
8
OBJECT__49
10
-50.250999
20
50.200001
30
24.749001
70
192
0
VERTEX
8
OBJECT__49
10
0
20
0
30
0
70
128
71
1
72
2
73
3
0
VERTEX
8
OBJECT__49
10
0
20
0
30
0
70
128
71
4
72
5
73
1
0
VERTEX
8
OBJECT__49
10
0
20
0
30
0
70
128
71
6
72
5
73
4
0
VERTEX
8
OBJECT__49
10
0
20
0
30
0
70
128
71
6
72
7
73
8
0
VERTEX
8
OBJECT__49
10
0
20
0
30
0
70
128
71
9
72
10
73
11
0
VERTEX
8
OBJECT__49
10
0
20
0
30
0
70
128
71
12
72
13
73
10
0
VERTEX
8
OBJECT__49
10
0
20
0
30
0
70
128
71
14
72
15
73
13
0
VERTEX
8
OBJECT__49
10
0
20
0
30
0
70
128
71
14
72
3
73
2
0
VERTEX
8
OBJECT__49
10
0
20
0
30
0
70
128
71
2
72
15
73
14
0
VERTEX
8
OBJECT__49
10
0
20
0
30
0
70
128
71
13
72
12
73
14
0
VERTEX
8
OBJECT__49
10
0
20
0
30
0
70
128
71
10
72
9
73
12
0
VERTEX
8
OBJECT__49
10
0
20
0
30
0
70
128
71
11
72
8
73
9
0
VERTEX
8
OBJECT__49
10
0
20
0
30
0
70
128
71
8
72
11
73
6
0
VERTEX
8
OBJECT__49
10
0
20
0
30
0
70
128
71
4
72
7
73
6
0
VERTEX
8
OBJECT__49
10
0
20
0
30
0
70
128
71
1
72
16
73
4
0
VERTEX
8
OBJECT__49
10
0
20
0
30
0
70
128
71
3
72
16
73
1
0
SEQEND
8
OBJECT__49
0
POLYLINE
8
OBJECT__51
66
1
70
64
71
8
72
6
62
253
0
VERTEX
8
OBJECT__51
10
-110.000000
20
50.200001
30
0.000000
70
192
0
VERTEX
8
OBJECT__51
10
-75.000000
20
50.200001
30
-35.000000
70
192
0
VERTEX
8
OBJECT__51
10
-50.250999
20
50.200001
30
-24.749001
70
192
0
VERTEX
8
OBJECT__51
10
-50.250999
20
50.200001
30
24.749001
70
192
0
VERTEX
8
OBJECT__51
10
-75.000000
20
50.200001
30
35.000000
70
192
0
VERTEX
8
OBJECT__51
10
-99.749001
20
50.200001
30
-24.749001
70
192
0
VERTEX
8
OBJECT__51
10
-40.000000
20
50.200001
30
0.000000
70
192
0
VERTEX
8
OBJECT__51
10
-99.749001
20
50.200001
30
24.749001
70
192
0
VERTEX
8
OBJECT__51
10
0
20
0
30
0
70
128
71
1
72
2
73
3
0
VERTEX
8
OBJECT__51
10
0
20
0
30
0
70
128
71
1
72
4
73
5
0
VERTEX
8
OBJECT__51
10
0
20
0
30
0
70
128
71
1
72
6
73
2
0
VERTEX
8
OBJECT__51
10
0
20
0
30
0
70
128
71
1
72
7
73
4
0
VERTEX
8
OBJECT__51
10
0
20
0
30
0
70
128
71
5
72
8
73
1
0
VERTEX
8
OBJECT__51
10
0
20
0
30
0
70
128
71
3
72
7
73
1
0
SEQEND
8
OBJECT__51
0
POLYLINE
8
OBJECT__52
66
1
70
64
71
15
72
15
62
253
0
VERTEX
8
OBJECT__52
10
46.500000
20
-5.500000
30
40.200001
70
192
0
VERTEX
8
OBJECT__52
10
46.500000
20
-5.500000
30
26.566000
70
192
0
VERTEX
8
OBJECT__52
10
48.695999
20
-12.260000
30
26.566000
70
192
0
VERTEX
8
OBJECT__52
10
54.445999
20
-16.437000
30
40.200001
70
192
0
VERTEX
8
OBJECT__52
10
55.125000
20
-14.348000
30
26.566000
70
192
0
VERTEX
8
OBJECT__52
10
61.554001
20
-16.437000
30
26.566000
70
192
0
VERTEX
8
OBJECT__52
10
67.304001
20
-12.260000
30
40.200001
70
192
0
VERTEX
8
OBJECT__52
10
67.304001
20
1.260000
30
40.200001
70
192
0
VERTEX
8
OBJECT__52
10
69.500000
20
-5.500000
30
26.566000
70
192
0
VERTEX
8
OBJECT__52
10
65.527000
20
-10.969000
30
26.566000
70
192
0
VERTEX
8
OBJECT__52
10
54.445999
20
5.437000
30
40.200001
70
192
0
VERTEX
8
OBJECT__52
10
61.554001
20
5.437000
30
26.566000
70
192
0
VERTEX
8
OBJECT__52
10
65.527000
20
-0.031000
30
26.566000
70
192
0
VERTEX
8
OBJECT__52
10
48.695999
20
1.260000
30
26.566000
70
192
0
VERTEX
8
OBJECT__52
10
55.125000
20
3.348000
30
26.566000
70
192
0
VERTEX
8
OBJECT__52
10
0
20
0
30
0
70
128
71
1
72
2
73
3
0
VERTEX
8
OBJECT__52
10
0
20
0
30
0
70
128
71
3
72
4
73
1
0
VERTEX
8
OBJECT__52
10
0
20
0
30
0
70
128
71
4
72
5
73
6
0
VERTEX
8
OBJECT__52
10
0
20
0
30
0
70
128
71
6
72
7
73
4
0
VERTEX
8
OBJECT__52
10
0
20
0
30
0
70
128
71
8
72
7
73
9
0
VERTEX
8
OBJECT__52
10
0
20
0
30
0
70
128
71
7
72
10
73
9
0
VERTEX
8
OBJECT__52
10
0
20
0
30
0
70
128
71
11
72
8
73
12
0
VERTEX
8
OBJECT__52
10
0
20
0
30
0
70
128
71
8
72
13
73
12
0
VERTEX
8
OBJECT__52
10
0
20
0
30
0
70
128
71
1
72
11
73
14
0
VERTEX
8
OBJECT__52
10
0
20
0
30
0
70
128
71
11
72
15
73
14
0
VERTEX
8
OBJECT__52
10
0
20
0
30
0
70
128
71
14
72
2
73
1
0
VERTEX
8
OBJECT__52
10
0
20
0
30
0
70
128
71
12
72
15
73
11
0
VERTEX
8
OBJECT__52
10
0
20
0
30
0
70
128
71
9
72
13
73
8
0
VERTEX
8
OBJECT__52
10
0
20
0
30
0
70
128
71
6
72
10
73
7
0
VERTEX
8
OBJECT__52
10
0
20
0
30
0
70
128
71
3
72
5
73
4
0
SEQEND
8
OBJECT__52
0
POLYLINE
8
OBJECT__53
66
1
70
64
71
20
72
20
62
253
0
VERTEX
8
OBJECT__53
10
67.163002
20
-12.157000
30
25.400000
70
192
0
VERTEX
8
OBJECT__53
10
72.000000
20
-5.500000
30
25.400000
70
192
0
VERTEX
8
OBJECT__53
10
69.500000
20
-5.500000
30
26.566000
70
192
0
VERTEX
8
OBJECT__53
10
65.527000
20
-10.969000
30
26.566000
70
192
0
VERTEX
8
OBJECT__53
10
61.554001
20
-16.437000
30
26.566000
70
192
0
VERTEX
8
OBJECT__53
10
62.326000
20
-18.815001
30
25.400000
70
192
0
VERTEX
8
OBJECT__53
10
54.500000
20
-16.271999
30
25.400000
70
192
0
VERTEX
8
OBJECT__53
10
55.125000
20
-14.348000
30
26.566000
70
192
0
VERTEX
8
OBJECT__53
10
48.695999
20
-12.260000
30
26.566000
70
192
0
VERTEX
8
OBJECT__53
10
46.674000
20
-13.729000
30
25.400000
70
192
0
VERTEX
8
OBJECT__53
10
46.674000
20
2.729000
30
25.400000
70
192
0
VERTEX
8
OBJECT__53
10
44.000000
20
-5.500000
30
25.400000
70
192
0
VERTEX
8
OBJECT__53
10
46.500000
20
-5.500000
30
26.566000
70
192
0
VERTEX
8
OBJECT__53
10
54.500000
20
5.272000
30
25.400000
70
192
0
VERTEX
8
OBJECT__53
10
48.695999
20
1.260000
30
26.566000
70
192
0
VERTEX
8
OBJECT__53
10
55.125000
20
3.348000
30
26.566000
70
192
0
VERTEX
8
OBJECT__53
10
61.554001
20
5.437000
30
26.566000
70
192
0
VERTEX
8
OBJECT__53
10
62.326000
20
7.815000
30
25.400000
70
192
0
VERTEX
8
OBJECT__53
10
67.163002
20
1.157000
30
25.400000
70
192
0
VERTEX
8
OBJECT__53
10
65.527000
20
-0.031000
30
26.566000
70
192
0
VERTEX
8
OBJECT__53
10
0
20
0
30
0
70
128
71
1
72
2
73
3
0
VERTEX
8
OBJECT__53
10
0
20
0
30
0
70
128
71
1
72
4
73
5
0
VERTEX
8
OBJECT__53
10
0
20
0
30
0
70
128
71
5
72
6
73
1
0
VERTEX
8
OBJECT__53
10
0
20
0
30
0
70
128
71
7
72
6
73
5
0
VERTEX
8
OBJECT__53
10
0
20
0
30
0
70
128
71
7
72
8
73
9
0
VERTEX
8
OBJECT__53
10
0
20
0
30
0
70
128
71
9
72
10
73
7
0
VERTEX
8
OBJECT__53
10
0
20
0
30
0
70
128
71
11
72
12
73
13
0
VERTEX
8
OBJECT__53
10
0
20
0
30
0
70
128
71
10
72
9
73
13
0
VERTEX
8
OBJECT__53
10
0
20
0
30
0
70
128
71
13
72
12
73
10
0
VERTEX
8
OBJECT__53
10
0
20
0
30
0
70
128
71
14
72
11
73
15
0
VERTEX
8
OBJECT__53
10
0
20
0
30
0
70
128
71
14
72
16
73
17
0
VERTEX
8
OBJECT__53
10
0
20
0
30
0
70
128
71
17
72
18
73
14
0
VERTEX
8
OBJECT__53
10
0
20
0
30
0
70
128
71
19
72
18
73
17
0
VERTEX
8
OBJECT__53
10
0
20
0
30
0
70
128
71
19
72
20
73
3
0
VERTEX
8
OBJECT__53
10
0
20
0
30
0
70
128
71
3
72
2
73
19
0
VERTEX
8
OBJECT__53
10
0
20
0
30
0
70
128
71
17
72
20
73
19
0
VERTEX
8
OBJECT__53
10
0
20
0
30
0
70
128
71
15
72
16
73
14
0
VERTEX
8
OBJECT__53
10
0
20
0
30
0
70
128
71
13
72
15
73
11
0
VERTEX
8
OBJECT__53
10
0
20
0
30
0
70
128
71
5
72
8
73
7
0
VERTEX
8
OBJECT__53
10
0
20
0
30
0
70
128
71
3
72
4
73
1
0
SEQEND
8
OBJECT__53
0
POLYLINE
8
OBJECT__55
66
1
70
64
71
15
72
15
62
253
0
VERTEX
8
OBJECT__55
10
44.000000
20
-5.500000
30
22.000000
70
192
0
VERTEX
8
OBJECT__55
10
53.674000
20
-18.815001
30
22.000000
70
192
0
VERTEX
8
OBJECT__55
10
46.674000
20
-13.729000
30
25.400000
70
192
0
VERTEX
8
OBJECT__55
10
54.500000
20
-16.271999
30
25.400000
70
192
0
VERTEX
8
OBJECT__55
10
69.325996
20
-13.729000
30
22.000000
70
192
0
VERTEX
8
OBJECT__55
10
67.163002
20
-12.157000
30
25.400000
70
192
0
VERTEX
8
OBJECT__55
10
62.326000
20
-18.815001
30
25.400000
70
192
0
VERTEX
8
OBJECT__55
10
69.325996
20
2.729000
30
22.000000
70
192
0
VERTEX
8
OBJECT__55
10
72.000000
20
-5.500000
30
25.400000
70
192
0
VERTEX
8
OBJECT__55
10
67.163002
20
1.157000
30
25.400000
70
192
0
VERTEX
8
OBJECT__55
10
53.674000
20
7.815000
30
22.000000
70
192
0
VERTEX
8
OBJECT__55
10
54.500000
20
5.272000
30
25.400000
70
192
0
VERTEX
8
OBJECT__55
10
62.326000
20
7.815000
30
25.400000
70
192
0
VERTEX
8
OBJECT__55
10
44.000000
20
-5.500000
30
25.400000
70
192
0
VERTEX
8
OBJECT__55
10
46.674000
20
2.729000
30
25.400000
70
192
0
VERTEX
8
OBJECT__55
10
0
20
0
30
0
70
128
71
1
72
2
73
3
0
VERTEX
8
OBJECT__55
10
0
20
0
30
0
70
128
71
2
72
4
73
3
0
VERTEX
8
OBJECT__55
10
0
20
0
30
0
70
128
71
5
72
6
73
7
0
VERTEX
8
OBJECT__55
10
0
20
0
30
0
70
128
71
7
72
2
73
5
0
VERTEX
8
OBJECT__55
10
0
20
0
30
0
70
128
71
5
72
8
73
9
0
VERTEX
8
OBJECT__55
10
0
20
0
30
0
70
128
71
8
72
10
73
9
0
VERTEX
8
OBJECT__55
10
0
20
0
30
0
70
128
71
11
72
12
73
13
0
VERTEX
8
OBJECT__55
10
0
20
0
30
0
70
128
71
13
72
8
73
11
0
VERTEX
8
OBJECT__55
10
0
20
0
30
0
70
128
71
1
72
14
73
15
0
VERTEX
8
OBJECT__55
10
0
20
0
30
0
70
128
71
15
72
11
73
1
0
VERTEX
8
OBJECT__55
10
0
20
0
30
0
70
128
71
15
72
12
73
11
0
VERTEX
8
OBJECT__55
10
0
20
0
30
0
70
128
71
13
72
10
73
8
0
VERTEX
8
OBJECT__55
10
0
20
0
30
0
70
128
71
9
72
6
73
5
0
VERTEX
8
OBJECT__55
10
0
20
0
30
0
70
128
71
7
72
4
73
2
0
VERTEX
8
OBJECT__55
10
0
20
0
30
0
70
128
71
3
72
14
73
1
0
SEQEND
8
OBJECT__55
0
POLYLINE
8
OBJECT__56
66
1
70
64
71
4
72
2
62
253
0
VERTEX
8
OBJECT__56
10
-95.000000
20
-28.000000
30
-7.500000
70
192
0
VERTEX
8
OBJECT__56
10
-95.000000
20
-28.000000
30
7.500000
70
192
0
VERTEX
8
OBJECT__56
10
-95.000000
20
17.000000
30
7.500000
70
192
0
VERTEX
8
OBJECT__56
10
-95.000000
20
17.000000
30
-7.500000
70
192
0
VERTEX
8
OBJECT__56
10
0
20
0
30
0
70
128
71
1
72
2
73
3
0
VERTEX
8
OBJECT__56
10
0
20
0
30
0
70
128
71
3
72
4
73
1
0
SEQEND
8
OBJECT__56
0
POLYLINE
8
OBJECT__57
66
1
70
64
71
6
72
4
62
253
0
VERTEX
8
OBJECT__57
10
-90.607002
20
-28.000000
30
18.107000
70
192
0
VERTEX
8
OBJECT__57
10
-90.607002
20
17.000000
30
18.107000
70
192
0
VERTEX
8
OBJECT__57
10
-95.000000
20
17.000000
30
7.500000
70
192
0
VERTEX
8
OBJECT__57
10
-80.000000
20
-28.000000
30
22.500000
70
192
0
VERTEX
8
OBJECT__57
10
-80.000000
20
17.000000
30
22.500000
70
192
0
VERTEX
8
OBJECT__57
10
-95.000000
20
-28.000000
30
7.500000
70
192
0
VERTEX
8
OBJECT__57
10
0
20
0
30
0
70
128
71
1
72
2
73
3
0
VERTEX
8
OBJECT__57
10
0
20
0
30
0
70
128
71
4
72
5
73
2
0
VERTEX
8
OBJECT__57
10
0
20
0
30
0
70
128
71
2
72
1
73
4
0
VERTEX
8
OBJECT__57
10
0
20
0
30
0
70
128
71
3
72
6
73
1
0
SEQEND
8
OBJECT__57
0
POLYLINE
8
OBJECT__59
66
1
70
64
71
6
72
4
62
253
0
VERTEX
8
OBJECT__59
10
-90.607002
20
17.000000
30
-18.107000
70
192
0
VERTEX
8
OBJECT__59
10
-90.607002
20
-28.000000
30
-18.107000
70
192
0
VERTEX
8
OBJECT__59
10
-95.000000
20
-28.000000
30
-7.500000
70
192
0
VERTEX
8
OBJECT__59
10
-80.000000
20
17.000000
30
-22.500000
70
192
0
VERTEX
8
OBJECT__59
10
-80.000000
20
-28.000000
30
-22.500000
70
192
0
VERTEX
8
OBJECT__59
10
-95.000000
20
17.000000
30
-7.500000
70
192
0
VERTEX
8
OBJECT__59
10
0
20
0
30
0
70
128
71
1
72
2
73
3
0
VERTEX
8
OBJECT__59
10
0
20
0
30
0
70
128
71
4
72
5
73
2
0
VERTEX
8
OBJECT__59
10
0
20
0
30
0
70
128
71
2
72
1
73
4
0
VERTEX
8
OBJECT__59
10
0
20
0
30
0
70
128
71
3
72
6
73
1
0
SEQEND
8
OBJECT__59
0
POLYLINE
8
OBJECT__60
66
1
70
64
71
8
72
6
62
253
0
VERTEX
8
OBJECT__60
10
-95.000000
20
17.000000
30
7.500000
70
192
0
VERTEX
8
OBJECT__60
10
-90.607002
20
17.000000
30
18.107000
70
192
0
VERTEX
8
OBJECT__60
10
-80.000000
20
17.000000
30
22.500000
70
192
0
VERTEX
8
OBJECT__60
10
-33.044998
20
17.000000
30
22.500000
70
192
0
VERTEX
8
OBJECT__60
10
-80.000000
20
17.000000
30
-22.500000
70
192
0
VERTEX
8
OBJECT__60
10
-90.607002
20
17.000000
30
-18.107000
70
192
0
VERTEX
8
OBJECT__60
10
-95.000000
20
17.000000
30
-7.500000
70
192
0
VERTEX
8
OBJECT__60
10
-33.044998
20
17.000000
30
-22.500000
70
192
0
VERTEX
8
OBJECT__60
10
0
20
0
30
0
70
128
71
1
72
2
73
3
0
VERTEX
8
OBJECT__60
10
0
20
0
30
0
70
128
71
4
72
5
73
6
0
VERTEX
8
OBJECT__60
10
0
20
0
30
0
70
128
71
4
72
7
73
1
0
VERTEX
8
OBJECT__60
10
0
20
0
30
0
70
128
71
4
72
8
73
5
0
VERTEX
8
OBJECT__60
10
0
20
0
30
0
70
128
71
6
72
7
73
4
0
VERTEX
8
OBJECT__60
10
0
20
0
30
0
70
128
71
3
72
4
73
1
0
SEQEND
8
OBJECT__60
0
POLYLINE
8
OBJECT__61
66
1
70
64
71
6
72
4
62
253
0
VERTEX
8
OBJECT__61
10
-22.270000
20
21.565001
30
-22.500000
70
192
0
VERTEX
8
OBJECT__61
10
-27.194000
20
18.188000
30
-22.500000
70
192
0
VERTEX
8
OBJECT__61
10
-27.194000
20
18.188000
30
22.500000
70
192
0
VERTEX
8
OBJECT__61
10
-33.044998
20
17.000000
30
22.500000
70
192
0
VERTEX
8
OBJECT__61
10
-33.044998
20
17.000000
30
-22.500000
70
192
0
VERTEX
8
OBJECT__61
10
-22.270000
20
21.565001
30
22.500000
70
192
0
VERTEX
8
OBJECT__61
10
0
20
0
30
0
70
128
71
1
72
2
73
3
0
VERTEX
8
OBJECT__61
10
0
20
0
30
0
70
128
71
4
72
3
73
2
0
VERTEX
8
OBJECT__61
10
0
20
0
30
0
70
128
71
2
72
5
73
4
0
VERTEX
8
OBJECT__61
10
0
20
0
30
0
70
128
71
3
72
6
73
1
0
SEQEND
8
OBJECT__61
0
POLYLINE
8
OBJECT__62
66
1
70
64
71
6
72
4
62
253
0
VERTEX
8
OBJECT__62
10
0.000000
20
31.000000
30
22.500000
70
192
0
VERTEX
8
OBJECT__62
10
0.000000
20
31.000000
30
-22.500000
70
192
0
VERTEX
8
OBJECT__62
10
-22.270000
20
21.565001
30
-22.500000
70
192
0
VERTEX
8
OBJECT__62
10
22.270000
20
21.565001
30
22.500000
70
192
0
VERTEX
8
OBJECT__62
10
22.270000
20
21.565001
30
-22.500000
70
192
0
VERTEX
8
OBJECT__62
10
-22.270000
20
21.565001
30
22.500000
70
192
0
VERTEX
8
OBJECT__62
10
0
20
0
30
0
70
128
71
1
72
2
73
3
0
VERTEX
8
OBJECT__62
10
0
20
0
30
0
70
128
71
4
72
5
73
2
0
VERTEX
8
OBJECT__62
10
0
20
0
30
0
70
128
71
2
72
1
73
4
0
VERTEX
8
OBJECT__62
10
0
20
0
30
0
70
128
71
3
72
6
73
1
0
SEQEND
8
OBJECT__62
0
POLYLINE
8
OBJECT__63
66
1
70
64
71
6
72
4
62
253
0
VERTEX
8
OBJECT__63
10
33.044998
20
17.000000
30
-22.500000
70
192
0
VERTEX
8
OBJECT__63
10
27.194000
20
18.188000
30
-22.500000
70
192
0
VERTEX
8
OBJECT__63
10
27.194000
20
18.188000
30
22.500000
70
192
0
VERTEX
8
OBJECT__63
10
22.270000
20
21.565001
30
22.500000
70
192
0
VERTEX
8
OBJECT__63
10
22.270000
20
21.565001
30
-22.500000
70
192
0
VERTEX
8
OBJECT__63
10
33.044998
20
17.000000
30
22.500000
70
192
0
VERTEX
8
OBJECT__63
10
0
20
0
30
0
70
128
71
1
72
2
73
3
0
VERTEX
8
OBJECT__63
10
0
20
0
30
0
70
128
71
4
72
3
73
2
0
VERTEX
8
OBJECT__63
10
0
20
0
30
0
70
128
71
2
72
5
73
4
0
VERTEX
8
OBJECT__63
10
0
20
0
30
0
70
128
71
3
72
6
73
1
0
SEQEND
8
OBJECT__63
0
POLYLINE
8
OBJECT__64
66
1
70
64
71
11
72
9
62
253
0
VERTEX
8
OBJECT__64
10
80.000000
20
-28.000000
30
-22.500000
70
192
0
VERTEX
8
OBJECT__64
10
-27.194000
20
18.188000
30
-22.500000
70
192
0
VERTEX
8
OBJECT__64
10
27.194000
20
18.188000
30
-22.500000
70
192
0
VERTEX
8
OBJECT__64
10
22.270000
20
21.565001
30
-22.500000
70
192
0
VERTEX
8
OBJECT__64
10
-22.270000
20
21.565001
30
-22.500000
70
192
0
VERTEX
8
OBJECT__64
10
33.044998
20
17.000000
30
-22.500000
70
192
0
VERTEX
8
OBJECT__64
10
0.000000
20
31.000000
30
-22.500000
70
192
0
VERTEX
8
OBJECT__64
10
-80.000000
20
-28.000000
30
-22.500000
70
192
0
VERTEX
8
OBJECT__64
10
-33.044998
20
17.000000
30
-22.500000
70
192
0
VERTEX
8
OBJECT__64
10
-80.000000
20
17.000000
30
-22.500000
70
192
0
VERTEX
8
OBJECT__64
10
80.000000
20
17.000000
30
-22.500000
70
192
0
VERTEX
8
OBJECT__64
10
0
20
0
30
0
70
128
71
1
72
2
73
3
0
VERTEX
8
OBJECT__64
10
0
20
0
30
0
70
128
71
4
72
2
73
5
0
VERTEX
8
OBJECT__64
10
0
20
0
30
0
70
128
71
3
72
6
73
1
0
VERTEX
8
OBJECT__64
10
0
20
0
30
0
70
128
71
5
72
7
73
4
0
VERTEX
8
OBJECT__64
10
0
20
0
30
0
70
128
71
1
72
8
73
9
0
VERTEX
8
OBJECT__64
10
0
20
0
30
0
70
128
71
4
72
3
73
2
0
VERTEX
8
OBJECT__64
10
0
20
0
30
0
70
128
71
8
72
10
73
9
0
VERTEX
8
OBJECT__64
10
0
20
0
30
0
70
128
71
9
72
2
73
1
0
VERTEX
8
OBJECT__64
10
0
20
0
30
0
70
128
71
6
72
11
73
1
0
SEQEND
8
OBJECT__64
0
POLYLINE
8
OBJECT__65
66
1
70
64
71
6
72
4
62
253
0
VERTEX
8
OBJECT__65
10
90.607002
20
-28.000000
30
-18.107000
70
192
0
VERTEX
8
OBJECT__65
10
90.607002
20
17.000000
30
-18.107000
70
192
0
VERTEX
8
OBJECT__65
10
95.000000
20
17.000000
30
-7.500000
70
192
0
VERTEX
8
OBJECT__65
10
80.000000
20
-28.000000
30
-22.500000
70
192
0
VERTEX
8
OBJECT__65
10
80.000000
20
17.000000
30
-22.500000
70
192
0
VERTEX
8
OBJECT__65
10
95.000000
20
-28.000000
30
-7.500000
70
192
0
VERTEX
8
OBJECT__65
10
0
20
0
30
0
70
128
71
1
72
2
73
3
0
VERTEX
8
OBJECT__65
10
0
20
0
30
0
70
128
71
4
72
5
73
2
0
VERTEX
8
OBJECT__65
10
0
20
0
30
0
70
128
71
2
72
1
73
4
0
VERTEX
8
OBJECT__65
10
0
20
0
30
0
70
128
71
3
72
6
73
1
0
SEQEND
8
OBJECT__65
0
POLYLINE
8
OBJECT__66
66
1
70
64
71
8
72
6
62
253
0
VERTEX
8
OBJECT__66
10
95.000000
20
17.000000
30
-7.500000
70
192
0
VERTEX
8
OBJECT__66
10
90.607002
20
17.000000
30
-18.107000
70
192
0
VERTEX
8
OBJECT__66
10
80.000000
20
17.000000
30
-22.500000
70
192
0
VERTEX
8
OBJECT__66
10
33.044998
20
17.000000
30
-22.500000
70
192
0
VERTEX
8
OBJECT__66
10
80.000000
20
17.000000
30
22.500000
70
192
0
VERTEX
8
OBJECT__66
10
90.607002
20
17.000000
30
18.107000
70
192
0
VERTEX
8
OBJECT__66
10
95.000000
20
17.000000
30
7.500000
70
192
0
VERTEX
8
OBJECT__66
10
33.044998
20
17.000000
30
22.500000
70
192
0
VERTEX
8
OBJECT__66
10
0
20
0
30
0
70
128
71
1
72
2
73
3
0
VERTEX
8
OBJECT__66
10
0
20
0
30
0
70
128
71
4
72
5
73
6
0
VERTEX
8
OBJECT__66
10
0
20
0
30
0
70
128
71
4
72
7
73
1
0
VERTEX
8
OBJECT__66
10
0
20
0
30
0
70
128
71
4
72
8
73
5
0
VERTEX
8
OBJECT__66
10
0
20
0
30
0
70
128
71
6
72
7
73
4
0
VERTEX
8
OBJECT__66
10
0
20
0
30
0
70
128
71
3
72
4
73
1
0
SEQEND
8
OBJECT__66
0
POLYLINE
8
OBJECT__67
66
1
70
64
71
4
72
2
62
253
0
VERTEX
8
OBJECT__67
10
95.000000
20
-28.000000
30
7.500000
70
192
0
VERTEX
8
OBJECT__67
10
95.000000
20
-28.000000
30
-7.500000
70
192
0
VERTEX
8
OBJECT__67
10
95.000000
20
17.000000
30
-7.500000
70
192
0
VERTEX
8
OBJECT__67
10
95.000000
20
17.000000
30
7.500000
70
192
0
VERTEX
8
OBJECT__67
10
0
20
0
30
0
70
128
71
1
72
2
73
3
0
VERTEX
8
OBJECT__67
10
0
20
0
30
0
70
128
71
3
72
4
73
1
0
SEQEND
8
OBJECT__67
0
POLYLINE
8
OBJECT__68
66
1
70
64
71
6
72
4
62
253
0
VERTEX
8
OBJECT__68
10
90.607002
20
17.000000
30
18.107000
70
192
0
VERTEX
8
OBJECT__68
10
90.607002
20
-28.000000
30
18.107000
70
192
0
VERTEX
8
OBJECT__68
10
95.000000
20
-28.000000
30
7.500000
70
192
0
VERTEX
8
OBJECT__68
10
80.000000
20
17.000000
30
22.500000
70
192
0
VERTEX
8
OBJECT__68
10
80.000000
20
-28.000000
30
22.500000
70
192
0
VERTEX
8
OBJECT__68
10
95.000000
20
17.000000
30
7.500000
70
192
0
VERTEX
8
OBJECT__68
10
0
20
0
30
0
70
128
71
1
72
2
73
3
0
VERTEX
8
OBJECT__68
10
0
20
0
30
0
70
128
71
4
72
5
73
2
0
VERTEX
8
OBJECT__68
10
0
20
0
30
0
70
128
71
2
72
1
73
4
0
VERTEX
8
OBJECT__68
10
0
20
0
30
0
70
128
71
3
72
6
73
1
0
SEQEND
8
OBJECT__68
0
POLYLINE
8
OBJECT__69
66
1
70
64
71
16
72
14
62
253
0
VERTEX
8
OBJECT__69
10
-34.000000
20
-28.000000
30
-3.500000
70
192
0
VERTEX
8
OBJECT__69
10
-80.000000
20
-28.000000
30
22.500000
70
192
0
VERTEX
8
OBJECT__69
10
-90.607002
20
-28.000000
30
18.107000
70
192
0
VERTEX
8
OBJECT__69
10
-34.000000
20
-28.000000
30
22.500000
70
192
0
VERTEX
8
OBJECT__69
10
-95.000000
20
-28.000000
30
-7.500000
70
192
0
VERTEX
8
OBJECT__69
10
-90.607002
20
-28.000000
30
-18.107000
70
192
0
VERTEX
8
OBJECT__69
10
-80.000000
20
-28.000000
30
-22.500000
70
192
0
VERTEX
8
OBJECT__69
10
-95.000000
20
-28.000000
30
7.500000
70
192
0
VERTEX
8
OBJECT__69
10
34.000000
20
-28.000000
30
-3.500000
70
192
0
VERTEX
8
OBJECT__69
10
95.000000
20
-28.000000
30
7.500000
70
192
0
VERTEX
8
OBJECT__69
10
90.607002
20
-28.000000
30
18.107000
70
192
0
VERTEX
8
OBJECT__69
10
95.000000
20
-28.000000
30
-7.500000
70
192
0
VERTEX
8
OBJECT__69
10
80.000000
20
-28.000000
30
-22.500000
70
192
0
VERTEX
8
OBJECT__69
10
80.000000
20
-28.000000
30
22.500000
70
192
0
VERTEX
8
OBJECT__69
10
90.607002
20
-28.000000
30
-18.107000
70
192
0
VERTEX
8
OBJECT__69
10
34.000000
20
-28.000000
30
22.500000
70
192
0
VERTEX
8
OBJECT__69
10
0
20
0
30
0
70
128
71
1
72
2
73
3
0
VERTEX
8
OBJECT__69
10
0
20
0
30
0
70
128
71
1
72
4
73
2
0
VERTEX
8
OBJECT__69
10
0
20
0
30
0
70
128
71
5
72
6
73
7
0
VERTEX
8
OBJECT__69
10
0
20
0
30
0
70
128
71
3
72
8
73
1
0
VERTEX
8
OBJECT__69
10
0
20
0
30
0
70
128
71
9
72
10
73
11
0
VERTEX
8
OBJECT__69
10
0
20
0
30
0
70
128
71
12
72
9
73
13
0
VERTEX
8
OBJECT__69
10
0
20
0
30
0
70
128
71
8
72
5
73
1
0
VERTEX
8
OBJECT__69
10
0
20
0
30
0
70
128
71
7
72
13
73
9
0
VERTEX
8
OBJECT__69
10
0
20
0
30
0
70
128
71
11
72
14
73
9
0
VERTEX
8
OBJECT__69
10
0
20
0
30
0
70
128
71
13
72
15
73
12
0
VERTEX
8
OBJECT__69
10
0
20
0
30
0
70
128
71
9
72
1
73
7
0
VERTEX
8
OBJECT__69
10
0
20
0
30
0
70
128
71
12
72
10
73
9
0
VERTEX
8
OBJECT__69
10
0
20
0
30
0
70
128
71
14
72
16
73
9
0
VERTEX
8
OBJECT__69
10
0
20
0
30
0
70
128
71
7
72
1
73
5
0
SEQEND
8
OBJECT__69
0
POLYLINE
8
OBJECT__70
66
1
70
64
71
6
72
4
62
253
0
VERTEX
8
OBJECT__70
10
-23.393000
20
-32.393002
30
22.500000
70
192
0
VERTEX
8
OBJECT__70
10
-23.393000
20
-32.393002
30
-3.500000
70
192
0
VERTEX
8
OBJECT__70
10
-19.000000
20
-43.000000
30
-3.500000
70
192
0
VERTEX
8
OBJECT__70
10
-34.000000
20
-28.000000
30
22.500000
70
192
0
VERTEX
8
OBJECT__70
10
-34.000000
20
-28.000000
30
-3.500000
70
192
0
VERTEX
8
OBJECT__70
10
-19.000000
20
-43.000000
30
22.500000
70
192
0
VERTEX
8
OBJECT__70
10
0
20
0
30
0
70
128
71
1
72
2
73
3
0
VERTEX
8
OBJECT__70
10
0
20
0
30
0
70
128
71
4
72
5
73
2
0
VERTEX
8
OBJECT__70
10
0
20
0
30
0
70
128
71
2
72
1
73
4
0
VERTEX
8
OBJECT__70
10
0
20
0
30
0
70
128
71
3
72
6
73
1
0
SEQEND
8
OBJECT__70
0
POLYLINE
8
OBJECT__71
66
1
70
64
71
4
72
2
62
253
0
VERTEX
8
OBJECT__71
10
-19.000000
20
-43.000000
30
-3.500000
70
192
0
VERTEX
8
OBJECT__71
10
-19.000000
20
-128.000000
30
-3.500000
70
192
0
VERTEX
8
OBJECT__71
10
-19.000000
20
-128.000000
30
22.500000
70
192
0
VERTEX
8
OBJECT__71
10
-19.000000
20
-43.000000
30
22.500000
70
192
0
VERTEX
8
OBJECT__71
10
0
20
0
30
0
70
128
71
1
72
2
73
3
0
VERTEX
8
OBJECT__71
10
0
20
0
30
0
70
128
71
3
72
4
73
1
0
SEQEND
8
OBJECT__71
0
POLYLINE
8
OBJECT__72
66
1
70
64
71
6
72
4
62
253
0
VERTEX
8
OBJECT__72
10
23.393000
20
-32.393002
30
22.500000
70
192
0
VERTEX
8
OBJECT__72
10
23.393000
20
-32.393002
30
-3.500000
70
192
0
VERTEX
8
OBJECT__72
10
34.000000
20
-28.000000
30
-3.500000
70
192
0
VERTEX
8
OBJECT__72
10
19.000000
20
-43.000000
30
22.500000
70
192
0
VERTEX
8
OBJECT__72
10
19.000000
20
-43.000000
30
-3.500000
70
192
0
VERTEX
8
OBJECT__72
10
34.000000
20
-28.000000
30
22.500000
70
192
0
VERTEX
8
OBJECT__72
10
0
20
0
30
0
70
128
71
1
72
2
73
3
0
VERTEX
8
OBJECT__72
10
0
20
0
30
0
70
128
71
4
72
5
73
2
0
VERTEX
8
OBJECT__72
10
0
20
0
30
0
70
128
71
2
72
1
73
4
0
VERTEX
8
OBJECT__72
10
0
20
0
30
0
70
128
71
3
72
6
73
1
0
SEQEND
8
OBJECT__72
0
POLYLINE
8
OBJECT__73
66
1
70
64
71
4
72
2
62
253
0
VERTEX
8
OBJECT__73
10
19.000000
20
-128.000000
30
-3.500000
70
192
0
VERTEX
8
OBJECT__73
10
19.000000
20
-43.000000
30
-3.500000
70
192
0
VERTEX
8
OBJECT__73
10
19.000000
20
-43.000000
30
22.500000
70
192
0
VERTEX
8
OBJECT__73
10
19.000000
20
-128.000000
30
22.500000
70
192
0
VERTEX
8
OBJECT__73
10
0
20
0
30
0
70
128
71
1
72
2
73
3
0
VERTEX
8
OBJECT__73
10
0
20
0
30
0
70
128
71
3
72
4
73
1
0
SEQEND
8
OBJECT__73
0
POLYLINE
8
OBJECT__74
66
1
70
64
71
23
72
21
62
253
0
VERTEX
8
OBJECT__74
10
11.000000
20
-136.000000
30
22.500000
70
192
0
VERTEX
8
OBJECT__74
10
16.657000
20
-133.656998
30
22.500000
70
192
0
VERTEX
8
OBJECT__74
10
19.000000
20
-128.000000
30
22.500000
70
192
0
VERTEX
8
OBJECT__74
10
19.000000
20
-43.000000
30
22.500000
70
192
0
VERTEX
8
OBJECT__74
10
-19.000000
20
-128.000000
30
22.500000
70
192
0
VERTEX
8
OBJECT__74
10
-16.657000
20
-133.656998
30
22.500000
70
192
0
VERTEX
8
OBJECT__74
10
-11.000000
20
-136.000000
30
22.500000
70
192
0
VERTEX
8
OBJECT__74
10
-19.000000
20
-43.000000
30
22.500000
70
192
0
VERTEX
8
OBJECT__74
10
23.393000
20
-32.393002
30
22.500000
70
192
0
VERTEX
8
OBJECT__74
10
22.270000
20
21.565001
30
22.500000
70
192
0
VERTEX
8
OBJECT__74
10
0.000000
20
31.000000
30
22.500000
70
192
0
VERTEX
8
OBJECT__74
10
80.000000
20
17.000000
30
22.500000
70
192
0
VERTEX
8
OBJECT__74
10
33.044998
20
17.000000
30
22.500000
70
192
0
VERTEX
8
OBJECT__74
10
34.000000
20
-28.000000
30
22.500000
70
192
0
VERTEX
8
OBJECT__74
10
-80.000000
20
17.000000
30
22.500000
70
192
0
VERTEX
8
OBJECT__74
10
-80.000000
20
-28.000000
30
22.500000
70
192
0
VERTEX
8
OBJECT__74
10
-34.000000
20
-28.000000
30
22.500000
70
192
0
VERTEX
8
OBJECT__74
10
27.194000
20
18.188000
30
22.500000
70
192
0
VERTEX
8
OBJECT__74
10
80.000000
20
-28.000000
30
22.500000
70
192
0
VERTEX
8
OBJECT__74
10
-27.194000
20
18.188000
30
22.500000
70
192
0
VERTEX
8
OBJECT__74
10
-23.393000
20
-32.393002
30
22.500000
70
192
0
VERTEX
8
OBJECT__74
10
-33.044998
20
17.000000
30
22.500000
70
192
0
VERTEX
8
OBJECT__74
10
-22.270000
20
21.565001
30
22.500000
70
192
0
VERTEX
8
OBJECT__74
10
0
20
0
30
0
70
128
71
1
72
2
73
3
0
VERTEX
8
OBJECT__74
10
0
20
0
30
0
70
128
71
4
72
5
73
6
0
VERTEX
8
OBJECT__74
10
0
20
0
30
0
70
128
71
4
72
7
73
1
0
VERTEX
8
OBJECT__74
10
0
20
0
30
0
70
128
71
4
72
8
73
5
0
VERTEX
8
OBJECT__74
10
0
20
0
30
0
70
128
71
9
72
10
73
11
0
VERTEX
8
OBJECT__74
10
0
20
0
30
0
70
128
71
12
72
13
73
14
0
VERTEX
8
OBJECT__74
10
0
20
0
30
0
70
128
71
6
72
7
73
4
0
VERTEX
8
OBJECT__74
10
0
20
0
30
0
70
128
71
15
72
16
73
17
0
VERTEX
8
OBJECT__74
10
0
20
0
30
0
70
128
71
9
72
18
73
10
0
VERTEX
8
OBJECT__74
10
0
20
0
30
0
70
128
71
14
72
19
73
12
0
VERTEX
8
OBJECT__74
10
0
20
0
30
0
70
128
71
3
72
4
73
1
0
VERTEX
8
OBJECT__74
10
0
20
0
30
0
70
128
71
20
72
17
73
21
0
VERTEX
8
OBJECT__74
10
0
20
0
30
0
70
128
71
17
72
20
73
22
0
VERTEX
8
OBJECT__74
10
0
20
0
30
0
70
128
71
11
72
23
73
9
0
VERTEX
8
OBJECT__74
10
0
20
0
30
0
70
128
71
18
72
9
73
14
0
VERTEX
8
OBJECT__74
10
0
20
0
30
0
70
128
71
9
72
21
73
8
0
VERTEX
8
OBJECT__74
10
0
20
0
30
0
70
128
71
17
72
22
73
15
0
VERTEX
8
OBJECT__74
10
0
20
0
30
0
70
128
71
13
72
18
73
14
0
VERTEX
8
OBJECT__74
10
0
20
0
30
0
70
128
71
21
72
9
73
20
0
VERTEX
8
OBJECT__74
10
0
20
0
30
0
70
128
71
4
72
9
73
8
0
VERTEX
8
OBJECT__74
10
0
20
0
30
0
70
128
71
23
72
20
73
9
0
SEQEND
8
OBJECT__74
0
POLYLINE
8
OBJECT__75
66
1
70
64
71
12
72
10
62
253
0
VERTEX
8
OBJECT__75
10
19.000000
20
-128.000000
30
-3.500000
70
192
0
VERTEX
8
OBJECT__75
10
11.000000
20
-136.000000
30
-3.500000
70
192
0
VERTEX
8
OBJECT__75
10
-11.000000
20
-136.000000
30
-3.500000
70
192
0
VERTEX
8
OBJECT__75
10
-19.000000
20
-128.000000
30
-3.500000
70
192
0
VERTEX
8
OBJECT__75
10
16.657000
20
-133.656998
30
-3.500000
70
192
0
VERTEX
8
OBJECT__75
10
19.000000
20
-43.000000
30
-3.500000
70
192
0
VERTEX
8
OBJECT__75
10
-19.000000
20
-43.000000
30
-3.500000
70
192
0
VERTEX
8
OBJECT__75
10
23.393000
20
-32.393002
30
-3.500000
70
192
0
VERTEX
8
OBJECT__75
10
-16.657000
20
-133.656998
30
-3.500000
70
192
0
VERTEX
8
OBJECT__75
10
-23.393000
20
-32.393002
30
-3.500000
70
192
0
VERTEX
8
OBJECT__75
10
34.000000
20
-28.000000
30
-3.500000
70
192
0
VERTEX
8
OBJECT__75
10
-34.000000
20
-28.000000
30
-3.500000
70
192
0
VERTEX
8
OBJECT__75
10
0
20
0
30
0
70
128
71
1
72
2
73
3
0
VERTEX
8
OBJECT__75
10
0
20
0
30
0
70
128
71
3
72
4
73
1
0
VERTEX
8
OBJECT__75
10
0
20
0
30
0
70
128
71
1
72
5
73
2
0
VERTEX
8
OBJECT__75
10
0
20
0
30
0
70
128
71
6
72
1
73
4
0
VERTEX
8
OBJECT__75
10
0
20
0
30
0
70
128
71
4
72
7
73
6
0
VERTEX
8
OBJECT__75
10
0
20
0
30
0
70
128
71
7
72
8
73
6
0
VERTEX
8
OBJECT__75
10
0
20
0
30
0
70
128
71
3
72
9
73
4
0
VERTEX
8
OBJECT__75
10
0
20
0
30
0
70
128
71
10
72
11
73
8
0
VERTEX
8
OBJECT__75
10
0
20
0
30
0
70
128
71
7
72
10
73
8
0
VERTEX
8
OBJECT__75
10
0
20
0
30
0
70
128
71
10
72
12
73
11
0
SEQEND
8
OBJECT__75
0
POLYLINE
8
OBJECT__76
66
1
70
64
71
4
72
2
62
253
0
VERTEX
8
OBJECT__76
10
-11.000000
20
-136.000000
30
22.500000
70
192
0
VERTEX
8
OBJECT__76
10
-11.000000
20
-136.000000
30
-3.500000
70
192
0
VERTEX
8
OBJECT__76
10
11.000000
20
-136.000000
30
-3.500000
70
192
0
VERTEX
8
OBJECT__76
10
11.000000
20
-136.000000
30
22.500000
70
192
0
VERTEX
8
OBJECT__76
10
0
20
0
30
0
70
128
71
1
72
2
73
3
0
VERTEX
8
OBJECT__76
10
0
20
0
30
0
70
128
71
3
72
4
73
1
0
SEQEND
8
OBJECT__76
0
POLYLINE
8
OBJECT__77
66
1
70
64
71
6
72
4
62
253
0
VERTEX
8
OBJECT__77
10
16.657000
20
-133.656998
30
22.500000
70
192
0
VERTEX
8
OBJECT__77
10
11.000000
20
-136.000000
30
22.500000
70
192
0
VERTEX
8
OBJECT__77
10
11.000000
20
-136.000000
30
-3.500000
70
192
0
VERTEX
8
OBJECT__77
10
16.657000
20
-133.656998
30
-3.500000
70
192
0
VERTEX
8
OBJECT__77
10
19.000000
20
-128.000000
30
-3.500000
70
192
0
VERTEX
8
OBJECT__77
10
19.000000
20
-128.000000
30
22.500000
70
192
0
VERTEX
8
OBJECT__77
10
0
20
0
30
0
70
128
71
1
72
2
73
3
0
VERTEX
8
OBJECT__77
10
0
20
0
30
0
70
128
71
1
72
4
73
5
0
VERTEX
8
OBJECT__77
10
0
20
0
30
0
70
128
71
5
72
6
73
1
0
VERTEX
8
OBJECT__77
10
0
20
0
30
0
70
128
71
3
72
4
73
1
0
SEQEND
8
OBJECT__77
0
POLYLINE
8
OBJECT__78
66
1
70
64
71
6
72
4
62
253
0
VERTEX
8
OBJECT__78
10
-16.657000
20
-133.656998
30
22.500000
70
192
0
VERTEX
8
OBJECT__78
10
-19.000000
20
-128.000000
30
22.500000
70
192
0
VERTEX
8
OBJECT__78
10
-19.000000
20
-128.000000
30
-3.500000
70
192
0
VERTEX
8
OBJECT__78
10
-16.657000
20
-133.656998
30
-3.500000
70
192
0
VERTEX
8
OBJECT__78
10
-11.000000
20
-136.000000
30
-3.500000
70
192
0
VERTEX
8
OBJECT__78
10
-11.000000
20
-136.000000
30
22.500000
70
192
0
VERTEX
8
OBJECT__78
10
0
20
0
30
0
70
128
71
1
72
2
73
3
0
VERTEX
8
OBJECT__78
10
0
20
0
30
0
70
128
71
1
72
4
73
5
0
VERTEX
8
OBJECT__78
10
0
20
0
30
0
70
128
71
5
72
6
73
1
0
VERTEX
8
OBJECT__78
10
0
20
0
30
0
70
128
71
3
72
4
73
1
0
SEQEND
8
OBJECT__78
0
POLYLINE
8
OBJECT__79
66
1
70
64
71
8
72
6
62
253
0
VERTEX
8
OBJECT__79
10
203.552002
20
78.199997
30
4.895000
70
192
0
VERTEX
8
OBJECT__79
10
242.199997
20
78.199997
30
-13.717000
70
192
0
VERTEX
8
OBJECT__79
10
225.000000
20
78.199997
30
-22.000000
70
192
0
VERTEX
8
OBJECT__79
10
246.447998
20
78.199997
30
4.895000
70
192
0
VERTEX
8
OBJECT__79
10
215.455002
20
78.199997
30
19.820999
70
192
0
VERTEX
8
OBJECT__79
10
247.000000
20
78.199997
30
0.000000
70
192
0
VERTEX
8
OBJECT__79
10
234.544998
20
78.199997
30
19.820999
70
192
0
VERTEX
8
OBJECT__79
10
207.800003
20
78.199997
30
-13.717000
70
192
0
VERTEX
8
OBJECT__79
10
0
20
0
30
0
70
128
71
1
72
2
73
3
0
VERTEX
8
OBJECT__79
10
0
20
0
30
0
70
128
71
4
72
1
73
5
0
VERTEX
8
OBJECT__79
10
0
20
0
30
0
70
128
71
1
72
6
73
2
0
VERTEX
8
OBJECT__79
10
0
20
0
30
0
70
128
71
5
72
7
73
4
0
VERTEX
8
OBJECT__79
10
0
20
0
30
0
70
128
71
4
72
6
73
1
0
VERTEX
8
OBJECT__79
10
0
20
0
30
0
70
128
71
3
72
8
73
1
0
SEQEND
8
OBJECT__79
0
POLYLINE
8
OBJECT__80
66
1
70
64
71
48
72
48
62
253
0
VERTEX
8
OBJECT__80
10
203.552002
20
78.199997
30
4.895000
70
192
0
VERTEX
8
OBJECT__80
10
207.800003
20
78.199997
30
-13.717000
70
192
0
VERTEX
8
OBJECT__80
10
208.242996
20
13.200000
30
-13.363000
70
192
0
VERTEX
8
OBJECT__80
10
241.757004
20
13.200000
30
-13.363000
70
192
0
VERTEX
8
OBJECT__80
10
242.199997
20
78.199997
30
-13.717000
70
192
0
VERTEX
8
OBJECT__80
10
247.000000
20
78.199997
30
0.000000
70
192
0
VERTEX
8
OBJECT__80
10
245.895004
20
13.200000
30
4.769000
70
192
0
VERTEX
8
OBJECT__80
10
225.000000
20
78.199997
30
-22.000000
70
192
0
VERTEX
8
OBJECT__80
10
228.748993
20
43.744999
30
-21.372999
70
192
0
VERTEX
8
OBJECT__80
10
235.899994
20
36.301998
30
-18.688000
70
192
0
VERTEX
8
OBJECT__80
10
235.498001
20
37.180000
30
-18.913000
70
192
0
VERTEX
8
OBJECT__80
10
234.591995
20
39.161999
30
-19.420000
70
192
0
VERTEX
8
OBJECT__80
10
232.223007
20
41.812000
30
-20.444000
70
192
0
VERTEX
8
OBJECT__80
10
236.348007
20
33.077999
30
-18.386000
70
192
0
VERTEX
8
OBJECT__80
10
234.000000
20
19.822001
30
-19.514999
70
192
0
VERTEX
8
OBJECT__80
10
234.000000
20
26.391001
30
-19.577999
70
192
0
VERTEX
8
OBJECT__80
10
234.000000
20
13.200000
30
-19.452000
70
192
0
VERTEX
8
OBJECT__80
10
235.707001
20
29.493000
30
-18.731001
70
192
0
VERTEX
8
OBJECT__80
10
214.330002
20
29.392000
30
-18.750999
70
192
0
VERTEX
8
OBJECT__80
10
216.000000
20
26.391001
30
-19.577999
70
192
0
VERTEX
8
OBJECT__80
10
216.000000
20
19.795000
30
-19.514999
70
192
0
VERTEX
8
OBJECT__80
10
213.671997
20
32.529999
30
-18.393000
70
192
0
VERTEX
8
OBJECT__80
10
214.097000
20
36.289001
30
-18.686001
70
192
0
VERTEX
8
OBJECT__80
10
215.876999
20
39.837002
30
-19.650999
70
192
0
VERTEX
8
OBJECT__80
10
214.533997
20
37.160999
30
-18.923000
70
192
0
VERTEX
8
OBJECT__80
10
221.528000
20
43.837002
30
-21.421000
70
192
0
VERTEX
8
OBJECT__80
10
218.494995
20
42.351002
30
-20.688999
70
192
0
VERTEX
8
OBJECT__80
10
224.949997
20
44.374001
30
-21.705000
70
192
0
VERTEX
8
OBJECT__80
10
225.000000
20
44.366001
30
-21.700001
70
192
0
VERTEX
8
OBJECT__80
10
213.160004
20
53.255001
30
18.283001
70
192
0
VERTEX
8
OBJECT__80
10
215.615005
20
54.365002
30
19.492001
70
192
0
VERTEX
8
OBJECT__80
10
210.285995
20
51.234001
30
16.037001
70
192
0
VERTEX
8
OBJECT__80
10
204.104996
20
13.200000
30
4.769000
70
192
0
VERTEX
8
OBJECT__80
10
210.348999
20
32.569000
30
15.874000
70
192
0
VERTEX
8
OBJECT__80
10
210.416000
20
13.200000
30
15.705000
70
192
0
VERTEX
8
OBJECT__80
10
234.544998
20
78.199997
30
19.820999
70
192
0
VERTEX
8
OBJECT__80
10
215.455002
20
78.199997
30
19.820999
70
192
0
VERTEX
8
OBJECT__80
10
223.011002
20
56.421001
30
21.719000
70
192
0
VERTEX
8
OBJECT__80
10
224.992004
20
56.334999
30
21.625999
70
192
0
VERTEX
8
OBJECT__80
10
217.860992
20
55.381001
30
20.599001
70
192
0
VERTEX
8
OBJECT__80
10
228.990005
20
56.160999
30
21.440001
70
192
0
VERTEX
8
OBJECT__80
10
234.429993
20
54.502998
30
19.646999
70
192
0
VERTEX
8
OBJECT__80
10
246.447998
20
78.199997
30
4.895000
70
192
0
VERTEX
8
OBJECT__80
10
239.714005
20
51.234001
30
16.037001
70
192
0
VERTEX
8
OBJECT__80
10
239.649002
20
32.216999
30
15.871000
70
192
0
VERTEX
8
OBJECT__80
10
234.453003
20
54.488998
30
19.631001
70
192
0
VERTEX
8
OBJECT__80
10
239.584000
20
13.200000
30
15.705000
70
192
0
VERTEX
8
OBJECT__80
10
216.000000
20
13.200000
30
-19.452000
70
192
0
VERTEX
8
OBJECT__80
10
0
20
0
30
0
70
128
71
1
72
2
73
3
0
VERTEX
8
OBJECT__80
10
0
20
0
30
0
70
128
71
4
72
5
73
6
0
VERTEX
8
OBJECT__80
10
0
20
0
30
0
70
128
71
6
72
7
73
4
0
VERTEX
8
OBJECT__80
10
0
20
0
30
0
70
128
71
8
72
5
73
9
0
VERTEX
8
OBJECT__80
10
0
20
0
30
0
70
128
71
5
72
10
73
11
0
VERTEX
8
OBJECT__80
10
0
20
0
30
0
70
128
71
11
72
12
73
5
0
VERTEX
8
OBJECT__80
10
0
20
0
30
0
70
128
71
12
72
13
73
5
0
VERTEX
8
OBJECT__80
10
0
20
0
30
0
70
128
71
5
72
4
73
14
0
VERTEX
8
OBJECT__80
10
0
20
0
30
0
70
128
71
14
72
10
73
5
0
VERTEX
8
OBJECT__80
10
0
20
0
30
0
70
128
71
13
72
9
73
5
0
VERTEX
8
OBJECT__80
10
0
20
0
30
0
70
128
71
4
72
15
73
16
0
VERTEX
8
OBJECT__80
10
0
20
0
30
0
70
128
71
4
72
17
73
15
0
VERTEX
8
OBJECT__80
10
0
20
0
30
0
70
128
71
16
72
18
73
4
0
VERTEX
8
OBJECT__80
10
0
20
0
30
0
70
128
71
18
72
14
73
4
0
VERTEX
8
OBJECT__80
10
0
20
0
30
0
70
128
71
3
72
19
73
20
0
VERTEX
8
OBJECT__80
10
0
20
0
30
0
70
128
71
20
72
21
73
3
0
VERTEX
8
OBJECT__80
10
0
20
0
30
0
70
128
71
3
72
22
73
19
0
VERTEX
8
OBJECT__80
10
0
20
0
30
0
70
128
71
2
72
23
73
22
0
VERTEX
8
OBJECT__80
10
0
20
0
30
0
70
128
71
22
72
3
73
2
0
VERTEX
8
OBJECT__80
10
0
20
0
30
0
70
128
71
2
72
24
73
25
0
VERTEX
8
OBJECT__80
10
0
20
0
30
0
70
128
71
2
72
26
73
27
0
VERTEX
8
OBJECT__80
10
0
20
0
30
0
70
128
71
2
72
28
73
26
0
VERTEX
8
OBJECT__80
10
0
20
0
30
0
70
128
71
27
72
24
73
2
0
VERTEX
8
OBJECT__80
10
0
20
0
30
0
70
128
71
8
72
29
73
28
0
VERTEX
8
OBJECT__80
10
0
20
0
30
0
70
128
71
28
72
2
73
8
0
VERTEX
8
OBJECT__80
10
0
20
0
30
0
70
128
71
25
72
23
73
2
0
VERTEX
8
OBJECT__80
10
0
20
0
30
0
70
128
71
1
72
30
73
31
0
VERTEX
8
OBJECT__80
10
0
20
0
30
0
70
128
71
1
72
32
73
30
0
VERTEX
8
OBJECT__80
10
0
20
0
30
0
70
128
71
33
72
34
73
32
0
VERTEX
8
OBJECT__80
10
0
20
0
30
0
70
128
71
33
72
35
73
34
0
VERTEX
8
OBJECT__80
10
0
20
0
30
0
70
128
71
32
72
1
73
33
0
VERTEX
8
OBJECT__80
10
0
20
0
30
0
70
128
71
36
72
37
73
38
0
VERTEX
8
OBJECT__80
10
0
20
0
30
0
70
128
71
38
72
39
73
36
0
VERTEX
8
OBJECT__80
10
0
20
0
30
0
70
128
71
37
72
31
73
40
0
VERTEX
8
OBJECT__80
10
0
20
0
30
0
70
128
71
40
72
38
73
37
0
VERTEX
8
OBJECT__80
10
0
20
0
30
0
70
128
71
39
72
41
73
36
0
VERTEX
8
OBJECT__80
10
0
20
0
30
0
70
128
71
41
72
42
73
36
0
VERTEX
8
OBJECT__80
10
0
20
0
30
0
70
128
71
7
72
43
73
44
0
VERTEX
8
OBJECT__80
10
0
20
0
30
0
70
128
71
44
72
45
73
7
0
VERTEX
8
OBJECT__80
10
0
20
0
30
0
70
128
71
43
72
36
73
46
0
VERTEX
8
OBJECT__80
10
0
20
0
30
0
70
128
71
46
72
44
73
43
0
VERTEX
8
OBJECT__80
10
0
20
0
30
0
70
128
71
45
72
47
73
7
0
VERTEX
8
OBJECT__80
10
0
20
0
30
0
70
128
71
42
72
46
73
36
0
VERTEX
8
OBJECT__80
10
0
20
0
30
0
70
128
71
31
72
37
73
1
0
VERTEX
8
OBJECT__80
10
0
20
0
30
0
70
128
71
21
72
48
73
3
0
VERTEX
8
OBJECT__80
10
0
20
0
30
0
70
128
71
9
72
29
73
8
0
VERTEX
8
OBJECT__80
10
0
20
0
30
0
70
128
71
6
72
43
73
7
0
VERTEX
8
OBJECT__80
10
0
20
0
30
0
70
128
71
3
72
33
73
1
0
SEQEND
8
OBJECT__80
0
POLYLINE
8
OBJECT__82
66
1
70
64
71
20
72
18
62
253
0
VERTEX
8
OBJECT__82
10
225.000000
20
56.556000
30
16.084000
70
192
0
VERTEX
8
OBJECT__82
10
224.899002
20
46.349998
30
15.995000
70
192
0
VERTEX
8
OBJECT__82
10
224.949997
20
46.349998
30
15.995000
70
192
0
VERTEX
8
OBJECT__82
10
210.285995
20
51.234001
30
16.037001
70
192
0
VERTEX
8
OBJECT__82
10
221.666000
20
45.919998
30
15.991000
70
192
0
VERTEX
8
OBJECT__82
10
239.714005
20
51.234001
30
16.037001
70
192
0
VERTEX
8
OBJECT__82
10
225.000000
20
46.349998
30
15.995000
70
192
0
VERTEX
8
OBJECT__82
10
216.000000
20
23.627001
30
15.796000
70
192
0
VERTEX
8
OBJECT__82
10
212.261002
20
36.444000
30
15.908000
70
192
0
VERTEX
8
OBJECT__82
10
210.348999
20
32.569000
30
15.874000
70
192
0
VERTEX
8
OBJECT__82
10
239.649002
20
32.216999
30
15.871000
70
192
0
VERTEX
8
OBJECT__82
10
236.455002
20
37.889999
30
15.921000
70
192
0
VERTEX
8
OBJECT__82
10
236.134995
20
26.222000
30
15.819000
70
192
0
VERTEX
8
OBJECT__82
10
236.501007
20
39.569000
30
15.936000
70
192
0
VERTEX
8
OBJECT__82
10
213.195999
20
37.386002
30
15.917000
70
192
0
VERTEX
8
OBJECT__82
10
210.416000
20
13.200000
30
15.705000
70
192
0
VERTEX
8
OBJECT__82
10
216.000000
20
13.200000
30
15.705000
70
192
0
VERTEX
8
OBJECT__82
10
239.584000
20
13.200000
30
15.705000
70
192
0
VERTEX
8
OBJECT__82
10
234.000000
20
23.627001
30
15.796000
70
192
0
VERTEX
8
OBJECT__82
10
234.000000
20
13.200000
30
15.705000
70
192
0
VERTEX
8
OBJECT__82
10
0
20
0
30
0
70
128
71
1
72
2
73
3
0
VERTEX
8
OBJECT__82
10
0
20
0
30
0
70
128
71
1
72
4
73
5
0
VERTEX
8
OBJECT__82
10
0
20
0
30
0
70
128
71
6
72
1
73
7
0
VERTEX
8
OBJECT__82
10
0
20
0
30
0
70
128
71
5
72
2
73
1
0
VERTEX
8
OBJECT__82
10
0
20
0
30
0
70
128
71
8
72
9
73
10
0
VERTEX
8
OBJECT__82
10
0
20
0
30
0
70
128
71
11
72
12
73
13
0
VERTEX
8
OBJECT__82
10
0
20
0
30
0
70
128
71
11
72
6
73
14
0
VERTEX
8
OBJECT__82
10
0
20
0
30
0
70
128
71
3
72
7
73
1
0
VERTEX
8
OBJECT__82
10
0
20
0
30
0
70
128
71
4
72
9
73
15
0
VERTEX
8
OBJECT__82
10
0
20
0
30
0
70
128
71
16
72
17
73
8
0
VERTEX
8
OBJECT__82
10
0
20
0
30
0
70
128
71
18
72
13
73
19
0
VERTEX
8
OBJECT__82
10
0
20
0
30
0
70
128
71
14
72
12
73
11
0
VERTEX
8
OBJECT__82
10
0
20
0
30
0
70
128
71
15
72
5
73
4
0
VERTEX
8
OBJECT__82
10
0
20
0
30
0
70
128
71
10
72
16
73
8
0
VERTEX
8
OBJECT__82
10
0
20
0
30
0
70
128
71
13
72
18
73
11
0
VERTEX
8
OBJECT__82
10
0
20
0
30
0
70
128
71
9
72
4
73
10
0
VERTEX
8
OBJECT__82
10
0
20
0
30
0
70
128
71
7
72
14
73
6
0
VERTEX
8
OBJECT__82
10
0
20
0
30
0
70
128
71
19
72
20
73
18
0
SEQEND
8
OBJECT__82
0
POLYLINE
8
OBJECT__83
66
1
70
64
71
33
72
31
62
253
0
VERTEX
8
OBJECT__83
10
213.671997
20
32.529999
30
-18.393000
70
192
0
VERTEX
8
OBJECT__83
10
214.097000
20
36.289001
30
-18.686001
70
192
0
VERTEX
8
OBJECT__83
10
213.195999
20
37.386002
30
15.917000
70
192
0
VERTEX
8
OBJECT__83
10
216.000000
20
23.627001
30
15.796000
70
192
0
VERTEX
8
OBJECT__83
10
214.330002
20
29.392000
30
-18.750999
70
192
0
VERTEX
8
OBJECT__83
10
216.000000
20
24.452000
30
4.565000
70
192
0
VERTEX
8
OBJECT__83
10
216.000000
20
26.174999
30
-17.066000
70
192
0
VERTEX
8
OBJECT__83
10
216.000000
20
26.391001
30
-19.577999
70
192
0
VERTEX
8
OBJECT__83
10
212.261002
20
36.444000
30
15.908000
70
192
0
VERTEX
8
OBJECT__83
10
224.949997
20
46.349998
30
15.995000
70
192
0
VERTEX
8
OBJECT__83
10
218.494995
20
42.351002
30
-20.688999
70
192
0
VERTEX
8
OBJECT__83
10
221.528000
20
43.837002
30
-21.421000
70
192
0
VERTEX
8
OBJECT__83
10
224.899002
20
46.349998
30
15.995000
70
192
0
VERTEX
8
OBJECT__83
10
215.876999
20
39.837002
30
-19.650999
70
192
0
VERTEX
8
OBJECT__83
10
224.949997
20
44.374001
30
-21.705000
70
192
0
VERTEX
8
OBJECT__83
10
225.000000
20
44.366001
30
-21.700001
70
192
0
VERTEX
8
OBJECT__83
10
225.000000
20
46.349998
30
15.995000
70
192
0
VERTEX
8
OBJECT__83
10
221.666000
20
45.919998
30
15.991000
70
192
0
VERTEX
8
OBJECT__83
10
214.533997
20
37.160999
30
-18.923000
70
192
0
VERTEX
8
OBJECT__83
10
236.501007
20
39.569000
30
15.936000
70
192
0
VERTEX
8
OBJECT__83
10
234.591995
20
39.161999
30
-19.420000
70
192
0
VERTEX
8
OBJECT__83
10
235.498001
20
37.180000
30
-18.913000
70
192
0
VERTEX
8
OBJECT__83
10
236.455002
20
37.889999
30
15.921000
70
192
0
VERTEX
8
OBJECT__83
10
228.748993
20
43.744999
30
-21.372999
70
192
0
VERTEX
8
OBJECT__83
10
232.223007
20
41.812000
30
-20.444000
70
192
0
VERTEX
8
OBJECT__83
10
235.707001
20
29.493000
30
-18.731001
70
192
0
VERTEX
8
OBJECT__83
10
234.000000
20
26.391001
30
-19.577999
70
192
0
VERTEX
8
OBJECT__83
10
234.000000
20
26.174999
30
-17.066000
70
192
0
VERTEX
8
OBJECT__83
10
234.000000
20
24.452000
30
4.565000
70
192
0
VERTEX
8
OBJECT__83
10
236.134995
20
26.222000
30
15.819000
70
192
0
VERTEX
8
OBJECT__83
10
236.348007
20
33.077999
30
-18.386000
70
192
0
VERTEX
8
OBJECT__83
10
234.000000
20
23.627001
30
15.796000
70
192
0
VERTEX
8
OBJECT__83
10
235.899994
20
36.301998
30
-18.688000
70
192
0
VERTEX
8
OBJECT__83
10
0
20
0
30
0
70
128
71
1
72
2
73
3
0
VERTEX
8
OBJECT__83
10
0
20
0
30
0
70
128
71
4
72
5
73
1
0
VERTEX
8
OBJECT__83
10
0
20
0
30
0
70
128
71
5
72
6
73
7
0
VERTEX
8
OBJECT__83
10
0
20
0
30
0
70
128
71
5
72
4
73
6
0
VERTEX
8
OBJECT__83
10
0
20
0
30
0
70
128
71
7
72
8
73
5
0
VERTEX
8
OBJECT__83
10
0
20
0
30
0
70
128
71
1
72
9
73
4
0
VERTEX
8
OBJECT__83
10
0
20
0
30
0
70
128
71
3
72
9
73
1
0
VERTEX
8
OBJECT__83
10
0
20
0
30
0
70
128
71
10
72
11
73
12
0
VERTEX
8
OBJECT__83
10
0
20
0
30
0
70
128
71
11
72
10
73
13
0
VERTEX
8
OBJECT__83
10
0
20
0
30
0
70
128
71
13
72
14
73
11
0
VERTEX
8
OBJECT__83
10
0
20
0
30
0
70
128
71
10
72
15
73
16
0
VERTEX
8
OBJECT__83
10
0
20
0
30
0
70
128
71
16
72
17
73
10
0
VERTEX
8
OBJECT__83
10
0
20
0
30
0
70
128
71
18
72
3
73
19
0
VERTEX
8
OBJECT__83
10
0
20
0
30
0
70
128
71
14
72
13
73
18
0
VERTEX
8
OBJECT__83
10
0
20
0
30
0
70
128
71
19
72
14
73
18
0
VERTEX
8
OBJECT__83
10
0
20
0
30
0
70
128
71
20
72
21
73
22
0
VERTEX
8
OBJECT__83
10
0
20
0
30
0
70
128
71
22
72
23
73
20
0
VERTEX
8
OBJECT__83
10
0
20
0
30
0
70
128
71
17
72
16
73
24
0
VERTEX
8
OBJECT__83
10
0
20
0
30
0
70
128
71
24
72
25
73
17
0
VERTEX
8
OBJECT__83
10
0
20
0
30
0
70
128
71
25
72
21
73
17
0
VERTEX
8
OBJECT__83
10
0
20
0
30
0
70
128
71
26
72
27
73
28
0
VERTEX
8
OBJECT__83
10
0
20
0
30
0
70
128
71
28
72
29
73
26
0
VERTEX
8
OBJECT__83
10
0
20
0
30
0
70
128
71
30
72
23
73
31
0
VERTEX
8
OBJECT__83
10
0
20
0
30
0
70
128
71
26
72
32
73
30
0
VERTEX
8
OBJECT__83
10
0
20
0
30
0
70
128
71
31
72
26
73
30
0
VERTEX
8
OBJECT__83
10
0
20
0
30
0
70
128
71
23
72
33
73
31
0
VERTEX
8
OBJECT__83
10
0
20
0
30
0
70
128
71
23
72
22
73
33
0
VERTEX
8
OBJECT__83
10
0
20
0
30
0
70
128
71
29
72
32
73
26
0
VERTEX
8
OBJECT__83
10
0
20
0
30
0
70
128
71
20
72
17
73
21
0
VERTEX
8
OBJECT__83
10
0
20
0
30
0
70
128
71
12
72
15
73
10
0
VERTEX
8
OBJECT__83
10
0
20
0
30
0
70
128
71
2
72
19
73
3
0
SEQEND
8
OBJECT__83
0
POLYLINE
8
OBJECT__84
66
1
70
64
71
7
72
5
62
253
0
VERTEX
8
OBJECT__84
10
234.000000
20
13.200000
30
-19.452000
70
192
0
VERTEX
8
OBJECT__84
10
234.000000
20
13.200000
30
15.705000
70
192
0
VERTEX
8
OBJECT__84
10
234.000000
20
24.452000
30
4.565000
70
192
0
VERTEX
8
OBJECT__84
10
234.000000
20
26.174999
30
-17.066000
70
192
0
VERTEX
8
OBJECT__84
10
234.000000
20
26.391001
30
-19.577999
70
192
0
VERTEX
8
OBJECT__84
10
234.000000
20
19.822001
30
-19.514999
70
192
0
VERTEX
8
OBJECT__84
10
234.000000
20
23.627001
30
15.796000
70
192
0
VERTEX
8
OBJECT__84
10
0
20
0
30
0
70
128
71
1
72
2
73
3
0
VERTEX
8
OBJECT__84
10
0
20
0
30
0
70
128
71
4
72
5
73
6
0
VERTEX
8
OBJECT__84
10
0
20
0
30
0
70
128
71
2
72
7
73
3
0
VERTEX
8
OBJECT__84
10
0
20
0
30
0
70
128
71
3
72
4
73
1
0
VERTEX
8
OBJECT__84
10
0
20
0
30
0
70
128
71
6
72
1
73
4
0
SEQEND
8
OBJECT__84
0
POLYLINE
8
OBJECT__85
66
1
70
64
71
7
72
5
62
253
0
VERTEX
8
OBJECT__85
10
216.000000
20
13.200000
30
-19.452000
70
192
0
VERTEX
8
OBJECT__85
10
216.000000
20
26.174999
30
-17.066000
70
192
0
VERTEX
8
OBJECT__85
10
216.000000
20
24.452000
30
4.565000
70
192
0
VERTEX
8
OBJECT__85
10
216.000000
20
13.200000
30
15.705000
70
192
0
VERTEX
8
OBJECT__85
10
216.000000
20
19.795000
30
-19.514999
70
192
0
VERTEX
8
OBJECT__85
10
216.000000
20
26.391001
30
-19.577999
70
192
0
VERTEX
8
OBJECT__85
10
216.000000
20
23.627001
30
15.796000
70
192
0
VERTEX
8
OBJECT__85
10
0
20
0
30
0
70
128
71
1
72
2
73
3
0
VERTEX
8
OBJECT__85
10
0
20
0
30
0
70
128
71
3
72
4
73
1
0
VERTEX
8
OBJECT__85
10
0
20
0
30
0
70
128
71
2
72
1
73
5
0
VERTEX
8
OBJECT__85
10
0
20
0
30
0
70
128
71
5
72
6
73
2
0
VERTEX
8
OBJECT__85
10
0
20
0
30
0
70
128
71
3
72
7
73
4
0
SEQEND
8
OBJECT__85
0
POLYLINE
8
OBJECT__86
66
1
70
64
71
5
72
3
62
253
0
VERTEX
8
OBJECT__86
10
234.000000
20
13.200000
30
15.705000
70
192
0
VERTEX
8
OBJECT__86
10
241.757004
20
13.200000
30
-13.363000
70
192
0
VERTEX
8
OBJECT__86
10
245.895004
20
13.200000
30
4.769000
70
192
0
VERTEX
8
OBJECT__86
10
234.000000
20
13.200000
30
-19.452000
70
192
0
VERTEX
8
OBJECT__86
10
239.584000
20
13.200000
30
15.705000
70
192
0
VERTEX
8
OBJECT__86
10
0
20
0
30
0
70
128
71
1
72
2
73
3
0
VERTEX
8
OBJECT__86
10
0
20
0
30
0
70
128
71
1
72
4
73
2
0
VERTEX
8
OBJECT__86
10
0
20
0
30
0
70
128
71
3
72
5
73
1
0
SEQEND
8
OBJECT__86
0
POLYLINE
8
OBJECT__87
66
1
70
64
71
5
72
3
62
253
0
VERTEX
8
OBJECT__87
10
216.000000
20
13.200000
30
15.705000
70
192
0
VERTEX
8
OBJECT__87
10
210.416000
20
13.200000
30
15.705000
70
192
0
VERTEX
8
OBJECT__87
10
204.104996
20
13.200000
30
4.769000
70
192
0
VERTEX
8
OBJECT__87
10
208.242996
20
13.200000
30
-13.363000
70
192
0
VERTEX
8
OBJECT__87
10
216.000000
20
13.200000
30
-19.452000
70
192
0
VERTEX
8
OBJECT__87
10
0
20
0
30
0
70
128
71
1
72
2
73
3
0
VERTEX
8
OBJECT__87
10
0
20
0
30
0
70
128
71
3
72
4
73
1
0
VERTEX
8
OBJECT__87
10
0
20
0
30
0
70
128
71
4
72
5
73
1
0
SEQEND
8
OBJECT__87
0
POLYLINE
8
OBJECT__88
66
1
70
64
71
11
72
9
62
253
0
VERTEX
8
OBJECT__88
10
225.000000
20
56.556000
30
16.084000
70
192
0
VERTEX
8
OBJECT__88
10
234.429993
20
54.502998
30
19.646999
70
192
0
VERTEX
8
OBJECT__88
10
228.990005
20
56.160999
30
21.440001
70
192
0
VERTEX
8
OBJECT__88
10
234.453003
20
54.488998
30
19.631001
70
192
0
VERTEX
8
OBJECT__88
10
239.714005
20
51.234001
30
16.037001
70
192
0
VERTEX
8
OBJECT__88
10
215.615005
20
54.365002
30
19.492001
70
192
0
VERTEX
8
OBJECT__88
10
213.160004
20
53.255001
30
18.283001
70
192
0
VERTEX
8
OBJECT__88
10
224.992004
20
56.334999
30
21.625999
70
192
0
VERTEX
8
OBJECT__88
10
223.011002
20
56.421001
30
21.719000
70
192
0
VERTEX
8
OBJECT__88
10
217.860992
20
55.381001
30
20.599001
70
192
0
VERTEX
8
OBJECT__88
10
210.285995
20
51.234001
30
16.037001
70
192
0
VERTEX
8
OBJECT__88
10
0
20
0
30
0
70
128
71
1
72
2
73
3
0
VERTEX
8
OBJECT__88
10
0
20
0
30
0
70
128
71
1
72
4
73
2
0
VERTEX
8
OBJECT__88
10
0
20
0
30
0
70
128
71
1
72
5
73
4
0
VERTEX
8
OBJECT__88
10
0
20
0
30
0
70
128
71
1
72
6
73
7
0
VERTEX
8
OBJECT__88
10
0
20
0
30
0
70
128
71
1
72
8
73
9
0
VERTEX
8
OBJECT__88
10
0
20
0
30
0
70
128
71
9
72
10
73
1
0
VERTEX
8
OBJECT__88
10
0
20
0
30
0
70
128
71
10
72
6
73
1
0
VERTEX
8
OBJECT__88
10
0
20
0
30
0
70
128
71
7
72
11
73
1
0
VERTEX
8
OBJECT__88
10
0
20
0
30
0
70
128
71
3
72
8
73
1
0
SEQEND
8
OBJECT__88
0
POLYLINE
8
OBJECT__89
66
1
70
64
71
5
72
3
62
253
0
VERTEX
8
OBJECT__89
10
225.000000
20
21.200001
30
28.700001
70
192
0
VERTEX
8
OBJECT__89
10
213.587006
20
29.492001
30
28.700001
70
192
0
VERTEX
8
OBJECT__89
10
217.947006
20
42.908001
30
28.700001
70
192
0
VERTEX
8
OBJECT__89
10
232.052994
20
42.908001
30
28.700001
70
192
0
VERTEX
8
OBJECT__89
10
236.412994
20
29.492001
30
28.700001
70
192
0
VERTEX
8
OBJECT__89
10
0
20
0
30
0
70
128
71
1
72
2
73
3
0
VERTEX
8
OBJECT__89
10
0
20
0
30
0
70
128
71
3
72
4
73
1
0
VERTEX
8
OBJECT__89
10
0
20
0
30
0
70
128
71
4
72
5
73
1
0
SEQEND
8
OBJECT__89
0
POLYLINE
8
OBJECT__90
66
1
70
64
71
10
72
10
62
253
0
VERTEX
8
OBJECT__90
10
213.587006
20
29.492001
30
28.700001
70
192
0
VERTEX
8
OBJECT__90
10
225.000000
20
21.200001
30
28.700001
70
192
0
VERTEX
8
OBJECT__90
10
225.000000
20
21.200001
30
158.699997
70
192
0
VERTEX
8
OBJECT__90
10
217.947006
20
42.908001
30
28.700001
70
192
0
VERTEX
8
OBJECT__90
10
213.587006
20
29.492001
30
158.699997
70
192
0
VERTEX
8
OBJECT__90
10
232.052994
20
42.908001
30
158.699997
70
192
0
VERTEX
8
OBJECT__90
10
232.052994
20
42.908001
30
28.700001
70
192
0
VERTEX
8
OBJECT__90
10
236.412994
20
29.492001
30
158.699997
70
192
0
VERTEX
8
OBJECT__90
10
236.412994
20
29.492001
30
28.700001
70
192
0
VERTEX
8
OBJECT__90
10
217.947006
20
42.908001
30
158.699997
70
192
0
VERTEX
8
OBJECT__90
10
0
20
0
30
0
70
128
71
1
72
2
73
3
0
VERTEX
8
OBJECT__90
10
0
20
0
30
0
70
128
71
4
72
1
73
5
0
VERTEX
8
OBJECT__90
10
0
20
0
30
0
70
128
71
6
72
7
73
4
0
VERTEX
8
OBJECT__90
10
0
20
0
30
0
70
128
71
8
72
9
73
7
0
VERTEX
8
OBJECT__90
10
0
20
0
30
0
70
128
71
3
72
2
73
9
0
VERTEX
8
OBJECT__90
10
0
20
0
30
0
70
128
71
9
72
8
73
3
0
VERTEX
8
OBJECT__90
10
0
20
0
30
0
70
128
71
7
72
6
73
8
0
VERTEX
8
OBJECT__90
10
0
20
0
30
0
70
128
71
4
72
10
73
6
0
VERTEX
8
OBJECT__90
10
0
20
0
30
0
70
128
71
5
72
10
73
4
0
VERTEX
8
OBJECT__90
10
0
20
0
30
0
70
128
71
3
72
5
73
1
0
SEQEND
8
OBJECT__90
0
POLYLINE
8
OBJECT__92
66
1
70
64
71
11
72
11
62
253
0
VERTEX
8
OBJECT__92
10
211.143997
20
25.200001
30
158.699997
70
192
0
VERTEX
8
OBJECT__92
10
213.587006
20
29.492001
30
158.699997
70
192
0
VERTEX
8
OBJECT__92
10
225.000000
20
21.200001
30
158.699997
70
192
0
VERTEX
8
OBJECT__92
10
211.143997
20
41.200001
30
158.699997
70
192
0
VERTEX
8
OBJECT__92
10
217.947006
20
42.908001
30
158.699997
70
192
0
VERTEX
8
OBJECT__92
10
225.000000
20
49.200001
30
158.699997
70
192
0
VERTEX
8
OBJECT__92
10
238.856003
20
41.200001
30
158.699997
70
192
0
VERTEX
8
OBJECT__92
10
232.052994
20
42.908001
30
158.699997
70
192
0
VERTEX
8
OBJECT__92
10
238.856003
20
25.200001
30
158.699997
70
192
0
VERTEX
8
OBJECT__92
10
236.412994
20
29.492001
30
158.699997
70
192
0
VERTEX
8
OBJECT__92
10
225.000000
20
17.200001
30
158.699997
70
192
0
VERTEX
8
OBJECT__92
10
0
20
0
30
0
70
128
71
1
72
2
73
3
0
VERTEX
8
OBJECT__92
10
0
20
0
30
0
70
128
71
4
72
5
73
2
0
VERTEX
8
OBJECT__92
10
0
20
0
30
0
70
128
71
6
72
7
73
8
0
VERTEX
8
OBJECT__92
10
0
20
0
30
0
70
128
71
7
72
9
73
10
0
VERTEX
8
OBJECT__92
10
0
20
0
30
0
70
128
71
9
72
11
73
3
0
VERTEX
8
OBJECT__92
10
0
20
0
30
0
70
128
71
2
72
1
73
4
0
VERTEX
8
OBJECT__92
10
0
20
0
30
0
70
128
71
8
72
5
73
6
0
VERTEX
8
OBJECT__92
10
0
20
0
30
0
70
128
71
3
72
10
73
9
0
VERTEX
8
OBJECT__92
10
0
20
0
30
0
70
128
71
5
72
4
73
6
0
VERTEX
8
OBJECT__92
10
0
20
0
30
0
70
128
71
3
72
11
73
1
0
VERTEX
8
OBJECT__92
10
0
20
0
30
0
70
128
71
10
72
8
73
7
0
SEQEND
8
OBJECT__92
0
POLYLINE
8
OBJECT__93
66
1
70
64
71
12
72
12
62
253
0
VERTEX
8
OBJECT__93
10
211.143997
20
25.200001
30
158.699997
70
192
0
VERTEX
8
OBJECT__93
10
225.000000
20
17.200001
30
158.699997
70
192
0
VERTEX
8
OBJECT__93
10
225.000000
20
17.200001
30
233.699997
70
192
0
VERTEX
8
OBJECT__93
10
211.143997
20
41.200001
30
158.699997
70
192
0
VERTEX
8
OBJECT__93
10
211.143997
20
25.200001
30
233.699997
70
192
0
VERTEX
8
OBJECT__93
10
225.000000
20
49.200001
30
233.699997
70
192
0
VERTEX
8
OBJECT__93
10
225.000000
20
49.200001
30
158.699997
70
192
0
VERTEX
8
OBJECT__93
10
238.856003
20
41.200001
30
233.699997
70
192
0
VERTEX
8
OBJECT__93
10
238.856003
20
41.200001
30
158.699997
70
192
0
VERTEX
8
OBJECT__93
10
238.856003
20
25.200001
30
233.699997
70
192
0
VERTEX
8
OBJECT__93
10
238.856003
20
25.200001
30
158.699997
70
192
0
VERTEX
8
OBJECT__93
10
211.143997
20
41.200001
30
233.699997
70
192
0
VERTEX
8
OBJECT__93
10
0
20
0
30
0
70
128
71
1
72
2
73
3
0
VERTEX
8
OBJECT__93
10
0
20
0
30
0
70
128
71
4
72
1
73
5
0
VERTEX
8
OBJECT__93
10
0
20
0
30
0
70
128
71
6
72
7
73
4
0
VERTEX
8
OBJECT__93
10
0
20
0
30
0
70
128
71
8
72
9
73
7
0
VERTEX
8
OBJECT__93
10
0
20
0
30
0
70
128
71
10
72
11
73
9
0
VERTEX
8
OBJECT__93
10
0
20
0
30
0
70
128
71
2
72
11
73
10
0
VERTEX
8
OBJECT__93
10
0
20
0
30
0
70
128
71
10
72
3
73
2
0
VERTEX
8
OBJECT__93
10
0
20
0
30
0
70
128
71
9
72
8
73
10
0
VERTEX
8
OBJECT__93
10
0
20
0
30
0
70
128
71
7
72
6
73
8
0
VERTEX
8
OBJECT__93
10
0
20
0
30
0
70
128
71
4
72
12
73
6
0
VERTEX
8
OBJECT__93
10
0
20
0
30
0
70
128
71
5
72
12
73
4
0
VERTEX
8
OBJECT__93
10
0
20
0
30
0
70
128
71
3
72
5
73
1
0
SEQEND
8
OBJECT__93
0
POLYLINE
8
OBJECT__94
66
1
70
64
71
6
72
4
62
253
0
VERTEX
8
OBJECT__94
10
225.000000
20
17.200001
30
233.699997
70
192
0
VERTEX
8
OBJECT__94
10
225.000000
20
49.200001
30
233.699997
70
192
0
VERTEX
8
OBJECT__94
10
211.143997
20
41.200001
30
233.699997
70
192
0
VERTEX
8
OBJECT__94
10
238.856003
20
25.200001
30
233.699997
70
192
0
VERTEX
8
OBJECT__94
10
238.856003
20
41.200001
30
233.699997
70
192
0
VERTEX
8
OBJECT__94
10
211.143997
20
25.200001
30
233.699997
70
192
0
VERTEX
8
OBJECT__94
10
0
20
0
30
0
70
128
71
1
72
2
73
3
0
VERTEX
8
OBJECT__94
10
0
20
0
30
0
70
128
71
1
72
4
73
5
0
VERTEX
8
OBJECT__94
10
0
20
0
30
0
70
128
71
5
72
2
73
1
0
VERTEX
8
OBJECT__94
10
0
20
0
30
0
70
128
71
3
72
6
73
1
0
SEQEND
8
OBJECT__94
0
POLYLINE
8
OBJECT__95
66
1
70
64
71
8
72
6
62
253
0
VERTEX
8
OBJECT__95
10
75.000000
20
78.199997
30
-35.000000
70
192
0
VERTEX
8
OBJECT__95
10
99.749001
20
78.199997
30
24.749001
70
192
0
VERTEX
8
OBJECT__95
10
110.000000
20
78.199997
30
0.000000
70
192
0
VERTEX
8
OBJECT__95
10
40.000000
20
78.199997
30
0.000000
70
192
0
VERTEX
8
OBJECT__95
10
50.250999
20
78.199997
30
24.749001
70
192
0
VERTEX
8
OBJECT__95
10
99.749001
20
78.199997
30
-24.749001
70
192
0
VERTEX
8
OBJECT__95
10
50.250999
20
78.199997
30
-24.749001
70
192
0
VERTEX
8
OBJECT__95
10
75.000000
20
78.199997
30
35.000000
70
192
0
VERTEX
8
OBJECT__95
10
0
20
0
30
0
70
128
71
1
72
2
73
3
0
VERTEX
8
OBJECT__95
10
0
20
0
30
0
70
128
71
2
72
4
73
5
0
VERTEX
8
OBJECT__95
10
0
20
0
30
0
70
128
71
3
72
6
73
1
0
VERTEX
8
OBJECT__95
10
0
20
0
30
0
70
128
71
2
72
7
73
4
0
VERTEX
8
OBJECT__95
10
0
20
0
30
0
70
128
71
5
72
8
73
2
0
VERTEX
8
OBJECT__95
10
0
20
0
30
0
70
128
71
1
72
7
73
2
0
SEQEND
8
OBJECT__95
0
POLYLINE
8
OBJECT__96
66
1
70
64
71
16
72
16
62
253
0
VERTEX
8
OBJECT__96
10
99.749001
20
50.200001
30
24.749001
70
192
0
VERTEX
8
OBJECT__96
10
99.749001
20
78.199997
30
24.749001
70
192
0
VERTEX
8
OBJECT__96
10
75.000000
20
78.199997
30
35.000000
70
192
0
VERTEX
8
OBJECT__96
10
110.000000
20
78.199997
30
0.000000
70
192
0
VERTEX
8
OBJECT__96
10
99.749001
20
78.199997
30
-24.749001
70
192
0
VERTEX
8
OBJECT__96
10
110.000000
20
50.200001
30
0.000000
70
192
0
VERTEX
8
OBJECT__96
10
99.749001
20
50.200001
30
-24.749001
70
192
0
VERTEX
8
OBJECT__96
10
75.000000
20
50.200001
30
-35.000000
70
192
0
VERTEX
8
OBJECT__96
10
50.250999
20
50.200001
30
-24.749001
70
192
0
VERTEX
8
OBJECT__96
10
50.250999
20
78.199997
30
-24.749001
70
192
0
VERTEX
8
OBJECT__96
10
75.000000
20
78.199997
30
-35.000000
70
192
0
VERTEX
8
OBJECT__96
10
40.000000
20
50.200001
30
0.000000
70
192
0
VERTEX
8
OBJECT__96
10
40.000000
20
78.199997
30
0.000000
70
192
0
VERTEX
8
OBJECT__96
10
50.250999
20
50.200001
30
24.749001
70
192
0
VERTEX
8
OBJECT__96
10
50.250999
20
78.199997
30
24.749001
70
192
0
VERTEX
8
OBJECT__96
10
75.000000
20
50.200001
30
35.000000
70
192
0
VERTEX
8
OBJECT__96
10
0
20
0
30
0
70
128
71
1
72
2
73
3
0
VERTEX
8
OBJECT__96
10
0
20
0
30
0
70
128
71
4
72
2
73
1
0
VERTEX
8
OBJECT__96
10
0
20
0
30
0
70
128
71
5
72
4
73
6
0
VERTEX
8
OBJECT__96
10
0
20
0
30
0
70
128
71
5
72
7
73
8
0
VERTEX
8
OBJECT__96
10
0
20
0
30
0
70
128
71
9
72
10
73
11
0
VERTEX
8
OBJECT__96
10
0
20
0
30
0
70
128
71
12
72
13
73
10
0
VERTEX
8
OBJECT__96
10
0
20
0
30
0
70
128
71
14
72
15
73
13
0
VERTEX
8
OBJECT__96
10
0
20
0
30
0
70
128
71
14
72
16
73
3
0
VERTEX
8
OBJECT__96
10
0
20
0
30
0
70
128
71
3
72
15
73
14
0
VERTEX
8
OBJECT__96
10
0
20
0
30
0
70
128
71
13
72
12
73
14
0
VERTEX
8
OBJECT__96
10
0
20
0
30
0
70
128
71
10
72
9
73
12
0
VERTEX
8
OBJECT__96
10
0
20
0
30
0
70
128
71
11
72
8
73
9
0
VERTEX
8
OBJECT__96
10
0
20
0
30
0
70
128
71
8
72
11
73
5
0
VERTEX
8
OBJECT__96
10
0
20
0
30
0
70
128
71
6
72
7
73
5
0
VERTEX
8
OBJECT__96
10
0
20
0
30
0
70
128
71
1
72
6
73
4
0
VERTEX
8
OBJECT__96
10
0
20
0
30
0
70
128
71
3
72
16
73
1
0
SEQEND
8
OBJECT__96
0
POLYLINE
8
OBJECT__98
66
1
70
64
71
8
72
6
62
253
0
VERTEX
8
OBJECT__98
10
99.749001
20
50.200001
30
24.749001
70
192
0
VERTEX
8
OBJECT__98
10
75.000000
20
50.200001
30
-35.000000
70
192
0
VERTEX
8
OBJECT__98
10
99.749001
20
50.200001
30
-24.749001
70
192
0
VERTEX
8
OBJECT__98
10
75.000000
20
50.200001
30
35.000000
70
192
0
VERTEX
8
OBJECT__98
10
40.000000
20
50.200001
30
0.000000
70
192
0
VERTEX
8
OBJECT__98
10
50.250999
20
50.200001
30
-24.749001
70
192
0
VERTEX
8
OBJECT__98
10
110.000000
20
50.200001
30
0.000000
70
192
0
VERTEX
8
OBJECT__98
10
50.250999
20
50.200001
30
24.749001
70
192
0
VERTEX
8
OBJECT__98
10
0
20
0
30
0
70
128
71
1
72
2
73
3
0
VERTEX
8
OBJECT__98
10
0
20
0
30
0
70
128
71
4
72
5
73
6
0
VERTEX
8
OBJECT__98
10
0
20
0
30
0
70
128
71
3
72
7
73
1
0
VERTEX
8
OBJECT__98
10
0
20
0
30
0
70
128
71
4
72
8
73
5
0
VERTEX
8
OBJECT__98
10
0
20
0
30
0
70
128
71
6
72
2
73
4
0
VERTEX
8
OBJECT__98
10
0
20
0
30
0
70
128
71
1
72
4
73
2
0
SEQEND
8
OBJECT__98
0
POLYLINE
8
OBJECT__99
66
1
70
64
71
12
72
12
62
253
0
VERTEX
8
OBJECT__99
10
71.164001
20
2.100000
30
57.950001
70
192
0
VERTEX
8
OBJECT__99
10
71.164001
20
2.100000
30
56.450001
70
192
0
VERTEX
8
OBJECT__99
10
58.000000
20
9.700000
30
56.450001
70
192
0
VERTEX
8
OBJECT__99
10
71.164001
20
-13.100000
30
57.950001
70
192
0
VERTEX
8
OBJECT__99
10
71.164001
20
-13.100000
30
56.450001
70
192
0
VERTEX
8
OBJECT__99
10
58.000000
20
-20.700001
30
57.950001
70
192
0
VERTEX
8
OBJECT__99
10
44.835999
20
-13.100000
30
56.450001
70
192
0
VERTEX
8
OBJECT__99
10
58.000000
20
-20.700001
30
56.450001
70
192
0
VERTEX
8
OBJECT__99
10
44.835999
20
2.100000
30
56.450001
70
192
0
VERTEX
8
OBJECT__99
10
44.835999
20
-13.100000
30
57.950001
70
192
0
VERTEX
8
OBJECT__99
10
44.835999
20
2.100000
30
57.950001
70
192
0
VERTEX
8
OBJECT__99
10
58.000000
20
9.700000
30
57.950001
70
192
0
VERTEX
8
OBJECT__99
10
0
20
0
30
0
70
128
71
1
72
2
73
3
0
VERTEX
8
OBJECT__99
10
0
20
0
30
0
70
128
71
4
72
5
73
2
0
VERTEX
8
OBJECT__99
10
0
20
0
30
0
70
128
71
5
72
4
73
6
0
VERTEX
8
OBJECT__99
10
0
20
0
30
0
70
128
71
7
72
8
73
6
0
VERTEX
8
OBJECT__99
10
0
20
0
30
0
70
128
71
9
72
7
73
10
0
VERTEX
8
OBJECT__99
10
0
20
0
30
0
70
128
71
3
72
9
73
11
0
VERTEX
8
OBJECT__99
10
0
20
0
30
0
70
128
71
11
72
12
73
3
0
VERTEX
8
OBJECT__99
10
0
20
0
30
0
70
128
71
10
72
11
73
9
0
VERTEX
8
OBJECT__99
10
0
20
0
30
0
70
128
71
6
72
10
73
7
0
VERTEX
8
OBJECT__99
10
0
20
0
30
0
70
128
71
6
72
8
73
5
0
VERTEX
8
OBJECT__99
10
0
20
0
30
0
70
128
71
2
72
1
73
4
0
VERTEX
8
OBJECT__99
10
0
20
0
30
0
70
128
71
3
72
12
73
1
0
SEQEND
8
OBJECT__99
0
POLYLINE
8
OBJECT__100
66
1
70
64
71
6
72
4
62
253
0
VERTEX
8
OBJECT__100
10
44.835999
20
-13.100000
30
57.950001
70
192
0
VERTEX
8
OBJECT__100
10
71.164001
20
2.100000
30
57.950001
70
192
0
VERTEX
8
OBJECT__100
10
58.000000
20
9.700000
30
57.950001
70
192
0
VERTEX
8
OBJECT__100
10
58.000000
20
-20.700001
30
57.950001
70
192
0
VERTEX
8
OBJECT__100
10
71.164001
20
-13.100000
30
57.950001
70
192
0
VERTEX
8
OBJECT__100
10
44.835999
20
2.100000
30
57.950001
70
192
0
VERTEX
8
OBJECT__100
10
0
20
0
30
0
70
128
71
1
72
2
73
3
0
VERTEX
8
OBJECT__100
10
0
20
0
30
0
70
128
71
2
72
1
73
4
0
VERTEX
8
OBJECT__100
10
0
20
0
30
0
70
128
71
4
72
5
73
2
0
VERTEX
8
OBJECT__100
10
0
20
0
30
0
70
128
71
3
72
6
73
1
0
SEQEND
8
OBJECT__100
0
POLYLINE
8
OBJECT__102
66
1
70
64
71
12
72
12
62
253
0
VERTEX
8
OBJECT__102
10
59.500000
20
58.200001
30
0.000000
70
192
0
VERTEX
8
OBJECT__102
10
67.250000
20
58.200001
30
-13.423000
70
192
0
VERTEX
8
OBJECT__102
10
67.250000
20
15.200000
30
-13.423000
70
192
0
VERTEX
8
OBJECT__102
10
59.500000
20
15.200000
30
0.000000
70
192
0
VERTEX
8
OBJECT__102
10
82.750000
20
58.200001
30
-13.423000
70
192
0
VERTEX
8
OBJECT__102
10
82.750000
20
15.200000
30
-13.423000
70
192
0
VERTEX
8
OBJECT__102
10
90.500000
20
58.200001
30
0.000000
70
192
0
VERTEX
8
OBJECT__102
10
90.500000
20
15.200000
30
0.000000
70
192
0
VERTEX
8
OBJECT__102
10
82.750000
20
58.200001
30
13.423000
70
192
0
VERTEX
8
OBJECT__102
10
82.750000
20
15.200000
30
13.423000
70
192
0
VERTEX
8
OBJECT__102
10
67.250000
20
58.200001
30
13.423000
70
192
0
VERTEX
8
OBJECT__102
10
67.250000
20
15.200000
30
13.423000
70
192
0
VERTEX
8
OBJECT__102
10
0
20
0
30
0
70
128
71
1
72
2
73
3
0
VERTEX
8
OBJECT__102
10
0
20
0
30
0
70
128
71
1
72
3
73
4
0
VERTEX
8
OBJECT__102
10
0
20
0
30
0
70
128
71
2
72
5
73
6
0
VERTEX
8
OBJECT__102
10
0
20
0
30
0
70
128
71
2
72
6
73
3
0
VERTEX
8
OBJECT__102
10
0
20
0
30
0
70
128
71
5
72
7
73
8
0
VERTEX
8
OBJECT__102
10
0
20
0
30
0
70
128
71
5
72
8
73
6
0
VERTEX
8
OBJECT__102
10
0
20
0
30
0
70
128
71
7
72
9
73
10
0
VERTEX
8
OBJECT__102
10
0
20
0
30
0
70
128
71
7
72
10
73
8
0
VERTEX
8
OBJECT__102
10
0
20
0
30
0
70
128
71
9
72
11
73
12
0
VERTEX
8
OBJECT__102
10
0
20
0
30
0
70
128
71
9
72
12
73
10
0
VERTEX
8
OBJECT__102
10
0
20
0
30
0
70
128
71
11
72
1
73
4
0
VERTEX
8
OBJECT__102
10
0
20
0
30
0
70
128
71
11
72
4
73
12
0
SEQEND
8
OBJECT__102
0
ENDSEC
0
EOF
