999
Converted by 3D Exploration 
999
XDimension Software, LLC
999
http://www.xdsoft.com/explorer/
0
SECTION
2
HEADER
9
$ACADVER
1
AC1008
9
$UCSORG
10
0.0
20
0.0
30
0.0
9
$UCSXDIR
10
1.0
20
0.0
30
0.0
9
$TILEMODE
70
1
9
$UCSYDIR
10
0.0
20
1.0
30
0.0
9
$EXTMIN
10
0.000000
20
-98.500000
30
-98.500000
9
$EXTMAX
10
19.809999
20
98.500000
30
78.000000
0
ENDSEC
0
SECTION
2
TABLES
0
TABLE
2
LTYPE
70
1
0
LTYPE
2
CONTINUOUS
70
64
3
Solid line
72
65
73
0
40
0.0
0
ENDTAB
0
TABLE
2
LAYER
70
24
0
LAYER
2
OBJECT__0
70
0
62
253
6
CONTINUOUS
0
LAYER
2
OBJECT__1
70
0
62
253
6
CONTINUOUS
0
LAYER
2
OBJECT__3
70
0
62
253
6
CONTINUOUS
0
LAYER
2
OBJECT__4
70
0
62
253
6
CONTINUOUS
0
LAYER
2
OBJECT__5
70
0
62
253
6
CONTINUOUS
0
LAYER
2
OBJECT__6
70
0
62
253
6
CONTINUOUS
0
LAYER
2
OBJECT__7
70
0
62
253
6
CONTINUOUS
0
LAYER
2
OBJECT__8
70
0
62
253
6
CONTINUOUS
0
LAYER
2
OBJECT__9
70
0
62
253
6
CONTINUOUS
0
LAYER
2
OBJECT__10
70
0
62
253
6
CONTINUOUS
0
LAYER
2
OBJECT__11
70
0
62
253
6
CONTINUOUS
0
LAYER
2
OBJECT__12
70
0
62
253
6
CONTINUOUS
0
LAYER
2
OBJECT__13
70
0
62
253
6
CONTINUOUS
0
LAYER
2
OBJECT__14
70
0
62
253
6
CONTINUOUS
0
LAYER
2
OBJECT__15
70
0
62
253
6
CONTINUOUS
0
LAYER
2
OBJECT__16
70
0
62
253
6
CONTINUOUS
0
LAYER
2
OBJECT__17
70
0
62
253
6
CONTINUOUS
0
LAYER
2
OBJECT__18
70
0
62
253
6
CONTINUOUS
0
LAYER
2
OBJECT__19
70
0
62
253
6
CONTINUOUS
0
LAYER
2
OBJECT__20
70
0
62
253
6
CONTINUOUS
0
LAYER
2
OBJECT__21
70
0
62
253
6
CONTINUOUS
0
LAYER
2
OBJECT__23
70
0
62
253
6
CONTINUOUS
0
ENDTAB
0
TABLE
2
STYLE
70
1
0
STYLE
2
STANDARD
70
0
40
0.0
41
1.0
50
0.0
71
0
42
0.2
3
txt
4
1
0
ENDTAB
0
TABLE
2
UCS
70
0
0
ENDTAB
0
ENDSEC
0
SECTION
2
ENTITIES
0
POLYLINE
8
OBJECT__0
66
1
70
64
71
68
72
68
62
253
0
VERTEX
8
OBJECT__0
10
1.000000
20
-15.685000
30
32.570000
70
192
0
VERTEX
8
OBJECT__0
10
1.000000
20
0.000000
30
36.150002
70
192
0
VERTEX
8
OBJECT__0
10
10.538000
20
-6.046000
30
35.640999
70
192
0
VERTEX
8
OBJECT__0
10
10.559000
20
-11.965000
30
34.112000
70
192
0
VERTEX
8
OBJECT__0
10
10.531000
20
0.000000
30
36.150002
70
192
0
VERTEX
8
OBJECT__0
10
1.000000
20
-28.263000
30
22.539000
70
192
0
VERTEX
8
OBJECT__0
10
10.628000
20
-22.580999
30
28.229000
70
192
0
VERTEX
8
OBJECT__0
10
10.667000
20
-26.985001
30
24.055000
70
192
0
VERTEX
8
OBJECT__0
10
10.590000
20
-17.502001
30
31.629999
70
192
0
VERTEX
8
OBJECT__0
10
10.580000
20
-15.638000
30
32.466000
70
192
0
VERTEX
8
OBJECT__0
10
10.704000
20
-30.653000
30
19.164000
70
192
0
VERTEX
8
OBJECT__0
10
10.735000
20
-33.425999
30
13.767000
70
192
0
VERTEX
8
OBJECT__0
10
1.000000
20
-35.243999
30
8.044000
70
192
0
VERTEX
8
OBJECT__0
10
10.679000
20
-28.172001
30
22.471001
70
192
0
VERTEX
8
OBJECT__0
10
10.757000
20
-35.268002
30
7.937000
70
192
0
VERTEX
8
OBJECT__0
10
10.768000
20
-36.098999
30
1.926000
70
192
0
VERTEX
8
OBJECT__0
10
1.000000
20
-36.150002
30
0.000000
70
192
0
VERTEX
8
OBJECT__0
10
10.757000
20
-35.235001
30
8.041000
70
192
0
VERTEX
8
OBJECT__0
10
10.767000
20
-36.037998
30
0.000000
70
192
0
VERTEX
8
OBJECT__0
10
10.765000
20
-35.907001
30
-4.184000
70
192
0
VERTEX
8
OBJECT__0
10
1.000000
20
-35.243999
30
-8.044000
70
192
0
VERTEX
8
OBJECT__0
10
10.755000
20
-35.129002
30
-8.021000
70
192
0
VERTEX
8
OBJECT__0
10
10.750000
20
-34.701000
30
-10.131000
70
192
0
VERTEX
8
OBJECT__0
10
10.724000
20
-32.498001
30
-15.833000
70
192
0
VERTEX
8
OBJECT__0
10
1.000000
20
-28.263000
30
-22.539000
70
192
0
VERTEX
8
OBJECT__0
10
10.691000
20
-29.392000
30
-21.046000
70
192
0
VERTEX
8
OBJECT__0
10
10.653000
20
-25.426001
30
-25.697001
70
192
0
VERTEX
8
OBJECT__0
10
10.614000
20
-20.770000
30
-29.587999
70
192
0
VERTEX
8
OBJECT__0
10
10.679000
20
-28.180000
30
-22.468000
70
192
0
VERTEX
8
OBJECT__0
10
1.000000
20
-15.685000
30
-32.570000
70
192
0
VERTEX
8
OBJECT__0
10
1.000000
20
0.000000
30
-36.150002
70
192
0
VERTEX
8
OBJECT__0
10
10.550000
20
-9.805000
30
-34.794998
70
192
0
VERTEX
8
OBJECT__0
10
10.579000
20
-15.676000
30
-32.555000
70
192
0
VERTEX
8
OBJECT__0
10
10.578000
20
-15.487000
30
-32.665001
70
192
0
VERTEX
8
OBJECT__0
10
10.534000
20
-3.801000
30
-35.950001
70
192
0
VERTEX
8
OBJECT__0
10
1.000000
20
15.685000
30
-32.570000
70
192
0
VERTEX
8
OBJECT__0
10
10.545000
20
8.312000
30
-35.181000
70
192
0
VERTEX
8
OBJECT__0
10
10.570000
20
14.079000
30
-33.296001
70
192
0
VERTEX
8
OBJECT__0
10
10.532000
20
2.265000
30
-36.078999
70
192
0
VERTEX
8
OBJECT__0
10
10.533000
20
0.003000
30
-36.030998
70
192
0
VERTEX
8
OBJECT__0
10
10.604000
20
19.487000
30
-30.448000
70
192
0
VERTEX
8
OBJECT__0
10
10.643000
20
24.306000
30
-26.759001
70
192
0
VERTEX
8
OBJECT__0
10
1.000000
20
28.263000
30
-22.539000
70
192
0
VERTEX
8
OBJECT__0
10
10.580000
20
15.635000
30
-32.476002
70
192
0
VERTEX
8
OBJECT__0
10
1.000000
20
35.243999
30
-8.044000
70
192
0
VERTEX
8
OBJECT__0
10
10.717000
20
31.792999
30
-17.205999
70
192
0
VERTEX
8
OBJECT__0
10
10.744000
20
34.237999
30
-11.602000
70
192
0
VERTEX
8
OBJECT__0
10
10.682000
20
28.466999
30
-22.281000
70
192
0
VERTEX
8
OBJECT__0
10
10.680000
20
28.243999
30
-22.521000
70
192
0
VERTEX
8
OBJECT__0
10
1.000000
20
35.243999
30
8.044000
70
192
0
VERTEX
8
OBJECT__0
10
10.768000
20
36.118999
30
0.000000
70
192
0
VERTEX
8
OBJECT__0
10
10.768000
20
36.147999
30
0.385000
70
192
0
VERTEX
8
OBJECT__0
10
10.761000
20
35.574001
30
6.425000
70
192
0
VERTEX
8
OBJECT__0
10
10.762000
20
35.695999
30
-5.712000
70
192
0
VERTEX
8
OBJECT__0
10
10.755000
20
35.125999
30
-8.015000
70
192
0
VERTEX
8
OBJECT__0
10
10.741000
20
33.983002
30
12.327000
70
192
0
VERTEX
8
OBJECT__0
10
10.713000
20
31.443001
30
17.837999
70
192
0
VERTEX
8
OBJECT__0
10
10.756000
20
35.145000
30
8.018000
70
192
0
VERTEX
8
OBJECT__0
10
1.000000
20
28.263000
30
22.539000
70
192
0
VERTEX
8
OBJECT__0
10
1.000000
20
15.685000
30
32.570000
70
192
0
VERTEX
8
OBJECT__0
10
10.638000
20
23.766001
30
27.239000
70
192
0
VERTEX
8
OBJECT__0
10
10.679000
20
28.235001
30
22.520000
70
192
0
VERTEX
8
OBJECT__0
10
10.677000
20
27.988001
30
22.879999
70
192
0
VERTEX
8
OBJECT__0
10
10.599000
20
18.837000
30
30.855000
70
192
0
VERTEX
8
OBJECT__0
10
10.543000
20
7.561000
30
35.349998
70
192
0
VERTEX
8
OBJECT__0
10
10.532000
20
1.563000
30
36.116001
70
192
0
VERTEX
8
OBJECT__0
10
10.566000
20
13.410000
30
33.570999
70
192
0
VERTEX
8
OBJECT__0
10
10.580000
20
15.630000
30
32.459999
70
192
0
VERTEX
8
OBJECT__0
10
0
20
0
30
0
70
128
71
1
72
2
73
3
0
VERTEX
8
OBJECT__0
10
0
20
0
30
0
70
128
71
3
72
4
73
1
0
VERTEX
8
OBJECT__0
10
0
20
0
30
0
70
128
71
2
72
5
73
3
0
VERTEX
8
OBJECT__0
10
0
20
0
30
0
70
128
71
6
72
7
73
8
0
VERTEX
8
OBJECT__0
10
0
20
0
30
0
70
128
71
1
72
9
73
7
0
VERTEX
8
OBJECT__0
10
0
20
0
30
0
70
128
71
7
72
6
73
1
0
VERTEX
8
OBJECT__0
10
0
20
0
30
0
70
128
71
1
72
10
73
9
0
VERTEX
8
OBJECT__0
10
0
20
0
30
0
70
128
71
6
72
11
73
12
0
VERTEX
8
OBJECT__0
10
0
20
0
30
0
70
128
71
12
72
13
73
6
0
VERTEX
8
OBJECT__0
10
0
20
0
30
0
70
128
71
6
72
14
73
11
0
VERTEX
8
OBJECT__0
10
0
20
0
30
0
70
128
71
13
72
15
73
16
0
VERTEX
8
OBJECT__0
10
0
20
0
30
0
70
128
71
16
72
17
73
13
0
VERTEX
8
OBJECT__0
10
0
20
0
30
0
70
128
71
13
72
18
73
15
0
VERTEX
8
OBJECT__0
10
0
20
0
30
0
70
128
71
17
72
19
73
20
0
VERTEX
8
OBJECT__0
10
0
20
0
30
0
70
128
71
20
72
21
73
17
0
VERTEX
8
OBJECT__0
10
0
20
0
30
0
70
128
71
20
72
22
73
21
0
VERTEX
8
OBJECT__0
10
0
20
0
30
0
70
128
71
21
72
23
73
24
0
VERTEX
8
OBJECT__0
10
0
20
0
30
0
70
128
71
21
72
22
73
23
0
VERTEX
8
OBJECT__0
10
0
20
0
30
0
70
128
71
24
72
25
73
21
0
VERTEX
8
OBJECT__0
10
0
20
0
30
0
70
128
71
24
72
26
73
25
0
VERTEX
8
OBJECT__0
10
0
20
0
30
0
70
128
71
25
72
27
73
28
0
VERTEX
8
OBJECT__0
10
0
20
0
30
0
70
128
71
25
72
29
73
27
0
VERTEX
8
OBJECT__0
10
0
20
0
30
0
70
128
71
28
72
30
73
25
0
VERTEX
8
OBJECT__0
10
0
20
0
30
0
70
128
71
31
72
30
73
32
0
VERTEX
8
OBJECT__0
10
0
20
0
30
0
70
128
71
30
72
33
73
34
0
VERTEX
8
OBJECT__0
10
0
20
0
30
0
70
128
71
34
72
32
73
30
0
VERTEX
8
OBJECT__0
10
0
20
0
30
0
70
128
71
32
72
35
73
31
0
VERTEX
8
OBJECT__0
10
0
20
0
30
0
70
128
71
36
72
37
73
38
0
VERTEX
8
OBJECT__0
10
0
20
0
30
0
70
128
71
31
72
39
73
37
0
VERTEX
8
OBJECT__0
10
0
20
0
30
0
70
128
71
37
72
36
73
31
0
VERTEX
8
OBJECT__0
10
0
20
0
30
0
70
128
71
31
72
40
73
39
0
VERTEX
8
OBJECT__0
10
0
20
0
30
0
70
128
71
36
72
41
73
42
0
VERTEX
8
OBJECT__0
10
0
20
0
30
0
70
128
71
42
72
43
73
36
0
VERTEX
8
OBJECT__0
10
0
20
0
30
0
70
128
71
36
72
44
73
41
0
VERTEX
8
OBJECT__0
10
0
20
0
30
0
70
128
71
45
72
43
73
46
0
VERTEX
8
OBJECT__0
10
0
20
0
30
0
70
128
71
46
72
47
73
45
0
VERTEX
8
OBJECT__0
10
0
20
0
30
0
70
128
71
43
72
48
73
46
0
VERTEX
8
OBJECT__0
10
0
20
0
30
0
70
128
71
43
72
49
73
48
0
VERTEX
8
OBJECT__0
10
0
20
0
30
0
70
128
71
50
72
51
73
52
0
VERTEX
8
OBJECT__0
10
0
20
0
30
0
70
128
71
52
72
53
73
50
0
VERTEX
8
OBJECT__0
10
0
20
0
30
0
70
128
71
45
72
54
73
51
0
VERTEX
8
OBJECT__0
10
0
20
0
30
0
70
128
71
45
72
55
73
54
0
VERTEX
8
OBJECT__0
10
0
20
0
30
0
70
128
71
51
72
50
73
45
0
VERTEX
8
OBJECT__0
10
0
20
0
30
0
70
128
71
50
72
56
73
57
0
VERTEX
8
OBJECT__0
10
0
20
0
30
0
70
128
71
50
72
58
73
56
0
VERTEX
8
OBJECT__0
10
0
20
0
30
0
70
128
71
57
72
59
73
50
0
VERTEX
8
OBJECT__0
10
0
20
0
30
0
70
128
71
60
72
59
73
61
0
VERTEX
8
OBJECT__0
10
0
20
0
30
0
70
128
71
59
72
62
73
63
0
VERTEX
8
OBJECT__0
10
0
20
0
30
0
70
128
71
63
72
61
73
59
0
VERTEX
8
OBJECT__0
10
0
20
0
30
0
70
128
71
61
72
64
73
60
0
VERTEX
8
OBJECT__0
10
0
20
0
30
0
70
128
71
2
72
65
73
66
0
VERTEX
8
OBJECT__0
10
0
20
0
30
0
70
128
71
60
72
67
73
65
0
VERTEX
8
OBJECT__0
10
0
20
0
30
0
70
128
71
60
72
68
73
67
0
VERTEX
8
OBJECT__0
10
0
20
0
30
0
70
128
71
65
72
2
73
60
0
VERTEX
8
OBJECT__0
10
0
20
0
30
0
70
128
71
66
72
5
73
2
0
VERTEX
8
OBJECT__0
10
0
20
0
30
0
70
128
71
64
72
68
73
60
0
VERTEX
8
OBJECT__0
10
0
20
0
30
0
70
128
71
57
72
62
73
59
0
VERTEX
8
OBJECT__0
10
0
20
0
30
0
70
128
71
53
72
58
73
50
0
VERTEX
8
OBJECT__0
10
0
20
0
30
0
70
128
71
47
72
55
73
45
0
VERTEX
8
OBJECT__0
10
0
20
0
30
0
70
128
71
42
72
49
73
43
0
VERTEX
8
OBJECT__0
10
0
20
0
30
0
70
128
71
38
72
44
73
36
0
VERTEX
8
OBJECT__0
10
0
20
0
30
0
70
128
71
35
72
40
73
31
0
VERTEX
8
OBJECT__0
10
0
20
0
30
0
70
128
71
28
72
33
73
30
0
VERTEX
8
OBJECT__0
10
0
20
0
30
0
70
128
71
26
72
29
73
25
0
VERTEX
8
OBJECT__0
10
0
20
0
30
0
70
128
71
16
72
19
73
17
0
VERTEX
8
OBJECT__0
10
0
20
0
30
0
70
128
71
12
72
18
73
13
0
VERTEX
8
OBJECT__0
10
0
20
0
30
0
70
128
71
8
72
14
73
6
0
VERTEX
8
OBJECT__0
10
0
20
0
30
0
70
128
71
4
72
10
73
1
0
SEQEND
8
OBJECT__0
0
POLYLINE
8
OBJECT__1
66
1
70
64
71
105
72
116
62
253
0
VERTEX
8
OBJECT__1
10
10.227000
20
47.362000
30
36.986000
70
192
0
VERTEX
8
OBJECT__1
10
10.741000
20
33.983002
30
12.327000
70
192
0
VERTEX
8
OBJECT__1
10
10.756000
20
35.145000
30
8.018000
70
192
0
VERTEX
8
OBJECT__1
10
10.602000
20
47.363998
30
0.000000
70
192
0
VERTEX
8
OBJECT__1
10
10.677000
20
27.988001
30
22.879999
70
192
0
VERTEX
8
OBJECT__1
10
10.679000
20
28.235001
30
22.520000
70
192
0
VERTEX
8
OBJECT__1
10
10.713000
20
31.443001
30
17.837999
70
192
0
VERTEX
8
OBJECT__1
10
10.638000
20
23.766001
30
27.239000
70
192
0
VERTEX
8
OBJECT__1
10
10.761000
20
35.574001
30
6.425000
70
192
0
VERTEX
8
OBJECT__1
10
10.599000
20
18.837000
30
30.855000
70
192
0
VERTEX
8
OBJECT__1
10
10.566000
20
13.410000
30
33.570999
70
192
0
VERTEX
8
OBJECT__1
10
10.580000
20
15.630000
30
32.459999
70
192
0
VERTEX
8
OBJECT__1
10
10.768000
20
36.147999
30
0.385000
70
192
0
VERTEX
8
OBJECT__1
10
10.511000
20
0.000000
30
36.986000
70
192
0
VERTEX
8
OBJECT__1
10
10.532000
20
1.563000
30
36.116001
70
192
0
VERTEX
8
OBJECT__1
10
10.543000
20
7.561000
30
35.349998
70
192
0
VERTEX
8
OBJECT__1
10
10.531000
20
0.000000
30
36.150002
70
192
0
VERTEX
8
OBJECT__1
10
10.511000
20
0.000000
30
-36.986000
70
192
0
VERTEX
8
OBJECT__1
10
10.227000
20
47.362000
30
-36.986000
70
192
0
VERTEX
8
OBJECT__1
10
10.545000
20
8.312000
30
-35.181000
70
192
0
VERTEX
8
OBJECT__1
10
10.604000
20
19.487000
30
-30.448000
70
192
0
VERTEX
8
OBJECT__1
10
10.580000
20
15.635000
30
-32.476002
70
192
0
VERTEX
8
OBJECT__1
10
10.682000
20
28.466999
30
-22.281000
70
192
0
VERTEX
8
OBJECT__1
10
10.680000
20
28.243999
30
-22.521000
70
192
0
VERTEX
8
OBJECT__1
10
10.717000
20
31.792999
30
-17.205999
70
192
0
VERTEX
8
OBJECT__1
10
10.755000
20
35.125999
30
-8.015000
70
192
0
VERTEX
8
OBJECT__1
10
10.744000
20
34.237999
30
-11.602000
70
192
0
VERTEX
8
OBJECT__1
10
10.762000
20
35.695999
30
-5.712000
70
192
0
VERTEX
8
OBJECT__1
10
10.768000
20
36.118999
30
0.000000
70
192
0
VERTEX
8
OBJECT__1
10
10.643000
20
24.306000
30
-26.759001
70
192
0
VERTEX
8
OBJECT__1
10
10.570000
20
14.079000
30
-33.296001
70
192
0
VERTEX
8
OBJECT__1
10
10.532000
20
2.265000
30
-36.078999
70
192
0
VERTEX
8
OBJECT__1
10
10.602000
20
-47.363998
30
0.000000
70
192
0
VERTEX
8
OBJECT__1
10
10.227000
20
-47.362000
30
-36.986000
70
192
0
VERTEX
8
OBJECT__1
10
10.750000
20
-34.701000
30
-10.131000
70
192
0
VERTEX
8
OBJECT__1
10
10.755000
20
-35.129002
30
-8.021000
70
192
0
VERTEX
8
OBJECT__1
10
10.724000
20
-32.498001
30
-15.833000
70
192
0
VERTEX
8
OBJECT__1
10
10.691000
20
-29.392000
30
-21.046000
70
192
0
VERTEX
8
OBJECT__1
10
10.653000
20
-25.426001
30
-25.697001
70
192
0
VERTEX
8
OBJECT__1
10
10.679000
20
-28.180000
30
-22.468000
70
192
0
VERTEX
8
OBJECT__1
10
10.614000
20
-20.770000
30
-29.587999
70
192
0
VERTEX
8
OBJECT__1
10
10.765000
20
-35.907001
30
-4.184000
70
192
0
VERTEX
8
OBJECT__1
10
10.578000
20
-15.487000
30
-32.665001
70
192
0
VERTEX
8
OBJECT__1
10
10.579000
20
-15.676000
30
-32.555000
70
192
0
VERTEX
8
OBJECT__1
10
10.550000
20
-9.805000
30
-34.794998
70
192
0
VERTEX
8
OBJECT__1
10
10.534000
20
-3.801000
30
-35.950001
70
192
0
VERTEX
8
OBJECT__1
10
10.533000
20
0.003000
30
-36.030998
70
192
0
VERTEX
8
OBJECT__1
10
9.439000
20
93.579002
30
0.000000
70
192
0
VERTEX
8
OBJECT__1
10
9.412000
20
93.552002
30
31.761000
70
192
0
VERTEX
8
OBJECT__1
10
9.303000
20
91.440002
30
72.946999
70
192
0
VERTEX
8
OBJECT__1
10
9.417000
20
39.181000
30
73.060997
70
192
0
VERTEX
8
OBJECT__1
10
9.304000
20
92.443001
30
71.944000
70
192
0
VERTEX
8
OBJECT__1
10
9.303000
20
93.446999
30
70.941002
70
192
0
VERTEX
8
OBJECT__1
10
9.302000
20
93.332001
30
71.602997
70
192
0
VERTEX
8
OBJECT__1
10
9.301000
20
93.003998
30
72.192001
70
192
0
VERTEX
8
OBJECT__1
10
9.301000
20
92.500999
30
72.639999
70
192
0
VERTEX
8
OBJECT__1
10
9.302000
20
91.879997
30
72.897003
70
192
0
VERTEX
8
OBJECT__1
10
9.398000
20
93.538002
30
36.986000
70
192
0
VERTEX
8
OBJECT__1
10
9.434000
20
0.000000
30
73.078003
70
192
0
VERTEX
8
OBJECT__1
10
9.440000
20
-13.078000
30
73.083000
70
192
0
VERTEX
8
OBJECT__1
10
10.538000
20
-6.046000
30
35.640999
70
192
0
VERTEX
8
OBJECT__1
10
9.380000
20
-47.356998
30
73.024002
70
192
0
VERTEX
8
OBJECT__1
10
10.580000
20
-15.638000
30
32.466000
70
192
0
VERTEX
8
OBJECT__1
10
10.559000
20
-11.965000
30
34.112000
70
192
0
VERTEX
8
OBJECT__1
10
10.590000
20
-17.502001
30
31.629999
70
192
0
VERTEX
8
OBJECT__1
10
10.704000
20
-30.653000
30
19.164000
70
192
0
VERTEX
8
OBJECT__1
10
10.679000
20
-28.172001
30
22.471001
70
192
0
VERTEX
8
OBJECT__1
10
10.735000
20
-33.425999
30
13.767000
70
192
0
VERTEX
8
OBJECT__1
10
10.757000
20
-35.268002
30
7.937000
70
192
0
VERTEX
8
OBJECT__1
10
10.757000
20
-35.235001
30
8.041000
70
192
0
VERTEX
8
OBJECT__1
10
10.767000
20
-36.037998
30
0.000000
70
192
0
VERTEX
8
OBJECT__1
10
10.768000
20
-36.098999
30
1.926000
70
192
0
VERTEX
8
OBJECT__1
10
10.667000
20
-26.985001
30
24.055000
70
192
0
VERTEX
8
OBJECT__1
10
10.628000
20
-22.580999
30
28.229000
70
192
0
VERTEX
8
OBJECT__1
10
9.303000
20
-93.446999
30
70.941002
70
192
0
VERTEX
8
OBJECT__1
10
9.412000
20
-93.552002
30
31.761000
70
192
0
VERTEX
8
OBJECT__1
10
9.304000
20
-92.443001
30
71.944000
70
192
0
VERTEX
8
OBJECT__1
10
9.303000
20
-91.440002
30
72.946999
70
192
0
VERTEX
8
OBJECT__1
10
9.301000
20
-92.102997
30
72.832001
70
192
0
VERTEX
8
OBJECT__1
10
9.301000
20
-92.691002
30
72.504997
70
192
0
VERTEX
8
OBJECT__1
10
9.301000
20
-93.139000
30
72.001999
70
192
0
VERTEX
8
OBJECT__1
10
9.302000
20
-93.396004
30
71.379997
70
192
0
VERTEX
8
OBJECT__1
10
9.445000
20
-93.584999
30
-7.427000
70
192
0
VERTEX
8
OBJECT__1
10
9.439000
20
-93.579002
30
0.000000
70
192
0
VERTEX
8
OBJECT__1
10
9.379000
20
-93.521004
30
-36.986000
70
192
0
VERTEX
8
OBJECT__1
10
9.303000
20
-91.440002
30
-72.946999
70
192
0
VERTEX
8
OBJECT__1
10
9.304000
20
-92.443001
30
-71.944000
70
192
0
VERTEX
8
OBJECT__1
10
9.303000
20
-93.446999
30
-70.941002
70
192
0
VERTEX
8
OBJECT__1
10
9.302000
20
-93.332001
30
-71.602997
70
192
0
VERTEX
8
OBJECT__1
10
9.301000
20
-93.003998
30
-72.192001
70
192
0
VERTEX
8
OBJECT__1
10
9.301000
20
-92.500999
30
-72.639999
70
192
0
VERTEX
8
OBJECT__1
10
9.302000
20
-91.879997
30
-72.897003
70
192
0
VERTEX
8
OBJECT__1
10
9.380000
20
-47.356998
30
-73.024002
70
192
0
VERTEX
8
OBJECT__1
10
9.440000
20
-13.078000
30
-73.083000
70
192
0
VERTEX
8
OBJECT__1
10
9.434000
20
0.000000
30
-73.078003
70
192
0
VERTEX
8
OBJECT__1
10
9.417000
20
39.181000
30
-73.060997
70
192
0
VERTEX
8
OBJECT__1
10
9.303000
20
93.446999
30
-70.941002
70
192
0
VERTEX
8
OBJECT__1
10
9.445000
20
93.584999
30
-7.427000
70
192
0
VERTEX
8
OBJECT__1
10
9.304000
20
92.443001
30
-71.944000
70
192
0
VERTEX
8
OBJECT__1
10
9.303000
20
91.440002
30
-72.946999
70
192
0
VERTEX
8
OBJECT__1
10
9.301000
20
92.102997
30
-72.832001
70
192
0
VERTEX
8
OBJECT__1
10
9.301000
20
92.691002
30
-72.504997
70
192
0
VERTEX
8
OBJECT__1
10
9.301000
20
93.139000
30
-72.001999
70
192
0
VERTEX
8
OBJECT__1
10
9.302000
20
93.396004
30
-71.379997
70
192
0
VERTEX
8
OBJECT__1
10
9.399000
20
47.356998
30
-73.042999
70
192
0
VERTEX
8
OBJECT__1
10
0
20
0
30
0
70
128
71
1
72
2
73
3
0
VERTEX
8
OBJECT__1
10
0
20
0
30
0
70
128
71
3
72
4
73
1
0
VERTEX
8
OBJECT__1
10
0
20
0
30
0
70
128
71
1
72
5
73
6
0
VERTEX
8
OBJECT__1
10
0
20
0
30
0
70
128
71
6
72
7
73
1
0
VERTEX
8
OBJECT__1
10
0
20
0
30
0
70
128
71
7
72
2
73
1
0
VERTEX
8
OBJECT__1
10
0
20
0
30
0
70
128
71
1
72
8
73
5
0
VERTEX
8
OBJECT__1
10
0
20
0
30
0
70
128
71
3
72
9
73
4
0
VERTEX
8
OBJECT__1
10
0
20
0
30
0
70
128
71
1
72
10
73
8
0
VERTEX
8
OBJECT__1
10
0
20
0
30
0
70
128
71
1
72
11
73
12
0
VERTEX
8
OBJECT__1
10
0
20
0
30
0
70
128
71
12
72
10
73
1
0
VERTEX
8
OBJECT__1
10
0
20
0
30
0
70
128
71
9
72
13
73
4
0
VERTEX
8
OBJECT__1
10
0
20
0
30
0
70
128
71
14
72
15
73
16
0
VERTEX
8
OBJECT__1
10
0
20
0
30
0
70
128
71
14
72
17
73
15
0
VERTEX
8
OBJECT__1
10
0
20
0
30
0
70
128
71
16
72
1
73
14
0
VERTEX
8
OBJECT__1
10
0
20
0
30
0
70
128
71
16
72
11
73
1
0
VERTEX
8
OBJECT__1
10
0
20
0
30
0
70
128
71
18
72
19
73
20
0
VERTEX
8
OBJECT__1
10
0
20
0
30
0
70
128
71
19
72
21
73
22
0
VERTEX
8
OBJECT__1
10
0
20
0
30
0
70
128
71
19
72
23
73
24
0
VERTEX
8
OBJECT__1
10
0
20
0
30
0
70
128
71
19
72
25
73
23
0
VERTEX
8
OBJECT__1
10
0
20
0
30
0
70
128
71
4
72
26
73
27
0
VERTEX
8
OBJECT__1
10
0
20
0
30
0
70
128
71
4
72
28
73
26
0
VERTEX
8
OBJECT__1
10
0
20
0
30
0
70
128
71
4
72
29
73
28
0
VERTEX
8
OBJECT__1
10
0
20
0
30
0
70
128
71
27
72
19
73
4
0
VERTEX
8
OBJECT__1
10
0
20
0
30
0
70
128
71
27
72
25
73
19
0
VERTEX
8
OBJECT__1
10
0
20
0
30
0
70
128
71
24
72
30
73
19
0
VERTEX
8
OBJECT__1
10
0
20
0
30
0
70
128
71
30
72
21
73
19
0
VERTEX
8
OBJECT__1
10
0
20
0
30
0
70
128
71
22
72
31
73
19
0
VERTEX
8
OBJECT__1
10
0
20
0
30
0
70
128
71
31
72
20
73
19
0
VERTEX
8
OBJECT__1
10
0
20
0
30
0
70
128
71
20
72
32
73
18
0
VERTEX
8
OBJECT__1
10
0
20
0
30
0
70
128
71
33
72
34
73
35
0
VERTEX
8
OBJECT__1
10
0
20
0
30
0
70
128
71
35
72
36
73
33
0
VERTEX
8
OBJECT__1
10
0
20
0
30
0
70
128
71
34
72
37
73
35
0
VERTEX
8
OBJECT__1
10
0
20
0
30
0
70
128
71
34
72
38
73
37
0
VERTEX
8
OBJECT__1
10
0
20
0
30
0
70
128
71
34
72
39
73
40
0
VERTEX
8
OBJECT__1
10
0
20
0
30
0
70
128
71
40
72
38
73
34
0
VERTEX
8
OBJECT__1
10
0
20
0
30
0
70
128
71
34
72
41
73
39
0
VERTEX
8
OBJECT__1
10
0
20
0
30
0
70
128
71
36
72
42
73
33
0
VERTEX
8
OBJECT__1
10
0
20
0
30
0
70
128
71
34
72
43
73
44
0
VERTEX
8
OBJECT__1
10
0
20
0
30
0
70
128
71
44
72
41
73
34
0
VERTEX
8
OBJECT__1
10
0
20
0
30
0
70
128
71
34
72
45
73
43
0
VERTEX
8
OBJECT__1
10
0
20
0
30
0
70
128
71
34
72
18
73
46
0
VERTEX
8
OBJECT__1
10
0
20
0
30
0
70
128
71
46
72
45
73
34
0
VERTEX
8
OBJECT__1
10
0
20
0
30
0
70
128
71
18
72
47
73
46
0
VERTEX
8
OBJECT__1
10
0
20
0
30
0
70
128
71
4
72
48
73
49
0
VERTEX
8
OBJECT__1
10
0
20
0
30
0
70
128
71
49
72
1
73
4
0
VERTEX
8
OBJECT__1
10
0
20
0
30
0
70
128
71
50
72
51
73
1
0
VERTEX
8
OBJECT__1
10
0
20
0
30
0
70
128
71
52
72
53
73
54
0
VERTEX
8
OBJECT__1
10
0
20
0
30
0
70
128
71
52
72
55
73
56
0
VERTEX
8
OBJECT__1
10
0
20
0
30
0
70
128
71
56
72
57
73
52
0
VERTEX
8
OBJECT__1
10
0
20
0
30
0
70
128
71
57
72
50
73
52
0
VERTEX
8
OBJECT__1
10
0
20
0
30
0
70
128
71
58
72
53
73
52
0
VERTEX
8
OBJECT__1
10
0
20
0
30
0
70
128
71
52
72
50
73
58
0
VERTEX
8
OBJECT__1
10
0
20
0
30
0
70
128
71
54
72
55
73
52
0
VERTEX
8
OBJECT__1
10
0
20
0
30
0
70
128
71
14
72
1
73
51
0
VERTEX
8
OBJECT__1
10
0
20
0
30
0
70
128
71
51
72
59
73
14
0
VERTEX
8
OBJECT__1
10
0
20
0
30
0
70
128
71
60
72
61
73
14
0
VERTEX
8
OBJECT__1
10
0
20
0
30
0
70
128
71
61
72
17
73
14
0
VERTEX
8
OBJECT__1
10
0
20
0
30
0
70
128
71
62
72
63
73
64
0
VERTEX
8
OBJECT__1
10
0
20
0
30
0
70
128
71
62
72
65
73
63
0
VERTEX
8
OBJECT__1
10
0
20
0
30
0
70
128
71
62
72
66
73
67
0
VERTEX
8
OBJECT__1
10
0
20
0
30
0
70
128
71
62
72
68
73
66
0
VERTEX
8
OBJECT__1
10
0
20
0
30
0
70
128
71
33
72
69
73
70
0
VERTEX
8
OBJECT__1
10
0
20
0
30
0
70
128
71
70
72
62
73
33
0
VERTEX
8
OBJECT__1
10
0
20
0
30
0
70
128
71
70
72
68
73
62
0
VERTEX
8
OBJECT__1
10
0
20
0
30
0
70
128
71
33
72
71
73
72
0
VERTEX
8
OBJECT__1
10
0
20
0
30
0
70
128
71
72
72
69
73
33
0
VERTEX
8
OBJECT__1
10
0
20
0
30
0
70
128
71
67
72
73
73
62
0
VERTEX
8
OBJECT__1
10
0
20
0
30
0
70
128
71
73
72
74
73
62
0
VERTEX
8
OBJECT__1
10
0
20
0
30
0
70
128
71
74
72
65
73
62
0
VERTEX
8
OBJECT__1
10
0
20
0
30
0
70
128
71
64
72
60
73
62
0
VERTEX
8
OBJECT__1
10
0
20
0
30
0
70
128
71
64
72
61
73
60
0
VERTEX
8
OBJECT__1
10
0
20
0
30
0
70
128
71
62
72
75
73
76
0
VERTEX
8
OBJECT__1
10
0
20
0
30
0
70
128
71
77
72
78
73
79
0
VERTEX
8
OBJECT__1
10
0
20
0
30
0
70
128
71
77
72
80
73
81
0
VERTEX
8
OBJECT__1
10
0
20
0
30
0
70
128
71
81
72
82
73
77
0
VERTEX
8
OBJECT__1
10
0
20
0
30
0
70
128
71
82
72
75
73
77
0
VERTEX
8
OBJECT__1
10
0
20
0
30
0
70
128
71
62
72
78
73
77
0
VERTEX
8
OBJECT__1
10
0
20
0
30
0
70
128
71
77
72
75
73
62
0
VERTEX
8
OBJECT__1
10
0
20
0
30
0
70
128
71
79
72
80
73
77
0
VERTEX
8
OBJECT__1
10
0
20
0
30
0
70
128
71
76
72
33
73
62
0
VERTEX
8
OBJECT__1
10
0
20
0
30
0
70
128
71
34
72
33
73
83
0
VERTEX
8
OBJECT__1
10
0
20
0
30
0
70
128
71
33
72
84
73
83
0
VERTEX
8
OBJECT__1
10
0
20
0
30
0
70
128
71
34
72
85
73
86
0
VERTEX
8
OBJECT__1
10
0
20
0
30
0
70
128
71
87
72
88
73
89
0
VERTEX
8
OBJECT__1
10
0
20
0
30
0
70
128
71
87
72
90
73
91
0
VERTEX
8
OBJECT__1
10
0
20
0
30
0
70
128
71
91
72
92
73
87
0
VERTEX
8
OBJECT__1
10
0
20
0
30
0
70
128
71
92
72
86
73
87
0
VERTEX
8
OBJECT__1
10
0
20
0
30
0
70
128
71
85
72
88
73
87
0
VERTEX
8
OBJECT__1
10
0
20
0
30
0
70
128
71
87
72
86
73
85
0
VERTEX
8
OBJECT__1
10
0
20
0
30
0
70
128
71
89
72
90
73
87
0
VERTEX
8
OBJECT__1
10
0
20
0
30
0
70
128
71
34
72
93
73
94
0
VERTEX
8
OBJECT__1
10
0
20
0
30
0
70
128
71
94
72
18
73
34
0
VERTEX
8
OBJECT__1
10
0
20
0
30
0
70
128
71
18
72
95
73
96
0
VERTEX
8
OBJECT__1
10
0
20
0
30
0
70
128
71
96
72
19
73
18
0
VERTEX
8
OBJECT__1
10
0
20
0
30
0
70
128
71
97
72
98
73
19
0
VERTEX
8
OBJECT__1
10
0
20
0
30
0
70
128
71
99
72
100
73
101
0
VERTEX
8
OBJECT__1
10
0
20
0
30
0
70
128
71
99
72
102
73
103
0
VERTEX
8
OBJECT__1
10
0
20
0
30
0
70
128
71
103
72
104
73
99
0
VERTEX
8
OBJECT__1
10
0
20
0
30
0
70
128
71
104
72
97
73
99
0
VERTEX
8
OBJECT__1
10
0
20
0
30
0
70
128
71
105
72
100
73
99
0
VERTEX
8
OBJECT__1
10
0
20
0
30
0
70
128
71
99
72
97
73
105
0
VERTEX
8
OBJECT__1
10
0
20
0
30
0
70
128
71
101
72
102
73
99
0
VERTEX
8
OBJECT__1
10
0
20
0
30
0
70
128
71
4
72
19
73
98
0
VERTEX
8
OBJECT__1
10
0
20
0
30
0
70
128
71
98
72
48
73
4
0
VERTEX
8
OBJECT__1
10
0
20
0
30
0
70
128
71
19
72
105
73
97
0
VERTEX
8
OBJECT__1
10
0
20
0
30
0
70
128
71
96
72
105
73
19
0
VERTEX
8
OBJECT__1
10
0
20
0
30
0
70
128
71
94
72
95
73
18
0
VERTEX
8
OBJECT__1
10
0
20
0
30
0
70
128
71
86
72
93
73
34
0
VERTEX
8
OBJECT__1
10
0
20
0
30
0
70
128
71
83
72
85
73
34
0
VERTEX
8
OBJECT__1
10
0
20
0
30
0
70
128
71
76
72
84
73
33
0
VERTEX
8
OBJECT__1
10
0
20
0
30
0
70
128
71
14
72
59
73
60
0
VERTEX
8
OBJECT__1
10
0
20
0
30
0
70
128
71
1
72
58
73
50
0
VERTEX
8
OBJECT__1
10
0
20
0
30
0
70
128
71
49
72
58
73
1
0
VERTEX
8
OBJECT__1
10
0
20
0
30
0
70
128
71
42
72
71
73
33
0
VERTEX
8
OBJECT__1
10
0
20
0
30
0
70
128
71
32
72
47
73
18
0
VERTEX
8
OBJECT__1
10
0
20
0
30
0
70
128
71
13
72
29
73
4
0
SEQEND
8
OBJECT__1
0
POLYLINE
8
OBJECT__3
66
1
70
64
71
19
72
21
62
253
0
VERTEX
8
OBJECT__3
10
4.413000
20
98.028999
30
73.240997
70
192
0
VERTEX
8
OBJECT__3
10
7.868000
20
96.616997
30
72.751999
70
192
0
VERTEX
8
OBJECT__3
10
7.862000
20
96.936996
30
70.935997
70
192
0
VERTEX
8
OBJECT__3
10
9.302000
20
93.332001
30
71.602997
70
192
0
VERTEX
8
OBJECT__3
10
9.303000
20
93.446999
30
70.941002
70
192
0
VERTEX
8
OBJECT__3
10
4.424000
20
96.889000
30
75.295998
70
192
0
VERTEX
8
OBJECT__3
10
7.871000
20
95.719002
30
74.362000
70
192
0
VERTEX
8
OBJECT__3
10
9.301000
20
93.003998
30
72.192001
70
192
0
VERTEX
8
OBJECT__3
10
7.870000
20
94.343002
30
75.587997
70
192
0
VERTEX
8
OBJECT__3
10
4.423000
20
96.315002
30
75.807999
70
192
0
VERTEX
8
OBJECT__3
10
9.301000
20
92.500999
30
72.639999
70
192
0
VERTEX
8
OBJECT__3
10
4.421000
20
95.134003
30
76.859001
70
192
0
VERTEX
8
OBJECT__3
10
4.406000
20
92.961998
30
77.751999
70
192
0
VERTEX
8
OBJECT__3
10
7.866000
20
92.640999
30
76.294998
70
192
0
VERTEX
8
OBJECT__3
10
9.302000
20
91.879997
30
72.897003
70
192
0
VERTEX
8
OBJECT__3
10
4.390000
20
91.424004
30
77.922997
70
192
0
VERTEX
8
OBJECT__3
10
7.861000
20
91.434998
30
76.436996
70
192
0
VERTEX
8
OBJECT__3
10
9.303000
20
91.440002
30
72.946999
70
192
0
VERTEX
8
OBJECT__3
10
4.391000
20
98.422997
30
70.924004
70
192
0
VERTEX
8
OBJECT__3
10
0
20
0
30
0
70
128
71
1
72
2
73
3
0
VERTEX
8
OBJECT__3
10
0
20
0
30
0
70
128
71
2
72
4
73
5
0
VERTEX
8
OBJECT__3
10
0
20
0
30
0
70
128
71
6
72
7
73
2
0
VERTEX
8
OBJECT__3
10
0
20
0
30
0
70
128
71
7
72
8
73
4
0
VERTEX
8
OBJECT__3
10
0
20
0
30
0
70
128
71
9
72
7
73
10
0
VERTEX
8
OBJECT__3
10
0
20
0
30
0
70
128
71
7
72
6
73
10
0
VERTEX
8
OBJECT__3
10
0
20
0
30
0
70
128
71
7
72
9
73
11
0
VERTEX
8
OBJECT__3
10
0
20
0
30
0
70
128
71
12
72
13
73
14
0
VERTEX
8
OBJECT__3
10
0
20
0
30
0
70
128
71
9
72
14
73
15
0
VERTEX
8
OBJECT__3
10
0
20
0
30
0
70
128
71
13
72
16
73
17
0
VERTEX
8
OBJECT__3
10
0
20
0
30
0
70
128
71
14
72
17
73
18
0
VERTEX
8
OBJECT__3
10
0
20
0
30
0
70
128
71
18
72
15
73
14
0
VERTEX
8
OBJECT__3
10
0
20
0
30
0
70
128
71
17
72
14
73
13
0
VERTEX
8
OBJECT__3
10
0
20
0
30
0
70
128
71
15
72
11
73
9
0
VERTEX
8
OBJECT__3
10
0
20
0
30
0
70
128
71
14
72
9
73
12
0
VERTEX
8
OBJECT__3
10
0
20
0
30
0
70
128
71
11
72
8
73
7
0
VERTEX
8
OBJECT__3
10
0
20
0
30
0
70
128
71
10
72
12
73
9
0
VERTEX
8
OBJECT__3
10
0
20
0
30
0
70
128
71
4
72
2
73
7
0
VERTEX
8
OBJECT__3
10
0
20
0
30
0
70
128
71
2
72
1
73
6
0
VERTEX
8
OBJECT__3
10
0
20
0
30
0
70
128
71
5
72
3
73
2
0
VERTEX
8
OBJECT__3
10
0
20
0
30
0
70
128
71
3
72
19
73
1
0
SEQEND
8
OBJECT__3
0
POLYLINE
8
OBJECT__4
66
1
70
64
71
14
72
14
62
253
0
VERTEX
8
OBJECT__4
10
7.861000
20
-91.434998
30
76.436996
70
192
0
VERTEX
8
OBJECT__4
10
9.303000
20
-91.440002
30
72.946999
70
192
0
VERTEX
8
OBJECT__4
10
9.380000
20
-47.356998
30
73.024002
70
192
0
VERTEX
8
OBJECT__4
10
7.951000
20
-13.077000
30
76.483002
70
192
0
VERTEX
8
OBJECT__4
10
4.529000
20
-13.076000
30
77.920998
70
192
0
VERTEX
8
OBJECT__4
10
4.390000
20
-91.424004
30
77.922997
70
192
0
VERTEX
8
OBJECT__4
10
7.937000
20
39.179001
30
76.475998
70
192
0
VERTEX
8
OBJECT__4
10
9.434000
20
0.000000
30
73.078003
70
192
0
VERTEX
8
OBJECT__4
10
9.440000
20
-13.078000
30
73.083000
70
192
0
VERTEX
8
OBJECT__4
10
4.507000
20
39.174000
30
77.920998
70
192
0
VERTEX
8
OBJECT__4
10
7.861000
20
91.434998
30
76.436996
70
192
0
VERTEX
8
OBJECT__4
10
9.417000
20
39.181000
30
73.060997
70
192
0
VERTEX
8
OBJECT__4
10
4.390000
20
91.424004
30
77.922997
70
192
0
VERTEX
8
OBJECT__4
10
9.303000
20
91.440002
30
72.946999
70
192
0
VERTEX
8
OBJECT__4
10
0
20
0
30
0
70
128
71
1
72
2
73
3
0
VERTEX
8
OBJECT__4
10
0
20
0
30
0
70
128
71
3
72
4
73
1
0
VERTEX
8
OBJECT__4
10
0
20
0
30
0
70
128
71
4
72
5
73
6
0
VERTEX
8
OBJECT__4
10
0
20
0
30
0
70
128
71
7
72
4
73
8
0
VERTEX
8
OBJECT__4
10
0
20
0
30
0
70
128
71
4
72
9
73
8
0
VERTEX
8
OBJECT__4
10
0
20
0
30
0
70
128
71
4
72
7
73
10
0
VERTEX
8
OBJECT__4
10
0
20
0
30
0
70
128
71
11
72
7
73
12
0
VERTEX
8
OBJECT__4
10
0
20
0
30
0
70
128
71
7
72
11
73
13
0
VERTEX
8
OBJECT__4
10
0
20
0
30
0
70
128
71
13
72
10
73
7
0
VERTEX
8
OBJECT__4
10
0
20
0
30
0
70
128
71
12
72
14
73
11
0
VERTEX
8
OBJECT__4
10
0
20
0
30
0
70
128
71
10
72
5
73
4
0
VERTEX
8
OBJECT__4
10
0
20
0
30
0
70
128
71
8
72
12
73
7
0
VERTEX
8
OBJECT__4
10
0
20
0
30
0
70
128
71
6
72
1
73
4
0
VERTEX
8
OBJECT__4
10
0
20
0
30
0
70
128
71
3
72
9
73
4
0
SEQEND
8
OBJECT__4
0
POLYLINE
8
OBJECT__5
66
1
70
64
71
14
72
14
62
253
0
VERTEX
8
OBJECT__5
10
7.862000
20
96.936996
30
70.935997
70
192
0
VERTEX
8
OBJECT__5
10
9.303000
20
93.446999
30
70.941002
70
192
0
VERTEX
8
OBJECT__5
10
9.398000
20
93.538002
30
36.986000
70
192
0
VERTEX
8
OBJECT__5
10
7.934000
20
96.973000
30
31.757000
70
192
0
VERTEX
8
OBJECT__5
10
4.501000
20
98.420998
30
31.750000
70
192
0
VERTEX
8
OBJECT__5
10
9.412000
20
93.552002
30
31.761000
70
192
0
VERTEX
8
OBJECT__5
10
9.439000
20
93.579002
30
0.000000
70
192
0
VERTEX
8
OBJECT__5
10
7.956000
20
96.984001
30
-7.426000
70
192
0
VERTEX
8
OBJECT__5
10
4.535000
20
98.420998
30
-7.424000
70
192
0
VERTEX
8
OBJECT__5
10
9.445000
20
93.584999
30
-7.427000
70
192
0
VERTEX
8
OBJECT__5
10
9.303000
20
93.446999
30
-70.941002
70
192
0
VERTEX
8
OBJECT__5
10
7.862000
20
96.936996
30
-70.935997
70
192
0
VERTEX
8
OBJECT__5
10
4.391000
20
98.422997
30
-70.924004
70
192
0
VERTEX
8
OBJECT__5
10
4.391000
20
98.422997
30
70.924004
70
192
0
VERTEX
8
OBJECT__5
10
0
20
0
30
0
70
128
71
1
72
2
73
3
0
VERTEX
8
OBJECT__5
10
0
20
0
30
0
70
128
71
3
72
4
73
1
0
VERTEX
8
OBJECT__5
10
0
20
0
30
0
70
128
71
1
72
4
73
5
0
VERTEX
8
OBJECT__5
10
0
20
0
30
0
70
128
71
4
72
6
73
7
0
VERTEX
8
OBJECT__5
10
0
20
0
30
0
70
128
71
7
72
8
73
4
0
VERTEX
8
OBJECT__5
10
0
20
0
30
0
70
128
71
4
72
8
73
9
0
VERTEX
8
OBJECT__5
10
0
20
0
30
0
70
128
71
10
72
11
73
12
0
VERTEX
8
OBJECT__5
10
0
20
0
30
0
70
128
71
12
72
13
73
9
0
VERTEX
8
OBJECT__5
10
0
20
0
30
0
70
128
71
9
72
8
73
12
0
VERTEX
8
OBJECT__5
10
0
20
0
30
0
70
128
71
12
72
8
73
10
0
VERTEX
8
OBJECT__5
10
0
20
0
30
0
70
128
71
9
72
5
73
4
0
VERTEX
8
OBJECT__5
10
0
20
0
30
0
70
128
71
7
72
10
73
8
0
VERTEX
8
OBJECT__5
10
0
20
0
30
0
70
128
71
5
72
14
73
1
0
VERTEX
8
OBJECT__5
10
0
20
0
30
0
70
128
71
3
72
6
73
4
0
SEQEND
8
OBJECT__5
0
POLYLINE
8
OBJECT__6
66
1
70
64
71
19
72
21
62
253
0
VERTEX
8
OBJECT__6
10
4.413000
20
-93.740997
30
77.528999
70
192
0
VERTEX
8
OBJECT__6
10
7.867000
20
-93.251999
30
76.116997
70
192
0
VERTEX
8
OBJECT__6
10
7.861000
20
-91.434998
30
76.436996
70
192
0
VERTEX
8
OBJECT__6
10
9.301000
20
-92.102997
30
72.832001
70
192
0
VERTEX
8
OBJECT__6
10
9.303000
20
-91.440002
30
72.946999
70
192
0
VERTEX
8
OBJECT__6
10
4.423000
20
-95.795998
30
76.389000
70
192
0
VERTEX
8
OBJECT__6
10
7.871000
20
-94.862000
30
75.219002
70
192
0
VERTEX
8
OBJECT__6
10
9.301000
20
-92.691002
30
72.504997
70
192
0
VERTEX
8
OBJECT__6
10
7.870000
20
-96.087997
30
73.844002
70
192
0
VERTEX
8
OBJECT__6
10
4.423000
20
-96.307999
30
75.815002
70
192
0
VERTEX
8
OBJECT__6
10
9.301000
20
-93.139000
30
72.001999
70
192
0
VERTEX
8
OBJECT__6
10
4.421000
20
-97.359001
30
74.634003
70
192
0
VERTEX
8
OBJECT__6
10
4.406000
20
-98.251999
30
72.461998
70
192
0
VERTEX
8
OBJECT__6
10
7.866000
20
-96.794998
30
72.141998
70
192
0
VERTEX
8
OBJECT__6
10
9.302000
20
-93.396004
30
71.379997
70
192
0
VERTEX
8
OBJECT__6
10
4.391000
20
-98.422997
30
70.924004
70
192
0
VERTEX
8
OBJECT__6
10
7.862000
20
-96.936996
30
70.935997
70
192
0
VERTEX
8
OBJECT__6
10
9.303000
20
-93.446999
30
70.941002
70
192
0
VERTEX
8
OBJECT__6
10
4.390000
20
-91.424004
30
77.922997
70
192
0
VERTEX
8
OBJECT__6
10
0
20
0
30
0
70
128
71
1
72
2
73
3
0
VERTEX
8
OBJECT__6
10
0
20
0
30
0
70
128
71
2
72
4
73
5
0
VERTEX
8
OBJECT__6
10
0
20
0
30
0
70
128
71
6
72
7
73
2
0
VERTEX
8
OBJECT__6
10
0
20
0
30
0
70
128
71
7
72
8
73
4
0
VERTEX
8
OBJECT__6
10
0
20
0
30
0
70
128
71
9
72
7
73
10
0
VERTEX
8
OBJECT__6
10
0
20
0
30
0
70
128
71
7
72
6
73
10
0
VERTEX
8
OBJECT__6
10
0
20
0
30
0
70
128
71
7
72
9
73
11
0
VERTEX
8
OBJECT__6
10
0
20
0
30
0
70
128
71
12
72
13
73
14
0
VERTEX
8
OBJECT__6
10
0
20
0
30
0
70
128
71
9
72
14
73
15
0
VERTEX
8
OBJECT__6
10
0
20
0
30
0
70
128
71
13
72
16
73
17
0
VERTEX
8
OBJECT__6
10
0
20
0
30
0
70
128
71
14
72
17
73
18
0
VERTEX
8
OBJECT__6
10
0
20
0
30
0
70
128
71
18
72
15
73
14
0
VERTEX
8
OBJECT__6
10
0
20
0
30
0
70
128
71
17
72
14
73
13
0
VERTEX
8
OBJECT__6
10
0
20
0
30
0
70
128
71
15
72
11
73
9
0
VERTEX
8
OBJECT__6
10
0
20
0
30
0
70
128
71
14
72
9
73
12
0
VERTEX
8
OBJECT__6
10
0
20
0
30
0
70
128
71
11
72
8
73
7
0
VERTEX
8
OBJECT__6
10
0
20
0
30
0
70
128
71
10
72
12
73
9
0
VERTEX
8
OBJECT__6
10
0
20
0
30
0
70
128
71
4
72
2
73
7
0
VERTEX
8
OBJECT__6
10
0
20
0
30
0
70
128
71
2
72
1
73
6
0
VERTEX
8
OBJECT__6
10
0
20
0
30
0
70
128
71
5
72
3
73
2
0
VERTEX
8
OBJECT__6
10
0
20
0
30
0
70
128
71
3
72
19
73
1
0
SEQEND
8
OBJECT__6
0
POLYLINE
8
OBJECT__7
66
1
70
64
71
19
72
21
62
253
0
VERTEX
8
OBJECT__7
10
4.413000
20
93.740997
30
-77.528999
70
192
0
VERTEX
8
OBJECT__7
10
7.867000
20
93.251999
30
-76.116997
70
192
0
VERTEX
8
OBJECT__7
10
7.861000
20
91.434998
30
-76.436996
70
192
0
VERTEX
8
OBJECT__7
10
9.301000
20
92.102997
30
-72.832001
70
192
0
VERTEX
8
OBJECT__7
10
9.303000
20
91.440002
30
-72.946999
70
192
0
VERTEX
8
OBJECT__7
10
4.423000
20
95.795998
30
-76.389000
70
192
0
VERTEX
8
OBJECT__7
10
7.871000
20
94.862000
30
-75.219002
70
192
0
VERTEX
8
OBJECT__7
10
9.301000
20
92.691002
30
-72.504997
70
192
0
VERTEX
8
OBJECT__7
10
7.870000
20
96.087997
30
-73.844002
70
192
0
VERTEX
8
OBJECT__7
10
4.423000
20
96.307999
30
-75.815002
70
192
0
VERTEX
8
OBJECT__7
10
9.301000
20
93.139000
30
-72.001999
70
192
0
VERTEX
8
OBJECT__7
10
4.421000
20
97.359001
30
-74.634003
70
192
0
VERTEX
8
OBJECT__7
10
4.406000
20
98.251999
30
-72.461998
70
192
0
VERTEX
8
OBJECT__7
10
7.866000
20
96.794998
30
-72.141998
70
192
0
VERTEX
8
OBJECT__7
10
9.302000
20
93.396004
30
-71.379997
70
192
0
VERTEX
8
OBJECT__7
10
4.391000
20
98.422997
30
-70.924004
70
192
0
VERTEX
8
OBJECT__7
10
7.862000
20
96.936996
30
-70.935997
70
192
0
VERTEX
8
OBJECT__7
10
9.303000
20
93.446999
30
-70.941002
70
192
0
VERTEX
8
OBJECT__7
10
4.390000
20
91.424004
30
-77.922997
70
192
0
VERTEX
8
OBJECT__7
10
0
20
0
30
0
70
128
71
1
72
2
73
3
0
VERTEX
8
OBJECT__7
10
0
20
0
30
0
70
128
71
2
72
4
73
5
0
VERTEX
8
OBJECT__7
10
0
20
0
30
0
70
128
71
6
72
7
73
2
0
VERTEX
8
OBJECT__7
10
0
20
0
30
0
70
128
71
7
72
8
73
4
0
VERTEX
8
OBJECT__7
10
0
20
0
30
0
70
128
71
9
72
7
73
10
0
VERTEX
8
OBJECT__7
10
0
20
0
30
0
70
128
71
7
72
6
73
10
0
VERTEX
8
OBJECT__7
10
0
20
0
30
0
70
128
71
7
72
9
73
11
0
VERTEX
8
OBJECT__7
10
0
20
0
30
0
70
128
71
12
72
13
73
14
0
VERTEX
8
OBJECT__7
10
0
20
0
30
0
70
128
71
9
72
14
73
15
0
VERTEX
8
OBJECT__7
10
0
20
0
30
0
70
128
71
13
72
16
73
17
0
VERTEX
8
OBJECT__7
10
0
20
0
30
0
70
128
71
14
72
17
73
18
0
VERTEX
8
OBJECT__7
10
0
20
0
30
0
70
128
71
18
72
15
73
14
0
VERTEX
8
OBJECT__7
10
0
20
0
30
0
70
128
71
17
72
14
73
13
0
VERTEX
8
OBJECT__7
10
0
20
0
30
0
70
128
71
15
72
11
73
9
0
VERTEX
8
OBJECT__7
10
0
20
0
30
0
70
128
71
14
72
9
73
12
0
VERTEX
8
OBJECT__7
10
0
20
0
30
0
70
128
71
11
72
8
73
7
0
VERTEX
8
OBJECT__7
10
0
20
0
30
0
70
128
71
10
72
12
73
9
0
VERTEX
8
OBJECT__7
10
0
20
0
30
0
70
128
71
4
72
2
73
7
0
VERTEX
8
OBJECT__7
10
0
20
0
30
0
70
128
71
2
72
1
73
6
0
VERTEX
8
OBJECT__7
10
0
20
0
30
0
70
128
71
5
72
3
73
2
0
VERTEX
8
OBJECT__7
10
0
20
0
30
0
70
128
71
3
72
19
73
1
0
SEQEND
8
OBJECT__7
0
POLYLINE
8
OBJECT__8
66
1
70
64
71
14
72
14
62
253
0
VERTEX
8
OBJECT__8
10
7.862000
20
-96.936996
30
70.935997
70
192
0
VERTEX
8
OBJECT__8
10
4.391000
20
-98.422997
30
70.924004
70
192
0
VERTEX
8
OBJECT__8
10
4.501000
20
-98.420998
30
31.750000
70
192
0
VERTEX
8
OBJECT__8
10
7.934000
20
-96.973000
30
31.757000
70
192
0
VERTEX
8
OBJECT__8
10
9.412000
20
-93.552002
30
31.761000
70
192
0
VERTEX
8
OBJECT__8
10
4.535000
20
-98.420998
30
-7.424000
70
192
0
VERTEX
8
OBJECT__8
10
7.956000
20
-96.984001
30
-7.426000
70
192
0
VERTEX
8
OBJECT__8
10
9.439000
20
-93.579002
30
0.000000
70
192
0
VERTEX
8
OBJECT__8
10
9.445000
20
-93.584999
30
-7.427000
70
192
0
VERTEX
8
OBJECT__8
10
7.862000
20
-96.936996
30
-70.935997
70
192
0
VERTEX
8
OBJECT__8
10
9.303000
20
-93.446999
30
-70.941002
70
192
0
VERTEX
8
OBJECT__8
10
9.379000
20
-93.521004
30
-36.986000
70
192
0
VERTEX
8
OBJECT__8
10
4.391000
20
-98.422997
30
-70.924004
70
192
0
VERTEX
8
OBJECT__8
10
9.303000
20
-93.446999
30
70.941002
70
192
0
VERTEX
8
OBJECT__8
10
0
20
0
30
0
70
128
71
1
72
2
73
3
0
VERTEX
8
OBJECT__8
10
0
20
0
30
0
70
128
71
1
72
4
73
5
0
VERTEX
8
OBJECT__8
10
0
20
0
30
0
70
128
71
4
72
3
73
6
0
VERTEX
8
OBJECT__8
10
0
20
0
30
0
70
128
71
4
72
7
73
8
0
VERTEX
8
OBJECT__8
10
0
20
0
30
0
70
128
71
7
72
9
73
8
0
VERTEX
8
OBJECT__8
10
0
20
0
30
0
70
128
71
10
72
7
73
6
0
VERTEX
8
OBJECT__8
10
0
20
0
30
0
70
128
71
10
72
11
73
12
0
VERTEX
8
OBJECT__8
10
0
20
0
30
0
70
128
71
12
72
7
73
10
0
VERTEX
8
OBJECT__8
10
0
20
0
30
0
70
128
71
12
72
9
73
7
0
VERTEX
8
OBJECT__8
10
0
20
0
30
0
70
128
71
6
72
13
73
10
0
VERTEX
8
OBJECT__8
10
0
20
0
30
0
70
128
71
8
72
5
73
4
0
VERTEX
8
OBJECT__8
10
0
20
0
30
0
70
128
71
6
72
7
73
4
0
VERTEX
8
OBJECT__8
10
0
20
0
30
0
70
128
71
5
72
14
73
1
0
VERTEX
8
OBJECT__8
10
0
20
0
30
0
70
128
71
3
72
4
73
1
0
SEQEND
8
OBJECT__8
0
POLYLINE
8
OBJECT__9
66
1
70
64
71
15
72
15
62
253
0
VERTEX
8
OBJECT__9
10
7.951000
20
-13.077000
30
-76.483002
70
192
0
VERTEX
8
OBJECT__9
10
7.861000
20
-91.434998
30
-76.436996
70
192
0
VERTEX
8
OBJECT__9
10
4.390000
20
-91.424004
30
-77.922997
70
192
0
VERTEX
8
OBJECT__9
10
9.380000
20
-47.356998
30
-73.024002
70
192
0
VERTEX
8
OBJECT__9
10
9.440000
20
-13.078000
30
-73.083000
70
192
0
VERTEX
8
OBJECT__9
10
4.529000
20
-13.076000
30
-77.920998
70
192
0
VERTEX
8
OBJECT__9
10
4.507000
20
39.174000
30
-77.920998
70
192
0
VERTEX
8
OBJECT__9
10
7.937000
20
39.179001
30
-76.475998
70
192
0
VERTEX
8
OBJECT__9
10
9.417000
20
39.181000
30
-73.060997
70
192
0
VERTEX
8
OBJECT__9
10
9.434000
20
0.000000
30
-73.078003
70
192
0
VERTEX
8
OBJECT__9
10
4.390000
20
91.424004
30
-77.922997
70
192
0
VERTEX
8
OBJECT__9
10
7.861000
20
91.434998
30
-76.436996
70
192
0
VERTEX
8
OBJECT__9
10
9.303000
20
91.440002
30
-72.946999
70
192
0
VERTEX
8
OBJECT__9
10
9.399000
20
47.356998
30
-73.042999
70
192
0
VERTEX
8
OBJECT__9
10
9.303000
20
-91.440002
30
-72.946999
70
192
0
VERTEX
8
OBJECT__9
10
0
20
0
30
0
70
128
71
1
72
2
73
3
0
VERTEX
8
OBJECT__9
10
0
20
0
30
0
70
128
71
2
72
1
73
4
0
VERTEX
8
OBJECT__9
10
0
20
0
30
0
70
128
71
1
72
5
73
4
0
VERTEX
8
OBJECT__9
10
0
20
0
30
0
70
128
71
1
72
6
73
7
0
VERTEX
8
OBJECT__9
10
0
20
0
30
0
70
128
71
8
72
9
73
10
0
VERTEX
8
OBJECT__9
10
0
20
0
30
0
70
128
71
10
72
1
73
8
0
VERTEX
8
OBJECT__9
10
0
20
0
30
0
70
128
71
8
72
7
73
11
0
VERTEX
8
OBJECT__9
10
0
20
0
30
0
70
128
71
12
72
13
73
14
0
VERTEX
8
OBJECT__9
10
0
20
0
30
0
70
128
71
14
72
8
73
12
0
VERTEX
8
OBJECT__9
10
0
20
0
30
0
70
128
71
14
72
9
73
8
0
VERTEX
8
OBJECT__9
10
0
20
0
30
0
70
128
71
11
72
12
73
8
0
VERTEX
8
OBJECT__9
10
0
20
0
30
0
70
128
71
10
72
5
73
1
0
VERTEX
8
OBJECT__9
10
0
20
0
30
0
70
128
71
7
72
8
73
1
0
VERTEX
8
OBJECT__9
10
0
20
0
30
0
70
128
71
4
72
15
73
2
0
VERTEX
8
OBJECT__9
10
0
20
0
30
0
70
128
71
3
72
6
73
1
0
SEQEND
8
OBJECT__9
0
POLYLINE
8
OBJECT__10
66
1
70
64
71
19
72
21
62
253
0
VERTEX
8
OBJECT__10
10
4.413000
20
-98.028999
30
-73.240997
70
192
0
VERTEX
8
OBJECT__10
10
7.868000
20
-96.616997
30
-72.751999
70
192
0
VERTEX
8
OBJECT__10
10
7.862000
20
-96.936996
30
-70.935997
70
192
0
VERTEX
8
OBJECT__10
10
9.302000
20
-93.332001
30
-71.602997
70
192
0
VERTEX
8
OBJECT__10
10
9.303000
20
-93.446999
30
-70.941002
70
192
0
VERTEX
8
OBJECT__10
10
4.424000
20
-96.889000
30
-75.295998
70
192
0
VERTEX
8
OBJECT__10
10
7.871000
20
-95.719002
30
-74.362000
70
192
0
VERTEX
8
OBJECT__10
10
9.301000
20
-93.003998
30
-72.192001
70
192
0
VERTEX
8
OBJECT__10
10
7.870000
20
-94.343002
30
-75.587997
70
192
0
VERTEX
8
OBJECT__10
10
4.423000
20
-96.315002
30
-75.807999
70
192
0
VERTEX
8
OBJECT__10
10
9.301000
20
-92.500999
30
-72.639999
70
192
0
VERTEX
8
OBJECT__10
10
4.421000
20
-95.134003
30
-76.859001
70
192
0
VERTEX
8
OBJECT__10
10
4.406000
20
-92.961998
30
-77.751999
70
192
0
VERTEX
8
OBJECT__10
10
7.866000
20
-92.640999
30
-76.294998
70
192
0
VERTEX
8
OBJECT__10
10
9.302000
20
-91.879997
30
-72.897003
70
192
0
VERTEX
8
OBJECT__10
10
4.390000
20
-91.424004
30
-77.922997
70
192
0
VERTEX
8
OBJECT__10
10
7.861000
20
-91.434998
30
-76.436996
70
192
0
VERTEX
8
OBJECT__10
10
9.303000
20
-91.440002
30
-72.946999
70
192
0
VERTEX
8
OBJECT__10
10
4.391000
20
-98.422997
30
-70.924004
70
192
0
VERTEX
8
OBJECT__10
10
0
20
0
30
0
70
128
71
1
72
2
73
3
0
VERTEX
8
OBJECT__10
10
0
20
0
30
0
70
128
71
2
72
4
73
5
0
VERTEX
8
OBJECT__10
10
0
20
0
30
0
70
128
71
6
72
7
73
2
0
VERTEX
8
OBJECT__10
10
0
20
0
30
0
70
128
71
7
72
8
73
4
0
VERTEX
8
OBJECT__10
10
0
20
0
30
0
70
128
71
9
72
7
73
10
0
VERTEX
8
OBJECT__10
10
0
20
0
30
0
70
128
71
7
72
6
73
10
0
VERTEX
8
OBJECT__10
10
0
20
0
30
0
70
128
71
7
72
9
73
11
0
VERTEX
8
OBJECT__10
10
0
20
0
30
0
70
128
71
12
72
13
73
14
0
VERTEX
8
OBJECT__10
10
0
20
0
30
0
70
128
71
9
72
14
73
15
0
VERTEX
8
OBJECT__10
10
0
20
0
30
0
70
128
71
13
72
16
73
17
0
VERTEX
8
OBJECT__10
10
0
20
0
30
0
70
128
71
14
72
17
73
18
0
VERTEX
8
OBJECT__10
10
0
20
0
30
0
70
128
71
18
72
15
73
14
0
VERTEX
8
OBJECT__10
10
0
20
0
30
0
70
128
71
17
72
14
73
13
0
VERTEX
8
OBJECT__10
10
0
20
0
30
0
70
128
71
15
72
11
73
9
0
VERTEX
8
OBJECT__10
10
0
20
0
30
0
70
128
71
14
72
9
73
12
0
VERTEX
8
OBJECT__10
10
0
20
0
30
0
70
128
71
11
72
8
73
7
0
VERTEX
8
OBJECT__10
10
0
20
0
30
0
70
128
71
10
72
12
73
9
0
VERTEX
8
OBJECT__10
10
0
20
0
30
0
70
128
71
4
72
2
73
7
0
VERTEX
8
OBJECT__10
10
0
20
0
30
0
70
128
71
2
72
1
73
6
0
VERTEX
8
OBJECT__10
10
0
20
0
30
0
70
128
71
5
72
3
73
2
0
VERTEX
8
OBJECT__10
10
0
20
0
30
0
70
128
71
3
72
19
73
1
0
SEQEND
8
OBJECT__10
0
POLYLINE
8
OBJECT__11
66
1
70
64
71
12
72
10
62
253
0
VERTEX
8
OBJECT__11
10
4.413000
20
-93.740997
30
77.528999
70
192
0
VERTEX
8
OBJECT__11
10
4.390000
20
-91.424004
30
77.922997
70
192
0
VERTEX
8
OBJECT__11
10
2.195000
20
-91.462997
30
77.961998
70
192
0
VERTEX
8
OBJECT__11
10
0.000000
20
-96.114998
30
76.264000
70
192
0
VERTEX
8
OBJECT__11
10
4.423000
20
-95.795998
30
76.389000
70
192
0
VERTEX
8
OBJECT__11
10
0.000000
20
-91.500999
30
78.000000
70
192
0
VERTEX
8
OBJECT__11
10
4.423000
20
-96.307999
30
75.815002
70
192
0
VERTEX
8
OBJECT__11
10
0.000000
20
-96.290001
30
75.877998
70
192
0
VERTEX
8
OBJECT__11
10
0.000000
20
-98.500000
30
71.000999
70
192
0
VERTEX
8
OBJECT__11
10
4.406000
20
-98.251999
30
72.461998
70
192
0
VERTEX
8
OBJECT__11
10
4.391000
20
-98.422997
30
70.924004
70
192
0
VERTEX
8
OBJECT__11
10
4.421000
20
-97.359001
30
74.634003
70
192
0
VERTEX
8
OBJECT__11
10
0
20
0
30
0
70
128
71
1
72
2
73
3
0
VERTEX
8
OBJECT__11
10
0
20
0
30
0
70
128
71
4
72
5
73
1
0
VERTEX
8
OBJECT__11
10
0
20
0
30
0
70
128
71
1
72
6
73
4
0
VERTEX
8
OBJECT__11
10
0
20
0
30
0
70
128
71
7
72
5
73
4
0
VERTEX
8
OBJECT__11
10
0
20
0
30
0
70
128
71
4
72
8
73
7
0
VERTEX
8
OBJECT__11
10
0
20
0
30
0
70
128
71
8
72
9
73
10
0
VERTEX
8
OBJECT__11
10
0
20
0
30
0
70
128
71
9
72
11
73
10
0
VERTEX
8
OBJECT__11
10
0
20
0
30
0
70
128
71
10
72
12
73
8
0
VERTEX
8
OBJECT__11
10
0
20
0
30
0
70
128
71
12
72
7
73
8
0
VERTEX
8
OBJECT__11
10
0
20
0
30
0
70
128
71
3
72
6
73
1
0
SEQEND
8
OBJECT__11
0
POLYLINE
8
OBJECT__12
66
1
70
64
71
16
72
14
62
253
0
VERTEX
8
OBJECT__12
10
0.000000
20
98.500000
30
-71.000999
70
192
0
VERTEX
8
OBJECT__12
10
0.000000
20
-91.500999
30
78.000000
70
192
0
VERTEX
8
OBJECT__12
10
0.000000
20
91.500999
30
78.000000
70
192
0
VERTEX
8
OBJECT__12
10
0.000000
20
-96.290001
30
75.877998
70
192
0
VERTEX
8
OBJECT__12
10
0.000000
20
-96.114998
30
76.264000
70
192
0
VERTEX
8
OBJECT__12
10
0.000000
20
-98.500000
30
71.000999
70
192
0
VERTEX
8
OBJECT__12
10
0.000000
20
91.500999
30
-78.000000
70
192
0
VERTEX
8
OBJECT__12
10
0.000000
20
-91.500999
30
-78.000000
70
192
0
VERTEX
8
OBJECT__12
10
0.000000
20
96.290001
30
-75.877998
70
192
0
VERTEX
8
OBJECT__12
10
0.000000
20
96.114998
30
-76.264000
70
192
0
VERTEX
8
OBJECT__12
10
0.000000
20
96.377998
30
75.790001
70
192
0
VERTEX
8
OBJECT__12
10
0.000000
20
96.764000
30
75.614998
70
192
0
VERTEX
8
OBJECT__12
10
0.000000
20
98.500000
30
71.000999
70
192
0
VERTEX
8
OBJECT__12
10
0.000000
20
-96.377998
30
-75.790001
70
192
0
VERTEX
8
OBJECT__12
10
0.000000
20
-96.764000
30
-75.614998
70
192
0
VERTEX
8
OBJECT__12
10
0.000000
20
-98.500000
30
-71.000999
70
192
0
VERTEX
8
OBJECT__12
10
0
20
0
30
0
70
128
71
1
72
2
73
3
0
VERTEX
8
OBJECT__12
10
0
20
0
30
0
70
128
71
1
72
4
73
5
0
VERTEX
8
OBJECT__12
10
0
20
0
30
0
70
128
71
6
72
7
73
8
0
VERTEX
8
OBJECT__12
10
0
20
0
30
0
70
128
71
6
72
9
73
10
0
VERTEX
8
OBJECT__12
10
0
20
0
30
0
70
128
71
11
72
12
73
13
0
VERTEX
8
OBJECT__12
10
0
20
0
30
0
70
128
71
5
72
2
73
1
0
VERTEX
8
OBJECT__12
10
0
20
0
30
0
70
128
71
14
72
15
73
16
0
VERTEX
8
OBJECT__12
10
0
20
0
30
0
70
128
71
10
72
7
73
6
0
VERTEX
8
OBJECT__12
10
0
20
0
30
0
70
128
71
3
72
11
73
1
0
VERTEX
8
OBJECT__12
10
0
20
0
30
0
70
128
71
1
72
9
73
6
0
VERTEX
8
OBJECT__12
10
0
20
0
30
0
70
128
71
8
72
14
73
6
0
VERTEX
8
OBJECT__12
10
0
20
0
30
0
70
128
71
6
72
4
73
1
0
VERTEX
8
OBJECT__12
10
0
20
0
30
0
70
128
71
13
72
1
73
11
0
VERTEX
8
OBJECT__12
10
0
20
0
30
0
70
128
71
16
72
6
73
14
0
SEQEND
8
OBJECT__12
0
POLYLINE
8
OBJECT__13
66
1
70
64
71
11
72
9
62
253
0
VERTEX
8
OBJECT__13
10
0.000000
20
96.764000
30
75.614998
70
192
0
VERTEX
8
OBJECT__13
10
4.424000
20
96.889000
30
75.295998
70
192
0
VERTEX
8
OBJECT__13
10
4.413000
20
98.028999
30
73.240997
70
192
0
VERTEX
8
OBJECT__13
10
4.423000
20
96.315002
30
75.807999
70
192
0
VERTEX
8
OBJECT__13
10
0.000000
20
96.377998
30
75.790001
70
192
0
VERTEX
8
OBJECT__13
10
0.000000
20
98.500000
30
71.000999
70
192
0
VERTEX
8
OBJECT__13
10
0.000000
20
91.500999
30
78.000000
70
192
0
VERTEX
8
OBJECT__13
10
4.406000
20
92.961998
30
77.751999
70
192
0
VERTEX
8
OBJECT__13
10
4.390000
20
91.424004
30
77.922997
70
192
0
VERTEX
8
OBJECT__13
10
4.421000
20
95.134003
30
76.859001
70
192
0
VERTEX
8
OBJECT__13
10
4.391000
20
98.422997
30
70.924004
70
192
0
VERTEX
8
OBJECT__13
10
0
20
0
30
0
70
128
71
1
72
2
73
3
0
VERTEX
8
OBJECT__13
10
0
20
0
30
0
70
128
71
4
72
2
73
1
0
VERTEX
8
OBJECT__13
10
0
20
0
30
0
70
128
71
1
72
5
73
4
0
VERTEX
8
OBJECT__13
10
0
20
0
30
0
70
128
71
3
72
6
73
1
0
VERTEX
8
OBJECT__13
10
0
20
0
30
0
70
128
71
5
72
7
73
8
0
VERTEX
8
OBJECT__13
10
0
20
0
30
0
70
128
71
7
72
9
73
8
0
VERTEX
8
OBJECT__13
10
0
20
0
30
0
70
128
71
8
72
10
73
5
0
VERTEX
8
OBJECT__13
10
0
20
0
30
0
70
128
71
10
72
4
73
5
0
VERTEX
8
OBJECT__13
10
0
20
0
30
0
70
128
71
3
72
11
73
6
0
SEQEND
8
OBJECT__13
0
POLYLINE
8
OBJECT__14
66
1
70
64
71
11
72
9
62
253
0
VERTEX
8
OBJECT__14
10
0.000000
20
96.114998
30
-76.264000
70
192
0
VERTEX
8
OBJECT__14
10
4.423000
20
95.795998
30
-76.389000
70
192
0
VERTEX
8
OBJECT__14
10
4.413000
20
93.740997
30
-77.528999
70
192
0
VERTEX
8
OBJECT__14
10
4.423000
20
96.307999
30
-75.815002
70
192
0
VERTEX
8
OBJECT__14
10
0.000000
20
96.290001
30
-75.877998
70
192
0
VERTEX
8
OBJECT__14
10
0.000000
20
91.500999
30
-78.000000
70
192
0
VERTEX
8
OBJECT__14
10
0.000000
20
98.500000
30
-71.000999
70
192
0
VERTEX
8
OBJECT__14
10
4.406000
20
98.251999
30
-72.461998
70
192
0
VERTEX
8
OBJECT__14
10
4.391000
20
98.422997
30
-70.924004
70
192
0
VERTEX
8
OBJECT__14
10
4.421000
20
97.359001
30
-74.634003
70
192
0
VERTEX
8
OBJECT__14
10
4.390000
20
91.424004
30
-77.922997
70
192
0
VERTEX
8
OBJECT__14
10
0
20
0
30
0
70
128
71
1
72
2
73
3
0
VERTEX
8
OBJECT__14
10
0
20
0
30
0
70
128
71
4
72
2
73
1
0
VERTEX
8
OBJECT__14
10
0
20
0
30
0
70
128
71
1
72
5
73
4
0
VERTEX
8
OBJECT__14
10
0
20
0
30
0
70
128
71
3
72
6
73
1
0
VERTEX
8
OBJECT__14
10
0
20
0
30
0
70
128
71
5
72
7
73
8
0
VERTEX
8
OBJECT__14
10
0
20
0
30
0
70
128
71
7
72
9
73
8
0
VERTEX
8
OBJECT__14
10
0
20
0
30
0
70
128
71
8
72
10
73
5
0
VERTEX
8
OBJECT__14
10
0
20
0
30
0
70
128
71
10
72
4
73
5
0
VERTEX
8
OBJECT__14
10
0
20
0
30
0
70
128
71
3
72
11
73
6
0
SEQEND
8
OBJECT__14
0
POLYLINE
8
OBJECT__15
66
1
70
64
71
11
72
9
62
253
0
VERTEX
8
OBJECT__15
10
0.000000
20
-96.764000
30
-75.614998
70
192
0
VERTEX
8
OBJECT__15
10
4.424000
20
-96.889000
30
-75.295998
70
192
0
VERTEX
8
OBJECT__15
10
4.413000
20
-98.028999
30
-73.240997
70
192
0
VERTEX
8
OBJECT__15
10
4.423000
20
-96.315002
30
-75.807999
70
192
0
VERTEX
8
OBJECT__15
10
0.000000
20
-96.377998
30
-75.790001
70
192
0
VERTEX
8
OBJECT__15
10
0.000000
20
-98.500000
30
-71.000999
70
192
0
VERTEX
8
OBJECT__15
10
0.000000
20
-91.500999
30
-78.000000
70
192
0
VERTEX
8
OBJECT__15
10
4.406000
20
-92.961998
30
-77.751999
70
192
0
VERTEX
8
OBJECT__15
10
4.390000
20
-91.424004
30
-77.922997
70
192
0
VERTEX
8
OBJECT__15
10
4.421000
20
-95.134003
30
-76.859001
70
192
0
VERTEX
8
OBJECT__15
10
4.391000
20
-98.422997
30
-70.924004
70
192
0
VERTEX
8
OBJECT__15
10
0
20
0
30
0
70
128
71
1
72
2
73
3
0
VERTEX
8
OBJECT__15
10
0
20
0
30
0
70
128
71
4
72
2
73
1
0
VERTEX
8
OBJECT__15
10
0
20
0
30
0
70
128
71
1
72
5
73
4
0
VERTEX
8
OBJECT__15
10
0
20
0
30
0
70
128
71
3
72
6
73
1
0
VERTEX
8
OBJECT__15
10
0
20
0
30
0
70
128
71
5
72
7
73
8
0
VERTEX
8
OBJECT__15
10
0
20
0
30
0
70
128
71
7
72
9
73
8
0
VERTEX
8
OBJECT__15
10
0
20
0
30
0
70
128
71
8
72
10
73
5
0
VERTEX
8
OBJECT__15
10
0
20
0
30
0
70
128
71
10
72
4
73
5
0
VERTEX
8
OBJECT__15
10
0
20
0
30
0
70
128
71
3
72
11
73
6
0
SEQEND
8
OBJECT__15
0
POLYLINE
8
OBJECT__16
66
1
70
64
71
7
72
5
62
253
0
VERTEX
8
OBJECT__16
10
2.195000
20
-91.462997
30
77.961998
70
192
0
VERTEX
8
OBJECT__16
10
4.390000
20
-91.424004
30
77.922997
70
192
0
VERTEX
8
OBJECT__16
10
4.529000
20
-13.076000
30
77.920998
70
192
0
VERTEX
8
OBJECT__16
10
0.000000
20
91.500999
30
78.000000
70
192
0
VERTEX
8
OBJECT__16
10
4.507000
20
39.174000
30
77.920998
70
192
0
VERTEX
8
OBJECT__16
10
0.000000
20
-91.500999
30
78.000000
70
192
0
VERTEX
8
OBJECT__16
10
4.390000
20
91.424004
30
77.922997
70
192
0
VERTEX
8
OBJECT__16
10
0
20
0
30
0
70
128
71
1
72
2
73
3
0
VERTEX
8
OBJECT__16
10
0
20
0
30
0
70
128
71
3
72
4
73
1
0
VERTEX
8
OBJECT__16
10
0
20
0
30
0
70
128
71
3
72
5
73
4
0
VERTEX
8
OBJECT__16
10
0
20
0
30
0
70
128
71
4
72
6
73
1
0
VERTEX
8
OBJECT__16
10
0
20
0
30
0
70
128
71
5
72
7
73
4
0
SEQEND
8
OBJECT__16
0
POLYLINE
8
OBJECT__17
66
1
70
64
71
6
72
4
62
253
0
VERTEX
8
OBJECT__17
10
0.000000
20
91.500999
30
-78.000000
70
192
0
VERTEX
8
OBJECT__17
10
4.507000
20
39.174000
30
-77.920998
70
192
0
VERTEX
8
OBJECT__17
10
4.529000
20
-13.076000
30
-77.920998
70
192
0
VERTEX
8
OBJECT__17
10
0.000000
20
-91.500999
30
-78.000000
70
192
0
VERTEX
8
OBJECT__17
10
4.390000
20
91.424004
30
-77.922997
70
192
0
VERTEX
8
OBJECT__17
10
4.390000
20
-91.424004
30
-77.922997
70
192
0
VERTEX
8
OBJECT__17
10
0
20
0
30
0
70
128
71
1
72
2
73
3
0
VERTEX
8
OBJECT__17
10
0
20
0
30
0
70
128
71
3
72
4
73
1
0
VERTEX
8
OBJECT__17
10
0
20
0
30
0
70
128
71
1
72
5
73
2
0
VERTEX
8
OBJECT__17
10
0
20
0
30
0
70
128
71
3
72
6
73
4
0
SEQEND
8
OBJECT__17
0
POLYLINE
8
OBJECT__18
66
1
70
64
71
6
72
4
62
253
0
VERTEX
8
OBJECT__18
10
0.000000
20
98.500000
30
71.000999
70
192
0
VERTEX
8
OBJECT__18
10
4.501000
20
98.420998
30
31.750000
70
192
0
VERTEX
8
OBJECT__18
10
4.535000
20
98.420998
30
-7.424000
70
192
0
VERTEX
8
OBJECT__18
10
0.000000
20
98.500000
30
-71.000999
70
192
0
VERTEX
8
OBJECT__18
10
4.391000
20
98.422997
30
70.924004
70
192
0
VERTEX
8
OBJECT__18
10
4.391000
20
98.422997
30
-70.924004
70
192
0
VERTEX
8
OBJECT__18
10
0
20
0
30
0
70
128
71
1
72
2
73
3
0
VERTEX
8
OBJECT__18
10
0
20
0
30
0
70
128
71
3
72
4
73
1
0
VERTEX
8
OBJECT__18
10
0
20
0
30
0
70
128
71
1
72
5
73
2
0
VERTEX
8
OBJECT__18
10
0
20
0
30
0
70
128
71
3
72
6
73
4
0
SEQEND
8
OBJECT__18
0
POLYLINE
8
OBJECT__19
66
1
70
64
71
6
72
4
62
253
0
VERTEX
8
OBJECT__19
10
0.000000
20
-98.500000
30
71.000999
70
192
0
VERTEX
8
OBJECT__19
10
0.000000
20
-98.500000
30
-71.000999
70
192
0
VERTEX
8
OBJECT__19
10
4.535000
20
-98.420998
30
-7.424000
70
192
0
VERTEX
8
OBJECT__19
10
4.391000
20
-98.422997
30
-70.924004
70
192
0
VERTEX
8
OBJECT__19
10
4.501000
20
-98.420998
30
31.750000
70
192
0
VERTEX
8
OBJECT__19
10
4.391000
20
-98.422997
30
70.924004
70
192
0
VERTEX
8
OBJECT__19
10
0
20
0
30
0
70
128
71
1
72
2
73
3
0
VERTEX
8
OBJECT__19
10
0
20
0
30
0
70
128
71
2
72
4
73
3
0
VERTEX
8
OBJECT__19
10
0
20
0
30
0
70
128
71
3
72
5
73
1
0
VERTEX
8
OBJECT__19
10
0
20
0
30
0
70
128
71
5
72
6
73
1
0
SEQEND
8
OBJECT__19
0
POLYLINE
8
OBJECT__20
66
1
70
64
71
33
72
33
62
253
0
VERTEX
8
OBJECT__20
10
3.000000
20
0.000000
30
43.018002
70
192
0
VERTEX
8
OBJECT__20
10
3.000000
20
-7.899000
30
34.610001
70
192
0
VERTEX
8
OBJECT__20
10
3.000000
20
7.899000
30
34.610001
70
192
0
VERTEX
8
OBJECT__20
10
3.000000
20
22.134001
30
27.754999
70
192
0
VERTEX
8
OBJECT__20
10
3.000000
20
26.422001
30
33.948002
70
192
0
VERTEX
8
OBJECT__20
10
3.000000
20
13.968000
30
40.688000
70
192
0
VERTEX
8
OBJECT__20
10
3.000000
20
-13.968000
30
40.688000
70
192
0
VERTEX
8
OBJECT__20
10
3.000000
20
-22.134001
30
27.754999
70
192
0
VERTEX
8
OBJECT__20
10
3.000000
20
-26.422001
30
33.948002
70
192
0
VERTEX
8
OBJECT__20
10
3.000000
20
-36.014000
30
23.528999
70
192
0
VERTEX
8
OBJECT__20
10
3.000000
20
-41.702000
30
10.560000
70
192
0
VERTEX
8
OBJECT__20
10
3.000000
20
-42.870998
30
-3.552000
70
192
0
VERTEX
8
OBJECT__20
10
3.000000
20
-35.500000
30
0.000000
70
192
0
VERTEX
8
OBJECT__20
10
3.000000
20
41.702000
30
10.560000
70
192
0
VERTEX
8
OBJECT__20
10
3.000000
20
31.983999
30
15.403000
70
192
0
VERTEX
8
OBJECT__20
10
3.000000
20
35.500000
30
0.000000
70
192
0
VERTEX
8
OBJECT__20
10
3.000000
20
-31.983999
30
15.403000
70
192
0
VERTEX
8
OBJECT__20
10
3.000000
20
31.983999
30
-15.403000
70
192
0
VERTEX
8
OBJECT__20
10
3.000000
20
22.134001
30
-27.754999
70
192
0
VERTEX
8
OBJECT__20
10
3.000000
20
31.650000
30
-29.136000
70
192
0
VERTEX
8
OBJECT__20
10
3.000000
20
39.395000
30
-17.280001
70
192
0
VERTEX
8
OBJECT__20
10
3.000000
20
42.870998
30
-3.552000
70
192
0
VERTEX
8
OBJECT__20
10
3.000000
20
36.014000
30
23.528999
70
192
0
VERTEX
8
OBJECT__20
10
3.000000
20
-31.983999
30
-15.403000
70
192
0
VERTEX
8
OBJECT__20
10
3.000000
20
-20.474001
30
-37.834000
70
192
0
VERTEX
8
OBJECT__20
10
3.000000
20
-7.081000
30
-42.431999
70
192
0
VERTEX
8
OBJECT__20
10
3.000000
20
-7.899000
30
-34.610001
70
192
0
VERTEX
8
OBJECT__20
10
3.000000
20
20.474001
30
-37.834000
70
192
0
VERTEX
8
OBJECT__20
10
3.000000
20
7.899000
30
-34.610001
70
192
0
VERTEX
8
OBJECT__20
10
3.000000
20
-39.395000
30
-17.280001
70
192
0
VERTEX
8
OBJECT__20
10
3.000000
20
-31.650000
30
-29.136000
70
192
0
VERTEX
8
OBJECT__20
10
3.000000
20
-22.134001
30
-27.754999
70
192
0
VERTEX
8
OBJECT__20
10
3.000000
20
7.081000
30
-42.431999
70
192
0
VERTEX
8
OBJECT__20
10
0
20
0
30
0
70
128
71
1
72
2
73
3
0
VERTEX
8
OBJECT__20
10
0
20
0
30
0
70
128
71
4
72
5
73
6
0
VERTEX
8
OBJECT__20
10
0
20
0
30
0
70
128
71
3
72
6
73
1
0
VERTEX
8
OBJECT__20
10
0
20
0
30
0
70
128
71
1
72
7
73
2
0
VERTEX
8
OBJECT__20
10
0
20
0
30
0
70
128
71
8
72
2
73
7
0
VERTEX
8
OBJECT__20
10
0
20
0
30
0
70
128
71
7
72
9
73
8
0
VERTEX
8
OBJECT__20
10
0
20
0
30
0
70
128
71
8
72
9
73
10
0
VERTEX
8
OBJECT__20
10
0
20
0
30
0
70
128
71
11
72
12
73
13
0
VERTEX
8
OBJECT__20
10
0
20
0
30
0
70
128
71
14
72
15
73
16
0
VERTEX
8
OBJECT__20
10
0
20
0
30
0
70
128
71
10
72
17
73
8
0
VERTEX
8
OBJECT__20
10
0
20
0
30
0
70
128
71
17
72
10
73
11
0
VERTEX
8
OBJECT__20
10
0
20
0
30
0
70
128
71
18
72
19
73
20
0
VERTEX
8
OBJECT__20
10
0
20
0
30
0
70
128
71
18
72
21
73
22
0
VERTEX
8
OBJECT__20
10
0
20
0
30
0
70
128
71
16
72
22
73
14
0
VERTEX
8
OBJECT__20
10
0
20
0
30
0
70
128
71
4
72
15
73
23
0
VERTEX
8
OBJECT__20
10
0
20
0
30
0
70
128
71
13
72
17
73
11
0
VERTEX
8
OBJECT__20
10
0
20
0
30
0
70
128
71
24
72
13
73
12
0
VERTEX
8
OBJECT__20
10
0
20
0
30
0
70
128
71
25
72
26
73
27
0
VERTEX
8
OBJECT__20
10
0
20
0
30
0
70
128
71
28
72
19
73
29
0
VERTEX
8
OBJECT__20
10
0
20
0
30
0
70
128
71
22
72
16
73
18
0
VERTEX
8
OBJECT__20
10
0
20
0
30
0
70
128
71
23
72
5
73
4
0
VERTEX
8
OBJECT__20
10
0
20
0
30
0
70
128
71
12
72
30
73
24
0
VERTEX
8
OBJECT__20
10
0
20
0
30
0
70
128
71
24
72
30
73
31
0
VERTEX
8
OBJECT__20
10
0
20
0
30
0
70
128
71
32
72
31
73
25
0
VERTEX
8
OBJECT__20
10
0
20
0
30
0
70
128
71
27
72
26
73
33
0
VERTEX
8
OBJECT__20
10
0
20
0
30
0
70
128
71
29
72
33
73
28
0
VERTEX
8
OBJECT__20
10
0
20
0
30
0
70
128
71
14
72
23
73
15
0
VERTEX
8
OBJECT__20
10
0
20
0
30
0
70
128
71
31
72
32
73
24
0
VERTEX
8
OBJECT__20
10
0
20
0
30
0
70
128
71
33
72
29
73
27
0
VERTEX
8
OBJECT__20
10
0
20
0
30
0
70
128
71
20
72
21
73
18
0
VERTEX
8
OBJECT__20
10
0
20
0
30
0
70
128
71
27
72
32
73
25
0
VERTEX
8
OBJECT__20
10
0
20
0
30
0
70
128
71
6
72
3
73
4
0
VERTEX
8
OBJECT__20
10
0
20
0
30
0
70
128
71
28
72
20
73
19
0
SEQEND
8
OBJECT__20
0
POLYLINE
8
OBJECT__21
66
1
70
64
71
46
72
46
62
253
0
VERTEX
8
OBJECT__21
10
3.000000
20
-35.500000
30
0.000000
70
192
0
VERTEX
8
OBJECT__21
10
6.875000
20
-35.365002
30
0.000000
70
192
0
VERTEX
8
OBJECT__21
10
6.875000
20
-33.633999
30
10.928000
70
192
0
VERTEX
8
OBJECT__21
10
3.000000
20
-31.983999
30
15.403000
70
192
0
VERTEX
8
OBJECT__21
10
3.000000
20
-22.134001
30
27.754999
70
192
0
VERTEX
8
OBJECT__21
10
6.875000
20
-28.611000
30
20.787001
70
192
0
VERTEX
8
OBJECT__21
10
6.875000
20
-31.482000
30
15.151000
70
192
0
VERTEX
8
OBJECT__21
10
6.875000
20
-20.787001
30
28.611000
70
192
0
VERTEX
8
OBJECT__21
10
6.875000
20
-10.928000
30
33.633999
70
192
0
VERTEX
8
OBJECT__21
10
3.000000
20
-7.899000
30
34.610001
70
192
0
VERTEX
8
OBJECT__21
10
6.875000
20
-21.899000
30
27.499001
70
192
0
VERTEX
8
OBJECT__21
10
3.000000
20
7.899000
30
34.610001
70
192
0
VERTEX
8
OBJECT__21
10
6.875000
20
0.000000
30
35.365002
70
192
0
VERTEX
8
OBJECT__21
10
6.875000
20
-7.814000
30
34.126999
70
192
0
VERTEX
8
OBJECT__21
10
3.000000
20
22.134001
30
27.754999
70
192
0
VERTEX
8
OBJECT__21
10
6.875000
20
10.928000
30
33.633999
70
192
0
VERTEX
8
OBJECT__21
10
6.875000
20
7.814000
30
34.126999
70
192
0
VERTEX
8
OBJECT__21
10
6.875000
20
20.787001
30
28.611000
70
192
0
VERTEX
8
OBJECT__21
10
6.875000
20
21.899000
30
27.499001
70
192
0
VERTEX
8
OBJECT__21
10
6.875000
20
28.611000
30
20.787001
70
192
0
VERTEX
8
OBJECT__21
10
3.000000
20
31.983999
30
15.403000
70
192
0
VERTEX
8
OBJECT__21
10
3.000000
20
35.500000
30
0.000000
70
192
0
VERTEX
8
OBJECT__21
10
6.875000
20
33.633999
30
10.928000
70
192
0
VERTEX
8
OBJECT__21
10
6.875000
20
31.482000
30
15.151000
70
192
0
VERTEX
8
OBJECT__21
10
6.875000
20
35.365002
30
0.000000
70
192
0
VERTEX
8
OBJECT__21
10
6.875000
20
33.633999
30
-10.928000
70
192
0
VERTEX
8
OBJECT__21
10
3.000000
20
31.983999
30
-15.403000
70
192
0
VERTEX
8
OBJECT__21
10
3.000000
20
22.134001
30
-27.754999
70
192
0
VERTEX
8
OBJECT__21
10
6.875000
20
28.611000
30
-20.787001
70
192
0
VERTEX
8
OBJECT__21
10
6.875000
20
31.482000
30
-15.151000
70
192
0
VERTEX
8
OBJECT__21
10
6.875000
20
20.787001
30
-28.611000
70
192
0
VERTEX
8
OBJECT__21
10
6.875000
20
10.928000
30
-33.633999
70
192
0
VERTEX
8
OBJECT__21
10
3.000000
20
7.899000
30
-34.610001
70
192
0
VERTEX
8
OBJECT__21
10
6.875000
20
21.899000
30
-27.499001
70
192
0
VERTEX
8
OBJECT__21
10
3.000000
20
-7.899000
30
-34.610001
70
192
0
VERTEX
8
OBJECT__21
10
6.875000
20
0.000000
30
-35.365002
70
192
0
VERTEX
8
OBJECT__21
10
6.875000
20
7.814000
30
-34.126999
70
192
0
VERTEX
8
OBJECT__21
10
3.000000
20
-22.134001
30
-27.754999
70
192
0
VERTEX
8
OBJECT__21
10
6.875000
20
-10.928000
30
-33.633999
70
192
0
VERTEX
8
OBJECT__21
10
6.875000
20
-7.814000
30
-34.126999
70
192
0
VERTEX
8
OBJECT__21
10
6.875000
20
-20.787001
30
-28.611000
70
192
0
VERTEX
8
OBJECT__21
10
6.875000
20
-21.899000
30
-27.499001
70
192
0
VERTEX
8
OBJECT__21
10
6.875000
20
-28.611000
30
-20.787001
70
192
0
VERTEX
8
OBJECT__21
10
3.000000
20
-31.983999
30
-15.403000
70
192
0
VERTEX
8
OBJECT__21
10
6.875000
20
-33.633999
30
-10.928000
70
192
0
VERTEX
8
OBJECT__21
10
6.875000
20
-31.482000
30
-15.151000
70
192
0
VERTEX
8
OBJECT__21
10
0
20
0
30
0
70
128
71
1
72
2
73
3
0
VERTEX
8
OBJECT__21
10
0
20
0
30
0
70
128
71
3
72
4
73
1
0
VERTEX
8
OBJECT__21
10
0
20
0
30
0
70
128
71
5
72
4
73
6
0
VERTEX
8
OBJECT__21
10
0
20
0
30
0
70
128
71
4
72
7
73
6
0
VERTEX
8
OBJECT__21
10
0
20
0
30
0
70
128
71
5
72
8
73
9
0
VERTEX
8
OBJECT__21
10
0
20
0
30
0
70
128
71
9
72
10
73
5
0
VERTEX
8
OBJECT__21
10
0
20
0
30
0
70
128
71
5
72
11
73
8
0
VERTEX
8
OBJECT__21
10
0
20
0
30
0
70
128
71
12
72
10
73
13
0
VERTEX
8
OBJECT__21
10
0
20
0
30
0
70
128
71
10
72
14
73
13
0
VERTEX
8
OBJECT__21
10
0
20
0
30
0
70
128
71
15
72
12
73
16
0
VERTEX
8
OBJECT__21
10
0
20
0
30
0
70
128
71
12
72
17
73
16
0
VERTEX
8
OBJECT__21
10
0
20
0
30
0
70
128
71
16
72
18
73
15
0
VERTEX
8
OBJECT__21
10
0
20
0
30
0
70
128
71
15
72
19
73
20
0
VERTEX
8
OBJECT__21
10
0
20
0
30
0
70
128
71
20
72
21
73
15
0
VERTEX
8
OBJECT__21
10
0
20
0
30
0
70
128
71
22
72
21
73
23
0
VERTEX
8
OBJECT__21
10
0
20
0
30
0
70
128
71
21
72
24
73
23
0
VERTEX
8
OBJECT__21
10
0
20
0
30
0
70
128
71
22
72
25
73
26
0
VERTEX
8
OBJECT__21
10
0
20
0
30
0
70
128
71
26
72
27
73
22
0
VERTEX
8
OBJECT__21
10
0
20
0
30
0
70
128
71
28
72
27
73
29
0
VERTEX
8
OBJECT__21
10
0
20
0
30
0
70
128
71
27
72
30
73
29
0
VERTEX
8
OBJECT__21
10
0
20
0
30
0
70
128
71
28
72
31
73
32
0
VERTEX
8
OBJECT__21
10
0
20
0
30
0
70
128
71
32
72
33
73
28
0
VERTEX
8
OBJECT__21
10
0
20
0
30
0
70
128
71
28
72
34
73
31
0
VERTEX
8
OBJECT__21
10
0
20
0
30
0
70
128
71
35
72
33
73
36
0
VERTEX
8
OBJECT__21
10
0
20
0
30
0
70
128
71
33
72
37
73
36
0
VERTEX
8
OBJECT__21
10
0
20
0
30
0
70
128
71
38
72
35
73
39
0
VERTEX
8
OBJECT__21
10
0
20
0
30
0
70
128
71
35
72
40
73
39
0
VERTEX
8
OBJECT__21
10
0
20
0
30
0
70
128
71
39
72
41
73
38
0
VERTEX
8
OBJECT__21
10
0
20
0
30
0
70
128
71
38
72
42
73
43
0
VERTEX
8
OBJECT__21
10
0
20
0
30
0
70
128
71
43
72
44
73
38
0
VERTEX
8
OBJECT__21
10
0
20
0
30
0
70
128
71
1
72
44
73
45
0
VERTEX
8
OBJECT__21
10
0
20
0
30
0
70
128
71
44
72
46
73
45
0
VERTEX
8
OBJECT__21
10
0
20
0
30
0
70
128
71
45
72
2
73
1
0
VERTEX
8
OBJECT__21
10
0
20
0
30
0
70
128
71
43
72
46
73
44
0
VERTEX
8
OBJECT__21
10
0
20
0
30
0
70
128
71
41
72
42
73
38
0
VERTEX
8
OBJECT__21
10
0
20
0
30
0
70
128
71
36
72
40
73
35
0
VERTEX
8
OBJECT__21
10
0
20
0
30
0
70
128
71
32
72
37
73
33
0
VERTEX
8
OBJECT__21
10
0
20
0
30
0
70
128
71
29
72
34
73
28
0
VERTEX
8
OBJECT__21
10
0
20
0
30
0
70
128
71
26
72
30
73
27
0
VERTEX
8
OBJECT__21
10
0
20
0
30
0
70
128
71
23
72
25
73
22
0
VERTEX
8
OBJECT__21
10
0
20
0
30
0
70
128
71
20
72
24
73
21
0
VERTEX
8
OBJECT__21
10
0
20
0
30
0
70
128
71
18
72
19
73
15
0
VERTEX
8
OBJECT__21
10
0
20
0
30
0
70
128
71
13
72
17
73
12
0
VERTEX
8
OBJECT__21
10
0
20
0
30
0
70
128
71
9
72
14
73
10
0
VERTEX
8
OBJECT__21
10
0
20
0
30
0
70
128
71
6
72
11
73
5
0
VERTEX
8
OBJECT__21
10
0
20
0
30
0
70
128
71
3
72
7
73
4
0
SEQEND
8
OBJECT__21
0
POLYLINE
8
OBJECT__23
66
1
70
64
71
73
72
112
62
253
0
VERTEX
8
OBJECT__23
10
18.319000
20
12.697000
30
0.000000
70
192
0
VERTEX
8
OBJECT__23
10
18.319000
20
12.075000
30
-3.923000
70
192
0
VERTEX
8
OBJECT__23
10
13.928000
20
23.493999
30
-7.634000
70
192
0
VERTEX
8
OBJECT__23
10
18.319000
20
10.272000
30
-7.463000
70
192
0
VERTEX
8
OBJECT__23
10
13.928000
20
19.985001
30
-14.520000
70
192
0
VERTEX
8
OBJECT__23
10
18.319000
20
7.463000
30
-10.272000
70
192
0
VERTEX
8
OBJECT__23
10
13.928000
20
14.520000
30
-19.985001
70
192
0
VERTEX
8
OBJECT__23
10
18.319000
20
3.923000
30
-12.075000
70
192
0
VERTEX
8
OBJECT__23
10
13.928000
20
7.634000
30
-23.493999
70
192
0
VERTEX
8
OBJECT__23
10
18.319000
20
0.000000
30
-12.697000
70
192
0
VERTEX
8
OBJECT__23
10
13.928000
20
0.000000
30
-24.702999
70
192
0
VERTEX
8
OBJECT__23
10
18.319000
20
-3.923000
30
-12.075000
70
192
0
VERTEX
8
OBJECT__23
10
13.928000
20
-7.634000
30
-23.493999
70
192
0
VERTEX
8
OBJECT__23
10
18.319000
20
-7.463000
30
-10.272000
70
192
0
VERTEX
8
OBJECT__23
10
13.928000
20
-14.520000
30
-19.985001
70
192
0
VERTEX
8
OBJECT__23
10
18.319000
20
-10.272000
30
-7.463000
70
192
0
VERTEX
8
OBJECT__23
10
13.928000
20
-19.985001
30
-14.520000
70
192
0
VERTEX
8
OBJECT__23
10
18.319000
20
-12.075000
30
-3.923000
70
192
0
VERTEX
8
OBJECT__23
10
13.928000
20
-23.493999
30
-7.634000
70
192
0
VERTEX
8
OBJECT__23
10
18.319000
20
-12.697000
30
0.000000
70
192
0
VERTEX
8
OBJECT__23
10
13.928000
20
-24.702999
30
0.000000
70
192
0
VERTEX
8
OBJECT__23
10
18.319000
20
-12.075000
30
3.923000
70
192
0
VERTEX
8
OBJECT__23
10
13.928000
20
-23.493999
30
7.634000
70
192
0
VERTEX
8
OBJECT__23
10
18.319000
20
-10.272000
30
7.463000
70
192
0
VERTEX
8
OBJECT__23
10
13.928000
20
-19.985001
30
14.520000
70
192
0
VERTEX
8
OBJECT__23
10
18.319000
20
-7.463000
30
10.272000
70
192
0
VERTEX
8
OBJECT__23
10
13.928000
20
-14.520000
30
19.985001
70
192
0
VERTEX
8
OBJECT__23
10
18.319000
20
-3.923000
30
12.075000
70
192
0
VERTEX
8
OBJECT__23
10
13.928000
20
-7.634000
30
23.493999
70
192
0
VERTEX
8
OBJECT__23
10
18.319000
20
0.000000
30
12.697000
70
192
0
VERTEX
8
OBJECT__23
10
13.928000
20
0.000000
30
24.702999
70
192
0
VERTEX
8
OBJECT__23
10
18.319000
20
3.923000
30
12.075000
70
192
0
VERTEX
8
OBJECT__23
10
13.928000
20
7.634000
30
23.493999
70
192
0
VERTEX
8
OBJECT__23
10
18.319000
20
7.463000
30
10.272000
70
192
0
VERTEX
8
OBJECT__23
10
13.928000
20
14.520000
30
19.985001
70
192
0
VERTEX
8
OBJECT__23
10
18.319000
20
10.272000
30
7.463000
70
192
0
VERTEX
8
OBJECT__23
10
13.928000
20
19.985001
30
14.520000
70
192
0
VERTEX
8
OBJECT__23
10
18.319000
20
12.075000
30
3.923000
70
192
0
VERTEX
8
OBJECT__23
10
13.928000
20
23.493999
30
7.634000
70
192
0
VERTEX
8
OBJECT__23
10
13.928000
20
24.702999
30
0.000000
70
192
0
VERTEX
8
OBJECT__23
10
6.875000
20
33.633999
30
-10.928000
70
192
0
VERTEX
8
OBJECT__23
10
6.875000
20
35.365002
30
0.000000
70
192
0
VERTEX
8
OBJECT__23
10
6.875000
20
28.611000
30
-20.787001
70
192
0
VERTEX
8
OBJECT__23
10
6.875000
20
31.482000
30
-15.151000
70
192
0
VERTEX
8
OBJECT__23
10
6.875000
20
21.899000
30
-27.499001
70
192
0
VERTEX
8
OBJECT__23
10
6.875000
20
20.787001
30
-28.611000
70
192
0
VERTEX
8
OBJECT__23
10
6.875000
20
10.928000
30
-33.633999
70
192
0
VERTEX
8
OBJECT__23
10
6.875000
20
7.814000
30
-34.126999
70
192
0
VERTEX
8
OBJECT__23
10
6.875000
20
0.000000
30
-35.365002
70
192
0
VERTEX
8
OBJECT__23
10
6.875000
20
-7.814000
30
-34.126999
70
192
0
VERTEX
8
OBJECT__23
10
6.875000
20
-10.928000
30
-33.633999
70
192
0
VERTEX
8
OBJECT__23
10
6.875000
20
-20.787001
30
-28.611000
70
192
0
VERTEX
8
OBJECT__23
10
6.875000
20
-21.899000
30
-27.499001
70
192
0
VERTEX
8
OBJECT__23
10
6.875000
20
-28.611000
30
-20.787001
70
192
0
VERTEX
8
OBJECT__23
10
6.875000
20
-31.482000
30
-15.151000
70
192
0
VERTEX
8
OBJECT__23
10
6.875000
20
-33.633999
30
-10.928000
70
192
0
VERTEX
8
OBJECT__23
10
6.875000
20
-35.365002
30
0.000000
70
192
0
VERTEX
8
OBJECT__23
10
6.875000
20
-33.633999
30
10.928000
70
192
0
VERTEX
8
OBJECT__23
10
6.875000
20
-28.611000
30
20.787001
70
192
0
VERTEX
8
OBJECT__23
10
6.875000
20
-31.482000
30
15.151000
70
192
0
VERTEX
8
OBJECT__23
10
6.875000
20
-21.899000
30
27.499001
70
192
0
VERTEX
8
OBJECT__23
10
6.875000
20
-20.787001
30
28.611000
70
192
0
VERTEX
8
OBJECT__23
10
6.875000
20
-7.814000
30
34.126999
70
192
0
VERTEX
8
OBJECT__23
10
6.875000
20
0.000000
30
35.365002
70
192
0
VERTEX
8
OBJECT__23
10
6.875000
20
7.814000
30
34.126999
70
192
0
VERTEX
8
OBJECT__23
10
6.875000
20
10.928000
30
33.633999
70
192
0
VERTEX
8
OBJECT__23
10
6.875000
20
20.787001
30
28.611000
70
192
0
VERTEX
8
OBJECT__23
10
6.875000
20
21.899000
30
27.499001
70
192
0
VERTEX
8
OBJECT__23
10
6.875000
20
28.611000
30
20.787001
70
192
0
VERTEX
8
OBJECT__23
10
6.875000
20
31.482000
30
15.151000
70
192
0
VERTEX
8
OBJECT__23
10
6.875000
20
33.633999
30
10.928000
70
192
0
VERTEX
8
OBJECT__23
10
6.875000
20
-10.928000
30
33.633999
70
192
0
VERTEX
8
OBJECT__23
10
19.809999
20
0.000000
30
0.000000
70
192
0
VERTEX
8
OBJECT__23
10
0
20
0
30
0
70
128
71
1
72
2
73
3
0
VERTEX
8
OBJECT__23
10
0
20
0
30
0
70
128
71
2
72
4
73
5
0
VERTEX
8
OBJECT__23
10
0
20
0
30
0
70
128
71
4
72
6
73
7
0
VERTEX
8
OBJECT__23
10
0
20
0
30
0
70
128
71
6
72
8
73
9
0
VERTEX
8
OBJECT__23
10
0
20
0
30
0
70
128
71
8
72
10
73
11
0
VERTEX
8
OBJECT__23
10
0
20
0
30
0
70
128
71
10
72
12
73
13
0
VERTEX
8
OBJECT__23
10
0
20
0
30
0
70
128
71
12
72
14
73
15
0
VERTEX
8
OBJECT__23
10
0
20
0
30
0
70
128
71
14
72
16
73
17
0
VERTEX
8
OBJECT__23
10
0
20
0
30
0
70
128
71
16
72
18
73
19
0
VERTEX
8
OBJECT__23
10
0
20
0
30
0
70
128
71
18
72
20
73
21
0
VERTEX
8
OBJECT__23
10
0
20
0
30
0
70
128
71
20
72
22
73
23
0
VERTEX
8
OBJECT__23
10
0
20
0
30
0
70
128
71
22
72
24
73
25
0
VERTEX
8
OBJECT__23
10
0
20
0
30
0
70
128
71
24
72
26
73
27
0
VERTEX
8
OBJECT__23
10
0
20
0
30
0
70
128
71
26
72
28
73
29
0
VERTEX
8
OBJECT__23
10
0
20
0
30
0
70
128
71
28
72
30
73
31
0
VERTEX
8
OBJECT__23
10
0
20
0
30
0
70
128
71
30
72
32
73
33
0
VERTEX
8
OBJECT__23
10
0
20
0
30
0
70
128
71
32
72
34
73
35
0
VERTEX
8
OBJECT__23
10
0
20
0
30
0
70
128
71
34
72
36
73
37
0
VERTEX
8
OBJECT__23
10
0
20
0
30
0
70
128
71
36
72
38
73
39
0
VERTEX
8
OBJECT__23
10
0
20
0
30
0
70
128
71
38
72
1
73
40
0
VERTEX
8
OBJECT__23
10
0
20
0
30
0
70
128
71
41
72
42
73
40
0
VERTEX
8
OBJECT__23
10
0
20
0
30
0
70
128
71
5
72
43
73
44
0
VERTEX
8
OBJECT__23
10
0
20
0
30
0
70
128
71
44
72
3
73
5
0
VERTEX
8
OBJECT__23
10
0
20
0
30
0
70
128
71
45
72
43
73
5
0
VERTEX
8
OBJECT__23
10
0
20
0
30
0
70
128
71
7
72
46
73
45
0
VERTEX
8
OBJECT__23
10
0
20
0
30
0
70
128
71
47
72
46
73
7
0
VERTEX
8
OBJECT__23
10
0
20
0
30
0
70
128
71
48
72
9
73
11
0
VERTEX
8
OBJECT__23
10
0
20
0
30
0
70
128
71
11
72
49
73
48
0
VERTEX
8
OBJECT__23
10
0
20
0
30
0
70
128
71
50
72
49
73
11
0
VERTEX
8
OBJECT__23
10
0
20
0
30
0
70
128
71
13
72
51
73
50
0
VERTEX
8
OBJECT__23
10
0
20
0
30
0
70
128
71
52
72
51
73
13
0
VERTEX
8
OBJECT__23
10
0
20
0
30
0
70
128
71
53
72
15
73
17
0
VERTEX
8
OBJECT__23
10
0
20
0
30
0
70
128
71
17
72
54
73
53
0
VERTEX
8
OBJECT__23
10
0
20
0
30
0
70
128
71
17
72
19
73
55
0
VERTEX
8
OBJECT__23
10
0
20
0
30
0
70
128
71
19
72
56
73
55
0
VERTEX
8
OBJECT__23
10
0
20
0
30
0
70
128
71
57
72
56
73
19
0
VERTEX
8
OBJECT__23
10
0
20
0
30
0
70
128
71
58
72
57
73
21
0
VERTEX
8
OBJECT__23
10
0
20
0
30
0
70
128
71
25
72
59
73
60
0
VERTEX
8
OBJECT__23
10
0
20
0
30
0
70
128
71
60
72
23
73
25
0
VERTEX
8
OBJECT__23
10
0
20
0
30
0
70
128
71
61
72
59
73
25
0
VERTEX
8
OBJECT__23
10
0
20
0
30
0
70
128
71
27
72
62
73
61
0
VERTEX
8
OBJECT__23
10
0
20
0
30
0
70
128
71
62
72
27
73
29
0
VERTEX
8
OBJECT__23
10
0
20
0
30
0
70
128
71
63
72
29
73
31
0
VERTEX
8
OBJECT__23
10
0
20
0
30
0
70
128
71
31
72
64
73
63
0
VERTEX
8
OBJECT__23
10
0
20
0
30
0
70
128
71
65
72
64
73
31
0
VERTEX
8
OBJECT__23
10
0
20
0
30
0
70
128
71
33
72
66
73
65
0
VERTEX
8
OBJECT__23
10
0
20
0
30
0
70
128
71
67
72
66
73
33
0
VERTEX
8
OBJECT__23
10
0
20
0
30
0
70
128
71
68
72
35
73
37
0
VERTEX
8
OBJECT__23
10
0
20
0
30
0
70
128
71
37
72
69
73
68
0
VERTEX
8
OBJECT__23
10
0
20
0
30
0
70
128
71
37
72
39
73
70
0
VERTEX
8
OBJECT__23
10
0
20
0
30
0
70
128
71
39
72
71
73
70
0
VERTEX
8
OBJECT__23
10
0
20
0
30
0
70
128
71
71
72
39
73
40
0
VERTEX
8
OBJECT__23
10
0
20
0
30
0
70
128
71
40
72
42
73
71
0
VERTEX
8
OBJECT__23
10
0
20
0
30
0
70
128
71
70
72
69
73
37
0
VERTEX
8
OBJECT__23
10
0
20
0
30
0
70
128
71
68
72
67
73
35
0
VERTEX
8
OBJECT__23
10
0
20
0
30
0
70
128
71
33
72
35
73
67
0
VERTEX
8
OBJECT__23
10
0
20
0
30
0
70
128
71
31
72
33
73
65
0
VERTEX
8
OBJECT__23
10
0
20
0
30
0
70
128
71
63
72
72
73
29
0
VERTEX
8
OBJECT__23
10
0
20
0
30
0
70
128
71
29
72
72
73
62
0
VERTEX
8
OBJECT__23
10
0
20
0
30
0
70
128
71
25
72
27
73
61
0
VERTEX
8
OBJECT__23
10
0
20
0
30
0
70
128
71
60
72
58
73
23
0
VERTEX
8
OBJECT__23
10
0
20
0
30
0
70
128
71
21
72
23
73
58
0
VERTEX
8
OBJECT__23
10
0
20
0
30
0
70
128
71
19
72
21
73
57
0
VERTEX
8
OBJECT__23
10
0
20
0
30
0
70
128
71
55
72
54
73
17
0
VERTEX
8
OBJECT__23
10
0
20
0
30
0
70
128
71
53
72
52
73
15
0
VERTEX
8
OBJECT__23
10
0
20
0
30
0
70
128
71
13
72
15
73
52
0
VERTEX
8
OBJECT__23
10
0
20
0
30
0
70
128
71
11
72
13
73
50
0
VERTEX
8
OBJECT__23
10
0
20
0
30
0
70
128
71
48
72
47
73
9
0
VERTEX
8
OBJECT__23
10
0
20
0
30
0
70
128
71
7
72
9
73
47
0
VERTEX
8
OBJECT__23
10
0
20
0
30
0
70
128
71
5
72
7
73
45
0
VERTEX
8
OBJECT__23
10
0
20
0
30
0
70
128
71
44
72
41
73
3
0
VERTEX
8
OBJECT__23
10
0
20
0
30
0
70
128
71
40
72
3
73
41
0
VERTEX
8
OBJECT__23
10
0
20
0
30
0
70
128
71
40
72
39
73
38
0
VERTEX
8
OBJECT__23
10
0
20
0
30
0
70
128
71
39
72
37
73
36
0
VERTEX
8
OBJECT__23
10
0
20
0
30
0
70
128
71
37
72
35
73
34
0
VERTEX
8
OBJECT__23
10
0
20
0
30
0
70
128
71
35
72
33
73
32
0
VERTEX
8
OBJECT__23
10
0
20
0
30
0
70
128
71
33
72
31
73
30
0
VERTEX
8
OBJECT__23
10
0
20
0
30
0
70
128
71
31
72
29
73
28
0
VERTEX
8
OBJECT__23
10
0
20
0
30
0
70
128
71
29
72
27
73
26
0
VERTEX
8
OBJECT__23
10
0
20
0
30
0
70
128
71
27
72
25
73
24
0
VERTEX
8
OBJECT__23
10
0
20
0
30
0
70
128
71
25
72
23
73
22
0
VERTEX
8
OBJECT__23
10
0
20
0
30
0
70
128
71
23
72
21
73
20
0
VERTEX
8
OBJECT__23
10
0
20
0
30
0
70
128
71
21
72
19
73
18
0
VERTEX
8
OBJECT__23
10
0
20
0
30
0
70
128
71
19
72
17
73
16
0
VERTEX
8
OBJECT__23
10
0
20
0
30
0
70
128
71
17
72
15
73
14
0
VERTEX
8
OBJECT__23
10
0
20
0
30
0
70
128
71
15
72
13
73
12
0
VERTEX
8
OBJECT__23
10
0
20
0
30
0
70
128
71
13
72
11
73
10
0
VERTEX
8
OBJECT__23
10
0
20
0
30
0
70
128
71
11
72
9
73
8
0
VERTEX
8
OBJECT__23
10
0
20
0
30
0
70
128
71
9
72
7
73
6
0
VERTEX
8
OBJECT__23
10
0
20
0
30
0
70
128
71
7
72
5
73
4
0
VERTEX
8
OBJECT__23
10
0
20
0
30
0
70
128
71
5
72
3
73
2
0
VERTEX
8
OBJECT__23
10
0
20
0
30
0
70
128
71
3
72
40
73
1
0
VERTEX
8
OBJECT__23
10
0
20
0
30
0
70
128
71
1
72
38
73
73
0
VERTEX
8
OBJECT__23
10
0
20
0
30
0
70
128
71
38
72
36
73
73
0
VERTEX
8
OBJECT__23
10
0
20
0
30
0
70
128
71
36
72
34
73
73
0
VERTEX
8
OBJECT__23
10
0
20
0
30
0
70
128
71
34
72
32
73
73
0
VERTEX
8
OBJECT__23
10
0
20
0
30
0
70
128
71
32
72
30
73
73
0
VERTEX
8
OBJECT__23
10
0
20
0
30
0
70
128
71
30
72
28
73
73
0
VERTEX
8
OBJECT__23
10
0
20
0
30
0
70
128
71
28
72
26
73
73
0
VERTEX
8
OBJECT__23
10
0
20
0
30
0
70
128
71
26
72
24
73
73
0
VERTEX
8
OBJECT__23
10
0
20
0
30
0
70
128
71
24
72
22
73
73
0
VERTEX
8
OBJECT__23
10
0
20
0
30
0
70
128
71
22
72
20
73
73
0
VERTEX
8
OBJECT__23
10
0
20
0
30
0
70
128
71
20
72
18
73
73
0
VERTEX
8
OBJECT__23
10
0
20
0
30
0
70
128
71
18
72
16
73
73
0
VERTEX
8
OBJECT__23
10
0
20
0
30
0
70
128
71
16
72
14
73
73
0
VERTEX
8
OBJECT__23
10
0
20
0
30
0
70
128
71
14
72
12
73
73
0
VERTEX
8
OBJECT__23
10
0
20
0
30
0
70
128
71
12
72
10
73
73
0
VERTEX
8
OBJECT__23
10
0
20
0
30
0
70
128
71
10
72
8
73
73
0
VERTEX
8
OBJECT__23
10
0
20
0
30
0
70
128
71
8
72
6
73
73
0
VERTEX
8
OBJECT__23
10
0
20
0
30
0
70
128
71
6
72
4
73
73
0
VERTEX
8
OBJECT__23
10
0
20
0
30
0
70
128
71
4
72
2
73
73
0
VERTEX
8
OBJECT__23
10
0
20
0
30
0
70
128
71
2
72
1
73
73
0
SEQEND
8
OBJECT__23
0
ENDSEC
0
EOF
