999
Converted by 3D Exploration 
999
XDimension Software, LLC
999
http://www.xdsoft.com/explorer/
0
SECTION
2
HEADER
9
$ACADVER
1
AC1008
9
$UCSORG
10
0.0
20
0.0
30
0.0
9
$UCSXDIR
10
1.0
20
0.0
30
0.0
9
$TILEMODE
70
1
9
$UCSYDIR
10
0.0
20
1.0
30
0.0
9
$EXTMIN
10
0.000000
20
-50.000000
30
-50.000000
9
$EXTMAX
10
106.092003
20
50.000000
30
49.915001
0
ENDSEC
0
SECTION
2
TABLES
0
TABLE
2
LTYPE
70
1
0
LTYPE
2
CONTINUOUS
70
64
3
Solid line
72
65
73
0
40
0.0
0
ENDTAB
0
TABLE
2
LAYER
70
48
0
LAYER
2
OBJECT__0
70
0
62
253
6
CONTINUOUS
0
LAYER
2
OBJECT__1
70
0
62
253
6
CONTINUOUS
0
LAYER
2
OBJECT__3
70
0
62
253
6
CONTINUOUS
0
LAYER
2
OBJECT__4
70
0
62
253
6
CONTINUOUS
0
LAYER
2
OBJECT__5
70
0
62
253
6
CONTINUOUS
0
LAYER
2
OBJECT__6
70
0
62
253
6
CONTINUOUS
0
LAYER
2
OBJECT__8
70
0
62
253
6
CONTINUOUS
0
LAYER
2
OBJECT__9
70
0
62
253
6
CONTINUOUS
0
LAYER
2
OBJECT__10
70
0
62
253
6
CONTINUOUS
0
LAYER
2
OBJECT__11
70
0
62
253
6
CONTINUOUS
0
LAYER
2
OBJECT__12
70
0
62
253
6
CONTINUOUS
0
LAYER
2
OBJECT__13
70
0
62
253
6
CONTINUOUS
0
LAYER
2
OBJECT__14
70
0
62
253
6
CONTINUOUS
0
LAYER
2
OBJECT__15
70
0
62
253
6
CONTINUOUS
0
LAYER
2
OBJECT__16
70
0
62
253
6
CONTINUOUS
0
LAYER
2
OBJECT__17
70
0
62
253
6
CONTINUOUS
0
LAYER
2
OBJECT__19
70
0
62
253
6
CONTINUOUS
0
LAYER
2
OBJECT__20
70
0
62
253
6
CONTINUOUS
0
LAYER
2
OBJECT__21
70
0
62
253
6
CONTINUOUS
0
LAYER
2
OBJECT__22
70
0
62
253
6
CONTINUOUS
0
LAYER
2
OBJECT__23
70
0
62
253
6
CONTINUOUS
0
LAYER
2
OBJECT__24
70
0
62
253
6
CONTINUOUS
0
LAYER
2
OBJECT__25
70
0
62
253
6
CONTINUOUS
0
LAYER
2
OBJECT__26
70
0
62
253
6
CONTINUOUS
0
LAYER
2
OBJECT__27
70
0
62
253
6
CONTINUOUS
0
LAYER
2
OBJECT__28
70
0
62
253
6
CONTINUOUS
0
LAYER
2
OBJECT__29
70
0
62
253
6
CONTINUOUS
0
LAYER
2
OBJECT__30
70
0
62
253
6
CONTINUOUS
0
LAYER
2
OBJECT__31
70
0
62
253
6
CONTINUOUS
0
LAYER
2
OBJECT__32
70
0
62
253
6
CONTINUOUS
0
LAYER
2
OBJECT__33
70
0
62
253
6
CONTINUOUS
0
LAYER
2
OBJECT__34
70
0
62
253
6
CONTINUOUS
0
LAYER
2
OBJECT__35
70
0
62
253
6
CONTINUOUS
0
LAYER
2
OBJECT__36
70
0
62
253
6
CONTINUOUS
0
LAYER
2
OBJECT__37
70
0
62
253
6
CONTINUOUS
0
LAYER
2
OBJECT__38
70
0
62
253
6
CONTINUOUS
0
LAYER
2
OBJECT__39
70
0
62
253
6
CONTINUOUS
0
LAYER
2
OBJECT__40
70
0
62
253
6
CONTINUOUS
0
LAYER
2
OBJECT__41
70
0
62
253
6
CONTINUOUS
0
LAYER
2
OBJECT__42
70
0
62
253
6
CONTINUOUS
0
LAYER
2
OBJECT__43
70
0
62
253
6
CONTINUOUS
0
LAYER
2
OBJECT__44
70
0
62
253
6
CONTINUOUS
0
LAYER
2
OBJECT__45
70
0
62
253
6
CONTINUOUS
0
LAYER
2
OBJECT__46
70
0
62
253
6
CONTINUOUS
0
ENDTAB
0
TABLE
2
STYLE
70
1
0
STYLE
2
STANDARD
70
0
40
0.0
41
1.0
50
0.0
71
0
42
0.2
3
txt
4
1
0
ENDTAB
0
TABLE
2
UCS
70
0
0
ENDTAB
0
ENDSEC
0
SECTION
2
ENTITIES
0
POLYLINE
8
OBJECT__0
66
1
70
64
71
88
72
88
62
253
0
VERTEX
8
OBJECT__0
10
11.306000
20
-47.058998
30
8.069000
70
192
0
VERTEX
8
OBJECT__0
10
11.306000
20
-47.745998
30
0.000000
70
192
0
VERTEX
8
OBJECT__0
10
15.979000
20
-25.100000
30
0.000000
70
192
0
VERTEX
8
OBJECT__0
10
15.979000
20
-24.371000
30
6.007000
70
192
0
VERTEX
8
OBJECT__0
10
11.306000
20
-46.195999
30
11.384000
70
192
0
VERTEX
8
OBJECT__0
10
11.306000
20
-45.018002
30
15.906000
70
192
0
VERTEX
8
OBJECT__0
10
15.979000
20
-22.225000
30
11.665000
70
192
0
VERTEX
8
OBJECT__0
10
11.306000
20
-42.195000
30
22.152000
70
192
0
VERTEX
8
OBJECT__0
10
11.306000
20
-37.147999
30
29.995001
70
192
0
VERTEX
8
OBJECT__0
10
11.306000
20
-41.682999
30
23.285000
70
192
0
VERTEX
8
OBJECT__0
10
15.979000
20
-18.788000
30
16.643999
70
192
0
VERTEX
8
OBJECT__0
10
11.306000
20
-35.639999
30
31.568001
70
192
0
VERTEX
8
OBJECT__0
10
11.306000
20
-31.544001
30
35.841000
70
192
0
VERTEX
8
OBJECT__0
10
15.979000
20
-14.258000
30
20.657000
70
192
0
VERTEX
8
OBJECT__0
10
11.306000
20
-27.035000
30
39.175999
70
192
0
VERTEX
8
OBJECT__0
10
11.306000
20
-25.033001
30
40.657001
70
192
0
VERTEX
8
OBJECT__0
10
15.979000
20
-8.901000
30
23.469000
70
192
0
VERTEX
8
OBJECT__0
10
11.306000
20
-16.910000
30
44.576000
70
192
0
VERTEX
8
OBJECT__0
10
11.306000
20
-17.802000
30
44.303001
70
192
0
VERTEX
8
OBJECT__0
10
11.306000
20
-10.059000
30
46.674000
70
192
0
VERTEX
8
OBJECT__0
10
15.979000
20
-3.025000
30
24.917000
70
192
0
VERTEX
8
OBJECT__0
10
11.306000
20
-5.733000
30
47.228001
70
192
0
VERTEX
8
OBJECT__0
10
11.306000
20
-2.026000
30
47.702999
70
192
0
VERTEX
8
OBJECT__0
10
15.979000
20
3.025000
30
24.917000
70
192
0
VERTEX
8
OBJECT__0
10
11.306000
20
5.754000
30
47.372002
70
192
0
VERTEX
8
OBJECT__0
10
11.306000
20
13.981000
30
45.653000
70
192
0
VERTEX
8
OBJECT__0
10
11.306000
20
6.065000
30
47.359001
70
192
0
VERTEX
8
OBJECT__0
10
15.979000
20
8.901000
30
23.469000
70
192
0
VERTEX
8
OBJECT__0
10
11.306000
20
16.870001
30
44.492001
70
192
0
VERTEX
8
OBJECT__0
10
11.306000
20
21.495001
30
42.632999
70
192
0
VERTEX
8
OBJECT__0
10
15.979000
20
14.258000
30
20.657000
70
192
0
VERTEX
8
OBJECT__0
10
11.306000
20
27.066999
30
39.202999
70
192
0
VERTEX
8
OBJECT__0
10
11.306000
20
34.470001
30
33.036999
70
192
0
VERTEX
8
OBJECT__0
10
11.306000
20
28.391001
30
38.387001
70
192
0
VERTEX
8
OBJECT__0
10
15.979000
20
18.788000
30
16.643999
70
192
0
VERTEX
8
OBJECT__0
10
11.306000
20
35.643002
30
31.584999
70
192
0
VERTEX
8
OBJECT__0
10
11.306000
20
39.557999
30
26.736000
70
192
0
VERTEX
8
OBJECT__0
10
15.979000
20
22.225000
30
11.665000
70
192
0
VERTEX
8
OBJECT__0
10
11.306000
20
42.140999
30
22.113001
70
192
0
VERTEX
8
OBJECT__0
10
11.306000
20
43.507000
30
19.666000
70
192
0
VERTEX
8
OBJECT__0
10
15.979000
20
24.371000
30
6.007000
70
192
0
VERTEX
8
OBJECT__0
10
11.306000
20
46.310001
30
11.418000
70
192
0
VERTEX
8
OBJECT__0
10
11.306000
20
46.205002
30
12.031000
70
192
0
VERTEX
8
OBJECT__0
10
11.306000
20
47.574001
30
4.049000
70
192
0
VERTEX
8
OBJECT__0
10
15.979000
20
25.100000
30
0.000000
70
192
0
VERTEX
8
OBJECT__0
10
11.306000
20
47.745998
30
0.000000
70
192
0
VERTEX
8
OBJECT__0
10
11.306000
20
47.574001
30
-4.049000
70
192
0
VERTEX
8
OBJECT__0
10
15.979000
20
24.371000
30
-6.007000
70
192
0
VERTEX
8
OBJECT__0
10
11.306000
20
46.310001
30
-11.418000
70
192
0
VERTEX
8
OBJECT__0
10
11.306000
20
43.507000
30
-19.666000
70
192
0
VERTEX
8
OBJECT__0
10
11.306000
20
46.205002
30
-12.031000
70
192
0
VERTEX
8
OBJECT__0
10
15.979000
20
22.225000
30
-11.665000
70
192
0
VERTEX
8
OBJECT__0
10
11.306000
20
42.140999
30
-22.113001
70
192
0
VERTEX
8
OBJECT__0
10
11.306000
20
39.557999
30
-26.736000
70
192
0
VERTEX
8
OBJECT__0
10
15.979000
20
18.788000
30
-16.643999
70
192
0
VERTEX
8
OBJECT__0
10
11.306000
20
35.643002
30
-31.584999
70
192
0
VERTEX
8
OBJECT__0
10
11.306000
20
34.470001
30
-33.036999
70
192
0
VERTEX
8
OBJECT__0
10
15.979000
20
14.258000
30
-20.657000
70
192
0
VERTEX
8
OBJECT__0
10
11.306000
20
27.066999
30
-39.202999
70
192
0
VERTEX
8
OBJECT__0
10
11.306000
20
28.391001
30
-38.387001
70
192
0
VERTEX
8
OBJECT__0
10
11.306000
20
21.495001
30
-42.632999
70
192
0
VERTEX
8
OBJECT__0
10
15.979000
20
8.901000
30
-23.469000
70
192
0
VERTEX
8
OBJECT__0
10
11.306000
20
16.870001
30
-44.492001
70
192
0
VERTEX
8
OBJECT__0
10
11.306000
20
13.981000
30
-45.653000
70
192
0
VERTEX
8
OBJECT__0
10
15.979000
20
3.025000
30
-24.917000
70
192
0
VERTEX
8
OBJECT__0
10
11.306000
20
5.754000
30
-47.372002
70
192
0
VERTEX
8
OBJECT__0
10
11.306000
20
6.065000
30
-47.359001
70
192
0
VERTEX
8
OBJECT__0
10
11.306000
20
-2.026000
30
-47.702999
70
192
0
VERTEX
8
OBJECT__0
10
15.979000
20
-3.025000
30
-24.917000
70
192
0
VERTEX
8
OBJECT__0
10
11.306000
20
-5.733000
30
-47.228001
70
192
0
VERTEX
8
OBJECT__0
10
11.306000
20
-10.059000
30
-46.674000
70
192
0
VERTEX
8
OBJECT__0
10
15.979000
20
-8.901000
30
-23.469000
70
192
0
VERTEX
8
OBJECT__0
10
11.306000
20
-16.910000
30
-44.576000
70
192
0
VERTEX
8
OBJECT__0
10
11.306000
20
-25.033001
30
-40.657001
70
192
0
VERTEX
8
OBJECT__0
10
11.306000
20
-17.802000
30
-44.303001
70
192
0
VERTEX
8
OBJECT__0
10
15.979000
20
-14.258000
30
-20.657000
70
192
0
VERTEX
8
OBJECT__0
10
11.306000
20
-27.035000
30
-39.175999
70
192
0
VERTEX
8
OBJECT__0
10
11.306000
20
-31.544001
30
-35.841000
70
192
0
VERTEX
8
OBJECT__0
10
15.979000
20
-18.788000
30
-16.643999
70
192
0
VERTEX
8
OBJECT__0
10
11.306000
20
-35.639999
30
-31.568001
70
192
0
VERTEX
8
OBJECT__0
10
11.306000
20
-37.147999
30
-29.995001
70
192
0
VERTEX
8
OBJECT__0
10
15.979000
20
-22.225000
30
-11.665000
70
192
0
VERTEX
8
OBJECT__0
10
11.306000
20
-42.195000
30
-22.152000
70
192
0
VERTEX
8
OBJECT__0
10
11.306000
20
-41.682999
30
-23.285000
70
192
0
VERTEX
8
OBJECT__0
10
11.306000
20
-45.018002
30
-15.906000
70
192
0
VERTEX
8
OBJECT__0
10
15.979000
20
-24.371000
30
-6.007000
70
192
0
VERTEX
8
OBJECT__0
10
11.306000
20
-46.195999
30
-11.384000
70
192
0
VERTEX
8
OBJECT__0
10
11.306000
20
-47.058998
30
-8.069000
70
192
0
VERTEX
8
OBJECT__0
10
0
20
0
30
0
70
128
71
1
72
2
73
3
0
VERTEX
8
OBJECT__0
10
0
20
0
30
0
70
128
71
4
72
5
73
1
0
VERTEX
8
OBJECT__0
10
0
20
0
30
0
70
128
71
6
72
4
73
7
0
VERTEX
8
OBJECT__0
10
0
20
0
30
0
70
128
71
7
72
8
73
6
0
VERTEX
8
OBJECT__0
10
0
20
0
30
0
70
128
71
9
72
10
73
7
0
VERTEX
8
OBJECT__0
10
0
20
0
30
0
70
128
71
7
72
11
73
9
0
VERTEX
8
OBJECT__0
10
0
20
0
30
0
70
128
71
11
72
12
73
9
0
VERTEX
8
OBJECT__0
10
0
20
0
30
0
70
128
71
13
72
12
73
11
0
VERTEX
8
OBJECT__0
10
0
20
0
30
0
70
128
71
14
72
15
73
13
0
VERTEX
8
OBJECT__0
10
0
20
0
30
0
70
128
71
16
72
14
73
17
0
VERTEX
8
OBJECT__0
10
0
20
0
30
0
70
128
71
17
72
18
73
19
0
VERTEX
8
OBJECT__0
10
0
20
0
30
0
70
128
71
17
72
19
73
16
0
VERTEX
8
OBJECT__0
10
0
20
0
30
0
70
128
71
20
72
18
73
17
0
VERTEX
8
OBJECT__0
10
0
20
0
30
0
70
128
71
21
72
22
73
20
0
VERTEX
8
OBJECT__0
10
0
20
0
30
0
70
128
71
23
72
21
73
24
0
VERTEX
8
OBJECT__0
10
0
20
0
30
0
70
128
71
24
72
25
73
23
0
VERTEX
8
OBJECT__0
10
0
20
0
30
0
70
128
71
26
72
27
73
24
0
VERTEX
8
OBJECT__0
10
0
20
0
30
0
70
128
71
24
72
28
73
26
0
VERTEX
8
OBJECT__0
10
0
20
0
30
0
70
128
71
28
72
29
73
26
0
VERTEX
8
OBJECT__0
10
0
20
0
30
0
70
128
71
30
72
28
73
31
0
VERTEX
8
OBJECT__0
10
0
20
0
30
0
70
128
71
31
72
32
73
30
0
VERTEX
8
OBJECT__0
10
0
20
0
30
0
70
128
71
33
72
34
73
31
0
VERTEX
8
OBJECT__0
10
0
20
0
30
0
70
128
71
31
72
35
73
33
0
VERTEX
8
OBJECT__0
10
0
20
0
30
0
70
128
71
35
72
36
73
33
0
VERTEX
8
OBJECT__0
10
0
20
0
30
0
70
128
71
37
72
36
73
35
0
VERTEX
8
OBJECT__0
10
0
20
0
30
0
70
128
71
38
72
39
73
37
0
VERTEX
8
OBJECT__0
10
0
20
0
30
0
70
128
71
40
72
38
73
41
0
VERTEX
8
OBJECT__0
10
0
20
0
30
0
70
128
71
41
72
42
73
43
0
VERTEX
8
OBJECT__0
10
0
20
0
30
0
70
128
71
41
72
43
73
40
0
VERTEX
8
OBJECT__0
10
0
20
0
30
0
70
128
71
44
72
42
73
41
0
VERTEX
8
OBJECT__0
10
0
20
0
30
0
70
128
71
45
72
46
73
44
0
VERTEX
8
OBJECT__0
10
0
20
0
30
0
70
128
71
47
72
45
73
48
0
VERTEX
8
OBJECT__0
10
0
20
0
30
0
70
128
71
48
72
49
73
47
0
VERTEX
8
OBJECT__0
10
0
20
0
30
0
70
128
71
50
72
51
73
48
0
VERTEX
8
OBJECT__0
10
0
20
0
30
0
70
128
71
48
72
52
73
50
0
VERTEX
8
OBJECT__0
10
0
20
0
30
0
70
128
71
52
72
53
73
50
0
VERTEX
8
OBJECT__0
10
0
20
0
30
0
70
128
71
54
72
52
73
55
0
VERTEX
8
OBJECT__0
10
0
20
0
30
0
70
128
71
55
72
56
73
54
0
VERTEX
8
OBJECT__0
10
0
20
0
30
0
70
128
71
57
72
55
73
58
0
VERTEX
8
OBJECT__0
10
0
20
0
30
0
70
128
71
58
72
59
73
60
0
VERTEX
8
OBJECT__0
10
0
20
0
30
0
70
128
71
58
72
60
73
57
0
VERTEX
8
OBJECT__0
10
0
20
0
30
0
70
128
71
61
72
59
73
58
0
VERTEX
8
OBJECT__0
10
0
20
0
30
0
70
128
71
62
72
63
73
61
0
VERTEX
8
OBJECT__0
10
0
20
0
30
0
70
128
71
64
72
62
73
65
0
VERTEX
8
OBJECT__0
10
0
20
0
30
0
70
128
71
65
72
66
73
67
0
VERTEX
8
OBJECT__0
10
0
20
0
30
0
70
128
71
65
72
67
73
64
0
VERTEX
8
OBJECT__0
10
0
20
0
30
0
70
128
71
68
72
66
73
65
0
VERTEX
8
OBJECT__0
10
0
20
0
30
0
70
128
71
69
72
70
73
68
0
VERTEX
8
OBJECT__0
10
0
20
0
30
0
70
128
71
71
72
69
73
72
0
VERTEX
8
OBJECT__0
10
0
20
0
30
0
70
128
71
72
72
73
73
71
0
VERTEX
8
OBJECT__0
10
0
20
0
30
0
70
128
71
74
72
75
73
72
0
VERTEX
8
OBJECT__0
10
0
20
0
30
0
70
128
71
72
72
76
73
74
0
VERTEX
8
OBJECT__0
10
0
20
0
30
0
70
128
71
76
72
77
73
74
0
VERTEX
8
OBJECT__0
10
0
20
0
30
0
70
128
71
78
72
76
73
79
0
VERTEX
8
OBJECT__0
10
0
20
0
30
0
70
128
71
79
72
80
73
78
0
VERTEX
8
OBJECT__0
10
0
20
0
30
0
70
128
71
81
72
79
73
82
0
VERTEX
8
OBJECT__0
10
0
20
0
30
0
70
128
71
82
72
83
73
84
0
VERTEX
8
OBJECT__0
10
0
20
0
30
0
70
128
71
82
72
84
73
81
0
VERTEX
8
OBJECT__0
10
0
20
0
30
0
70
128
71
85
72
83
73
82
0
VERTEX
8
OBJECT__0
10
0
20
0
30
0
70
128
71
86
72
87
73
85
0
VERTEX
8
OBJECT__0
10
0
20
0
30
0
70
128
71
88
72
86
73
3
0
VERTEX
8
OBJECT__0
10
0
20
0
30
0
70
128
71
3
72
2
73
88
0
VERTEX
8
OBJECT__0
10
0
20
0
30
0
70
128
71
88
72
87
73
86
0
VERTEX
8
OBJECT__0
10
0
20
0
30
0
70
128
71
82
72
86
73
85
0
VERTEX
8
OBJECT__0
10
0
20
0
30
0
70
128
71
81
72
80
73
79
0
VERTEX
8
OBJECT__0
10
0
20
0
30
0
70
128
71
78
72
77
73
76
0
VERTEX
8
OBJECT__0
10
0
20
0
30
0
70
128
71
75
72
73
73
72
0
VERTEX
8
OBJECT__0
10
0
20
0
30
0
70
128
71
71
72
70
73
69
0
VERTEX
8
OBJECT__0
10
0
20
0
30
0
70
128
71
65
72
69
73
68
0
VERTEX
8
OBJECT__0
10
0
20
0
30
0
70
128
71
64
72
63
73
62
0
VERTEX
8
OBJECT__0
10
0
20
0
30
0
70
128
71
58
72
62
73
61
0
VERTEX
8
OBJECT__0
10
0
20
0
30
0
70
128
71
57
72
56
73
55
0
VERTEX
8
OBJECT__0
10
0
20
0
30
0
70
128
71
54
72
53
73
52
0
VERTEX
8
OBJECT__0
10
0
20
0
30
0
70
128
71
51
72
49
73
48
0
VERTEX
8
OBJECT__0
10
0
20
0
30
0
70
128
71
47
72
46
73
45
0
VERTEX
8
OBJECT__0
10
0
20
0
30
0
70
128
71
41
72
45
73
44
0
VERTEX
8
OBJECT__0
10
0
20
0
30
0
70
128
71
40
72
39
73
38
0
VERTEX
8
OBJECT__0
10
0
20
0
30
0
70
128
71
35
72
38
73
37
0
VERTEX
8
OBJECT__0
10
0
20
0
30
0
70
128
71
34
72
32
73
31
0
VERTEX
8
OBJECT__0
10
0
20
0
30
0
70
128
71
30
72
29
73
28
0
VERTEX
8
OBJECT__0
10
0
20
0
30
0
70
128
71
27
72
25
73
24
0
VERTEX
8
OBJECT__0
10
0
20
0
30
0
70
128
71
23
72
22
73
21
0
VERTEX
8
OBJECT__0
10
0
20
0
30
0
70
128
71
17
72
21
73
20
0
VERTEX
8
OBJECT__0
10
0
20
0
30
0
70
128
71
16
72
15
73
14
0
VERTEX
8
OBJECT__0
10
0
20
0
30
0
70
128
71
11
72
14
73
13
0
VERTEX
8
OBJECT__0
10
0
20
0
30
0
70
128
71
10
72
8
73
7
0
VERTEX
8
OBJECT__0
10
0
20
0
30
0
70
128
71
6
72
5
73
4
0
VERTEX
8
OBJECT__0
10
0
20
0
30
0
70
128
71
3
72
4
73
1
0
SEQEND
8
OBJECT__0
0
POLYLINE
8
OBJECT__1
66
1
70
64
71
163
72
200
62
253
0
VERTEX
8
OBJECT__1
10
10.664000
20
-48.144001
30
8.255000
70
192
0
VERTEX
8
OBJECT__1
10
10.664000
20
-48.847000
30
0.000000
70
192
0
VERTEX
8
OBJECT__1
10
11.306000
20
-47.745998
30
0.000000
70
192
0
VERTEX
8
OBJECT__1
10
10.664000
20
-46.056999
30
16.273001
70
192
0
VERTEX
8
OBJECT__1
10
11.306000
20
-46.195999
30
11.384000
70
192
0
VERTEX
8
OBJECT__1
10
11.306000
20
-47.058998
30
8.069000
70
192
0
VERTEX
8
OBJECT__1
10
11.306000
20
-45.018002
30
15.906000
70
192
0
VERTEX
8
OBJECT__1
10
11.306000
20
-42.195000
30
22.152000
70
192
0
VERTEX
8
OBJECT__1
10
10.664000
20
-42.644001
30
23.822001
70
192
0
VERTEX
8
OBJECT__1
10
10.664000
20
-38.005001
30
30.687000
70
192
0
VERTEX
8
OBJECT__1
10
11.306000
20
-41.682999
30
23.285000
70
192
0
VERTEX
8
OBJECT__1
10
10.664000
20
-32.271999
30
36.667999
70
192
0
VERTEX
8
OBJECT__1
10
11.306000
20
-35.639999
30
31.568001
70
192
0
VERTEX
8
OBJECT__1
10
11.306000
20
-37.147999
30
29.995001
70
192
0
VERTEX
8
OBJECT__1
10
11.306000
20
-31.544001
30
35.841000
70
192
0
VERTEX
8
OBJECT__1
10
11.306000
20
-27.035000
30
39.175999
70
192
0
VERTEX
8
OBJECT__1
10
10.664000
20
-25.611000
30
41.595001
70
192
0
VERTEX
8
OBJECT__1
10
10.664000
20
-18.212999
30
45.325001
70
192
0
VERTEX
8
OBJECT__1
10
11.306000
20
-25.033001
30
40.657001
70
192
0
VERTEX
8
OBJECT__1
10
10.664000
20
-10.291000
30
47.750999
70
192
0
VERTEX
8
OBJECT__1
10
11.306000
20
-16.910000
30
44.576000
70
192
0
VERTEX
8
OBJECT__1
10
11.306000
20
-17.802000
30
44.303001
70
192
0
VERTEX
8
OBJECT__1
10
11.306000
20
-10.059000
30
46.674000
70
192
0
VERTEX
8
OBJECT__1
10
11.306000
20
-5.733000
30
47.228001
70
192
0
VERTEX
8
OBJECT__1
10
10.664000
20
-2.073000
30
48.803001
70
192
0
VERTEX
8
OBJECT__1
10
11.306000
20
-2.026000
30
47.702999
70
192
0
VERTEX
8
OBJECT__1
10
11.306000
20
5.754000
30
47.372002
70
192
0
VERTEX
8
OBJECT__1
10
10.664000
20
6.204000
30
48.451000
70
192
0
VERTEX
8
OBJECT__1
10
10.664000
20
14.304000
30
46.706001
70
192
0
VERTEX
8
OBJECT__1
10
11.306000
20
6.065000
30
47.359001
70
192
0
VERTEX
8
OBJECT__1
10
10.664000
20
21.990999
30
43.617001
70
192
0
VERTEX
8
OBJECT__1
10
11.306000
20
16.870001
30
44.492001
70
192
0
VERTEX
8
OBJECT__1
10
11.306000
20
13.981000
30
45.653000
70
192
0
VERTEX
8
OBJECT__1
10
11.306000
20
21.495001
30
42.632999
70
192
0
VERTEX
8
OBJECT__1
10
11.306000
20
27.066999
30
39.202999
70
192
0
VERTEX
8
OBJECT__1
10
10.664000
20
29.046000
30
39.272999
70
192
0
VERTEX
8
OBJECT__1
10
10.664000
20
35.264999
30
33.799000
70
192
0
VERTEX
8
OBJECT__1
10
11.306000
20
28.391001
30
38.387001
70
192
0
VERTEX
8
OBJECT__1
10
10.664000
20
40.470001
30
27.353001
70
192
0
VERTEX
8
OBJECT__1
10
11.306000
20
35.643002
30
31.584999
70
192
0
VERTEX
8
OBJECT__1
10
11.306000
20
34.470001
30
33.036999
70
192
0
VERTEX
8
OBJECT__1
10
11.306000
20
39.557999
30
26.736000
70
192
0
VERTEX
8
OBJECT__1
10
11.306000
20
42.140999
30
22.113001
70
192
0
VERTEX
8
OBJECT__1
10
10.664000
20
44.511002
30
20.120001
70
192
0
VERTEX
8
OBJECT__1
10
10.664000
20
47.271000
30
12.308000
70
192
0
VERTEX
8
OBJECT__1
10
11.306000
20
43.507000
30
19.666000
70
192
0
VERTEX
8
OBJECT__1
10
10.664000
20
48.671001
30
4.143000
70
192
0
VERTEX
8
OBJECT__1
10
11.306000
20
46.310001
30
11.418000
70
192
0
VERTEX
8
OBJECT__1
10
11.306000
20
46.205002
30
12.031000
70
192
0
VERTEX
8
OBJECT__1
10
10.664000
20
48.671001
30
-4.143000
70
192
0
VERTEX
8
OBJECT__1
10
11.306000
20
47.745998
30
0.000000
70
192
0
VERTEX
8
OBJECT__1
10
11.306000
20
47.574001
30
4.049000
70
192
0
VERTEX
8
OBJECT__1
10
11.306000
20
47.574001
30
-4.049000
70
192
0
VERTEX
8
OBJECT__1
10
11.306000
20
46.310001
30
-11.418000
70
192
0
VERTEX
8
OBJECT__1
10
10.664000
20
47.271000
30
-12.308000
70
192
0
VERTEX
8
OBJECT__1
10
11.306000
20
46.205002
30
-12.031000
70
192
0
VERTEX
8
OBJECT__1
10
11.306000
20
43.507000
30
-19.666000
70
192
0
VERTEX
8
OBJECT__1
10
10.664000
20
40.470001
30
-27.353001
70
192
0
VERTEX
8
OBJECT__1
10
10.664000
20
44.511002
30
-20.120001
70
192
0
VERTEX
8
OBJECT__1
10
11.306000
20
42.140999
30
-22.113001
70
192
0
VERTEX
8
OBJECT__1
10
11.306000
20
39.557999
30
-26.736000
70
192
0
VERTEX
8
OBJECT__1
10
11.306000
20
35.643002
30
-31.584999
70
192
0
VERTEX
8
OBJECT__1
10
10.664000
20
35.264999
30
-33.799000
70
192
0
VERTEX
8
OBJECT__1
10
11.306000
20
34.470001
30
-33.036999
70
192
0
VERTEX
8
OBJECT__1
10
11.306000
20
28.391001
30
-38.387001
70
192
0
VERTEX
8
OBJECT__1
10
10.664000
20
21.990999
30
-43.617001
70
192
0
VERTEX
8
OBJECT__1
10
10.664000
20
29.046000
30
-39.272999
70
192
0
VERTEX
8
OBJECT__1
10
11.306000
20
27.066999
30
-39.202999
70
192
0
VERTEX
8
OBJECT__1
10
11.306000
20
21.495001
30
-42.632999
70
192
0
VERTEX
8
OBJECT__1
10
11.306000
20
16.870001
30
-44.492001
70
192
0
VERTEX
8
OBJECT__1
10
10.664000
20
14.304000
30
-46.706001
70
192
0
VERTEX
8
OBJECT__1
10
10.664000
20
6.204000
30
-48.451000
70
192
0
VERTEX
8
OBJECT__1
10
11.306000
20
13.981000
30
-45.653000
70
192
0
VERTEX
8
OBJECT__1
10
10.664000
20
-2.073000
30
-48.803001
70
192
0
VERTEX
8
OBJECT__1
10
11.306000
20
5.754000
30
-47.372002
70
192
0
VERTEX
8
OBJECT__1
10
11.306000
20
6.065000
30
-47.359001
70
192
0
VERTEX
8
OBJECT__1
10
10.664000
20
-10.291000
30
-47.750999
70
192
0
VERTEX
8
OBJECT__1
10
11.306000
20
-5.733000
30
-47.228001
70
192
0
VERTEX
8
OBJECT__1
10
11.306000
20
-2.026000
30
-47.702999
70
192
0
VERTEX
8
OBJECT__1
10
11.306000
20
-10.059000
30
-46.674000
70
192
0
VERTEX
8
OBJECT__1
10
11.306000
20
-16.910000
30
-44.576000
70
192
0
VERTEX
8
OBJECT__1
10
10.664000
20
-18.212999
30
-45.325001
70
192
0
VERTEX
8
OBJECT__1
10
11.306000
20
-17.802000
30
-44.303001
70
192
0
VERTEX
8
OBJECT__1
10
11.306000
20
-25.033001
30
-40.657001
70
192
0
VERTEX
8
OBJECT__1
10
10.664000
20
-32.271999
30
-36.667999
70
192
0
VERTEX
8
OBJECT__1
10
10.664000
20
-25.611000
30
-41.595001
70
192
0
VERTEX
8
OBJECT__1
10
11.306000
20
-27.035000
30
-39.175999
70
192
0
VERTEX
8
OBJECT__1
10
11.306000
20
-31.544001
30
-35.841000
70
192
0
VERTEX
8
OBJECT__1
10
11.306000
20
-35.639999
30
-31.568001
70
192
0
VERTEX
8
OBJECT__1
10
10.664000
20
-38.005001
30
-30.687000
70
192
0
VERTEX
8
OBJECT__1
10
11.306000
20
-37.147999
30
-29.995001
70
192
0
VERTEX
8
OBJECT__1
10
11.306000
20
-41.682999
30
-23.285000
70
192
0
VERTEX
8
OBJECT__1
10
10.664000
20
-46.056999
30
-16.273001
70
192
0
VERTEX
8
OBJECT__1
10
10.664000
20
-42.644001
30
-23.822001
70
192
0
VERTEX
8
OBJECT__1
10
11.306000
20
-42.195000
30
-22.152000
70
192
0
VERTEX
8
OBJECT__1
10
11.306000
20
-45.018002
30
-15.906000
70
192
0
VERTEX
8
OBJECT__1
10
11.306000
20
-46.195999
30
-11.384000
70
192
0
VERTEX
8
OBJECT__1
10
10.664000
20
-48.144001
30
-8.255000
70
192
0
VERTEX
8
OBJECT__1
10
11.306000
20
-47.058998
30
-8.069000
70
192
0
VERTEX
8
OBJECT__1
10
9.487000
20
-49.337002
30
0.000000
70
192
0
VERTEX
8
OBJECT__1
10
9.487000
20
-46.518002
30
16.436001
70
192
0
VERTEX
8
OBJECT__1
10
9.487000
20
-47.846001
30
11.336000
70
192
0
VERTEX
8
OBJECT__1
10
9.487000
20
-43.964001
30
22.086000
70
192
0
VERTEX
8
OBJECT__1
10
9.487000
20
-43.071999
30
24.061001
70
192
0
VERTEX
8
OBJECT__1
10
9.487000
20
-32.595001
30
37.035999
70
192
0
VERTEX
8
OBJECT__1
10
9.487000
20
-37.743000
30
31.664000
70
192
0
VERTEX
8
OBJECT__1
10
9.487000
20
-25.868000
30
42.012001
70
192
0
VERTEX
8
OBJECT__1
10
9.487000
20
-29.356001
30
39.431000
70
192
0
VERTEX
8
OBJECT__1
10
9.487000
20
-19.500999
30
45.222000
70
192
0
VERTEX
8
OBJECT__1
10
9.487000
20
-18.395000
30
45.778999
70
192
0
VERTEX
8
OBJECT__1
10
9.487000
20
-10.394000
30
48.229000
70
192
0
VERTEX
8
OBJECT__1
10
9.487000
20
-2.094000
30
49.292000
70
192
0
VERTEX
8
OBJECT__1
10
9.487000
20
-8.552000
30
48.465000
70
192
0
VERTEX
8
OBJECT__1
10
9.487000
20
2.861000
30
49.082001
70
192
0
VERTEX
8
OBJECT__1
10
9.487000
20
6.267000
30
48.937000
70
192
0
VERTEX
8
OBJECT__1
10
9.487000
20
14.145000
30
47.238998
70
192
0
VERTEX
8
OBJECT__1
10
9.487000
20
14.447000
30
47.174000
70
192
0
VERTEX
8
OBJECT__1
10
9.487000
20
29.337000
30
39.666000
70
192
0
VERTEX
8
OBJECT__1
10
9.487000
20
24.584999
30
42.591999
70
192
0
VERTEX
8
OBJECT__1
10
9.487000
20
33.758999
30
35.775002
70
192
0
VERTEX
8
OBJECT__1
10
9.487000
20
35.618999
30
34.138000
70
192
0
VERTEX
8
OBJECT__1
10
9.487000
20
44.957001
30
20.322001
70
192
0
VERTEX
8
OBJECT__1
10
9.487000
20
41.178001
30
27.087000
70
192
0
VERTEX
8
OBJECT__1
10
9.487000
20
47.744999
30
12.432000
70
192
0
VERTEX
8
OBJECT__1
10
9.487000
20
46.195999
30
16.816000
70
192
0
VERTEX
8
OBJECT__1
10
9.487000
20
48.896999
30
5.710000
70
192
0
VERTEX
8
OBJECT__1
10
9.487000
20
49.159000
30
4.184000
70
192
0
VERTEX
8
OBJECT__1
10
9.487000
20
49.159000
30
-4.184000
70
192
0
VERTEX
8
OBJECT__1
10
9.487000
20
49.337002
30
0.000000
70
192
0
VERTEX
8
OBJECT__1
10
9.487000
20
47.744999
30
-12.432000
70
192
0
VERTEX
8
OBJECT__1
10
9.487000
20
48.896999
30
-5.710000
70
192
0
VERTEX
8
OBJECT__1
10
9.487000
20
46.195999
30
-16.816000
70
192
0
VERTEX
8
OBJECT__1
10
9.487000
20
44.957001
30
-20.322001
70
192
0
VERTEX
8
OBJECT__1
10
9.487000
20
41.178001
30
-27.087000
70
192
0
VERTEX
8
OBJECT__1
10
9.487000
20
40.875999
30
-27.627001
70
192
0
VERTEX
8
OBJECT__1
10
9.487000
20
29.337000
30
-39.666000
70
192
0
VERTEX
8
OBJECT__1
10
9.487000
20
33.758999
30
-35.775002
70
192
0
VERTEX
8
OBJECT__1
10
9.487000
20
24.584999
30
-42.591999
70
192
0
VERTEX
8
OBJECT__1
10
9.487000
20
22.212000
30
-44.054001
70
192
0
VERTEX
8
OBJECT__1
10
9.487000
20
6.267000
30
-48.937000
70
192
0
VERTEX
8
OBJECT__1
10
9.487000
20
14.145000
30
-47.238998
70
192
0
VERTEX
8
OBJECT__1
10
9.487000
20
-2.094000
30
-49.292000
70
192
0
VERTEX
8
OBJECT__1
10
9.487000
20
2.861000
30
-49.082001
70
192
0
VERTEX
8
OBJECT__1
10
9.487000
20
-8.552000
30
-48.465000
70
192
0
VERTEX
8
OBJECT__1
10
9.487000
20
-10.394000
30
-48.229000
70
192
0
VERTEX
8
OBJECT__1
10
9.487000
20
-25.868000
30
-42.012001
70
192
0
VERTEX
8
OBJECT__1
10
9.487000
20
-19.500999
30
-45.222000
70
192
0
VERTEX
8
OBJECT__1
10
9.487000
20
-29.356001
30
-39.431000
70
192
0
VERTEX
8
OBJECT__1
10
9.487000
20
-32.595001
30
-37.035999
70
192
0
VERTEX
8
OBJECT__1
10
9.487000
20
-37.743000
30
-31.664000
70
192
0
VERTEX
8
OBJECT__1
10
9.487000
20
-38.386002
30
-30.993999
70
192
0
VERTEX
8
OBJECT__1
10
9.487000
20
-43.071999
30
-24.061001
70
192
0
VERTEX
8
OBJECT__1
10
9.487000
20
-46.518002
30
-16.436001
70
192
0
VERTEX
8
OBJECT__1
10
9.487000
20
-43.964001
30
-22.086000
70
192
0
VERTEX
8
OBJECT__1
10
9.487000
20
-47.846001
30
-11.336000
70
192
0
VERTEX
8
OBJECT__1
10
9.487000
20
-48.626999
30
-8.338000
70
192
0
VERTEX
8
OBJECT__1
10
9.487000
20
-18.395000
30
-45.778999
70
192
0
VERTEX
8
OBJECT__1
10
9.487000
20
14.447000
30
-47.174000
70
192
0
VERTEX
8
OBJECT__1
10
9.487000
20
35.618999
30
-34.138000
70
192
0
VERTEX
8
OBJECT__1
10
9.487000
20
40.875999
30
27.627001
70
192
0
VERTEX
8
OBJECT__1
10
9.487000
20
22.212000
30
44.054001
70
192
0
VERTEX
8
OBJECT__1
10
9.487000
20
-38.386002
30
30.993999
70
192
0
VERTEX
8
OBJECT__1
10
9.487000
20
-48.626999
30
8.338000
70
192
0
VERTEX
8
OBJECT__1
10
0
20
0
30
0
70
128
71
1
72
2
73
3
0
VERTEX
8
OBJECT__1
10
0
20
0
30
0
70
128
71
4
72
1
73
5
0
VERTEX
8
OBJECT__1
10
0
20
0
30
0
70
128
71
1
72
6
73
5
0
VERTEX
8
OBJECT__1
10
0
20
0
30
0
70
128
71
4
72
7
73
8
0
VERTEX
8
OBJECT__1
10
0
20
0
30
0
70
128
71
8
72
9
73
4
0
VERTEX
8
OBJECT__1
10
0
20
0
30
0
70
128
71
10
72
9
73
11
0
VERTEX
8
OBJECT__1
10
0
20
0
30
0
70
128
71
12
72
10
73
13
0
VERTEX
8
OBJECT__1
10
0
20
0
30
0
70
128
71
10
72
14
73
13
0
VERTEX
8
OBJECT__1
10
0
20
0
30
0
70
128
71
12
72
15
73
16
0
VERTEX
8
OBJECT__1
10
0
20
0
30
0
70
128
71
16
72
17
73
12
0
VERTEX
8
OBJECT__1
10
0
20
0
30
0
70
128
71
18
72
17
73
19
0
VERTEX
8
OBJECT__1
10
0
20
0
30
0
70
128
71
20
72
18
73
21
0
VERTEX
8
OBJECT__1
10
0
20
0
30
0
70
128
71
18
72
22
73
21
0
VERTEX
8
OBJECT__1
10
0
20
0
30
0
70
128
71
20
72
23
73
24
0
VERTEX
8
OBJECT__1
10
0
20
0
30
0
70
128
71
24
72
25
73
20
0
VERTEX
8
OBJECT__1
10
0
20
0
30
0
70
128
71
25
72
26
73
27
0
VERTEX
8
OBJECT__1
10
0
20
0
30
0
70
128
71
27
72
28
73
25
0
VERTEX
8
OBJECT__1
10
0
20
0
30
0
70
128
71
29
72
28
73
30
0
VERTEX
8
OBJECT__1
10
0
20
0
30
0
70
128
71
31
72
29
73
32
0
VERTEX
8
OBJECT__1
10
0
20
0
30
0
70
128
71
29
72
33
73
32
0
VERTEX
8
OBJECT__1
10
0
20
0
30
0
70
128
71
31
72
34
73
35
0
VERTEX
8
OBJECT__1
10
0
20
0
30
0
70
128
71
35
72
36
73
31
0
VERTEX
8
OBJECT__1
10
0
20
0
30
0
70
128
71
37
72
36
73
38
0
VERTEX
8
OBJECT__1
10
0
20
0
30
0
70
128
71
39
72
37
73
40
0
VERTEX
8
OBJECT__1
10
0
20
0
30
0
70
128
71
37
72
41
73
40
0
VERTEX
8
OBJECT__1
10
0
20
0
30
0
70
128
71
39
72
42
73
43
0
VERTEX
8
OBJECT__1
10
0
20
0
30
0
70
128
71
43
72
44
73
39
0
VERTEX
8
OBJECT__1
10
0
20
0
30
0
70
128
71
45
72
44
73
46
0
VERTEX
8
OBJECT__1
10
0
20
0
30
0
70
128
71
47
72
45
73
48
0
VERTEX
8
OBJECT__1
10
0
20
0
30
0
70
128
71
45
72
49
73
48
0
VERTEX
8
OBJECT__1
10
0
20
0
30
0
70
128
71
50
72
47
73
51
0
VERTEX
8
OBJECT__1
10
0
20
0
30
0
70
128
71
47
72
52
73
51
0
VERTEX
8
OBJECT__1
10
0
20
0
30
0
70
128
71
50
72
53
73
54
0
VERTEX
8
OBJECT__1
10
0
20
0
30
0
70
128
71
54
72
55
73
50
0
VERTEX
8
OBJECT__1
10
0
20
0
30
0
70
128
71
55
72
56
73
57
0
VERTEX
8
OBJECT__1
10
0
20
0
30
0
70
128
71
58
72
59
73
60
0
VERTEX
8
OBJECT__1
10
0
20
0
30
0
70
128
71
59
72
57
73
60
0
VERTEX
8
OBJECT__1
10
0
20
0
30
0
70
128
71
58
72
61
73
62
0
VERTEX
8
OBJECT__1
10
0
20
0
30
0
70
128
71
62
72
63
73
58
0
VERTEX
8
OBJECT__1
10
0
20
0
30
0
70
128
71
63
72
64
73
65
0
VERTEX
8
OBJECT__1
10
0
20
0
30
0
70
128
71
66
72
67
73
68
0
VERTEX
8
OBJECT__1
10
0
20
0
30
0
70
128
71
67
72
65
73
68
0
VERTEX
8
OBJECT__1
10
0
20
0
30
0
70
128
71
66
72
69
73
70
0
VERTEX
8
OBJECT__1
10
0
20
0
30
0
70
128
71
70
72
71
73
66
0
VERTEX
8
OBJECT__1
10
0
20
0
30
0
70
128
71
72
72
71
73
73
0
VERTEX
8
OBJECT__1
10
0
20
0
30
0
70
128
71
74
72
72
73
75
0
VERTEX
8
OBJECT__1
10
0
20
0
30
0
70
128
71
72
72
76
73
75
0
VERTEX
8
OBJECT__1
10
0
20
0
30
0
70
128
71
77
72
74
73
78
0
VERTEX
8
OBJECT__1
10
0
20
0
30
0
70
128
71
74
72
79
73
78
0
VERTEX
8
OBJECT__1
10
0
20
0
30
0
70
128
71
77
72
80
73
81
0
VERTEX
8
OBJECT__1
10
0
20
0
30
0
70
128
71
81
72
82
73
77
0
VERTEX
8
OBJECT__1
10
0
20
0
30
0
70
128
71
82
72
83
73
84
0
VERTEX
8
OBJECT__1
10
0
20
0
30
0
70
128
71
85
72
86
73
87
0
VERTEX
8
OBJECT__1
10
0
20
0
30
0
70
128
71
86
72
84
73
87
0
VERTEX
8
OBJECT__1
10
0
20
0
30
0
70
128
71
85
72
88
73
89
0
VERTEX
8
OBJECT__1
10
0
20
0
30
0
70
128
71
89
72
90
73
85
0
VERTEX
8
OBJECT__1
10
0
20
0
30
0
70
128
71
90
72
91
73
92
0
VERTEX
8
OBJECT__1
10
0
20
0
30
0
70
128
71
93
72
94
73
95
0
VERTEX
8
OBJECT__1
10
0
20
0
30
0
70
128
71
94
72
92
73
95
0
VERTEX
8
OBJECT__1
10
0
20
0
30
0
70
128
71
93
72
96
73
97
0
VERTEX
8
OBJECT__1
10
0
20
0
30
0
70
128
71
97
72
98
73
93
0
VERTEX
8
OBJECT__1
10
0
20
0
30
0
70
128
71
98
72
99
73
3
0
VERTEX
8
OBJECT__1
10
0
20
0
30
0
70
128
71
100
72
2
73
1
0
VERTEX
8
OBJECT__1
10
0
20
0
30
0
70
128
71
4
72
101
73
102
0
VERTEX
8
OBJECT__1
10
0
20
0
30
0
70
128
71
102
72
1
73
4
0
VERTEX
8
OBJECT__1
10
0
20
0
30
0
70
128
71
4
72
9
73
103
0
VERTEX
8
OBJECT__1
10
0
20
0
30
0
70
128
71
9
72
104
73
103
0
VERTEX
8
OBJECT__1
10
0
20
0
30
0
70
128
71
104
72
9
73
10
0
VERTEX
8
OBJECT__1
10
0
20
0
30
0
70
128
71
12
72
105
73
106
0
VERTEX
8
OBJECT__1
10
0
20
0
30
0
70
128
71
106
72
10
73
12
0
VERTEX
8
OBJECT__1
10
0
20
0
30
0
70
128
71
17
72
107
73
108
0
VERTEX
8
OBJECT__1
10
0
20
0
30
0
70
128
71
108
72
12
73
17
0
VERTEX
8
OBJECT__1
10
0
20
0
30
0
70
128
71
17
72
18
73
109
0
VERTEX
8
OBJECT__1
10
0
20
0
30
0
70
128
71
18
72
110
73
109
0
VERTEX
8
OBJECT__1
10
0
20
0
30
0
70
128
71
111
72
110
73
18
0
VERTEX
8
OBJECT__1
10
0
20
0
30
0
70
128
71
25
72
112
73
113
0
VERTEX
8
OBJECT__1
10
0
20
0
30
0
70
128
71
113
72
20
73
25
0
VERTEX
8
OBJECT__1
10
0
20
0
30
0
70
128
71
25
72
28
73
114
0
VERTEX
8
OBJECT__1
10
0
20
0
30
0
70
128
71
28
72
115
73
114
0
VERTEX
8
OBJECT__1
10
0
20
0
30
0
70
128
71
28
72
29
73
116
0
VERTEX
8
OBJECT__1
10
0
20
0
30
0
70
128
71
29
72
117
73
116
0
VERTEX
8
OBJECT__1
10
0
20
0
30
0
70
128
71
117
72
29
73
31
0
VERTEX
8
OBJECT__1
10
0
20
0
30
0
70
128
71
36
72
118
73
119
0
VERTEX
8
OBJECT__1
10
0
20
0
30
0
70
128
71
119
72
31
73
36
0
VERTEX
8
OBJECT__1
10
0
20
0
30
0
70
128
71
36
72
37
73
120
0
VERTEX
8
OBJECT__1
10
0
20
0
30
0
70
128
71
37
72
121
73
120
0
VERTEX
8
OBJECT__1
10
0
20
0
30
0
70
128
71
121
72
37
73
39
0
VERTEX
8
OBJECT__1
10
0
20
0
30
0
70
128
71
44
72
122
73
123
0
VERTEX
8
OBJECT__1
10
0
20
0
30
0
70
128
71
123
72
39
73
44
0
VERTEX
8
OBJECT__1
10
0
20
0
30
0
70
128
71
45
72
124
73
125
0
VERTEX
8
OBJECT__1
10
0
20
0
30
0
70
128
71
125
72
44
73
45
0
VERTEX
8
OBJECT__1
10
0
20
0
30
0
70
128
71
45
72
47
73
126
0
VERTEX
8
OBJECT__1
10
0
20
0
30
0
70
128
71
47
72
127
73
126
0
VERTEX
8
OBJECT__1
10
0
20
0
30
0
70
128
71
50
72
128
73
129
0
VERTEX
8
OBJECT__1
10
0
20
0
30
0
70
128
71
129
72
47
73
50
0
VERTEX
8
OBJECT__1
10
0
20
0
30
0
70
128
71
55
72
130
73
131
0
VERTEX
8
OBJECT__1
10
0
20
0
30
0
70
128
71
131
72
50
73
55
0
VERTEX
8
OBJECT__1
10
0
20
0
30
0
70
128
71
55
72
59
73
132
0
VERTEX
8
OBJECT__1
10
0
20
0
30
0
70
128
71
59
72
133
73
132
0
VERTEX
8
OBJECT__1
10
0
20
0
30
0
70
128
71
59
72
58
73
134
0
VERTEX
8
OBJECT__1
10
0
20
0
30
0
70
128
71
58
72
135
73
134
0
VERTEX
8
OBJECT__1
10
0
20
0
30
0
70
128
71
135
72
58
73
63
0
VERTEX
8
OBJECT__1
10
0
20
0
30
0
70
128
71
67
72
136
73
137
0
VERTEX
8
OBJECT__1
10
0
20
0
30
0
70
128
71
137
72
63
73
67
0
VERTEX
8
OBJECT__1
10
0
20
0
30
0
70
128
71
67
72
66
73
138
0
VERTEX
8
OBJECT__1
10
0
20
0
30
0
70
128
71
66
72
139
73
138
0
VERTEX
8
OBJECT__1
10
0
20
0
30
0
70
128
71
139
72
66
73
71
0
VERTEX
8
OBJECT__1
10
0
20
0
30
0
70
128
71
72
72
140
73
141
0
VERTEX
8
OBJECT__1
10
0
20
0
30
0
70
128
71
141
72
71
73
72
0
VERTEX
8
OBJECT__1
10
0
20
0
30
0
70
128
71
74
72
142
73
143
0
VERTEX
8
OBJECT__1
10
0
20
0
30
0
70
128
71
143
72
72
73
74
0
VERTEX
8
OBJECT__1
10
0
20
0
30
0
70
128
71
74
72
77
73
144
0
VERTEX
8
OBJECT__1
10
0
20
0
30
0
70
128
71
77
72
145
73
144
0
VERTEX
8
OBJECT__1
10
0
20
0
30
0
70
128
71
145
72
77
73
82
0
VERTEX
8
OBJECT__1
10
0
20
0
30
0
70
128
71
86
72
146
73
147
0
VERTEX
8
OBJECT__1
10
0
20
0
30
0
70
128
71
147
72
82
73
86
0
VERTEX
8
OBJECT__1
10
0
20
0
30
0
70
128
71
86
72
85
73
148
0
VERTEX
8
OBJECT__1
10
0
20
0
30
0
70
128
71
85
72
149
73
148
0
VERTEX
8
OBJECT__1
10
0
20
0
30
0
70
128
71
85
72
90
73
150
0
VERTEX
8
OBJECT__1
10
0
20
0
30
0
70
128
71
90
72
151
73
150
0
VERTEX
8
OBJECT__1
10
0
20
0
30
0
70
128
71
152
72
151
73
90
0
VERTEX
8
OBJECT__1
10
0
20
0
30
0
70
128
71
93
72
153
73
154
0
VERTEX
8
OBJECT__1
10
0
20
0
30
0
70
128
71
154
72
94
73
93
0
VERTEX
8
OBJECT__1
10
0
20
0
30
0
70
128
71
93
72
98
73
155
0
VERTEX
8
OBJECT__1
10
0
20
0
30
0
70
128
71
98
72
156
73
155
0
VERTEX
8
OBJECT__1
10
0
20
0
30
0
70
128
71
156
72
98
73
2
0
VERTEX
8
OBJECT__1
10
0
20
0
30
0
70
128
71
2
72
100
73
156
0
VERTEX
8
OBJECT__1
10
0
20
0
30
0
70
128
71
155
72
153
73
93
0
VERTEX
8
OBJECT__1
10
0
20
0
30
0
70
128
71
154
72
152
73
94
0
VERTEX
8
OBJECT__1
10
0
20
0
30
0
70
128
71
90
72
94
73
152
0
VERTEX
8
OBJECT__1
10
0
20
0
30
0
70
128
71
150
72
149
73
85
0
VERTEX
8
OBJECT__1
10
0
20
0
30
0
70
128
71
148
72
146
73
86
0
VERTEX
8
OBJECT__1
10
0
20
0
30
0
70
128
71
147
72
157
73
82
0
VERTEX
8
OBJECT__1
10
0
20
0
30
0
70
128
71
82
72
157
73
145
0
VERTEX
8
OBJECT__1
10
0
20
0
30
0
70
128
71
144
72
142
73
74
0
VERTEX
8
OBJECT__1
10
0
20
0
30
0
70
128
71
143
72
140
73
72
0
VERTEX
8
OBJECT__1
10
0
20
0
30
0
70
128
71
141
72
158
73
71
0
VERTEX
8
OBJECT__1
10
0
20
0
30
0
70
128
71
71
72
158
73
139
0
VERTEX
8
OBJECT__1
10
0
20
0
30
0
70
128
71
138
72
136
73
67
0
VERTEX
8
OBJECT__1
10
0
20
0
30
0
70
128
71
137
72
159
73
63
0
VERTEX
8
OBJECT__1
10
0
20
0
30
0
70
128
71
63
72
159
73
135
0
VERTEX
8
OBJECT__1
10
0
20
0
30
0
70
128
71
134
72
133
73
59
0
VERTEX
8
OBJECT__1
10
0
20
0
30
0
70
128
71
132
72
130
73
55
0
VERTEX
8
OBJECT__1
10
0
20
0
30
0
70
128
71
131
72
128
73
50
0
VERTEX
8
OBJECT__1
10
0
20
0
30
0
70
128
71
129
72
127
73
47
0
VERTEX
8
OBJECT__1
10
0
20
0
30
0
70
128
71
126
72
124
73
45
0
VERTEX
8
OBJECT__1
10
0
20
0
30
0
70
128
71
125
72
122
73
44
0
VERTEX
8
OBJECT__1
10
0
20
0
30
0
70
128
71
123
72
160
73
39
0
VERTEX
8
OBJECT__1
10
0
20
0
30
0
70
128
71
39
72
160
73
121
0
VERTEX
8
OBJECT__1
10
0
20
0
30
0
70
128
71
120
72
118
73
36
0
VERTEX
8
OBJECT__1
10
0
20
0
30
0
70
128
71
119
72
161
73
31
0
VERTEX
8
OBJECT__1
10
0
20
0
30
0
70
128
71
31
72
161
73
117
0
VERTEX
8
OBJECT__1
10
0
20
0
30
0
70
128
71
116
72
115
73
28
0
VERTEX
8
OBJECT__1
10
0
20
0
30
0
70
128
71
114
72
112
73
25
0
VERTEX
8
OBJECT__1
10
0
20
0
30
0
70
128
71
113
72
111
73
20
0
VERTEX
8
OBJECT__1
10
0
20
0
30
0
70
128
71
18
72
20
73
111
0
VERTEX
8
OBJECT__1
10
0
20
0
30
0
70
128
71
109
72
107
73
17
0
VERTEX
8
OBJECT__1
10
0
20
0
30
0
70
128
71
108
72
105
73
12
0
VERTEX
8
OBJECT__1
10
0
20
0
30
0
70
128
71
106
72
162
73
10
0
VERTEX
8
OBJECT__1
10
0
20
0
30
0
70
128
71
10
72
162
73
104
0
VERTEX
8
OBJECT__1
10
0
20
0
30
0
70
128
71
103
72
101
73
4
0
VERTEX
8
OBJECT__1
10
0
20
0
30
0
70
128
71
102
72
163
73
1
0
VERTEX
8
OBJECT__1
10
0
20
0
30
0
70
128
71
1
72
163
73
100
0
VERTEX
8
OBJECT__1
10
0
20
0
30
0
70
128
71
3
72
2
73
98
0
VERTEX
8
OBJECT__1
10
0
20
0
30
0
70
128
71
97
72
99
73
98
0
VERTEX
8
OBJECT__1
10
0
20
0
30
0
70
128
71
95
72
96
73
93
0
VERTEX
8
OBJECT__1
10
0
20
0
30
0
70
128
71
92
72
94
73
90
0
VERTEX
8
OBJECT__1
10
0
20
0
30
0
70
128
71
89
72
91
73
90
0
VERTEX
8
OBJECT__1
10
0
20
0
30
0
70
128
71
87
72
88
73
85
0
VERTEX
8
OBJECT__1
10
0
20
0
30
0
70
128
71
84
72
86
73
82
0
VERTEX
8
OBJECT__1
10
0
20
0
30
0
70
128
71
81
72
83
73
82
0
VERTEX
8
OBJECT__1
10
0
20
0
30
0
70
128
71
78
72
80
73
77
0
VERTEX
8
OBJECT__1
10
0
20
0
30
0
70
128
71
75
72
79
73
74
0
VERTEX
8
OBJECT__1
10
0
20
0
30
0
70
128
71
73
72
76
73
72
0
VERTEX
8
OBJECT__1
10
0
20
0
30
0
70
128
71
70
72
73
73
71
0
VERTEX
8
OBJECT__1
10
0
20
0
30
0
70
128
71
68
72
69
73
66
0
VERTEX
8
OBJECT__1
10
0
20
0
30
0
70
128
71
65
72
67
73
63
0
VERTEX
8
OBJECT__1
10
0
20
0
30
0
70
128
71
62
72
64
73
63
0
VERTEX
8
OBJECT__1
10
0
20
0
30
0
70
128
71
60
72
61
73
58
0
VERTEX
8
OBJECT__1
10
0
20
0
30
0
70
128
71
57
72
59
73
55
0
VERTEX
8
OBJECT__1
10
0
20
0
30
0
70
128
71
54
72
56
73
55
0
VERTEX
8
OBJECT__1
10
0
20
0
30
0
70
128
71
51
72
53
73
50
0
VERTEX
8
OBJECT__1
10
0
20
0
30
0
70
128
71
48
72
52
73
47
0
VERTEX
8
OBJECT__1
10
0
20
0
30
0
70
128
71
46
72
49
73
45
0
VERTEX
8
OBJECT__1
10
0
20
0
30
0
70
128
71
43
72
46
73
44
0
VERTEX
8
OBJECT__1
10
0
20
0
30
0
70
128
71
40
72
42
73
39
0
VERTEX
8
OBJECT__1
10
0
20
0
30
0
70
128
71
38
72
41
73
37
0
VERTEX
8
OBJECT__1
10
0
20
0
30
0
70
128
71
35
72
38
73
36
0
VERTEX
8
OBJECT__1
10
0
20
0
30
0
70
128
71
32
72
34
73
31
0
VERTEX
8
OBJECT__1
10
0
20
0
30
0
70
128
71
30
72
33
73
29
0
VERTEX
8
OBJECT__1
10
0
20
0
30
0
70
128
71
27
72
30
73
28
0
VERTEX
8
OBJECT__1
10
0
20
0
30
0
70
128
71
24
72
26
73
25
0
VERTEX
8
OBJECT__1
10
0
20
0
30
0
70
128
71
21
72
23
73
20
0
VERTEX
8
OBJECT__1
10
0
20
0
30
0
70
128
71
19
72
22
73
18
0
VERTEX
8
OBJECT__1
10
0
20
0
30
0
70
128
71
16
72
19
73
17
0
VERTEX
8
OBJECT__1
10
0
20
0
30
0
70
128
71
13
72
15
73
12
0
VERTEX
8
OBJECT__1
10
0
20
0
30
0
70
128
71
11
72
14
73
10
0
VERTEX
8
OBJECT__1
10
0
20
0
30
0
70
128
71
8
72
11
73
9
0
VERTEX
8
OBJECT__1
10
0
20
0
30
0
70
128
71
5
72
7
73
4
0
VERTEX
8
OBJECT__1
10
0
20
0
30
0
70
128
71
3
72
6
73
1
0
SEQEND
8
OBJECT__1
0
POLYLINE
8
OBJECT__3
66
1
70
64
71
92
72
92
62
253
0
VERTEX
8
OBJECT__3
10
0.000000
20
-50.000000
30
0.000000
70
192
0
VERTEX
8
OBJECT__3
10
9.487000
20
-49.337002
30
0.000000
70
192
0
VERTEX
8
OBJECT__3
10
9.487000
20
-48.626999
30
8.338000
70
192
0
VERTEX
8
OBJECT__3
10
0.000000
20
-48.652000
30
11.531000
70
192
0
VERTEX
8
OBJECT__3
10
0.000000
20
-44.681999
30
22.440001
70
192
0
VERTEX
8
OBJECT__3
10
9.487000
20
-46.518002
30
16.436001
70
192
0
VERTEX
8
OBJECT__3
10
9.487000
20
-47.846001
30
11.336000
70
192
0
VERTEX
8
OBJECT__3
10
0.000000
20
-38.301998
30
32.139000
70
192
0
VERTEX
8
OBJECT__3
10
9.487000
20
-43.071999
30
24.061001
70
192
0
VERTEX
8
OBJECT__3
10
9.487000
20
-43.964001
30
22.086000
70
192
0
VERTEX
8
OBJECT__3
10
9.487000
20
-38.386002
30
30.993999
70
192
0
VERTEX
8
OBJECT__3
10
9.487000
20
-37.743000
30
31.664000
70
192
0
VERTEX
8
OBJECT__3
10
9.487000
20
-32.595001
30
37.035999
70
192
0
VERTEX
8
OBJECT__3
10
0.000000
20
-29.858000
30
40.105999
70
192
0
VERTEX
8
OBJECT__3
10
0.000000
20
-19.804001
30
45.910999
70
192
0
VERTEX
8
OBJECT__3
10
9.487000
20
-25.868000
30
42.012001
70
192
0
VERTEX
8
OBJECT__3
10
9.487000
20
-29.356001
30
39.431000
70
192
0
VERTEX
8
OBJECT__3
10
9.487000
20
-18.395000
30
45.778999
70
192
0
VERTEX
8
OBJECT__3
10
9.487000
20
-10.394000
30
48.229000
70
192
0
VERTEX
8
OBJECT__3
10
0.000000
20
-8.682000
30
49.240002
70
192
0
VERTEX
8
OBJECT__3
10
9.487000
20
-19.500999
30
45.222000
70
192
0
VERTEX
8
OBJECT__3
10
9.487000
20
-8.552000
30
48.465000
70
192
0
VERTEX
8
OBJECT__3
10
9.487000
20
-2.094000
30
49.292000
70
192
0
VERTEX
8
OBJECT__3
10
0.000000
20
2.907000
30
49.915001
70
192
0
VERTEX
8
OBJECT__3
10
0.000000
20
14.340000
30
47.898998
70
192
0
VERTEX
8
OBJECT__3
10
9.487000
20
6.267000
30
48.937000
70
192
0
VERTEX
8
OBJECT__3
10
9.487000
20
2.861000
30
49.082001
70
192
0
VERTEX
8
OBJECT__3
10
9.487000
20
14.447000
30
47.174000
70
192
0
VERTEX
8
OBJECT__3
10
9.487000
20
22.212000
30
44.054001
70
192
0
VERTEX
8
OBJECT__3
10
0.000000
20
25.000000
30
43.300999
70
192
0
VERTEX
8
OBJECT__3
10
9.487000
20
14.145000
30
47.238998
70
192
0
VERTEX
8
OBJECT__3
10
0.000000
20
34.312000
30
36.368999
70
192
0
VERTEX
8
OBJECT__3
10
9.487000
20
29.337000
30
39.666000
70
192
0
VERTEX
8
OBJECT__3
10
9.487000
20
24.584999
30
42.591999
70
192
0
VERTEX
8
OBJECT__3
10
0.000000
20
41.773998
30
27.475000
70
192
0
VERTEX
8
OBJECT__3
10
9.487000
20
35.618999
30
34.138000
70
192
0
VERTEX
8
OBJECT__3
10
9.487000
20
33.758999
30
35.775002
70
192
0
VERTEX
8
OBJECT__3
10
9.487000
20
40.875999
30
27.627001
70
192
0
VERTEX
8
OBJECT__3
10
9.487000
20
41.178001
30
27.087000
70
192
0
VERTEX
8
OBJECT__3
10
9.487000
20
44.957001
30
20.322001
70
192
0
VERTEX
8
OBJECT__3
10
0.000000
20
46.985001
30
17.101000
70
192
0
VERTEX
8
OBJECT__3
10
0.000000
20
49.661999
30
5.805000
70
192
0
VERTEX
8
OBJECT__3
10
9.487000
20
47.744999
30
12.432000
70
192
0
VERTEX
8
OBJECT__3
10
9.487000
20
46.195999
30
16.816000
70
192
0
VERTEX
8
OBJECT__3
10
0.000000
20
50.000000
30
0.000000
70
192
0
VERTEX
8
OBJECT__3
10
9.487000
20
49.337002
30
0.000000
70
192
0
VERTEX
8
OBJECT__3
10
9.487000
20
49.159000
30
-4.184000
70
192
0
VERTEX
8
OBJECT__3
10
9.487000
20
49.159000
30
4.184000
70
192
0
VERTEX
8
OBJECT__3
10
0.000000
20
49.661999
30
-5.805000
70
192
0
VERTEX
8
OBJECT__3
10
9.487000
20
48.896999
30
5.710000
70
192
0
VERTEX
8
OBJECT__3
10
9.487000
20
48.896999
30
-5.710000
70
192
0
VERTEX
8
OBJECT__3
10
9.487000
20
47.744999
30
-12.432000
70
192
0
VERTEX
8
OBJECT__3
10
0.000000
20
46.985001
30
-17.101000
70
192
0
VERTEX
8
OBJECT__3
10
0.000000
20
41.773998
30
-27.475000
70
192
0
VERTEX
8
OBJECT__3
10
9.487000
20
44.957001
30
-20.322001
70
192
0
VERTEX
8
OBJECT__3
10
9.487000
20
46.195999
30
-16.816000
70
192
0
VERTEX
8
OBJECT__3
10
9.487000
20
40.875999
30
-27.627001
70
192
0
VERTEX
8
OBJECT__3
10
9.487000
20
35.618999
30
-34.138000
70
192
0
VERTEX
8
OBJECT__3
10
0.000000
20
34.312000
30
-36.368999
70
192
0
VERTEX
8
OBJECT__3
10
9.487000
20
41.178001
30
-27.087000
70
192
0
VERTEX
8
OBJECT__3
10
9.487000
20
33.758999
30
-35.775002
70
192
0
VERTEX
8
OBJECT__3
10
9.487000
20
29.337000
30
-39.666000
70
192
0
VERTEX
8
OBJECT__3
10
0.000000
20
25.000000
30
-43.300999
70
192
0
VERTEX
8
OBJECT__3
10
0.000000
20
14.340000
30
-47.898998
70
192
0
VERTEX
8
OBJECT__3
10
9.487000
20
22.212000
30
-44.054001
70
192
0
VERTEX
8
OBJECT__3
10
9.487000
20
24.584999
30
-42.591999
70
192
0
VERTEX
8
OBJECT__3
10
9.487000
20
14.447000
30
-47.174000
70
192
0
VERTEX
8
OBJECT__3
10
9.487000
20
14.145000
30
-47.238998
70
192
0
VERTEX
8
OBJECT__3
10
9.487000
20
6.267000
30
-48.937000
70
192
0
VERTEX
8
OBJECT__3
10
0.000000
20
2.907000
30
-49.915001
70
192
0
VERTEX
8
OBJECT__3
10
0.000000
20
-8.682000
30
-49.240002
70
192
0
VERTEX
8
OBJECT__3
10
9.487000
20
-2.094000
30
-49.292000
70
192
0
VERTEX
8
OBJECT__3
10
9.487000
20
2.861000
30
-49.082001
70
192
0
VERTEX
8
OBJECT__3
10
0.000000
20
-19.804001
30
-45.910999
70
192
0
VERTEX
8
OBJECT__3
10
9.487000
20
-10.394000
30
-48.229000
70
192
0
VERTEX
8
OBJECT__3
10
9.487000
20
-8.552000
30
-48.465000
70
192
0
VERTEX
8
OBJECT__3
10
9.487000
20
-18.395000
30
-45.778999
70
192
0
VERTEX
8
OBJECT__3
10
9.487000
20
-19.500999
30
-45.222000
70
192
0
VERTEX
8
OBJECT__3
10
9.487000
20
-25.868000
30
-42.012001
70
192
0
VERTEX
8
OBJECT__3
10
0.000000
20
-29.858000
30
-40.105999
70
192
0
VERTEX
8
OBJECT__3
10
0.000000
20
-38.301998
30
-32.139000
70
192
0
VERTEX
8
OBJECT__3
10
9.487000
20
-32.595001
30
-37.035999
70
192
0
VERTEX
8
OBJECT__3
10
9.487000
20
-29.356001
30
-39.431000
70
192
0
VERTEX
8
OBJECT__3
10
9.487000
20
-38.386002
30
-30.993999
70
192
0
VERTEX
8
OBJECT__3
10
9.487000
20
-43.071999
30
-24.061001
70
192
0
VERTEX
8
OBJECT__3
10
0.000000
20
-44.681999
30
-22.440001
70
192
0
VERTEX
8
OBJECT__3
10
9.487000
20
-37.743000
30
-31.664000
70
192
0
VERTEX
8
OBJECT__3
10
9.487000
20
-43.964001
30
-22.086000
70
192
0
VERTEX
8
OBJECT__3
10
9.487000
20
-46.518002
30
-16.436001
70
192
0
VERTEX
8
OBJECT__3
10
0.000000
20
-48.652000
30
-11.531000
70
192
0
VERTEX
8
OBJECT__3
10
9.487000
20
-48.626999
30
-8.338000
70
192
0
VERTEX
8
OBJECT__3
10
9.487000
20
-47.846001
30
-11.336000
70
192
0
VERTEX
8
OBJECT__3
10
0
20
0
30
0
70
128
71
1
72
2
73
3
0
VERTEX
8
OBJECT__3
10
0
20
0
30
0
70
128
71
3
72
4
73
1
0
VERTEX
8
OBJECT__3
10
0
20
0
30
0
70
128
71
5
72
4
73
6
0
VERTEX
8
OBJECT__3
10
0
20
0
30
0
70
128
71
4
72
7
73
6
0
VERTEX
8
OBJECT__3
10
0
20
0
30
0
70
128
71
8
72
5
73
9
0
VERTEX
8
OBJECT__3
10
0
20
0
30
0
70
128
71
5
72
10
73
9
0
VERTEX
8
OBJECT__3
10
0
20
0
30
0
70
128
71
9
72
11
73
8
0
VERTEX
8
OBJECT__3
10
0
20
0
30
0
70
128
71
8
72
12
73
13
0
VERTEX
8
OBJECT__3
10
0
20
0
30
0
70
128
71
13
72
14
73
8
0
VERTEX
8
OBJECT__3
10
0
20
0
30
0
70
128
71
15
72
14
73
16
0
VERTEX
8
OBJECT__3
10
0
20
0
30
0
70
128
71
14
72
17
73
16
0
VERTEX
8
OBJECT__3
10
0
20
0
30
0
70
128
71
15
72
18
73
19
0
VERTEX
8
OBJECT__3
10
0
20
0
30
0
70
128
71
19
72
20
73
15
0
VERTEX
8
OBJECT__3
10
0
20
0
30
0
70
128
71
15
72
21
73
18
0
VERTEX
8
OBJECT__3
10
0
20
0
30
0
70
128
71
20
72
22
73
23
0
VERTEX
8
OBJECT__3
10
0
20
0
30
0
70
128
71
23
72
24
73
20
0
VERTEX
8
OBJECT__3
10
0
20
0
30
0
70
128
71
25
72
24
73
26
0
VERTEX
8
OBJECT__3
10
0
20
0
30
0
70
128
71
24
72
27
73
26
0
VERTEX
8
OBJECT__3
10
0
20
0
30
0
70
128
71
25
72
28
73
29
0
VERTEX
8
OBJECT__3
10
0
20
0
30
0
70
128
71
29
72
30
73
25
0
VERTEX
8
OBJECT__3
10
0
20
0
30
0
70
128
71
25
72
31
73
28
0
VERTEX
8
OBJECT__3
10
0
20
0
30
0
70
128
71
32
72
30
73
33
0
VERTEX
8
OBJECT__3
10
0
20
0
30
0
70
128
71
30
72
34
73
33
0
VERTEX
8
OBJECT__3
10
0
20
0
30
0
70
128
71
35
72
32
73
36
0
VERTEX
8
OBJECT__3
10
0
20
0
30
0
70
128
71
32
72
37
73
36
0
VERTEX
8
OBJECT__3
10
0
20
0
30
0
70
128
71
36
72
38
73
35
0
VERTEX
8
OBJECT__3
10
0
20
0
30
0
70
128
71
35
72
39
73
40
0
VERTEX
8
OBJECT__3
10
0
20
0
30
0
70
128
71
40
72
41
73
35
0
VERTEX
8
OBJECT__3
10
0
20
0
30
0
70
128
71
42
72
41
73
43
0
VERTEX
8
OBJECT__3
10
0
20
0
30
0
70
128
71
41
72
44
73
43
0
VERTEX
8
OBJECT__3
10
0
20
0
30
0
70
128
71
45
72
46
73
47
0
VERTEX
8
OBJECT__3
10
0
20
0
30
0
70
128
71
45
72
42
73
48
0
VERTEX
8
OBJECT__3
10
0
20
0
30
0
70
128
71
48
72
46
73
45
0
VERTEX
8
OBJECT__3
10
0
20
0
30
0
70
128
71
47
72
49
73
45
0
VERTEX
8
OBJECT__3
10
0
20
0
30
0
70
128
71
42
72
50
73
48
0
VERTEX
8
OBJECT__3
10
0
20
0
30
0
70
128
71
49
72
51
73
52
0
VERTEX
8
OBJECT__3
10
0
20
0
30
0
70
128
71
52
72
53
73
49
0
VERTEX
8
OBJECT__3
10
0
20
0
30
0
70
128
71
54
72
53
73
55
0
VERTEX
8
OBJECT__3
10
0
20
0
30
0
70
128
71
53
72
56
73
55
0
VERTEX
8
OBJECT__3
10
0
20
0
30
0
70
128
71
54
72
57
73
58
0
VERTEX
8
OBJECT__3
10
0
20
0
30
0
70
128
71
58
72
59
73
54
0
VERTEX
8
OBJECT__3
10
0
20
0
30
0
70
128
71
54
72
60
73
57
0
VERTEX
8
OBJECT__3
10
0
20
0
30
0
70
128
71
59
72
61
73
62
0
VERTEX
8
OBJECT__3
10
0
20
0
30
0
70
128
71
62
72
63
73
59
0
VERTEX
8
OBJECT__3
10
0
20
0
30
0
70
128
71
64
72
63
73
65
0
VERTEX
8
OBJECT__3
10
0
20
0
30
0
70
128
71
63
72
66
73
65
0
VERTEX
8
OBJECT__3
10
0
20
0
30
0
70
128
71
65
72
67
73
64
0
VERTEX
8
OBJECT__3
10
0
20
0
30
0
70
128
71
64
72
68
73
69
0
VERTEX
8
OBJECT__3
10
0
20
0
30
0
70
128
71
69
72
70
73
64
0
VERTEX
8
OBJECT__3
10
0
20
0
30
0
70
128
71
71
72
70
73
72
0
VERTEX
8
OBJECT__3
10
0
20
0
30
0
70
128
71
70
72
73
73
72
0
VERTEX
8
OBJECT__3
10
0
20
0
30
0
70
128
71
74
72
71
73
75
0
VERTEX
8
OBJECT__3
10
0
20
0
30
0
70
128
71
71
72
76
73
75
0
VERTEX
8
OBJECT__3
10
0
20
0
30
0
70
128
71
75
72
77
73
74
0
VERTEX
8
OBJECT__3
10
0
20
0
30
0
70
128
71
74
72
78
73
79
0
VERTEX
8
OBJECT__3
10
0
20
0
30
0
70
128
71
79
72
80
73
74
0
VERTEX
8
OBJECT__3
10
0
20
0
30
0
70
128
71
81
72
80
73
82
0
VERTEX
8
OBJECT__3
10
0
20
0
30
0
70
128
71
80
72
83
73
82
0
VERTEX
8
OBJECT__3
10
0
20
0
30
0
70
128
71
81
72
84
73
85
0
VERTEX
8
OBJECT__3
10
0
20
0
30
0
70
128
71
85
72
86
73
81
0
VERTEX
8
OBJECT__3
10
0
20
0
30
0
70
128
71
81
72
87
73
84
0
VERTEX
8
OBJECT__3
10
0
20
0
30
0
70
128
71
86
72
88
73
89
0
VERTEX
8
OBJECT__3
10
0
20
0
30
0
70
128
71
89
72
90
73
86
0
VERTEX
8
OBJECT__3
10
0
20
0
30
0
70
128
71
1
72
90
73
91
0
VERTEX
8
OBJECT__3
10
0
20
0
30
0
70
128
71
90
72
92
73
91
0
VERTEX
8
OBJECT__3
10
0
20
0
30
0
70
128
71
91
72
2
73
1
0
VERTEX
8
OBJECT__3
10
0
20
0
30
0
70
128
71
89
72
92
73
90
0
VERTEX
8
OBJECT__3
10
0
20
0
30
0
70
128
71
85
72
88
73
86
0
VERTEX
8
OBJECT__3
10
0
20
0
30
0
70
128
71
82
72
87
73
81
0
VERTEX
8
OBJECT__3
10
0
20
0
30
0
70
128
71
79
72
83
73
80
0
VERTEX
8
OBJECT__3
10
0
20
0
30
0
70
128
71
77
72
78
73
74
0
VERTEX
8
OBJECT__3
10
0
20
0
30
0
70
128
71
72
72
76
73
71
0
VERTEX
8
OBJECT__3
10
0
20
0
30
0
70
128
71
69
72
73
73
70
0
VERTEX
8
OBJECT__3
10
0
20
0
30
0
70
128
71
67
72
68
73
64
0
VERTEX
8
OBJECT__3
10
0
20
0
30
0
70
128
71
62
72
66
73
63
0
VERTEX
8
OBJECT__3
10
0
20
0
30
0
70
128
71
58
72
61
73
59
0
VERTEX
8
OBJECT__3
10
0
20
0
30
0
70
128
71
55
72
60
73
54
0
VERTEX
8
OBJECT__3
10
0
20
0
30
0
70
128
71
52
72
56
73
53
0
VERTEX
8
OBJECT__3
10
0
20
0
30
0
70
128
71
47
72
51
73
49
0
VERTEX
8
OBJECT__3
10
0
20
0
30
0
70
128
71
43
72
50
73
42
0
VERTEX
8
OBJECT__3
10
0
20
0
30
0
70
128
71
40
72
44
73
41
0
VERTEX
8
OBJECT__3
10
0
20
0
30
0
70
128
71
38
72
39
73
35
0
VERTEX
8
OBJECT__3
10
0
20
0
30
0
70
128
71
33
72
37
73
32
0
VERTEX
8
OBJECT__3
10
0
20
0
30
0
70
128
71
29
72
34
73
30
0
VERTEX
8
OBJECT__3
10
0
20
0
30
0
70
128
71
26
72
31
73
25
0
VERTEX
8
OBJECT__3
10
0
20
0
30
0
70
128
71
23
72
27
73
24
0
VERTEX
8
OBJECT__3
10
0
20
0
30
0
70
128
71
19
72
22
73
20
0
VERTEX
8
OBJECT__3
10
0
20
0
30
0
70
128
71
16
72
21
73
15
0
VERTEX
8
OBJECT__3
10
0
20
0
30
0
70
128
71
13
72
17
73
14
0
VERTEX
8
OBJECT__3
10
0
20
0
30
0
70
128
71
11
72
12
73
8
0
VERTEX
8
OBJECT__3
10
0
20
0
30
0
70
128
71
6
72
10
73
5
0
VERTEX
8
OBJECT__3
10
0
20
0
30
0
70
128
71
3
72
7
73
4
0
SEQEND
8
OBJECT__3
0
POLYLINE
8
OBJECT__4
66
1
70
64
71
28
72
26
62
253
0
VERTEX
8
OBJECT__4
10
0.000000
20
-50.000000
30
0.000000
70
192
0
VERTEX
8
OBJECT__4
10
0.000000
20
-38.301998
30
-32.139000
70
192
0
VERTEX
8
OBJECT__4
10
0.000000
20
-44.681999
30
-22.440001
70
192
0
VERTEX
8
OBJECT__4
10
0.000000
20
-29.858000
30
-40.105999
70
192
0
VERTEX
8
OBJECT__4
10
0.000000
20
2.907000
30
-49.915001
70
192
0
VERTEX
8
OBJECT__4
10
0.000000
20
-8.682000
30
-49.240002
70
192
0
VERTEX
8
OBJECT__4
10
0.000000
20
25.000000
30
-43.300999
70
192
0
VERTEX
8
OBJECT__4
10
0.000000
20
14.340000
30
-47.898998
70
192
0
VERTEX
8
OBJECT__4
10
0.000000
20
25.000000
30
43.300999
70
192
0
VERTEX
8
OBJECT__4
10
0.000000
20
41.773998
30
27.475000
70
192
0
VERTEX
8
OBJECT__4
10
0.000000
20
46.985001
30
17.101000
70
192
0
VERTEX
8
OBJECT__4
10
0.000000
20
49.661999
30
5.805000
70
192
0
VERTEX
8
OBJECT__4
10
0.000000
20
2.907000
30
49.915001
70
192
0
VERTEX
8
OBJECT__4
10
0.000000
20
14.340000
30
47.898998
70
192
0
VERTEX
8
OBJECT__4
10
0.000000
20
-19.804001
30
-45.910999
70
192
0
VERTEX
8
OBJECT__4
10
0.000000
20
34.312000
30
36.368999
70
192
0
VERTEX
8
OBJECT__4
10
0.000000
20
-8.682000
30
49.240002
70
192
0
VERTEX
8
OBJECT__4
10
0.000000
20
-48.652000
30
11.531000
70
192
0
VERTEX
8
OBJECT__4
10
0.000000
20
-44.681999
30
22.440001
70
192
0
VERTEX
8
OBJECT__4
10
0.000000
20
46.985001
30
-17.101000
70
192
0
VERTEX
8
OBJECT__4
10
0.000000
20
41.773998
30
-27.475000
70
192
0
VERTEX
8
OBJECT__4
10
0.000000
20
-29.858000
30
40.105999
70
192
0
VERTEX
8
OBJECT__4
10
0.000000
20
-19.804001
30
45.910999
70
192
0
VERTEX
8
OBJECT__4
10
0.000000
20
-38.301998
30
32.139000
70
192
0
VERTEX
8
OBJECT__4
10
0.000000
20
34.312000
30
-36.368999
70
192
0
VERTEX
8
OBJECT__4
10
0.000000
20
49.661999
30
-5.805000
70
192
0
VERTEX
8
OBJECT__4
10
0.000000
20
50.000000
30
0.000000
70
192
0
VERTEX
8
OBJECT__4
10
0.000000
20
-48.652000
30
-11.531000
70
192
0
VERTEX
8
OBJECT__4
10
0
20
0
30
0
70
128
71
1
72
2
73
3
0
VERTEX
8
OBJECT__4
10
0
20
0
30
0
70
128
71
1
72
4
73
2
0
VERTEX
8
OBJECT__4
10
0
20
0
30
0
70
128
71
1
72
5
73
6
0
VERTEX
8
OBJECT__4
10
0
20
0
30
0
70
128
71
1
72
7
73
8
0
VERTEX
8
OBJECT__4
10
0
20
0
30
0
70
128
71
9
72
10
73
11
0
VERTEX
8
OBJECT__4
10
0
20
0
30
0
70
128
71
12
72
13
73
14
0
VERTEX
8
OBJECT__4
10
0
20
0
30
0
70
128
71
1
72
15
73
4
0
VERTEX
8
OBJECT__4
10
0
20
0
30
0
70
128
71
8
72
5
73
1
0
VERTEX
8
OBJECT__4
10
0
20
0
30
0
70
128
71
9
72
16
73
10
0
VERTEX
8
OBJECT__4
10
0
20
0
30
0
70
128
71
12
72
17
73
13
0
VERTEX
8
OBJECT__4
10
0
20
0
30
0
70
128
71
12
72
18
73
19
0
VERTEX
8
OBJECT__4
10
0
20
0
30
0
70
128
71
6
72
15
73
1
0
VERTEX
8
OBJECT__4
10
0
20
0
30
0
70
128
71
1
72
20
73
21
0
VERTEX
8
OBJECT__4
10
0
20
0
30
0
70
128
71
14
72
9
73
12
0
VERTEX
8
OBJECT__4
10
0
20
0
30
0
70
128
71
12
72
22
73
23
0
VERTEX
8
OBJECT__4
10
0
20
0
30
0
70
128
71
19
72
24
73
12
0
VERTEX
8
OBJECT__4
10
0
20
0
30
0
70
128
71
1
72
25
73
7
0
VERTEX
8
OBJECT__4
10
0
20
0
30
0
70
128
71
1
72
26
73
20
0
VERTEX
8
OBJECT__4
10
0
20
0
30
0
70
128
71
23
72
17
73
12
0
VERTEX
8
OBJECT__4
10
0
20
0
30
0
70
128
71
12
72
1
73
18
0
VERTEX
8
OBJECT__4
10
0
20
0
30
0
70
128
71
21
72
25
73
1
0
VERTEX
8
OBJECT__4
10
0
20
0
30
0
70
128
71
24
72
22
73
12
0
VERTEX
8
OBJECT__4
10
0
20
0
30
0
70
128
71
1
72
27
73
26
0
VERTEX
8
OBJECT__4
10
0
20
0
30
0
70
128
71
11
72
12
73
9
0
VERTEX
8
OBJECT__4
10
0
20
0
30
0
70
128
71
12
72
27
73
1
0
VERTEX
8
OBJECT__4
10
0
20
0
30
0
70
128
71
3
72
28
73
1
0
SEQEND
8
OBJECT__4
0
POLYLINE
8
OBJECT__5
66
1
70
64
71
12
72
10
62
253
0
VERTEX
8
OBJECT__5
10
100.500000
20
7.715000
30
-13.923000
70
192
0
VERTEX
8
OBJECT__5
10
102.757004
20
7.562000
30
-13.646000
70
192
0
VERTEX
8
OBJECT__5
10
102.757004
20
3.830000
30
-15.114000
70
192
0
VERTEX
8
OBJECT__5
10
100.500000
20
3.907000
30
-15.421000
70
192
0
VERTEX
8
OBJECT__5
10
102.757004
20
3.558000
30
-15.147000
70
192
0
VERTEX
8
OBJECT__5
10
101.628998
20
-0.020000
30
-15.748000
70
192
0
VERTEX
8
OBJECT__5
10
102.757004
20
-0.081000
30
-15.589000
70
192
0
VERTEX
8
OBJECT__5
10
101.628998
20
10.828000
30
-11.471000
70
192
0
VERTEX
8
OBJECT__5
10
102.757004
20
10.748000
30
-11.329000
70
192
0
VERTEX
8
OBJECT__5
10
102.757004
20
7.635000
30
-13.593000
70
192
0
VERTEX
8
OBJECT__5
10
100.500000
20
10.908000
30
-11.613000
70
192
0
VERTEX
8
OBJECT__5
10
100.500000
20
0.041000
30
-15.905000
70
192
0
VERTEX
8
OBJECT__5
10
0
20
0
30
0
70
128
71
1
72
2
73
3
0
VERTEX
8
OBJECT__5
10
0
20
0
30
0
70
128
71
4
72
5
73
6
0
VERTEX
8
OBJECT__5
10
0
20
0
30
0
70
128
71
5
72
7
73
6
0
VERTEX
8
OBJECT__5
10
0
20
0
30
0
70
128
71
4
72
3
73
5
0
VERTEX
8
OBJECT__5
10
0
20
0
30
0
70
128
71
8
72
9
73
10
0
VERTEX
8
OBJECT__5
10
0
20
0
30
0
70
128
71
1
72
11
73
8
0
VERTEX
8
OBJECT__5
10
0
20
0
30
0
70
128
71
8
72
2
73
1
0
VERTEX
8
OBJECT__5
10
0
20
0
30
0
70
128
71
10
72
2
73
8
0
VERTEX
8
OBJECT__5
10
0
20
0
30
0
70
128
71
6
72
12
73
4
0
VERTEX
8
OBJECT__5
10
0
20
0
30
0
70
128
71
3
72
4
73
1
0
SEQEND
8
OBJECT__5
0
POLYLINE
8
OBJECT__6
66
1
70
64
71
23
72
23
62
253
0
VERTEX
8
OBJECT__6
10
103.823997
20
7.398000
30
-13.164000
70
192
0
VERTEX
8
OBJECT__6
10
103.823997
20
3.448000
30
-14.691000
70
192
0
VERTEX
8
OBJECT__6
10
102.757004
20
3.830000
30
-15.114000
70
192
0
VERTEX
8
OBJECT__6
10
102.757004
20
7.562000
30
-13.646000
70
192
0
VERTEX
8
OBJECT__6
10
102.757004
20
3.558000
30
-15.147000
70
192
0
VERTEX
8
OBJECT__6
10
104.422997
20
6.903000
30
-12.278000
70
192
0
VERTEX
8
OBJECT__6
10
104.422997
20
4.338000
30
-13.270000
70
192
0
VERTEX
8
OBJECT__6
10
104.422997
20
3.218000
30
-13.703000
70
192
0
VERTEX
8
OBJECT__6
10
104.147003
20
-0.414000
30
-14.705000
70
192
0
VERTEX
8
OBJECT__6
10
103.804001
20
-0.279000
30
-15.066000
70
192
0
VERTEX
8
OBJECT__6
10
104.422997
20
-0.007000
30
-14.000000
70
192
0
VERTEX
8
OBJECT__6
10
104.422997
20
-0.648000
30
-14.058000
70
192
0
VERTEX
8
OBJECT__6
10
103.653000
20
-0.220000
30
-15.225000
70
192
0
VERTEX
8
OBJECT__6
10
103.030998
20
-0.104000
30
-15.530000
70
192
0
VERTEX
8
OBJECT__6
10
102.757004
20
7.635000
30
-13.593000
70
192
0
VERTEX
8
OBJECT__6
10
102.757004
20
10.748000
30
-11.329000
70
192
0
VERTEX
8
OBJECT__6
10
103.384003
20
10.649000
30
-11.151000
70
192
0
VERTEX
8
OBJECT__6
10
104.281998
20
10.196000
30
-10.311000
70
192
0
VERTEX
8
OBJECT__6
10
104.422997
20
10.003000
30
-9.941000
70
192
0
VERTEX
8
OBJECT__6
10
104.422997
20
8.252000
30
-11.262000
70
192
0
VERTEX
8
OBJECT__6
10
103.908997
20
10.458000
30
-10.801000
70
192
0
VERTEX
8
OBJECT__6
10
103.814003
20
10.492000
30
-10.863000
70
192
0
VERTEX
8
OBJECT__6
10
102.757004
20
-0.081000
30
-15.589000
70
192
0
VERTEX
8
OBJECT__6
10
0
20
0
30
0
70
128
71
1
72
2
73
3
0
VERTEX
8
OBJECT__6
10
0
20
0
30
0
70
128
71
3
72
4
73
1
0
VERTEX
8
OBJECT__6
10
0
20
0
30
0
70
128
71
2
72
5
73
3
0
VERTEX
8
OBJECT__6
10
0
20
0
30
0
70
128
71
1
72
6
73
7
0
VERTEX
8
OBJECT__6
10
0
20
0
30
0
70
128
71
7
72
2
73
1
0
VERTEX
8
OBJECT__6
10
0
20
0
30
0
70
128
71
8
72
9
73
10
0
VERTEX
8
OBJECT__6
10
0
20
0
30
0
70
128
71
9
72
8
73
11
0
VERTEX
8
OBJECT__6
10
0
20
0
30
0
70
128
71
11
72
12
73
9
0
VERTEX
8
OBJECT__6
10
0
20
0
30
0
70
128
71
2
72
13
73
14
0
VERTEX
8
OBJECT__6
10
0
20
0
30
0
70
128
71
14
72
5
73
2
0
VERTEX
8
OBJECT__6
10
0
20
0
30
0
70
128
71
2
72
10
73
13
0
VERTEX
8
OBJECT__6
10
0
20
0
30
0
70
128
71
15
72
16
73
17
0
VERTEX
8
OBJECT__6
10
0
20
0
30
0
70
128
71
17
72
1
73
15
0
VERTEX
8
OBJECT__6
10
0
20
0
30
0
70
128
71
18
72
19
73
20
0
VERTEX
8
OBJECT__6
10
0
20
0
30
0
70
128
71
6
72
1
73
21
0
VERTEX
8
OBJECT__6
10
0
20
0
30
0
70
128
71
21
72
18
73
6
0
VERTEX
8
OBJECT__6
10
0
20
0
30
0
70
128
71
1
72
22
73
21
0
VERTEX
8
OBJECT__6
10
0
20
0
30
0
70
128
71
20
72
6
73
18
0
VERTEX
8
OBJECT__6
10
0
20
0
30
0
70
128
71
17
72
22
73
1
0
VERTEX
8
OBJECT__6
10
0
20
0
30
0
70
128
71
14
72
23
73
5
0
VERTEX
8
OBJECT__6
10
0
20
0
30
0
70
128
71
10
72
2
73
8
0
VERTEX
8
OBJECT__6
10
0
20
0
30
0
70
128
71
7
72
8
73
2
0
VERTEX
8
OBJECT__6
10
0
20
0
30
0
70
128
71
4
72
15
73
1
0
SEQEND
8
OBJECT__6
0
POLYLINE
8
OBJECT__8
66
1
70
64
71
28
72
26
62
253
0
VERTEX
8
OBJECT__8
10
100.500000
20
5.144000
30
4.478000
70
192
0
VERTEX
8
OBJECT__8
10
105.484001
20
4.808000
30
6.974000
70
192
0
VERTEX
8
OBJECT__8
10
105.650002
20
4.979000
30
5.487000
70
192
0
VERTEX
8
OBJECT__8
10
100.500000
20
4.400000
30
13.100000
70
192
0
VERTEX
8
OBJECT__8
10
104.528000
20
4.400000
30
13.100000
70
192
0
VERTEX
8
OBJECT__8
10
105.233002
20
4.548000
30
9.236000
70
192
0
VERTEX
8
OBJECT__8
10
105.672997
20
5.087000
30
4.922000
70
192
0
VERTEX
8
OBJECT__8
10
100.500000
20
7.361000
30
-3.888000
70
192
0
VERTEX
8
OBJECT__8
10
105.643997
20
6.824000
30
-2.234000
70
192
0
VERTEX
8
OBJECT__8
10
105.599998
20
7.068000
30
-3.051000
70
192
0
VERTEX
8
OBJECT__8
10
105.768997
20
6.139000
30
0.060000
70
192
0
VERTEX
8
OBJECT__8
10
105.671997
20
6.669000
30
-1.716000
70
192
0
VERTEX
8
OBJECT__8
10
105.794998
20
5.660000
30
1.947000
70
192
0
VERTEX
8
OBJECT__8
10
105.803001
20
5.698000
30
1.750000
70
192
0
VERTEX
8
OBJECT__8
10
105.795998
20
5.990000
30
0.557000
70
192
0
VERTEX
8
OBJECT__8
10
105.691002
20
5.172000
30
4.483000
70
192
0
VERTEX
8
OBJECT__8
10
105.708000
20
5.253000
30
4.061000
70
192
0
VERTEX
8
OBJECT__8
10
103.814003
20
10.492000
30
-10.863000
70
192
0
VERTEX
8
OBJECT__8
10
103.384003
20
10.649000
30
-11.151000
70
192
0
VERTEX
8
OBJECT__8
10
102.757004
20
10.748000
30
-11.329000
70
192
0
VERTEX
8
OBJECT__8
10
101.628998
20
10.828000
30
-11.471000
70
192
0
VERTEX
8
OBJECT__8
10
104.281998
20
10.196000
30
-10.311000
70
192
0
VERTEX
8
OBJECT__8
10
103.908997
20
10.458000
30
-10.801000
70
192
0
VERTEX
8
OBJECT__8
10
104.422997
20
10.003000
30
-9.941000
70
192
0
VERTEX
8
OBJECT__8
10
105.142998
20
8.407000
30
-6.553000
70
192
0
VERTEX
8
OBJECT__8
10
105.221001
20
8.177000
30
-5.952000
70
192
0
VERTEX
8
OBJECT__8
10
105.491997
20
7.385000
30
-3.879000
70
192
0
VERTEX
8
OBJECT__8
10
100.500000
20
10.908000
30
-11.613000
70
192
0
VERTEX
8
OBJECT__8
10
0
20
0
30
0
70
128
71
1
72
2
73
3
0
VERTEX
8
OBJECT__8
10
0
20
0
30
0
70
128
71
4
72
5
73
6
0
VERTEX
8
OBJECT__8
10
0
20
0
30
0
70
128
71
6
72
1
73
4
0
VERTEX
8
OBJECT__8
10
0
20
0
30
0
70
128
71
6
72
2
73
1
0
VERTEX
8
OBJECT__8
10
0
20
0
30
0
70
128
71
3
72
7
73
1
0
VERTEX
8
OBJECT__8
10
0
20
0
30
0
70
128
71
8
72
9
73
10
0
VERTEX
8
OBJECT__8
10
0
20
0
30
0
70
128
71
8
72
1
73
11
0
VERTEX
8
OBJECT__8
10
0
20
0
30
0
70
128
71
11
72
12
73
8
0
VERTEX
8
OBJECT__8
10
0
20
0
30
0
70
128
71
12
72
9
73
8
0
VERTEX
8
OBJECT__8
10
0
20
0
30
0
70
128
71
1
72
13
73
14
0
VERTEX
8
OBJECT__8
10
0
20
0
30
0
70
128
71
14
72
15
73
1
0
VERTEX
8
OBJECT__8
10
0
20
0
30
0
70
128
71
15
72
11
73
1
0
VERTEX
8
OBJECT__8
10
0
20
0
30
0
70
128
71
1
72
16
73
17
0
VERTEX
8
OBJECT__8
10
0
20
0
30
0
70
128
71
17
72
13
73
1
0
VERTEX
8
OBJECT__8
10
0
20
0
30
0
70
128
71
8
72
18
73
19
0
VERTEX
8
OBJECT__8
10
0
20
0
30
0
70
128
71
19
72
20
73
8
0
VERTEX
8
OBJECT__8
10
0
20
0
30
0
70
128
71
20
72
21
73
8
0
VERTEX
8
OBJECT__8
10
0
20
0
30
0
70
128
71
8
72
22
73
23
0
VERTEX
8
OBJECT__8
10
0
20
0
30
0
70
128
71
8
72
24
73
22
0
VERTEX
8
OBJECT__8
10
0
20
0
30
0
70
128
71
8
72
25
73
24
0
VERTEX
8
OBJECT__8
10
0
20
0
30
0
70
128
71
8
72
26
73
25
0
VERTEX
8
OBJECT__8
10
0
20
0
30
0
70
128
71
8
72
27
73
26
0
VERTEX
8
OBJECT__8
10
0
20
0
30
0
70
128
71
23
72
18
73
8
0
VERTEX
8
OBJECT__8
10
0
20
0
30
0
70
128
71
21
72
28
73
8
0
VERTEX
8
OBJECT__8
10
0
20
0
30
0
70
128
71
10
72
27
73
8
0
VERTEX
8
OBJECT__8
10
0
20
0
30
0
70
128
71
7
72
16
73
1
0
SEQEND
8
OBJECT__8
0
POLYLINE
8
OBJECT__9
66
1
70
64
71
29
72
27
62
253
0
VERTEX
8
OBJECT__9
10
100.500000
20
-3.267000
30
-4.386000
70
192
0
VERTEX
8
OBJECT__9
10
105.668999
20
-2.854000
30
-6.313000
70
192
0
VERTEX
8
OBJECT__9
10
105.781998
20
-3.167000
30
-4.724000
70
192
0
VERTEX
8
OBJECT__9
10
105.535004
20
-2.542000
30
-7.727000
70
192
0
VERTEX
8
OBJECT__9
10
105.535004
20
-2.544000
30
-7.721000
70
192
0
VERTEX
8
OBJECT__9
10
105.624001
20
-2.732000
30
-6.931000
70
192
0
VERTEX
8
OBJECT__9
10
103.804001
20
-0.279000
30
-15.066000
70
192
0
VERTEX
8
OBJECT__9
10
104.147003
20
-0.414000
30
-14.705000
70
192
0
VERTEX
8
OBJECT__9
10
104.422997
20
-0.648000
30
-14.058000
70
192
0
VERTEX
8
OBJECT__9
10
104.910004
20
-1.415000
30
-11.767000
70
192
0
VERTEX
8
OBJECT__9
10
103.030998
20
-0.104000
30
-15.530000
70
192
0
VERTEX
8
OBJECT__9
10
103.653000
20
-0.220000
30
-15.225000
70
192
0
VERTEX
8
OBJECT__9
10
102.757004
20
-0.081000
30
-15.589000
70
192
0
VERTEX
8
OBJECT__9
10
101.628998
20
-0.020000
30
-15.748000
70
192
0
VERTEX
8
OBJECT__9
10
100.500000
20
0.041000
30
-15.905000
70
192
0
VERTEX
8
OBJECT__9
10
100.500000
20
-4.400000
30
7.690000
70
192
0
VERTEX
8
OBJECT__9
10
105.861000
20
-4.243000
30
3.222000
70
192
0
VERTEX
8
OBJECT__9
10
105.850998
20
-4.262000
30
3.459000
70
192
0
VERTEX
8
OBJECT__9
10
105.660004
20
-4.329000
30
5.518000
70
192
0
VERTEX
8
OBJECT__9
10
105.570999
20
-4.360000
30
6.469000
70
192
0
VERTEX
8
OBJECT__9
10
105.939003
20
-4.097000
30
1.439000
70
192
0
VERTEX
8
OBJECT__9
10
105.956001
20
-3.948000
30
0.115000
70
192
0
VERTEX
8
OBJECT__9
10
105.942001
20
-4.091000
30
1.360000
70
192
0
VERTEX
8
OBJECT__9
10
105.956001
20
-3.790000
30
-1.147000
70
192
0
VERTEX
8
OBJECT__9
10
105.964996
20
-3.852000
30
-0.729000
70
192
0
VERTEX
8
OBJECT__9
10
105.806999
20
-3.235000
30
-4.380000
70
192
0
VERTEX
8
OBJECT__9
10
105.919998
20
-3.546000
30
-2.806000
70
192
0
VERTEX
8
OBJECT__9
10
105.926003
20
-3.585000
30
-2.539000
70
192
0
VERTEX
8
OBJECT__9
10
105.458000
20
-4.400000
30
7.690000
70
192
0
VERTEX
8
OBJECT__9
10
0
20
0
30
0
70
128
71
1
72
2
73
3
0
VERTEX
8
OBJECT__9
10
0
20
0
30
0
70
128
71
1
72
4
73
5
0
VERTEX
8
OBJECT__9
10
0
20
0
30
0
70
128
71
5
72
6
73
1
0
VERTEX
8
OBJECT__9
10
0
20
0
30
0
70
128
71
1
72
7
73
8
0
VERTEX
8
OBJECT__9
10
0
20
0
30
0
70
128
71
8
72
9
73
1
0
VERTEX
8
OBJECT__9
10
0
20
0
30
0
70
128
71
9
72
10
73
1
0
VERTEX
8
OBJECT__9
10
0
20
0
30
0
70
128
71
10
72
4
73
1
0
VERTEX
8
OBJECT__9
10
0
20
0
30
0
70
128
71
6
72
2
73
1
0
VERTEX
8
OBJECT__9
10
0
20
0
30
0
70
128
71
1
72
11
73
12
0
VERTEX
8
OBJECT__9
10
0
20
0
30
0
70
128
71
1
72
13
73
11
0
VERTEX
8
OBJECT__9
10
0
20
0
30
0
70
128
71
1
72
14
73
13
0
VERTEX
8
OBJECT__9
10
0
20
0
30
0
70
128
71
1
72
15
73
14
0
VERTEX
8
OBJECT__9
10
0
20
0
30
0
70
128
71
12
72
7
73
1
0
VERTEX
8
OBJECT__9
10
0
20
0
30
0
70
128
71
16
72
17
73
18
0
VERTEX
8
OBJECT__9
10
0
20
0
30
0
70
128
71
18
72
19
73
16
0
VERTEX
8
OBJECT__9
10
0
20
0
30
0
70
128
71
19
72
20
73
16
0
VERTEX
8
OBJECT__9
10
0
20
0
30
0
70
128
71
16
72
1
73
21
0
VERTEX
8
OBJECT__9
10
0
20
0
30
0
70
128
71
21
72
17
73
16
0
VERTEX
8
OBJECT__9
10
0
20
0
30
0
70
128
71
1
72
22
73
23
0
VERTEX
8
OBJECT__9
10
0
20
0
30
0
70
128
71
1
72
24
73
25
0
VERTEX
8
OBJECT__9
10
0
20
0
30
0
70
128
71
25
72
22
73
1
0
VERTEX
8
OBJECT__9
10
0
20
0
30
0
70
128
71
1
72
26
73
27
0
VERTEX
8
OBJECT__9
10
0
20
0
30
0
70
128
71
27
72
28
73
1
0
VERTEX
8
OBJECT__9
10
0
20
0
30
0
70
128
71
28
72
24
73
1
0
VERTEX
8
OBJECT__9
10
0
20
0
30
0
70
128
71
23
72
21
73
1
0
VERTEX
8
OBJECT__9
10
0
20
0
30
0
70
128
71
20
72
29
73
16
0
VERTEX
8
OBJECT__9
10
0
20
0
30
0
70
128
71
3
72
26
73
1
0
SEQEND
8
OBJECT__9
0
POLYLINE
8
OBJECT__10
66
1
70
64
71
12
72
10
62
253
0
VERTEX
8
OBJECT__10
10
100.500000
20
7.715000
30
-13.923000
70
192
0
VERTEX
8
OBJECT__10
10
100.500000
20
-3.267000
30
-4.386000
70
192
0
VERTEX
8
OBJECT__10
10
100.500000
20
7.361000
30
-3.888000
70
192
0
VERTEX
8
OBJECT__10
10
100.500000
20
10.908000
30
-11.613000
70
192
0
VERTEX
8
OBJECT__10
10
100.500000
20
3.907000
30
-15.421000
70
192
0
VERTEX
8
OBJECT__10
10
100.500000
20
-4.400000
30
7.690000
70
192
0
VERTEX
8
OBJECT__10
10
100.500000
20
5.144000
30
4.478000
70
192
0
VERTEX
8
OBJECT__10
10
100.500000
20
-4.400000
30
15.489000
70
192
0
VERTEX
8
OBJECT__10
10
100.500000
20
4.400000
30
13.100000
70
192
0
VERTEX
8
OBJECT__10
10
100.500000
20
0.000000
30
16.105000
70
192
0
VERTEX
8
OBJECT__10
10
100.500000
20
4.401000
30
15.488000
70
192
0
VERTEX
8
OBJECT__10
10
100.500000
20
0.041000
30
-15.905000
70
192
0
VERTEX
8
OBJECT__10
10
0
20
0
30
0
70
128
71
1
72
2
73
3
0
VERTEX
8
OBJECT__10
10
0
20
0
30
0
70
128
71
3
72
4
73
1
0
VERTEX
8
OBJECT__10
10
0
20
0
30
0
70
128
71
1
72
5
73
2
0
VERTEX
8
OBJECT__10
10
0
20
0
30
0
70
128
71
2
72
6
73
7
0
VERTEX
8
OBJECT__10
10
0
20
0
30
0
70
128
71
6
72
8
73
9
0
VERTEX
8
OBJECT__10
10
0
20
0
30
0
70
128
71
9
72
8
73
10
0
VERTEX
8
OBJECT__10
10
0
20
0
30
0
70
128
71
7
72
3
73
2
0
VERTEX
8
OBJECT__10
10
0
20
0
30
0
70
128
71
10
72
11
73
9
0
VERTEX
8
OBJECT__10
10
0
20
0
30
0
70
128
71
9
72
7
73
6
0
VERTEX
8
OBJECT__10
10
0
20
0
30
0
70
128
71
5
72
12
73
2
0
SEQEND
8
OBJECT__10
0
POLYLINE
8
OBJECT__11
66
1
70
64
71
64
72
74
62
253
0
VERTEX
8
OBJECT__11
10
104.422997
20
3.218000
30
-13.703000
70
192
0
VERTEX
8
OBJECT__11
10
105.674004
20
2.205000
30
-6.686000
70
192
0
VERTEX
8
OBJECT__11
10
105.674004
20
0.000000
30
-7.036000
70
192
0
VERTEX
8
OBJECT__11
10
104.422997
20
-0.007000
30
-14.000000
70
192
0
VERTEX
8
OBJECT__11
10
104.422997
20
6.903000
30
-12.278000
70
192
0
VERTEX
8
OBJECT__11
10
105.674004
20
4.194000
30
-5.673000
70
192
0
VERTEX
8
OBJECT__11
10
104.422997
20
4.338000
30
-13.270000
70
192
0
VERTEX
8
OBJECT__11
10
104.422997
20
1.506000
30
14.193000
70
192
0
VERTEX
8
OBJECT__11
10
105.674004
20
0.000000
30
7.236000
70
192
0
VERTEX
8
OBJECT__11
10
105.674004
20
2.205000
30
6.886000
70
192
0
VERTEX
8
OBJECT__11
10
104.422997
20
4.379000
30
13.577000
70
192
0
VERTEX
8
OBJECT__11
10
104.422997
20
-1.506000
30
14.193000
70
192
0
VERTEX
8
OBJECT__11
10
104.422997
20
-4.379000
30
13.577000
70
192
0
VERTEX
8
OBJECT__11
10
105.674004
20
-2.205000
30
6.886000
70
192
0
VERTEX
8
OBJECT__11
10
104.422997
20
0.000000
30
14.193000
70
192
0
VERTEX
8
OBJECT__11
10
105.458000
20
-4.400000
30
7.690000
70
192
0
VERTEX
8
OBJECT__11
10
105.570999
20
-4.360000
30
6.469000
70
192
0
VERTEX
8
OBJECT__11
10
105.013000
20
-4.400000
30
10.644000
70
192
0
VERTEX
8
OBJECT__11
10
104.422997
20
-4.400000
30
13.573000
70
192
0
VERTEX
8
OBJECT__11
10
106.092003
20
0.000000
30
0.100000
70
192
0
VERTEX
8
OBJECT__11
10
105.674004
20
-4.194000
30
5.873000
70
192
0
VERTEX
8
OBJECT__11
10
105.660004
20
-4.329000
30
5.518000
70
192
0
VERTEX
8
OBJECT__11
10
105.850998
20
-4.262000
30
3.459000
70
192
0
VERTEX
8
OBJECT__11
10
105.939003
20
-4.097000
30
1.439000
70
192
0
VERTEX
8
OBJECT__11
10
105.942001
20
-4.091000
30
1.360000
70
192
0
VERTEX
8
OBJECT__11
10
105.956001
20
-3.948000
30
0.115000
70
192
0
VERTEX
8
OBJECT__11
10
105.964996
20
-3.852000
30
-0.729000
70
192
0
VERTEX
8
OBJECT__11
10
105.926003
20
-3.585000
30
-2.539000
70
192
0
VERTEX
8
OBJECT__11
10
105.919998
20
-3.546000
30
-2.806000
70
192
0
VERTEX
8
OBJECT__11
10
105.806999
20
-3.235000
30
-4.380000
70
192
0
VERTEX
8
OBJECT__11
10
105.674004
20
-2.205000
30
-6.686000
70
192
0
VERTEX
8
OBJECT__11
10
105.781998
20
-3.167000
30
-4.724000
70
192
0
VERTEX
8
OBJECT__11
10
105.668999
20
-2.854000
30
-6.313000
70
192
0
VERTEX
8
OBJECT__11
10
105.624001
20
-2.732000
30
-6.931000
70
192
0
VERTEX
8
OBJECT__11
10
105.535004
20
-2.544000
30
-7.721000
70
192
0
VERTEX
8
OBJECT__11
10
104.910004
20
-1.415000
30
-11.767000
70
192
0
VERTEX
8
OBJECT__11
10
105.535004
20
-2.542000
30
-7.727000
70
192
0
VERTEX
8
OBJECT__11
10
105.142998
20
8.407000
30
-6.553000
70
192
0
VERTEX
8
OBJECT__11
10
105.221001
20
8.177000
30
-5.952000
70
192
0
VERTEX
8
OBJECT__11
10
104.422997
20
8.252000
30
-11.262000
70
192
0
VERTEX
8
OBJECT__11
10
104.422997
20
10.003000
30
-9.941000
70
192
0
VERTEX
8
OBJECT__11
10
105.674004
20
5.773000
30
-4.094000
70
192
0
VERTEX
8
OBJECT__11
10
105.599998
20
7.068000
30
-3.051000
70
192
0
VERTEX
8
OBJECT__11
10
105.643997
20
6.824000
30
-2.234000
70
192
0
VERTEX
8
OBJECT__11
10
105.491997
20
7.385000
30
-3.879000
70
192
0
VERTEX
8
OBJECT__11
10
105.674004
20
6.786000
30
-2.105000
70
192
0
VERTEX
8
OBJECT__11
10
105.671997
20
6.669000
30
-1.716000
70
192
0
VERTEX
8
OBJECT__11
10
105.768997
20
6.139000
30
0.060000
70
192
0
VERTEX
8
OBJECT__11
10
105.795998
20
5.990000
30
0.557000
70
192
0
VERTEX
8
OBJECT__11
10
105.803001
20
5.698000
30
1.750000
70
192
0
VERTEX
8
OBJECT__11
10
105.691002
20
5.172000
30
4.483000
70
192
0
VERTEX
8
OBJECT__11
10
105.672997
20
5.087000
30
4.922000
70
192
0
VERTEX
8
OBJECT__11
10
105.708000
20
5.253000
30
4.061000
70
192
0
VERTEX
8
OBJECT__11
10
105.674004
20
4.194000
30
5.873000
70
192
0
VERTEX
8
OBJECT__11
10
105.650002
20
4.979000
30
5.487000
70
192
0
VERTEX
8
OBJECT__11
10
104.475998
20
4.400000
30
13.337000
70
192
0
VERTEX
8
OBJECT__11
10
104.528000
20
4.400000
30
13.100000
70
192
0
VERTEX
8
OBJECT__11
10
105.233002
20
4.548000
30
9.236000
70
192
0
VERTEX
8
OBJECT__11
10
105.484001
20
4.808000
30
6.974000
70
192
0
VERTEX
8
OBJECT__11
10
104.422997
20
4.400000
30
13.573000
70
192
0
VERTEX
8
OBJECT__11
10
105.794998
20
5.660000
30
1.947000
70
192
0
VERTEX
8
OBJECT__11
10
104.422997
20
-0.648000
30
-14.058000
70
192
0
VERTEX
8
OBJECT__11
10
105.956001
20
-3.790000
30
-1.147000
70
192
0
VERTEX
8
OBJECT__11
10
105.861000
20
-4.243000
30
3.222000
70
192
0
VERTEX
8
OBJECT__11
10
0
20
0
30
0
70
128
71
1
72
2
73
3
0
VERTEX
8
OBJECT__11
10
0
20
0
30
0
70
128
71
3
72
4
73
1
0
VERTEX
8
OBJECT__11
10
0
20
0
30
0
70
128
71
5
72
6
73
2
0
VERTEX
8
OBJECT__11
10
0
20
0
30
0
70
128
71
2
72
7
73
5
0
VERTEX
8
OBJECT__11
10
0
20
0
30
0
70
128
71
8
72
9
73
10
0
VERTEX
8
OBJECT__11
10
0
20
0
30
0
70
128
71
10
72
11
73
8
0
VERTEX
8
OBJECT__11
10
0
20
0
30
0
70
128
71
12
72
13
73
14
0
VERTEX
8
OBJECT__11
10
0
20
0
30
0
70
128
71
9
72
15
73
12
0
VERTEX
8
OBJECT__11
10
0
20
0
30
0
70
128
71
14
72
16
73
17
0
VERTEX
8
OBJECT__11
10
0
20
0
30
0
70
128
71
14
72
18
73
16
0
VERTEX
8
OBJECT__11
10
0
20
0
30
0
70
128
71
13
72
19
73
18
0
VERTEX
8
OBJECT__11
10
0
20
0
30
0
70
128
71
18
72
14
73
13
0
VERTEX
8
OBJECT__11
10
0
20
0
30
0
70
128
71
20
72
21
73
22
0
VERTEX
8
OBJECT__11
10
0
20
0
30
0
70
128
71
22
72
23
73
20
0
VERTEX
8
OBJECT__11
10
0
20
0
30
0
70
128
71
20
72
24
73
25
0
VERTEX
8
OBJECT__11
10
0
20
0
30
0
70
128
71
20
72
26
73
27
0
VERTEX
8
OBJECT__11
10
0
20
0
30
0
70
128
71
20
72
28
73
29
0
VERTEX
8
OBJECT__11
10
0
20
0
30
0
70
128
71
29
72
30
73
20
0
VERTEX
8
OBJECT__11
10
0
20
0
30
0
70
128
71
31
72
20
73
32
0
VERTEX
8
OBJECT__11
10
0
20
0
30
0
70
128
71
31
72
33
73
34
0
VERTEX
8
OBJECT__11
10
0
20
0
30
0
70
128
71
34
72
35
73
31
0
VERTEX
8
OBJECT__11
10
0
20
0
30
0
70
128
71
4
72
3
73
36
0
VERTEX
8
OBJECT__11
10
0
20
0
30
0
70
128
71
3
72
31
73
37
0
VERTEX
8
OBJECT__11
10
0
20
0
30
0
70
128
71
37
72
36
73
3
0
VERTEX
8
OBJECT__11
10
0
20
0
30
0
70
128
71
6
72
38
73
39
0
VERTEX
8
OBJECT__11
10
0
20
0
30
0
70
128
71
40
72
41
73
38
0
VERTEX
8
OBJECT__11
10
0
20
0
30
0
70
128
71
38
72
6
73
40
0
VERTEX
8
OBJECT__11
10
0
20
0
30
0
70
128
71
42
72
43
73
44
0
VERTEX
8
OBJECT__11
10
0
20
0
30
0
70
128
71
42
72
39
73
45
0
VERTEX
8
OBJECT__11
10
0
20
0
30
0
70
128
71
45
72
43
73
42
0
VERTEX
8
OBJECT__11
10
0
20
0
30
0
70
128
71
20
72
46
73
47
0
VERTEX
8
OBJECT__11
10
0
20
0
30
0
70
128
71
20
72
48
73
49
0
VERTEX
8
OBJECT__11
10
0
20
0
30
0
70
128
71
49
72
50
73
20
0
VERTEX
8
OBJECT__11
10
0
20
0
30
0
70
128
71
20
72
51
73
52
0
VERTEX
8
OBJECT__11
10
0
20
0
30
0
70
128
71
20
72
53
73
51
0
VERTEX
8
OBJECT__11
10
0
20
0
30
0
70
128
71
54
72
52
73
55
0
VERTEX
8
OBJECT__11
10
0
20
0
30
0
70
128
71
11
72
10
73
56
0
VERTEX
8
OBJECT__11
10
0
20
0
30
0
70
128
71
10
72
57
73
56
0
VERTEX
8
OBJECT__11
10
0
20
0
30
0
70
128
71
10
72
58
73
57
0
VERTEX
8
OBJECT__11
10
0
20
0
30
0
70
128
71
10
72
54
73
59
0
VERTEX
8
OBJECT__11
10
0
20
0
30
0
70
128
71
59
72
58
73
10
0
VERTEX
8
OBJECT__11
10
0
20
0
30
0
70
128
71
56
72
60
73
11
0
VERTEX
8
OBJECT__11
10
0
20
0
30
0
70
128
71
55
72
59
73
54
0
VERTEX
8
OBJECT__11
10
0
20
0
30
0
70
128
71
52
72
54
73
20
0
VERTEX
8
OBJECT__11
10
0
20
0
30
0
70
128
71
53
72
20
73
61
0
VERTEX
8
OBJECT__11
10
0
20
0
30
0
70
128
71
50
72
61
73
20
0
VERTEX
8
OBJECT__11
10
0
20
0
30
0
70
128
71
47
72
48
73
20
0
VERTEX
8
OBJECT__11
10
0
20
0
30
0
70
128
71
47
72
46
73
44
0
VERTEX
8
OBJECT__11
10
0
20
0
30
0
70
128
71
44
72
46
73
42
0
VERTEX
8
OBJECT__11
10
0
20
0
30
0
70
128
71
39
72
42
73
6
0
VERTEX
8
OBJECT__11
10
0
20
0
30
0
70
128
71
36
72
62
73
4
0
VERTEX
8
OBJECT__11
10
0
20
0
30
0
70
128
71
35
72
37
73
31
0
VERTEX
8
OBJECT__11
10
0
20
0
30
0
70
128
71
32
72
33
73
31
0
VERTEX
8
OBJECT__11
10
0
20
0
30
0
70
128
71
30
72
32
73
20
0
VERTEX
8
OBJECT__11
10
0
20
0
30
0
70
128
71
28
72
20
73
63
0
VERTEX
8
OBJECT__11
10
0
20
0
30
0
70
128
71
27
72
63
73
20
0
VERTEX
8
OBJECT__11
10
0
20
0
30
0
70
128
71
25
72
26
73
20
0
VERTEX
8
OBJECT__11
10
0
20
0
30
0
70
128
71
24
72
20
73
64
0
VERTEX
8
OBJECT__11
10
0
20
0
30
0
70
128
71
23
72
64
73
20
0
VERTEX
8
OBJECT__11
10
0
20
0
30
0
70
128
71
22
72
21
73
17
0
VERTEX
8
OBJECT__11
10
0
20
0
30
0
70
128
71
17
72
21
73
14
0
VERTEX
8
OBJECT__11
10
0
20
0
30
0
70
128
71
20
72
31
73
3
0
VERTEX
8
OBJECT__11
10
0
20
0
30
0
70
128
71
20
72
14
73
21
0
VERTEX
8
OBJECT__11
10
0
20
0
30
0
70
128
71
20
72
9
73
14
0
VERTEX
8
OBJECT__11
10
0
20
0
30
0
70
128
71
20
72
10
73
9
0
VERTEX
8
OBJECT__11
10
0
20
0
30
0
70
128
71
20
72
54
73
10
0
VERTEX
8
OBJECT__11
10
0
20
0
30
0
70
128
71
20
72
42
73
46
0
VERTEX
8
OBJECT__11
10
0
20
0
30
0
70
128
71
20
72
6
73
42
0
VERTEX
8
OBJECT__11
10
0
20
0
30
0
70
128
71
20
72
2
73
6
0
VERTEX
8
OBJECT__11
10
0
20
0
30
0
70
128
71
20
72
3
73
2
0
VERTEX
8
OBJECT__11
10
0
20
0
30
0
70
128
71
14
72
9
73
12
0
VERTEX
8
OBJECT__11
10
0
20
0
30
0
70
128
71
8
72
15
73
9
0
VERTEX
8
OBJECT__11
10
0
20
0
30
0
70
128
71
5
72
40
73
6
0
VERTEX
8
OBJECT__11
10
0
20
0
30
0
70
128
71
1
72
7
73
2
0
SEQEND
8
OBJECT__11
0
POLYLINE
8
OBJECT__12
66
1
70
64
71
11
72
9
62
253
0
VERTEX
8
OBJECT__12
10
100.500000
20
4.400000
30
13.100000
70
192
0
VERTEX
8
OBJECT__12
10
103.069000
20
4.401000
30
15.086000
70
192
0
VERTEX
8
OBJECT__12
10
103.677002
20
4.401000
30
14.763000
70
192
0
VERTEX
8
OBJECT__12
10
103.806000
20
4.401000
30
14.619000
70
192
0
VERTEX
8
OBJECT__12
10
104.153000
20
4.400000
30
14.231000
70
192
0
VERTEX
8
OBJECT__12
10
102.757004
20
4.401000
30
15.159000
70
192
0
VERTEX
8
OBJECT__12
10
104.422997
20
4.400000
30
13.573000
70
192
0
VERTEX
8
OBJECT__12
10
101.628998
20
4.401000
30
15.324000
70
192
0
VERTEX
8
OBJECT__12
10
104.475998
20
4.400000
30
13.337000
70
192
0
VERTEX
8
OBJECT__12
10
100.500000
20
4.401000
30
15.488000
70
192
0
VERTEX
8
OBJECT__12
10
104.528000
20
4.400000
30
13.100000
70
192
0
VERTEX
8
OBJECT__12
10
0
20
0
30
0
70
128
71
1
72
2
73
3
0
VERTEX
8
OBJECT__12
10
0
20
0
30
0
70
128
71
1
72
4
73
5
0
VERTEX
8
OBJECT__12
10
0
20
0
30
0
70
128
71
1
72
6
73
2
0
VERTEX
8
OBJECT__12
10
0
20
0
30
0
70
128
71
5
72
7
73
1
0
VERTEX
8
OBJECT__12
10
0
20
0
30
0
70
128
71
1
72
8
73
6
0
VERTEX
8
OBJECT__12
10
0
20
0
30
0
70
128
71
7
72
9
73
1
0
VERTEX
8
OBJECT__12
10
0
20
0
30
0
70
128
71
1
72
10
73
8
0
VERTEX
8
OBJECT__12
10
0
20
0
30
0
70
128
71
3
72
4
73
1
0
VERTEX
8
OBJECT__12
10
0
20
0
30
0
70
128
71
9
72
11
73
1
0
SEQEND
8
OBJECT__12
0
POLYLINE
8
OBJECT__13
66
1
70
64
71
12
72
10
62
253
0
VERTEX
8
OBJECT__13
10
100.500000
20
-4.400000
30
7.690000
70
192
0
VERTEX
8
OBJECT__13
10
103.811996
20
-4.400000
30
14.619000
70
192
0
VERTEX
8
OBJECT__13
10
103.403000
20
-4.400000
30
14.943000
70
192
0
VERTEX
8
OBJECT__13
10
104.302002
20
-4.400000
30
13.947000
70
192
0
VERTEX
8
OBJECT__13
10
103.935997
20
-4.400000
30
14.520000
70
192
0
VERTEX
8
OBJECT__13
10
103.074997
20
-4.400000
30
15.085000
70
192
0
VERTEX
8
OBJECT__13
10
104.422997
20
-4.400000
30
13.573000
70
192
0
VERTEX
8
OBJECT__13
10
102.757004
20
-4.400000
30
15.159000
70
192
0
VERTEX
8
OBJECT__13
10
105.013000
20
-4.400000
30
10.644000
70
192
0
VERTEX
8
OBJECT__13
10
102.130997
20
-4.400000
30
15.251000
70
192
0
VERTEX
8
OBJECT__13
10
105.458000
20
-4.400000
30
7.690000
70
192
0
VERTEX
8
OBJECT__13
10
100.500000
20
-4.400000
30
15.489000
70
192
0
VERTEX
8
OBJECT__13
10
0
20
0
30
0
70
128
71
1
72
2
73
3
0
VERTEX
8
OBJECT__13
10
0
20
0
30
0
70
128
71
1
72
4
73
5
0
VERTEX
8
OBJECT__13
10
0
20
0
30
0
70
128
71
3
72
6
73
1
0
VERTEX
8
OBJECT__13
10
0
20
0
30
0
70
128
71
1
72
7
73
4
0
VERTEX
8
OBJECT__13
10
0
20
0
30
0
70
128
71
6
72
8
73
1
0
VERTEX
8
OBJECT__13
10
0
20
0
30
0
70
128
71
1
72
9
73
7
0
VERTEX
8
OBJECT__13
10
0
20
0
30
0
70
128
71
8
72
10
73
1
0
VERTEX
8
OBJECT__13
10
0
20
0
30
0
70
128
71
1
72
11
73
9
0
VERTEX
8
OBJECT__13
10
0
20
0
30
0
70
128
71
5
72
2
73
1
0
VERTEX
8
OBJECT__13
10
0
20
0
30
0
70
128
71
10
72
12
73
1
0
SEQEND
8
OBJECT__13
0
POLYLINE
8
OBJECT__14
66
1
70
64
71
10
72
8
62
253
0
VERTEX
8
OBJECT__14
10
102.130997
20
-4.400000
30
15.251000
70
192
0
VERTEX
8
OBJECT__14
10
102.757004
20
-4.400000
30
15.159000
70
192
0
VERTEX
8
OBJECT__14
10
102.757004
20
-1.646000
30
15.553000
70
192
0
VERTEX
8
OBJECT__14
10
100.500000
20
0.000000
30
16.105000
70
192
0
VERTEX
8
OBJECT__14
10
100.500000
20
-4.400000
30
15.489000
70
192
0
VERTEX
8
OBJECT__14
10
102.757004
20
0.000000
30
15.789000
70
192
0
VERTEX
8
OBJECT__14
10
101.628998
20
4.401000
30
15.324000
70
192
0
VERTEX
8
OBJECT__14
10
102.757004
20
1.647000
30
15.553000
70
192
0
VERTEX
8
OBJECT__14
10
102.757004
20
4.401000
30
15.159000
70
192
0
VERTEX
8
OBJECT__14
10
100.500000
20
4.401000
30
15.488000
70
192
0
VERTEX
8
OBJECT__14
10
0
20
0
30
0
70
128
71
1
72
2
73
3
0
VERTEX
8
OBJECT__14
10
0
20
0
30
0
70
128
71
4
72
5
73
1
0
VERTEX
8
OBJECT__14
10
0
20
0
30
0
70
128
71
1
72
6
73
4
0
VERTEX
8
OBJECT__14
10
0
20
0
30
0
70
128
71
4
72
6
73
7
0
VERTEX
8
OBJECT__14
10
0
20
0
30
0
70
128
71
7
72
6
73
8
0
VERTEX
8
OBJECT__14
10
0
20
0
30
0
70
128
71
8
72
9
73
7
0
VERTEX
8
OBJECT__14
10
0
20
0
30
0
70
128
71
7
72
10
73
4
0
VERTEX
8
OBJECT__14
10
0
20
0
30
0
70
128
71
3
72
6
73
1
0
SEQEND
8
OBJECT__14
0
POLYLINE
8
OBJECT__15
66
1
70
64
71
23
72
23
62
253
0
VERTEX
8
OBJECT__15
10
103.823997
20
-1.614000
30
15.202000
70
192
0
VERTEX
8
OBJECT__15
10
103.823997
20
1.614000
30
15.202000
70
192
0
VERTEX
8
OBJECT__15
10
102.757004
20
0.000000
30
15.789000
70
192
0
VERTEX
8
OBJECT__15
10
102.757004
20
1.647000
30
15.553000
70
192
0
VERTEX
8
OBJECT__15
10
104.422997
20
0.000000
30
14.193000
70
192
0
VERTEX
8
OBJECT__15
10
104.422997
20
-1.506000
30
14.193000
70
192
0
VERTEX
8
OBJECT__15
10
102.757004
20
-1.646000
30
15.553000
70
192
0
VERTEX
8
OBJECT__15
10
103.074997
20
-4.400000
30
15.085000
70
192
0
VERTEX
8
OBJECT__15
10
102.757004
20
-4.400000
30
15.159000
70
192
0
VERTEX
8
OBJECT__15
10
103.403000
20
-4.400000
30
14.943000
70
192
0
VERTEX
8
OBJECT__15
10
104.302002
20
-4.400000
30
13.947000
70
192
0
VERTEX
8
OBJECT__15
10
104.422997
20
-4.400000
30
13.573000
70
192
0
VERTEX
8
OBJECT__15
10
104.422997
20
-4.379000
30
13.577000
70
192
0
VERTEX
8
OBJECT__15
10
103.935997
20
-4.400000
30
14.520000
70
192
0
VERTEX
8
OBJECT__15
10
103.811996
20
-4.400000
30
14.619000
70
192
0
VERTEX
8
OBJECT__15
10
104.422997
20
1.506000
30
14.193000
70
192
0
VERTEX
8
OBJECT__15
10
104.153000
20
4.400000
30
14.231000
70
192
0
VERTEX
8
OBJECT__15
10
103.806000
20
4.401000
30
14.619000
70
192
0
VERTEX
8
OBJECT__15
10
104.422997
20
4.379000
30
13.577000
70
192
0
VERTEX
8
OBJECT__15
10
104.422997
20
4.400000
30
13.573000
70
192
0
VERTEX
8
OBJECT__15
10
103.677002
20
4.401000
30
14.763000
70
192
0
VERTEX
8
OBJECT__15
10
103.069000
20
4.401000
30
15.086000
70
192
0
VERTEX
8
OBJECT__15
10
102.757004
20
4.401000
30
15.159000
70
192
0
VERTEX
8
OBJECT__15
10
0
20
0
30
0
70
128
71
1
72
2
73
3
0
VERTEX
8
OBJECT__15
10
0
20
0
30
0
70
128
71
2
72
4
73
3
0
VERTEX
8
OBJECT__15
10
0
20
0
30
0
70
128
71
2
72
1
73
5
0
VERTEX
8
OBJECT__15
10
0
20
0
30
0
70
128
71
1
72
6
73
5
0
VERTEX
8
OBJECT__15
10
0
20
0
30
0
70
128
71
1
72
7
73
8
0
VERTEX
8
OBJECT__15
10
0
20
0
30
0
70
128
71
7
72
9
73
8
0
VERTEX
8
OBJECT__15
10
0
20
0
30
0
70
128
71
8
72
10
73
1
0
VERTEX
8
OBJECT__15
10
0
20
0
30
0
70
128
71
11
72
12
73
13
0
VERTEX
8
OBJECT__15
10
0
20
0
30
0
70
128
71
6
72
1
73
14
0
VERTEX
8
OBJECT__15
10
0
20
0
30
0
70
128
71
14
72
11
73
6
0
VERTEX
8
OBJECT__15
10
0
20
0
30
0
70
128
71
1
72
15
73
14
0
VERTEX
8
OBJECT__15
10
0
20
0
30
0
70
128
71
16
72
17
73
18
0
VERTEX
8
OBJECT__15
10
0
20
0
30
0
70
128
71
17
72
16
73
19
0
VERTEX
8
OBJECT__15
10
0
20
0
30
0
70
128
71
19
72
20
73
17
0
VERTEX
8
OBJECT__15
10
0
20
0
30
0
70
128
71
2
72
21
73
22
0
VERTEX
8
OBJECT__15
10
0
20
0
30
0
70
128
71
22
72
4
73
2
0
VERTEX
8
OBJECT__15
10
0
20
0
30
0
70
128
71
2
72
18
73
21
0
VERTEX
8
OBJECT__15
10
0
20
0
30
0
70
128
71
22
72
23
73
4
0
VERTEX
8
OBJECT__15
10
0
20
0
30
0
70
128
71
18
72
2
73
16
0
VERTEX
8
OBJECT__15
10
0
20
0
30
0
70
128
71
13
72
6
73
11
0
VERTEX
8
OBJECT__15
10
0
20
0
30
0
70
128
71
10
72
15
73
1
0
VERTEX
8
OBJECT__15
10
0
20
0
30
0
70
128
71
5
72
16
73
2
0
VERTEX
8
OBJECT__15
10
0
20
0
30
0
70
128
71
3
72
7
73
1
0
SEQEND
8
OBJECT__15
0
POLYLINE
8
OBJECT__16
66
1
70
64
71
30
72
28
62
253
0
VERTEX
8
OBJECT__16
10
104.333000
20
11.052000
30
8.826000
70
192
0
VERTEX
8
OBJECT__16
10
105.611000
20
5.249000
30
4.390000
70
192
0
VERTEX
8
OBJECT__16
10
105.625000
20
5.271000
30
4.235000
70
192
0
VERTEX
8
OBJECT__16
10
104.333000
20
10.946000
30
9.003000
70
192
0
VERTEX
8
OBJECT__16
10
104.333000
20
8.019000
30
11.630000
70
192
0
VERTEX
8
OBJECT__16
10
105.357002
20
4.854000
30
7.231000
70
192
0
VERTEX
8
OBJECT__16
10
104.333000
20
13.129000
30
5.339000
70
192
0
VERTEX
8
OBJECT__16
10
105.625000
20
5.275000
30
4.214000
70
192
0
VERTEX
8
OBJECT__16
10
105.661003
20
5.685000
30
2.326000
70
192
0
VERTEX
8
OBJECT__16
10
104.333000
20
13.148000
30
5.260000
70
192
0
VERTEX
8
OBJECT__16
10
104.333000
20
14.112000
30
1.234000
70
192
0
VERTEX
8
OBJECT__16
10
104.333000
20
14.123000
30
1.191000
70
192
0
VERTEX
8
OBJECT__16
10
105.695000
20
6.079000
30
0.513000
70
192
0
VERTEX
8
OBJECT__16
10
105.584999
20
6.688000
30
-1.528000
70
192
0
VERTEX
8
OBJECT__16
10
104.333000
20
13.849000
30
-2.895000
70
192
0
VERTEX
8
OBJECT__16
10
105.695000
20
6.075000
30
0.531000
70
192
0
VERTEX
8
OBJECT__16
10
104.333000
20
13.838000
30
-3.064000
70
192
0
VERTEX
8
OBJECT__16
10
105.391998
20
7.476000
30
-3.937000
70
192
0
VERTEX
8
OBJECT__16
10
105.344002
20
7.615000
30
-4.302000
70
192
0
VERTEX
8
OBJECT__16
10
104.333000
20
12.406000
30
-6.767000
70
192
0
VERTEX
8
OBJECT__16
10
105.500999
20
7.153000
30
-3.092000
70
192
0
VERTEX
8
OBJECT__16
10
105.046997
20
8.489000
30
-6.590000
70
192
0
VERTEX
8
OBJECT__16
10
104.333000
20
10.077000
30
-9.967000
70
192
0
VERTEX
8
OBJECT__16
10
104.333000
20
12.300000
30
-7.042000
70
192
0
VERTEX
8
OBJECT__16
10
105.291000
20
4.751000
30
7.973000
70
192
0
VERTEX
8
OBJECT__16
10
104.333000
20
7.772000
30
11.852000
70
192
0
VERTEX
8
OBJECT__16
10
104.694000
20
4.516000
30
11.723000
70
192
0
VERTEX
8
OBJECT__16
10
104.434998
20
4.500000
30
12.980000
70
192
0
VERTEX
8
OBJECT__16
10
104.384003
20
4.500000
30
13.210000
70
192
0
VERTEX
8
OBJECT__16
10
104.333000
20
4.500000
30
13.440000
70
192
0
VERTEX
8
OBJECT__16
10
0
20
0
30
0
70
128
71
1
72
2
73
3
0
VERTEX
8
OBJECT__16
10
0
20
0
30
0
70
128
71
4
72
5
73
6
0
VERTEX
8
OBJECT__16
10
0
20
0
30
0
70
128
71
2
72
1
73
4
0
VERTEX
8
OBJECT__16
10
0
20
0
30
0
70
128
71
6
72
2
73
4
0
VERTEX
8
OBJECT__16
10
0
20
0
30
0
70
128
71
7
72
1
73
8
0
VERTEX
8
OBJECT__16
10
0
20
0
30
0
70
128
71
9
72
10
73
7
0
VERTEX
8
OBJECT__16
10
0
20
0
30
0
70
128
71
11
72
10
73
9
0
VERTEX
8
OBJECT__16
10
0
20
0
30
0
70
128
71
12
72
13
73
14
0
VERTEX
8
OBJECT__16
10
0
20
0
30
0
70
128
71
14
72
15
73
12
0
VERTEX
8
OBJECT__16
10
0
20
0
30
0
70
128
71
11
72
16
73
13
0
VERTEX
8
OBJECT__16
10
0
20
0
30
0
70
128
71
17
72
18
73
19
0
VERTEX
8
OBJECT__16
10
0
20
0
30
0
70
128
71
19
72
20
73
17
0
VERTEX
8
OBJECT__16
10
0
20
0
30
0
70
128
71
15
72
14
73
21
0
VERTEX
8
OBJECT__16
10
0
20
0
30
0
70
128
71
21
72
18
73
15
0
VERTEX
8
OBJECT__16
10
0
20
0
30
0
70
128
71
22
72
23
73
24
0
VERTEX
8
OBJECT__16
10
0
20
0
30
0
70
128
71
20
72
19
73
22
0
VERTEX
8
OBJECT__16
10
0
20
0
30
0
70
128
71
25
72
5
73
26
0
VERTEX
8
OBJECT__16
10
0
20
0
30
0
70
128
71
26
72
27
73
25
0
VERTEX
8
OBJECT__16
10
0
20
0
30
0
70
128
71
26
72
28
73
27
0
VERTEX
8
OBJECT__16
10
0
20
0
30
0
70
128
71
26
72
29
73
28
0
VERTEX
8
OBJECT__16
10
0
20
0
30
0
70
128
71
26
72
30
73
29
0
VERTEX
8
OBJECT__16
10
0
20
0
30
0
70
128
71
25
72
6
73
5
0
VERTEX
8
OBJECT__16
10
0
20
0
30
0
70
128
71
24
72
20
73
22
0
VERTEX
8
OBJECT__16
10
0
20
0
30
0
70
128
71
17
72
15
73
18
0
VERTEX
8
OBJECT__16
10
0
20
0
30
0
70
128
71
12
72
11
73
13
0
VERTEX
8
OBJECT__16
10
0
20
0
30
0
70
128
71
9
72
16
73
11
0
VERTEX
8
OBJECT__16
10
0
20
0
30
0
70
128
71
8
72
9
73
7
0
VERTEX
8
OBJECT__16
10
0
20
0
30
0
70
128
71
3
72
8
73
1
0
SEQEND
8
OBJECT__16
0
POLYLINE
8
OBJECT__17
66
1
70
64
71
45
72
49
62
253
0
VERTEX
8
OBJECT__17
10
103.733002
20
13.180000
30
-7.546000
70
192
0
VERTEX
8
OBJECT__17
10
102.667000
20
13.712000
30
-7.544000
70
192
0
VERTEX
8
OBJECT__17
10
102.667000
20
15.131000
30
-3.876000
70
192
0
VERTEX
8
OBJECT__17
10
103.733002
20
14.829000
30
-3.283000
70
192
0
VERTEX
8
OBJECT__17
10
102.667000
20
13.615000
30
-7.795000
70
192
0
VERTEX
8
OBJECT__17
10
102.667000
20
15.318000
30
-3.392000
70
192
0
VERTEX
8
OBJECT__17
10
102.667000
20
15.546000
30
0.010000
70
192
0
VERTEX
8
OBJECT__17
10
103.733002
20
15.134000
30
1.277000
70
192
0
VERTEX
8
OBJECT__17
10
102.667000
20
15.633000
30
1.319000
70
192
0
VERTEX
8
OBJECT__17
10
102.667000
20
15.024000
30
3.861000
70
192
0
VERTEX
8
OBJECT__17
10
103.733002
20
14.069000
30
5.721000
70
192
0
VERTEX
8
OBJECT__17
10
103.733002
20
11.730000
30
9.648000
70
192
0
VERTEX
8
OBJECT__17
10
102.667000
20
13.603000
30
7.472000
70
192
0
VERTEX
8
OBJECT__17
10
102.667000
20
14.533000
30
5.910000
70
192
0
VERTEX
8
OBJECT__17
10
103.733002
20
8.329000
30
12.700000
70
192
0
VERTEX
8
OBJECT__17
10
102.667000
20
11.356000
30
10.649000
70
192
0
VERTEX
8
OBJECT__17
10
102.667000
20
12.117000
30
9.966000
70
192
0
VERTEX
8
OBJECT__17
10
104.333000
20
13.838000
30
-3.064000
70
192
0
VERTEX
8
OBJECT__17
10
104.333000
20
12.406000
30
-6.767000
70
192
0
VERTEX
8
OBJECT__17
10
104.333000
20
14.123000
30
1.191000
70
192
0
VERTEX
8
OBJECT__17
10
104.333000
20
13.849000
30
-2.895000
70
192
0
VERTEX
8
OBJECT__17
10
104.333000
20
13.148000
30
5.260000
70
192
0
VERTEX
8
OBJECT__17
10
104.333000
20
13.129000
30
5.339000
70
192
0
VERTEX
8
OBJECT__17
10
104.333000
20
14.112000
30
1.234000
70
192
0
VERTEX
8
OBJECT__17
10
104.333000
20
11.052000
30
8.826000
70
192
0
VERTEX
8
OBJECT__17
10
104.333000
20
10.946000
30
9.003000
70
192
0
VERTEX
8
OBJECT__17
10
104.333000
20
8.019000
30
11.630000
70
192
0
VERTEX
8
OBJECT__17
10
104.333000
20
7.772000
30
11.852000
70
192
0
VERTEX
8
OBJECT__17
10
102.667000
20
4.828000
30
14.877000
70
192
0
VERTEX
8
OBJECT__17
10
102.974998
20
4.500000
30
14.958000
70
192
0
VERTEX
8
OBJECT__17
10
103.584000
20
4.500000
30
14.634000
70
192
0
VERTEX
8
OBJECT__17
10
102.667000
20
4.500000
30
15.030000
70
192
0
VERTEX
8
OBJECT__17
10
103.716003
20
4.500000
30
14.488000
70
192
0
VERTEX
8
OBJECT__17
10
102.667000
20
8.393000
30
13.217000
70
192
0
VERTEX
8
OBJECT__17
10
102.667000
20
8.604000
30
13.119000
70
192
0
VERTEX
8
OBJECT__17
10
104.061996
20
4.500000
30
14.101000
70
192
0
VERTEX
8
OBJECT__17
10
104.333000
20
4.500000
30
13.440000
70
192
0
VERTEX
8
OBJECT__17
10
104.190002
20
10.271000
30
-10.340000
70
192
0
VERTEX
8
OBJECT__17
10
103.817001
20
10.533000
30
-10.830000
70
192
0
VERTEX
8
OBJECT__17
10
104.333000
20
12.300000
30
-7.042000
70
192
0
VERTEX
8
OBJECT__17
10
104.333000
20
10.077000
30
-9.967000
70
192
0
VERTEX
8
OBJECT__17
10
103.723999
20
10.567000
30
-10.892000
70
192
0
VERTEX
8
OBJECT__17
10
102.667000
20
11.357000
30
-10.677000
70
192
0
VERTEX
8
OBJECT__17
10
103.292999
20
10.724000
30
-11.179000
70
192
0
VERTEX
8
OBJECT__17
10
102.667000
20
10.823000
30
-11.358000
70
192
0
VERTEX
8
OBJECT__17
10
0
20
0
30
0
70
128
71
1
72
2
73
3
0
VERTEX
8
OBJECT__17
10
0
20
0
30
0
70
128
71
3
72
4
73
1
0
VERTEX
8
OBJECT__17
10
0
20
0
30
0
70
128
71
1
72
5
73
2
0
VERTEX
8
OBJECT__17
10
0
20
0
30
0
70
128
71
4
72
6
73
7
0
VERTEX
8
OBJECT__17
10
0
20
0
30
0
70
128
71
7
72
8
73
4
0
VERTEX
8
OBJECT__17
10
0
20
0
30
0
70
128
71
8
72
9
73
10
0
VERTEX
8
OBJECT__17
10
0
20
0
30
0
70
128
71
10
72
11
73
8
0
VERTEX
8
OBJECT__17
10
0
20
0
30
0
70
128
71
12
72
11
73
13
0
VERTEX
8
OBJECT__17
10
0
20
0
30
0
70
128
71
11
72
14
73
13
0
VERTEX
8
OBJECT__17
10
0
20
0
30
0
70
128
71
15
72
12
73
16
0
VERTEX
8
OBJECT__17
10
0
20
0
30
0
70
128
71
12
72
17
73
16
0
VERTEX
8
OBJECT__17
10
0
20
0
30
0
70
128
71
4
72
18
73
19
0
VERTEX
8
OBJECT__17
10
0
20
0
30
0
70
128
71
19
72
1
73
4
0
VERTEX
8
OBJECT__17
10
0
20
0
30
0
70
128
71
8
72
20
73
21
0
VERTEX
8
OBJECT__17
10
0
20
0
30
0
70
128
71
21
72
4
73
8
0
VERTEX
8
OBJECT__17
10
0
20
0
30
0
70
128
71
8
72
11
73
22
0
VERTEX
8
OBJECT__17
10
0
20
0
30
0
70
128
71
11
72
23
73
22
0
VERTEX
8
OBJECT__17
10
0
20
0
30
0
70
128
71
22
72
24
73
8
0
VERTEX
8
OBJECT__17
10
0
20
0
30
0
70
128
71
11
72
12
73
25
0
VERTEX
8
OBJECT__17
10
0
20
0
30
0
70
128
71
12
72
26
73
25
0
VERTEX
8
OBJECT__17
10
0
20
0
30
0
70
128
71
12
72
15
73
27
0
VERTEX
8
OBJECT__17
10
0
20
0
30
0
70
128
71
15
72
28
73
27
0
VERTEX
8
OBJECT__17
10
0
20
0
30
0
70
128
71
29
72
30
73
31
0
VERTEX
8
OBJECT__17
10
0
20
0
30
0
70
128
71
29
72
32
73
30
0
VERTEX
8
OBJECT__17
10
0
20
0
30
0
70
128
71
33
72
15
73
34
0
VERTEX
8
OBJECT__17
10
0
20
0
30
0
70
128
71
34
72
29
73
33
0
VERTEX
8
OBJECT__17
10
0
20
0
30
0
70
128
71
15
72
35
73
34
0
VERTEX
8
OBJECT__17
10
0
20
0
30
0
70
128
71
15
72
36
73
37
0
VERTEX
8
OBJECT__17
10
0
20
0
30
0
70
128
71
15
72
33
73
36
0
VERTEX
8
OBJECT__17
10
0
20
0
30
0
70
128
71
1
72
38
73
39
0
VERTEX
8
OBJECT__17
10
0
20
0
30
0
70
128
71
1
72
40
73
41
0
VERTEX
8
OBJECT__17
10
0
20
0
30
0
70
128
71
41
72
38
73
1
0
VERTEX
8
OBJECT__17
10
0
20
0
30
0
70
128
71
1
72
42
73
43
0
VERTEX
8
OBJECT__17
10
0
20
0
30
0
70
128
71
43
72
42
73
44
0
VERTEX
8
OBJECT__17
10
0
20
0
30
0
70
128
71
44
72
45
73
43
0
VERTEX
8
OBJECT__17
10
0
20
0
30
0
70
128
71
43
72
5
73
1
0
VERTEX
8
OBJECT__17
10
0
20
0
30
0
70
128
71
39
72
42
73
1
0
VERTEX
8
OBJECT__17
10
0
20
0
30
0
70
128
71
37
72
28
73
15
0
VERTEX
8
OBJECT__17
10
0
20
0
30
0
70
128
71
31
72
33
73
29
0
VERTEX
8
OBJECT__17
10
0
20
0
30
0
70
128
71
27
72
26
73
12
0
VERTEX
8
OBJECT__17
10
0
20
0
30
0
70
128
71
25
72
23
73
11
0
VERTEX
8
OBJECT__17
10
0
20
0
30
0
70
128
71
24
72
20
73
8
0
VERTEX
8
OBJECT__17
10
0
20
0
30
0
70
128
71
21
72
18
73
4
0
VERTEX
8
OBJECT__17
10
0
20
0
30
0
70
128
71
19
72
40
73
1
0
VERTEX
8
OBJECT__17
10
0
20
0
30
0
70
128
71
16
72
35
73
15
0
VERTEX
8
OBJECT__17
10
0
20
0
30
0
70
128
71
13
72
17
73
12
0
VERTEX
8
OBJECT__17
10
0
20
0
30
0
70
128
71
10
72
14
73
11
0
VERTEX
8
OBJECT__17
10
0
20
0
30
0
70
128
71
7
72
9
73
8
0
VERTEX
8
OBJECT__17
10
0
20
0
30
0
70
128
71
3
72
6
73
4
0
SEQEND
8
OBJECT__17
0
POLYLINE
8
OBJECT__19
66
1
70
64
71
26
72
24
62
253
0
VERTEX
8
OBJECT__19
10
100.400002
20
7.452000
30
-3.946000
70
192
0
VERTEX
8
OBJECT__19
10
103.723999
20
10.567000
30
-10.892000
70
192
0
VERTEX
8
OBJECT__19
10
103.817001
20
10.533000
30
-10.830000
70
192
0
VERTEX
8
OBJECT__19
10
104.190002
20
10.271000
30
-10.340000
70
192
0
VERTEX
8
OBJECT__19
10
104.333000
20
10.077000
30
-9.967000
70
192
0
VERTEX
8
OBJECT__19
10
105.046997
20
8.489000
30
-6.590000
70
192
0
VERTEX
8
OBJECT__19
10
102.667000
20
10.823000
30
-11.358000
70
192
0
VERTEX
8
OBJECT__19
10
103.292999
20
10.724000
30
-11.179000
70
192
0
VERTEX
8
OBJECT__19
10
101.532997
20
10.903000
30
-11.501000
70
192
0
VERTEX
8
OBJECT__19
10
100.400002
20
10.984000
30
-11.644000
70
192
0
VERTEX
8
OBJECT__19
10
105.344002
20
7.615000
30
-4.302000
70
192
0
VERTEX
8
OBJECT__19
10
100.400002
20
5.244000
30
4.389000
70
192
0
VERTEX
8
OBJECT__19
10
105.625000
20
5.275000
30
4.214000
70
192
0
VERTEX
8
OBJECT__19
10
105.625000
20
5.271000
30
4.235000
70
192
0
VERTEX
8
OBJECT__19
10
105.661003
20
5.685000
30
2.326000
70
192
0
VERTEX
8
OBJECT__19
10
105.584999
20
6.688000
30
-1.528000
70
192
0
VERTEX
8
OBJECT__19
10
105.695000
20
6.079000
30
0.513000
70
192
0
VERTEX
8
OBJECT__19
10
105.695000
20
6.075000
30
0.531000
70
192
0
VERTEX
8
OBJECT__19
10
105.391998
20
7.476000
30
-3.937000
70
192
0
VERTEX
8
OBJECT__19
10
105.500999
20
7.153000
30
-3.092000
70
192
0
VERTEX
8
OBJECT__19
10
100.400002
20
4.500000
30
12.980000
70
192
0
VERTEX
8
OBJECT__19
10
105.291000
20
4.751000
30
7.973000
70
192
0
VERTEX
8
OBJECT__19
10
105.357002
20
4.854000
30
7.231000
70
192
0
VERTEX
8
OBJECT__19
10
104.694000
20
4.516000
30
11.723000
70
192
0
VERTEX
8
OBJECT__19
10
105.611000
20
5.249000
30
4.390000
70
192
0
VERTEX
8
OBJECT__19
10
104.434998
20
4.500000
30
12.980000
70
192
0
VERTEX
8
OBJECT__19
10
0
20
0
30
0
70
128
71
1
72
2
73
3
0
VERTEX
8
OBJECT__19
10
0
20
0
30
0
70
128
71
3
72
4
73
1
0
VERTEX
8
OBJECT__19
10
0
20
0
30
0
70
128
71
4
72
5
73
1
0
VERTEX
8
OBJECT__19
10
0
20
0
30
0
70
128
71
5
72
6
73
1
0
VERTEX
8
OBJECT__19
10
0
20
0
30
0
70
128
71
1
72
7
73
8
0
VERTEX
8
OBJECT__19
10
0
20
0
30
0
70
128
71
1
72
9
73
7
0
VERTEX
8
OBJECT__19
10
0
20
0
30
0
70
128
71
1
72
10
73
9
0
VERTEX
8
OBJECT__19
10
0
20
0
30
0
70
128
71
8
72
2
73
1
0
VERTEX
8
OBJECT__19
10
0
20
0
30
0
70
128
71
6
72
11
73
1
0
VERTEX
8
OBJECT__19
10
0
20
0
30
0
70
128
71
12
72
13
73
14
0
VERTEX
8
OBJECT__19
10
0
20
0
30
0
70
128
71
12
72
15
73
13
0
VERTEX
8
OBJECT__19
10
0
20
0
30
0
70
128
71
1
72
16
73
17
0
VERTEX
8
OBJECT__19
10
0
20
0
30
0
70
128
71
17
72
12
73
1
0
VERTEX
8
OBJECT__19
10
0
20
0
30
0
70
128
71
17
72
18
73
12
0
VERTEX
8
OBJECT__19
10
0
20
0
30
0
70
128
71
1
72
19
73
20
0
VERTEX
8
OBJECT__19
10
0
20
0
30
0
70
128
71
20
72
16
73
1
0
VERTEX
8
OBJECT__19
10
0
20
0
30
0
70
128
71
18
72
15
73
12
0
VERTEX
8
OBJECT__19
10
0
20
0
30
0
70
128
71
21
72
12
73
22
0
VERTEX
8
OBJECT__19
10
0
20
0
30
0
70
128
71
12
72
23
73
22
0
VERTEX
8
OBJECT__19
10
0
20
0
30
0
70
128
71
22
72
24
73
21
0
VERTEX
8
OBJECT__19
10
0
20
0
30
0
70
128
71
12
72
25
73
23
0
VERTEX
8
OBJECT__19
10
0
20
0
30
0
70
128
71
24
72
26
73
21
0
VERTEX
8
OBJECT__19
10
0
20
0
30
0
70
128
71
14
72
25
73
12
0
VERTEX
8
OBJECT__19
10
0
20
0
30
0
70
128
71
11
72
19
73
1
0
SEQEND
8
OBJECT__19
0
POLYLINE
8
OBJECT__20
66
1
70
64
71
14
72
12
62
253
0
VERTEX
8
OBJECT__20
10
100.400002
20
8.577000
30
-13.515000
70
192
0
VERTEX
8
OBJECT__20
10
100.400002
20
10.984000
30
-11.644000
70
192
0
VERTEX
8
OBJECT__20
10
100.400002
20
7.452000
30
-3.946000
70
192
0
VERTEX
8
OBJECT__20
10
100.400002
20
-3.368000
30
-4.486000
70
192
0
VERTEX
8
OBJECT__20
10
100.400002
20
1.005000
30
-15.975000
70
192
0
VERTEX
8
OBJECT__20
10
100.400002
20
4.946000
30
-15.223000
70
192
0
VERTEX
8
OBJECT__20
10
100.400002
20
4.500000
30
12.980000
70
192
0
VERTEX
8
OBJECT__20
10
100.400002
20
4.500000
30
15.361000
70
192
0
VERTEX
8
OBJECT__20
10
100.400002
20
1.005000
30
15.975000
70
192
0
VERTEX
8
OBJECT__20
10
100.400002
20
-2.999000
30
15.723000
70
192
0
VERTEX
8
OBJECT__20
10
100.400002
20
-4.500000
30
7.590000
70
192
0
VERTEX
8
OBJECT__20
10
100.400002
20
5.244000
30
4.389000
70
192
0
VERTEX
8
OBJECT__20
10
100.400002
20
-0.066000
30
-16.006001
70
192
0
VERTEX
8
OBJECT__20
10
100.400002
20
-4.500000
30
15.361000
70
192
0
VERTEX
8
OBJECT__20
10
0
20
0
30
0
70
128
71
1
72
2
73
3
0
VERTEX
8
OBJECT__20
10
0
20
0
30
0
70
128
71
4
72
5
73
6
0
VERTEX
8
OBJECT__20
10
0
20
0
30
0
70
128
71
7
72
8
73
9
0
VERTEX
8
OBJECT__20
10
0
20
0
30
0
70
128
71
6
72
1
73
4
0
VERTEX
8
OBJECT__20
10
0
20
0
30
0
70
128
71
9
72
10
73
7
0
VERTEX
8
OBJECT__20
10
0
20
0
30
0
70
128
71
11
72
12
73
7
0
VERTEX
8
OBJECT__20
10
0
20
0
30
0
70
128
71
4
72
3
73
12
0
VERTEX
8
OBJECT__20
10
0
20
0
30
0
70
128
71
4
72
13
73
5
0
VERTEX
8
OBJECT__20
10
0
20
0
30
0
70
128
71
7
72
14
73
11
0
VERTEX
8
OBJECT__20
10
0
20
0
30
0
70
128
71
3
72
4
73
1
0
VERTEX
8
OBJECT__20
10
0
20
0
30
0
70
128
71
12
72
11
73
4
0
VERTEX
8
OBJECT__20
10
0
20
0
30
0
70
128
71
10
72
14
73
7
0
SEQEND
8
OBJECT__20
0
POLYLINE
8
OBJECT__21
66
1
70
64
71
26
72
24
62
253
0
VERTEX
8
OBJECT__21
10
100.400002
20
-3.368000
30
-4.486000
70
192
0
VERTEX
8
OBJECT__21
10
105.824997
20
-3.688000
30
-2.597000
70
192
0
VERTEX
8
OBJECT__21
10
105.802002
20
-3.565000
30
-3.395000
70
192
0
VERTEX
8
OBJECT__21
10
105.862000
20
-3.904000
30
-1.173000
70
192
0
VERTEX
8
OBJECT__21
10
105.862999
20
-3.891000
30
-1.287000
70
192
0
VERTEX
8
OBJECT__21
10
105.851997
20
-4.055000
30
0.111000
70
192
0
VERTEX
8
OBJECT__21
10
105.834999
20
-4.208000
30
1.466000
70
192
0
VERTEX
8
OBJECT__21
10
105.843002
20
-4.194000
30
1.287000
70
192
0
VERTEX
8
OBJECT__21
10
100.400002
20
-4.500000
30
7.590000
70
192
0
VERTEX
8
OBJECT__21
10
105.750000
20
-4.364000
30
3.385000
70
192
0
VERTEX
8
OBJECT__21
10
105.449997
20
-4.468000
30
6.613000
70
192
0
VERTEX
8
OBJECT__21
10
105.360001
20
-4.500000
30
7.590000
70
192
0
VERTEX
8
OBJECT__21
10
103.713997
20
-0.387000
30
-15.163000
70
192
0
VERTEX
8
OBJECT__21
10
103.559998
20
-0.327000
30
-15.325000
70
192
0
VERTEX
8
OBJECT__21
10
102.936996
20
-0.211000
30
-15.630000
70
192
0
VERTEX
8
OBJECT__21
10
102.667000
20
-0.189000
30
-15.688000
70
192
0
VERTEX
8
OBJECT__21
10
101.532997
20
-0.127000
30
-15.848000
70
192
0
VERTEX
8
OBJECT__21
10
104.333000
20
-0.756000
30
-14.153000
70
192
0
VERTEX
8
OBJECT__21
10
104.055000
20
-0.521000
30
-14.803000
70
192
0
VERTEX
8
OBJECT__21
10
104.869003
20
-1.606000
30
-11.590000
70
192
0
VERTEX
8
OBJECT__21
10
105.337997
20
-2.468000
30
-8.441000
70
192
0
VERTEX
8
OBJECT__21
10
105.473999
20
-2.719000
30
-7.520000
70
192
0
VERTEX
8
OBJECT__21
10
105.472000
20
-2.715000
30
-7.540000
70
192
0
VERTEX
8
OBJECT__21
10
105.714996
20
-3.342000
30
-4.481000
70
192
0
VERTEX
8
OBJECT__21
10
105.704002
20
-3.313000
30
-4.625000
70
192
0
VERTEX
8
OBJECT__21
10
100.400002
20
-0.066000
30
-16.006001
70
192
0
VERTEX
8
OBJECT__21
10
0
20
0
30
0
70
128
71
1
72
2
73
3
0
VERTEX
8
OBJECT__21
10
0
20
0
30
0
70
128
71
1
72
4
73
5
0
VERTEX
8
OBJECT__21
10
0
20
0
30
0
70
128
71
1
72
6
73
4
0
VERTEX
8
OBJECT__21
10
0
20
0
30
0
70
128
71
1
72
7
73
8
0
VERTEX
8
OBJECT__21
10
0
20
0
30
0
70
128
71
8
72
6
73
1
0
VERTEX
8
OBJECT__21
10
0
20
0
30
0
70
128
71
5
72
2
73
1
0
VERTEX
8
OBJECT__21
10
0
20
0
30
0
70
128
71
9
72
10
73
7
0
VERTEX
8
OBJECT__21
10
0
20
0
30
0
70
128
71
9
72
11
73
10
0
VERTEX
8
OBJECT__21
10
0
20
0
30
0
70
128
71
7
72
1
73
9
0
VERTEX
8
OBJECT__21
10
0
20
0
30
0
70
128
71
9
72
12
73
11
0
VERTEX
8
OBJECT__21
10
0
20
0
30
0
70
128
71
1
72
13
73
14
0
VERTEX
8
OBJECT__21
10
0
20
0
30
0
70
128
71
14
72
15
73
1
0
VERTEX
8
OBJECT__21
10
0
20
0
30
0
70
128
71
15
72
16
73
1
0
VERTEX
8
OBJECT__21
10
0
20
0
30
0
70
128
71
16
72
17
73
1
0
VERTEX
8
OBJECT__21
10
0
20
0
30
0
70
128
71
1
72
18
73
19
0
VERTEX
8
OBJECT__21
10
0
20
0
30
0
70
128
71
1
72
20
73
18
0
VERTEX
8
OBJECT__21
10
0
20
0
30
0
70
128
71
1
72
21
73
20
0
VERTEX
8
OBJECT__21
10
0
20
0
30
0
70
128
71
19
72
13
73
1
0
VERTEX
8
OBJECT__21
10
0
20
0
30
0
70
128
71
1
72
22
73
23
0
VERTEX
8
OBJECT__21
10
0
20
0
30
0
70
128
71
23
72
21
73
1
0
VERTEX
8
OBJECT__21
10
0
20
0
30
0
70
128
71
1
72
24
73
25
0
VERTEX
8
OBJECT__21
10
0
20
0
30
0
70
128
71
25
72
22
73
1
0
VERTEX
8
OBJECT__21
10
0
20
0
30
0
70
128
71
17
72
26
73
1
0
VERTEX
8
OBJECT__21
10
0
20
0
30
0
70
128
71
3
72
24
73
1
0
SEQEND
8
OBJECT__21
0
POLYLINE
8
OBJECT__22
66
1
70
64
71
58
72
65
62
253
0
VERTEX
8
OBJECT__22
10
103.733002
20
-11.394000
30
10.042000
70
192
0
VERTEX
8
OBJECT__22
10
103.733002
20
-8.082000
30
12.859000
70
192
0
VERTEX
8
OBJECT__22
10
102.667000
20
-9.897000
30
11.967000
70
192
0
VERTEX
8
OBJECT__22
10
102.667000
20
-8.349000
30
13.283000
70
192
0
VERTEX
8
OBJECT__22
10
103.733002
20
-13.773000
30
6.402000
70
192
0
VERTEX
8
OBJECT__22
10
102.667000
20
-12.573000
30
9.144000
70
192
0
VERTEX
8
OBJECT__22
10
102.667000
20
-11.770000
30
10.373000
70
192
0
VERTEX
8
OBJECT__22
10
103.733002
20
-15.022000
30
2.237000
70
192
0
VERTEX
8
OBJECT__22
10
102.667000
20
-14.487000
30
5.746000
70
192
0
VERTEX
8
OBJECT__22
10
102.667000
20
-14.227000
30
6.613000
70
192
0
VERTEX
8
OBJECT__22
10
103.733002
20
-15.040000
30
-2.111000
70
192
0
VERTEX
8
OBJECT__22
10
102.667000
20
-15.519000
30
1.966000
70
192
0
VERTEX
8
OBJECT__22
10
102.667000
20
-15.518000
30
2.311000
70
192
0
VERTEX
8
OBJECT__22
10
102.667000
20
-15.536000
30
-1.966000
70
192
0
VERTEX
8
OBJECT__22
10
102.667000
20
-15.537000
30
-2.181000
70
192
0
VERTEX
8
OBJECT__22
10
102.667000
20
-14.498000
30
-5.750000
70
192
0
VERTEX
8
OBJECT__22
10
103.733002
20
-13.826000
30
-6.286000
70
192
0
VERTEX
8
OBJECT__22
10
102.667000
20
-14.282000
30
-6.493000
70
192
0
VERTEX
8
OBJECT__22
10
102.667000
20
-12.579000
30
-9.149000
70
192
0
VERTEX
8
OBJECT__22
10
103.733002
20
-11.478000
30
-9.946000
70
192
0
VERTEX
8
OBJECT__22
10
102.667000
20
-11.857000
30
-10.274000
70
192
0
VERTEX
8
OBJECT__22
10
102.667000
20
-9.897000
30
-11.969000
70
192
0
VERTEX
8
OBJECT__22
10
103.733002
20
-8.190000
30
-12.790000
70
192
0
VERTEX
8
OBJECT__22
10
103.733002
20
-4.230000
30
-14.587000
70
192
0
VERTEX
8
OBJECT__22
10
102.667000
20
-6.614000
30
-14.050000
70
192
0
VERTEX
8
OBJECT__22
10
102.667000
20
-8.460000
30
-13.212000
70
192
0
VERTEX
8
OBJECT__22
10
104.333000
20
-10.633000
30
9.371000
70
192
0
VERTEX
8
OBJECT__22
10
104.333000
20
-8.146000
30
11.486000
70
192
0
VERTEX
8
OBJECT__22
10
104.333000
20
-12.852000
30
5.974000
70
192
0
VERTEX
8
OBJECT__22
10
104.333000
20
-11.249000
30
8.428000
70
192
0
VERTEX
8
OBJECT__22
10
104.333000
20
-14.018000
30
2.088000
70
192
0
VERTEX
8
OBJECT__22
10
104.333000
20
-13.272000
30
4.574000
70
192
0
VERTEX
8
OBJECT__22
10
104.333000
20
-14.035000
30
-1.970000
70
192
0
VERTEX
8
OBJECT__22
10
104.333000
20
-14.026000
30
0.291000
70
192
0
VERTEX
8
OBJECT__22
10
104.333000
20
-13.440000
30
-4.017000
70
192
0
VERTEX
8
OBJECT__22
10
104.333000
20
-12.902000
30
-5.866000
70
192
0
VERTEX
8
OBJECT__22
10
104.333000
20
-11.570000
30
-7.942000
70
192
0
VERTEX
8
OBJECT__22
10
104.333000
20
-10.711000
30
-9.281000
70
192
0
VERTEX
8
OBJECT__22
10
104.333000
20
-8.592000
30
-11.114000
70
192
0
VERTEX
8
OBJECT__22
10
104.333000
20
-7.643000
30
-11.936000
70
192
0
VERTEX
8
OBJECT__22
10
104.333000
20
-4.787000
30
-13.232000
70
192
0
VERTEX
8
OBJECT__22
10
104.333000
20
-3.948000
30
-13.612000
70
192
0
VERTEX
8
OBJECT__22
10
103.713997
20
-0.387000
30
-15.163000
70
192
0
VERTEX
8
OBJECT__22
10
102.667000
20
-2.921000
30
-15.283000
70
192
0
VERTEX
8
OBJECT__22
10
102.936996
20
-0.211000
30
-15.630000
70
192
0
VERTEX
8
OBJECT__22
10
103.559998
20
-0.327000
30
-15.325000
70
192
0
VERTEX
8
OBJECT__22
10
102.667000
20
-0.189000
30
-15.688000
70
192
0
VERTEX
8
OBJECT__22
10
102.667000
20
-4.370000
30
-15.068000
70
192
0
VERTEX
8
OBJECT__22
10
104.055000
20
-0.521000
30
-14.803000
70
192
0
VERTEX
8
OBJECT__22
10
104.333000
20
-0.756000
30
-14.153000
70
192
0
VERTEX
8
OBJECT__22
10
104.185997
20
-4.500000
30
13.870000
70
192
0
VERTEX
8
OBJECT__22
10
103.811996
20
-4.500000
30
14.427000
70
192
0
VERTEX
8
OBJECT__22
10
104.333000
20
-7.542000
30
11.999000
70
192
0
VERTEX
8
OBJECT__22
10
104.333000
20
-4.500000
30
13.440000
70
192
0
VERTEX
8
OBJECT__22
10
103.724998
20
-4.500000
30
14.493000
70
192
0
VERTEX
8
OBJECT__22
10
103.290001
20
-4.500000
30
14.825000
70
192
0
VERTEX
8
OBJECT__22
10
102.667000
20
-6.622000
30
14.067000
70
192
0
VERTEX
8
OBJECT__22
10
102.667000
20
-4.500000
30
15.030000
70
192
0
VERTEX
8
OBJECT__22
10
0
20
0
30
0
70
128
71
1
72
2
73
3
0
VERTEX
8
OBJECT__22
10
0
20
0
30
0
70
128
71
2
72
4
73
3
0
VERTEX
8
OBJECT__22
10
0
20
0
30
0
70
128
71
5
72
1
73
6
0
VERTEX
8
OBJECT__22
10
0
20
0
30
0
70
128
71
1
72
7
73
6
0
VERTEX
8
OBJECT__22
10
0
20
0
30
0
70
128
71
8
72
5
73
9
0
VERTEX
8
OBJECT__22
10
0
20
0
30
0
70
128
71
5
72
10
73
9
0
VERTEX
8
OBJECT__22
10
0
20
0
30
0
70
128
71
11
72
8
73
12
0
VERTEX
8
OBJECT__22
10
0
20
0
30
0
70
128
71
8
72
13
73
12
0
VERTEX
8
OBJECT__22
10
0
20
0
30
0
70
128
71
12
72
14
73
11
0
VERTEX
8
OBJECT__22
10
0
20
0
30
0
70
128
71
11
72
15
73
16
0
VERTEX
8
OBJECT__22
10
0
20
0
30
0
70
128
71
16
72
17
73
11
0
VERTEX
8
OBJECT__22
10
0
20
0
30
0
70
128
71
17
72
18
73
19
0
VERTEX
8
OBJECT__22
10
0
20
0
30
0
70
128
71
19
72
20
73
17
0
VERTEX
8
OBJECT__22
10
0
20
0
30
0
70
128
71
20
72
21
73
22
0
VERTEX
8
OBJECT__22
10
0
20
0
30
0
70
128
71
22
72
23
73
20
0
VERTEX
8
OBJECT__22
10
0
20
0
30
0
70
128
71
24
72
23
73
25
0
VERTEX
8
OBJECT__22
10
0
20
0
30
0
70
128
71
23
72
26
73
25
0
VERTEX
8
OBJECT__22
10
0
20
0
30
0
70
128
71
1
72
27
73
28
0
VERTEX
8
OBJECT__22
10
0
20
0
30
0
70
128
71
28
72
2
73
1
0
VERTEX
8
OBJECT__22
10
0
20
0
30
0
70
128
71
5
72
29
73
30
0
VERTEX
8
OBJECT__22
10
0
20
0
30
0
70
128
71
30
72
1
73
5
0
VERTEX
8
OBJECT__22
10
0
20
0
30
0
70
128
71
8
72
31
73
32
0
VERTEX
8
OBJECT__22
10
0
20
0
30
0
70
128
71
32
72
5
73
8
0
VERTEX
8
OBJECT__22
10
0
20
0
30
0
70
128
71
11
72
33
73
34
0
VERTEX
8
OBJECT__22
10
0
20
0
30
0
70
128
71
34
72
8
73
11
0
VERTEX
8
OBJECT__22
10
0
20
0
30
0
70
128
71
11
72
17
73
35
0
VERTEX
8
OBJECT__22
10
0
20
0
30
0
70
128
71
17
72
36
73
35
0
VERTEX
8
OBJECT__22
10
0
20
0
30
0
70
128
71
17
72
20
73
37
0
VERTEX
8
OBJECT__22
10
0
20
0
30
0
70
128
71
20
72
38
73
37
0
VERTEX
8
OBJECT__22
10
0
20
0
30
0
70
128
71
20
72
23
73
39
0
VERTEX
8
OBJECT__22
10
0
20
0
30
0
70
128
71
23
72
40
73
39
0
VERTEX
8
OBJECT__22
10
0
20
0
30
0
70
128
71
23
72
24
73
41
0
VERTEX
8
OBJECT__22
10
0
20
0
30
0
70
128
71
24
72
42
73
41
0
VERTEX
8
OBJECT__22
10
0
20
0
30
0
70
128
71
43
72
24
73
44
0
VERTEX
8
OBJECT__22
10
0
20
0
30
0
70
128
71
44
72
45
73
46
0
VERTEX
8
OBJECT__22
10
0
20
0
30
0
70
128
71
44
72
47
73
45
0
VERTEX
8
OBJECT__22
10
0
20
0
30
0
70
128
71
24
72
48
73
44
0
VERTEX
8
OBJECT__22
10
0
20
0
30
0
70
128
71
24
72
49
73
50
0
VERTEX
8
OBJECT__22
10
0
20
0
30
0
70
128
71
24
72
43
73
49
0
VERTEX
8
OBJECT__22
10
0
20
0
30
0
70
128
71
2
72
51
73
52
0
VERTEX
8
OBJECT__22
10
0
20
0
30
0
70
128
71
2
72
53
73
54
0
VERTEX
8
OBJECT__22
10
0
20
0
30
0
70
128
71
54
72
51
73
2
0
VERTEX
8
OBJECT__22
10
0
20
0
30
0
70
128
71
55
72
56
73
57
0
VERTEX
8
OBJECT__22
10
0
20
0
30
0
70
128
71
57
72
2
73
55
0
VERTEX
8
OBJECT__22
10
0
20
0
30
0
70
128
71
56
72
58
73
57
0
VERTEX
8
OBJECT__22
10
0
20
0
30
0
70
128
71
57
72
4
73
2
0
VERTEX
8
OBJECT__22
10
0
20
0
30
0
70
128
71
52
72
55
73
2
0
VERTEX
8
OBJECT__22
10
0
20
0
30
0
70
128
71
50
72
42
73
24
0
VERTEX
8
OBJECT__22
10
0
20
0
30
0
70
128
71
44
72
46
73
43
0
VERTEX
8
OBJECT__22
10
0
20
0
30
0
70
128
71
41
72
40
73
23
0
VERTEX
8
OBJECT__22
10
0
20
0
30
0
70
128
71
39
72
38
73
20
0
VERTEX
8
OBJECT__22
10
0
20
0
30
0
70
128
71
37
72
36
73
17
0
VERTEX
8
OBJECT__22
10
0
20
0
30
0
70
128
71
35
72
33
73
11
0
VERTEX
8
OBJECT__22
10
0
20
0
30
0
70
128
71
34
72
31
73
8
0
VERTEX
8
OBJECT__22
10
0
20
0
30
0
70
128
71
32
72
29
73
5
0
VERTEX
8
OBJECT__22
10
0
20
0
30
0
70
128
71
30
72
27
73
1
0
VERTEX
8
OBJECT__22
10
0
20
0
30
0
70
128
71
28
72
53
73
2
0
VERTEX
8
OBJECT__22
10
0
20
0
30
0
70
128
71
25
72
48
73
24
0
VERTEX
8
OBJECT__22
10
0
20
0
30
0
70
128
71
22
72
26
73
23
0
VERTEX
8
OBJECT__22
10
0
20
0
30
0
70
128
71
19
72
21
73
20
0
VERTEX
8
OBJECT__22
10
0
20
0
30
0
70
128
71
16
72
18
73
17
0
VERTEX
8
OBJECT__22
10
0
20
0
30
0
70
128
71
14
72
15
73
11
0
VERTEX
8
OBJECT__22
10
0
20
0
30
0
70
128
71
9
72
13
73
8
0
VERTEX
8
OBJECT__22
10
0
20
0
30
0
70
128
71
6
72
10
73
5
0
VERTEX
8
OBJECT__22
10
0
20
0
30
0
70
128
71
3
72
7
73
1
0
SEQEND
8
OBJECT__22
0
POLYLINE
8
OBJECT__23
66
1
70
64
71
45
72
51
62
253
0
VERTEX
8
OBJECT__23
10
104.333000
20
-7.643000
30
-11.936000
70
192
0
VERTEX
8
OBJECT__23
10
104.333000
20
-4.787000
30
-13.232000
70
192
0
VERTEX
8
OBJECT__23
10
105.352997
20
-3.022000
30
-8.338000
70
192
0
VERTEX
8
OBJECT__23
10
105.352997
20
-5.428000
30
-7.014000
70
192
0
VERTEX
8
OBJECT__23
10
104.333000
20
-8.592000
30
-11.114000
70
192
0
VERTEX
8
OBJECT__23
10
104.333000
20
-10.711000
30
-9.281000
70
192
0
VERTEX
8
OBJECT__23
10
105.352997
20
-7.313000
30
-5.017000
70
192
0
VERTEX
8
OBJECT__23
10
104.333000
20
-11.570000
30
-7.942000
70
192
0
VERTEX
8
OBJECT__23
10
104.333000
20
-12.902000
30
-5.866000
70
192
0
VERTEX
8
OBJECT__23
10
105.352997
20
-8.498000
30
-2.539000
70
192
0
VERTEX
8
OBJECT__23
10
104.333000
20
-13.440000
30
-4.017000
70
192
0
VERTEX
8
OBJECT__23
10
104.333000
20
-14.035000
30
-1.970000
70
192
0
VERTEX
8
OBJECT__23
10
105.352997
20
-8.867000
30
0.183000
70
192
0
VERTEX
8
OBJECT__23
10
104.333000
20
-14.026000
30
0.291000
70
192
0
VERTEX
8
OBJECT__23
10
104.333000
20
-14.018000
30
2.088000
70
192
0
VERTEX
8
OBJECT__23
10
105.352997
20
-8.386000
30
2.887000
70
192
0
VERTEX
8
OBJECT__23
10
104.333000
20
-13.272000
30
4.574000
70
192
0
VERTEX
8
OBJECT__23
10
104.333000
20
-12.852000
30
5.974000
70
192
0
VERTEX
8
OBJECT__23
10
105.352997
20
-7.101000
30
5.314000
70
192
0
VERTEX
8
OBJECT__23
10
104.333000
20
-11.249000
30
8.428000
70
192
0
VERTEX
8
OBJECT__23
10
104.333000
20
-10.633000
30
9.371000
70
192
0
VERTEX
8
OBJECT__23
10
105.352997
20
-5.134000
30
7.231000
70
192
0
VERTEX
8
OBJECT__23
10
104.333000
20
-8.146000
30
11.486000
70
192
0
VERTEX
8
OBJECT__23
10
104.754997
20
-4.500000
30
11.417000
70
192
0
VERTEX
8
OBJECT__23
10
104.333000
20
-4.500000
30
13.440000
70
192
0
VERTEX
8
OBJECT__23
10
104.333000
20
-7.542000
30
11.999000
70
192
0
VERTEX
8
OBJECT__23
10
105.351997
20
-4.500000
30
7.638000
70
192
0
VERTEX
8
OBJECT__23
10
104.869003
20
-1.606000
30
-11.590000
70
192
0
VERTEX
8
OBJECT__23
10
105.337997
20
-2.468000
30
-8.441000
70
192
0
VERTEX
8
OBJECT__23
10
104.333000
20
-3.948000
30
-13.612000
70
192
0
VERTEX
8
OBJECT__23
10
104.333000
20
-0.756000
30
-14.153000
70
192
0
VERTEX
8
OBJECT__23
10
105.472000
20
-2.715000
30
-7.540000
70
192
0
VERTEX
8
OBJECT__23
10
105.473999
20
-2.719000
30
-7.520000
70
192
0
VERTEX
8
OBJECT__23
10
105.704002
20
-3.313000
30
-4.625000
70
192
0
VERTEX
8
OBJECT__23
10
105.714996
20
-3.342000
30
-4.481000
70
192
0
VERTEX
8
OBJECT__23
10
105.802002
20
-3.565000
30
-3.395000
70
192
0
VERTEX
8
OBJECT__23
10
105.824997
20
-3.688000
30
-2.597000
70
192
0
VERTEX
8
OBJECT__23
10
105.862999
20
-3.891000
30
-1.287000
70
192
0
VERTEX
8
OBJECT__23
10
105.862000
20
-3.904000
30
-1.173000
70
192
0
VERTEX
8
OBJECT__23
10
105.843002
20
-4.194000
30
1.287000
70
192
0
VERTEX
8
OBJECT__23
10
105.834999
20
-4.208000
30
1.466000
70
192
0
VERTEX
8
OBJECT__23
10
105.851997
20
-4.055000
30
0.111000
70
192
0
VERTEX
8
OBJECT__23
10
105.750000
20
-4.364000
30
3.385000
70
192
0
VERTEX
8
OBJECT__23
10
105.449997
20
-4.468000
30
6.613000
70
192
0
VERTEX
8
OBJECT__23
10
105.360001
20
-4.500000
30
7.590000
70
192
0
VERTEX
8
OBJECT__23
10
0
20
0
30
0
70
128
71
1
72
2
73
3
0
VERTEX
8
OBJECT__23
10
0
20
0
30
0
70
128
71
4
72
5
73
1
0
VERTEX
8
OBJECT__23
10
0
20
0
30
0
70
128
71
6
72
5
73
4
0
VERTEX
8
OBJECT__23
10
0
20
0
30
0
70
128
71
7
72
8
73
6
0
VERTEX
8
OBJECT__23
10
0
20
0
30
0
70
128
71
9
72
8
73
7
0
VERTEX
8
OBJECT__23
10
0
20
0
30
0
70
128
71
10
72
11
73
9
0
VERTEX
8
OBJECT__23
10
0
20
0
30
0
70
128
71
12
72
10
73
13
0
VERTEX
8
OBJECT__23
10
0
20
0
30
0
70
128
71
13
72
14
73
12
0
VERTEX
8
OBJECT__23
10
0
20
0
30
0
70
128
71
15
72
13
73
16
0
VERTEX
8
OBJECT__23
10
0
20
0
30
0
70
128
71
16
72
17
73
15
0
VERTEX
8
OBJECT__23
10
0
20
0
30
0
70
128
71
18
72
16
73
19
0
VERTEX
8
OBJECT__23
10
0
20
0
30
0
70
128
71
19
72
20
73
18
0
VERTEX
8
OBJECT__23
10
0
20
0
30
0
70
128
71
21
72
19
73
22
0
VERTEX
8
OBJECT__23
10
0
20
0
30
0
70
128
71
22
72
23
73
21
0
VERTEX
8
OBJECT__23
10
0
20
0
30
0
70
128
71
24
72
25
73
26
0
VERTEX
8
OBJECT__23
10
0
20
0
30
0
70
128
71
23
72
22
73
27
0
VERTEX
8
OBJECT__23
10
0
20
0
30
0
70
128
71
27
72
24
73
23
0
VERTEX
8
OBJECT__23
10
0
20
0
30
0
70
128
71
2
72
28
73
29
0
VERTEX
8
OBJECT__23
10
0
20
0
30
0
70
128
71
28
72
2
73
30
0
VERTEX
8
OBJECT__23
10
0
20
0
30
0
70
128
71
30
72
31
73
28
0
VERTEX
8
OBJECT__23
10
0
20
0
30
0
70
128
71
3
72
29
73
32
0
VERTEX
8
OBJECT__23
10
0
20
0
30
0
70
128
71
4
72
3
73
33
0
VERTEX
8
OBJECT__23
10
0
20
0
30
0
70
128
71
7
72
4
73
34
0
VERTEX
8
OBJECT__23
10
0
20
0
30
0
70
128
71
34
72
35
73
7
0
VERTEX
8
OBJECT__23
10
0
20
0
30
0
70
128
71
35
72
36
73
7
0
VERTEX
8
OBJECT__23
10
0
20
0
30
0
70
128
71
10
72
7
73
37
0
VERTEX
8
OBJECT__23
10
0
20
0
30
0
70
128
71
37
72
38
73
10
0
VERTEX
8
OBJECT__23
10
0
20
0
30
0
70
128
71
13
72
10
73
39
0
VERTEX
8
OBJECT__23
10
0
20
0
30
0
70
128
71
13
72
40
73
41
0
VERTEX
8
OBJECT__23
10
0
20
0
30
0
70
128
71
13
72
42
73
40
0
VERTEX
8
OBJECT__23
10
0
20
0
30
0
70
128
71
16
72
41
73
43
0
VERTEX
8
OBJECT__23
10
0
20
0
30
0
70
128
71
19
72
43
73
44
0
VERTEX
8
OBJECT__23
10
0
20
0
30
0
70
128
71
22
72
44
73
45
0
VERTEX
8
OBJECT__23
10
0
20
0
30
0
70
128
71
45
72
27
73
22
0
VERTEX
8
OBJECT__23
10
0
20
0
30
0
70
128
71
44
72
22
73
19
0
VERTEX
8
OBJECT__23
10
0
20
0
30
0
70
128
71
43
72
19
73
16
0
VERTEX
8
OBJECT__23
10
0
20
0
30
0
70
128
71
41
72
16
73
13
0
VERTEX
8
OBJECT__23
10
0
20
0
30
0
70
128
71
39
72
42
73
13
0
VERTEX
8
OBJECT__23
10
0
20
0
30
0
70
128
71
38
72
39
73
10
0
VERTEX
8
OBJECT__23
10
0
20
0
30
0
70
128
71
36
72
37
73
7
0
VERTEX
8
OBJECT__23
10
0
20
0
30
0
70
128
71
33
72
34
73
4
0
VERTEX
8
OBJECT__23
10
0
20
0
30
0
70
128
71
32
72
33
73
3
0
VERTEX
8
OBJECT__23
10
0
20
0
30
0
70
128
71
29
72
3
73
2
0
VERTEX
8
OBJECT__23
10
0
20
0
30
0
70
128
71
26
72
23
73
24
0
VERTEX
8
OBJECT__23
10
0
20
0
30
0
70
128
71
21
72
20
73
19
0
VERTEX
8
OBJECT__23
10
0
20
0
30
0
70
128
71
18
72
17
73
16
0
VERTEX
8
OBJECT__23
10
0
20
0
30
0
70
128
71
15
72
14
73
13
0
VERTEX
8
OBJECT__23
10
0
20
0
30
0
70
128
71
12
72
11
73
10
0
VERTEX
8
OBJECT__23
10
0
20
0
30
0
70
128
71
7
72
10
73
9
0
VERTEX
8
OBJECT__23
10
0
20
0
30
0
70
128
71
4
72
7
73
6
0
VERTEX
8
OBJECT__23
10
0
20
0
30
0
70
128
71
3
72
4
73
1
0
SEQEND
8
OBJECT__23
0
POLYLINE
8
OBJECT__24
66
1
70
64
71
154
72
179
62
253
0
VERTEX
8
OBJECT__24
10
73.375000
20
19.455000
30
0.000000
70
192
0
VERTEX
8
OBJECT__24
10
102.667000
20
15.546000
30
0.010000
70
192
0
VERTEX
8
OBJECT__24
10
102.667000
20
15.318000
30
-3.392000
70
192
0
VERTEX
8
OBJECT__24
10
73.375000
20
18.844000
30
-4.838000
70
192
0
VERTEX
8
OBJECT__24
10
102.667000
20
15.131000
30
-3.876000
70
192
0
VERTEX
8
OBJECT__24
10
102.667000
20
13.712000
30
-7.544000
70
192
0
VERTEX
8
OBJECT__24
10
73.375000
20
14.182000
30
-13.318000
70
192
0
VERTEX
8
OBJECT__24
10
73.375000
20
17.049000
30
-9.373000
70
192
0
VERTEX
8
OBJECT__24
10
102.667000
20
13.615000
30
-7.795000
70
192
0
VERTEX
8
OBJECT__24
10
73.375000
20
-8.284000
30
-17.604000
70
192
0
VERTEX
8
OBJECT__24
10
73.375000
20
-3.646000
30
-19.111000
70
192
0
VERTEX
8
OBJECT__24
10
102.667000
20
-4.370000
30
-15.068000
70
192
0
VERTEX
8
OBJECT__24
10
102.667000
20
-2.921000
30
-15.283000
70
192
0
VERTEX
8
OBJECT__24
10
102.667000
20
-6.614000
30
-14.050000
70
192
0
VERTEX
8
OBJECT__24
10
102.667000
20
-8.460000
30
-13.212000
70
192
0
VERTEX
8
OBJECT__24
10
73.375000
20
-12.401000
30
-14.991000
70
192
0
VERTEX
8
OBJECT__24
10
102.667000
20
-9.897000
30
-11.969000
70
192
0
VERTEX
8
OBJECT__24
10
102.667000
20
-11.857000
30
-10.274000
70
192
0
VERTEX
8
OBJECT__24
10
73.375000
20
-15.740000
30
-11.436000
70
192
0
VERTEX
8
OBJECT__24
10
102.667000
20
-12.579000
30
-9.149000
70
192
0
VERTEX
8
OBJECT__24
10
102.667000
20
-14.282000
30
-6.493000
70
192
0
VERTEX
8
OBJECT__24
10
73.375000
20
-18.089001
30
-7.162000
70
192
0
VERTEX
8
OBJECT__24
10
102.667000
20
-14.498000
30
-5.750000
70
192
0
VERTEX
8
OBJECT__24
10
102.667000
20
-15.537000
30
-2.181000
70
192
0
VERTEX
8
OBJECT__24
10
73.375000
20
-19.302000
30
-2.438000
70
192
0
VERTEX
8
OBJECT__24
10
73.375000
20
-19.302000
30
2.438000
70
192
0
VERTEX
8
OBJECT__24
10
102.667000
20
-15.536000
30
-1.966000
70
192
0
VERTEX
8
OBJECT__24
10
73.375000
20
-18.089001
30
7.162000
70
192
0
VERTEX
8
OBJECT__24
10
102.667000
20
-15.518000
30
2.311000
70
192
0
VERTEX
8
OBJECT__24
10
102.667000
20
-15.519000
30
1.966000
70
192
0
VERTEX
8
OBJECT__24
10
73.375000
20
-15.740000
30
11.436000
70
192
0
VERTEX
8
OBJECT__24
10
102.667000
20
-14.227000
30
6.613000
70
192
0
VERTEX
8
OBJECT__24
10
102.667000
20
-14.487000
30
5.746000
70
192
0
VERTEX
8
OBJECT__24
10
73.375000
20
-12.401000
30
14.991000
70
192
0
VERTEX
8
OBJECT__24
10
102.667000
20
-11.770000
30
10.373000
70
192
0
VERTEX
8
OBJECT__24
10
102.667000
20
-12.573000
30
9.144000
70
192
0
VERTEX
8
OBJECT__24
10
102.667000
20
-9.897000
30
11.967000
70
192
0
VERTEX
8
OBJECT__24
10
102.667000
20
-8.349000
30
13.283000
70
192
0
VERTEX
8
OBJECT__24
10
73.375000
20
-8.284000
30
17.604000
70
192
0
VERTEX
8
OBJECT__24
10
73.375000
20
6.012000
30
18.503000
70
192
0
VERTEX
8
OBJECT__24
10
102.667000
20
4.828000
30
14.877000
70
192
0
VERTEX
8
OBJECT__24
10
102.667000
20
8.393000
30
13.217000
70
192
0
VERTEX
8
OBJECT__24
10
73.375000
20
14.182000
30
13.318000
70
192
0
VERTEX
8
OBJECT__24
10
73.375000
20
10.425000
30
16.427000
70
192
0
VERTEX
8
OBJECT__24
10
102.667000
20
8.604000
30
13.119000
70
192
0
VERTEX
8
OBJECT__24
10
73.375000
20
17.049000
30
9.373000
70
192
0
VERTEX
8
OBJECT__24
10
102.667000
20
12.117000
30
9.966000
70
192
0
VERTEX
8
OBJECT__24
10
102.667000
20
11.356000
30
10.649000
70
192
0
VERTEX
8
OBJECT__24
10
73.375000
20
18.844000
30
4.838000
70
192
0
VERTEX
8
OBJECT__24
10
102.667000
20
14.533000
30
5.910000
70
192
0
VERTEX
8
OBJECT__24
10
102.667000
20
13.603000
30
7.472000
70
192
0
VERTEX
8
OBJECT__24
10
102.667000
20
15.024000
30
3.861000
70
192
0
VERTEX
8
OBJECT__24
10
102.667000
20
15.633000
30
1.319000
70
192
0
VERTEX
8
OBJECT__24
10
44.000000
20
21.792999
30
-5.596000
70
192
0
VERTEX
8
OBJECT__24
10
44.000000
20
22.500000
30
0.000000
70
192
0
VERTEX
8
OBJECT__24
10
44.000000
20
19.716999
30
-10.839000
70
192
0
VERTEX
8
OBJECT__24
10
44.000000
20
12.056000
30
-18.997000
70
192
0
VERTEX
8
OBJECT__24
10
44.000000
20
16.402000
30
-15.402000
70
192
0
VERTEX
8
OBJECT__24
10
44.000000
20
6.953000
30
-21.399000
70
192
0
VERTEX
8
OBJECT__24
10
73.375000
20
10.425000
30
-16.427000
70
192
0
VERTEX
8
OBJECT__24
10
44.000000
20
1.413000
30
-22.455999
70
192
0
VERTEX
8
OBJECT__24
10
73.375000
20
6.012000
30
-18.503000
70
192
0
VERTEX
8
OBJECT__24
10
44.000000
20
-4.216000
30
-22.101000
70
192
0
VERTEX
8
OBJECT__24
10
73.375000
20
1.222000
30
-19.417000
70
192
0
VERTEX
8
OBJECT__24
10
44.000000
20
-9.580000
30
-20.358999
70
192
0
VERTEX
8
OBJECT__24
10
44.000000
20
-14.342000
30
-17.337000
70
192
0
VERTEX
8
OBJECT__24
10
44.000000
20
-18.202999
30
-13.225000
70
192
0
VERTEX
8
OBJECT__24
10
44.000000
20
-20.920000
30
-8.283000
70
192
0
VERTEX
8
OBJECT__24
10
44.000000
20
-22.323000
30
-2.820000
70
192
0
VERTEX
8
OBJECT__24
10
44.000000
20
-22.323000
30
2.820000
70
192
0
VERTEX
8
OBJECT__24
10
44.000000
20
-20.920000
30
8.283000
70
192
0
VERTEX
8
OBJECT__24
10
44.000000
20
-18.202999
30
13.225000
70
192
0
VERTEX
8
OBJECT__24
10
44.000000
20
-14.342000
30
17.337000
70
192
0
VERTEX
8
OBJECT__24
10
44.000000
20
-9.580000
30
20.358999
70
192
0
VERTEX
8
OBJECT__24
10
44.000000
20
12.056000
30
18.997000
70
192
0
VERTEX
8
OBJECT__24
10
44.000000
20
6.953000
30
21.399000
70
192
0
VERTEX
8
OBJECT__24
10
44.000000
20
19.716999
30
10.839000
70
192
0
VERTEX
8
OBJECT__24
10
44.000000
20
16.402000
30
15.402000
70
192
0
VERTEX
8
OBJECT__24
10
44.000000
20
21.792999
30
5.596000
70
192
0
VERTEX
8
OBJECT__24
10
64.000000
20
4.500000
30
20.007000
70
192
0
VERTEX
8
OBJECT__24
10
73.196999
20
4.500000
30
18.948999
70
192
0
VERTEX
8
OBJECT__24
10
59.737000
20
4.399000
30
20.493000
70
192
0
VERTEX
8
OBJECT__24
10
57.601002
20
4.272000
30
20.746000
70
192
0
VERTEX
8
OBJECT__24
10
59.728001
20
4.399000
30
20.493999
70
192
0
VERTEX
8
OBJECT__24
10
55.469002
20
4.095000
30
21.003000
70
192
0
VERTEX
8
OBJECT__24
10
53.682999
20
3.843000
30
21.232000
70
192
0
VERTEX
8
OBJECT__24
10
50.999001
20
3.145000
30
21.613001
70
192
0
VERTEX
8
OBJECT__24
10
48.710999
20
2.217000
30
21.948999
70
192
0
VERTEX
8
OBJECT__24
10
50.816002
20
3.071000
30
21.639999
70
192
0
VERTEX
8
OBJECT__24
10
44.000000
20
1.413000
30
22.455999
70
192
0
VERTEX
8
OBJECT__24
10
47.234001
20
1.391000
30
22.149000
70
192
0
VERTEX
8
OBJECT__24
10
55.469002
20
-4.095000
30
21.003000
70
192
0
VERTEX
8
OBJECT__24
10
54.981998
20
-4.018000
30
21.066000
70
192
0
VERTEX
8
OBJECT__24
10
61.859001
20
-4.475000
30
20.247999
70
192
0
VERTEX
8
OBJECT__24
10
59.728001
20
-4.399000
30
20.493999
70
192
0
VERTEX
8
OBJECT__24
10
64.000000
20
-4.500000
30
20.007000
70
192
0
VERTEX
8
OBJECT__24
10
73.375000
20
-4.500000
30
18.924000
70
192
0
VERTEX
8
OBJECT__24
10
59.720001
20
-4.398000
30
20.495001
70
192
0
VERTEX
8
OBJECT__24
10
46.266998
20
0.753000
30
22.278000
70
192
0
VERTEX
8
OBJECT__24
10
46.550999
20
1.009000
30
22.242001
70
192
0
VERTEX
8
OBJECT__24
10
46.074001
20
0.410000
30
22.305000
70
192
0
VERTEX
8
OBJECT__24
10
46.000000
20
0.023000
30
22.316000
70
192
0
VERTEX
8
OBJECT__24
10
44.000000
20
-4.216000
30
22.101000
70
192
0
VERTEX
8
OBJECT__24
10
46.063999
20
-0.384000
30
22.306999
70
192
0
VERTEX
8
OBJECT__24
10
46.004002
20
0.000000
30
22.315001
70
192
0
VERTEX
8
OBJECT__24
10
50.654999
20
-3.026000
30
21.664000
70
192
0
VERTEX
8
OBJECT__24
10
48.132000
20
-1.925000
30
22.032000
70
192
0
VERTEX
8
OBJECT__24
10
53.027000
20
-3.709000
30
21.322001
70
192
0
VERTEX
8
OBJECT__24
10
50.846001
20
-3.081000
30
21.636000
70
192
0
VERTEX
8
OBJECT__24
10
46.550999
20
-1.009000
30
22.242001
70
192
0
VERTEX
8
OBJECT__24
10
46.255001
20
-0.738000
30
22.280001
70
192
0
VERTEX
8
OBJECT__24
10
81.088997
20
-4.500000
30
17.969000
70
192
0
VERTEX
8
OBJECT__24
10
74.341003
20
-4.500000
30
18.812000
70
192
0
VERTEX
8
OBJECT__24
10
97.942001
20
-4.500000
30
15.714000
70
192
0
VERTEX
8
OBJECT__24
10
84.669998
20
-4.500000
30
17.521000
70
192
0
VERTEX
8
OBJECT__24
10
100.400002
20
-4.500000
30
15.361000
70
192
0
VERTEX
8
OBJECT__24
10
98.147003
20
-4.482000
30
15.690000
70
192
0
VERTEX
8
OBJECT__24
10
98.429001
20
-4.388000
30
15.677000
70
192
0
VERTEX
8
OBJECT__24
10
98.664001
20
-4.218000
30
15.690000
70
192
0
VERTEX
8
OBJECT__24
10
100.400002
20
-2.999000
30
15.723000
70
192
0
VERTEX
8
OBJECT__24
10
98.963997
20
-3.031000
30
15.882000
70
192
0
VERTEX
8
OBJECT__24
10
98.915001
20
-3.692000
30
15.786000
70
192
0
VERTEX
8
OBJECT__24
10
98.835999
20
-3.975000
30
15.729000
70
192
0
VERTEX
8
OBJECT__24
10
102.667000
20
-6.622000
30
14.067000
70
192
0
VERTEX
8
OBJECT__24
10
101.532997
20
-4.500000
30
15.196000
70
192
0
VERTEX
8
OBJECT__24
10
102.667000
20
-4.500000
30
15.030000
70
192
0
VERTEX
8
OBJECT__24
10
100.400002
20
1.005000
30
15.975000
70
192
0
VERTEX
8
OBJECT__24
10
99.106003
20
0.000000
30
16.159000
70
192
0
VERTEX
8
OBJECT__24
10
99.094002
20
-1.277000
30
16.136999
70
192
0
VERTEX
8
OBJECT__24
10
99.112000
20
0.682000
30
16.171000
70
192
0
VERTEX
8
OBJECT__24
10
99.093002
20
1.014000
30
16.134001
70
192
0
VERTEX
8
OBJECT__24
10
100.400002
20
4.500000
30
15.361000
70
192
0
VERTEX
8
OBJECT__24
10
102.332001
20
4.500000
30
15.079000
70
192
0
VERTEX
8
OBJECT__24
10
98.973999
20
3.114000
30
15.902000
70
192
0
VERTEX
8
OBJECT__24
10
98.915001
20
3.692000
30
15.786000
70
192
0
VERTEX
8
OBJECT__24
10
98.900002
20
3.786000
30
15.766000
70
192
0
VERTEX
8
OBJECT__24
10
98.794998
20
4.051000
30
15.715000
70
192
0
VERTEX
8
OBJECT__24
10
98.591003
20
4.284000
30
15.682000
70
192
0
VERTEX
8
OBJECT__24
10
81.088997
20
4.500000
30
17.975000
70
192
0
VERTEX
8
OBJECT__24
10
82.386002
20
4.500000
30
17.815001
70
192
0
VERTEX
8
OBJECT__24
10
97.942001
20
4.500000
30
15.714000
70
192
0
VERTEX
8
OBJECT__24
10
73.375000
20
4.500000
30
18.927000
70
192
0
VERTEX
8
OBJECT__24
10
98.282997
20
4.448000
30
15.681000
70
192
0
VERTEX
8
OBJECT__24
10
100.400002
20
10.984000
30
-11.644000
70
192
0
VERTEX
8
OBJECT__24
10
102.667000
20
11.357000
30
-10.677000
70
192
0
VERTEX
8
OBJECT__24
10
101.532997
20
10.903000
30
-11.501000
70
192
0
VERTEX
8
OBJECT__24
10
102.667000
20
10.823000
30
-11.358000
70
192
0
VERTEX
8
OBJECT__24
10
100.400002
20
8.577000
30
-13.515000
70
192
0
VERTEX
8
OBJECT__24
10
100.400002
20
4.946000
30
-15.223000
70
192
0
VERTEX
8
OBJECT__24
10
100.400002
20
1.005000
30
-15.975000
70
192
0
VERTEX
8
OBJECT__24
10
100.400002
20
-0.066000
30
-16.006001
70
192
0
VERTEX
8
OBJECT__24
10
101.532997
20
-0.127000
30
-15.848000
70
192
0
VERTEX
8
OBJECT__24
10
102.667000
20
-0.189000
30
-15.688000
70
192
0
VERTEX
8
OBJECT__24
10
102.667000
20
4.500000
30
15.030000
70
192
0
VERTEX
8
OBJECT__24
10
0
20
0
30
0
70
128
71
1
72
2
73
3
0
VERTEX
8
OBJECT__24
10
0
20
0
30
0
70
128
71
3
72
4
73
1
0
VERTEX
8
OBJECT__24
10
0
20
0
30
0
70
128
71
4
72
5
73
6
0
VERTEX
8
OBJECT__24
10
0
20
0
30
0
70
128
71
7
72
8
73
9
0
VERTEX
8
OBJECT__24
10
0
20
0
30
0
70
128
71
8
72
6
73
9
0
VERTEX
8
OBJECT__24
10
0
20
0
30
0
70
128
71
10
72
11
73
12
0
VERTEX
8
OBJECT__24
10
0
20
0
30
0
70
128
71
11
72
13
73
12
0
VERTEX
8
OBJECT__24
10
0
20
0
30
0
70
128
71
10
72
14
73
15
0
VERTEX
8
OBJECT__24
10
0
20
0
30
0
70
128
71
15
72
16
73
10
0
VERTEX
8
OBJECT__24
10
0
20
0
30
0
70
128
71
16
72
17
73
18
0
VERTEX
8
OBJECT__24
10
0
20
0
30
0
70
128
71
18
72
19
73
16
0
VERTEX
8
OBJECT__24
10
0
20
0
30
0
70
128
71
19
72
20
73
21
0
VERTEX
8
OBJECT__24
10
0
20
0
30
0
70
128
71
21
72
22
73
19
0
VERTEX
8
OBJECT__24
10
0
20
0
30
0
70
128
71
22
72
23
73
24
0
VERTEX
8
OBJECT__24
10
0
20
0
30
0
70
128
71
24
72
25
73
22
0
VERTEX
8
OBJECT__24
10
0
20
0
30
0
70
128
71
26
72
25
73
27
0
VERTEX
8
OBJECT__24
10
0
20
0
30
0
70
128
71
28
72
26
73
29
0
VERTEX
8
OBJECT__24
10
0
20
0
30
0
70
128
71
26
72
30
73
29
0
VERTEX
8
OBJECT__24
10
0
20
0
30
0
70
128
71
31
72
28
73
32
0
VERTEX
8
OBJECT__24
10
0
20
0
30
0
70
128
71
28
72
33
73
32
0
VERTEX
8
OBJECT__24
10
0
20
0
30
0
70
128
71
34
72
31
73
35
0
VERTEX
8
OBJECT__24
10
0
20
0
30
0
70
128
71
31
72
36
73
35
0
VERTEX
8
OBJECT__24
10
0
20
0
30
0
70
128
71
34
72
37
73
38
0
VERTEX
8
OBJECT__24
10
0
20
0
30
0
70
128
71
38
72
39
73
34
0
VERTEX
8
OBJECT__24
10
0
20
0
30
0
70
128
71
40
72
41
73
42
0
VERTEX
8
OBJECT__24
10
0
20
0
30
0
70
128
71
43
72
44
73
45
0
VERTEX
8
OBJECT__24
10
0
20
0
30
0
70
128
71
44
72
42
73
45
0
VERTEX
8
OBJECT__24
10
0
20
0
30
0
70
128
71
46
72
43
73
47
0
VERTEX
8
OBJECT__24
10
0
20
0
30
0
70
128
71
43
72
48
73
47
0
VERTEX
8
OBJECT__24
10
0
20
0
30
0
70
128
71
49
72
46
73
50
0
VERTEX
8
OBJECT__24
10
0
20
0
30
0
70
128
71
46
72
51
73
50
0
VERTEX
8
OBJECT__24
10
0
20
0
30
0
70
128
71
49
72
52
73
53
0
VERTEX
8
OBJECT__24
10
0
20
0
30
0
70
128
71
53
72
1
73
49
0
VERTEX
8
OBJECT__24
10
0
20
0
30
0
70
128
71
54
72
55
73
1
0
VERTEX
8
OBJECT__24
10
0
20
0
30
0
70
128
71
56
72
54
73
4
0
VERTEX
8
OBJECT__24
10
0
20
0
30
0
70
128
71
56
72
8
73
7
0
VERTEX
8
OBJECT__24
10
0
20
0
30
0
70
128
71
57
72
58
73
7
0
VERTEX
8
OBJECT__24
10
0
20
0
30
0
70
128
71
59
72
57
73
60
0
VERTEX
8
OBJECT__24
10
0
20
0
30
0
70
128
71
61
72
59
73
62
0
VERTEX
8
OBJECT__24
10
0
20
0
30
0
70
128
71
63
72
61
73
64
0
VERTEX
8
OBJECT__24
10
0
20
0
30
0
70
128
71
65
72
63
73
11
0
VERTEX
8
OBJECT__24
10
0
20
0
30
0
70
128
71
66
72
65
73
10
0
VERTEX
8
OBJECT__24
10
0
20
0
30
0
70
128
71
67
72
66
73
16
0
VERTEX
8
OBJECT__24
10
0
20
0
30
0
70
128
71
68
72
67
73
19
0
VERTEX
8
OBJECT__24
10
0
20
0
30
0
70
128
71
69
72
68
73
22
0
VERTEX
8
OBJECT__24
10
0
20
0
30
0
70
128
71
70
72
69
73
25
0
VERTEX
8
OBJECT__24
10
0
20
0
30
0
70
128
71
71
72
70
73
26
0
VERTEX
8
OBJECT__24
10
0
20
0
30
0
70
128
71
72
72
71
73
28
0
VERTEX
8
OBJECT__24
10
0
20
0
30
0
70
128
71
73
72
72
73
31
0
VERTEX
8
OBJECT__24
10
0
20
0
30
0
70
128
71
74
72
73
73
34
0
VERTEX
8
OBJECT__24
10
0
20
0
30
0
70
128
71
75
72
76
73
40
0
VERTEX
8
OBJECT__24
10
0
20
0
30
0
70
128
71
75
72
44
73
43
0
VERTEX
8
OBJECT__24
10
0
20
0
30
0
70
128
71
77
72
78
73
43
0
VERTEX
8
OBJECT__24
10
0
20
0
30
0
70
128
71
79
72
77
73
46
0
VERTEX
8
OBJECT__24
10
0
20
0
30
0
70
128
71
79
72
49
73
1
0
VERTEX
8
OBJECT__24
10
0
20
0
30
0
70
128
71
40
72
80
73
81
0
VERTEX
8
OBJECT__24
10
0
20
0
30
0
70
128
71
76
72
82
73
80
0
VERTEX
8
OBJECT__24
10
0
20
0
30
0
70
128
71
80
72
40
73
76
0
VERTEX
8
OBJECT__24
10
0
20
0
30
0
70
128
71
76
72
83
73
84
0
VERTEX
8
OBJECT__24
10
0
20
0
30
0
70
128
71
76
72
85
73
83
0
VERTEX
8
OBJECT__24
10
0
20
0
30
0
70
128
71
84
72
82
73
76
0
VERTEX
8
OBJECT__24
10
0
20
0
30
0
70
128
71
76
72
86
73
85
0
VERTEX
8
OBJECT__24
10
0
20
0
30
0
70
128
71
76
72
87
73
86
0
VERTEX
8
OBJECT__24
10
0
20
0
30
0
70
128
71
76
72
88
73
89
0
VERTEX
8
OBJECT__24
10
0
20
0
30
0
70
128
71
76
72
90
73
91
0
VERTEX
8
OBJECT__24
10
0
20
0
30
0
70
128
71
91
72
88
73
76
0
VERTEX
8
OBJECT__24
10
0
20
0
30
0
70
128
71
89
72
87
73
76
0
VERTEX
8
OBJECT__24
10
0
20
0
30
0
70
128
71
74
72
92
73
93
0
VERTEX
8
OBJECT__24
10
0
20
0
30
0
70
128
71
74
72
94
73
95
0
VERTEX
8
OBJECT__24
10
0
20
0
30
0
70
128
71
39
72
96
73
94
0
VERTEX
8
OBJECT__24
10
0
20
0
30
0
70
128
71
39
72
97
73
96
0
VERTEX
8
OBJECT__24
10
0
20
0
30
0
70
128
71
94
72
74
73
39
0
VERTEX
8
OBJECT__24
10
0
20
0
30
0
70
128
71
95
72
98
73
74
0
VERTEX
8
OBJECT__24
10
0
20
0
30
0
70
128
71
98
72
92
73
74
0
VERTEX
8
OBJECT__24
10
0
20
0
30
0
70
128
71
90
72
99
73
100
0
VERTEX
8
OBJECT__24
10
0
20
0
30
0
70
128
71
90
72
101
73
99
0
VERTEX
8
OBJECT__24
10
0
20
0
30
0
70
128
71
90
72
102
73
101
0
VERTEX
8
OBJECT__24
10
0
20
0
30
0
70
128
71
90
72
103
73
104
0
VERTEX
8
OBJECT__24
10
0
20
0
30
0
70
128
71
104
72
105
73
90
0
VERTEX
8
OBJECT__24
10
0
20
0
30
0
70
128
71
103
72
106
73
107
0
VERTEX
8
OBJECT__24
10
0
20
0
30
0
70
128
71
103
72
108
73
109
0
VERTEX
8
OBJECT__24
10
0
20
0
30
0
70
128
71
103
72
93
73
108
0
VERTEX
8
OBJECT__24
10
0
20
0
30
0
70
128
71
109
72
106
73
103
0
VERTEX
8
OBJECT__24
10
0
20
0
30
0
70
128
71
107
72
110
73
103
0
VERTEX
8
OBJECT__24
10
0
20
0
30
0
70
128
71
110
72
111
73
103
0
VERTEX
8
OBJECT__24
10
0
20
0
30
0
70
128
71
111
72
104
73
103
0
VERTEX
8
OBJECT__24
10
0
20
0
30
0
70
128
71
105
72
102
73
90
0
VERTEX
8
OBJECT__24
10
0
20
0
30
0
70
128
71
39
72
112
73
113
0
VERTEX
8
OBJECT__24
10
0
20
0
30
0
70
128
71
39
72
114
73
115
0
VERTEX
8
OBJECT__24
10
0
20
0
30
0
70
128
71
115
72
112
73
39
0
VERTEX
8
OBJECT__24
10
0
20
0
30
0
70
128
71
116
72
117
73
114
0
VERTEX
8
OBJECT__24
10
0
20
0
30
0
70
128
71
114
72
39
73
116
0
VERTEX
8
OBJECT__24
10
0
20
0
30
0
70
128
71
116
72
118
73
117
0
VERTEX
8
OBJECT__24
10
0
20
0
30
0
70
128
71
116
72
119
73
118
0
VERTEX
8
OBJECT__24
10
0
20
0
30
0
70
128
71
120
72
121
73
122
0
VERTEX
8
OBJECT__24
10
0
20
0
30
0
70
128
71
122
72
116
73
120
0
VERTEX
8
OBJECT__24
10
0
20
0
30
0
70
128
71
122
72
123
73
116
0
VERTEX
8
OBJECT__24
10
0
20
0
30
0
70
128
71
123
72
119
73
116
0
VERTEX
8
OBJECT__24
10
0
20
0
30
0
70
128
71
124
72
125
73
116
0
VERTEX
8
OBJECT__24
10
0
20
0
30
0
70
128
71
124
72
126
73
125
0
VERTEX
8
OBJECT__24
10
0
20
0
30
0
70
128
71
116
72
39
73
124
0
VERTEX
8
OBJECT__24
10
0
20
0
30
0
70
128
71
127
72
128
73
129
0
VERTEX
8
OBJECT__24
10
0
20
0
30
0
70
128
71
127
72
130
73
128
0
VERTEX
8
OBJECT__24
10
0
20
0
30
0
70
128
71
129
72
120
73
127
0
VERTEX
8
OBJECT__24
10
0
20
0
30
0
70
128
71
127
72
131
73
130
0
VERTEX
8
OBJECT__24
10
0
20
0
30
0
70
128
71
41
72
40
73
132
0
VERTEX
8
OBJECT__24
10
0
20
0
30
0
70
128
71
132
72
133
73
41
0
VERTEX
8
OBJECT__24
10
0
20
0
30
0
70
128
71
127
72
132
73
134
0
VERTEX
8
OBJECT__24
10
0
20
0
30
0
70
128
71
132
72
135
73
134
0
VERTEX
8
OBJECT__24
10
0
20
0
30
0
70
128
71
132
72
136
73
135
0
VERTEX
8
OBJECT__24
10
0
20
0
30
0
70
128
71
132
72
137
73
136
0
VERTEX
8
OBJECT__24
10
0
20
0
30
0
70
128
71
132
72
138
73
137
0
VERTEX
8
OBJECT__24
10
0
20
0
30
0
70
128
71
40
72
139
73
140
0
VERTEX
8
OBJECT__24
10
0
20
0
30
0
70
128
71
140
72
141
73
40
0
VERTEX
8
OBJECT__24
10
0
20
0
30
0
70
128
71
40
72
142
73
139
0
VERTEX
8
OBJECT__24
10
0
20
0
30
0
70
128
71
141
72
132
73
40
0
VERTEX
8
OBJECT__24
10
0
20
0
30
0
70
128
71
141
72
143
73
132
0
VERTEX
8
OBJECT__24
10
0
20
0
30
0
70
128
71
143
72
138
73
132
0
VERTEX
8
OBJECT__24
10
0
20
0
30
0
70
128
71
134
72
131
73
127
0
VERTEX
8
OBJECT__24
10
0
20
0
30
0
70
128
71
60
72
7
73
144
0
VERTEX
8
OBJECT__24
10
0
20
0
30
0
70
128
71
145
72
146
73
144
0
VERTEX
8
OBJECT__24
10
0
20
0
30
0
70
128
71
145
72
147
73
146
0
VERTEX
8
OBJECT__24
10
0
20
0
30
0
70
128
71
144
72
7
73
145
0
VERTEX
8
OBJECT__24
10
0
20
0
30
0
70
128
71
60
72
148
73
149
0
VERTEX
8
OBJECT__24
10
0
20
0
30
0
70
128
71
62
72
149
73
150
0
VERTEX
8
OBJECT__24
10
0
20
0
30
0
70
128
71
13
72
11
73
151
0
VERTEX
8
OBJECT__24
10
0
20
0
30
0
70
128
71
151
72
152
73
13
0
VERTEX
8
OBJECT__24
10
0
20
0
30
0
70
128
71
64
72
150
73
151
0
VERTEX
8
OBJECT__24
10
0
20
0
30
0
70
128
71
151
72
11
73
64
0
VERTEX
8
OBJECT__24
10
0
20
0
30
0
70
128
71
152
72
153
73
13
0
VERTEX
8
OBJECT__24
10
0
20
0
30
0
70
128
71
150
72
64
73
62
0
VERTEX
8
OBJECT__24
10
0
20
0
30
0
70
128
71
149
72
62
73
60
0
VERTEX
8
OBJECT__24
10
0
20
0
30
0
70
128
71
144
72
148
73
60
0
VERTEX
8
OBJECT__24
10
0
20
0
30
0
70
128
71
133
72
154
73
41
0
VERTEX
8
OBJECT__24
10
0
20
0
30
0
70
128
71
129
72
121
73
120
0
VERTEX
8
OBJECT__24
10
0
20
0
30
0
70
128
71
113
72
97
73
39
0
VERTEX
8
OBJECT__24
10
0
20
0
30
0
70
128
71
100
72
91
73
90
0
VERTEX
8
OBJECT__24
10
0
20
0
30
0
70
128
71
93
72
103
73
74
0
VERTEX
8
OBJECT__24
10
0
20
0
30
0
70
128
71
81
72
142
73
40
0
VERTEX
8
OBJECT__24
10
0
20
0
30
0
70
128
71
1
72
55
73
79
0
VERTEX
8
OBJECT__24
10
0
20
0
30
0
70
128
71
46
72
49
73
79
0
VERTEX
8
OBJECT__24
10
0
20
0
30
0
70
128
71
43
72
46
73
77
0
VERTEX
8
OBJECT__24
10
0
20
0
30
0
70
128
71
43
72
78
73
75
0
VERTEX
8
OBJECT__24
10
0
20
0
30
0
70
128
71
40
72
44
73
75
0
VERTEX
8
OBJECT__24
10
0
20
0
30
0
70
128
71
34
72
39
73
74
0
VERTEX
8
OBJECT__24
10
0
20
0
30
0
70
128
71
31
72
34
73
73
0
VERTEX
8
OBJECT__24
10
0
20
0
30
0
70
128
71
28
72
31
73
72
0
VERTEX
8
OBJECT__24
10
0
20
0
30
0
70
128
71
26
72
28
73
71
0
VERTEX
8
OBJECT__24
10
0
20
0
30
0
70
128
71
25
72
26
73
70
0
VERTEX
8
OBJECT__24
10
0
20
0
30
0
70
128
71
22
72
25
73
69
0
VERTEX
8
OBJECT__24
10
0
20
0
30
0
70
128
71
19
72
22
73
68
0
VERTEX
8
OBJECT__24
10
0
20
0
30
0
70
128
71
16
72
19
73
67
0
VERTEX
8
OBJECT__24
10
0
20
0
30
0
70
128
71
10
72
16
73
66
0
VERTEX
8
OBJECT__24
10
0
20
0
30
0
70
128
71
11
72
10
73
65
0
VERTEX
8
OBJECT__24
10
0
20
0
30
0
70
128
71
64
72
11
73
63
0
VERTEX
8
OBJECT__24
10
0
20
0
30
0
70
128
71
62
72
64
73
61
0
VERTEX
8
OBJECT__24
10
0
20
0
30
0
70
128
71
60
72
62
73
59
0
VERTEX
8
OBJECT__24
10
0
20
0
30
0
70
128
71
7
72
60
73
57
0
VERTEX
8
OBJECT__24
10
0
20
0
30
0
70
128
71
7
72
58
73
56
0
VERTEX
8
OBJECT__24
10
0
20
0
30
0
70
128
71
4
72
8
73
56
0
VERTEX
8
OBJECT__24
10
0
20
0
30
0
70
128
71
1
72
4
73
54
0
VERTEX
8
OBJECT__24
10
0
20
0
30
0
70
128
71
53
72
2
73
1
0
VERTEX
8
OBJECT__24
10
0
20
0
30
0
70
128
71
50
72
52
73
49
0
VERTEX
8
OBJECT__24
10
0
20
0
30
0
70
128
71
47
72
51
73
46
0
VERTEX
8
OBJECT__24
10
0
20
0
30
0
70
128
71
45
72
48
73
43
0
VERTEX
8
OBJECT__24
10
0
20
0
30
0
70
128
71
42
72
44
73
40
0
VERTEX
8
OBJECT__24
10
0
20
0
30
0
70
128
71
38
72
124
73
39
0
VERTEX
8
OBJECT__24
10
0
20
0
30
0
70
128
71
35
72
37
73
34
0
VERTEX
8
OBJECT__24
10
0
20
0
30
0
70
128
71
32
72
36
73
31
0
VERTEX
8
OBJECT__24
10
0
20
0
30
0
70
128
71
29
72
33
73
28
0
VERTEX
8
OBJECT__24
10
0
20
0
30
0
70
128
71
27
72
30
73
26
0
VERTEX
8
OBJECT__24
10
0
20
0
30
0
70
128
71
24
72
27
73
25
0
VERTEX
8
OBJECT__24
10
0
20
0
30
0
70
128
71
21
72
23
73
22
0
VERTEX
8
OBJECT__24
10
0
20
0
30
0
70
128
71
18
72
20
73
19
0
VERTEX
8
OBJECT__24
10
0
20
0
30
0
70
128
71
15
72
17
73
16
0
VERTEX
8
OBJECT__24
10
0
20
0
30
0
70
128
71
12
72
14
73
10
0
VERTEX
8
OBJECT__24
10
0
20
0
30
0
70
128
71
9
72
145
73
7
0
VERTEX
8
OBJECT__24
10
0
20
0
30
0
70
128
71
6
72
8
73
4
0
VERTEX
8
OBJECT__24
10
0
20
0
30
0
70
128
71
3
72
5
73
4
0
SEQEND
8
OBJECT__24
0
POLYLINE
8
OBJECT__25
66
1
70
64
71
15
72
13
62
253
0
VERTEX
8
OBJECT__25
10
96.012001
20
-4.107000
30
20.479000
70
192
0
VERTEX
8
OBJECT__25
10
96.886002
20
-3.275000
30
20.823999
70
192
0
VERTEX
8
OBJECT__25
10
96.877998
20
-3.274000
30
20.839001
70
192
0
VERTEX
8
OBJECT__25
10
94.113998
20
-3.490000
30
25.264999
70
192
0
VERTEX
8
OBJECT__25
10
93.583000
20
-3.745000
30
24.958000
70
192
0
VERTEX
8
OBJECT__25
10
95.901001
20
-4.091000
30
20.681999
70
192
0
VERTEX
8
OBJECT__25
10
94.404999
20
-2.908000
30
25.398001
70
192
0
VERTEX
8
OBJECT__25
10
97.023003
20
-4.296000
30
18.174999
70
192
0
VERTEX
8
OBJECT__25
10
97.918999
20
-3.468000
30
18.471001
70
192
0
VERTEX
8
OBJECT__25
10
98.664001
20
-4.218000
30
15.690000
70
192
0
VERTEX
8
OBJECT__25
10
98.835999
20
-3.975000
30
15.729000
70
192
0
VERTEX
8
OBJECT__25
10
98.429001
20
-4.388000
30
15.677000
70
192
0
VERTEX
8
OBJECT__25
10
98.147003
20
-4.482000
30
15.690000
70
192
0
VERTEX
8
OBJECT__25
10
97.942001
20
-4.500000
30
15.714000
70
192
0
VERTEX
8
OBJECT__25
10
98.915001
20
-3.692000
30
15.786000
70
192
0
VERTEX
8
OBJECT__25
10
0
20
0
30
0
70
128
71
1
72
2
73
3
0
VERTEX
8
OBJECT__25
10
0
20
0
30
0
70
128
71
4
72
5
73
6
0
VERTEX
8
OBJECT__25
10
0
20
0
30
0
70
128
71
3
72
7
73
4
0
VERTEX
8
OBJECT__25
10
0
20
0
30
0
70
128
71
6
72
3
73
4
0
VERTEX
8
OBJECT__25
10
0
20
0
30
0
70
128
71
2
72
1
73
8
0
VERTEX
8
OBJECT__25
10
0
20
0
30
0
70
128
71
9
72
10
73
11
0
VERTEX
8
OBJECT__25
10
0
20
0
30
0
70
128
71
9
72
12
73
10
0
VERTEX
8
OBJECT__25
10
0
20
0
30
0
70
128
71
9
72
13
73
12
0
VERTEX
8
OBJECT__25
10
0
20
0
30
0
70
128
71
9
72
8
73
14
0
VERTEX
8
OBJECT__25
10
0
20
0
30
0
70
128
71
14
72
13
73
9
0
VERTEX
8
OBJECT__25
10
0
20
0
30
0
70
128
71
11
72
15
73
9
0
VERTEX
8
OBJECT__25
10
0
20
0
30
0
70
128
71
8
72
9
73
2
0
VERTEX
8
OBJECT__25
10
0
20
0
30
0
70
128
71
3
72
6
73
1
0
SEQEND
8
OBJECT__25
0
POLYLINE
8
OBJECT__26
66
1
70
64
71
21
72
20
62
253
0
VERTEX
8
OBJECT__26
10
63.998001
20
-4.250000
30
22.863001
70
192
0
VERTEX
8
OBJECT__26
10
64.000000
20
-4.500000
30
20.007000
70
192
0
VERTEX
8
OBJECT__26
10
73.375000
20
-4.500000
30
18.924000
70
192
0
VERTEX
8
OBJECT__26
10
81.085999
20
-4.091000
30
22.660000
70
192
0
VERTEX
8
OBJECT__26
10
63.995998
20
-4.091000
30
24.686001
70
192
0
VERTEX
8
OBJECT__26
10
74.341003
20
-4.500000
30
18.812000
70
192
0
VERTEX
8
OBJECT__26
10
84.669998
20
-4.500000
30
17.521000
70
192
0
VERTEX
8
OBJECT__26
10
96.012001
20
-4.107000
30
20.479000
70
192
0
VERTEX
8
OBJECT__26
10
95.901001
20
-4.091000
30
20.681999
70
192
0
VERTEX
8
OBJECT__26
10
97.023003
20
-4.296000
30
18.174999
70
192
0
VERTEX
8
OBJECT__26
10
97.942001
20
-4.500000
30
15.714000
70
192
0
VERTEX
8
OBJECT__26
10
81.088997
20
-4.500000
30
17.969000
70
192
0
VERTEX
8
OBJECT__26
10
93.269997
20
-3.715000
30
25.344999
70
192
0
VERTEX
8
OBJECT__26
10
92.728996
20
-3.689000
30
25.711000
70
192
0
VERTEX
8
OBJECT__26
10
93.583000
20
-3.745000
30
24.958000
70
192
0
VERTEX
8
OBJECT__26
10
92.098000
20
-3.682000
30
25.878000
70
192
0
VERTEX
8
OBJECT__26
10
82.959999
20
-3.740000
30
26.424000
70
192
0
VERTEX
8
OBJECT__26
10
68.995003
20
-3.913000
30
26.148001
70
192
0
VERTEX
8
OBJECT__26
10
78.109001
20
-3.789000
30
26.480000
70
192
0
VERTEX
8
OBJECT__26
10
81.082001
20
-3.759000
30
26.445999
70
192
0
VERTEX
8
OBJECT__26
10
63.994999
20
-4.000000
30
25.719999
70
192
0
VERTEX
8
OBJECT__26
10
0
20
0
30
0
70
128
71
1
72
2
73
3
0
VERTEX
8
OBJECT__26
10
0
20
0
30
0
70
128
71
3
72
4
73
1
0
VERTEX
8
OBJECT__26
10
0
20
0
30
0
70
128
71
4
72
5
73
1
0
VERTEX
8
OBJECT__26
10
0
20
0
30
0
70
128
71
3
72
6
73
4
0
VERTEX
8
OBJECT__26
10
0
20
0
30
0
70
128
71
7
72
8
73
9
0
VERTEX
8
OBJECT__26
10
0
20
0
30
0
70
128
71
7
72
10
73
8
0
VERTEX
8
OBJECT__26
10
0
20
0
30
0
70
128
71
7
72
11
73
10
0
VERTEX
8
OBJECT__26
10
0
20
0
30
0
70
128
71
4
72
12
73
7
0
VERTEX
8
OBJECT__26
10
0
20
0
30
0
70
128
71
4
72
13
73
14
0
VERTEX
8
OBJECT__26
10
0
20
0
30
0
70
128
71
4
72
15
73
13
0
VERTEX
8
OBJECT__26
10
0
20
0
30
0
70
128
71
14
72
16
73
4
0
VERTEX
8
OBJECT__26
10
0
20
0
30
0
70
128
71
4
72
9
73
15
0
VERTEX
8
OBJECT__26
10
0
20
0
30
0
70
128
71
16
72
17
73
4
0
VERTEX
8
OBJECT__26
10
0
20
0
30
0
70
128
71
5
72
4
73
18
0
VERTEX
8
OBJECT__26
10
0
20
0
30
0
70
128
71
4
72
19
73
18
0
VERTEX
8
OBJECT__26
10
0
20
0
30
0
70
128
71
4
72
20
73
19
0
VERTEX
8
OBJECT__26
10
0
20
0
30
0
70
128
71
18
72
21
73
5
0
VERTEX
8
OBJECT__26
10
0
20
0
30
0
70
128
71
17
72
20
73
4
0
VERTEX
8
OBJECT__26
10
0
20
0
30
0
70
128
71
9
72
4
73
7
0
VERTEX
8
OBJECT__26
10
0
20
0
30
0
70
128
71
6
72
12
73
4
0
SEQEND
8
OBJECT__26
0
POLYLINE
8
OBJECT__27
66
1
70
64
71
11
72
9
62
253
0
VERTEX
8
OBJECT__27
10
92.248001
20
-2.833000
30
26.757000
70
192
0
VERTEX
8
OBJECT__27
10
92.098000
20
-3.682000
30
25.878000
70
192
0
VERTEX
8
OBJECT__27
10
92.728996
20
-3.689000
30
25.711000
70
192
0
VERTEX
8
OBJECT__27
10
93.122002
20
-2.856000
30
26.524000
70
192
0
VERTEX
8
OBJECT__27
10
93.932999
20
-2.886000
30
25.976000
70
192
0
VERTEX
8
OBJECT__27
10
93.269997
20
-3.715000
30
25.344999
70
192
0
VERTEX
8
OBJECT__27
10
93.583000
20
-3.745000
30
24.958000
70
192
0
VERTEX
8
OBJECT__27
10
94.113998
20
-3.490000
30
25.264999
70
192
0
VERTEX
8
OBJECT__27
10
94.019997
20
-2.890000
30
25.870001
70
192
0
VERTEX
8
OBJECT__27
10
94.404999
20
-2.908000
30
25.398001
70
192
0
VERTEX
8
OBJECT__27
10
92.177002
20
-2.832000
30
26.775999
70
192
0
VERTEX
8
OBJECT__27
10
0
20
0
30
0
70
128
71
1
72
2
73
3
0
VERTEX
8
OBJECT__27
10
0
20
0
30
0
70
128
71
3
72
4
73
1
0
VERTEX
8
OBJECT__27
10
0
20
0
30
0
70
128
71
5
72
4
73
3
0
VERTEX
8
OBJECT__27
10
0
20
0
30
0
70
128
71
6
72
7
73
8
0
VERTEX
8
OBJECT__27
10
0
20
0
30
0
70
128
71
8
72
9
73
6
0
VERTEX
8
OBJECT__27
10
0
20
0
30
0
70
128
71
8
72
10
73
9
0
VERTEX
8
OBJECT__27
10
0
20
0
30
0
70
128
71
9
72
5
73
6
0
VERTEX
8
OBJECT__27
10
0
20
0
30
0
70
128
71
3
72
6
73
5
0
VERTEX
8
OBJECT__27
10
0
20
0
30
0
70
128
71
1
72
11
73
2
0
SEQEND
8
OBJECT__27
0
POLYLINE
8
OBJECT__28
66
1
70
64
71
20
72
19
62
253
0
VERTEX
8
OBJECT__28
10
97.180000
20
0.000000
30
20.839001
70
192
0
VERTEX
8
OBJECT__28
10
94.551003
20
0.001000
30
25.559999
70
192
0
VERTEX
8
OBJECT__28
10
94.410004
20
-2.865000
30
25.403999
70
192
0
VERTEX
8
OBJECT__28
10
96.877998
20
-3.274000
30
20.839001
70
192
0
VERTEX
8
OBJECT__28
10
99.094002
20
-1.277000
30
16.136999
70
192
0
VERTEX
8
OBJECT__28
10
97.918999
20
-3.468000
30
18.471001
70
192
0
VERTEX
8
OBJECT__28
10
98.915001
20
-3.692000
30
15.786000
70
192
0
VERTEX
8
OBJECT__28
10
98.963997
20
-3.031000
30
15.882000
70
192
0
VERTEX
8
OBJECT__28
10
96.886002
20
-3.275000
30
20.823999
70
192
0
VERTEX
8
OBJECT__28
10
99.093002
20
1.014000
30
16.134001
70
192
0
VERTEX
8
OBJECT__28
10
98.973999
20
3.114000
30
15.902000
70
192
0
VERTEX
8
OBJECT__28
10
97.918999
20
3.468000
30
18.471001
70
192
0
VERTEX
8
OBJECT__28
10
99.112000
20
0.682000
30
16.171000
70
192
0
VERTEX
8
OBJECT__28
10
96.886002
20
3.275000
30
20.823999
70
192
0
VERTEX
8
OBJECT__28
10
96.877998
20
3.274000
30
20.839001
70
192
0
VERTEX
8
OBJECT__28
10
99.106003
20
0.000000
30
16.159000
70
192
0
VERTEX
8
OBJECT__28
10
94.404999
20
2.908000
30
25.398001
70
192
0
VERTEX
8
OBJECT__28
10
94.566002
20
0.308000
30
25.577000
70
192
0
VERTEX
8
OBJECT__28
10
98.915001
20
3.692000
30
15.786000
70
192
0
VERTEX
8
OBJECT__28
10
94.404999
20
-2.908000
30
25.398001
70
192
0
VERTEX
8
OBJECT__28
10
0
20
0
30
0
70
128
71
1
72
2
73
3
0
VERTEX
8
OBJECT__28
10
0
20
0
30
0
70
128
71
3
72
4
73
1
0
VERTEX
8
OBJECT__28
10
0
20
0
30
0
70
128
71
5
72
1
73
6
0
VERTEX
8
OBJECT__28
10
0
20
0
30
0
70
128
71
6
72
7
73
8
0
VERTEX
8
OBJECT__28
10
0
20
0
30
0
70
128
71
1
72
9
73
6
0
VERTEX
8
OBJECT__28
10
0
20
0
30
0
70
128
71
1
72
4
73
9
0
VERTEX
8
OBJECT__28
10
0
20
0
30
0
70
128
71
6
72
8
73
5
0
VERTEX
8
OBJECT__28
10
0
20
0
30
0
70
128
71
10
72
11
73
12
0
VERTEX
8
OBJECT__28
10
0
20
0
30
0
70
128
71
12
72
1
73
10
0
VERTEX
8
OBJECT__28
10
0
20
0
30
0
70
128
71
1
72
13
73
10
0
VERTEX
8
OBJECT__28
10
0
20
0
30
0
70
128
71
12
72
14
73
1
0
VERTEX
8
OBJECT__28
10
0
20
0
30
0
70
128
71
14
72
15
73
1
0
VERTEX
8
OBJECT__28
10
0
20
0
30
0
70
128
71
1
72
16
73
13
0
VERTEX
8
OBJECT__28
10
0
20
0
30
0
70
128
71
1
72
15
73
17
0
VERTEX
8
OBJECT__28
10
0
20
0
30
0
70
128
71
17
72
18
73
1
0
VERTEX
8
OBJECT__28
10
0
20
0
30
0
70
128
71
18
72
2
73
1
0
VERTEX
8
OBJECT__28
10
0
20
0
30
0
70
128
71
11
72
19
73
12
0
VERTEX
8
OBJECT__28
10
0
20
0
30
0
70
128
71
5
72
16
73
1
0
VERTEX
8
OBJECT__28
10
0
20
0
30
0
70
128
71
3
72
20
73
4
0
SEQEND
8
OBJECT__28
0
POLYLINE
8
OBJECT__29
66
1
70
64
71
14
72
12
62
253
0
VERTEX
8
OBJECT__29
10
94.404999
20
2.908000
30
25.398001
70
192
0
VERTEX
8
OBJECT__29
10
96.877998
20
3.274000
30
20.839001
70
192
0
VERTEX
8
OBJECT__29
10
95.900002
20
4.090000
30
20.684000
70
192
0
VERTEX
8
OBJECT__29
10
96.012001
20
4.107000
30
20.479000
70
192
0
VERTEX
8
OBJECT__29
10
93.583000
20
3.745000
30
24.958000
70
192
0
VERTEX
8
OBJECT__29
10
96.886002
20
3.275000
30
20.823999
70
192
0
VERTEX
8
OBJECT__29
10
97.918999
20
3.468000
30
18.471001
70
192
0
VERTEX
8
OBJECT__29
10
97.023003
20
4.296000
30
18.174999
70
192
0
VERTEX
8
OBJECT__29
10
98.282997
20
4.448000
30
15.681000
70
192
0
VERTEX
8
OBJECT__29
10
97.942001
20
4.500000
30
15.714000
70
192
0
VERTEX
8
OBJECT__29
10
98.591003
20
4.284000
30
15.682000
70
192
0
VERTEX
8
OBJECT__29
10
98.794998
20
4.051000
30
15.715000
70
192
0
VERTEX
8
OBJECT__29
10
98.900002
20
3.786000
30
15.766000
70
192
0
VERTEX
8
OBJECT__29
10
98.915001
20
3.692000
30
15.786000
70
192
0
VERTEX
8
OBJECT__29
10
0
20
0
30
0
70
128
71
1
72
2
73
3
0
VERTEX
8
OBJECT__29
10
0
20
0
30
0
70
128
71
2
72
4
73
3
0
VERTEX
8
OBJECT__29
10
0
20
0
30
0
70
128
71
3
72
5
73
1
0
VERTEX
8
OBJECT__29
10
0
20
0
30
0
70
128
71
6
72
7
73
8
0
VERTEX
8
OBJECT__29
10
0
20
0
30
0
70
128
71
7
72
9
73
10
0
VERTEX
8
OBJECT__29
10
0
20
0
30
0
70
128
71
7
72
11
73
9
0
VERTEX
8
OBJECT__29
10
0
20
0
30
0
70
128
71
7
72
12
73
11
0
VERTEX
8
OBJECT__29
10
0
20
0
30
0
70
128
71
7
72
13
73
12
0
VERTEX
8
OBJECT__29
10
0
20
0
30
0
70
128
71
7
72
14
73
13
0
VERTEX
8
OBJECT__29
10
0
20
0
30
0
70
128
71
10
72
8
73
7
0
VERTEX
8
OBJECT__29
10
0
20
0
30
0
70
128
71
8
72
4
73
6
0
VERTEX
8
OBJECT__29
10
0
20
0
30
0
70
128
71
2
72
6
73
4
0
SEQEND
8
OBJECT__29
0
POLYLINE
8
OBJECT__30
66
1
70
64
71
21
72
20
62
253
0
VERTEX
8
OBJECT__30
10
82.386002
20
4.500000
30
17.815001
70
192
0
VERTEX
8
OBJECT__30
10
81.084999
20
4.090000
30
22.662001
70
192
0
VERTEX
8
OBJECT__30
10
95.900002
20
4.090000
30
20.684000
70
192
0
VERTEX
8
OBJECT__30
10
96.012001
20
4.107000
30
20.479000
70
192
0
VERTEX
8
OBJECT__30
10
97.023003
20
4.296000
30
18.174999
70
192
0
VERTEX
8
OBJECT__30
10
97.942001
20
4.500000
30
15.714000
70
192
0
VERTEX
8
OBJECT__30
10
63.998001
20
4.250000
30
22.863001
70
192
0
VERTEX
8
OBJECT__30
10
73.196999
20
4.500000
30
18.948999
70
192
0
VERTEX
8
OBJECT__30
10
64.000000
20
4.500000
30
20.007000
70
192
0
VERTEX
8
OBJECT__30
10
81.088997
20
4.500000
30
17.975000
70
192
0
VERTEX
8
OBJECT__30
10
73.375000
20
4.500000
30
18.927000
70
192
0
VERTEX
8
OBJECT__30
10
63.995998
20
4.090000
30
24.688000
70
192
0
VERTEX
8
OBJECT__30
10
63.994999
20
4.000000
30
25.719999
70
192
0
VERTEX
8
OBJECT__30
10
73.089996
20
3.852000
30
26.368000
70
192
0
VERTEX
8
OBJECT__30
10
77.975998
20
3.790000
30
26.479000
70
192
0
VERTEX
8
OBJECT__30
10
93.583000
20
3.745000
30
24.958000
70
192
0
VERTEX
8
OBJECT__30
10
92.098000
20
3.682000
30
25.878000
70
192
0
VERTEX
8
OBJECT__30
10
92.577003
20
3.686000
30
25.773001
70
192
0
VERTEX
8
OBJECT__30
10
93.150002
20
3.707000
30
25.451000
70
192
0
VERTEX
8
OBJECT__30
10
87.126999
20
3.708000
30
26.246000
70
192
0
VERTEX
8
OBJECT__30
10
81.082001
20
3.763000
30
26.400000
70
192
0
VERTEX
8
OBJECT__30
10
0
20
0
30
0
70
128
71
1
72
2
73
3
0
VERTEX
8
OBJECT__30
10
0
20
0
30
0
70
128
71
3
72
4
73
1
0
VERTEX
8
OBJECT__30
10
0
20
0
30
0
70
128
71
4
72
5
73
1
0
VERTEX
8
OBJECT__30
10
0
20
0
30
0
70
128
71
5
72
6
73
1
0
VERTEX
8
OBJECT__30
10
0
20
0
30
0
70
128
71
7
72
2
73
8
0
VERTEX
8
OBJECT__30
10
0
20
0
30
0
70
128
71
8
72
9
73
7
0
VERTEX
8
OBJECT__30
10
0
20
0
30
0
70
128
71
2
72
10
73
11
0
VERTEX
8
OBJECT__30
10
0
20
0
30
0
70
128
71
11
72
8
73
2
0
VERTEX
8
OBJECT__30
10
0
20
0
30
0
70
128
71
12
72
13
73
14
0
VERTEX
8
OBJECT__30
10
0
20
0
30
0
70
128
71
14
72
2
73
12
0
VERTEX
8
OBJECT__30
10
0
20
0
30
0
70
128
71
14
72
15
73
2
0
VERTEX
8
OBJECT__30
10
0
20
0
30
0
70
128
71
16
72
17
73
18
0
VERTEX
8
OBJECT__30
10
0
20
0
30
0
70
128
71
18
72
19
73
16
0
VERTEX
8
OBJECT__30
10
0
20
0
30
0
70
128
71
3
72
2
73
20
0
VERTEX
8
OBJECT__30
10
0
20
0
30
0
70
128
71
20
72
17
73
3
0
VERTEX
8
OBJECT__30
10
0
20
0
30
0
70
128
71
2
72
21
73
20
0
VERTEX
8
OBJECT__30
10
0
20
0
30
0
70
128
71
16
72
3
73
17
0
VERTEX
8
OBJECT__30
10
0
20
0
30
0
70
128
71
15
72
21
73
2
0
VERTEX
8
OBJECT__30
10
0
20
0
30
0
70
128
71
7
72
12
73
2
0
VERTEX
8
OBJECT__30
10
0
20
0
30
0
70
128
71
1
72
10
73
2
0
SEQEND
8
OBJECT__30
0
POLYLINE
8
OBJECT__31
66
1
70
64
71
8
72
6
62
253
0
VERTEX
8
OBJECT__31
10
94.404999
20
2.908000
30
25.398001
70
192
0
VERTEX
8
OBJECT__31
10
93.583000
20
3.745000
30
24.958000
70
192
0
VERTEX
8
OBJECT__31
10
93.150002
20
3.707000
30
25.451000
70
192
0
VERTEX
8
OBJECT__31
10
93.752998
20
2.878000
30
26.134001
70
192
0
VERTEX
8
OBJECT__31
10
92.577003
20
3.686000
30
25.773001
70
192
0
VERTEX
8
OBJECT__31
10
92.177002
20
2.832000
30
26.775999
70
192
0
VERTEX
8
OBJECT__31
10
92.893997
20
2.850000
30
26.617001
70
192
0
VERTEX
8
OBJECT__31
10
92.098000
20
3.682000
30
25.878000
70
192
0
VERTEX
8
OBJECT__31
10
0
20
0
30
0
70
128
71
1
72
2
73
3
0
VERTEX
8
OBJECT__31
10
0
20
0
30
0
70
128
71
4
72
3
73
5
0
VERTEX
8
OBJECT__31
10
0
20
0
30
0
70
128
71
6
72
7
73
5
0
VERTEX
8
OBJECT__31
10
0
20
0
30
0
70
128
71
5
72
8
73
6
0
VERTEX
8
OBJECT__31
10
0
20
0
30
0
70
128
71
5
72
7
73
4
0
VERTEX
8
OBJECT__31
10
0
20
0
30
0
70
128
71
3
72
4
73
1
0
SEQEND
8
OBJECT__31
0
POLYLINE
8
OBJECT__32
66
1
70
64
71
16
72
14
62
253
0
VERTEX
8
OBJECT__32
10
94.551003
20
0.001000
30
25.559999
70
192
0
VERTEX
8
OBJECT__32
10
93.932999
20
-2.886000
30
25.976000
70
192
0
VERTEX
8
OBJECT__32
10
94.019997
20
-2.890000
30
25.870001
70
192
0
VERTEX
8
OBJECT__32
10
94.410004
20
-2.865000
30
25.403999
70
192
0
VERTEX
8
OBJECT__32
10
94.566002
20
0.308000
30
25.577000
70
192
0
VERTEX
8
OBJECT__32
10
92.299004
20
0.304000
30
26.971001
70
192
0
VERTEX
8
OBJECT__32
10
93.122002
20
-2.856000
30
26.524000
70
192
0
VERTEX
8
OBJECT__32
10
92.287003
20
0.001000
30
26.952000
70
192
0
VERTEX
8
OBJECT__32
10
92.177002
20
-2.829000
30
26.777000
70
192
0
VERTEX
8
OBJECT__32
10
92.248001
20
-2.833000
30
26.757000
70
192
0
VERTEX
8
OBJECT__32
10
93.752998
20
2.878000
30
26.134001
70
192
0
VERTEX
8
OBJECT__32
10
92.893997
20
2.850000
30
26.617001
70
192
0
VERTEX
8
OBJECT__32
10
94.404999
20
2.908000
30
25.398001
70
192
0
VERTEX
8
OBJECT__32
10
92.177002
20
2.832000
30
26.775999
70
192
0
VERTEX
8
OBJECT__32
10
94.404999
20
-2.908000
30
25.398001
70
192
0
VERTEX
8
OBJECT__32
10
92.177002
20
-2.832000
30
26.775999
70
192
0
VERTEX
8
OBJECT__32
10
0
20
0
30
0
70
128
71
1
72
2
73
3
0
VERTEX
8
OBJECT__32
10
0
20
0
30
0
70
128
71
3
72
4
73
1
0
VERTEX
8
OBJECT__32
10
0
20
0
30
0
70
128
71
5
72
6
73
7
0
VERTEX
8
OBJECT__32
10
0
20
0
30
0
70
128
71
7
72
2
73
5
0
VERTEX
8
OBJECT__32
10
0
20
0
30
0
70
128
71
8
72
9
73
10
0
VERTEX
8
OBJECT__32
10
0
20
0
30
0
70
128
71
7
72
6
73
8
0
VERTEX
8
OBJECT__32
10
0
20
0
30
0
70
128
71
10
72
7
73
8
0
VERTEX
8
OBJECT__32
10
0
20
0
30
0
70
128
71
6
72
5
73
11
0
VERTEX
8
OBJECT__32
10
0
20
0
30
0
70
128
71
11
72
12
73
6
0
VERTEX
8
OBJECT__32
10
0
20
0
30
0
70
128
71
5
72
13
73
11
0
VERTEX
8
OBJECT__32
10
0
20
0
30
0
70
128
71
12
72
14
73
6
0
VERTEX
8
OBJECT__32
10
0
20
0
30
0
70
128
71
15
72
4
73
3
0
VERTEX
8
OBJECT__32
10
0
20
0
30
0
70
128
71
1
72
5
73
2
0
VERTEX
8
OBJECT__32
10
0
20
0
30
0
70
128
71
10
72
9
73
16
0
SEQEND
8
OBJECT__32
0
POLYLINE
8
OBJECT__33
66
1
70
64
71
13
72
11
62
253
0
VERTEX
8
OBJECT__33
10
82.977997
20
-2.889000
30
27.326000
70
192
0
VERTEX
8
OBJECT__33
10
82.959999
20
-3.740000
30
26.424000
70
192
0
VERTEX
8
OBJECT__33
10
92.098000
20
-3.682000
30
25.878000
70
192
0
VERTEX
8
OBJECT__33
10
78.109001
20
-3.789000
30
26.480000
70
192
0
VERTEX
8
OBJECT__33
10
81.082001
20
-3.759000
30
26.445999
70
192
0
VERTEX
8
OBJECT__33
10
81.063004
20
-2.909000
30
27.348000
70
192
0
VERTEX
8
OBJECT__33
10
78.094002
20
-2.940000
30
27.382000
70
192
0
VERTEX
8
OBJECT__33
10
69.500000
20
-3.065000
30
27.066999
70
192
0
VERTEX
8
OBJECT__33
10
68.995003
20
-3.913000
30
26.148001
70
192
0
VERTEX
8
OBJECT__33
10
68.920998
20
-3.073000
30
27.046000
70
192
0
VERTEX
8
OBJECT__33
10
63.887001
20
-3.168000
30
26.615000
70
192
0
VERTEX
8
OBJECT__33
10
63.994999
20
-4.000000
30
25.719999
70
192
0
VERTEX
8
OBJECT__33
10
92.177002
20
-2.832000
30
26.775999
70
192
0
VERTEX
8
OBJECT__33
10
0
20
0
30
0
70
128
71
1
72
2
73
3
0
VERTEX
8
OBJECT__33
10
0
20
0
30
0
70
128
71
4
72
5
73
6
0
VERTEX
8
OBJECT__33
10
0
20
0
30
0
70
128
71
1
72
6
73
5
0
VERTEX
8
OBJECT__33
10
0
20
0
30
0
70
128
71
5
72
2
73
1
0
VERTEX
8
OBJECT__33
10
0
20
0
30
0
70
128
71
4
72
7
73
8
0
VERTEX
8
OBJECT__33
10
0
20
0
30
0
70
128
71
8
72
9
73
4
0
VERTEX
8
OBJECT__33
10
0
20
0
30
0
70
128
71
10
72
11
73
12
0
VERTEX
8
OBJECT__33
10
0
20
0
30
0
70
128
71
12
72
9
73
10
0
VERTEX
8
OBJECT__33
10
0
20
0
30
0
70
128
71
8
72
10
73
9
0
VERTEX
8
OBJECT__33
10
0
20
0
30
0
70
128
71
6
72
7
73
4
0
VERTEX
8
OBJECT__33
10
0
20
0
30
0
70
128
71
3
72
13
73
1
0
SEQEND
8
OBJECT__33
0
POLYLINE
8
OBJECT__34
66
1
70
64
71
15
72
14
62
253
0
VERTEX
8
OBJECT__34
10
59.855999
20
-3.987000
30
25.254999
70
192
0
VERTEX
8
OBJECT__34
10
63.998001
20
-4.250000
30
22.863001
70
192
0
VERTEX
8
OBJECT__34
10
63.995998
20
-4.091000
30
24.686001
70
192
0
VERTEX
8
OBJECT__34
10
59.737999
20
-4.149000
30
23.351000
70
192
0
VERTEX
8
OBJECT__34
10
59.743999
20
-3.982000
30
25.240999
70
192
0
VERTEX
8
OBJECT__34
10
63.994999
20
-4.000000
30
25.719999
70
192
0
VERTEX
8
OBJECT__34
10
55.490002
20
-3.846000
30
23.858999
70
192
0
VERTEX
8
OBJECT__34
10
57.673000
20
-3.906000
30
24.975000
70
192
0
VERTEX
8
OBJECT__34
10
59.720001
20
-4.398000
30
20.495001
70
192
0
VERTEX
8
OBJECT__34
10
55.481998
20
-3.935000
30
22.837000
70
192
0
VERTEX
8
OBJECT__34
10
55.469002
20
-4.095000
30
21.003000
70
192
0
VERTEX
8
OBJECT__34
10
59.728001
20
-4.399000
30
20.493999
70
192
0
VERTEX
8
OBJECT__34
10
61.859001
20
-4.475000
30
20.247999
70
192
0
VERTEX
8
OBJECT__34
10
64.000000
20
-4.500000
30
20.007000
70
192
0
VERTEX
8
OBJECT__34
10
55.495998
20
-3.775000
30
24.672001
70
192
0
VERTEX
8
OBJECT__34
10
0
20
0
30
0
70
128
71
1
72
2
73
3
0
VERTEX
8
OBJECT__34
10
0
20
0
30
0
70
128
71
2
72
1
73
4
0
VERTEX
8
OBJECT__34
10
0
20
0
30
0
70
128
71
1
72
5
73
4
0
VERTEX
8
OBJECT__34
10
0
20
0
30
0
70
128
71
3
72
6
73
1
0
VERTEX
8
OBJECT__34
10
0
20
0
30
0
70
128
71
7
72
4
73
8
0
VERTEX
8
OBJECT__34
10
0
20
0
30
0
70
128
71
4
72
5
73
8
0
VERTEX
8
OBJECT__34
10
0
20
0
30
0
70
128
71
9
72
4
73
10
0
VERTEX
8
OBJECT__34
10
0
20
0
30
0
70
128
71
10
72
11
73
9
0
VERTEX
8
OBJECT__34
10
0
20
0
30
0
70
128
71
4
72
7
73
10
0
VERTEX
8
OBJECT__34
10
0
20
0
30
0
70
128
71
4
72
12
73
13
0
VERTEX
8
OBJECT__34
10
0
20
0
30
0
70
128
71
13
72
2
73
4
0
VERTEX
8
OBJECT__34
10
0
20
0
30
0
70
128
71
13
72
14
73
2
0
VERTEX
8
OBJECT__34
10
0
20
0
30
0
70
128
71
9
72
12
73
4
0
VERTEX
8
OBJECT__34
10
0
20
0
30
0
70
128
71
8
72
15
73
7
0
SEQEND
8
OBJECT__34
0
POLYLINE
8
OBJECT__35
66
1
70
64
71
10
72
8
62
253
0
VERTEX
8
OBJECT__35
10
55.495998
20
-3.775000
30
24.672001
70
192
0
VERTEX
8
OBJECT__35
10
57.673000
20
-3.906000
30
24.975000
70
192
0
VERTEX
8
OBJECT__35
10
57.592999
20
-3.076000
30
25.865000
70
192
0
VERTEX
8
OBJECT__35
10
59.743999
20
-3.982000
30
25.240999
70
192
0
VERTEX
8
OBJECT__35
10
59.766998
20
-3.157000
30
26.146000
70
192
0
VERTEX
8
OBJECT__35
10
57.991001
20
-3.091000
30
25.916000
70
192
0
VERTEX
8
OBJECT__35
10
59.855999
20
-3.987000
30
25.254999
70
192
0
VERTEX
8
OBJECT__35
10
63.994999
20
-4.000000
30
25.719999
70
192
0
VERTEX
8
OBJECT__35
10
63.887001
20
-3.168000
30
26.615000
70
192
0
VERTEX
8
OBJECT__35
10
55.424999
20
-2.942000
30
25.559999
70
192
0
VERTEX
8
OBJECT__35
10
0
20
0
30
0
70
128
71
1
72
2
73
3
0
VERTEX
8
OBJECT__35
10
0
20
0
30
0
70
128
71
4
72
5
73
6
0
VERTEX
8
OBJECT__35
10
0
20
0
30
0
70
128
71
6
72
2
73
4
0
VERTEX
8
OBJECT__35
10
0
20
0
30
0
70
128
71
4
72
7
73
5
0
VERTEX
8
OBJECT__35
10
0
20
0
30
0
70
128
71
8
72
9
73
5
0
VERTEX
8
OBJECT__35
10
0
20
0
30
0
70
128
71
5
72
7
73
8
0
VERTEX
8
OBJECT__35
10
0
20
0
30
0
70
128
71
6
72
3
73
2
0
VERTEX
8
OBJECT__35
10
0
20
0
30
0
70
128
71
3
72
10
73
1
0
SEQEND
8
OBJECT__35
0
POLYLINE
8
OBJECT__36
66
1
70
64
71
18
72
17
62
253
0
VERTEX
8
OBJECT__36
10
55.481998
20
-3.935000
30
22.837000
70
192
0
VERTEX
8
OBJECT__36
10
54.929001
20
-3.726000
30
24.593000
70
192
0
VERTEX
8
OBJECT__36
10
51.598000
20
-3.098000
30
24.132000
70
192
0
VERTEX
8
OBJECT__36
10
50.893002
20
-2.939000
30
23.471001
70
192
0
VERTEX
8
OBJECT__36
10
55.490002
20
-3.846000
30
23.858999
70
192
0
VERTEX
8
OBJECT__36
10
55.495998
20
-3.775000
30
24.672001
70
192
0
VERTEX
8
OBJECT__36
10
50.921001
20
-2.858000
30
24.033001
70
192
0
VERTEX
8
OBJECT__36
10
49.022999
20
-2.184000
30
23.754000
70
192
0
VERTEX
8
OBJECT__36
10
50.654999
20
-3.026000
30
21.664000
70
192
0
VERTEX
8
OBJECT__36
10
49.006001
20
-2.175000
30
23.750999
70
192
0
VERTEX
8
OBJECT__36
10
48.132000
20
-1.925000
30
22.032000
70
192
0
VERTEX
8
OBJECT__36
10
46.576000
20
-0.969000
30
22.784000
70
192
0
VERTEX
8
OBJECT__36
10
46.550999
20
-1.009000
30
22.242001
70
192
0
VERTEX
8
OBJECT__36
10
46.602001
20
-0.929000
30
23.326000
70
192
0
VERTEX
8
OBJECT__36
10
50.846001
20
-3.081000
30
21.636000
70
192
0
VERTEX
8
OBJECT__36
10
53.027000
20
-3.709000
30
21.322001
70
192
0
VERTEX
8
OBJECT__36
10
54.981998
20
-4.018000
30
21.066000
70
192
0
VERTEX
8
OBJECT__36
10
55.469002
20
-4.095000
30
21.003000
70
192
0
VERTEX
8
OBJECT__36
10
0
20
0
30
0
70
128
71
1
72
2
73
3
0
VERTEX
8
OBJECT__36
10
0
20
0
30
0
70
128
71
3
72
4
73
1
0
VERTEX
8
OBJECT__36
10
0
20
0
30
0
70
128
71
1
72
5
73
2
0
VERTEX
8
OBJECT__36
10
0
20
0
30
0
70
128
71
5
72
6
73
2
0
VERTEX
8
OBJECT__36
10
0
20
0
30
0
70
128
71
4
72
7
73
8
0
VERTEX
8
OBJECT__36
10
0
20
0
30
0
70
128
71
9
72
4
73
10
0
VERTEX
8
OBJECT__36
10
0
20
0
30
0
70
128
71
10
72
11
73
9
0
VERTEX
8
OBJECT__36
10
0
20
0
30
0
70
128
71
12
72
13
73
11
0
VERTEX
8
OBJECT__36
10
0
20
0
30
0
70
128
71
10
72
14
73
12
0
VERTEX
8
OBJECT__36
10
0
20
0
30
0
70
128
71
11
72
10
73
12
0
VERTEX
8
OBJECT__36
10
0
20
0
30
0
70
128
71
4
72
15
73
16
0
VERTEX
8
OBJECT__36
10
0
20
0
30
0
70
128
71
16
72
1
73
4
0
VERTEX
8
OBJECT__36
10
0
20
0
30
0
70
128
71
16
72
17
73
1
0
VERTEX
8
OBJECT__36
10
0
20
0
30
0
70
128
71
17
72
18
73
1
0
VERTEX
8
OBJECT__36
10
0
20
0
30
0
70
128
71
9
72
15
73
4
0
VERTEX
8
OBJECT__36
10
0
20
0
30
0
70
128
71
8
72
10
73
4
0
VERTEX
8
OBJECT__36
10
0
20
0
30
0
70
128
71
3
72
7
73
4
0
SEQEND
8
OBJECT__36
0
POLYLINE
8
OBJECT__37
66
1
70
64
71
12
72
10
62
253
0
VERTEX
8
OBJECT__37
10
46.602001
20
-0.929000
30
23.326000
70
192
0
VERTEX
8
OBJECT__37
10
49.006001
20
-2.175000
30
23.750999
70
192
0
VERTEX
8
OBJECT__37
10
49.235001
20
-1.353000
30
24.643999
70
192
0
VERTEX
8
OBJECT__37
10
46.922001
20
-0.092000
30
24.216999
70
192
0
VERTEX
8
OBJECT__37
10
49.022999
20
-2.184000
30
23.754000
70
192
0
VERTEX
8
OBJECT__37
10
50.921001
20
-2.858000
30
24.033001
70
192
0
VERTEX
8
OBJECT__37
10
51.698002
20
-2.269000
30
25.021000
70
192
0
VERTEX
8
OBJECT__37
10
51.598000
20
-3.098000
30
24.132000
70
192
0
VERTEX
8
OBJECT__37
10
54.929001
20
-3.726000
30
24.593000
70
192
0
VERTEX
8
OBJECT__37
10
54.882000
20
-2.894000
30
25.480000
70
192
0
VERTEX
8
OBJECT__37
10
55.495998
20
-3.775000
30
24.672001
70
192
0
VERTEX
8
OBJECT__37
10
55.424999
20
-2.942000
30
25.559999
70
192
0
VERTEX
8
OBJECT__37
10
0
20
0
30
0
70
128
71
1
72
2
73
3
0
VERTEX
8
OBJECT__37
10
0
20
0
30
0
70
128
71
3
72
4
73
1
0
VERTEX
8
OBJECT__37
10
0
20
0
30
0
70
128
71
3
72
5
73
6
0
VERTEX
8
OBJECT__37
10
0
20
0
30
0
70
128
71
6
72
7
73
3
0
VERTEX
8
OBJECT__37
10
0
20
0
30
0
70
128
71
8
72
9
73
10
0
VERTEX
8
OBJECT__37
10
0
20
0
30
0
70
128
71
9
72
11
73
12
0
VERTEX
8
OBJECT__37
10
0
20
0
30
0
70
128
71
12
72
10
73
9
0
VERTEX
8
OBJECT__37
10
0
20
0
30
0
70
128
71
10
72
7
73
8
0
VERTEX
8
OBJECT__37
10
0
20
0
30
0
70
128
71
6
72
8
73
7
0
VERTEX
8
OBJECT__37
10
0
20
0
30
0
70
128
71
2
72
5
73
3
0
SEQEND
8
OBJECT__37
0
POLYLINE
8
OBJECT__38
66
1
70
64
71
19
72
18
62
253
0
VERTEX
8
OBJECT__38
10
46.047001
20
0.000000
30
22.858000
70
192
0
VERTEX
8
OBJECT__38
10
46.576000
20
-0.969000
30
22.784000
70
192
0
VERTEX
8
OBJECT__38
10
46.297001
20
-0.641000
30
23.320999
70
192
0
VERTEX
8
OBJECT__38
10
46.602001
20
-0.929000
30
23.326000
70
192
0
VERTEX
8
OBJECT__38
10
46.136002
20
-0.319000
30
23.316999
70
192
0
VERTEX
8
OBJECT__38
10
46.576000
20
0.969000
30
22.784000
70
192
0
VERTEX
8
OBJECT__38
10
46.145000
20
0.345000
30
23.316999
70
192
0
VERTEX
8
OBJECT__38
10
46.320999
20
0.674000
30
23.320999
70
192
0
VERTEX
8
OBJECT__38
10
46.088001
20
0.028000
30
23.316000
70
192
0
VERTEX
8
OBJECT__38
10
46.091999
20
0.000000
30
23.316000
70
192
0
VERTEX
8
OBJECT__38
10
46.266998
20
0.753000
30
22.278000
70
192
0
VERTEX
8
OBJECT__38
10
46.074001
20
0.410000
30
22.305000
70
192
0
VERTEX
8
OBJECT__38
10
46.550999
20
1.009000
30
22.242001
70
192
0
VERTEX
8
OBJECT__38
10
46.000000
20
0.023000
30
22.316000
70
192
0
VERTEX
8
OBJECT__38
10
46.063999
20
-0.384000
30
22.306999
70
192
0
VERTEX
8
OBJECT__38
10
46.255001
20
-0.738000
30
22.280001
70
192
0
VERTEX
8
OBJECT__38
10
46.004002
20
0.000000
30
22.315001
70
192
0
VERTEX
8
OBJECT__38
10
46.550999
20
-1.009000
30
22.242001
70
192
0
VERTEX
8
OBJECT__38
10
46.602001
20
0.929000
30
23.326000
70
192
0
VERTEX
8
OBJECT__38
10
0
20
0
30
0
70
128
71
2
72
3
73
1
0
VERTEX
8
OBJECT__38
10
0
20
0
30
0
70
128
71
2
72
4
73
3
0
VERTEX
8
OBJECT__38
10
0
20
0
30
0
70
128
71
3
72
5
73
1
0
VERTEX
8
OBJECT__38
10
0
20
0
30
0
70
128
71
6
72
1
73
7
0
VERTEX
8
OBJECT__38
10
0
20
0
30
0
70
128
71
7
72
8
73
6
0
VERTEX
8
OBJECT__38
10
0
20
0
30
0
70
128
71
1
72
9
73
7
0
VERTEX
8
OBJECT__38
10
0
20
0
30
0
70
128
71
1
72
10
73
9
0
VERTEX
8
OBJECT__38
10
0
20
0
30
0
70
128
71
6
72
11
73
12
0
VERTEX
8
OBJECT__38
10
0
20
0
30
0
70
128
71
6
72
13
73
11
0
VERTEX
8
OBJECT__38
10
0
20
0
30
0
70
128
71
12
72
1
73
6
0
VERTEX
8
OBJECT__38
10
0
20
0
30
0
70
128
71
12
72
14
73
1
0
VERTEX
8
OBJECT__38
10
0
20
0
30
0
70
128
71
2
72
1
73
15
0
VERTEX
8
OBJECT__38
10
0
20
0
30
0
70
128
71
15
72
16
73
2
0
VERTEX
8
OBJECT__38
10
0
20
0
30
0
70
128
71
1
72
17
73
15
0
VERTEX
8
OBJECT__38
10
0
20
0
30
0
70
128
71
16
72
18
73
2
0
VERTEX
8
OBJECT__38
10
0
20
0
30
0
70
128
71
14
72
17
73
1
0
VERTEX
8
OBJECT__38
10
0
20
0
30
0
70
128
71
8
72
19
73
6
0
VERTEX
8
OBJECT__38
10
0
20
0
30
0
70
128
71
5
72
10
73
1
0
SEQEND
8
OBJECT__38
0
POLYLINE
8
OBJECT__39
66
1
70
64
71
16
72
14
62
253
0
VERTEX
8
OBJECT__39
10
46.320999
20
0.674000
30
23.320999
70
192
0
VERTEX
8
OBJECT__39
10
46.897999
20
0.069000
30
24.211000
70
192
0
VERTEX
8
OBJECT__39
10
46.922001
20
0.092000
30
24.216999
70
192
0
VERTEX
8
OBJECT__39
10
46.145000
20
0.345000
30
23.316999
70
192
0
VERTEX
8
OBJECT__39
10
46.876999
20
0.029000
30
24.207001
70
192
0
VERTEX
8
OBJECT__39
10
46.088001
20
0.028000
30
23.316000
70
192
0
VERTEX
8
OBJECT__39
10
46.872002
20
0.002000
30
24.205999
70
192
0
VERTEX
8
OBJECT__39
10
46.091999
20
0.000000
30
23.316000
70
192
0
VERTEX
8
OBJECT__39
10
46.136002
20
-0.319000
30
23.316999
70
192
0
VERTEX
8
OBJECT__39
10
46.875999
20
-0.027000
30
24.207001
70
192
0
VERTEX
8
OBJECT__39
10
46.872002
20
0.000000
30
24.205999
70
192
0
VERTEX
8
OBJECT__39
10
46.297001
20
-0.641000
30
23.320999
70
192
0
VERTEX
8
OBJECT__39
10
46.895000
20
-0.065000
30
24.211000
70
192
0
VERTEX
8
OBJECT__39
10
46.602001
20
-0.929000
30
23.326000
70
192
0
VERTEX
8
OBJECT__39
10
46.922001
20
-0.092000
30
24.216999
70
192
0
VERTEX
8
OBJECT__39
10
46.602001
20
0.929000
30
23.326000
70
192
0
VERTEX
8
OBJECT__39
10
0
20
0
30
0
70
128
71
1
72
2
73
3
0
VERTEX
8
OBJECT__39
10
0
20
0
30
0
70
128
71
4
72
5
73
2
0
VERTEX
8
OBJECT__39
10
0
20
0
30
0
70
128
71
4
72
6
73
7
0
VERTEX
8
OBJECT__39
10
0
20
0
30
0
70
128
71
8
72
9
73
10
0
VERTEX
8
OBJECT__39
10
0
20
0
30
0
70
128
71
10
72
11
73
8
0
VERTEX
8
OBJECT__39
10
0
20
0
30
0
70
128
71
7
72
6
73
8
0
VERTEX
8
OBJECT__39
10
0
20
0
30
0
70
128
71
9
72
12
73
13
0
VERTEX
8
OBJECT__39
10
0
20
0
30
0
70
128
71
12
72
14
73
15
0
VERTEX
8
OBJECT__39
10
0
20
0
30
0
70
128
71
15
72
13
73
12
0
VERTEX
8
OBJECT__39
10
0
20
0
30
0
70
128
71
13
72
10
73
9
0
VERTEX
8
OBJECT__39
10
0
20
0
30
0
70
128
71
11
72
7
73
8
0
VERTEX
8
OBJECT__39
10
0
20
0
30
0
70
128
71
7
72
5
73
4
0
VERTEX
8
OBJECT__39
10
0
20
0
30
0
70
128
71
2
72
1
73
4
0
VERTEX
8
OBJECT__39
10
0
20
0
30
0
70
128
71
3
72
16
73
1
0
SEQEND
8
OBJECT__39
0
POLYLINE
8
OBJECT__40
66
1
70
64
71
18
72
17
62
253
0
VERTEX
8
OBJECT__40
10
50.862999
20
2.929000
30
23.475000
70
192
0
VERTEX
8
OBJECT__40
10
49.037998
20
2.119000
30
23.742001
70
192
0
VERTEX
8
OBJECT__40
10
50.164001
20
2.639000
30
23.927000
70
192
0
VERTEX
8
OBJECT__40
10
52.792000
20
3.391000
30
24.298000
70
192
0
VERTEX
8
OBJECT__40
10
55.495998
20
3.775000
30
24.672001
70
192
0
VERTEX
8
OBJECT__40
10
55.490002
20
3.846000
30
23.858999
70
192
0
VERTEX
8
OBJECT__40
10
55.481998
20
3.935000
30
22.837000
70
192
0
VERTEX
8
OBJECT__40
10
50.889000
20
2.846000
30
24.028999
70
192
0
VERTEX
8
OBJECT__40
10
53.682999
20
3.843000
30
21.232000
70
192
0
VERTEX
8
OBJECT__40
10
55.469002
20
4.095000
30
21.003000
70
192
0
VERTEX
8
OBJECT__40
10
50.999001
20
3.145000
30
21.613001
70
192
0
VERTEX
8
OBJECT__40
10
46.576000
20
0.969000
30
22.784000
70
192
0
VERTEX
8
OBJECT__40
10
46.602001
20
0.929000
30
23.326000
70
192
0
VERTEX
8
OBJECT__40
10
47.105999
20
1.227000
30
23.424999
70
192
0
VERTEX
8
OBJECT__40
10
48.710999
20
2.217000
30
21.948999
70
192
0
VERTEX
8
OBJECT__40
10
47.234001
20
1.391000
30
22.149000
70
192
0
VERTEX
8
OBJECT__40
10
46.550999
20
1.009000
30
22.242001
70
192
0
VERTEX
8
OBJECT__40
10
50.816002
20
3.071000
30
21.639999
70
192
0
VERTEX
8
OBJECT__40
10
0
20
0
30
0
70
128
71
1
72
2
73
3
0
VERTEX
8
OBJECT__40
10
0
20
0
30
0
70
128
71
4
72
5
73
6
0
VERTEX
8
OBJECT__40
10
0
20
0
30
0
70
128
71
6
72
7
73
4
0
VERTEX
8
OBJECT__40
10
0
20
0
30
0
70
128
71
1
72
8
73
4
0
VERTEX
8
OBJECT__40
10
0
20
0
30
0
70
128
71
4
72
7
73
1
0
VERTEX
8
OBJECT__40
10
0
20
0
30
0
70
128
71
1
72
7
73
9
0
VERTEX
8
OBJECT__40
10
0
20
0
30
0
70
128
71
7
72
10
73
9
0
VERTEX
8
OBJECT__40
10
0
20
0
30
0
70
128
71
9
72
11
73
1
0
VERTEX
8
OBJECT__40
10
0
20
0
30
0
70
128
71
12
72
13
73
14
0
VERTEX
8
OBJECT__40
10
0
20
0
30
0
70
128
71
14
72
15
73
12
0
VERTEX
8
OBJECT__40
10
0
20
0
30
0
70
128
71
12
72
15
73
16
0
VERTEX
8
OBJECT__40
10
0
20
0
30
0
70
128
71
16
72
17
73
12
0
VERTEX
8
OBJECT__40
10
0
20
0
30
0
70
128
71
15
72
2
73
1
0
VERTEX
8
OBJECT__40
10
0
20
0
30
0
70
128
71
1
72
18
73
15
0
VERTEX
8
OBJECT__40
10
0
20
0
30
0
70
128
71
14
72
2
73
15
0
VERTEX
8
OBJECT__40
10
0
20
0
30
0
70
128
71
11
72
18
73
1
0
VERTEX
8
OBJECT__40
10
0
20
0
30
0
70
128
71
3
72
8
73
1
0
SEQEND
8
OBJECT__40
0
POLYLINE
8
OBJECT__41
66
1
70
64
71
42
72
43
62
253
0
VERTEX
8
OBJECT__41
10
57.991001
20
0.000000
30
26.177000
70
192
0
VERTEX
8
OBJECT__41
10
59.766998
20
-3.157000
30
26.146000
70
192
0
VERTEX
8
OBJECT__41
10
63.887001
20
-3.168000
30
26.615000
70
192
0
VERTEX
8
OBJECT__41
10
57.991001
20
-3.091000
30
25.916000
70
192
0
VERTEX
8
OBJECT__41
10
69.500000
20
0.000000
30
27.323999
70
192
0
VERTEX
8
OBJECT__41
10
68.920998
20
-3.073000
30
27.046000
70
192
0
VERTEX
8
OBJECT__41
10
69.500000
20
-3.065000
30
27.066999
70
192
0
VERTEX
8
OBJECT__41
10
78.094002
20
-2.940000
30
27.382000
70
192
0
VERTEX
8
OBJECT__41
10
81.063004
20
0.000000
30
27.580000
70
192
0
VERTEX
8
OBJECT__41
10
92.287003
20
0.001000
30
26.952000
70
192
0
VERTEX
8
OBJECT__41
10
82.977997
20
-2.889000
30
27.326000
70
192
0
VERTEX
8
OBJECT__41
10
92.177002
20
-2.832000
30
26.775999
70
192
0
VERTEX
8
OBJECT__41
10
92.177002
20
-2.829000
30
26.777000
70
192
0
VERTEX
8
OBJECT__41
10
81.063004
20
-2.909000
30
27.348000
70
192
0
VERTEX
8
OBJECT__41
10
87.171997
20
2.857000
30
27.146999
70
192
0
VERTEX
8
OBJECT__41
10
92.299004
20
0.304000
30
26.971001
70
192
0
VERTEX
8
OBJECT__41
10
92.177002
20
2.832000
30
26.775999
70
192
0
VERTEX
8
OBJECT__41
10
77.960999
20
2.941000
30
27.381001
70
192
0
VERTEX
8
OBJECT__41
10
73.042999
20
3.007000
30
27.268999
70
192
0
VERTEX
8
OBJECT__41
10
81.061996
20
2.913000
30
27.302000
70
192
0
VERTEX
8
OBJECT__41
10
61.707001
20
3.186000
30
26.377001
70
192
0
VERTEX
8
OBJECT__41
10
59.529999
20
3.151000
30
26.117001
70
192
0
VERTEX
8
OBJECT__41
10
63.887001
20
3.168000
30
26.615000
70
192
0
VERTEX
8
OBJECT__41
10
69.503998
20
3.069000
30
27.016001
70
192
0
VERTEX
8
OBJECT__41
10
46.876999
20
0.029000
30
24.207001
70
192
0
VERTEX
8
OBJECT__41
10
46.872002
20
0.002000
30
24.205999
70
192
0
VERTEX
8
OBJECT__41
10
46.922001
20
0.092000
30
24.216999
70
192
0
VERTEX
8
OBJECT__41
10
46.897999
20
0.069000
30
24.211000
70
192
0
VERTEX
8
OBJECT__41
10
47.403999
20
0.391000
30
24.316000
70
192
0
VERTEX
8
OBJECT__41
10
52.839001
20
2.561000
30
25.186001
70
192
0
VERTEX
8
OBJECT__41
10
50.326000
20
1.809000
30
24.816000
70
192
0
VERTEX
8
OBJECT__41
10
55.424999
20
2.942000
30
25.559999
70
192
0
VERTEX
8
OBJECT__41
10
57.992001
20
3.073000
30
25.908001
70
192
0
VERTEX
8
OBJECT__41
10
49.235001
20
-1.353000
30
24.643999
70
192
0
VERTEX
8
OBJECT__41
10
51.698002
20
-2.269000
30
25.021000
70
192
0
VERTEX
8
OBJECT__41
10
46.875999
20
-0.027000
30
24.207001
70
192
0
VERTEX
8
OBJECT__41
10
46.895000
20
-0.065000
30
24.211000
70
192
0
VERTEX
8
OBJECT__41
10
46.872002
20
0.000000
30
24.205999
70
192
0
VERTEX
8
OBJECT__41
10
46.922001
20
-0.092000
30
24.216999
70
192
0
VERTEX
8
OBJECT__41
10
54.882000
20
-2.894000
30
25.480000
70
192
0
VERTEX
8
OBJECT__41
10
55.424999
20
-2.942000
30
25.559999
70
192
0
VERTEX
8
OBJECT__41
10
57.592999
20
-3.076000
30
25.865000
70
192
0
VERTEX
8
OBJECT__41
10
0
20
0
30
0
70
128
71
1
72
2
73
3
0
VERTEX
8
OBJECT__41
10
0
20
0
30
0
70
128
71
1
72
4
73
2
0
VERTEX
8
OBJECT__41
10
0
20
0
30
0
70
128
71
3
72
5
73
1
0
VERTEX
8
OBJECT__41
10
0
20
0
30
0
70
128
71
3
72
6
73
5
0
VERTEX
8
OBJECT__41
10
0
20
0
30
0
70
128
71
5
72
7
73
8
0
VERTEX
8
OBJECT__41
10
0
20
0
30
0
70
128
71
8
72
9
73
5
0
VERTEX
8
OBJECT__41
10
0
20
0
30
0
70
128
71
10
72
9
73
11
0
VERTEX
8
OBJECT__41
10
0
20
0
30
0
70
128
71
11
72
12
73
13
0
VERTEX
8
OBJECT__41
10
0
20
0
30
0
70
128
71
9
72
14
73
11
0
VERTEX
8
OBJECT__41
10
0
20
0
30
0
70
128
71
9
72
10
73
15
0
VERTEX
8
OBJECT__41
10
0
20
0
30
0
70
128
71
15
72
10
73
16
0
VERTEX
8
OBJECT__41
10
0
20
0
30
0
70
128
71
16
72
17
73
15
0
VERTEX
8
OBJECT__41
10
0
20
0
30
0
70
128
71
9
72
18
73
19
0
VERTEX
8
OBJECT__41
10
0
20
0
30
0
70
128
71
9
72
20
73
18
0
VERTEX
8
OBJECT__41
10
0
20
0
30
0
70
128
71
19
72
5
73
9
0
VERTEX
8
OBJECT__41
10
0
20
0
30
0
70
128
71
1
72
21
73
22
0
VERTEX
8
OBJECT__41
10
0
20
0
30
0
70
128
71
1
72
23
73
21
0
VERTEX
8
OBJECT__41
10
0
20
0
30
0
70
128
71
5
72
24
73
23
0
VERTEX
8
OBJECT__41
10
0
20
0
30
0
70
128
71
23
72
1
73
5
0
VERTEX
8
OBJECT__41
10
0
20
0
30
0
70
128
71
1
72
25
73
26
0
VERTEX
8
OBJECT__41
10
0
20
0
30
0
70
128
71
1
72
27
73
28
0
VERTEX
8
OBJECT__41
10
0
20
0
30
0
70
128
71
28
72
25
73
1
0
VERTEX
8
OBJECT__41
10
0
20
0
30
0
70
128
71
1
72
29
73
27
0
VERTEX
8
OBJECT__41
10
0
20
0
30
0
70
128
71
1
72
30
73
31
0
VERTEX
8
OBJECT__41
10
0
20
0
30
0
70
128
71
1
72
32
73
30
0
VERTEX
8
OBJECT__41
10
0
20
0
30
0
70
128
71
31
72
29
73
1
0
VERTEX
8
OBJECT__41
10
0
20
0
30
0
70
128
71
1
72
33
73
32
0
VERTEX
8
OBJECT__41
10
0
20
0
30
0
70
128
71
1
72
34
73
35
0
VERTEX
8
OBJECT__41
10
0
20
0
30
0
70
128
71
1
72
36
73
37
0
VERTEX
8
OBJECT__41
10
0
20
0
30
0
70
128
71
1
72
38
73
36
0
VERTEX
8
OBJECT__41
10
0
20
0
30
0
70
128
71
37
72
39
73
1
0
VERTEX
8
OBJECT__41
10
0
20
0
30
0
70
128
71
39
72
34
73
1
0
VERTEX
8
OBJECT__41
10
0
20
0
30
0
70
128
71
35
72
40
73
1
0
VERTEX
8
OBJECT__41
10
0
20
0
30
0
70
128
71
40
72
41
73
1
0
VERTEX
8
OBJECT__41
10
0
20
0
30
0
70
128
71
41
72
42
73
1
0
VERTEX
8
OBJECT__41
10
0
20
0
30
0
70
128
71
42
72
4
73
1
0
VERTEX
8
OBJECT__41
10
0
20
0
30
0
70
128
71
26
72
38
73
1
0
VERTEX
8
OBJECT__41
10
0
20
0
30
0
70
128
71
22
72
33
73
1
0
VERTEX
8
OBJECT__41
10
0
20
0
30
0
70
128
71
19
72
24
73
5
0
VERTEX
8
OBJECT__41
10
0
20
0
30
0
70
128
71
15
72
20
73
9
0
VERTEX
8
OBJECT__41
10
0
20
0
30
0
70
128
71
11
72
13
73
10
0
VERTEX
8
OBJECT__41
10
0
20
0
30
0
70
128
71
8
72
14
73
9
0
VERTEX
8
OBJECT__41
10
0
20
0
30
0
70
128
71
6
72
7
73
5
0
SEQEND
8
OBJECT__41
0
POLYLINE
8
OBJECT__42
66
1
70
64
71
12
72
10
62
253
0
VERTEX
8
OBJECT__42
10
52.792000
20
3.391000
30
24.298000
70
192
0
VERTEX
8
OBJECT__42
10
52.839001
20
2.561000
30
25.186001
70
192
0
VERTEX
8
OBJECT__42
10
55.424999
20
2.942000
30
25.559999
70
192
0
VERTEX
8
OBJECT__42
10
50.889000
20
2.846000
30
24.028999
70
192
0
VERTEX
8
OBJECT__42
10
50.326000
20
1.809000
30
24.816000
70
192
0
VERTEX
8
OBJECT__42
10
47.403999
20
0.391000
30
24.316000
70
192
0
VERTEX
8
OBJECT__42
10
49.037998
20
2.119000
30
23.742001
70
192
0
VERTEX
8
OBJECT__42
10
50.164001
20
2.639000
30
23.927000
70
192
0
VERTEX
8
OBJECT__42
10
46.602001
20
0.929000
30
23.326000
70
192
0
VERTEX
8
OBJECT__42
10
46.922001
20
0.092000
30
24.216999
70
192
0
VERTEX
8
OBJECT__42
10
47.105999
20
1.227000
30
23.424999
70
192
0
VERTEX
8
OBJECT__42
10
55.495998
20
3.775000
30
24.672001
70
192
0
VERTEX
8
OBJECT__42
10
0
20
0
30
0
70
128
71
1
72
2
73
3
0
VERTEX
8
OBJECT__42
10
0
20
0
30
0
70
128
71
2
72
1
73
4
0
VERTEX
8
OBJECT__42
10
0
20
0
30
0
70
128
71
4
72
5
73
2
0
VERTEX
8
OBJECT__42
10
0
20
0
30
0
70
128
71
6
72
5
73
7
0
VERTEX
8
OBJECT__42
10
0
20
0
30
0
70
128
71
5
72
8
73
7
0
VERTEX
8
OBJECT__42
10
0
20
0
30
0
70
128
71
9
72
10
73
6
0
VERTEX
8
OBJECT__42
10
0
20
0
30
0
70
128
71
6
72
11
73
9
0
VERTEX
8
OBJECT__42
10
0
20
0
30
0
70
128
71
7
72
11
73
6
0
VERTEX
8
OBJECT__42
10
0
20
0
30
0
70
128
71
4
72
8
73
5
0
VERTEX
8
OBJECT__42
10
0
20
0
30
0
70
128
71
3
72
12
73
1
0
SEQEND
8
OBJECT__42
0
POLYLINE
8
OBJECT__43
66
1
70
64
71
10
72
8
62
253
0
VERTEX
8
OBJECT__43
10
63.994999
20
4.000000
30
25.719999
70
192
0
VERTEX
8
OBJECT__43
10
61.805000
20
4.016000
30
25.485001
70
192
0
VERTEX
8
OBJECT__43
10
61.707001
20
3.186000
30
26.377001
70
192
0
VERTEX
8
OBJECT__43
10
59.743999
20
3.982000
30
25.240999
70
192
0
VERTEX
8
OBJECT__43
10
59.529999
20
3.151000
30
26.117001
70
192
0
VERTEX
8
OBJECT__43
10
55.495998
20
3.775000
30
24.672001
70
192
0
VERTEX
8
OBJECT__43
10
55.424999
20
2.942000
30
25.559999
70
192
0
VERTEX
8
OBJECT__43
10
57.992001
20
3.073000
30
25.908001
70
192
0
VERTEX
8
OBJECT__43
10
59.618999
20
3.980000
30
25.226000
70
192
0
VERTEX
8
OBJECT__43
10
63.887001
20
3.168000
30
26.615000
70
192
0
VERTEX
8
OBJECT__43
10
0
20
0
30
0
70
128
71
1
72
2
73
3
0
VERTEX
8
OBJECT__43
10
0
20
0
30
0
70
128
71
3
72
2
73
4
0
VERTEX
8
OBJECT__43
10
0
20
0
30
0
70
128
71
4
72
5
73
3
0
VERTEX
8
OBJECT__43
10
0
20
0
30
0
70
128
71
6
72
7
73
8
0
VERTEX
8
OBJECT__43
10
0
20
0
30
0
70
128
71
8
72
9
73
6
0
VERTEX
8
OBJECT__43
10
0
20
0
30
0
70
128
71
8
72
5
73
9
0
VERTEX
8
OBJECT__43
10
0
20
0
30
0
70
128
71
4
72
9
73
5
0
VERTEX
8
OBJECT__43
10
0
20
0
30
0
70
128
71
3
72
10
73
1
0
SEQEND
8
OBJECT__43
0
POLYLINE
8
OBJECT__44
66
1
70
64
71
13
72
11
62
253
0
VERTEX
8
OBJECT__44
10
63.994999
20
4.000000
30
25.719999
70
192
0
VERTEX
8
OBJECT__44
10
63.887001
20
3.168000
30
26.615000
70
192
0
VERTEX
8
OBJECT__44
10
69.503998
20
3.069000
30
27.016001
70
192
0
VERTEX
8
OBJECT__44
10
73.089996
20
3.852000
30
26.368000
70
192
0
VERTEX
8
OBJECT__44
10
77.960999
20
2.941000
30
27.381001
70
192
0
VERTEX
8
OBJECT__44
10
77.975998
20
3.790000
30
26.479000
70
192
0
VERTEX
8
OBJECT__44
10
81.061996
20
2.913000
30
27.302000
70
192
0
VERTEX
8
OBJECT__44
10
87.171997
20
2.857000
30
27.146999
70
192
0
VERTEX
8
OBJECT__44
10
87.126999
20
3.708000
30
26.246000
70
192
0
VERTEX
8
OBJECT__44
10
81.082001
20
3.763000
30
26.400000
70
192
0
VERTEX
8
OBJECT__44
10
92.177002
20
2.832000
30
26.775999
70
192
0
VERTEX
8
OBJECT__44
10
92.098000
20
3.682000
30
25.878000
70
192
0
VERTEX
8
OBJECT__44
10
73.042999
20
3.007000
30
27.268999
70
192
0
VERTEX
8
OBJECT__44
10
0
20
0
30
0
70
128
71
1
72
2
73
3
0
VERTEX
8
OBJECT__44
10
0
20
0
30
0
70
128
71
3
72
4
73
1
0
VERTEX
8
OBJECT__44
10
0
20
0
30
0
70
128
71
5
72
6
73
4
0
VERTEX
8
OBJECT__44
10
0
20
0
30
0
70
128
71
6
72
5
73
7
0
VERTEX
8
OBJECT__44
10
0
20
0
30
0
70
128
71
8
72
9
73
10
0
VERTEX
8
OBJECT__44
10
0
20
0
30
0
70
128
71
10
72
7
73
8
0
VERTEX
8
OBJECT__44
10
0
20
0
30
0
70
128
71
8
72
11
73
12
0
VERTEX
8
OBJECT__44
10
0
20
0
30
0
70
128
71
12
72
9
73
8
0
VERTEX
8
OBJECT__44
10
0
20
0
30
0
70
128
71
7
72
10
73
6
0
VERTEX
8
OBJECT__44
10
0
20
0
30
0
70
128
71
4
72
13
73
5
0
VERTEX
8
OBJECT__44
10
0
20
0
30
0
70
128
71
3
72
13
73
4
0
SEQEND
8
OBJECT__44
0
POLYLINE
8
OBJECT__45
66
1
70
64
71
15
72
14
62
253
0
VERTEX
8
OBJECT__45
10
59.737999
20
4.149000
30
23.351000
70
192
0
VERTEX
8
OBJECT__45
10
55.490002
20
3.846000
30
23.858999
70
192
0
VERTEX
8
OBJECT__45
10
55.495998
20
3.775000
30
24.672001
70
192
0
VERTEX
8
OBJECT__45
10
59.618999
20
3.980000
30
25.226000
70
192
0
VERTEX
8
OBJECT__45
10
59.743999
20
3.982000
30
25.240999
70
192
0
VERTEX
8
OBJECT__45
10
63.995998
20
4.090000
30
24.688000
70
192
0
VERTEX
8
OBJECT__45
10
61.805000
20
4.016000
30
25.485001
70
192
0
VERTEX
8
OBJECT__45
10
63.994999
20
4.000000
30
25.719999
70
192
0
VERTEX
8
OBJECT__45
10
63.998001
20
4.250000
30
22.863001
70
192
0
VERTEX
8
OBJECT__45
10
59.737000
20
4.399000
30
20.493000
70
192
0
VERTEX
8
OBJECT__45
10
64.000000
20
4.500000
30
20.007000
70
192
0
VERTEX
8
OBJECT__45
10
55.481998
20
3.935000
30
22.837000
70
192
0
VERTEX
8
OBJECT__45
10
57.601002
20
4.272000
30
20.746000
70
192
0
VERTEX
8
OBJECT__45
10
59.728001
20
4.399000
30
20.493999
70
192
0
VERTEX
8
OBJECT__45
10
55.469002
20
4.095000
30
21.003000
70
192
0
VERTEX
8
OBJECT__45
10
0
20
0
30
0
70
128
71
1
72
2
73
3
0
VERTEX
8
OBJECT__45
10
0
20
0
30
0
70
128
71
3
72
4
73
1
0
VERTEX
8
OBJECT__45
10
0
20
0
30
0
70
128
71
1
72
5
73
6
0
VERTEX
8
OBJECT__45
10
0
20
0
30
0
70
128
71
6
72
5
73
7
0
VERTEX
8
OBJECT__45
10
0
20
0
30
0
70
128
71
7
72
8
73
6
0
VERTEX
8
OBJECT__45
10
0
20
0
30
0
70
128
71
6
72
9
73
1
0
VERTEX
8
OBJECT__45
10
0
20
0
30
0
70
128
71
10
72
1
73
9
0
VERTEX
8
OBJECT__45
10
0
20
0
30
0
70
128
71
9
72
11
73
10
0
VERTEX
8
OBJECT__45
10
0
20
0
30
0
70
128
71
12
72
1
73
13
0
VERTEX
8
OBJECT__45
10
0
20
0
30
0
70
128
71
1
72
14
73
13
0
VERTEX
8
OBJECT__45
10
0
20
0
30
0
70
128
71
13
72
15
73
12
0
VERTEX
8
OBJECT__45
10
0
20
0
30
0
70
128
71
12
72
2
73
1
0
VERTEX
8
OBJECT__45
10
0
20
0
30
0
70
128
71
10
72
14
73
1
0
VERTEX
8
OBJECT__45
10
0
20
0
30
0
70
128
71
4
72
5
73
1
0
SEQEND
8
OBJECT__45
0
POLYLINE
8
OBJECT__46
66
1
70
64
71
38
72
38
62
253
0
VERTEX
8
OBJECT__46
10
44.000000
20
22.500000
30
0.000000
70
192
0
VERTEX
8
OBJECT__46
10
44.000000
20
21.281000
30
-7.306000
70
192
0
VERTEX
8
OBJECT__46
10
16.000000
20
24.118000
30
-8.280000
70
192
0
VERTEX
8
OBJECT__46
10
16.000000
20
25.500000
30
0.000000
70
192
0
VERTEX
8
OBJECT__46
10
44.000000
20
17.756001
30
-13.820000
70
192
0
VERTEX
8
OBJECT__46
10
16.000000
20
20.122999
30
-15.662000
70
192
0
VERTEX
8
OBJECT__46
10
44.000000
20
12.306000
30
-18.836000
70
192
0
VERTEX
8
OBJECT__46
10
16.000000
20
13.947000
30
-21.348000
70
192
0
VERTEX
8
OBJECT__46
10
44.000000
20
5.523000
30
-21.812000
70
192
0
VERTEX
8
OBJECT__46
10
16.000000
20
6.260000
30
-24.719999
70
192
0
VERTEX
8
OBJECT__46
10
44.000000
20
-1.858000
30
-22.423000
70
192
0
VERTEX
8
OBJECT__46
10
16.000000
20
-2.106000
30
-25.413000
70
192
0
VERTEX
8
OBJECT__46
10
44.000000
20
-9.038000
30
-20.605000
70
192
0
VERTEX
8
OBJECT__46
10
16.000000
20
-10.243000
30
-23.351999
70
192
0
VERTEX
8
OBJECT__46
10
44.000000
20
-15.239000
30
-16.554001
70
192
0
VERTEX
8
OBJECT__46
10
16.000000
20
-17.271000
30
-18.761000
70
192
0
VERTEX
8
OBJECT__46
10
44.000000
20
-19.788000
30
-10.709000
70
192
0
VERTEX
8
OBJECT__46
10
16.000000
20
-22.427000
30
-12.137000
70
192
0
VERTEX
8
OBJECT__46
10
44.000000
20
-22.193001
30
-3.703000
70
192
0
VERTEX
8
OBJECT__46
10
16.000000
20
-25.152000
30
-4.197000
70
192
0
VERTEX
8
OBJECT__46
10
44.000000
20
-22.193001
30
3.703000
70
192
0
VERTEX
8
OBJECT__46
10
16.000000
20
-25.152000
30
4.197000
70
192
0
VERTEX
8
OBJECT__46
10
44.000000
20
-19.788000
30
10.709000
70
192
0
VERTEX
8
OBJECT__46
10
16.000000
20
-22.427000
30
12.137000
70
192
0
VERTEX
8
OBJECT__46
10
44.000000
20
-15.239000
30
16.554001
70
192
0
VERTEX
8
OBJECT__46
10
16.000000
20
-17.271000
30
18.761000
70
192
0
VERTEX
8
OBJECT__46
10
44.000000
20
-9.038000
30
20.605000
70
192
0
VERTEX
8
OBJECT__46
10
16.000000
20
-10.243000
30
23.351999
70
192
0
VERTEX
8
OBJECT__46
10
44.000000
20
-1.858000
30
22.423000
70
192
0
VERTEX
8
OBJECT__46
10
16.000000
20
-2.106000
30
25.413000
70
192
0
VERTEX
8
OBJECT__46
10
44.000000
20
5.523000
30
21.812000
70
192
0
VERTEX
8
OBJECT__46
10
16.000000
20
6.260000
30
24.719999
70
192
0
VERTEX
8
OBJECT__46
10
44.000000
20
12.306000
30
18.836000
70
192
0
VERTEX
8
OBJECT__46
10
16.000000
20
13.947000
30
21.348000
70
192
0
VERTEX
8
OBJECT__46
10
44.000000
20
17.756001
30
13.820000
70
192
0
VERTEX
8
OBJECT__46
10
16.000000
20
20.122999
30
15.662000
70
192
0
VERTEX
8
OBJECT__46
10
44.000000
20
21.281000
30
7.306000
70
192
0
VERTEX
8
OBJECT__46
10
16.000000
20
24.118000
30
8.280000
70
192
0
VERTEX
8
OBJECT__46
10
0
20
0
30
0
70
128
71
1
72
2
73
3
0
VERTEX
8
OBJECT__46
10
0
20
0
30
0
70
128
71
1
72
3
73
4
0
VERTEX
8
OBJECT__46
10
0
20
0
30
0
70
128
71
2
72
5
73
6
0
VERTEX
8
OBJECT__46
10
0
20
0
30
0
70
128
71
2
72
6
73
3
0
VERTEX
8
OBJECT__46
10
0
20
0
30
0
70
128
71
5
72
7
73
8
0
VERTEX
8
OBJECT__46
10
0
20
0
30
0
70
128
71
5
72
8
73
6
0
VERTEX
8
OBJECT__46
10
0
20
0
30
0
70
128
71
7
72
9
73
10
0
VERTEX
8
OBJECT__46
10
0
20
0
30
0
70
128
71
7
72
10
73
8
0
VERTEX
8
OBJECT__46
10
0
20
0
30
0
70
128
71
9
72
11
73
12
0
VERTEX
8
OBJECT__46
10
0
20
0
30
0
70
128
71
9
72
12
73
10
0
VERTEX
8
OBJECT__46
10
0
20
0
30
0
70
128
71
11
72
13
73
14
0
VERTEX
8
OBJECT__46
10
0
20
0
30
0
70
128
71
11
72
14
73
12
0
VERTEX
8
OBJECT__46
10
0
20
0
30
0
70
128
71
13
72
15
73
16
0
VERTEX
8
OBJECT__46
10
0
20
0
30
0
70
128
71
13
72
16
73
14
0
VERTEX
8
OBJECT__46
10
0
20
0
30
0
70
128
71
15
72
17
73
18
0
VERTEX
8
OBJECT__46
10
0
20
0
30
0
70
128
71
15
72
18
73
16
0
VERTEX
8
OBJECT__46
10
0
20
0
30
0
70
128
71
17
72
19
73
20
0
VERTEX
8
OBJECT__46
10
0
20
0
30
0
70
128
71
17
72
20
73
18
0
VERTEX
8
OBJECT__46
10
0
20
0
30
0
70
128
71
19
72
21
73
22
0
VERTEX
8
OBJECT__46
10
0
20
0
30
0
70
128
71
19
72
22
73
20
0
VERTEX
8
OBJECT__46
10
0
20
0
30
0
70
128
71
21
72
23
73
24
0
VERTEX
8
OBJECT__46
10
0
20
0
30
0
70
128
71
21
72
24
73
22
0
VERTEX
8
OBJECT__46
10
0
20
0
30
0
70
128
71
23
72
25
73
26
0
VERTEX
8
OBJECT__46
10
0
20
0
30
0
70
128
71
23
72
26
73
24
0
VERTEX
8
OBJECT__46
10
0
20
0
30
0
70
128
71
25
72
27
73
28
0
VERTEX
8
OBJECT__46
10
0
20
0
30
0
70
128
71
25
72
28
73
26
0
VERTEX
8
OBJECT__46
10
0
20
0
30
0
70
128
71
27
72
29
73
30
0
VERTEX
8
OBJECT__46
10
0
20
0
30
0
70
128
71
27
72
30
73
28
0
VERTEX
8
OBJECT__46
10
0
20
0
30
0
70
128
71
29
72
31
73
32
0
VERTEX
8
OBJECT__46
10
0
20
0
30
0
70
128
71
29
72
32
73
30
0
VERTEX
8
OBJECT__46
10
0
20
0
30
0
70
128
71
31
72
33
73
34
0
VERTEX
8
OBJECT__46
10
0
20
0
30
0
70
128
71
31
72
34
73
32
0
VERTEX
8
OBJECT__46
10
0
20
0
30
0
70
128
71
33
72
35
73
36
0
VERTEX
8
OBJECT__46
10
0
20
0
30
0
70
128
71
33
72
36
73
34
0
VERTEX
8
OBJECT__46
10
0
20
0
30
0
70
128
71
35
72
37
73
38
0
VERTEX
8
OBJECT__46
10
0
20
0
30
0
70
128
71
35
72
38
73
36
0
VERTEX
8
OBJECT__46
10
0
20
0
30
0
70
128
71
37
72
1
73
4
0
VERTEX
8
OBJECT__46
10
0
20
0
30
0
70
128
71
37
72
4
73
38
0
SEQEND
8
OBJECT__46
0
ENDSEC
0
EOF
