999
Converted by 3D Exploration 
999
XDimension Software, LLC
999
http://www.xdsoft.com/explorer/
0
SECTION
2
HEADER
9
$ACADVER
1
AC1008
9
$UCSORG
10
0.0
20
0.0
30
0.0
9
$UCSXDIR
10
1.0
20
0.0
30
0.0
9
$TILEMODE
70
1
9
$UCSYDIR
10
0.0
20
1.0
30
0.0
9
$EXTMIN
10
-27.754999
20
-85.900002
30
-85.900002
9
$EXTMAX
10
120.681000
20
85.900002
30
119.533997
0
ENDSEC
0
SECTION
2
TABLES
0
TABLE
2
LTYPE
70
1
0
LTYPE
2
CONTINUOUS
70
64
3
Solid line
72
65
73
0
40
0.0
0
ENDTAB
0
TABLE
2
LAYER
70
65
0
LAYER
2
OBJECT__0
70
0
62
253
6
CONTINUOUS
0
LAYER
2
OBJECT__1
70
0
62
253
6
CONTINUOUS
0
LAYER
2
OBJECT__3
70
0
62
253
6
CONTINUOUS
0
LAYER
2
OBJECT__4
70
0
62
253
6
CONTINUOUS
0
LAYER
2
OBJECT__5
70
0
62
253
6
CONTINUOUS
0
LAYER
2
OBJECT__6
70
0
62
253
6
CONTINUOUS
0
LAYER
2
OBJECT__7
70
0
62
253
6
CONTINUOUS
0
LAYER
2
OBJECT__8
70
0
62
253
6
CONTINUOUS
0
LAYER
2
OBJECT__10
70
0
62
253
6
CONTINUOUS
0
LAYER
2
OBJECT__11
70
0
62
253
6
CONTINUOUS
0
LAYER
2
OBJECT__12
70
0
62
253
6
CONTINUOUS
0
LAYER
2
OBJECT__13
70
0
62
253
6
CONTINUOUS
0
LAYER
2
OBJECT__14
70
0
62
253
6
CONTINUOUS
0
LAYER
2
OBJECT__15
70
0
62
253
6
CONTINUOUS
0
LAYER
2
OBJECT__17
70
0
62
253
6
CONTINUOUS
0
LAYER
2
OBJECT__18
70
0
62
253
6
CONTINUOUS
0
LAYER
2
OBJECT__19
70
0
62
253
6
CONTINUOUS
0
LAYER
2
OBJECT__20
70
0
62
253
6
CONTINUOUS
0
LAYER
2
OBJECT__21
70
0
62
253
6
CONTINUOUS
0
LAYER
2
OBJECT__22
70
0
62
253
6
CONTINUOUS
0
LAYER
2
OBJECT__24
70
0
62
253
6
CONTINUOUS
0
LAYER
2
OBJECT__25
70
0
62
253
6
CONTINUOUS
0
LAYER
2
OBJECT__26
70
0
62
253
6
CONTINUOUS
0
LAYER
2
OBJECT__28
70
0
62
253
6
CONTINUOUS
0
LAYER
2
OBJECT__29
70
0
62
253
6
CONTINUOUS
0
LAYER
2
OBJECT__30
70
0
62
253
6
CONTINUOUS
0
LAYER
2
OBJECT__31
70
0
62
253
6
CONTINUOUS
0
LAYER
2
OBJECT__32
70
0
62
253
6
CONTINUOUS
0
LAYER
2
OBJECT__33
70
0
62
253
6
CONTINUOUS
0
LAYER
2
OBJECT__35
70
0
62
253
6
CONTINUOUS
0
LAYER
2
OBJECT__36
70
0
62
253
6
CONTINUOUS
0
LAYER
2
OBJECT__37
70
0
62
253
6
CONTINUOUS
0
LAYER
2
OBJECT__39
70
0
62
253
6
CONTINUOUS
0
LAYER
2
OBJECT__40
70
0
62
253
6
CONTINUOUS
0
LAYER
2
OBJECT__41
70
0
62
253
6
CONTINUOUS
0
LAYER
2
OBJECT__42
70
0
62
253
6
CONTINUOUS
0
LAYER
2
OBJECT__43
70
0
62
253
6
CONTINUOUS
0
LAYER
2
OBJECT__45
70
0
62
253
6
CONTINUOUS
0
LAYER
2
OBJECT__46
70
0
62
253
6
CONTINUOUS
0
LAYER
2
OBJECT__48
70
0
62
253
6
CONTINUOUS
0
LAYER
2
OBJECT__49
70
0
62
253
6
CONTINUOUS
0
LAYER
2
OBJECT__51
70
0
62
253
6
CONTINUOUS
0
LAYER
2
OBJECT__52
70
0
62
253
6
CONTINUOUS
0
LAYER
2
OBJECT__54
70
0
62
253
6
CONTINUOUS
0
LAYER
2
OBJECT__55
70
0
62
253
6
CONTINUOUS
0
LAYER
2
OBJECT__56
70
0
62
253
6
CONTINUOUS
0
LAYER
2
OBJECT__57
70
0
62
253
6
CONTINUOUS
0
LAYER
2
OBJECT__58
70
0
62
253
6
CONTINUOUS
0
LAYER
2
OBJECT__59
70
0
62
253
6
CONTINUOUS
0
LAYER
2
OBJECT__60
70
0
62
253
6
CONTINUOUS
0
LAYER
2
OBJECT__61
70
0
62
253
6
CONTINUOUS
0
LAYER
2
OBJECT__62
70
0
62
253
6
CONTINUOUS
0
LAYER
2
OBJECT__64
70
0
62
253
6
CONTINUOUS
0
ENDTAB
0
TABLE
2
STYLE
70
1
0
STYLE
2
STANDARD
70
0
40
0.0
41
1.0
50
0.0
71
0
42
0.2
3
txt
4
1
0
ENDTAB
0
TABLE
2
UCS
70
0
0
ENDTAB
0
ENDSEC
0
SECTION
2
ENTITIES
0
POLYLINE
8
OBJECT__0
66
1
70
64
71
38
72
46
62
253
0
VERTEX
8
OBJECT__0
10
-21.528000
20
1.870000
30
-15.128000
70
192
0
VERTEX
8
OBJECT__0
10
-21.610001
20
1.556000
30
-14.850000
70
192
0
VERTEX
8
OBJECT__0
10
-22.226000
20
1.494000
30
-15.011000
70
192
0
VERTEX
8
OBJECT__0
10
-22.952999
20
1.322000
30
-15.305000
70
192
0
VERTEX
8
OBJECT__0
10
-23.087000
20
1.425000
30
-15.579000
70
192
0
VERTEX
8
OBJECT__0
10
-21.973000
20
2.064000
30
-15.505000
70
192
0
VERTEX
8
OBJECT__0
10
-20.278999
20
-1.322000
30
-14.436000
70
192
0
VERTEX
8
OBJECT__0
10
-21.532000
20
-1.870000
30
-15.129000
70
192
0
VERTEX
8
OBJECT__0
10
-21.608999
20
-1.620000
30
-14.891000
70
192
0
VERTEX
8
OBJECT__0
10
-20.079000
20
-1.617000
30
-14.670000
70
192
0
VERTEX
8
OBJECT__0
10
-21.455000
20
-2.120000
30
-15.367000
70
192
0
VERTEX
8
OBJECT__0
10
-19.999001
20
-1.468000
30
-14.601000
70
192
0
VERTEX
8
OBJECT__0
10
-22.954000
20
-1.321000
30
-15.305000
70
192
0
VERTEX
8
OBJECT__0
10
-23.596001
20
0.002000
30
-15.211000
70
192
0
VERTEX
8
OBJECT__0
10
-23.275999
20
-0.319000
30
-14.899000
70
192
0
VERTEX
8
OBJECT__0
10
-23.240000
20
-0.008000
30
-14.909000
70
192
0
VERTEX
8
OBJECT__0
10
-23.167000
20
0.625000
30
-14.929000
70
192
0
VERTEX
8
OBJECT__0
10
-22.695999
20
1.060000
30
-14.970000
70
192
0
VERTEX
8
OBJECT__0
10
-22.771999
20
-1.151000
30
-15.002000
70
192
0
VERTEX
8
OBJECT__0
10
-22.777000
20
-1.143000
30
-15.001000
70
192
0
VERTEX
8
OBJECT__0
10
-23.336000
20
-1.300000
30
-15.600000
70
192
0
VERTEX
8
OBJECT__0
10
-23.096001
20
-1.439000
30
-15.586000
70
192
0
VERTEX
8
OBJECT__0
10
-23.877001
20
0.002000
30
-15.534000
70
192
0
VERTEX
8
OBJECT__0
10
-23.368000
20
1.264000
30
-15.598000
70
192
0
VERTEX
8
OBJECT__0
10
-22.061001
20
-2.043000
30
-15.523000
70
192
0
VERTEX
8
OBJECT__0
10
-20.277000
20
1.320000
30
-14.435000
70
192
0
VERTEX
8
OBJECT__0
10
-20.049000
20
1.401000
30
-14.605000
70
192
0
VERTEX
8
OBJECT__0
10
-19.542000
20
0.814000
30
-14.223000
70
192
0
VERTEX
8
OBJECT__0
10
-19.815001
20
-0.003000
30
-13.982000
70
192
0
VERTEX
8
OBJECT__0
10
-19.434000
20
-0.415000
30
-14.116000
70
192
0
VERTEX
8
OBJECT__0
10
-19.469000
20
-0.016000
30
-14.151000
70
192
0
VERTEX
8
OBJECT__0
10
-21.476000
20
2.008000
30
-15.313000
70
192
0
VERTEX
8
OBJECT__0
10
-20.476999
20
1.897000
30
-14.929000
70
192
0
VERTEX
8
OBJECT__0
10
-20.239000
20
-0.164000
30
-13.895000
70
192
0
VERTEX
8
OBJECT__0
10
-20.441000
20
0.901000
30
-14.134000
70
192
0
VERTEX
8
OBJECT__0
10
-20.599001
20
-1.145000
30
-14.293000
70
192
0
VERTEX
8
OBJECT__0
10
-20.656000
20
1.071000
30
-14.292000
70
192
0
VERTEX
8
OBJECT__0
10
-21.308001
20
1.587000
30
-14.771000
70
192
0
VERTEX
8
OBJECT__0
10
0
20
0
30
0
70
128
71
1
72
2
73
3
0
VERTEX
8
OBJECT__0
10
0
20
0
30
0
70
128
71
3
72
4
73
1
0
VERTEX
8
OBJECT__0
10
0
20
0
30
0
70
128
71
4
72
5
73
6
0
VERTEX
8
OBJECT__0
10
0
20
0
30
0
70
128
71
6
72
1
73
4
0
VERTEX
8
OBJECT__0
10
0
20
0
30
0
70
128
71
7
72
8
73
9
0
VERTEX
8
OBJECT__0
10
0
20
0
30
0
70
128
71
10
72
11
73
8
0
VERTEX
8
OBJECT__0
10
0
20
0
30
0
70
128
71
7
72
12
73
10
0
VERTEX
8
OBJECT__0
10
0
20
0
30
0
70
128
71
13
72
14
73
15
0
VERTEX
8
OBJECT__0
10
0
20
0
30
0
70
128
71
14
72
16
73
15
0
VERTEX
8
OBJECT__0
10
0
20
0
30
0
70
128
71
14
72
4
73
17
0
VERTEX
8
OBJECT__0
10
0
20
0
30
0
70
128
71
4
72
18
73
17
0
VERTEX
8
OBJECT__0
10
0
20
0
30
0
70
128
71
13
72
19
73
9
0
VERTEX
8
OBJECT__0
10
0
20
0
30
0
70
128
71
13
72
20
73
19
0
VERTEX
8
OBJECT__0
10
0
20
0
30
0
70
128
71
14
72
13
73
21
0
VERTEX
8
OBJECT__0
10
0
20
0
30
0
70
128
71
13
72
22
73
21
0
VERTEX
8
OBJECT__0
10
0
20
0
30
0
70
128
71
14
72
23
73
24
0
VERTEX
8
OBJECT__0
10
0
20
0
30
0
70
128
71
24
72
4
73
14
0
VERTEX
8
OBJECT__0
10
0
20
0
30
0
70
128
71
13
72
8
73
25
0
VERTEX
8
OBJECT__0
10
0
20
0
30
0
70
128
71
8
72
11
73
25
0
VERTEX
8
OBJECT__0
10
0
20
0
30
0
70
128
71
26
72
27
73
28
0
VERTEX
8
OBJECT__0
10
0
20
0
30
0
70
128
71
28
72
29
73
26
0
VERTEX
8
OBJECT__0
10
0
20
0
30
0
70
128
71
7
72
29
73
30
0
VERTEX
8
OBJECT__0
10
0
20
0
30
0
70
128
71
29
72
31
73
30
0
VERTEX
8
OBJECT__0
10
0
20
0
30
0
70
128
71
1
72
32
73
33
0
VERTEX
8
OBJECT__0
10
0
20
0
30
0
70
128
71
33
72
26
73
1
0
VERTEX
8
OBJECT__0
10
0
20
0
30
0
70
128
71
29
72
34
73
35
0
VERTEX
8
OBJECT__0
10
0
20
0
30
0
70
128
71
35
72
26
73
29
0
VERTEX
8
OBJECT__0
10
0
20
0
30
0
70
128
71
7
72
36
73
34
0
VERTEX
8
OBJECT__0
10
0
20
0
30
0
70
128
71
26
72
37
73
38
0
VERTEX
8
OBJECT__0
10
0
20
0
30
0
70
128
71
38
72
1
73
26
0
VERTEX
8
OBJECT__0
10
0
20
0
30
0
70
128
71
38
72
2
73
1
0
VERTEX
8
OBJECT__0
10
0
20
0
30
0
70
128
71
34
72
29
73
7
0
VERTEX
8
OBJECT__0
10
0
20
0
30
0
70
128
71
35
72
37
73
26
0
VERTEX
8
OBJECT__0
10
0
20
0
30
0
70
128
71
33
72
27
73
26
0
VERTEX
8
OBJECT__0
10
0
20
0
30
0
70
128
71
30
72
12
73
7
0
VERTEX
8
OBJECT__0
10
0
20
0
30
0
70
128
71
28
72
31
73
29
0
VERTEX
8
OBJECT__0
10
0
20
0
30
0
70
128
71
25
72
22
73
13
0
VERTEX
8
OBJECT__0
10
0
20
0
30
0
70
128
71
24
72
5
73
4
0
VERTEX
8
OBJECT__0
10
0
20
0
30
0
70
128
71
21
72
23
73
14
0
VERTEX
8
OBJECT__0
10
0
20
0
30
0
70
128
71
9
72
8
73
13
0
VERTEX
8
OBJECT__0
10
0
20
0
30
0
70
128
71
17
72
16
73
14
0
VERTEX
8
OBJECT__0
10
0
20
0
30
0
70
128
71
15
72
20
73
13
0
VERTEX
8
OBJECT__0
10
0
20
0
30
0
70
128
71
8
72
7
73
10
0
VERTEX
8
OBJECT__0
10
0
20
0
30
0
70
128
71
9
72
36
73
7
0
VERTEX
8
OBJECT__0
10
0
20
0
30
0
70
128
71
6
72
32
73
1
0
VERTEX
8
OBJECT__0
10
0
20
0
30
0
70
128
71
3
72
18
73
4
0
SEQEND
8
OBJECT__0
0
POLYLINE
8
OBJECT__1
66
1
70
64
71
40
72
42
62
253
0
VERTEX
8
OBJECT__1
10
-27.455000
20
8.500000
30
-8.342000
70
192
0
VERTEX
8
OBJECT__1
10
-27.554001
20
8.500000
30
-9.599000
70
192
0
VERTEX
8
OBJECT__1
10
-27.554001
20
-8.500000
30
-9.599000
70
192
0
VERTEX
8
OBJECT__1
10
-27.455000
20
-8.500000
30
-8.342000
70
192
0
VERTEX
8
OBJECT__1
10
-24.545000
20
-8.500000
30
-5.856000
70
192
0
VERTEX
8
OBJECT__1
10
-24.545000
20
8.500000
30
-5.856000
70
192
0
VERTEX
8
OBJECT__1
10
-27.754999
20
8.500000
30
-12.157000
70
192
0
VERTEX
8
OBJECT__1
10
-26.089001
20
8.500000
30
-14.108000
70
192
0
VERTEX
8
OBJECT__1
10
-26.089001
20
-8.500000
30
-14.108000
70
192
0
VERTEX
8
OBJECT__1
10
-27.754999
20
-8.500000
30
-12.157000
70
192
0
VERTEX
8
OBJECT__1
10
-18.245001
20
8.500000
30
-9.066000
70
192
0
VERTEX
8
OBJECT__1
10
-18.245001
20
-8.500000
30
-9.066000
70
192
0
VERTEX
8
OBJECT__1
10
-18.445999
20
-8.500000
30
-11.625000
70
192
0
VERTEX
8
OBJECT__1
10
-19.910999
20
8.500000
30
-7.115000
70
192
0
VERTEX
8
OBJECT__1
10
-19.910999
20
-8.500000
30
-7.115000
70
192
0
VERTEX
8
OBJECT__1
10
-20.730000
20
-8.500000
30
-6.157000
70
192
0
VERTEX
8
OBJECT__1
10
-20.730000
20
8.500000
30
-6.157000
70
192
0
VERTEX
8
OBJECT__1
10
-21.455000
20
8.500000
30
-15.367000
70
192
0
VERTEX
8
OBJECT__1
10
-18.545000
20
8.500000
30
-12.882000
70
192
0
VERTEX
8
OBJECT__1
10
-20.476999
20
1.897000
30
-14.929000
70
192
0
VERTEX
8
OBJECT__1
10
-20.049000
20
1.401000
30
-14.605000
70
192
0
VERTEX
8
OBJECT__1
10
-18.445999
20
8.500000
30
-11.625000
70
192
0
VERTEX
8
OBJECT__1
10
-19.542000
20
0.814000
30
-14.223000
70
192
0
VERTEX
8
OBJECT__1
10
-19.434000
20
-0.415000
30
-14.116000
70
192
0
VERTEX
8
OBJECT__1
10
-19.469000
20
-0.016000
30
-14.151000
70
192
0
VERTEX
8
OBJECT__1
10
-20.079000
20
-1.617000
30
-14.670000
70
192
0
VERTEX
8
OBJECT__1
10
-19.999001
20
-1.468000
30
-14.601000
70
192
0
VERTEX
8
OBJECT__1
10
-18.545000
20
-8.500000
30
-12.882000
70
192
0
VERTEX
8
OBJECT__1
10
-21.455000
20
-8.500000
30
-15.367000
70
192
0
VERTEX
8
OBJECT__1
10
-21.455000
20
-2.120000
30
-15.367000
70
192
0
VERTEX
8
OBJECT__1
10
-25.270000
20
-8.500000
30
-15.067000
70
192
0
VERTEX
8
OBJECT__1
10
-22.061001
20
-2.043000
30
-15.523000
70
192
0
VERTEX
8
OBJECT__1
10
-23.096001
20
-1.439000
30
-15.586000
70
192
0
VERTEX
8
OBJECT__1
10
-23.336000
20
-1.300000
30
-15.600000
70
192
0
VERTEX
8
OBJECT__1
10
-23.877001
20
0.002000
30
-15.534000
70
192
0
VERTEX
8
OBJECT__1
10
-23.368000
20
1.264000
30
-15.598000
70
192
0
VERTEX
8
OBJECT__1
10
-23.087000
20
1.425000
30
-15.579000
70
192
0
VERTEX
8
OBJECT__1
10
-25.270000
20
8.500000
30
-15.067000
70
192
0
VERTEX
8
OBJECT__1
10
-21.973000
20
2.064000
30
-15.505000
70
192
0
VERTEX
8
OBJECT__1
10
-21.476000
20
2.008000
30
-15.313000
70
192
0
VERTEX
8
OBJECT__1
10
0
20
0
30
0
70
128
71
1
72
2
73
3
0
VERTEX
8
OBJECT__1
10
0
20
0
30
0
70
128
71
1
72
4
73
5
0
VERTEX
8
OBJECT__1
10
0
20
0
30
0
70
128
71
5
72
6
73
1
0
VERTEX
8
OBJECT__1
10
0
20
0
30
0
70
128
71
7
72
8
73
9
0
VERTEX
8
OBJECT__1
10
0
20
0
30
0
70
128
71
10
72
3
73
2
0
VERTEX
8
OBJECT__1
10
0
20
0
30
0
70
128
71
2
72
7
73
10
0
VERTEX
8
OBJECT__1
10
0
20
0
30
0
70
128
71
11
72
12
73
13
0
VERTEX
8
OBJECT__1
10
0
20
0
30
0
70
128
71
12
72
11
73
14
0
VERTEX
8
OBJECT__1
10
0
20
0
30
0
70
128
71
14
72
15
73
12
0
VERTEX
8
OBJECT__1
10
0
20
0
30
0
70
128
71
5
72
16
73
17
0
VERTEX
8
OBJECT__1
10
0
20
0
30
0
70
128
71
17
72
16
73
15
0
VERTEX
8
OBJECT__1
10
0
20
0
30
0
70
128
71
15
72
14
73
17
0
VERTEX
8
OBJECT__1
10
0
20
0
30
0
70
128
71
18
72
19
73
20
0
VERTEX
8
OBJECT__1
10
0
20
0
30
0
70
128
71
21
72
20
73
19
0
VERTEX
8
OBJECT__1
10
0
20
0
30
0
70
128
71
22
72
23
73
21
0
VERTEX
8
OBJECT__1
10
0
20
0
30
0
70
128
71
19
72
22
73
21
0
VERTEX
8
OBJECT__1
10
0
20
0
30
0
70
128
71
22
72
13
73
24
0
VERTEX
8
OBJECT__1
10
0
20
0
30
0
70
128
71
24
72
25
73
22
0
VERTEX
8
OBJECT__1
10
0
20
0
30
0
70
128
71
25
72
23
73
22
0
VERTEX
8
OBJECT__1
10
0
20
0
30
0
70
128
71
13
72
26
73
27
0
VERTEX
8
OBJECT__1
10
0
20
0
30
0
70
128
71
28
72
29
73
30
0
VERTEX
8
OBJECT__1
10
0
20
0
30
0
70
128
71
26
72
13
73
28
0
VERTEX
8
OBJECT__1
10
0
20
0
30
0
70
128
71
30
72
26
73
28
0
VERTEX
8
OBJECT__1
10
0
20
0
30
0
70
128
71
27
72
24
73
13
0
VERTEX
8
OBJECT__1
10
0
20
0
30
0
70
128
71
29
72
31
73
32
0
VERTEX
8
OBJECT__1
10
0
20
0
30
0
70
128
71
33
72
32
73
31
0
VERTEX
8
OBJECT__1
10
0
20
0
30
0
70
128
71
9
72
34
73
33
0
VERTEX
8
OBJECT__1
10
0
20
0
30
0
70
128
71
31
72
9
73
33
0
VERTEX
8
OBJECT__1
10
0
20
0
30
0
70
128
71
9
72
35
73
34
0
VERTEX
8
OBJECT__1
10
0
20
0
30
0
70
128
71
8
72
36
73
35
0
VERTEX
8
OBJECT__1
10
0
20
0
30
0
70
128
71
37
72
8
73
38
0
VERTEX
8
OBJECT__1
10
0
20
0
30
0
70
128
71
38
72
39
73
37
0
VERTEX
8
OBJECT__1
10
0
20
0
30
0
70
128
71
18
72
40
73
39
0
VERTEX
8
OBJECT__1
10
0
20
0
30
0
70
128
71
39
72
38
73
18
0
VERTEX
8
OBJECT__1
10
0
20
0
30
0
70
128
71
37
72
36
73
8
0
VERTEX
8
OBJECT__1
10
0
20
0
30
0
70
128
71
35
72
9
73
8
0
VERTEX
8
OBJECT__1
10
0
20
0
30
0
70
128
71
32
72
30
73
29
0
VERTEX
8
OBJECT__1
10
0
20
0
30
0
70
128
71
20
72
40
73
18
0
VERTEX
8
OBJECT__1
10
0
20
0
30
0
70
128
71
17
72
6
73
5
0
VERTEX
8
OBJECT__1
10
0
20
0
30
0
70
128
71
13
72
22
73
11
0
VERTEX
8
OBJECT__1
10
0
20
0
30
0
70
128
71
9
72
10
73
7
0
VERTEX
8
OBJECT__1
10
0
20
0
30
0
70
128
71
3
72
4
73
1
0
SEQEND
8
OBJECT__1
0
POLYLINE
8
OBJECT__3
66
1
70
64
71
20
72
20
62
253
0
VERTEX
8
OBJECT__3
10
-27.455000
20
8.500000
30
-8.342000
70
192
0
VERTEX
8
OBJECT__3
10
-24.545000
20
8.500000
30
-5.856000
70
192
0
VERTEX
8
OBJECT__3
10
-24.391001
20
9.000000
30
-6.332000
70
192
0
VERTEX
8
OBJECT__3
10
-27.280001
20
9.000000
30
-12.002000
70
192
0
VERTEX
8
OBJECT__3
10
-27.754999
20
8.500000
30
-12.157000
70
192
0
VERTEX
8
OBJECT__3
10
-27.554001
20
8.500000
30
-9.599000
70
192
0
VERTEX
8
OBJECT__3
10
-27.010000
20
9.000000
30
-8.569000
70
192
0
VERTEX
8
OBJECT__3
10
-25.042999
20
9.000000
30
-14.621000
70
192
0
VERTEX
8
OBJECT__3
10
-26.089001
20
8.500000
30
-14.108000
70
192
0
VERTEX
8
OBJECT__3
10
-25.270000
20
8.500000
30
-15.067000
70
192
0
VERTEX
8
OBJECT__3
10
-21.455000
20
8.500000
30
-15.367000
70
192
0
VERTEX
8
OBJECT__3
10
-21.608999
20
9.000000
30
-14.891000
70
192
0
VERTEX
8
OBJECT__3
10
-18.990000
20
9.000000
30
-12.655000
70
192
0
VERTEX
8
OBJECT__3
10
-18.719999
20
9.000000
30
-9.221000
70
192
0
VERTEX
8
OBJECT__3
10
-18.245001
20
8.500000
30
-9.066000
70
192
0
VERTEX
8
OBJECT__3
10
-18.445999
20
8.500000
30
-11.625000
70
192
0
VERTEX
8
OBJECT__3
10
-20.957001
20
9.000000
30
-6.602000
70
192
0
VERTEX
8
OBJECT__3
10
-19.910999
20
8.500000
30
-7.115000
70
192
0
VERTEX
8
OBJECT__3
10
-20.730000
20
8.500000
30
-6.157000
70
192
0
VERTEX
8
OBJECT__3
10
-18.545000
20
8.500000
30
-12.882000
70
192
0
VERTEX
8
OBJECT__3
10
0
20
0
30
0
70
128
71
1
72
2
73
3
0
VERTEX
8
OBJECT__3
10
0
20
0
30
0
70
128
71
4
72
5
73
6
0
VERTEX
8
OBJECT__3
10
0
20
0
30
0
70
128
71
6
72
7
73
4
0
VERTEX
8
OBJECT__3
10
0
20
0
30
0
70
128
71
4
72
8
73
9
0
VERTEX
8
OBJECT__3
10
0
20
0
30
0
70
128
71
8
72
10
73
9
0
VERTEX
8
OBJECT__3
10
0
20
0
30
0
70
128
71
11
72
10
73
8
0
VERTEX
8
OBJECT__3
10
0
20
0
30
0
70
128
71
11
72
12
73
13
0
VERTEX
8
OBJECT__3
10
0
20
0
30
0
70
128
71
14
72
15
73
16
0
VERTEX
8
OBJECT__3
10
0
20
0
30
0
70
128
71
16
72
13
73
14
0
VERTEX
8
OBJECT__3
10
0
20
0
30
0
70
128
71
14
72
17
73
18
0
VERTEX
8
OBJECT__3
10
0
20
0
30
0
70
128
71
17
72
19
73
18
0
VERTEX
8
OBJECT__3
10
0
20
0
30
0
70
128
71
2
72
19
73
17
0
VERTEX
8
OBJECT__3
10
0
20
0
30
0
70
128
71
17
72
3
73
2
0
VERTEX
8
OBJECT__3
10
0
20
0
30
0
70
128
71
18
72
15
73
14
0
VERTEX
8
OBJECT__3
10
0
20
0
30
0
70
128
71
16
72
20
73
13
0
VERTEX
8
OBJECT__3
10
0
20
0
30
0
70
128
71
13
72
20
73
11
0
VERTEX
8
OBJECT__3
10
0
20
0
30
0
70
128
71
8
72
12
73
11
0
VERTEX
8
OBJECT__3
10
0
20
0
30
0
70
128
71
9
72
5
73
4
0
VERTEX
8
OBJECT__3
10
0
20
0
30
0
70
128
71
6
72
1
73
7
0
VERTEX
8
OBJECT__3
10
0
20
0
30
0
70
128
71
3
72
7
73
1
0
SEQEND
8
OBJECT__3
0
POLYLINE
8
OBJECT__4
66
1
70
64
71
8
72
6
62
253
0
VERTEX
8
OBJECT__4
10
-27.280001
20
9.000000
30
-12.002000
70
192
0
VERTEX
8
OBJECT__4
10
-18.719999
20
9.000000
30
-9.221000
70
192
0
VERTEX
8
OBJECT__4
10
-18.990000
20
9.000000
30
-12.655000
70
192
0
VERTEX
8
OBJECT__4
10
-24.391001
20
9.000000
30
-6.332000
70
192
0
VERTEX
8
OBJECT__4
10
-20.957001
20
9.000000
30
-6.602000
70
192
0
VERTEX
8
OBJECT__4
10
-21.608999
20
9.000000
30
-14.891000
70
192
0
VERTEX
8
OBJECT__4
10
-27.010000
20
9.000000
30
-8.569000
70
192
0
VERTEX
8
OBJECT__4
10
-25.042999
20
9.000000
30
-14.621000
70
192
0
VERTEX
8
OBJECT__4
10
0
20
0
30
0
70
128
71
1
72
2
73
3
0
VERTEX
8
OBJECT__4
10
0
20
0
30
0
70
128
71
1
72
4
73
5
0
VERTEX
8
OBJECT__4
10
0
20
0
30
0
70
128
71
3
72
6
73
1
0
VERTEX
8
OBJECT__4
10
0
20
0
30
0
70
128
71
1
72
7
73
4
0
VERTEX
8
OBJECT__4
10
0
20
0
30
0
70
128
71
5
72
2
73
1
0
VERTEX
8
OBJECT__4
10
0
20
0
30
0
70
128
71
6
72
8
73
1
0
SEQEND
8
OBJECT__4
0
POLYLINE
8
OBJECT__5
66
1
70
64
71
20
72
20
62
253
0
VERTEX
8
OBJECT__5
10
-27.455000
20
-8.500000
30
-8.342000
70
192
0
VERTEX
8
OBJECT__5
10
-27.010000
20
-9.000000
30
-8.569000
70
192
0
VERTEX
8
OBJECT__5
10
-24.391001
20
-9.000000
30
-6.332000
70
192
0
VERTEX
8
OBJECT__5
10
-27.280001
20
-9.000000
30
-12.002000
70
192
0
VERTEX
8
OBJECT__5
10
-27.554001
20
-8.500000
30
-9.599000
70
192
0
VERTEX
8
OBJECT__5
10
-27.754999
20
-8.500000
30
-12.157000
70
192
0
VERTEX
8
OBJECT__5
10
-26.089001
20
-8.500000
30
-14.108000
70
192
0
VERTEX
8
OBJECT__5
10
-25.042999
20
-9.000000
30
-14.621000
70
192
0
VERTEX
8
OBJECT__5
10
-21.455000
20
-8.500000
30
-15.367000
70
192
0
VERTEX
8
OBJECT__5
10
-21.608999
20
-9.000000
30
-14.891000
70
192
0
VERTEX
8
OBJECT__5
10
-18.545000
20
-8.500000
30
-12.882000
70
192
0
VERTEX
8
OBJECT__5
10
-18.990000
20
-9.000000
30
-12.655000
70
192
0
VERTEX
8
OBJECT__5
10
-18.719999
20
-9.000000
30
-9.221000
70
192
0
VERTEX
8
OBJECT__5
10
-18.445999
20
-8.500000
30
-11.625000
70
192
0
VERTEX
8
OBJECT__5
10
-18.245001
20
-8.500000
30
-9.066000
70
192
0
VERTEX
8
OBJECT__5
10
-19.910999
20
-8.500000
30
-7.115000
70
192
0
VERTEX
8
OBJECT__5
10
-20.957001
20
-9.000000
30
-6.602000
70
192
0
VERTEX
8
OBJECT__5
10
-24.545000
20
-8.500000
30
-5.856000
70
192
0
VERTEX
8
OBJECT__5
10
-20.730000
20
-8.500000
30
-6.157000
70
192
0
VERTEX
8
OBJECT__5
10
-25.270000
20
-8.500000
30
-15.067000
70
192
0
VERTEX
8
OBJECT__5
10
0
20
0
30
0
70
128
71
1
72
2
73
3
0
VERTEX
8
OBJECT__5
10
0
20
0
30
0
70
128
71
4
72
2
73
5
0
VERTEX
8
OBJECT__5
10
0
20
0
30
0
70
128
71
2
72
1
73
5
0
VERTEX
8
OBJECT__5
10
0
20
0
30
0
70
128
71
4
72
6
73
7
0
VERTEX
8
OBJECT__5
10
0
20
0
30
0
70
128
71
7
72
8
73
4
0
VERTEX
8
OBJECT__5
10
0
20
0
30
0
70
128
71
9
72
10
73
8
0
VERTEX
8
OBJECT__5
10
0
20
0
30
0
70
128
71
11
72
12
73
10
0
VERTEX
8
OBJECT__5
10
0
20
0
30
0
70
128
71
13
72
12
73
14
0
VERTEX
8
OBJECT__5
10
0
20
0
30
0
70
128
71
12
72
11
73
14
0
VERTEX
8
OBJECT__5
10
0
20
0
30
0
70
128
71
13
72
15
73
16
0
VERTEX
8
OBJECT__5
10
0
20
0
30
0
70
128
71
16
72
17
73
13
0
VERTEX
8
OBJECT__5
10
0
20
0
30
0
70
128
71
18
72
3
73
17
0
VERTEX
8
OBJECT__5
10
0
20
0
30
0
70
128
71
17
72
19
73
18
0
VERTEX
8
OBJECT__5
10
0
20
0
30
0
70
128
71
16
72
19
73
17
0
VERTEX
8
OBJECT__5
10
0
20
0
30
0
70
128
71
14
72
15
73
13
0
VERTEX
8
OBJECT__5
10
0
20
0
30
0
70
128
71
10
72
9
73
11
0
VERTEX
8
OBJECT__5
10
0
20
0
30
0
70
128
71
8
72
20
73
9
0
VERTEX
8
OBJECT__5
10
0
20
0
30
0
70
128
71
7
72
20
73
8
0
VERTEX
8
OBJECT__5
10
0
20
0
30
0
70
128
71
5
72
6
73
4
0
VERTEX
8
OBJECT__5
10
0
20
0
30
0
70
128
71
3
72
18
73
1
0
SEQEND
8
OBJECT__5
0
POLYLINE
8
OBJECT__6
66
1
70
64
71
8
72
6
62
253
0
VERTEX
8
OBJECT__6
10
-27.280001
20
-9.000000
30
-12.002000
70
192
0
VERTEX
8
OBJECT__6
10
-21.608999
20
-9.000000
30
-14.891000
70
192
0
VERTEX
8
OBJECT__6
10
-18.990000
20
-9.000000
30
-12.655000
70
192
0
VERTEX
8
OBJECT__6
10
-18.719999
20
-9.000000
30
-9.221000
70
192
0
VERTEX
8
OBJECT__6
10
-24.391001
20
-9.000000
30
-6.332000
70
192
0
VERTEX
8
OBJECT__6
10
-27.010000
20
-9.000000
30
-8.569000
70
192
0
VERTEX
8
OBJECT__6
10
-25.042999
20
-9.000000
30
-14.621000
70
192
0
VERTEX
8
OBJECT__6
10
-20.957001
20
-9.000000
30
-6.602000
70
192
0
VERTEX
8
OBJECT__6
10
0
20
0
30
0
70
128
71
1
72
2
73
3
0
VERTEX
8
OBJECT__6
10
0
20
0
30
0
70
128
71
4
72
5
73
6
0
VERTEX
8
OBJECT__6
10
0
20
0
30
0
70
128
71
1
72
7
73
2
0
VERTEX
8
OBJECT__6
10
0
20
0
30
0
70
128
71
4
72
8
73
5
0
VERTEX
8
OBJECT__6
10
0
20
0
30
0
70
128
71
6
72
1
73
4
0
VERTEX
8
OBJECT__6
10
0
20
0
30
0
70
128
71
3
72
4
73
1
0
SEQEND
8
OBJECT__6
0
POLYLINE
8
OBJECT__7
66
1
70
64
71
20
72
20
62
253
0
VERTEX
8
OBJECT__7
10
9.405000
20
-12.944000
30
57.500000
70
192
0
VERTEX
8
OBJECT__7
10
0.000000
20
-16.000000
30
57.500000
70
192
0
VERTEX
8
OBJECT__7
10
0.000000
20
-16.000000
30
46.000000
70
192
0
VERTEX
8
OBJECT__7
10
15.217000
20
-4.944000
30
57.500000
70
192
0
VERTEX
8
OBJECT__7
10
9.405000
20
-12.944000
30
46.000000
70
192
0
VERTEX
8
OBJECT__7
10
15.217000
20
4.944000
30
57.500000
70
192
0
VERTEX
8
OBJECT__7
10
15.217000
20
-4.944000
30
46.000000
70
192
0
VERTEX
8
OBJECT__7
10
9.405000
20
12.944000
30
57.500000
70
192
0
VERTEX
8
OBJECT__7
10
15.217000
20
4.944000
30
46.000000
70
192
0
VERTEX
8
OBJECT__7
10
0.000000
20
16.000000
30
57.500000
70
192
0
VERTEX
8
OBJECT__7
10
9.405000
20
12.944000
30
46.000000
70
192
0
VERTEX
8
OBJECT__7
10
-9.405000
20
12.944000
30
46.000000
70
192
0
VERTEX
8
OBJECT__7
10
-9.405000
20
12.944000
30
57.500000
70
192
0
VERTEX
8
OBJECT__7
10
-15.217000
20
4.944000
30
46.000000
70
192
0
VERTEX
8
OBJECT__7
10
-15.217000
20
4.944000
30
57.500000
70
192
0
VERTEX
8
OBJECT__7
10
-15.217000
20
-4.944000
30
46.000000
70
192
0
VERTEX
8
OBJECT__7
10
-15.217000
20
-4.944000
30
57.500000
70
192
0
VERTEX
8
OBJECT__7
10
-9.405000
20
-12.944000
30
46.000000
70
192
0
VERTEX
8
OBJECT__7
10
-9.405000
20
-12.944000
30
57.500000
70
192
0
VERTEX
8
OBJECT__7
10
0.000000
20
16.000000
30
46.000000
70
192
0
VERTEX
8
OBJECT__7
10
0
20
0
30
0
70
128
71
1
72
2
73
3
0
VERTEX
8
OBJECT__7
10
0
20
0
30
0
70
128
71
4
72
1
73
5
0
VERTEX
8
OBJECT__7
10
0
20
0
30
0
70
128
71
6
72
4
73
7
0
VERTEX
8
OBJECT__7
10
0
20
0
30
0
70
128
71
8
72
6
73
9
0
VERTEX
8
OBJECT__7
10
0
20
0
30
0
70
128
71
10
72
8
73
11
0
VERTEX
8
OBJECT__7
10
0
20
0
30
0
70
128
71
12
72
13
73
10
0
VERTEX
8
OBJECT__7
10
0
20
0
30
0
70
128
71
14
72
15
73
13
0
VERTEX
8
OBJECT__7
10
0
20
0
30
0
70
128
71
16
72
17
73
15
0
VERTEX
8
OBJECT__7
10
0
20
0
30
0
70
128
71
18
72
19
73
17
0
VERTEX
8
OBJECT__7
10
0
20
0
30
0
70
128
71
3
72
2
73
19
0
VERTEX
8
OBJECT__7
10
0
20
0
30
0
70
128
71
19
72
18
73
3
0
VERTEX
8
OBJECT__7
10
0
20
0
30
0
70
128
71
17
72
16
73
18
0
VERTEX
8
OBJECT__7
10
0
20
0
30
0
70
128
71
15
72
14
73
16
0
VERTEX
8
OBJECT__7
10
0
20
0
30
0
70
128
71
13
72
12
73
14
0
VERTEX
8
OBJECT__7
10
0
20
0
30
0
70
128
71
10
72
20
73
12
0
VERTEX
8
OBJECT__7
10
0
20
0
30
0
70
128
71
11
72
20
73
10
0
VERTEX
8
OBJECT__7
10
0
20
0
30
0
70
128
71
9
72
11
73
8
0
VERTEX
8
OBJECT__7
10
0
20
0
30
0
70
128
71
7
72
9
73
6
0
VERTEX
8
OBJECT__7
10
0
20
0
30
0
70
128
71
5
72
7
73
4
0
VERTEX
8
OBJECT__7
10
0
20
0
30
0
70
128
71
3
72
5
73
1
0
SEQEND
8
OBJECT__7
0
POLYLINE
8
OBJECT__8
66
1
70
64
71
18
72
18
62
253
0
VERTEX
8
OBJECT__8
10
15.217000
20
4.944000
30
57.500000
70
192
0
VERTEX
8
OBJECT__8
10
9.405000
20
12.944000
30
57.500000
70
192
0
VERTEX
8
OBJECT__8
10
8.132000
20
8.132000
30
57.500000
70
192
0
VERTEX
8
OBJECT__8
10
0.000000
20
16.000000
30
57.500000
70
192
0
VERTEX
8
OBJECT__8
10
0.000000
20
11.500000
30
57.500000
70
192
0
VERTEX
8
OBJECT__8
10
-9.405000
20
12.944000
30
57.500000
70
192
0
VERTEX
8
OBJECT__8
10
-8.132000
20
8.132000
30
57.500000
70
192
0
VERTEX
8
OBJECT__8
10
15.217000
20
-4.944000
30
57.500000
70
192
0
VERTEX
8
OBJECT__8
10
11.500000
20
0.000000
30
57.500000
70
192
0
VERTEX
8
OBJECT__8
10
8.132000
20
-8.132000
30
57.500000
70
192
0
VERTEX
8
OBJECT__8
10
9.405000
20
-12.944000
30
57.500000
70
192
0
VERTEX
8
OBJECT__8
10
-15.217000
20
4.944000
30
57.500000
70
192
0
VERTEX
8
OBJECT__8
10
-11.500000
20
0.000000
30
57.500000
70
192
0
VERTEX
8
OBJECT__8
10
-15.217000
20
-4.944000
30
57.500000
70
192
0
VERTEX
8
OBJECT__8
10
-9.405000
20
-12.944000
30
57.500000
70
192
0
VERTEX
8
OBJECT__8
10
-8.132000
20
-8.132000
30
57.500000
70
192
0
VERTEX
8
OBJECT__8
10
0.000000
20
-16.000000
30
57.500000
70
192
0
VERTEX
8
OBJECT__8
10
0.000000
20
-11.500000
30
57.500000
70
192
0
VERTEX
8
OBJECT__8
10
0
20
0
30
0
70
128
71
1
72
2
73
3
0
VERTEX
8
OBJECT__8
10
0
20
0
30
0
70
128
71
2
72
4
73
5
0
VERTEX
8
OBJECT__8
10
0
20
0
30
0
70
128
71
6
72
7
73
5
0
VERTEX
8
OBJECT__8
10
0
20
0
30
0
70
128
71
8
72
9
73
10
0
VERTEX
8
OBJECT__8
10
0
20
0
30
0
70
128
71
3
72
9
73
1
0
VERTEX
8
OBJECT__8
10
0
20
0
30
0
70
128
71
5
72
4
73
6
0
VERTEX
8
OBJECT__8
10
0
20
0
30
0
70
128
71
10
72
11
73
8
0
VERTEX
8
OBJECT__8
10
0
20
0
30
0
70
128
71
5
72
3
73
2
0
VERTEX
8
OBJECT__8
10
0
20
0
30
0
70
128
71
9
72
8
73
1
0
VERTEX
8
OBJECT__8
10
0
20
0
30
0
70
128
71
12
72
13
73
7
0
VERTEX
8
OBJECT__8
10
0
20
0
30
0
70
128
71
14
72
15
73
16
0
VERTEX
8
OBJECT__8
10
0
20
0
30
0
70
128
71
7
72
6
73
12
0
VERTEX
8
OBJECT__8
10
0
20
0
30
0
70
128
71
16
72
13
73
14
0
VERTEX
8
OBJECT__8
10
0
20
0
30
0
70
128
71
13
72
12
73
14
0
VERTEX
8
OBJECT__8
10
0
20
0
30
0
70
128
71
15
72
17
73
18
0
VERTEX
8
OBJECT__8
10
0
20
0
30
0
70
128
71
18
72
16
73
15
0
VERTEX
8
OBJECT__8
10
0
20
0
30
0
70
128
71
10
72
18
73
11
0
VERTEX
8
OBJECT__8
10
0
20
0
30
0
70
128
71
18
72
17
73
11
0
SEQEND
8
OBJECT__8
0
POLYLINE
8
OBJECT__10
66
1
70
64
71
16
72
16
62
253
0
VERTEX
8
OBJECT__10
10
8.132000
20
-8.132000
30
57.500000
70
192
0
VERTEX
8
OBJECT__10
10
8.132000
20
-8.132000
30
58.500000
70
192
0
VERTEX
8
OBJECT__10
10
0.000000
20
-11.500000
30
58.500000
70
192
0
VERTEX
8
OBJECT__10
10
11.500000
20
0.000000
30
57.500000
70
192
0
VERTEX
8
OBJECT__10
10
11.500000
20
0.000000
30
58.500000
70
192
0
VERTEX
8
OBJECT__10
10
8.132000
20
8.132000
30
57.500000
70
192
0
VERTEX
8
OBJECT__10
10
8.132000
20
8.132000
30
58.500000
70
192
0
VERTEX
8
OBJECT__10
10
0.000000
20
11.500000
30
57.500000
70
192
0
VERTEX
8
OBJECT__10
10
0.000000
20
11.500000
30
58.500000
70
192
0
VERTEX
8
OBJECT__10
10
-8.132000
20
8.132000
30
57.500000
70
192
0
VERTEX
8
OBJECT__10
10
-8.132000
20
8.132000
30
58.500000
70
192
0
VERTEX
8
OBJECT__10
10
-11.500000
20
0.000000
30
57.500000
70
192
0
VERTEX
8
OBJECT__10
10
-11.500000
20
0.000000
30
58.500000
70
192
0
VERTEX
8
OBJECT__10
10
-8.132000
20
-8.132000
30
57.500000
70
192
0
VERTEX
8
OBJECT__10
10
-8.132000
20
-8.132000
30
58.500000
70
192
0
VERTEX
8
OBJECT__10
10
0.000000
20
-11.500000
30
57.500000
70
192
0
VERTEX
8
OBJECT__10
10
0
20
0
30
0
70
128
71
1
72
2
73
3
0
VERTEX
8
OBJECT__10
10
0
20
0
30
0
70
128
71
4
72
5
73
2
0
VERTEX
8
OBJECT__10
10
0
20
0
30
0
70
128
71
6
72
7
73
5
0
VERTEX
8
OBJECT__10
10
0
20
0
30
0
70
128
71
8
72
9
73
7
0
VERTEX
8
OBJECT__10
10
0
20
0
30
0
70
128
71
10
72
11
73
9
0
VERTEX
8
OBJECT__10
10
0
20
0
30
0
70
128
71
12
72
13
73
11
0
VERTEX
8
OBJECT__10
10
0
20
0
30
0
70
128
71
14
72
15
73
13
0
VERTEX
8
OBJECT__10
10
0
20
0
30
0
70
128
71
16
72
3
73
15
0
VERTEX
8
OBJECT__10
10
0
20
0
30
0
70
128
71
15
72
14
73
16
0
VERTEX
8
OBJECT__10
10
0
20
0
30
0
70
128
71
13
72
12
73
14
0
VERTEX
8
OBJECT__10
10
0
20
0
30
0
70
128
71
11
72
10
73
12
0
VERTEX
8
OBJECT__10
10
0
20
0
30
0
70
128
71
9
72
8
73
10
0
VERTEX
8
OBJECT__10
10
0
20
0
30
0
70
128
71
7
72
6
73
8
0
VERTEX
8
OBJECT__10
10
0
20
0
30
0
70
128
71
5
72
4
73
6
0
VERTEX
8
OBJECT__10
10
0
20
0
30
0
70
128
71
2
72
1
73
4
0
VERTEX
8
OBJECT__10
10
0
20
0
30
0
70
128
71
3
72
16
73
1
0
SEQEND
8
OBJECT__10
0
POLYLINE
8
OBJECT__11
66
1
70
64
71
26
72
26
62
253
0
VERTEX
8
OBJECT__11
10
-8.132000
20
-8.132000
30
58.500000
70
192
0
VERTEX
8
OBJECT__11
10
0.000000
20
-11.500000
30
58.500000
70
192
0
VERTEX
8
OBJECT__11
10
-1.637000
20
-11.383000
30
68.500000
70
192
0
VERTEX
8
OBJECT__11
10
-7.531000
20
-8.691000
30
68.500000
70
192
0
VERTEX
8
OBJECT__11
10
-0.050000
20
-11.155000
30
68.500000
70
192
0
VERTEX
8
OBJECT__11
10
-7.961000
20
-8.022000
30
68.500000
70
192
0
VERTEX
8
OBJECT__11
10
-11.034000
20
-3.240000
30
68.500000
70
192
0
VERTEX
8
OBJECT__11
10
-11.500000
20
0.000000
30
58.500000
70
192
0
VERTEX
8
OBJECT__11
10
-8.132000
20
8.132000
30
58.500000
70
192
0
VERTEX
8
OBJECT__11
10
-11.034000
20
3.240000
30
68.500000
70
192
0
VERTEX
8
OBJECT__11
10
-11.034000
20
0.000000
30
68.500000
70
192
0
VERTEX
8
OBJECT__11
10
-7.531000
20
8.691000
30
68.500000
70
192
0
VERTEX
8
OBJECT__11
10
-1.637000
20
11.383000
30
68.500000
70
192
0
VERTEX
8
OBJECT__11
10
0.000000
20
11.500000
30
58.500000
70
192
0
VERTEX
8
OBJECT__11
10
-7.961000
20
8.022000
30
68.500000
70
192
0
VERTEX
8
OBJECT__11
10
0.000000
20
11.500000
30
68.500000
70
192
0
VERTEX
8
OBJECT__11
10
4.777000
20
10.461000
30
68.500000
70
192
0
VERTEX
8
OBJECT__11
10
8.132000
20
8.132000
30
58.500000
70
192
0
VERTEX
8
OBJECT__11
10
11.500000
20
0.000000
30
58.500000
70
192
0
VERTEX
8
OBJECT__11
10
9.674000
20
6.217000
30
68.500000
70
192
0
VERTEX
8
OBJECT__11
10
7.846000
20
7.802000
30
68.500000
70
192
0
VERTEX
8
OBJECT__11
10
11.500000
20
0.000000
30
68.500000
70
192
0
VERTEX
8
OBJECT__11
10
9.674000
20
-6.217000
30
68.500000
70
192
0
VERTEX
8
OBJECT__11
10
8.132000
20
-8.132000
30
58.500000
70
192
0
VERTEX
8
OBJECT__11
10
4.777000
20
-10.461000
30
68.500000
70
192
0
VERTEX
8
OBJECT__11
10
7.846000
20
-7.802000
30
68.500000
70
192
0
VERTEX
8
OBJECT__11
10
0
20
0
30
0
70
128
71
1
72
2
73
3
0
VERTEX
8
OBJECT__11
10
0
20
0
30
0
70
128
71
3
72
4
73
1
0
VERTEX
8
OBJECT__11
10
0
20
0
30
0
70
128
71
2
72
5
73
3
0
VERTEX
8
OBJECT__11
10
0
20
0
30
0
70
128
71
1
72
6
73
7
0
VERTEX
8
OBJECT__11
10
0
20
0
30
0
70
128
71
7
72
8
73
1
0
VERTEX
8
OBJECT__11
10
0
20
0
30
0
70
128
71
9
72
8
73
10
0
VERTEX
8
OBJECT__11
10
0
20
0
30
0
70
128
71
8
72
11
73
10
0
VERTEX
8
OBJECT__11
10
0
20
0
30
0
70
128
71
9
72
12
73
13
0
VERTEX
8
OBJECT__11
10
0
20
0
30
0
70
128
71
13
72
14
73
9
0
VERTEX
8
OBJECT__11
10
0
20
0
30
0
70
128
71
9
72
15
73
12
0
VERTEX
8
OBJECT__11
10
0
20
0
30
0
70
128
71
14
72
16
73
17
0
VERTEX
8
OBJECT__11
10
0
20
0
30
0
70
128
71
17
72
18
73
14
0
VERTEX
8
OBJECT__11
10
0
20
0
30
0
70
128
71
19
72
18
73
20
0
VERTEX
8
OBJECT__11
10
0
20
0
30
0
70
128
71
18
72
21
73
20
0
VERTEX
8
OBJECT__11
10
0
20
0
30
0
70
128
71
19
72
22
73
23
0
VERTEX
8
OBJECT__11
10
0
20
0
30
0
70
128
71
23
72
24
73
19
0
VERTEX
8
OBJECT__11
10
0
20
0
30
0
70
128
71
2
72
24
73
25
0
VERTEX
8
OBJECT__11
10
0
20
0
30
0
70
128
71
24
72
26
73
25
0
VERTEX
8
OBJECT__11
10
0
20
0
30
0
70
128
71
25
72
5
73
2
0
VERTEX
8
OBJECT__11
10
0
20
0
30
0
70
128
71
23
72
26
73
24
0
VERTEX
8
OBJECT__11
10
0
20
0
30
0
70
128
71
20
72
22
73
19
0
VERTEX
8
OBJECT__11
10
0
20
0
30
0
70
128
71
17
72
21
73
18
0
VERTEX
8
OBJECT__11
10
0
20
0
30
0
70
128
71
13
72
16
73
14
0
VERTEX
8
OBJECT__11
10
0
20
0
30
0
70
128
71
10
72
15
73
9
0
VERTEX
8
OBJECT__11
10
0
20
0
30
0
70
128
71
7
72
11
73
8
0
VERTEX
8
OBJECT__11
10
0
20
0
30
0
70
128
71
4
72
6
73
1
0
SEQEND
8
OBJECT__11
0
POLYLINE
8
OBJECT__12
66
1
70
64
71
124
72
212
62
253
0
VERTEX
8
OBJECT__12
10
55.162998
20
6.217000
30
94.763000
70
192
0
VERTEX
8
OBJECT__12
10
61.443001
20
6.217000
30
89.943001
70
192
0
VERTEX
8
OBJECT__12
10
60.153000
20
0.000000
30
88.653000
70
192
0
VERTEX
8
OBJECT__12
10
54.250000
20
0.000000
30
93.181999
70
192
0
VERTEX
8
OBJECT__12
10
47.375999
20
0.000000
30
96.028999
70
192
0
VERTEX
8
OBJECT__12
10
47.848999
20
6.217000
30
97.792000
70
192
0
VERTEX
8
OBJECT__12
10
40.000000
20
0.000000
30
97.000000
70
192
0
VERTEX
8
OBJECT__12
10
40.000000
20
6.217000
30
98.825996
70
192
0
VERTEX
8
OBJECT__12
10
32.624001
20
0.000000
30
96.028999
70
192
0
VERTEX
8
OBJECT__12
10
32.151001
20
6.217000
30
97.792000
70
192
0
VERTEX
8
OBJECT__12
10
25.750000
20
0.000000
30
93.181999
70
192
0
VERTEX
8
OBJECT__12
10
24.837000
20
6.217000
30
94.763000
70
192
0
VERTEX
8
OBJECT__12
10
19.847000
20
0.000000
30
88.653000
70
192
0
VERTEX
8
OBJECT__12
10
18.556999
20
6.217000
30
89.943001
70
192
0
VERTEX
8
OBJECT__12
10
15.318000
20
0.000000
30
82.750000
70
192
0
VERTEX
8
OBJECT__12
10
13.737000
20
6.217000
30
83.663002
70
192
0
VERTEX
8
OBJECT__12
10
12.471000
20
0.000000
30
75.875999
70
192
0
VERTEX
8
OBJECT__12
10
10.708000
20
6.217000
30
76.348999
70
192
0
VERTEX
8
OBJECT__12
10
11.500000
20
0.000000
30
68.500000
70
192
0
VERTEX
8
OBJECT__12
10
57.611000
20
10.461000
30
99.003998
70
192
0
VERTEX
8
OBJECT__12
10
62.736000
20
7.802000
30
91.236000
70
192
0
VERTEX
8
OBJECT__12
10
64.905998
20
10.461000
30
93.405998
70
192
0
VERTEX
8
OBJECT__12
10
49.116001
20
10.461000
30
102.523003
70
192
0
VERTEX
8
OBJECT__12
10
40.000000
20
10.461000
30
103.723000
70
192
0
VERTEX
8
OBJECT__12
10
30.884001
20
10.461000
30
102.523003
70
192
0
VERTEX
8
OBJECT__12
10
22.389000
20
10.461000
30
99.003998
70
192
0
VERTEX
8
OBJECT__12
10
15.094000
20
10.461000
30
93.405998
70
192
0
VERTEX
8
OBJECT__12
10
9.496000
20
10.461000
30
86.111000
70
192
0
VERTEX
8
OBJECT__12
10
5.977000
20
10.461000
30
77.615997
70
192
0
VERTEX
8
OBJECT__12
10
9.674000
20
6.217000
30
68.500000
70
192
0
VERTEX
8
OBJECT__12
10
7.846000
20
7.802000
30
68.500000
70
192
0
VERTEX
8
OBJECT__12
10
68.283997
20
11.500000
30
96.783997
70
192
0
VERTEX
8
OBJECT__12
10
60.818001
20
11.383000
30
104.557999
70
192
0
VERTEX
8
OBJECT__12
10
69.442001
20
11.383000
30
97.942001
70
192
0
VERTEX
8
OBJECT__12
10
50.776001
20
11.383000
30
108.718002
70
192
0
VERTEX
8
OBJECT__12
10
40.000000
20
11.383000
30
110.137001
70
192
0
VERTEX
8
OBJECT__12
10
29.224001
20
11.383000
30
108.718002
70
192
0
VERTEX
8
OBJECT__12
10
19.181999
20
11.383000
30
104.557999
70
192
0
VERTEX
8
OBJECT__12
10
10.558000
20
11.383000
30
97.942001
70
192
0
VERTEX
8
OBJECT__12
10
3.942000
20
11.383000
30
89.318001
70
192
0
VERTEX
8
OBJECT__12
10
-0.218000
20
11.383000
30
79.276001
70
192
0
VERTEX
8
OBJECT__12
10
0.000000
20
11.500000
30
68.500000
70
192
0
VERTEX
8
OBJECT__12
10
4.777000
20
10.461000
30
68.500000
70
192
0
VERTEX
8
OBJECT__12
10
63.764999
20
8.691000
30
109.663002
70
192
0
VERTEX
8
OBJECT__12
10
73.609001
20
8.691000
30
102.109001
70
192
0
VERTEX
8
OBJECT__12
10
52.301998
20
8.691000
30
114.411003
70
192
0
VERTEX
8
OBJECT__12
10
40.000000
20
8.691000
30
116.030998
70
192
0
VERTEX
8
OBJECT__12
10
27.698000
20
8.691000
30
114.411003
70
192
0
VERTEX
8
OBJECT__12
10
16.235001
20
8.691000
30
109.663002
70
192
0
VERTEX
8
OBJECT__12
10
6.391000
20
8.691000
30
102.109001
70
192
0
VERTEX
8
OBJECT__12
10
-1.163000
20
8.691000
30
92.264999
70
192
0
VERTEX
8
OBJECT__12
10
-5.911000
20
8.691000
30
80.802002
70
192
0
VERTEX
8
OBJECT__12
10
-7.531000
20
8.691000
30
68.500000
70
192
0
VERTEX
8
OBJECT__12
10
65.516998
20
3.240000
30
112.696999
70
192
0
VERTEX
8
OBJECT__12
10
76.086998
20
3.240000
30
104.586998
70
192
0
VERTEX
8
OBJECT__12
10
73.914001
20
8.022000
30
102.414001
70
192
0
VERTEX
8
OBJECT__12
10
53.209000
20
3.240000
30
117.794998
70
192
0
VERTEX
8
OBJECT__12
10
40.000000
20
3.240000
30
119.533997
70
192
0
VERTEX
8
OBJECT__12
10
26.791000
20
3.240000
30
117.794998
70
192
0
VERTEX
8
OBJECT__12
10
14.483000
20
3.240000
30
112.696999
70
192
0
VERTEX
8
OBJECT__12
10
3.913000
20
3.240000
30
104.586998
70
192
0
VERTEX
8
OBJECT__12
10
-4.197000
20
3.240000
30
94.016998
70
192
0
VERTEX
8
OBJECT__12
10
-9.295000
20
3.240000
30
81.709000
70
192
0
VERTEX
8
OBJECT__12
10
-7.961000
20
8.022000
30
68.500000
70
192
0
VERTEX
8
OBJECT__12
10
65.516998
20
-3.240000
30
112.696999
70
192
0
VERTEX
8
OBJECT__12
10
76.086998
20
0.000000
30
104.586998
70
192
0
VERTEX
8
OBJECT__12
10
76.086998
20
-3.240000
30
104.586998
70
192
0
VERTEX
8
OBJECT__12
10
53.209000
20
-3.240000
30
117.794998
70
192
0
VERTEX
8
OBJECT__12
10
40.000000
20
-3.240000
30
119.533997
70
192
0
VERTEX
8
OBJECT__12
10
26.791000
20
-3.240000
30
117.794998
70
192
0
VERTEX
8
OBJECT__12
10
14.483000
20
-3.240000
30
112.696999
70
192
0
VERTEX
8
OBJECT__12
10
3.913000
20
-3.240000
30
104.586998
70
192
0
VERTEX
8
OBJECT__12
10
-4.197000
20
-3.240000
30
94.016998
70
192
0
VERTEX
8
OBJECT__12
10
-9.295000
20
-3.240000
30
81.709000
70
192
0
VERTEX
8
OBJECT__12
10
-11.034000
20
3.240000
30
68.500000
70
192
0
VERTEX
8
OBJECT__12
10
-11.034000
20
0.000000
30
68.500000
70
192
0
VERTEX
8
OBJECT__12
10
63.764999
20
-8.691000
30
109.663002
70
192
0
VERTEX
8
OBJECT__12
10
73.914001
20
-8.022000
30
102.414001
70
192
0
VERTEX
8
OBJECT__12
10
73.609001
20
-8.691000
30
102.109001
70
192
0
VERTEX
8
OBJECT__12
10
52.301998
20
-8.691000
30
114.411003
70
192
0
VERTEX
8
OBJECT__12
10
40.000000
20
-8.691000
30
116.030998
70
192
0
VERTEX
8
OBJECT__12
10
27.698000
20
-8.691000
30
114.411003
70
192
0
VERTEX
8
OBJECT__12
10
16.235001
20
-8.691000
30
109.663002
70
192
0
VERTEX
8
OBJECT__12
10
6.391000
20
-8.691000
30
102.109001
70
192
0
VERTEX
8
OBJECT__12
10
-1.163000
20
-8.691000
30
92.264999
70
192
0
VERTEX
8
OBJECT__12
10
-5.911000
20
-8.691000
30
80.802002
70
192
0
VERTEX
8
OBJECT__12
10
-11.034000
20
-3.240000
30
68.500000
70
192
0
VERTEX
8
OBJECT__12
10
-7.961000
20
-8.022000
30
68.500000
70
192
0
VERTEX
8
OBJECT__12
10
60.818001
20
-11.383000
30
104.557999
70
192
0
VERTEX
8
OBJECT__12
10
50.776001
20
-11.383000
30
108.718002
70
192
0
VERTEX
8
OBJECT__12
10
40.000000
20
-11.383000
30
110.137001
70
192
0
VERTEX
8
OBJECT__12
10
29.224001
20
-11.383000
30
108.718002
70
192
0
VERTEX
8
OBJECT__12
10
19.181999
20
-11.383000
30
104.557999
70
192
0
VERTEX
8
OBJECT__12
10
10.558000
20
-11.383000
30
97.942001
70
192
0
VERTEX
8
OBJECT__12
10
3.942000
20
-11.383000
30
89.318001
70
192
0
VERTEX
8
OBJECT__12
10
-0.218000
20
-11.383000
30
79.276001
70
192
0
VERTEX
8
OBJECT__12
10
-7.531000
20
-8.691000
30
68.500000
70
192
0
VERTEX
8
OBJECT__12
10
-1.637000
20
-11.383000
30
68.500000
70
192
0
VERTEX
8
OBJECT__12
10
68.319000
20
-11.155000
30
96.819000
70
192
0
VERTEX
8
OBJECT__12
10
57.611000
20
-10.461000
30
99.003998
70
192
0
VERTEX
8
OBJECT__12
10
64.905998
20
-10.461000
30
93.405998
70
192
0
VERTEX
8
OBJECT__12
10
49.116001
20
-10.461000
30
102.523003
70
192
0
VERTEX
8
OBJECT__12
10
40.000000
20
-10.461000
30
103.723000
70
192
0
VERTEX
8
OBJECT__12
10
30.884001
20
-10.461000
30
102.523003
70
192
0
VERTEX
8
OBJECT__12
10
22.389000
20
-10.461000
30
99.003998
70
192
0
VERTEX
8
OBJECT__12
10
15.094000
20
-10.461000
30
93.405998
70
192
0
VERTEX
8
OBJECT__12
10
9.496000
20
-10.461000
30
86.111000
70
192
0
VERTEX
8
OBJECT__12
10
5.977000
20
-10.461000
30
77.615997
70
192
0
VERTEX
8
OBJECT__12
10
-0.050000
20
-11.155000
30
68.500000
70
192
0
VERTEX
8
OBJECT__12
10
4.777000
20
-10.461000
30
68.500000
70
192
0
VERTEX
8
OBJECT__12
10
55.162998
20
-6.217000
30
94.763000
70
192
0
VERTEX
8
OBJECT__12
10
61.443001
20
-6.217000
30
89.943001
70
192
0
VERTEX
8
OBJECT__12
10
62.736000
20
-7.802000
30
91.236000
70
192
0
VERTEX
8
OBJECT__12
10
47.848999
20
-6.217000
30
97.792000
70
192
0
VERTEX
8
OBJECT__12
10
40.000000
20
-6.217000
30
98.825996
70
192
0
VERTEX
8
OBJECT__12
10
32.151001
20
-6.217000
30
97.792000
70
192
0
VERTEX
8
OBJECT__12
10
24.837000
20
-6.217000
30
94.763000
70
192
0
VERTEX
8
OBJECT__12
10
18.556999
20
-6.217000
30
89.943001
70
192
0
VERTEX
8
OBJECT__12
10
13.737000
20
-6.217000
30
83.663002
70
192
0
VERTEX
8
OBJECT__12
10
10.708000
20
-6.217000
30
76.348999
70
192
0
VERTEX
8
OBJECT__12
10
7.846000
20
-7.802000
30
68.500000
70
192
0
VERTEX
8
OBJECT__12
10
9.674000
20
-6.217000
30
68.500000
70
192
0
VERTEX
8
OBJECT__12
10
69.442001
20
-11.383000
30
97.942001
70
192
0
VERTEX
8
OBJECT__12
10
-1.637000
20
11.383000
30
68.500000
70
192
0
VERTEX
8
OBJECT__12
10
0
20
0
30
0
70
128
71
1
72
2
73
3
0
VERTEX
8
OBJECT__12
10
0
20
0
30
0
70
128
71
4
72
5
73
6
0
VERTEX
8
OBJECT__12
10
0
20
0
30
0
70
128
71
5
72
7
73
8
0
VERTEX
8
OBJECT__12
10
0
20
0
30
0
70
128
71
7
72
9
73
10
0
VERTEX
8
OBJECT__12
10
0
20
0
30
0
70
128
71
9
72
11
73
12
0
VERTEX
8
OBJECT__12
10
0
20
0
30
0
70
128
71
11
72
13
73
14
0
VERTEX
8
OBJECT__12
10
0
20
0
30
0
70
128
71
13
72
15
73
16
0
VERTEX
8
OBJECT__12
10
0
20
0
30
0
70
128
71
15
72
17
73
18
0
VERTEX
8
OBJECT__12
10
0
20
0
30
0
70
128
71
18
72
17
73
19
0
VERTEX
8
OBJECT__12
10
0
20
0
30
0
70
128
71
1
72
20
73
21
0
VERTEX
8
OBJECT__12
10
0
20
0
30
0
70
128
71
20
72
22
73
21
0
VERTEX
8
OBJECT__12
10
0
20
0
30
0
70
128
71
1
72
6
73
23
0
VERTEX
8
OBJECT__12
10
0
20
0
30
0
70
128
71
6
72
8
73
24
0
VERTEX
8
OBJECT__12
10
0
20
0
30
0
70
128
71
8
72
10
73
25
0
VERTEX
8
OBJECT__12
10
0
20
0
30
0
70
128
71
10
72
12
73
26
0
VERTEX
8
OBJECT__12
10
0
20
0
30
0
70
128
71
12
72
14
73
27
0
VERTEX
8
OBJECT__12
10
0
20
0
30
0
70
128
71
14
72
16
73
28
0
VERTEX
8
OBJECT__12
10
0
20
0
30
0
70
128
71
16
72
18
73
29
0
VERTEX
8
OBJECT__12
10
0
20
0
30
0
70
128
71
18
72
30
73
31
0
VERTEX
8
OBJECT__12
10
0
20
0
30
0
70
128
71
31
72
29
73
18
0
VERTEX
8
OBJECT__12
10
0
20
0
30
0
70
128
71
32
72
22
73
20
0
VERTEX
8
OBJECT__12
10
0
20
0
30
0
70
128
71
33
72
34
73
32
0
VERTEX
8
OBJECT__12
10
0
20
0
30
0
70
128
71
20
72
23
73
35
0
VERTEX
8
OBJECT__12
10
0
20
0
30
0
70
128
71
23
72
24
73
36
0
VERTEX
8
OBJECT__12
10
0
20
0
30
0
70
128
71
24
72
25
73
37
0
VERTEX
8
OBJECT__12
10
0
20
0
30
0
70
128
71
25
72
26
73
38
0
VERTEX
8
OBJECT__12
10
0
20
0
30
0
70
128
71
26
72
27
73
39
0
VERTEX
8
OBJECT__12
10
0
20
0
30
0
70
128
71
27
72
28
73
40
0
VERTEX
8
OBJECT__12
10
0
20
0
30
0
70
128
71
28
72
29
73
41
0
VERTEX
8
OBJECT__12
10
0
20
0
30
0
70
128
71
42
72
41
73
29
0
VERTEX
8
OBJECT__12
10
0
20
0
30
0
70
128
71
29
72
43
73
42
0
VERTEX
8
OBJECT__12
10
0
20
0
30
0
70
128
71
44
72
45
73
34
0
VERTEX
8
OBJECT__12
10
0
20
0
30
0
70
128
71
33
72
35
73
46
0
VERTEX
8
OBJECT__12
10
0
20
0
30
0
70
128
71
35
72
36
73
47
0
VERTEX
8
OBJECT__12
10
0
20
0
30
0
70
128
71
36
72
37
73
48
0
VERTEX
8
OBJECT__12
10
0
20
0
30
0
70
128
71
37
72
38
73
49
0
VERTEX
8
OBJECT__12
10
0
20
0
30
0
70
128
71
38
72
39
73
50
0
VERTEX
8
OBJECT__12
10
0
20
0
30
0
70
128
71
39
72
40
73
51
0
VERTEX
8
OBJECT__12
10
0
20
0
30
0
70
128
71
40
72
41
73
52
0
VERTEX
8
OBJECT__12
10
0
20
0
30
0
70
128
71
53
72
52
73
41
0
VERTEX
8
OBJECT__12
10
0
20
0
30
0
70
128
71
54
72
55
73
56
0
VERTEX
8
OBJECT__12
10
0
20
0
30
0
70
128
71
56
72
44
73
54
0
VERTEX
8
OBJECT__12
10
0
20
0
30
0
70
128
71
44
72
46
73
57
0
VERTEX
8
OBJECT__12
10
0
20
0
30
0
70
128
71
46
72
47
73
58
0
VERTEX
8
OBJECT__12
10
0
20
0
30
0
70
128
71
47
72
48
73
59
0
VERTEX
8
OBJECT__12
10
0
20
0
30
0
70
128
71
48
72
49
73
60
0
VERTEX
8
OBJECT__12
10
0
20
0
30
0
70
128
71
49
72
50
73
61
0
VERTEX
8
OBJECT__12
10
0
20
0
30
0
70
128
71
50
72
51
73
62
0
VERTEX
8
OBJECT__12
10
0
20
0
30
0
70
128
71
51
72
52
73
63
0
VERTEX
8
OBJECT__12
10
0
20
0
30
0
70
128
71
63
72
52
73
64
0
VERTEX
8
OBJECT__12
10
0
20
0
30
0
70
128
71
52
72
53
73
64
0
VERTEX
8
OBJECT__12
10
0
20
0
30
0
70
128
71
54
72
65
73
66
0
VERTEX
8
OBJECT__12
10
0
20
0
30
0
70
128
71
65
72
67
73
66
0
VERTEX
8
OBJECT__12
10
0
20
0
30
0
70
128
71
54
72
57
73
68
0
VERTEX
8
OBJECT__12
10
0
20
0
30
0
70
128
71
57
72
58
73
69
0
VERTEX
8
OBJECT__12
10
0
20
0
30
0
70
128
71
58
72
59
73
70
0
VERTEX
8
OBJECT__12
10
0
20
0
30
0
70
128
71
59
72
60
73
71
0
VERTEX
8
OBJECT__12
10
0
20
0
30
0
70
128
71
60
72
61
73
72
0
VERTEX
8
OBJECT__12
10
0
20
0
30
0
70
128
71
61
72
62
73
73
0
VERTEX
8
OBJECT__12
10
0
20
0
30
0
70
128
71
62
72
63
73
74
0
VERTEX
8
OBJECT__12
10
0
20
0
30
0
70
128
71
63
72
75
73
76
0
VERTEX
8
OBJECT__12
10
0
20
0
30
0
70
128
71
76
72
74
73
63
0
VERTEX
8
OBJECT__12
10
0
20
0
30
0
70
128
71
65
72
77
73
78
0
VERTEX
8
OBJECT__12
10
0
20
0
30
0
70
128
71
77
72
79
73
78
0
VERTEX
8
OBJECT__12
10
0
20
0
30
0
70
128
71
65
72
68
73
80
0
VERTEX
8
OBJECT__12
10
0
20
0
30
0
70
128
71
68
72
69
73
81
0
VERTEX
8
OBJECT__12
10
0
20
0
30
0
70
128
71
69
72
70
73
82
0
VERTEX
8
OBJECT__12
10
0
20
0
30
0
70
128
71
70
72
71
73
83
0
VERTEX
8
OBJECT__12
10
0
20
0
30
0
70
128
71
71
72
72
73
84
0
VERTEX
8
OBJECT__12
10
0
20
0
30
0
70
128
71
72
72
73
73
85
0
VERTEX
8
OBJECT__12
10
0
20
0
30
0
70
128
71
73
72
74
73
86
0
VERTEX
8
OBJECT__12
10
0
20
0
30
0
70
128
71
74
72
87
73
88
0
VERTEX
8
OBJECT__12
10
0
20
0
30
0
70
128
71
88
72
86
73
74
0
VERTEX
8
OBJECT__12
10
0
20
0
30
0
70
128
71
79
72
77
73
89
0
VERTEX
8
OBJECT__12
10
0
20
0
30
0
70
128
71
77
72
80
73
90
0
VERTEX
8
OBJECT__12
10
0
20
0
30
0
70
128
71
80
72
81
73
91
0
VERTEX
8
OBJECT__12
10
0
20
0
30
0
70
128
71
81
72
82
73
92
0
VERTEX
8
OBJECT__12
10
0
20
0
30
0
70
128
71
82
72
83
73
93
0
VERTEX
8
OBJECT__12
10
0
20
0
30
0
70
128
71
83
72
84
73
94
0
VERTEX
8
OBJECT__12
10
0
20
0
30
0
70
128
71
84
72
85
73
95
0
VERTEX
8
OBJECT__12
10
0
20
0
30
0
70
128
71
85
72
86
73
96
0
VERTEX
8
OBJECT__12
10
0
20
0
30
0
70
128
71
86
72
97
73
98
0
VERTEX
8
OBJECT__12
10
0
20
0
30
0
70
128
71
99
72
89
73
100
0
VERTEX
8
OBJECT__12
10
0
20
0
30
0
70
128
71
100
72
101
73
99
0
VERTEX
8
OBJECT__12
10
0
20
0
30
0
70
128
71
89
72
90
73
102
0
VERTEX
8
OBJECT__12
10
0
20
0
30
0
70
128
71
90
72
91
73
103
0
VERTEX
8
OBJECT__12
10
0
20
0
30
0
70
128
71
91
72
92
73
104
0
VERTEX
8
OBJECT__12
10
0
20
0
30
0
70
128
71
92
72
93
73
105
0
VERTEX
8
OBJECT__12
10
0
20
0
30
0
70
128
71
93
72
94
73
106
0
VERTEX
8
OBJECT__12
10
0
20
0
30
0
70
128
71
94
72
95
73
107
0
VERTEX
8
OBJECT__12
10
0
20
0
30
0
70
128
71
95
72
96
73
108
0
VERTEX
8
OBJECT__12
10
0
20
0
30
0
70
128
71
109
72
110
73
108
0
VERTEX
8
OBJECT__12
10
0
20
0
30
0
70
128
71
96
72
98
73
109
0
VERTEX
8
OBJECT__12
10
0
20
0
30
0
70
128
71
111
72
112
73
113
0
VERTEX
8
OBJECT__12
10
0
20
0
30
0
70
128
71
113
72
100
73
111
0
VERTEX
8
OBJECT__12
10
0
20
0
30
0
70
128
71
100
72
102
73
114
0
VERTEX
8
OBJECT__12
10
0
20
0
30
0
70
128
71
102
72
103
73
115
0
VERTEX
8
OBJECT__12
10
0
20
0
30
0
70
128
71
103
72
104
73
116
0
VERTEX
8
OBJECT__12
10
0
20
0
30
0
70
128
71
104
72
105
73
117
0
VERTEX
8
OBJECT__12
10
0
20
0
30
0
70
128
71
105
72
106
73
118
0
VERTEX
8
OBJECT__12
10
0
20
0
30
0
70
128
71
106
72
107
73
119
0
VERTEX
8
OBJECT__12
10
0
20
0
30
0
70
128
71
107
72
108
73
120
0
VERTEX
8
OBJECT__12
10
0
20
0
30
0
70
128
71
120
72
108
73
121
0
VERTEX
8
OBJECT__12
10
0
20
0
30
0
70
128
71
108
72
110
73
121
0
VERTEX
8
OBJECT__12
10
0
20
0
30
0
70
128
71
111
72
4
73
3
0
VERTEX
8
OBJECT__12
10
0
20
0
30
0
70
128
71
111
72
114
73
5
0
VERTEX
8
OBJECT__12
10
0
20
0
30
0
70
128
71
114
72
115
73
7
0
VERTEX
8
OBJECT__12
10
0
20
0
30
0
70
128
71
115
72
116
73
9
0
VERTEX
8
OBJECT__12
10
0
20
0
30
0
70
128
71
116
72
117
73
11
0
VERTEX
8
OBJECT__12
10
0
20
0
30
0
70
128
71
117
72
118
73
13
0
VERTEX
8
OBJECT__12
10
0
20
0
30
0
70
128
71
118
72
119
73
15
0
VERTEX
8
OBJECT__12
10
0
20
0
30
0
70
128
71
119
72
120
73
17
0
VERTEX
8
OBJECT__12
10
0
20
0
30
0
70
128
71
120
72
122
73
19
0
VERTEX
8
OBJECT__12
10
0
20
0
30
0
70
128
71
19
72
17
73
120
0
VERTEX
8
OBJECT__12
10
0
20
0
30
0
70
128
71
17
72
15
73
119
0
VERTEX
8
OBJECT__12
10
0
20
0
30
0
70
128
71
15
72
13
73
118
0
VERTEX
8
OBJECT__12
10
0
20
0
30
0
70
128
71
13
72
11
73
117
0
VERTEX
8
OBJECT__12
10
0
20
0
30
0
70
128
71
11
72
9
73
116
0
VERTEX
8
OBJECT__12
10
0
20
0
30
0
70
128
71
9
72
7
73
115
0
VERTEX
8
OBJECT__12
10
0
20
0
30
0
70
128
71
7
72
5
73
114
0
VERTEX
8
OBJECT__12
10
0
20
0
30
0
70
128
71
5
72
4
73
111
0
VERTEX
8
OBJECT__12
10
0
20
0
30
0
70
128
71
3
72
112
73
111
0
VERTEX
8
OBJECT__12
10
0
20
0
30
0
70
128
71
121
72
122
73
120
0
VERTEX
8
OBJECT__12
10
0
20
0
30
0
70
128
71
120
72
119
73
107
0
VERTEX
8
OBJECT__12
10
0
20
0
30
0
70
128
71
119
72
118
73
106
0
VERTEX
8
OBJECT__12
10
0
20
0
30
0
70
128
71
118
72
117
73
105
0
VERTEX
8
OBJECT__12
10
0
20
0
30
0
70
128
71
117
72
116
73
104
0
VERTEX
8
OBJECT__12
10
0
20
0
30
0
70
128
71
116
72
115
73
103
0
VERTEX
8
OBJECT__12
10
0
20
0
30
0
70
128
71
115
72
114
73
102
0
VERTEX
8
OBJECT__12
10
0
20
0
30
0
70
128
71
114
72
111
73
100
0
VERTEX
8
OBJECT__12
10
0
20
0
30
0
70
128
71
113
72
101
73
100
0
VERTEX
8
OBJECT__12
10
0
20
0
30
0
70
128
71
108
72
96
73
109
0
VERTEX
8
OBJECT__12
10
0
20
0
30
0
70
128
71
108
72
107
73
95
0
VERTEX
8
OBJECT__12
10
0
20
0
30
0
70
128
71
107
72
106
73
94
0
VERTEX
8
OBJECT__12
10
0
20
0
30
0
70
128
71
106
72
105
73
93
0
VERTEX
8
OBJECT__12
10
0
20
0
30
0
70
128
71
105
72
104
73
92
0
VERTEX
8
OBJECT__12
10
0
20
0
30
0
70
128
71
104
72
103
73
91
0
VERTEX
8
OBJECT__12
10
0
20
0
30
0
70
128
71
103
72
102
73
90
0
VERTEX
8
OBJECT__12
10
0
20
0
30
0
70
128
71
102
72
100
73
89
0
VERTEX
8
OBJECT__12
10
0
20
0
30
0
70
128
71
99
72
123
73
89
0
VERTEX
8
OBJECT__12
10
0
20
0
30
0
70
128
71
98
72
96
73
86
0
VERTEX
8
OBJECT__12
10
0
20
0
30
0
70
128
71
96
72
95
73
85
0
VERTEX
8
OBJECT__12
10
0
20
0
30
0
70
128
71
95
72
94
73
84
0
VERTEX
8
OBJECT__12
10
0
20
0
30
0
70
128
71
94
72
93
73
83
0
VERTEX
8
OBJECT__12
10
0
20
0
30
0
70
128
71
93
72
92
73
82
0
VERTEX
8
OBJECT__12
10
0
20
0
30
0
70
128
71
92
72
91
73
81
0
VERTEX
8
OBJECT__12
10
0
20
0
30
0
70
128
71
91
72
90
73
80
0
VERTEX
8
OBJECT__12
10
0
20
0
30
0
70
128
71
90
72
89
73
77
0
VERTEX
8
OBJECT__12
10
0
20
0
30
0
70
128
71
89
72
123
73
79
0
VERTEX
8
OBJECT__12
10
0
20
0
30
0
70
128
71
88
72
97
73
86
0
VERTEX
8
OBJECT__12
10
0
20
0
30
0
70
128
71
86
72
85
73
73
0
VERTEX
8
OBJECT__12
10
0
20
0
30
0
70
128
71
85
72
84
73
72
0
VERTEX
8
OBJECT__12
10
0
20
0
30
0
70
128
71
84
72
83
73
71
0
VERTEX
8
OBJECT__12
10
0
20
0
30
0
70
128
71
83
72
82
73
70
0
VERTEX
8
OBJECT__12
10
0
20
0
30
0
70
128
71
82
72
81
73
69
0
VERTEX
8
OBJECT__12
10
0
20
0
30
0
70
128
71
81
72
80
73
68
0
VERTEX
8
OBJECT__12
10
0
20
0
30
0
70
128
71
80
72
77
73
65
0
VERTEX
8
OBJECT__12
10
0
20
0
30
0
70
128
71
78
72
67
73
65
0
VERTEX
8
OBJECT__12
10
0
20
0
30
0
70
128
71
76
72
87
73
74
0
VERTEX
8
OBJECT__12
10
0
20
0
30
0
70
128
71
74
72
73
73
62
0
VERTEX
8
OBJECT__12
10
0
20
0
30
0
70
128
71
73
72
72
73
61
0
VERTEX
8
OBJECT__12
10
0
20
0
30
0
70
128
71
72
72
71
73
60
0
VERTEX
8
OBJECT__12
10
0
20
0
30
0
70
128
71
71
72
70
73
59
0
VERTEX
8
OBJECT__12
10
0
20
0
30
0
70
128
71
70
72
69
73
58
0
VERTEX
8
OBJECT__12
10
0
20
0
30
0
70
128
71
69
72
68
73
57
0
VERTEX
8
OBJECT__12
10
0
20
0
30
0
70
128
71
68
72
65
73
54
0
VERTEX
8
OBJECT__12
10
0
20
0
30
0
70
128
71
66
72
55
73
54
0
VERTEX
8
OBJECT__12
10
0
20
0
30
0
70
128
71
64
72
75
73
63
0
VERTEX
8
OBJECT__12
10
0
20
0
30
0
70
128
71
63
72
62
73
51
0
VERTEX
8
OBJECT__12
10
0
20
0
30
0
70
128
71
62
72
61
73
50
0
VERTEX
8
OBJECT__12
10
0
20
0
30
0
70
128
71
61
72
60
73
49
0
VERTEX
8
OBJECT__12
10
0
20
0
30
0
70
128
71
60
72
59
73
48
0
VERTEX
8
OBJECT__12
10
0
20
0
30
0
70
128
71
59
72
58
73
47
0
VERTEX
8
OBJECT__12
10
0
20
0
30
0
70
128
71
58
72
57
73
46
0
VERTEX
8
OBJECT__12
10
0
20
0
30
0
70
128
71
57
72
54
73
44
0
VERTEX
8
OBJECT__12
10
0
20
0
30
0
70
128
71
56
72
45
73
44
0
VERTEX
8
OBJECT__12
10
0
20
0
30
0
70
128
71
41
72
124
73
53
0
VERTEX
8
OBJECT__12
10
0
20
0
30
0
70
128
71
52
72
51
73
40
0
VERTEX
8
OBJECT__12
10
0
20
0
30
0
70
128
71
51
72
50
73
39
0
VERTEX
8
OBJECT__12
10
0
20
0
30
0
70
128
71
50
72
49
73
38
0
VERTEX
8
OBJECT__12
10
0
20
0
30
0
70
128
71
49
72
48
73
37
0
VERTEX
8
OBJECT__12
10
0
20
0
30
0
70
128
71
48
72
47
73
36
0
VERTEX
8
OBJECT__12
10
0
20
0
30
0
70
128
71
47
72
46
73
35
0
VERTEX
8
OBJECT__12
10
0
20
0
30
0
70
128
71
46
72
44
73
33
0
VERTEX
8
OBJECT__12
10
0
20
0
30
0
70
128
71
34
72
33
73
44
0
VERTEX
8
OBJECT__12
10
0
20
0
30
0
70
128
71
42
72
124
73
41
0
VERTEX
8
OBJECT__12
10
0
20
0
30
0
70
128
71
41
72
40
73
28
0
VERTEX
8
OBJECT__12
10
0
20
0
30
0
70
128
71
40
72
39
73
27
0
VERTEX
8
OBJECT__12
10
0
20
0
30
0
70
128
71
39
72
38
73
26
0
VERTEX
8
OBJECT__12
10
0
20
0
30
0
70
128
71
38
72
37
73
25
0
VERTEX
8
OBJECT__12
10
0
20
0
30
0
70
128
71
37
72
36
73
24
0
VERTEX
8
OBJECT__12
10
0
20
0
30
0
70
128
71
36
72
35
73
23
0
VERTEX
8
OBJECT__12
10
0
20
0
30
0
70
128
71
35
72
33
73
20
0
VERTEX
8
OBJECT__12
10
0
20
0
30
0
70
128
71
20
72
33
73
32
0
VERTEX
8
OBJECT__12
10
0
20
0
30
0
70
128
71
31
72
43
73
29
0
VERTEX
8
OBJECT__12
10
0
20
0
30
0
70
128
71
29
72
28
73
16
0
VERTEX
8
OBJECT__12
10
0
20
0
30
0
70
128
71
28
72
27
73
14
0
VERTEX
8
OBJECT__12
10
0
20
0
30
0
70
128
71
27
72
26
73
12
0
VERTEX
8
OBJECT__12
10
0
20
0
30
0
70
128
71
26
72
25
73
10
0
VERTEX
8
OBJECT__12
10
0
20
0
30
0
70
128
71
25
72
24
73
8
0
VERTEX
8
OBJECT__12
10
0
20
0
30
0
70
128
71
24
72
23
73
6
0
VERTEX
8
OBJECT__12
10
0
20
0
30
0
70
128
71
23
72
20
73
1
0
VERTEX
8
OBJECT__12
10
0
20
0
30
0
70
128
71
21
72
2
73
1
0
VERTEX
8
OBJECT__12
10
0
20
0
30
0
70
128
71
19
72
30
73
18
0
VERTEX
8
OBJECT__12
10
0
20
0
30
0
70
128
71
18
72
16
73
15
0
VERTEX
8
OBJECT__12
10
0
20
0
30
0
70
128
71
16
72
14
73
13
0
VERTEX
8
OBJECT__12
10
0
20
0
30
0
70
128
71
14
72
12
73
11
0
VERTEX
8
OBJECT__12
10
0
20
0
30
0
70
128
71
12
72
10
73
9
0
VERTEX
8
OBJECT__12
10
0
20
0
30
0
70
128
71
10
72
8
73
7
0
VERTEX
8
OBJECT__12
10
0
20
0
30
0
70
128
71
8
72
6
73
5
0
VERTEX
8
OBJECT__12
10
0
20
0
30
0
70
128
71
6
72
1
73
4
0
VERTEX
8
OBJECT__12
10
0
20
0
30
0
70
128
71
3
72
4
73
1
0
SEQEND
8
OBJECT__12
0
POLYLINE
8
OBJECT__13
66
1
70
64
71
26
72
26
62
253
0
VERTEX
8
OBJECT__13
10
95.741997
20
8.132000
30
80.825996
70
192
0
VERTEX
8
OBJECT__13
10
73.914001
20
8.022000
30
102.414001
70
192
0
VERTEX
8
OBJECT__13
10
76.086998
20
3.240000
30
104.586998
70
192
0
VERTEX
8
OBJECT__13
10
98.124001
20
0.000000
30
83.208000
70
192
0
VERTEX
8
OBJECT__13
10
89.991997
20
11.500000
30
75.075996
70
192
0
VERTEX
8
OBJECT__13
10
69.442001
20
11.383000
30
97.942001
70
192
0
VERTEX
8
OBJECT__13
10
68.283997
20
11.500000
30
96.783997
70
192
0
VERTEX
8
OBJECT__13
10
73.609001
20
8.691000
30
102.109001
70
192
0
VERTEX
8
OBJECT__13
10
84.241997
20
8.132000
30
69.325996
70
192
0
VERTEX
8
OBJECT__13
10
64.905998
20
10.461000
30
93.405998
70
192
0
VERTEX
8
OBJECT__13
10
62.736000
20
7.802000
30
91.236000
70
192
0
VERTEX
8
OBJECT__13
10
81.861000
20
0.000000
30
66.944000
70
192
0
VERTEX
8
OBJECT__13
10
60.153000
20
0.000000
30
88.653000
70
192
0
VERTEX
8
OBJECT__13
10
61.443001
20
6.217000
30
89.943001
70
192
0
VERTEX
8
OBJECT__13
10
84.241997
20
-8.132000
30
69.325996
70
192
0
VERTEX
8
OBJECT__13
10
61.443001
20
-6.217000
30
89.943001
70
192
0
VERTEX
8
OBJECT__13
10
62.736000
20
-7.802000
30
91.236000
70
192
0
VERTEX
8
OBJECT__13
10
89.991997
20
-11.500000
30
75.075996
70
192
0
VERTEX
8
OBJECT__13
10
68.319000
20
-11.155000
30
96.819000
70
192
0
VERTEX
8
OBJECT__13
10
64.905998
20
-10.461000
30
93.405998
70
192
0
VERTEX
8
OBJECT__13
10
95.741997
20
-8.132000
30
80.825996
70
192
0
VERTEX
8
OBJECT__13
10
73.609001
20
-8.691000
30
102.109001
70
192
0
VERTEX
8
OBJECT__13
10
69.442001
20
-11.383000
30
97.942001
70
192
0
VERTEX
8
OBJECT__13
10
73.914001
20
-8.022000
30
102.414001
70
192
0
VERTEX
8
OBJECT__13
10
76.086998
20
-3.240000
30
104.586998
70
192
0
VERTEX
8
OBJECT__13
10
76.086998
20
0.000000
30
104.586998
70
192
0
VERTEX
8
OBJECT__13
10
0
20
0
30
0
70
128
71
1
72
2
73
3
0
VERTEX
8
OBJECT__13
10
0
20
0
30
0
70
128
71
3
72
4
73
1
0
VERTEX
8
OBJECT__13
10
0
20
0
30
0
70
128
71
1
72
5
73
6
0
VERTEX
8
OBJECT__13
10
0
20
0
30
0
70
128
71
5
72
7
73
6
0
VERTEX
8
OBJECT__13
10
0
20
0
30
0
70
128
71
6
72
8
73
1
0
VERTEX
8
OBJECT__13
10
0
20
0
30
0
70
128
71
5
72
9
73
10
0
VERTEX
8
OBJECT__13
10
0
20
0
30
0
70
128
71
9
72
11
73
10
0
VERTEX
8
OBJECT__13
10
0
20
0
30
0
70
128
71
12
72
13
73
14
0
VERTEX
8
OBJECT__13
10
0
20
0
30
0
70
128
71
14
72
9
73
12
0
VERTEX
8
OBJECT__13
10
0
20
0
30
0
70
128
71
12
72
15
73
16
0
VERTEX
8
OBJECT__13
10
0
20
0
30
0
70
128
71
15
72
17
73
16
0
VERTEX
8
OBJECT__13
10
0
20
0
30
0
70
128
71
18
72
19
73
20
0
VERTEX
8
OBJECT__13
10
0
20
0
30
0
70
128
71
20
72
15
73
18
0
VERTEX
8
OBJECT__13
10
0
20
0
30
0
70
128
71
21
72
22
73
23
0
VERTEX
8
OBJECT__13
10
0
20
0
30
0
70
128
71
23
72
18
73
21
0
VERTEX
8
OBJECT__13
10
0
20
0
30
0
70
128
71
21
72
24
73
22
0
VERTEX
8
OBJECT__13
10
0
20
0
30
0
70
128
71
21
72
4
73
25
0
VERTEX
8
OBJECT__13
10
0
20
0
30
0
70
128
71
4
72
26
73
25
0
VERTEX
8
OBJECT__13
10
0
20
0
30
0
70
128
71
25
72
24
73
21
0
VERTEX
8
OBJECT__13
10
0
20
0
30
0
70
128
71
23
72
19
73
18
0
VERTEX
8
OBJECT__13
10
0
20
0
30
0
70
128
71
20
72
17
73
15
0
VERTEX
8
OBJECT__13
10
0
20
0
30
0
70
128
71
16
72
13
73
12
0
VERTEX
8
OBJECT__13
10
0
20
0
30
0
70
128
71
14
72
11
73
9
0
VERTEX
8
OBJECT__13
10
0
20
0
30
0
70
128
71
10
72
7
73
5
0
VERTEX
8
OBJECT__13
10
0
20
0
30
0
70
128
71
8
72
2
73
1
0
VERTEX
8
OBJECT__13
10
0
20
0
30
0
70
128
71
3
72
26
73
4
0
SEQEND
8
OBJECT__13
0
POLYLINE
8
OBJECT__14
66
1
70
64
71
6
72
4
62
253
0
VERTEX
8
OBJECT__14
10
23.195999
20
76.900002
30
78.000000
70
192
0
VERTEX
8
OBJECT__14
10
12.804000
20
82.900002
30
78.000000
70
192
0
VERTEX
8
OBJECT__14
10
12.804000
20
76.900002
30
78.000000
70
192
0
VERTEX
8
OBJECT__14
10
23.195999
20
82.900002
30
78.000000
70
192
0
VERTEX
8
OBJECT__14
10
18.000000
20
85.900002
30
78.000000
70
192
0
VERTEX
8
OBJECT__14
10
18.000000
20
73.900002
30
78.000000
70
192
0
VERTEX
8
OBJECT__14
10
0
20
0
30
0
70
128
71
1
72
2
73
3
0
VERTEX
8
OBJECT__14
10
0
20
0
30
0
70
128
71
1
72
4
73
5
0
VERTEX
8
OBJECT__14
10
0
20
0
30
0
70
128
71
5
72
2
73
1
0
VERTEX
8
OBJECT__14
10
0
20
0
30
0
70
128
71
3
72
6
73
1
0
SEQEND
8
OBJECT__14
0
POLYLINE
8
OBJECT__15
66
1
70
64
71
40
72
42
62
253
0
VERTEX
8
OBJECT__15
10
12.804000
20
82.900002
30
2.000000
70
192
0
VERTEX
8
OBJECT__15
10
12.804000
20
82.900002
30
78.000000
70
192
0
VERTEX
8
OBJECT__15
10
18.000000
20
85.900002
30
78.000000
70
192
0
VERTEX
8
OBJECT__15
10
23.195999
20
82.900002
30
2.000000
70
192
0
VERTEX
8
OBJECT__15
10
18.000000
20
85.900002
30
2.000000
70
192
0
VERTEX
8
OBJECT__15
10
12.804000
20
76.900002
30
78.000000
70
192
0
VERTEX
8
OBJECT__15
10
16.165001
20
74.188004
30
28.846001
70
192
0
VERTEX
8
OBJECT__15
10
18.000000
20
73.900002
30
29.000000
70
192
0
VERTEX
8
OBJECT__15
10
12.877000
20
76.935997
30
27.721001
70
192
0
VERTEX
8
OBJECT__15
10
13.177000
20
76.331001
30
27.886000
70
192
0
VERTEX
8
OBJECT__15
10
14.541000
20
74.998001
30
28.441999
70
192
0
VERTEX
8
OBJECT__15
10
23.195999
20
76.900002
30
78.000000
70
192
0
VERTEX
8
OBJECT__15
10
21.089001
20
74.755997
30
28.556999
70
192
0
VERTEX
8
OBJECT__15
10
22.618999
20
76.070999
30
27.983000
70
192
0
VERTEX
8
OBJECT__15
10
19.103001
20
74.001999
30
28.945000
70
192
0
VERTEX
8
OBJECT__15
10
18.000000
20
73.900002
30
78.000000
70
192
0
VERTEX
8
OBJECT__15
10
23.195999
20
76.900002
30
2.000000
70
192
0
VERTEX
8
OBJECT__15
10
23.959999
20
79.206001
30
8.754000
70
192
0
VERTEX
8
OBJECT__15
10
23.530001
20
77.571999
30
8.491000
70
192
0
VERTEX
8
OBJECT__15
10
24.000000
20
79.900002
30
8.780000
70
192
0
VERTEX
8
OBJECT__15
10
23.195999
20
82.900002
30
78.000000
70
192
0
VERTEX
8
OBJECT__15
10
24.000000
20
79.900002
30
27.219999
70
192
0
VERTEX
8
OBJECT__15
10
23.142000
20
76.932999
30
27.711000
70
192
0
VERTEX
8
OBJECT__15
10
23.530001
20
77.571999
30
27.509001
70
192
0
VERTEX
8
OBJECT__15
10
23.959999
20
79.206001
30
27.246000
70
192
0
VERTEX
8
OBJECT__15
10
21.089001
20
74.755997
30
7.443000
70
192
0
VERTEX
8
OBJECT__15
10
19.103001
20
74.001999
30
7.055000
70
192
0
VERTEX
8
OBJECT__15
10
23.142000
20
76.932999
30
8.289000
70
192
0
VERTEX
8
OBJECT__15
10
22.618999
20
76.070999
30
8.017000
70
192
0
VERTEX
8
OBJECT__15
10
18.000000
20
73.900002
30
2.000000
70
192
0
VERTEX
8
OBJECT__15
10
12.804000
20
76.900002
30
2.000000
70
192
0
VERTEX
8
OBJECT__15
10
14.541000
20
74.998001
30
7.558000
70
192
0
VERTEX
8
OBJECT__15
10
13.177000
20
76.331001
30
8.114000
70
192
0
VERTEX
8
OBJECT__15
10
16.165001
20
74.188004
30
7.154000
70
192
0
VERTEX
8
OBJECT__15
10
18.000000
20
73.900002
30
7.000000
70
192
0
VERTEX
8
OBJECT__15
10
12.238000
20
78.225998
30
27.370001
70
192
0
VERTEX
8
OBJECT__15
10
12.000000
20
79.900002
30
27.219999
70
192
0
VERTEX
8
OBJECT__15
10
12.000000
20
79.900002
30
8.780000
70
192
0
VERTEX
8
OBJECT__15
10
12.238000
20
78.225998
30
8.630000
70
192
0
VERTEX
8
OBJECT__15
10
12.877000
20
76.935997
30
8.279000
70
192
0
VERTEX
8
OBJECT__15
10
0
20
0
30
0
70
128
71
1
72
2
73
3
0
VERTEX
8
OBJECT__15
10
0
20
0
30
0
70
128
71
4
72
5
73
3
0
VERTEX
8
OBJECT__15
10
0
20
0
30
0
70
128
71
6
72
7
73
8
0
VERTEX
8
OBJECT__15
10
0
20
0
30
0
70
128
71
6
72
9
73
10
0
VERTEX
8
OBJECT__15
10
0
20
0
30
0
70
128
71
10
72
11
73
6
0
VERTEX
8
OBJECT__15
10
0
20
0
30
0
70
128
71
11
72
7
73
6
0
VERTEX
8
OBJECT__15
10
0
20
0
30
0
70
128
71
12
72
13
73
14
0
VERTEX
8
OBJECT__15
10
0
20
0
30
0
70
128
71
12
72
15
73
13
0
VERTEX
8
OBJECT__15
10
0
20
0
30
0
70
128
71
12
72
16
73
8
0
VERTEX
8
OBJECT__15
10
0
20
0
30
0
70
128
71
8
72
15
73
12
0
VERTEX
8
OBJECT__15
10
0
20
0
30
0
70
128
71
17
72
4
73
18
0
VERTEX
8
OBJECT__15
10
0
20
0
30
0
70
128
71
18
72
19
73
17
0
VERTEX
8
OBJECT__15
10
0
20
0
30
0
70
128
71
4
72
20
73
18
0
VERTEX
8
OBJECT__15
10
0
20
0
30
0
70
128
71
4
72
21
73
22
0
VERTEX
8
OBJECT__15
10
0
20
0
30
0
70
128
71
22
72
20
73
4
0
VERTEX
8
OBJECT__15
10
0
20
0
30
0
70
128
71
21
72
12
73
23
0
VERTEX
8
OBJECT__15
10
0
20
0
30
0
70
128
71
23
72
24
73
21
0
VERTEX
8
OBJECT__15
10
0
20
0
30
0
70
128
71
24
72
25
73
21
0
VERTEX
8
OBJECT__15
10
0
20
0
30
0
70
128
71
25
72
22
73
21
0
VERTEX
8
OBJECT__15
10
0
20
0
30
0
70
128
71
17
72
26
73
27
0
VERTEX
8
OBJECT__15
10
0
20
0
30
0
70
128
71
17
72
28
73
29
0
VERTEX
8
OBJECT__15
10
0
20
0
30
0
70
128
71
29
72
26
73
17
0
VERTEX
8
OBJECT__15
10
0
20
0
30
0
70
128
71
27
72
30
73
17
0
VERTEX
8
OBJECT__15
10
0
20
0
30
0
70
128
71
31
72
32
73
33
0
VERTEX
8
OBJECT__15
10
0
20
0
30
0
70
128
71
31
72
30
73
34
0
VERTEX
8
OBJECT__15
10
0
20
0
30
0
70
128
71
34
72
32
73
31
0
VERTEX
8
OBJECT__15
10
0
20
0
30
0
70
128
71
30
72
35
73
34
0
VERTEX
8
OBJECT__15
10
0
20
0
30
0
70
128
71
2
72
36
73
9
0
VERTEX
8
OBJECT__15
10
0
20
0
30
0
70
128
71
2
72
37
73
36
0
VERTEX
8
OBJECT__15
10
0
20
0
30
0
70
128
71
1
72
38
73
37
0
VERTEX
8
OBJECT__15
10
0
20
0
30
0
70
128
71
31
72
39
73
38
0
VERTEX
8
OBJECT__15
10
0
20
0
30
0
70
128
71
31
72
40
73
39
0
VERTEX
8
OBJECT__15
10
0
20
0
30
0
70
128
71
38
72
1
73
31
0
VERTEX
8
OBJECT__15
10
0
20
0
30
0
70
128
71
37
72
2
73
1
0
VERTEX
8
OBJECT__15
10
0
20
0
30
0
70
128
71
9
72
6
73
2
0
VERTEX
8
OBJECT__15
10
0
20
0
30
0
70
128
71
33
72
40
73
31
0
VERTEX
8
OBJECT__15
10
0
20
0
30
0
70
128
71
27
72
35
73
30
0
VERTEX
8
OBJECT__15
10
0
20
0
30
0
70
128
71
19
72
28
73
17
0
VERTEX
8
OBJECT__15
10
0
20
0
30
0
70
128
71
14
72
23
73
12
0
VERTEX
8
OBJECT__15
10
0
20
0
30
0
70
128
71
8
72
16
73
6
0
VERTEX
8
OBJECT__15
10
0
20
0
30
0
70
128
71
3
72
21
73
4
0
VERTEX
8
OBJECT__15
10
0
20
0
30
0
70
128
71
3
72
5
73
1
0
SEQEND
8
OBJECT__15
0
POLYLINE
8
OBJECT__17
66
1
70
64
71
42
72
42
62
253
0
VERTEX
8
OBJECT__17
10
10.222000
20
59.400002
30
10.222000
70
192
0
VERTEX
8
OBJECT__17
10
7.000000
20
59.400002
30
18.000000
70
192
0
VERTEX
8
OBJECT__17
10
7.000000
20
79.900002
30
18.000000
70
192
0
VERTEX
8
OBJECT__17
10
10.222000
20
59.400002
30
25.778000
70
192
0
VERTEX
8
OBJECT__17
10
10.222000
20
79.900002
30
25.778000
70
192
0
VERTEX
8
OBJECT__17
10
29.000000
20
59.400002
30
18.000000
70
192
0
VERTEX
8
OBJECT__17
10
29.000000
20
79.900002
30
18.000000
70
192
0
VERTEX
8
OBJECT__17
10
25.778000
20
79.900002
30
25.778000
70
192
0
VERTEX
8
OBJECT__17
10
25.778000
20
59.400002
30
10.222000
70
192
0
VERTEX
8
OBJECT__17
10
25.778000
20
79.900002
30
10.222000
70
192
0
VERTEX
8
OBJECT__17
10
18.000000
20
59.400002
30
29.000000
70
192
0
VERTEX
8
OBJECT__17
10
25.778000
20
59.400002
30
25.778000
70
192
0
VERTEX
8
OBJECT__17
10
19.103001
20
74.001999
30
28.945000
70
192
0
VERTEX
8
OBJECT__17
10
21.089001
20
74.755997
30
28.556999
70
192
0
VERTEX
8
OBJECT__17
10
23.530001
20
77.571999
30
27.509001
70
192
0
VERTEX
8
OBJECT__17
10
23.142000
20
76.932999
30
27.711000
70
192
0
VERTEX
8
OBJECT__17
10
22.618999
20
76.070999
30
27.983000
70
192
0
VERTEX
8
OBJECT__17
10
23.959999
20
79.206001
30
27.246000
70
192
0
VERTEX
8
OBJECT__17
10
24.000000
20
79.900002
30
27.219999
70
192
0
VERTEX
8
OBJECT__17
10
12.877000
20
76.935997
30
27.721001
70
192
0
VERTEX
8
OBJECT__17
10
12.238000
20
78.225998
30
27.370001
70
192
0
VERTEX
8
OBJECT__17
10
13.177000
20
76.331001
30
27.886000
70
192
0
VERTEX
8
OBJECT__17
10
16.165001
20
74.188004
30
28.846001
70
192
0
VERTEX
8
OBJECT__17
10
14.541000
20
74.998001
30
28.441999
70
192
0
VERTEX
8
OBJECT__17
10
18.000000
20
73.900002
30
29.000000
70
192
0
VERTEX
8
OBJECT__17
10
18.000000
20
59.400002
30
7.000000
70
192
0
VERTEX
8
OBJECT__17
10
16.165001
20
74.188004
30
7.154000
70
192
0
VERTEX
8
OBJECT__17
10
13.177000
20
76.331001
30
8.114000
70
192
0
VERTEX
8
OBJECT__17
10
14.541000
20
74.998001
30
7.558000
70
192
0
VERTEX
8
OBJECT__17
10
10.222000
20
79.900002
30
10.222000
70
192
0
VERTEX
8
OBJECT__17
10
12.238000
20
78.225998
30
8.630000
70
192
0
VERTEX
8
OBJECT__17
10
12.877000
20
76.935997
30
8.279000
70
192
0
VERTEX
8
OBJECT__17
10
12.000000
20
79.900002
30
8.780000
70
192
0
VERTEX
8
OBJECT__17
10
23.530001
20
77.571999
30
8.491000
70
192
0
VERTEX
8
OBJECT__17
10
23.959999
20
79.206001
30
8.754000
70
192
0
VERTEX
8
OBJECT__17
10
22.618999
20
76.070999
30
8.017000
70
192
0
VERTEX
8
OBJECT__17
10
23.142000
20
76.932999
30
8.289000
70
192
0
VERTEX
8
OBJECT__17
10
21.089001
20
74.755997
30
7.443000
70
192
0
VERTEX
8
OBJECT__17
10
18.000000
20
73.900002
30
7.000000
70
192
0
VERTEX
8
OBJECT__17
10
19.103001
20
74.001999
30
7.055000
70
192
0
VERTEX
8
OBJECT__17
10
24.000000
20
79.900002
30
8.780000
70
192
0
VERTEX
8
OBJECT__17
10
12.000000
20
79.900002
30
27.219999
70
192
0
VERTEX
8
OBJECT__17
10
0
20
0
30
0
70
128
71
1
72
2
73
3
0
VERTEX
8
OBJECT__17
10
0
20
0
30
0
70
128
71
4
72
5
73
3
0
VERTEX
8
OBJECT__17
10
0
20
0
30
0
70
128
71
6
72
7
73
8
0
VERTEX
8
OBJECT__17
10
0
20
0
30
0
70
128
71
6
72
9
73
10
0
VERTEX
8
OBJECT__17
10
0
20
0
30
0
70
128
71
11
72
12
73
13
0
VERTEX
8
OBJECT__17
10
0
20
0
30
0
70
128
71
12
72
14
73
13
0
VERTEX
8
OBJECT__17
10
0
20
0
30
0
70
128
71
12
72
15
73
16
0
VERTEX
8
OBJECT__17
10
0
20
0
30
0
70
128
71
16
72
17
73
12
0
VERTEX
8
OBJECT__17
10
0
20
0
30
0
70
128
71
8
72
18
73
15
0
VERTEX
8
OBJECT__17
10
0
20
0
30
0
70
128
71
8
72
19
73
18
0
VERTEX
8
OBJECT__17
10
0
20
0
30
0
70
128
71
15
72
12
73
8
0
VERTEX
8
OBJECT__17
10
0
20
0
30
0
70
128
71
17
72
14
73
12
0
VERTEX
8
OBJECT__17
10
0
20
0
30
0
70
128
71
4
72
20
73
21
0
VERTEX
8
OBJECT__17
10
0
20
0
30
0
70
128
71
4
72
22
73
20
0
VERTEX
8
OBJECT__17
10
0
20
0
30
0
70
128
71
4
72
23
73
24
0
VERTEX
8
OBJECT__17
10
0
20
0
30
0
70
128
71
11
72
25
73
23
0
VERTEX
8
OBJECT__17
10
0
20
0
30
0
70
128
71
23
72
4
73
11
0
VERTEX
8
OBJECT__17
10
0
20
0
30
0
70
128
71
24
72
22
73
4
0
VERTEX
8
OBJECT__17
10
0
20
0
30
0
70
128
71
21
72
5
73
4
0
VERTEX
8
OBJECT__17
10
0
20
0
30
0
70
128
71
26
72
1
73
27
0
VERTEX
8
OBJECT__17
10
0
20
0
30
0
70
128
71
1
72
28
73
29
0
VERTEX
8
OBJECT__17
10
0
20
0
30
0
70
128
71
29
72
27
73
1
0
VERTEX
8
OBJECT__17
10
0
20
0
30
0
70
128
71
1
72
30
73
31
0
VERTEX
8
OBJECT__17
10
0
20
0
30
0
70
128
71
31
72
32
73
1
0
VERTEX
8
OBJECT__17
10
0
20
0
30
0
70
128
71
32
72
28
73
1
0
VERTEX
8
OBJECT__17
10
0
20
0
30
0
70
128
71
30
72
33
73
31
0
VERTEX
8
OBJECT__17
10
0
20
0
30
0
70
128
71
10
72
9
73
34
0
VERTEX
8
OBJECT__17
10
0
20
0
30
0
70
128
71
34
72
35
73
10
0
VERTEX
8
OBJECT__17
10
0
20
0
30
0
70
128
71
9
72
36
73
37
0
VERTEX
8
OBJECT__17
10
0
20
0
30
0
70
128
71
9
72
38
73
36
0
VERTEX
8
OBJECT__17
10
0
20
0
30
0
70
128
71
37
72
34
73
9
0
VERTEX
8
OBJECT__17
10
0
20
0
30
0
70
128
71
26
72
39
73
40
0
VERTEX
8
OBJECT__17
10
0
20
0
30
0
70
128
71
40
72
9
73
26
0
VERTEX
8
OBJECT__17
10
0
20
0
30
0
70
128
71
40
72
38
73
9
0
VERTEX
8
OBJECT__17
10
0
20
0
30
0
70
128
71
35
72
41
73
10
0
VERTEX
8
OBJECT__17
10
0
20
0
30
0
70
128
71
27
72
39
73
26
0
VERTEX
8
OBJECT__17
10
0
20
0
30
0
70
128
71
21
72
42
73
5
0
VERTEX
8
OBJECT__17
10
0
20
0
30
0
70
128
71
13
72
25
73
11
0
VERTEX
8
OBJECT__17
10
0
20
0
30
0
70
128
71
10
72
7
73
6
0
VERTEX
8
OBJECT__17
10
0
20
0
30
0
70
128
71
8
72
12
73
6
0
VERTEX
8
OBJECT__17
10
0
20
0
30
0
70
128
71
3
72
2
73
4
0
VERTEX
8
OBJECT__17
10
0
20
0
30
0
70
128
71
3
72
30
73
1
0
SEQEND
8
OBJECT__17
0
POLYLINE
8
OBJECT__18
66
1
70
64
71
5
72
3
62
253
0
VERTEX
8
OBJECT__18
10
10.222000
20
79.900002
30
25.778000
70
192
0
VERTEX
8
OBJECT__18
10
12.000000
20
79.900002
30
8.780000
70
192
0
VERTEX
8
OBJECT__18
10
10.222000
20
79.900002
30
10.222000
70
192
0
VERTEX
8
OBJECT__18
10
7.000000
20
79.900002
30
18.000000
70
192
0
VERTEX
8
OBJECT__18
10
12.000000
20
79.900002
30
27.219999
70
192
0
VERTEX
8
OBJECT__18
10
0
20
0
30
0
70
128
71
1
72
2
73
3
0
VERTEX
8
OBJECT__18
10
0
20
0
30
0
70
128
71
3
72
4
73
1
0
VERTEX
8
OBJECT__18
10
0
20
0
30
0
70
128
71
1
72
5
73
2
0
SEQEND
8
OBJECT__18
0
POLYLINE
8
OBJECT__19
66
1
70
64
71
5
72
3
62
253
0
VERTEX
8
OBJECT__19
10
25.778000
20
79.900002
30
25.778000
70
192
0
VERTEX
8
OBJECT__19
10
29.000000
20
79.900002
30
18.000000
70
192
0
VERTEX
8
OBJECT__19
10
25.778000
20
79.900002
30
10.222000
70
192
0
VERTEX
8
OBJECT__19
10
24.000000
20
79.900002
30
8.780000
70
192
0
VERTEX
8
OBJECT__19
10
24.000000
20
79.900002
30
27.219999
70
192
0
VERTEX
8
OBJECT__19
10
0
20
0
30
0
70
128
71
1
72
2
73
3
0
VERTEX
8
OBJECT__19
10
0
20
0
30
0
70
128
71
4
72
5
73
1
0
VERTEX
8
OBJECT__19
10
0
20
0
30
0
70
128
71
3
72
4
73
1
0
SEQEND
8
OBJECT__19
0
POLYLINE
8
OBJECT__20
66
1
70
64
71
6
72
4
62
253
0
VERTEX
8
OBJECT__20
10
23.195999
20
76.900002
30
2.000000
70
192
0
VERTEX
8
OBJECT__20
10
18.000000
20
73.900002
30
2.000000
70
192
0
VERTEX
8
OBJECT__20
10
12.804000
20
76.900002
30
2.000000
70
192
0
VERTEX
8
OBJECT__20
10
12.804000
20
82.900002
30
2.000000
70
192
0
VERTEX
8
OBJECT__20
10
18.000000
20
85.900002
30
2.000000
70
192
0
VERTEX
8
OBJECT__20
10
23.195999
20
82.900002
30
2.000000
70
192
0
VERTEX
8
OBJECT__20
10
0
20
0
30
0
70
128
71
1
72
2
73
3
0
VERTEX
8
OBJECT__20
10
0
20
0
30
0
70
128
71
1
72
4
73
5
0
VERTEX
8
OBJECT__20
10
0
20
0
30
0
70
128
71
5
72
6
73
1
0
VERTEX
8
OBJECT__20
10
0
20
0
30
0
70
128
71
3
72
4
73
1
0
SEQEND
8
OBJECT__20
0
POLYLINE
8
OBJECT__21
66
1
70
64
71
11
72
9
62
253
0
VERTEX
8
OBJECT__21
10
28.580000
20
-55.000000
30
3.438000
70
192
0
VERTEX
8
OBJECT__21
10
0.881000
20
-55.000000
30
12.438000
70
192
0
VERTEX
8
OBJECT__21
10
7.420000
20
-55.000000
30
3.438000
70
192
0
VERTEX
8
OBJECT__21
10
7.420000
20
-55.000000
30
32.562000
70
192
0
VERTEX
8
OBJECT__21
10
35.118999
20
-55.000000
30
23.562000
70
192
0
VERTEX
8
OBJECT__21
10
28.580000
20
-55.000000
30
32.562000
70
192
0
VERTEX
8
OBJECT__21
10
0.881000
20
-55.000000
30
23.562000
70
192
0
VERTEX
8
OBJECT__21
10
18.000000
20
-55.000000
30
36.000000
70
192
0
VERTEX
8
OBJECT__21
10
18.000000
20
-55.000000
30
0.000000
70
192
0
VERTEX
8
OBJECT__21
10
36.000000
20
-55.000000
30
18.000000
70
192
0
VERTEX
8
OBJECT__21
10
35.118999
20
-55.000000
30
12.438000
70
192
0
VERTEX
8
OBJECT__21
10
0
20
0
30
0
70
128
71
1
72
2
73
3
0
VERTEX
8
OBJECT__21
10
0
20
0
30
0
70
128
71
4
72
5
73
6
0
VERTEX
8
OBJECT__21
10
0
20
0
30
0
70
128
71
1
72
7
73
2
0
VERTEX
8
OBJECT__21
10
0
20
0
30
0
70
128
71
6
72
8
73
4
0
VERTEX
8
OBJECT__21
10
0
20
0
30
0
70
128
71
3
72
9
73
1
0
VERTEX
8
OBJECT__21
10
0
20
0
30
0
70
128
71
7
72
10
73
5
0
VERTEX
8
OBJECT__21
10
0
20
0
30
0
70
128
71
1
72
11
73
7
0
VERTEX
8
OBJECT__21
10
0
20
0
30
0
70
128
71
11
72
10
73
7
0
VERTEX
8
OBJECT__21
10
0
20
0
30
0
70
128
71
4
72
7
73
5
0
SEQEND
8
OBJECT__21
0
POLYLINE
8
OBJECT__22
66
1
70
64
71
22
72
22
62
253
0
VERTEX
8
OBJECT__22
10
28.580000
20
-55.000000
30
32.562000
70
192
0
VERTEX
8
OBJECT__22
10
28.580000
20
55.000000
30
32.562000
70
192
0
VERTEX
8
OBJECT__22
10
18.000000
20
55.000000
30
36.000000
70
192
0
VERTEX
8
OBJECT__22
10
35.118999
20
-55.000000
30
23.562000
70
192
0
VERTEX
8
OBJECT__22
10
35.118999
20
55.000000
30
23.562000
70
192
0
VERTEX
8
OBJECT__22
10
35.118999
20
-55.000000
30
12.438000
70
192
0
VERTEX
8
OBJECT__22
10
35.118999
20
55.000000
30
12.438000
70
192
0
VERTEX
8
OBJECT__22
10
36.000000
20
55.000000
30
18.000000
70
192
0
VERTEX
8
OBJECT__22
10
36.000000
20
-55.000000
30
18.000000
70
192
0
VERTEX
8
OBJECT__22
10
28.580000
20
-55.000000
30
3.438000
70
192
0
VERTEX
8
OBJECT__22
10
28.580000
20
55.000000
30
3.438000
70
192
0
VERTEX
8
OBJECT__22
10
18.000000
20
-55.000000
30
0.000000
70
192
0
VERTEX
8
OBJECT__22
10
18.000000
20
55.000000
30
0.000000
70
192
0
VERTEX
8
OBJECT__22
10
7.420000
20
-55.000000
30
3.438000
70
192
0
VERTEX
8
OBJECT__22
10
7.420000
20
55.000000
30
3.438000
70
192
0
VERTEX
8
OBJECT__22
10
0.881000
20
-55.000000
30
12.438000
70
192
0
VERTEX
8
OBJECT__22
10
0.881000
20
55.000000
30
12.438000
70
192
0
VERTEX
8
OBJECT__22
10
0.881000
20
-55.000000
30
23.562000
70
192
0
VERTEX
8
OBJECT__22
10
0.881000
20
55.000000
30
23.562000
70
192
0
VERTEX
8
OBJECT__22
10
7.420000
20
-55.000000
30
32.562000
70
192
0
VERTEX
8
OBJECT__22
10
7.420000
20
55.000000
30
32.562000
70
192
0
VERTEX
8
OBJECT__22
10
18.000000
20
-55.000000
30
36.000000
70
192
0
VERTEX
8
OBJECT__22
10
0
20
0
30
0
70
128
71
1
72
2
73
3
0
VERTEX
8
OBJECT__22
10
0
20
0
30
0
70
128
71
4
72
5
73
2
0
VERTEX
8
OBJECT__22
10
0
20
0
30
0
70
128
71
6
72
7
73
8
0
VERTEX
8
OBJECT__22
10
0
20
0
30
0
70
128
71
5
72
4
73
9
0
VERTEX
8
OBJECT__22
10
0
20
0
30
0
70
128
71
9
72
8
73
5
0
VERTEX
8
OBJECT__22
10
0
20
0
30
0
70
128
71
10
72
11
73
7
0
VERTEX
8
OBJECT__22
10
0
20
0
30
0
70
128
71
12
72
13
73
11
0
VERTEX
8
OBJECT__22
10
0
20
0
30
0
70
128
71
14
72
15
73
13
0
VERTEX
8
OBJECT__22
10
0
20
0
30
0
70
128
71
16
72
17
73
15
0
VERTEX
8
OBJECT__22
10
0
20
0
30
0
70
128
71
18
72
19
73
17
0
VERTEX
8
OBJECT__22
10
0
20
0
30
0
70
128
71
20
72
21
73
19
0
VERTEX
8
OBJECT__22
10
0
20
0
30
0
70
128
71
22
72
3
73
21
0
VERTEX
8
OBJECT__22
10
0
20
0
30
0
70
128
71
21
72
20
73
22
0
VERTEX
8
OBJECT__22
10
0
20
0
30
0
70
128
71
19
72
18
73
20
0
VERTEX
8
OBJECT__22
10
0
20
0
30
0
70
128
71
17
72
16
73
18
0
VERTEX
8
OBJECT__22
10
0
20
0
30
0
70
128
71
15
72
14
73
16
0
VERTEX
8
OBJECT__22
10
0
20
0
30
0
70
128
71
13
72
12
73
14
0
VERTEX
8
OBJECT__22
10
0
20
0
30
0
70
128
71
11
72
10
73
12
0
VERTEX
8
OBJECT__22
10
0
20
0
30
0
70
128
71
7
72
6
73
10
0
VERTEX
8
OBJECT__22
10
0
20
0
30
0
70
128
71
8
72
9
73
6
0
VERTEX
8
OBJECT__22
10
0
20
0
30
0
70
128
71
2
72
1
73
4
0
VERTEX
8
OBJECT__22
10
0
20
0
30
0
70
128
71
3
72
22
73
1
0
SEQEND
8
OBJECT__22
0
POLYLINE
8
OBJECT__24
66
1
70
64
71
11
72
9
62
253
0
VERTEX
8
OBJECT__24
10
0.881000
20
55.000000
30
23.562000
70
192
0
VERTEX
8
OBJECT__24
10
18.000000
20
55.000000
30
0.000000
70
192
0
VERTEX
8
OBJECT__24
10
7.420000
20
55.000000
30
3.438000
70
192
0
VERTEX
8
OBJECT__24
10
28.580000
20
55.000000
30
3.438000
70
192
0
VERTEX
8
OBJECT__24
10
35.118999
20
55.000000
30
23.562000
70
192
0
VERTEX
8
OBJECT__24
10
7.420000
20
55.000000
30
32.562000
70
192
0
VERTEX
8
OBJECT__24
10
18.000000
20
55.000000
30
36.000000
70
192
0
VERTEX
8
OBJECT__24
10
35.118999
20
55.000000
30
12.438000
70
192
0
VERTEX
8
OBJECT__24
10
36.000000
20
55.000000
30
18.000000
70
192
0
VERTEX
8
OBJECT__24
10
28.580000
20
55.000000
30
32.562000
70
192
0
VERTEX
8
OBJECT__24
10
0.881000
20
55.000000
30
12.438000
70
192
0
VERTEX
8
OBJECT__24
10
0
20
0
30
0
70
128
71
1
72
2
73
3
0
VERTEX
8
OBJECT__24
10
0
20
0
30
0
70
128
71
1
72
4
73
2
0
VERTEX
8
OBJECT__24
10
0
20
0
30
0
70
128
71
5
72
6
73
7
0
VERTEX
8
OBJECT__24
10
0
20
0
30
0
70
128
71
1
72
8
73
4
0
VERTEX
8
OBJECT__24
10
0
20
0
30
0
70
128
71
5
72
1
73
6
0
VERTEX
8
OBJECT__24
10
0
20
0
30
0
70
128
71
1
72
9
73
8
0
VERTEX
8
OBJECT__24
10
0
20
0
30
0
70
128
71
7
72
10
73
5
0
VERTEX
8
OBJECT__24
10
0
20
0
30
0
70
128
71
5
72
9
73
1
0
VERTEX
8
OBJECT__24
10
0
20
0
30
0
70
128
71
3
72
11
73
1
0
SEQEND
8
OBJECT__24
0
POLYLINE
8
OBJECT__25
66
1
70
64
71
6
72
4
62
253
0
VERTEX
8
OBJECT__25
10
23.195999
20
-76.900002
30
78.000000
70
192
0
VERTEX
8
OBJECT__25
10
18.000000
20
-73.900002
30
78.000000
70
192
0
VERTEX
8
OBJECT__25
10
12.804000
20
-76.900002
30
78.000000
70
192
0
VERTEX
8
OBJECT__25
10
12.804000
20
-82.900002
30
78.000000
70
192
0
VERTEX
8
OBJECT__25
10
18.000000
20
-85.900002
30
78.000000
70
192
0
VERTEX
8
OBJECT__25
10
23.195999
20
-82.900002
30
78.000000
70
192
0
VERTEX
8
OBJECT__25
10
0
20
0
30
0
70
128
71
1
72
2
73
3
0
VERTEX
8
OBJECT__25
10
0
20
0
30
0
70
128
71
4
72
5
73
6
0
VERTEX
8
OBJECT__25
10
0
20
0
30
0
70
128
71
6
72
1
73
4
0
VERTEX
8
OBJECT__25
10
0
20
0
30
0
70
128
71
3
72
4
73
1
0
SEQEND
8
OBJECT__25
0
POLYLINE
8
OBJECT__26
66
1
70
64
71
40
72
42
62
253
0
VERTEX
8
OBJECT__26
10
23.195999
20
-82.900002
30
2.000000
70
192
0
VERTEX
8
OBJECT__26
10
23.195999
20
-82.900002
30
78.000000
70
192
0
VERTEX
8
OBJECT__26
10
18.000000
20
-85.900002
30
78.000000
70
192
0
VERTEX
8
OBJECT__26
10
12.804000
20
-82.900002
30
2.000000
70
192
0
VERTEX
8
OBJECT__26
10
18.000000
20
-85.900002
30
2.000000
70
192
0
VERTEX
8
OBJECT__26
10
23.195999
20
-76.900002
30
78.000000
70
192
0
VERTEX
8
OBJECT__26
10
19.834999
20
-74.188004
30
28.846001
70
192
0
VERTEX
8
OBJECT__26
10
18.000000
20
-73.900002
30
29.000000
70
192
0
VERTEX
8
OBJECT__26
10
23.122999
20
-76.935997
30
27.721001
70
192
0
VERTEX
8
OBJECT__26
10
22.823000
20
-76.331001
30
27.886000
70
192
0
VERTEX
8
OBJECT__26
10
21.459000
20
-74.998001
30
28.441999
70
192
0
VERTEX
8
OBJECT__26
10
12.804000
20
-76.900002
30
78.000000
70
192
0
VERTEX
8
OBJECT__26
10
14.911000
20
-74.755997
30
28.556999
70
192
0
VERTEX
8
OBJECT__26
10
13.381000
20
-76.070999
30
27.983000
70
192
0
VERTEX
8
OBJECT__26
10
16.896999
20
-74.001999
30
28.945000
70
192
0
VERTEX
8
OBJECT__26
10
18.000000
20
-73.900002
30
78.000000
70
192
0
VERTEX
8
OBJECT__26
10
12.804000
20
-76.900002
30
2.000000
70
192
0
VERTEX
8
OBJECT__26
10
12.040000
20
-79.206001
30
8.754000
70
192
0
VERTEX
8
OBJECT__26
10
12.470000
20
-77.571999
30
8.491000
70
192
0
VERTEX
8
OBJECT__26
10
12.000000
20
-79.900002
30
8.780000
70
192
0
VERTEX
8
OBJECT__26
10
12.804000
20
-82.900002
30
78.000000
70
192
0
VERTEX
8
OBJECT__26
10
12.000000
20
-79.900002
30
27.219999
70
192
0
VERTEX
8
OBJECT__26
10
12.858000
20
-76.932999
30
27.711000
70
192
0
VERTEX
8
OBJECT__26
10
12.470000
20
-77.571999
30
27.509001
70
192
0
VERTEX
8
OBJECT__26
10
12.040000
20
-79.206001
30
27.246000
70
192
0
VERTEX
8
OBJECT__26
10
14.911000
20
-74.755997
30
7.443000
70
192
0
VERTEX
8
OBJECT__26
10
16.896999
20
-74.001999
30
7.055000
70
192
0
VERTEX
8
OBJECT__26
10
12.858000
20
-76.932999
30
8.289000
70
192
0
VERTEX
8
OBJECT__26
10
13.381000
20
-76.070999
30
8.017000
70
192
0
VERTEX
8
OBJECT__26
10
18.000000
20
-73.900002
30
2.000000
70
192
0
VERTEX
8
OBJECT__26
10
23.195999
20
-76.900002
30
2.000000
70
192
0
VERTEX
8
OBJECT__26
10
21.459000
20
-74.998001
30
7.558000
70
192
0
VERTEX
8
OBJECT__26
10
22.823000
20
-76.331001
30
8.114000
70
192
0
VERTEX
8
OBJECT__26
10
19.834999
20
-74.188004
30
7.154000
70
192
0
VERTEX
8
OBJECT__26
10
18.000000
20
-73.900002
30
7.000000
70
192
0
VERTEX
8
OBJECT__26
10
23.761999
20
-78.225998
30
27.370001
70
192
0
VERTEX
8
OBJECT__26
10
24.000000
20
-79.900002
30
27.219999
70
192
0
VERTEX
8
OBJECT__26
10
24.000000
20
-79.900002
30
8.780000
70
192
0
VERTEX
8
OBJECT__26
10
23.761999
20
-78.225998
30
8.630000
70
192
0
VERTEX
8
OBJECT__26
10
23.122999
20
-76.935997
30
8.279000
70
192
0
VERTEX
8
OBJECT__26
10
0
20
0
30
0
70
128
71
1
72
2
73
3
0
VERTEX
8
OBJECT__26
10
0
20
0
30
0
70
128
71
4
72
5
73
3
0
VERTEX
8
OBJECT__26
10
0
20
0
30
0
70
128
71
6
72
7
73
8
0
VERTEX
8
OBJECT__26
10
0
20
0
30
0
70
128
71
6
72
9
73
10
0
VERTEX
8
OBJECT__26
10
0
20
0
30
0
70
128
71
10
72
11
73
6
0
VERTEX
8
OBJECT__26
10
0
20
0
30
0
70
128
71
11
72
7
73
6
0
VERTEX
8
OBJECT__26
10
0
20
0
30
0
70
128
71
12
72
13
73
14
0
VERTEX
8
OBJECT__26
10
0
20
0
30
0
70
128
71
12
72
15
73
13
0
VERTEX
8
OBJECT__26
10
0
20
0
30
0
70
128
71
12
72
16
73
8
0
VERTEX
8
OBJECT__26
10
0
20
0
30
0
70
128
71
8
72
15
73
12
0
VERTEX
8
OBJECT__26
10
0
20
0
30
0
70
128
71
17
72
4
73
18
0
VERTEX
8
OBJECT__26
10
0
20
0
30
0
70
128
71
18
72
19
73
17
0
VERTEX
8
OBJECT__26
10
0
20
0
30
0
70
128
71
4
72
20
73
18
0
VERTEX
8
OBJECT__26
10
0
20
0
30
0
70
128
71
4
72
21
73
22
0
VERTEX
8
OBJECT__26
10
0
20
0
30
0
70
128
71
22
72
20
73
4
0
VERTEX
8
OBJECT__26
10
0
20
0
30
0
70
128
71
21
72
12
73
23
0
VERTEX
8
OBJECT__26
10
0
20
0
30
0
70
128
71
23
72
24
73
21
0
VERTEX
8
OBJECT__26
10
0
20
0
30
0
70
128
71
24
72
25
73
21
0
VERTEX
8
OBJECT__26
10
0
20
0
30
0
70
128
71
25
72
22
73
21
0
VERTEX
8
OBJECT__26
10
0
20
0
30
0
70
128
71
17
72
26
73
27
0
VERTEX
8
OBJECT__26
10
0
20
0
30
0
70
128
71
17
72
28
73
29
0
VERTEX
8
OBJECT__26
10
0
20
0
30
0
70
128
71
29
72
26
73
17
0
VERTEX
8
OBJECT__26
10
0
20
0
30
0
70
128
71
27
72
30
73
17
0
VERTEX
8
OBJECT__26
10
0
20
0
30
0
70
128
71
31
72
32
73
33
0
VERTEX
8
OBJECT__26
10
0
20
0
30
0
70
128
71
31
72
30
73
34
0
VERTEX
8
OBJECT__26
10
0
20
0
30
0
70
128
71
34
72
32
73
31
0
VERTEX
8
OBJECT__26
10
0
20
0
30
0
70
128
71
30
72
35
73
34
0
VERTEX
8
OBJECT__26
10
0
20
0
30
0
70
128
71
2
72
36
73
9
0
VERTEX
8
OBJECT__26
10
0
20
0
30
0
70
128
71
2
72
37
73
36
0
VERTEX
8
OBJECT__26
10
0
20
0
30
0
70
128
71
1
72
38
73
37
0
VERTEX
8
OBJECT__26
10
0
20
0
30
0
70
128
71
37
72
2
73
1
0
VERTEX
8
OBJECT__26
10
0
20
0
30
0
70
128
71
31
72
39
73
38
0
VERTEX
8
OBJECT__26
10
0
20
0
30
0
70
128
71
31
72
40
73
39
0
VERTEX
8
OBJECT__26
10
0
20
0
30
0
70
128
71
38
72
1
73
31
0
VERTEX
8
OBJECT__26
10
0
20
0
30
0
70
128
71
9
72
6
73
2
0
VERTEX
8
OBJECT__26
10
0
20
0
30
0
70
128
71
33
72
40
73
31
0
VERTEX
8
OBJECT__26
10
0
20
0
30
0
70
128
71
27
72
35
73
30
0
VERTEX
8
OBJECT__26
10
0
20
0
30
0
70
128
71
19
72
28
73
17
0
VERTEX
8
OBJECT__26
10
0
20
0
30
0
70
128
71
14
72
23
73
12
0
VERTEX
8
OBJECT__26
10
0
20
0
30
0
70
128
71
8
72
16
73
6
0
VERTEX
8
OBJECT__26
10
0
20
0
30
0
70
128
71
3
72
21
73
4
0
VERTEX
8
OBJECT__26
10
0
20
0
30
0
70
128
71
3
72
5
73
1
0
SEQEND
8
OBJECT__26
0
POLYLINE
8
OBJECT__28
66
1
70
64
71
42
72
42
62
253
0
VERTEX
8
OBJECT__28
10
29.000000
20
-59.400002
30
18.000000
70
192
0
VERTEX
8
OBJECT__28
10
29.000000
20
-79.900002
30
18.000000
70
192
0
VERTEX
8
OBJECT__28
10
25.778000
20
-79.900002
30
10.222000
70
192
0
VERTEX
8
OBJECT__28
10
25.778000
20
-59.400002
30
25.778000
70
192
0
VERTEX
8
OBJECT__28
10
25.778000
20
-79.900002
30
25.778000
70
192
0
VERTEX
8
OBJECT__28
10
7.000000
20
-79.900002
30
18.000000
70
192
0
VERTEX
8
OBJECT__28
10
10.222000
20
-79.900002
30
25.778000
70
192
0
VERTEX
8
OBJECT__28
10
10.222000
20
-59.400002
30
25.778000
70
192
0
VERTEX
8
OBJECT__28
10
10.222000
20
-59.400002
30
10.222000
70
192
0
VERTEX
8
OBJECT__28
10
10.222000
20
-79.900002
30
10.222000
70
192
0
VERTEX
8
OBJECT__28
10
18.000000
20
-59.400002
30
29.000000
70
192
0
VERTEX
8
OBJECT__28
10
16.896999
20
-74.001999
30
28.945000
70
192
0
VERTEX
8
OBJECT__28
10
14.911000
20
-74.755997
30
28.556999
70
192
0
VERTEX
8
OBJECT__28
10
12.470000
20
-77.571999
30
27.509001
70
192
0
VERTEX
8
OBJECT__28
10
12.858000
20
-76.932999
30
27.711000
70
192
0
VERTEX
8
OBJECT__28
10
13.381000
20
-76.070999
30
27.983000
70
192
0
VERTEX
8
OBJECT__28
10
12.040000
20
-79.206001
30
27.246000
70
192
0
VERTEX
8
OBJECT__28
10
12.000000
20
-79.900002
30
27.219999
70
192
0
VERTEX
8
OBJECT__28
10
23.122999
20
-76.935997
30
27.721001
70
192
0
VERTEX
8
OBJECT__28
10
23.761999
20
-78.225998
30
27.370001
70
192
0
VERTEX
8
OBJECT__28
10
22.823000
20
-76.331001
30
27.886000
70
192
0
VERTEX
8
OBJECT__28
10
19.834999
20
-74.188004
30
28.846001
70
192
0
VERTEX
8
OBJECT__28
10
21.459000
20
-74.998001
30
28.441999
70
192
0
VERTEX
8
OBJECT__28
10
18.000000
20
-73.900002
30
29.000000
70
192
0
VERTEX
8
OBJECT__28
10
18.000000
20
-59.400002
30
7.000000
70
192
0
VERTEX
8
OBJECT__28
10
25.778000
20
-59.400002
30
10.222000
70
192
0
VERTEX
8
OBJECT__28
10
19.834999
20
-74.188004
30
7.154000
70
192
0
VERTEX
8
OBJECT__28
10
22.823000
20
-76.331001
30
8.114000
70
192
0
VERTEX
8
OBJECT__28
10
21.459000
20
-74.998001
30
7.558000
70
192
0
VERTEX
8
OBJECT__28
10
23.761999
20
-78.225998
30
8.630000
70
192
0
VERTEX
8
OBJECT__28
10
23.122999
20
-76.935997
30
8.279000
70
192
0
VERTEX
8
OBJECT__28
10
24.000000
20
-79.900002
30
8.780000
70
192
0
VERTEX
8
OBJECT__28
10
12.470000
20
-77.571999
30
8.491000
70
192
0
VERTEX
8
OBJECT__28
10
12.040000
20
-79.206001
30
8.754000
70
192
0
VERTEX
8
OBJECT__28
10
13.381000
20
-76.070999
30
8.017000
70
192
0
VERTEX
8
OBJECT__28
10
12.858000
20
-76.932999
30
8.289000
70
192
0
VERTEX
8
OBJECT__28
10
14.911000
20
-74.755997
30
7.443000
70
192
0
VERTEX
8
OBJECT__28
10
18.000000
20
-73.900002
30
7.000000
70
192
0
VERTEX
8
OBJECT__28
10
16.896999
20
-74.001999
30
7.055000
70
192
0
VERTEX
8
OBJECT__28
10
12.000000
20
-79.900002
30
8.780000
70
192
0
VERTEX
8
OBJECT__28
10
24.000000
20
-79.900002
30
27.219999
70
192
0
VERTEX
8
OBJECT__28
10
7.000000
20
-59.400002
30
18.000000
70
192
0
VERTEX
8
OBJECT__28
10
0
20
0
30
0
70
128
71
1
72
2
73
3
0
VERTEX
8
OBJECT__28
10
0
20
0
30
0
70
128
71
4
72
5
73
2
0
VERTEX
8
OBJECT__28
10
0
20
0
30
0
70
128
71
6
72
7
73
8
0
VERTEX
8
OBJECT__28
10
0
20
0
30
0
70
128
71
9
72
10
73
6
0
VERTEX
8
OBJECT__28
10
0
20
0
30
0
70
128
71
11
72
8
73
12
0
VERTEX
8
OBJECT__28
10
0
20
0
30
0
70
128
71
8
72
13
73
12
0
VERTEX
8
OBJECT__28
10
0
20
0
30
0
70
128
71
8
72
14
73
15
0
VERTEX
8
OBJECT__28
10
0
20
0
30
0
70
128
71
15
72
16
73
8
0
VERTEX
8
OBJECT__28
10
0
20
0
30
0
70
128
71
7
72
17
73
14
0
VERTEX
8
OBJECT__28
10
0
20
0
30
0
70
128
71
7
72
18
73
17
0
VERTEX
8
OBJECT__28
10
0
20
0
30
0
70
128
71
14
72
8
73
7
0
VERTEX
8
OBJECT__28
10
0
20
0
30
0
70
128
71
16
72
13
73
8
0
VERTEX
8
OBJECT__28
10
0
20
0
30
0
70
128
71
4
72
19
73
20
0
VERTEX
8
OBJECT__28
10
0
20
0
30
0
70
128
71
4
72
21
73
19
0
VERTEX
8
OBJECT__28
10
0
20
0
30
0
70
128
71
4
72
22
73
23
0
VERTEX
8
OBJECT__28
10
0
20
0
30
0
70
128
71
11
72
24
73
22
0
VERTEX
8
OBJECT__28
10
0
20
0
30
0
70
128
71
22
72
4
73
11
0
VERTEX
8
OBJECT__28
10
0
20
0
30
0
70
128
71
23
72
21
73
4
0
VERTEX
8
OBJECT__28
10
0
20
0
30
0
70
128
71
20
72
5
73
4
0
VERTEX
8
OBJECT__28
10
0
20
0
30
0
70
128
71
25
72
26
73
27
0
VERTEX
8
OBJECT__28
10
0
20
0
30
0
70
128
71
26
72
28
73
29
0
VERTEX
8
OBJECT__28
10
0
20
0
30
0
70
128
71
29
72
27
73
26
0
VERTEX
8
OBJECT__28
10
0
20
0
30
0
70
128
71
26
72
3
73
30
0
VERTEX
8
OBJECT__28
10
0
20
0
30
0
70
128
71
30
72
31
73
26
0
VERTEX
8
OBJECT__28
10
0
20
0
30
0
70
128
71
31
72
28
73
26
0
VERTEX
8
OBJECT__28
10
0
20
0
30
0
70
128
71
3
72
32
73
30
0
VERTEX
8
OBJECT__28
10
0
20
0
30
0
70
128
71
10
72
9
73
33
0
VERTEX
8
OBJECT__28
10
0
20
0
30
0
70
128
71
33
72
34
73
10
0
VERTEX
8
OBJECT__28
10
0
20
0
30
0
70
128
71
9
72
35
73
36
0
VERTEX
8
OBJECT__28
10
0
20
0
30
0
70
128
71
9
72
37
73
35
0
VERTEX
8
OBJECT__28
10
0
20
0
30
0
70
128
71
36
72
33
73
9
0
VERTEX
8
OBJECT__28
10
0
20
0
30
0
70
128
71
25
72
38
73
39
0
VERTEX
8
OBJECT__28
10
0
20
0
30
0
70
128
71
39
72
9
73
25
0
VERTEX
8
OBJECT__28
10
0
20
0
30
0
70
128
71
39
72
37
73
9
0
VERTEX
8
OBJECT__28
10
0
20
0
30
0
70
128
71
34
72
40
73
10
0
VERTEX
8
OBJECT__28
10
0
20
0
30
0
70
128
71
27
72
38
73
25
0
VERTEX
8
OBJECT__28
10
0
20
0
30
0
70
128
71
20
72
41
73
5
0
VERTEX
8
OBJECT__28
10
0
20
0
30
0
70
128
71
12
72
24
73
11
0
VERTEX
8
OBJECT__28
10
0
20
0
30
0
70
128
71
6
72
42
73
9
0
VERTEX
8
OBJECT__28
10
0
20
0
30
0
70
128
71
8
72
42
73
6
0
VERTEX
8
OBJECT__28
10
0
20
0
30
0
70
128
71
2
72
1
73
4
0
VERTEX
8
OBJECT__28
10
0
20
0
30
0
70
128
71
3
72
26
73
1
0
SEQEND
8
OBJECT__28
0
POLYLINE
8
OBJECT__29
66
1
70
64
71
5
72
3
62
253
0
VERTEX
8
OBJECT__29
10
25.778000
20
-79.900002
30
10.222000
70
192
0
VERTEX
8
OBJECT__29
10
29.000000
20
-79.900002
30
18.000000
70
192
0
VERTEX
8
OBJECT__29
10
25.778000
20
-79.900002
30
25.778000
70
192
0
VERTEX
8
OBJECT__29
10
24.000000
20
-79.900002
30
27.219999
70
192
0
VERTEX
8
OBJECT__29
10
24.000000
20
-79.900002
30
8.780000
70
192
0
VERTEX
8
OBJECT__29
10
0
20
0
30
0
70
128
71
1
72
2
73
3
0
VERTEX
8
OBJECT__29
10
0
20
0
30
0
70
128
71
4
72
5
73
1
0
VERTEX
8
OBJECT__29
10
0
20
0
30
0
70
128
71
3
72
4
73
1
0
SEQEND
8
OBJECT__29
0
POLYLINE
8
OBJECT__30
66
1
70
64
71
5
72
3
62
253
0
VERTEX
8
OBJECT__30
10
10.222000
20
-79.900002
30
25.778000
70
192
0
VERTEX
8
OBJECT__30
10
7.000000
20
-79.900002
30
18.000000
70
192
0
VERTEX
8
OBJECT__30
10
10.222000
20
-79.900002
30
10.222000
70
192
0
VERTEX
8
OBJECT__30
10
12.000000
20
-79.900002
30
8.780000
70
192
0
VERTEX
8
OBJECT__30
10
12.000000
20
-79.900002
30
27.219999
70
192
0
VERTEX
8
OBJECT__30
10
0
20
0
30
0
70
128
71
1
72
2
73
3
0
VERTEX
8
OBJECT__30
10
0
20
0
30
0
70
128
71
4
72
5
73
1
0
VERTEX
8
OBJECT__30
10
0
20
0
30
0
70
128
71
3
72
4
73
1
0
SEQEND
8
OBJECT__30
0
POLYLINE
8
OBJECT__31
66
1
70
64
71
6
72
4
62
253
0
VERTEX
8
OBJECT__31
10
12.804000
20
-82.900002
30
2.000000
70
192
0
VERTEX
8
OBJECT__31
10
23.195999
20
-76.900002
30
2.000000
70
192
0
VERTEX
8
OBJECT__31
10
23.195999
20
-82.900002
30
2.000000
70
192
0
VERTEX
8
OBJECT__31
10
12.804000
20
-76.900002
30
2.000000
70
192
0
VERTEX
8
OBJECT__31
10
18.000000
20
-73.900002
30
2.000000
70
192
0
VERTEX
8
OBJECT__31
10
18.000000
20
-85.900002
30
2.000000
70
192
0
VERTEX
8
OBJECT__31
10
0
20
0
30
0
70
128
71
1
72
2
73
3
0
VERTEX
8
OBJECT__31
10
0
20
0
30
0
70
128
71
2
72
1
73
4
0
VERTEX
8
OBJECT__31
10
0
20
0
30
0
70
128
71
4
72
5
73
2
0
VERTEX
8
OBJECT__31
10
0
20
0
30
0
70
128
71
3
72
6
73
1
0
SEQEND
8
OBJECT__31
0
POLYLINE
8
OBJECT__32
66
1
70
64
71
14
72
14
62
253
0
VERTEX
8
OBJECT__32
10
12.657000
20
58.900002
30
12.737000
70
192
0
VERTEX
8
OBJECT__32
10
12.657000
20
73.900002
30
12.737000
70
192
0
VERTEX
8
OBJECT__32
10
18.784000
20
73.900002
30
10.541000
70
192
0
VERTEX
8
OBJECT__32
10
10.554000
20
58.900002
30
18.895000
70
192
0
VERTEX
8
OBJECT__32
10
10.554000
20
73.900002
30
18.895000
70
192
0
VERTEX
8
OBJECT__32
10
14.057000
20
58.900002
30
24.379999
70
192
0
VERTEX
8
OBJECT__32
10
14.057000
20
73.900002
30
24.379999
70
192
0
VERTEX
8
OBJECT__32
10
20.530001
20
58.900002
30
25.059999
70
192
0
VERTEX
8
OBJECT__32
10
20.530001
20
73.900002
30
25.059999
70
192
0
VERTEX
8
OBJECT__32
10
25.097000
20
73.900002
30
20.424000
70
192
0
VERTEX
8
OBJECT__32
10
25.097000
20
58.900002
30
20.424000
70
192
0
VERTEX
8
OBJECT__32
10
24.320000
20
58.900002
30
13.962000
70
192
0
VERTEX
8
OBJECT__32
10
18.784000
20
58.900002
30
10.541000
70
192
0
VERTEX
8
OBJECT__32
10
24.320000
20
73.900002
30
13.962000
70
192
0
VERTEX
8
OBJECT__32
10
0
20
0
30
0
70
128
71
1
72
2
73
3
0
VERTEX
8
OBJECT__32
10
0
20
0
30
0
70
128
71
1
72
4
73
5
0
VERTEX
8
OBJECT__32
10
0
20
0
30
0
70
128
71
6
72
7
73
5
0
VERTEX
8
OBJECT__32
10
0
20
0
30
0
70
128
71
8
72
9
73
7
0
VERTEX
8
OBJECT__32
10
0
20
0
30
0
70
128
71
10
72
9
73
8
0
VERTEX
8
OBJECT__32
10
0
20
0
30
0
70
128
71
10
72
11
73
12
0
VERTEX
8
OBJECT__32
10
0
20
0
30
0
70
128
71
13
72
3
73
14
0
VERTEX
8
OBJECT__32
10
0
20
0
30
0
70
128
71
14
72
12
73
13
0
VERTEX
8
OBJECT__32
10
0
20
0
30
0
70
128
71
12
72
14
73
10
0
VERTEX
8
OBJECT__32
10
0
20
0
30
0
70
128
71
8
72
11
73
10
0
VERTEX
8
OBJECT__32
10
0
20
0
30
0
70
128
71
7
72
6
73
8
0
VERTEX
8
OBJECT__32
10
0
20
0
30
0
70
128
71
5
72
4
73
6
0
VERTEX
8
OBJECT__32
10
0
20
0
30
0
70
128
71
5
72
2
73
1
0
VERTEX
8
OBJECT__32
10
0
20
0
30
0
70
128
71
3
72
13
73
1
0
SEQEND
8
OBJECT__32
0
POLYLINE
8
OBJECT__33
66
1
70
64
71
16
72
16
62
253
0
VERTEX
8
OBJECT__33
10
16.448000
20
58.900002
30
32.769001
70
192
0
VERTEX
8
OBJECT__33
10
20.530001
20
58.900002
30
25.059999
70
192
0
VERTEX
8
OBJECT__33
10
14.057000
20
58.900002
30
24.379999
70
192
0
VERTEX
8
OBJECT__33
10
7.318000
20
58.900002
30
28.316000
70
192
0
VERTEX
8
OBJECT__33
10
10.554000
20
58.900002
30
18.895000
70
192
0
VERTEX
8
OBJECT__33
10
26.304001
20
58.900002
30
30.311001
70
192
0
VERTEX
8
OBJECT__33
10
32.275002
20
58.900002
30
22.093000
70
192
0
VERTEX
8
OBJECT__33
10
25.097000
20
58.900002
30
20.424000
70
192
0
VERTEX
8
OBJECT__33
10
31.566000
20
58.900002
30
11.960000
70
192
0
VERTEX
8
OBJECT__33
10
24.320000
20
58.900002
30
13.962000
70
192
0
VERTEX
8
OBJECT__33
10
24.510000
20
58.900002
30
4.653000
70
192
0
VERTEX
8
OBJECT__33
10
18.784000
20
58.900002
30
10.541000
70
192
0
VERTEX
8
OBJECT__33
10
14.407000
20
58.900002
30
3.591000
70
192
0
VERTEX
8
OBJECT__33
10
5.986000
20
58.900002
30
9.271000
70
192
0
VERTEX
8
OBJECT__33
10
12.657000
20
58.900002
30
12.737000
70
192
0
VERTEX
8
OBJECT__33
10
3.186000
20
58.900002
30
19.035999
70
192
0
VERTEX
8
OBJECT__33
10
0
20
0
30
0
70
128
71
1
72
2
73
3
0
VERTEX
8
OBJECT__33
10
0
20
0
30
0
70
128
71
4
72
3
73
5
0
VERTEX
8
OBJECT__33
10
0
20
0
30
0
70
128
71
1
72
6
73
2
0
VERTEX
8
OBJECT__33
10
0
20
0
30
0
70
128
71
3
72
4
73
1
0
VERTEX
8
OBJECT__33
10
0
20
0
30
0
70
128
71
6
72
7
73
8
0
VERTEX
8
OBJECT__33
10
0
20
0
30
0
70
128
71
8
72
2
73
6
0
VERTEX
8
OBJECT__33
10
0
20
0
30
0
70
128
71
9
72
10
73
8
0
VERTEX
8
OBJECT__33
10
0
20
0
30
0
70
128
71
11
72
12
73
10
0
VERTEX
8
OBJECT__33
10
0
20
0
30
0
70
128
71
8
72
7
73
9
0
VERTEX
8
OBJECT__33
10
0
20
0
30
0
70
128
71
11
72
13
73
12
0
VERTEX
8
OBJECT__33
10
0
20
0
30
0
70
128
71
13
72
14
73
15
0
VERTEX
8
OBJECT__33
10
0
20
0
30
0
70
128
71
14
72
16
73
5
0
VERTEX
8
OBJECT__33
10
0
20
0
30
0
70
128
71
10
72
9
73
11
0
VERTEX
8
OBJECT__33
10
0
20
0
30
0
70
128
71
5
72
15
73
14
0
VERTEX
8
OBJECT__33
10
0
20
0
30
0
70
128
71
15
72
12
73
13
0
VERTEX
8
OBJECT__33
10
0
20
0
30
0
70
128
71
5
72
16
73
4
0
SEQEND
8
OBJECT__33
0
POLYLINE
8
OBJECT__35
66
1
70
64
71
19
72
19
62
253
0
VERTEX
8
OBJECT__35
10
7.318000
20
36.900002
30
28.316000
70
192
0
VERTEX
8
OBJECT__35
10
16.448000
20
36.900002
30
32.769001
70
192
0
VERTEX
8
OBJECT__35
10
16.448000
20
58.900002
30
32.769001
70
192
0
VERTEX
8
OBJECT__35
10
3.186000
20
58.900002
30
19.035999
70
192
0
VERTEX
8
OBJECT__35
10
3.186000
20
36.900002
30
19.035999
70
192
0
VERTEX
8
OBJECT__35
10
5.986000
20
36.900002
30
9.271000
70
192
0
VERTEX
8
OBJECT__35
10
14.407000
20
58.900002
30
3.591000
70
192
0
VERTEX
8
OBJECT__35
10
14.407000
20
36.900002
30
3.591000
70
192
0
VERTEX
8
OBJECT__35
10
24.510000
20
58.900002
30
4.653000
70
192
0
VERTEX
8
OBJECT__35
10
24.510000
20
36.900002
30
4.653000
70
192
0
VERTEX
8
OBJECT__35
10
19.552000
20
36.900002
30
3.231000
70
192
0
VERTEX
8
OBJECT__35
10
31.566000
20
58.900002
30
11.960000
70
192
0
VERTEX
8
OBJECT__35
10
31.566000
20
36.900002
30
11.960000
70
192
0
VERTEX
8
OBJECT__35
10
32.275002
20
58.900002
30
22.093000
70
192
0
VERTEX
8
OBJECT__35
10
32.275002
20
36.900002
30
22.093000
70
192
0
VERTEX
8
OBJECT__35
10
26.304001
20
58.900002
30
30.311001
70
192
0
VERTEX
8
OBJECT__35
10
26.304001
20
36.900002
30
30.311001
70
192
0
VERTEX
8
OBJECT__35
10
5.986000
20
58.900002
30
9.271000
70
192
0
VERTEX
8
OBJECT__35
10
7.318000
20
58.900002
30
28.316000
70
192
0
VERTEX
8
OBJECT__35
10
0
20
0
30
0
70
128
71
1
72
2
73
3
0
VERTEX
8
OBJECT__35
10
0
20
0
30
0
70
128
71
4
72
5
73
1
0
VERTEX
8
OBJECT__35
10
0
20
0
30
0
70
128
71
6
72
5
73
4
0
VERTEX
8
OBJECT__35
10
0
20
0
30
0
70
128
71
7
72
8
73
6
0
VERTEX
8
OBJECT__35
10
0
20
0
30
0
70
128
71
9
72
10
73
11
0
VERTEX
8
OBJECT__35
10
0
20
0
30
0
70
128
71
11
72
7
73
9
0
VERTEX
8
OBJECT__35
10
0
20
0
30
0
70
128
71
12
72
13
73
10
0
VERTEX
8
OBJECT__35
10
0
20
0
30
0
70
128
71
14
72
15
73
13
0
VERTEX
8
OBJECT__35
10
0
20
0
30
0
70
128
71
16
72
17
73
15
0
VERTEX
8
OBJECT__35
10
0
20
0
30
0
70
128
71
3
72
2
73
17
0
VERTEX
8
OBJECT__35
10
0
20
0
30
0
70
128
71
17
72
16
73
3
0
VERTEX
8
OBJECT__35
10
0
20
0
30
0
70
128
71
15
72
14
73
16
0
VERTEX
8
OBJECT__35
10
0
20
0
30
0
70
128
71
13
72
12
73
14
0
VERTEX
8
OBJECT__35
10
0
20
0
30
0
70
128
71
10
72
9
73
12
0
VERTEX
8
OBJECT__35
10
0
20
0
30
0
70
128
71
11
72
8
73
7
0
VERTEX
8
OBJECT__35
10
0
20
0
30
0
70
128
71
6
72
18
73
7
0
VERTEX
8
OBJECT__35
10
0
20
0
30
0
70
128
71
4
72
18
73
6
0
VERTEX
8
OBJECT__35
10
0
20
0
30
0
70
128
71
1
72
19
73
4
0
VERTEX
8
OBJECT__35
10
0
20
0
30
0
70
128
71
3
72
19
73
1
0
SEQEND
8
OBJECT__35
0
POLYLINE
8
OBJECT__36
66
1
70
64
71
11
72
9
62
253
0
VERTEX
8
OBJECT__36
10
-9.347000
20
20.466999
30
-42.000000
70
192
0
VERTEX
8
OBJECT__36
10
21.589001
20
6.339000
30
-42.000000
70
192
0
VERTEX
8
OBJECT__36
10
14.734000
20
17.004000
30
-42.000000
70
192
0
VERTEX
8
OBJECT__36
10
-18.927999
20
-12.164000
30
-42.000000
70
192
0
VERTEX
8
OBJECT__36
10
-9.347000
20
-20.466999
30
-42.000000
70
192
0
VERTEX
8
OBJECT__36
10
-18.927999
20
12.164000
30
-42.000000
70
192
0
VERTEX
8
OBJECT__36
10
21.589001
20
-6.339000
30
-42.000000
70
192
0
VERTEX
8
OBJECT__36
10
3.202000
20
-22.271000
30
-42.000000
70
192
0
VERTEX
8
OBJECT__36
10
14.734000
20
-17.004000
30
-42.000000
70
192
0
VERTEX
8
OBJECT__36
10
-22.500000
20
0.000000
30
-42.000000
70
192
0
VERTEX
8
OBJECT__36
10
3.202000
20
22.271000
30
-42.000000
70
192
0
VERTEX
8
OBJECT__36
10
0
20
0
30
0
70
128
71
1
72
2
73
3
0
VERTEX
8
OBJECT__36
10
0
20
0
30
0
70
128
71
1
72
4
73
5
0
VERTEX
8
OBJECT__36
10
0
20
0
30
0
70
128
71
4
72
1
73
6
0
VERTEX
8
OBJECT__36
10
0
20
0
30
0
70
128
71
1
72
7
73
2
0
VERTEX
8
OBJECT__36
10
0
20
0
30
0
70
128
71
1
72
8
73
9
0
VERTEX
8
OBJECT__36
10
0
20
0
30
0
70
128
71
6
72
10
73
4
0
VERTEX
8
OBJECT__36
10
0
20
0
30
0
70
128
71
9
72
7
73
1
0
VERTEX
8
OBJECT__36
10
0
20
0
30
0
70
128
71
3
72
11
73
1
0
VERTEX
8
OBJECT__36
10
0
20
0
30
0
70
128
71
5
72
8
73
1
0
SEQEND
8
OBJECT__36
0
POLYLINE
8
OBJECT__37
66
1
70
64
71
22
72
22
62
253
0
VERTEX
8
OBJECT__37
10
-18.927999
20
12.164000
30
-42.000000
70
192
0
VERTEX
8
OBJECT__37
10
-18.927999
20
12.164000
30
-46.000000
70
192
0
VERTEX
8
OBJECT__37
10
-22.500000
20
0.000000
30
-46.000000
70
192
0
VERTEX
8
OBJECT__37
10
-9.347000
20
20.466999
30
-42.000000
70
192
0
VERTEX
8
OBJECT__37
10
-9.347000
20
20.466999
30
-46.000000
70
192
0
VERTEX
8
OBJECT__37
10
3.202000
20
22.271000
30
-42.000000
70
192
0
VERTEX
8
OBJECT__37
10
3.202000
20
22.271000
30
-46.000000
70
192
0
VERTEX
8
OBJECT__37
10
14.734000
20
17.004000
30
-42.000000
70
192
0
VERTEX
8
OBJECT__37
10
14.734000
20
17.004000
30
-46.000000
70
192
0
VERTEX
8
OBJECT__37
10
21.589001
20
6.339000
30
-42.000000
70
192
0
VERTEX
8
OBJECT__37
10
21.589001
20
6.339000
30
-46.000000
70
192
0
VERTEX
8
OBJECT__37
10
21.589001
20
-6.339000
30
-42.000000
70
192
0
VERTEX
8
OBJECT__37
10
21.589001
20
-6.339000
30
-46.000000
70
192
0
VERTEX
8
OBJECT__37
10
14.734000
20
-17.004000
30
-42.000000
70
192
0
VERTEX
8
OBJECT__37
10
14.734000
20
-17.004000
30
-46.000000
70
192
0
VERTEX
8
OBJECT__37
10
3.202000
20
-22.271000
30
-42.000000
70
192
0
VERTEX
8
OBJECT__37
10
3.202000
20
-22.271000
30
-46.000000
70
192
0
VERTEX
8
OBJECT__37
10
-9.347000
20
-20.466999
30
-42.000000
70
192
0
VERTEX
8
OBJECT__37
10
-9.347000
20
-20.466999
30
-46.000000
70
192
0
VERTEX
8
OBJECT__37
10
-18.927999
20
-12.164000
30
-42.000000
70
192
0
VERTEX
8
OBJECT__37
10
-18.927999
20
-12.164000
30
-46.000000
70
192
0
VERTEX
8
OBJECT__37
10
-22.500000
20
0.000000
30
-42.000000
70
192
0
VERTEX
8
OBJECT__37
10
0
20
0
30
0
70
128
71
1
72
2
73
3
0
VERTEX
8
OBJECT__37
10
0
20
0
30
0
70
128
71
4
72
5
73
2
0
VERTEX
8
OBJECT__37
10
0
20
0
30
0
70
128
71
6
72
7
73
5
0
VERTEX
8
OBJECT__37
10
0
20
0
30
0
70
128
71
8
72
9
73
7
0
VERTEX
8
OBJECT__37
10
0
20
0
30
0
70
128
71
10
72
11
73
9
0
VERTEX
8
OBJECT__37
10
0
20
0
30
0
70
128
71
12
72
13
73
11
0
VERTEX
8
OBJECT__37
10
0
20
0
30
0
70
128
71
14
72
15
73
13
0
VERTEX
8
OBJECT__37
10
0
20
0
30
0
70
128
71
16
72
17
73
15
0
VERTEX
8
OBJECT__37
10
0
20
0
30
0
70
128
71
18
72
19
73
17
0
VERTEX
8
OBJECT__37
10
0
20
0
30
0
70
128
71
20
72
21
73
19
0
VERTEX
8
OBJECT__37
10
0
20
0
30
0
70
128
71
22
72
3
73
21
0
VERTEX
8
OBJECT__37
10
0
20
0
30
0
70
128
71
21
72
20
73
22
0
VERTEX
8
OBJECT__37
10
0
20
0
30
0
70
128
71
19
72
18
73
20
0
VERTEX
8
OBJECT__37
10
0
20
0
30
0
70
128
71
17
72
16
73
18
0
VERTEX
8
OBJECT__37
10
0
20
0
30
0
70
128
71
15
72
14
73
16
0
VERTEX
8
OBJECT__37
10
0
20
0
30
0
70
128
71
13
72
12
73
14
0
VERTEX
8
OBJECT__37
10
0
20
0
30
0
70
128
71
11
72
10
73
12
0
VERTEX
8
OBJECT__37
10
0
20
0
30
0
70
128
71
9
72
8
73
10
0
VERTEX
8
OBJECT__37
10
0
20
0
30
0
70
128
71
7
72
6
73
8
0
VERTEX
8
OBJECT__37
10
0
20
0
30
0
70
128
71
5
72
4
73
6
0
VERTEX
8
OBJECT__37
10
0
20
0
30
0
70
128
71
2
72
1
73
4
0
VERTEX
8
OBJECT__37
10
0
20
0
30
0
70
128
71
3
72
22
73
1
0
SEQEND
8
OBJECT__37
0
POLYLINE
8
OBJECT__39
66
1
70
64
71
24
72
24
62
253
0
VERTEX
8
OBJECT__39
10
-3.315000
20
27.299000
30
-46.000000
70
192
0
VERTEX
8
OBJECT__39
10
-15.622000
20
22.632000
30
-46.000000
70
192
0
VERTEX
8
OBJECT__39
10
-9.347000
20
20.466999
30
-46.000000
70
192
0
VERTEX
8
OBJECT__39
10
-24.350000
20
-12.780000
30
-46.000000
70
192
0
VERTEX
8
OBJECT__39
10
-18.927999
20
-12.164000
30
-46.000000
70
192
0
VERTEX
8
OBJECT__39
10
-22.500000
20
0.000000
30
-46.000000
70
192
0
VERTEX
8
OBJECT__39
10
-15.622000
20
-22.632000
30
-46.000000
70
192
0
VERTEX
8
OBJECT__39
10
-9.347000
20
-20.466999
30
-46.000000
70
192
0
VERTEX
8
OBJECT__39
10
-3.315000
20
-27.299000
30
-46.000000
70
192
0
VERTEX
8
OBJECT__39
10
3.202000
20
-22.271000
30
-46.000000
70
192
0
VERTEX
8
OBJECT__39
10
26.701000
20
-6.581000
30
-46.000000
70
192
0
VERTEX
8
OBJECT__39
10
26.701000
20
6.581000
30
-46.000000
70
192
0
VERTEX
8
OBJECT__39
10
21.589001
20
6.339000
30
-46.000000
70
192
0
VERTEX
8
OBJECT__39
10
20.584000
20
18.236000
30
-46.000000
70
192
0
VERTEX
8
OBJECT__39
10
14.734000
20
17.004000
30
-46.000000
70
192
0
VERTEX
8
OBJECT__39
10
3.202000
20
22.271000
30
-46.000000
70
192
0
VERTEX
8
OBJECT__39
10
-24.350000
20
12.780000
30
-46.000000
70
192
0
VERTEX
8
OBJECT__39
10
-18.927999
20
12.164000
30
-46.000000
70
192
0
VERTEX
8
OBJECT__39
10
9.752000
20
-25.712999
30
-46.000000
70
192
0
VERTEX
8
OBJECT__39
10
9.752000
20
25.712999
30
-46.000000
70
192
0
VERTEX
8
OBJECT__39
10
-27.500000
20
0.000000
30
-46.000000
70
192
0
VERTEX
8
OBJECT__39
10
20.584000
20
-18.236000
30
-46.000000
70
192
0
VERTEX
8
OBJECT__39
10
14.734000
20
-17.004000
30
-46.000000
70
192
0
VERTEX
8
OBJECT__39
10
21.589001
20
-6.339000
30
-46.000000
70
192
0
VERTEX
8
OBJECT__39
10
0
20
0
30
0
70
128
71
1
72
2
73
3
0
VERTEX
8
OBJECT__39
10
0
20
0
30
0
70
128
71
4
72
5
73
6
0
VERTEX
8
OBJECT__39
10
0
20
0
30
0
70
128
71
7
72
8
73
5
0
VERTEX
8
OBJECT__39
10
0
20
0
30
0
70
128
71
9
72
10
73
8
0
VERTEX
8
OBJECT__39
10
0
20
0
30
0
70
128
71
11
72
12
73
13
0
VERTEX
8
OBJECT__39
10
0
20
0
30
0
70
128
71
14
72
15
73
13
0
VERTEX
8
OBJECT__39
10
0
20
0
30
0
70
128
71
3
72
16
73
1
0
VERTEX
8
OBJECT__39
10
0
20
0
30
0
70
128
71
2
72
17
73
18
0
VERTEX
8
OBJECT__39
10
0
20
0
30
0
70
128
71
5
72
4
73
7
0
VERTEX
8
OBJECT__39
10
0
20
0
30
0
70
128
71
9
72
19
73
10
0
VERTEX
8
OBJECT__39
10
0
20
0
30
0
70
128
71
13
72
12
73
14
0
VERTEX
8
OBJECT__39
10
0
20
0
30
0
70
128
71
20
72
16
73
15
0
VERTEX
8
OBJECT__39
10
0
20
0
30
0
70
128
71
18
72
3
73
2
0
VERTEX
8
OBJECT__39
10
0
20
0
30
0
70
128
71
17
72
21
73
6
0
VERTEX
8
OBJECT__39
10
0
20
0
30
0
70
128
71
8
72
7
73
9
0
VERTEX
8
OBJECT__39
10
0
20
0
30
0
70
128
71
19
72
22
73
23
0
VERTEX
8
OBJECT__39
10
0
20
0
30
0
70
128
71
15
72
14
73
20
0
VERTEX
8
OBJECT__39
10
0
20
0
30
0
70
128
71
6
72
18
73
17
0
VERTEX
8
OBJECT__39
10
0
20
0
30
0
70
128
71
23
72
10
73
19
0
VERTEX
8
OBJECT__39
10
0
20
0
30
0
70
128
71
22
72
11
73
24
0
VERTEX
8
OBJECT__39
10
0
20
0
30
0
70
128
71
16
72
20
73
1
0
VERTEX
8
OBJECT__39
10
0
20
0
30
0
70
128
71
24
72
23
73
22
0
VERTEX
8
OBJECT__39
10
0
20
0
30
0
70
128
71
6
72
21
73
4
0
VERTEX
8
OBJECT__39
10
0
20
0
30
0
70
128
71
13
72
24
73
11
0
SEQEND
8
OBJECT__39
0
POLYLINE
8
OBJECT__40
66
1
70
64
71
26
72
26
62
253
0
VERTEX
8
OBJECT__40
10
-24.350000
20
12.780000
30
-46.000000
70
192
0
VERTEX
8
OBJECT__40
10
-24.350000
20
12.780000
30
-52.000000
70
192
0
VERTEX
8
OBJECT__40
10
-27.500000
20
0.000000
30
-52.000000
70
192
0
VERTEX
8
OBJECT__40
10
-15.622000
20
22.632000
30
-46.000000
70
192
0
VERTEX
8
OBJECT__40
10
-15.622000
20
22.632000
30
-52.000000
70
192
0
VERTEX
8
OBJECT__40
10
-3.315000
20
27.299000
30
-46.000000
70
192
0
VERTEX
8
OBJECT__40
10
-3.315000
20
27.299000
30
-52.000000
70
192
0
VERTEX
8
OBJECT__40
10
9.752000
20
25.712999
30
-46.000000
70
192
0
VERTEX
8
OBJECT__40
10
9.752000
20
25.712999
30
-52.000000
70
192
0
VERTEX
8
OBJECT__40
10
20.584000
20
18.236000
30
-46.000000
70
192
0
VERTEX
8
OBJECT__40
10
20.584000
20
18.236000
30
-52.000000
70
192
0
VERTEX
8
OBJECT__40
10
26.701000
20
6.581000
30
-46.000000
70
192
0
VERTEX
8
OBJECT__40
10
26.701000
20
6.581000
30
-52.000000
70
192
0
VERTEX
8
OBJECT__40
10
26.701000
20
-6.581000
30
-46.000000
70
192
0
VERTEX
8
OBJECT__40
10
26.701000
20
-6.581000
30
-52.000000
70
192
0
VERTEX
8
OBJECT__40
10
20.584000
20
-18.236000
30
-46.000000
70
192
0
VERTEX
8
OBJECT__40
10
20.584000
20
-18.236000
30
-52.000000
70
192
0
VERTEX
8
OBJECT__40
10
9.752000
20
-25.712999
30
-46.000000
70
192
0
VERTEX
8
OBJECT__40
10
9.752000
20
-25.712999
30
-52.000000
70
192
0
VERTEX
8
OBJECT__40
10
-3.315000
20
-27.299000
30
-46.000000
70
192
0
VERTEX
8
OBJECT__40
10
-3.315000
20
-27.299000
30
-52.000000
70
192
0
VERTEX
8
OBJECT__40
10
-15.622000
20
-22.632000
30
-46.000000
70
192
0
VERTEX
8
OBJECT__40
10
-15.622000
20
-22.632000
30
-52.000000
70
192
0
VERTEX
8
OBJECT__40
10
-24.350000
20
-12.780000
30
-46.000000
70
192
0
VERTEX
8
OBJECT__40
10
-24.350000
20
-12.780000
30
-52.000000
70
192
0
VERTEX
8
OBJECT__40
10
-27.500000
20
0.000000
30
-46.000000
70
192
0
VERTEX
8
OBJECT__40
10
0
20
0
30
0
70
128
71
1
72
2
73
3
0
VERTEX
8
OBJECT__40
10
0
20
0
30
0
70
128
71
4
72
5
73
2
0
VERTEX
8
OBJECT__40
10
0
20
0
30
0
70
128
71
6
72
7
73
5
0
VERTEX
8
OBJECT__40
10
0
20
0
30
0
70
128
71
8
72
9
73
7
0
VERTEX
8
OBJECT__40
10
0
20
0
30
0
70
128
71
10
72
11
73
9
0
VERTEX
8
OBJECT__40
10
0
20
0
30
0
70
128
71
12
72
13
73
11
0
VERTEX
8
OBJECT__40
10
0
20
0
30
0
70
128
71
14
72
15
73
13
0
VERTEX
8
OBJECT__40
10
0
20
0
30
0
70
128
71
16
72
17
73
15
0
VERTEX
8
OBJECT__40
10
0
20
0
30
0
70
128
71
18
72
19
73
17
0
VERTEX
8
OBJECT__40
10
0
20
0
30
0
70
128
71
20
72
21
73
19
0
VERTEX
8
OBJECT__40
10
0
20
0
30
0
70
128
71
22
72
23
73
21
0
VERTEX
8
OBJECT__40
10
0
20
0
30
0
70
128
71
24
72
25
73
23
0
VERTEX
8
OBJECT__40
10
0
20
0
30
0
70
128
71
26
72
3
73
25
0
VERTEX
8
OBJECT__40
10
0
20
0
30
0
70
128
71
25
72
24
73
26
0
VERTEX
8
OBJECT__40
10
0
20
0
30
0
70
128
71
23
72
22
73
24
0
VERTEX
8
OBJECT__40
10
0
20
0
30
0
70
128
71
21
72
20
73
22
0
VERTEX
8
OBJECT__40
10
0
20
0
30
0
70
128
71
19
72
18
73
20
0
VERTEX
8
OBJECT__40
10
0
20
0
30
0
70
128
71
17
72
16
73
18
0
VERTEX
8
OBJECT__40
10
0
20
0
30
0
70
128
71
15
72
14
73
16
0
VERTEX
8
OBJECT__40
10
0
20
0
30
0
70
128
71
13
72
12
73
14
0
VERTEX
8
OBJECT__40
10
0
20
0
30
0
70
128
71
11
72
10
73
12
0
VERTEX
8
OBJECT__40
10
0
20
0
30
0
70
128
71
9
72
8
73
10
0
VERTEX
8
OBJECT__40
10
0
20
0
30
0
70
128
71
7
72
6
73
8
0
VERTEX
8
OBJECT__40
10
0
20
0
30
0
70
128
71
5
72
4
73
6
0
VERTEX
8
OBJECT__40
10
0
20
0
30
0
70
128
71
2
72
1
73
4
0
VERTEX
8
OBJECT__40
10
0
20
0
30
0
70
128
71
3
72
26
73
1
0
SEQEND
8
OBJECT__40
0
POLYLINE
8
OBJECT__41
66
1
70
64
71
13
72
11
62
253
0
VERTEX
8
OBJECT__41
10
9.752000
20
-25.712999
30
-52.000000
70
192
0
VERTEX
8
OBJECT__41
10
26.701000
20
6.581000
30
-52.000000
70
192
0
VERTEX
8
OBJECT__41
10
26.701000
20
-6.581000
30
-52.000000
70
192
0
VERTEX
8
OBJECT__41
10
9.752000
20
25.712999
30
-52.000000
70
192
0
VERTEX
8
OBJECT__41
10
20.584000
20
18.236000
30
-52.000000
70
192
0
VERTEX
8
OBJECT__41
10
-3.315000
20
-27.299000
30
-52.000000
70
192
0
VERTEX
8
OBJECT__41
10
-15.622000
20
22.632000
30
-52.000000
70
192
0
VERTEX
8
OBJECT__41
10
-3.315000
20
27.299000
30
-52.000000
70
192
0
VERTEX
8
OBJECT__41
10
-24.350000
20
12.780000
30
-52.000000
70
192
0
VERTEX
8
OBJECT__41
10
-15.622000
20
-22.632000
30
-52.000000
70
192
0
VERTEX
8
OBJECT__41
10
-24.350000
20
-12.780000
30
-52.000000
70
192
0
VERTEX
8
OBJECT__41
10
20.584000
20
-18.236000
30
-52.000000
70
192
0
VERTEX
8
OBJECT__41
10
-27.500000
20
0.000000
30
-52.000000
70
192
0
VERTEX
8
OBJECT__41
10
0
20
0
30
0
70
128
71
1
72
2
73
3
0
VERTEX
8
OBJECT__41
10
0
20
0
30
0
70
128
71
1
72
4
73
5
0
VERTEX
8
OBJECT__41
10
0
20
0
30
0
70
128
71
6
72
7
73
8
0
VERTEX
8
OBJECT__41
10
0
20
0
30
0
70
128
71
9
72
10
73
11
0
VERTEX
8
OBJECT__41
10
0
20
0
30
0
70
128
71
5
72
2
73
1
0
VERTEX
8
OBJECT__41
10
0
20
0
30
0
70
128
71
6
72
9
73
7
0
VERTEX
8
OBJECT__41
10
0
20
0
30
0
70
128
71
9
72
6
73
10
0
VERTEX
8
OBJECT__41
10
0
20
0
30
0
70
128
71
3
72
12
73
1
0
VERTEX
8
OBJECT__41
10
0
20
0
30
0
70
128
71
11
72
13
73
9
0
VERTEX
8
OBJECT__41
10
0
20
0
30
0
70
128
71
8
72
4
73
6
0
VERTEX
8
OBJECT__41
10
0
20
0
30
0
70
128
71
1
72
6
73
4
0
SEQEND
8
OBJECT__41
0
POLYLINE
8
OBJECT__42
66
1
70
64
71
4
72
2
62
253
0
VERTEX
8
OBJECT__42
10
-9.552000
20
-2.000000
30
-52.000000
70
192
0
VERTEX
8
OBJECT__42
10
-11.655000
20
0.000000
30
-52.000000
70
192
0
VERTEX
8
OBJECT__42
10
-9.552000
20
2.000000
30
-52.000000
70
192
0
VERTEX
8
OBJECT__42
10
-7.449000
20
0.000000
30
-52.000000
70
192
0
VERTEX
8
OBJECT__42
10
0
20
0
30
0
70
128
71
1
72
2
73
3
0
VERTEX
8
OBJECT__42
10
0
20
0
30
0
70
128
71
3
72
4
73
1
0
SEQEND
8
OBJECT__42
0
POLYLINE
8
OBJECT__43
66
1
70
64
71
8
72
8
62
253
0
VERTEX
8
OBJECT__43
10
-23.031000
20
-2.000000
30
-10.516000
70
192
0
VERTEX
8
OBJECT__43
10
-24.933001
20
0.000000
30
-11.135000
70
192
0
VERTEX
8
OBJECT__43
10
-11.655000
20
0.000000
30
-52.000000
70
192
0
VERTEX
8
OBJECT__43
10
-21.129000
20
0.000000
30
-9.898000
70
192
0
VERTEX
8
OBJECT__43
10
-9.552000
20
-2.000000
30
-52.000000
70
192
0
VERTEX
8
OBJECT__43
10
-7.449000
20
0.000000
30
-52.000000
70
192
0
VERTEX
8
OBJECT__43
10
-9.552000
20
2.000000
30
-52.000000
70
192
0
VERTEX
8
OBJECT__43
10
-23.031000
20
2.000000
30
-10.516000
70
192
0
VERTEX
8
OBJECT__43
10
0
20
0
30
0
70
128
71
1
72
2
73
3
0
VERTEX
8
OBJECT__43
10
0
20
0
30
0
70
128
71
4
72
1
73
5
0
VERTEX
8
OBJECT__43
10
0
20
0
30
0
70
128
71
4
72
6
73
7
0
VERTEX
8
OBJECT__43
10
0
20
0
30
0
70
128
71
8
72
7
73
3
0
VERTEX
8
OBJECT__43
10
0
20
0
30
0
70
128
71
3
72
2
73
8
0
VERTEX
8
OBJECT__43
10
0
20
0
30
0
70
128
71
7
72
8
73
4
0
VERTEX
8
OBJECT__43
10
0
20
0
30
0
70
128
71
5
72
6
73
4
0
VERTEX
8
OBJECT__43
10
0
20
0
30
0
70
128
71
3
72
5
73
1
0
SEQEND
8
OBJECT__43
0
POLYLINE
8
OBJECT__45
66
1
70
64
71
20
72
20
62
253
0
VERTEX
8
OBJECT__45
10
14.562000
20
-10.580000
30
-46.000000
70
192
0
VERTEX
8
OBJECT__45
10
18.000000
20
0.000000
30
-46.000000
70
192
0
VERTEX
8
OBJECT__45
10
18.000000
20
0.000000
30
46.000000
70
192
0
VERTEX
8
OBJECT__45
10
5.562000
20
-17.118999
30
-46.000000
70
192
0
VERTEX
8
OBJECT__45
10
14.562000
20
-10.580000
30
46.000000
70
192
0
VERTEX
8
OBJECT__45
10
-5.562000
20
-17.118999
30
46.000000
70
192
0
VERTEX
8
OBJECT__45
10
-5.562000
20
-17.118999
30
-46.000000
70
192
0
VERTEX
8
OBJECT__45
10
-14.562000
20
-10.580000
30
46.000000
70
192
0
VERTEX
8
OBJECT__45
10
-14.562000
20
-10.580000
30
-46.000000
70
192
0
VERTEX
8
OBJECT__45
10
-18.000000
20
0.000000
30
46.000000
70
192
0
VERTEX
8
OBJECT__45
10
-18.000000
20
0.000000
30
-46.000000
70
192
0
VERTEX
8
OBJECT__45
10
-14.562000
20
10.580000
30
46.000000
70
192
0
VERTEX
8
OBJECT__45
10
-14.562000
20
10.580000
30
-46.000000
70
192
0
VERTEX
8
OBJECT__45
10
-5.562000
20
17.118999
30
46.000000
70
192
0
VERTEX
8
OBJECT__45
10
-5.562000
20
17.118999
30
-46.000000
70
192
0
VERTEX
8
OBJECT__45
10
5.562000
20
17.118999
30
46.000000
70
192
0
VERTEX
8
OBJECT__45
10
5.562000
20
17.118999
30
-46.000000
70
192
0
VERTEX
8
OBJECT__45
10
14.562000
20
10.580000
30
-46.000000
70
192
0
VERTEX
8
OBJECT__45
10
14.562000
20
10.580000
30
46.000000
70
192
0
VERTEX
8
OBJECT__45
10
5.562000
20
-17.118999
30
46.000000
70
192
0
VERTEX
8
OBJECT__45
10
0
20
0
30
0
70
128
71
1
72
2
73
3
0
VERTEX
8
OBJECT__45
10
0
20
0
30
0
70
128
71
4
72
1
73
5
0
VERTEX
8
OBJECT__45
10
0
20
0
30
0
70
128
71
6
72
7
73
4
0
VERTEX
8
OBJECT__45
10
0
20
0
30
0
70
128
71
8
72
9
73
7
0
VERTEX
8
OBJECT__45
10
0
20
0
30
0
70
128
71
10
72
11
73
9
0
VERTEX
8
OBJECT__45
10
0
20
0
30
0
70
128
71
12
72
13
73
11
0
VERTEX
8
OBJECT__45
10
0
20
0
30
0
70
128
71
14
72
15
73
13
0
VERTEX
8
OBJECT__45
10
0
20
0
30
0
70
128
71
16
72
17
73
15
0
VERTEX
8
OBJECT__45
10
0
20
0
30
0
70
128
71
18
72
17
73
16
0
VERTEX
8
OBJECT__45
10
0
20
0
30
0
70
128
71
2
72
18
73
19
0
VERTEX
8
OBJECT__45
10
0
20
0
30
0
70
128
71
19
72
3
73
2
0
VERTEX
8
OBJECT__45
10
0
20
0
30
0
70
128
71
16
72
19
73
18
0
VERTEX
8
OBJECT__45
10
0
20
0
30
0
70
128
71
15
72
14
73
16
0
VERTEX
8
OBJECT__45
10
0
20
0
30
0
70
128
71
13
72
12
73
14
0
VERTEX
8
OBJECT__45
10
0
20
0
30
0
70
128
71
11
72
10
73
12
0
VERTEX
8
OBJECT__45
10
0
20
0
30
0
70
128
71
9
72
8
73
10
0
VERTEX
8
OBJECT__45
10
0
20
0
30
0
70
128
71
7
72
6
73
8
0
VERTEX
8
OBJECT__45
10
0
20
0
30
0
70
128
71
4
72
20
73
6
0
VERTEX
8
OBJECT__45
10
0
20
0
30
0
70
128
71
5
72
20
73
4
0
VERTEX
8
OBJECT__45
10
0
20
0
30
0
70
128
71
3
72
5
73
1
0
SEQEND
8
OBJECT__45
0
POLYLINE
8
OBJECT__46
66
1
70
64
71
10
72
8
62
253
0
VERTEX
8
OBJECT__46
10
5.562000
20
-17.118999
30
46.000000
70
192
0
VERTEX
8
OBJECT__46
10
14.562000
20
-10.580000
30
46.000000
70
192
0
VERTEX
8
OBJECT__46
10
18.000000
20
0.000000
30
46.000000
70
192
0
VERTEX
8
OBJECT__46
10
-14.562000
20
-10.580000
30
46.000000
70
192
0
VERTEX
8
OBJECT__46
10
-5.562000
20
17.118999
30
46.000000
70
192
0
VERTEX
8
OBJECT__46
10
-14.562000
20
10.580000
30
46.000000
70
192
0
VERTEX
8
OBJECT__46
10
14.562000
20
10.580000
30
46.000000
70
192
0
VERTEX
8
OBJECT__46
10
-5.562000
20
-17.118999
30
46.000000
70
192
0
VERTEX
8
OBJECT__46
10
5.562000
20
17.118999
30
46.000000
70
192
0
VERTEX
8
OBJECT__46
10
-18.000000
20
0.000000
30
46.000000
70
192
0
VERTEX
8
OBJECT__46
10
0
20
0
30
0
70
128
71
1
72
2
73
3
0
VERTEX
8
OBJECT__46
10
0
20
0
30
0
70
128
71
4
72
5
73
6
0
VERTEX
8
OBJECT__46
10
0
20
0
30
0
70
128
71
7
72
8
73
1
0
VERTEX
8
OBJECT__46
10
0
20
0
30
0
70
128
71
4
72
9
73
5
0
VERTEX
8
OBJECT__46
10
0
20
0
30
0
70
128
71
7
72
4
73
8
0
VERTEX
8
OBJECT__46
10
0
20
0
30
0
70
128
71
4
72
7
73
9
0
VERTEX
8
OBJECT__46
10
0
20
0
30
0
70
128
71
6
72
10
73
4
0
VERTEX
8
OBJECT__46
10
0
20
0
30
0
70
128
71
3
72
7
73
1
0
SEQEND
8
OBJECT__46
0
POLYLINE
8
OBJECT__48
66
1
70
64
71
16
72
16
62
253
0
VERTEX
8
OBJECT__48
10
106.919998
20
8.061000
30
46.749001
70
192
0
VERTEX
8
OBJECT__48
10
104.558998
20
0.000000
30
44.388000
70
192
0
VERTEX
8
OBJECT__48
10
92.538002
20
0.000000
30
56.408001
70
192
0
VERTEX
8
OBJECT__48
10
100.598999
20
11.400000
30
64.469002
70
192
0
VERTEX
8
OBJECT__48
10
112.620003
20
11.400000
30
52.449001
70
192
0
VERTEX
8
OBJECT__48
10
118.320000
20
8.061000
30
58.148998
70
192
0
VERTEX
8
OBJECT__48
10
120.681000
20
0.000000
30
60.509998
70
192
0
VERTEX
8
OBJECT__48
10
106.299004
20
8.061000
30
70.168999
70
192
0
VERTEX
8
OBJECT__48
10
118.320000
20
-8.061000
30
58.148998
70
192
0
VERTEX
8
OBJECT__48
10
108.660004
20
0.000000
30
72.530998
70
192
0
VERTEX
8
OBJECT__48
10
100.598999
20
-11.400000
30
64.469002
70
192
0
VERTEX
8
OBJECT__48
10
112.620003
20
-11.400000
30
52.449001
70
192
0
VERTEX
8
OBJECT__48
10
94.899002
20
-8.061000
30
58.769001
70
192
0
VERTEX
8
OBJECT__48
10
106.919998
20
-8.061000
30
46.749001
70
192
0
VERTEX
8
OBJECT__48
10
106.299004
20
-8.061000
30
70.168999
70
192
0
VERTEX
8
OBJECT__48
10
94.899002
20
8.061000
30
58.769001
70
192
0
VERTEX
8
OBJECT__48
10
0
20
0
30
0
70
128
71
1
72
2
73
3
0
VERTEX
8
OBJECT__48
10
0
20
0
30
0
70
128
71
4
72
5
73
1
0
VERTEX
8
OBJECT__48
10
0
20
0
30
0
70
128
71
6
72
5
73
4
0
VERTEX
8
OBJECT__48
10
0
20
0
30
0
70
128
71
7
72
6
73
8
0
VERTEX
8
OBJECT__48
10
0
20
0
30
0
70
128
71
9
72
7
73
10
0
VERTEX
8
OBJECT__48
10
0
20
0
30
0
70
128
71
11
72
12
73
9
0
VERTEX
8
OBJECT__48
10
0
20
0
30
0
70
128
71
13
72
14
73
12
0
VERTEX
8
OBJECT__48
10
0
20
0
30
0
70
128
71
3
72
2
73
14
0
VERTEX
8
OBJECT__48
10
0
20
0
30
0
70
128
71
14
72
13
73
3
0
VERTEX
8
OBJECT__48
10
0
20
0
30
0
70
128
71
12
72
11
73
13
0
VERTEX
8
OBJECT__48
10
0
20
0
30
0
70
128
71
9
72
15
73
11
0
VERTEX
8
OBJECT__48
10
0
20
0
30
0
70
128
71
10
72
15
73
9
0
VERTEX
8
OBJECT__48
10
0
20
0
30
0
70
128
71
8
72
10
73
7
0
VERTEX
8
OBJECT__48
10
0
20
0
30
0
70
128
71
4
72
8
73
6
0
VERTEX
8
OBJECT__48
10
0
20
0
30
0
70
128
71
1
72
16
73
4
0
VERTEX
8
OBJECT__48
10
0
20
0
30
0
70
128
71
3
72
16
73
1
0
SEQEND
8
OBJECT__48
0
POLYLINE
8
OBJECT__49
66
1
70
64
71
8
72
6
62
253
0
VERTEX
8
OBJECT__49
10
118.320000
20
8.061000
30
58.148998
70
192
0
VERTEX
8
OBJECT__49
10
118.320000
20
-8.061000
30
58.148998
70
192
0
VERTEX
8
OBJECT__49
10
112.620003
20
-11.400000
30
52.449001
70
192
0
VERTEX
8
OBJECT__49
10
104.558998
20
0.000000
30
44.388000
70
192
0
VERTEX
8
OBJECT__49
10
106.919998
20
8.061000
30
46.749001
70
192
0
VERTEX
8
OBJECT__49
10
120.681000
20
0.000000
30
60.509998
70
192
0
VERTEX
8
OBJECT__49
10
106.919998
20
-8.061000
30
46.749001
70
192
0
VERTEX
8
OBJECT__49
10
112.620003
20
11.400000
30
52.449001
70
192
0
VERTEX
8
OBJECT__49
10
0
20
0
30
0
70
128
71
1
72
2
73
3
0
VERTEX
8
OBJECT__49
10
0
20
0
30
0
70
128
71
1
72
4
73
5
0
VERTEX
8
OBJECT__49
10
0
20
0
30
0
70
128
71
1
72
6
73
2
0
VERTEX
8
OBJECT__49
10
0
20
0
30
0
70
128
71
1
72
7
73
4
0
VERTEX
8
OBJECT__49
10
0
20
0
30
0
70
128
71
5
72
8
73
1
0
VERTEX
8
OBJECT__49
10
0
20
0
30
0
70
128
71
3
72
7
73
1
0
SEQEND
8
OBJECT__49
0
POLYLINE
8
OBJECT__51
66
1
70
64
71
8
72
6
62
253
0
VERTEX
8
OBJECT__51
10
95.119003
20
0.000000
30
86.567001
70
192
0
VERTEX
8
OBJECT__51
10
86.809998
20
11.750000
30
78.258003
70
192
0
VERTEX
8
OBJECT__51
10
80.934998
20
8.309000
30
72.383003
70
192
0
VERTEX
8
OBJECT__51
10
80.934998
20
-8.309000
30
72.383003
70
192
0
VERTEX
8
OBJECT__51
10
86.809998
20
-11.750000
30
78.258003
70
192
0
VERTEX
8
OBJECT__51
10
92.684998
20
8.309000
30
84.133003
70
192
0
VERTEX
8
OBJECT__51
10
78.501999
20
0.000000
30
69.949997
70
192
0
VERTEX
8
OBJECT__51
10
92.684998
20
-8.309000
30
84.133003
70
192
0
VERTEX
8
OBJECT__51
10
0
20
0
30
0
70
128
71
1
72
2
73
3
0
VERTEX
8
OBJECT__51
10
0
20
0
30
0
70
128
71
1
72
4
73
5
0
VERTEX
8
OBJECT__51
10
0
20
0
30
0
70
128
71
1
72
6
73
2
0
VERTEX
8
OBJECT__51
10
0
20
0
30
0
70
128
71
1
72
7
73
4
0
VERTEX
8
OBJECT__51
10
0
20
0
30
0
70
128
71
5
72
8
73
1
0
VERTEX
8
OBJECT__51
10
0
20
0
30
0
70
128
71
3
72
7
73
1
0
SEQEND
8
OBJECT__51
0
POLYLINE
8
OBJECT__52
66
1
70
64
71
16
72
16
62
253
0
VERTEX
8
OBJECT__52
10
97.635002
20
8.309000
30
79.182999
70
192
0
VERTEX
8
OBJECT__52
10
92.684998
20
8.309000
30
84.133003
70
192
0
VERTEX
8
OBJECT__52
10
95.119003
20
0.000000
30
86.567001
70
192
0
VERTEX
8
OBJECT__52
10
86.809998
20
11.750000
30
78.258003
70
192
0
VERTEX
8
OBJECT__52
10
85.885002
20
8.309000
30
67.432999
70
192
0
VERTEX
8
OBJECT__52
10
80.934998
20
8.309000
30
72.383003
70
192
0
VERTEX
8
OBJECT__52
10
78.501999
20
0.000000
30
69.949997
70
192
0
VERTEX
8
OBJECT__52
10
85.885002
20
-8.309000
30
67.432999
70
192
0
VERTEX
8
OBJECT__52
10
80.934998
20
-8.309000
30
72.383003
70
192
0
VERTEX
8
OBJECT__52
10
91.760002
20
-11.750000
30
73.307999
70
192
0
VERTEX
8
OBJECT__52
10
86.809998
20
-11.750000
30
78.258003
70
192
0
VERTEX
8
OBJECT__52
10
92.684998
20
-8.309000
30
84.133003
70
192
0
VERTEX
8
OBJECT__52
10
100.069000
20
0.000000
30
81.616997
70
192
0
VERTEX
8
OBJECT__52
10
97.635002
20
-8.309000
30
79.182999
70
192
0
VERTEX
8
OBJECT__52
10
83.452003
20
0.000000
30
65.000000
70
192
0
VERTEX
8
OBJECT__52
10
91.760002
20
11.750000
30
73.307999
70
192
0
VERTEX
8
OBJECT__52
10
0
20
0
30
0
70
128
71
1
72
2
73
3
0
VERTEX
8
OBJECT__52
10
0
20
0
30
0
70
128
71
4
72
2
73
1
0
VERTEX
8
OBJECT__52
10
0
20
0
30
0
70
128
71
5
72
6
73
4
0
VERTEX
8
OBJECT__52
10
0
20
0
30
0
70
128
71
7
72
6
73
5
0
VERTEX
8
OBJECT__52
10
0
20
0
30
0
70
128
71
8
72
9
73
7
0
VERTEX
8
OBJECT__52
10
0
20
0
30
0
70
128
71
10
72
11
73
9
0
VERTEX
8
OBJECT__52
10
0
20
0
30
0
70
128
71
12
72
11
73
10
0
VERTEX
8
OBJECT__52
10
0
20
0
30
0
70
128
71
13
72
3
73
12
0
VERTEX
8
OBJECT__52
10
0
20
0
30
0
70
128
71
12
72
14
73
13
0
VERTEX
8
OBJECT__52
10
0
20
0
30
0
70
128
71
10
72
14
73
12
0
VERTEX
8
OBJECT__52
10
0
20
0
30
0
70
128
71
9
72
8
73
10
0
VERTEX
8
OBJECT__52
10
0
20
0
30
0
70
128
71
7
72
15
73
8
0
VERTEX
8
OBJECT__52
10
0
20
0
30
0
70
128
71
5
72
15
73
7
0
VERTEX
8
OBJECT__52
10
0
20
0
30
0
70
128
71
4
72
16
73
5
0
VERTEX
8
OBJECT__52
10
0
20
0
30
0
70
128
71
1
72
16
73
4
0
VERTEX
8
OBJECT__52
10
0
20
0
30
0
70
128
71
3
72
13
73
1
0
SEQEND
8
OBJECT__52
0
POLYLINE
8
OBJECT__54
66
1
70
64
71
14
72
14
62
253
0
VERTEX
8
OBJECT__54
10
91.760002
20
11.750000
30
73.307999
70
192
0
VERTEX
8
OBJECT__54
10
93.882004
20
5.196000
30
75.430000
70
192
0
VERTEX
8
OBJECT__54
10
89.639000
20
5.196000
30
71.186996
70
192
0
VERTEX
8
OBJECT__54
10
85.885002
20
8.309000
30
67.432999
70
192
0
VERTEX
8
OBJECT__54
10
87.517998
20
0.000000
30
69.066002
70
192
0
VERTEX
8
OBJECT__54
10
97.635002
20
8.309000
30
79.182999
70
192
0
VERTEX
8
OBJECT__54
10
100.069000
20
0.000000
30
81.616997
70
192
0
VERTEX
8
OBJECT__54
10
96.002998
20
0.000000
30
77.551003
70
192
0
VERTEX
8
OBJECT__54
10
97.635002
20
-8.309000
30
79.182999
70
192
0
VERTEX
8
OBJECT__54
10
93.882004
20
-5.196000
30
75.430000
70
192
0
VERTEX
8
OBJECT__54
10
91.760002
20
-11.750000
30
73.307999
70
192
0
VERTEX
8
OBJECT__54
10
89.639000
20
-5.196000
30
71.186996
70
192
0
VERTEX
8
OBJECT__54
10
85.885002
20
-8.309000
30
67.432999
70
192
0
VERTEX
8
OBJECT__54
10
83.452003
20
0.000000
30
65.000000
70
192
0
VERTEX
8
OBJECT__54
10
0
20
0
30
0
70
128
71
1
72
2
73
3
0
VERTEX
8
OBJECT__54
10
0
20
0
30
0
70
128
71
4
72
3
73
5
0
VERTEX
8
OBJECT__54
10
0
20
0
30
0
70
128
71
1
72
6
73
2
0
VERTEX
8
OBJECT__54
10
0
20
0
30
0
70
128
71
6
72
7
73
8
0
VERTEX
8
OBJECT__54
10
0
20
0
30
0
70
128
71
9
72
10
73
8
0
VERTEX
8
OBJECT__54
10
0
20
0
30
0
70
128
71
11
72
12
73
10
0
VERTEX
8
OBJECT__54
10
0
20
0
30
0
70
128
71
3
72
4
73
1
0
VERTEX
8
OBJECT__54
10
0
20
0
30
0
70
128
71
8
72
7
73
9
0
VERTEX
8
OBJECT__54
10
0
20
0
30
0
70
128
71
11
72
13
73
12
0
VERTEX
8
OBJECT__54
10
0
20
0
30
0
70
128
71
13
72
14
73
5
0
VERTEX
8
OBJECT__54
10
0
20
0
30
0
70
128
71
8
72
2
73
6
0
VERTEX
8
OBJECT__54
10
0
20
0
30
0
70
128
71
5
72
12
73
13
0
VERTEX
8
OBJECT__54
10
0
20
0
30
0
70
128
71
10
72
9
73
11
0
VERTEX
8
OBJECT__54
10
0
20
0
30
0
70
128
71
5
72
14
73
4
0
SEQEND
8
OBJECT__54
0
POLYLINE
8
OBJECT__55
66
1
70
64
71
12
72
12
62
253
0
VERTEX
8
OBJECT__55
10
96.002998
20
0.000000
30
77.551003
70
192
0
VERTEX
8
OBJECT__55
10
96.002998
20
0.000000
30
76.137001
70
192
0
VERTEX
8
OBJECT__55
10
94.235001
20
4.330000
30
74.369003
70
192
0
VERTEX
8
OBJECT__55
10
93.882004
20
5.196000
30
75.430000
70
192
0
VERTEX
8
OBJECT__55
10
90.699997
20
4.330000
30
70.833000
70
192
0
VERTEX
8
OBJECT__55
10
89.639000
20
5.196000
30
71.186996
70
192
0
VERTEX
8
OBJECT__55
10
88.931999
20
0.000000
30
69.066002
70
192
0
VERTEX
8
OBJECT__55
10
87.517998
20
0.000000
30
69.066002
70
192
0
VERTEX
8
OBJECT__55
10
90.699997
20
-4.330000
30
70.833000
70
192
0
VERTEX
8
OBJECT__55
10
89.639000
20
-5.196000
30
71.186996
70
192
0
VERTEX
8
OBJECT__55
10
94.235001
20
-4.330000
30
74.369003
70
192
0
VERTEX
8
OBJECT__55
10
93.882004
20
-5.196000
30
75.430000
70
192
0
VERTEX
8
OBJECT__55
10
0
20
0
30
0
70
128
71
1
72
2
73
3
0
VERTEX
8
OBJECT__55
10
0
20
0
30
0
70
128
71
4
72
3
73
5
0
VERTEX
8
OBJECT__55
10
0
20
0
30
0
70
128
71
6
72
5
73
7
0
VERTEX
8
OBJECT__55
10
0
20
0
30
0
70
128
71
8
72
7
73
9
0
VERTEX
8
OBJECT__55
10
0
20
0
30
0
70
128
71
10
72
9
73
11
0
VERTEX
8
OBJECT__55
10
0
20
0
30
0
70
128
71
12
72
11
73
2
0
VERTEX
8
OBJECT__55
10
0
20
0
30
0
70
128
71
2
72
1
73
12
0
VERTEX
8
OBJECT__55
10
0
20
0
30
0
70
128
71
11
72
12
73
10
0
VERTEX
8
OBJECT__55
10
0
20
0
30
0
70
128
71
9
72
10
73
8
0
VERTEX
8
OBJECT__55
10
0
20
0
30
0
70
128
71
7
72
8
73
6
0
VERTEX
8
OBJECT__55
10
0
20
0
30
0
70
128
71
5
72
6
73
4
0
VERTEX
8
OBJECT__55
10
0
20
0
30
0
70
128
71
3
72
4
73
1
0
SEQEND
8
OBJECT__55
0
POLYLINE
8
OBJECT__56
66
1
70
64
71
21
72
21
62
253
0
VERTEX
8
OBJECT__56
10
96.002998
20
0.000000
30
76.137001
70
192
0
VERTEX
8
OBJECT__56
10
96.905998
20
-0.039000
30
74.918999
70
192
0
VERTEX
8
OBJECT__56
10
96.589996
20
2.500000
30
74.601997
70
192
0
VERTEX
8
OBJECT__56
10
94.235001
20
4.330000
30
74.369003
70
192
0
VERTEX
8
OBJECT__56
10
90.699997
20
4.330000
30
70.833000
70
192
0
VERTEX
8
OBJECT__56
10
94.737000
20
4.698000
30
72.750000
70
192
0
VERTEX
8
OBJECT__56
10
95.193001
20
4.157000
30
73.206001
70
192
0
VERTEX
8
OBJECT__56
10
92.319000
20
4.698000
30
70.331001
70
192
0
VERTEX
8
OBJECT__56
10
88.931999
20
0.000000
30
69.066002
70
192
0
VERTEX
8
OBJECT__56
10
90.466003
20
2.500000
30
68.478996
70
192
0
VERTEX
8
OBJECT__56
10
91.862999
20
4.157000
30
69.875000
70
192
0
VERTEX
8
OBJECT__56
10
90.699997
20
-4.330000
30
70.833000
70
192
0
VERTEX
8
OBJECT__56
10
90.045998
20
-0.868000
30
68.058998
70
192
0
VERTEX
8
OBJECT__56
10
89.991997
20
0.000000
30
68.004997
70
192
0
VERTEX
8
OBJECT__56
10
91.254997
20
-3.830000
30
69.267998
70
192
0
VERTEX
8
OBJECT__56
10
91.815002
20
-4.118000
30
69.827003
70
192
0
VERTEX
8
OBJECT__56
10
93.528000
20
-5.000000
30
71.541000
70
192
0
VERTEX
8
OBJECT__56
10
94.235001
20
-4.330000
30
74.369003
70
192
0
VERTEX
8
OBJECT__56
10
95.801003
20
-3.830000
30
73.813004
70
192
0
VERTEX
8
OBJECT__56
10
95.240997
20
-4.118000
30
73.253998
70
192
0
VERTEX
8
OBJECT__56
10
97.010002
20
-0.868000
30
75.022003
70
192
0
VERTEX
8
OBJECT__56
10
0
20
0
30
0
70
128
71
1
72
2
73
3
0
VERTEX
8
OBJECT__56
10
0
20
0
30
0
70
128
71
3
72
4
73
1
0
VERTEX
8
OBJECT__56
10
0
20
0
30
0
70
128
71
5
72
4
73
6
0
VERTEX
8
OBJECT__56
10
0
20
0
30
0
70
128
71
4
72
7
73
6
0
VERTEX
8
OBJECT__56
10
0
20
0
30
0
70
128
71
6
72
8
73
5
0
VERTEX
8
OBJECT__56
10
0
20
0
30
0
70
128
71
9
72
5
73
10
0
VERTEX
8
OBJECT__56
10
0
20
0
30
0
70
128
71
5
72
11
73
10
0
VERTEX
8
OBJECT__56
10
0
20
0
30
0
70
128
71
12
72
9
73
13
0
VERTEX
8
OBJECT__56
10
0
20
0
30
0
70
128
71
9
72
14
73
13
0
VERTEX
8
OBJECT__56
10
0
20
0
30
0
70
128
71
13
72
15
73
12
0
VERTEX
8
OBJECT__56
10
0
20
0
30
0
70
128
71
12
72
16
73
17
0
VERTEX
8
OBJECT__56
10
0
20
0
30
0
70
128
71
17
72
18
73
12
0
VERTEX
8
OBJECT__56
10
0
20
0
30
0
70
128
71
1
72
18
73
19
0
VERTEX
8
OBJECT__56
10
0
20
0
30
0
70
128
71
18
72
20
73
19
0
VERTEX
8
OBJECT__56
10
0
20
0
30
0
70
128
71
19
72
21
73
1
0
VERTEX
8
OBJECT__56
10
0
20
0
30
0
70
128
71
21
72
2
73
1
0
VERTEX
8
OBJECT__56
10
0
20
0
30
0
70
128
71
17
72
20
73
18
0
VERTEX
8
OBJECT__56
10
0
20
0
30
0
70
128
71
15
72
16
73
12
0
VERTEX
8
OBJECT__56
10
0
20
0
30
0
70
128
71
10
72
14
73
9
0
VERTEX
8
OBJECT__56
10
0
20
0
30
0
70
128
71
8
72
11
73
5
0
VERTEX
8
OBJECT__56
10
0
20
0
30
0
70
128
71
3
72
7
73
4
0
SEQEND
8
OBJECT__56
0
POLYLINE
8
OBJECT__57
66
1
70
64
71
25
72
25
62
253
0
VERTEX
8
OBJECT__57
10
94.942001
20
-6.781000
30
70.125999
70
192
0
VERTEX
8
OBJECT__57
10
98.024002
20
-5.194000
30
73.208000
70
192
0
VERTEX
8
OBJECT__57
10
95.240997
20
-4.118000
30
73.253998
70
192
0
VERTEX
8
OBJECT__57
10
95.801003
20
-3.830000
30
73.813004
70
192
0
VERTEX
8
OBJECT__57
10
99.664001
20
-1.177000
30
74.848000
70
192
0
VERTEX
8
OBJECT__57
10
97.010002
20
-0.868000
30
75.022003
70
192
0
VERTEX
8
OBJECT__57
10
99.737000
20
0.000000
30
74.920998
70
192
0
VERTEX
8
OBJECT__57
10
96.905998
20
-0.039000
30
74.918999
70
192
0
VERTEX
8
OBJECT__57
10
99.095001
20
3.390000
30
74.278999
70
192
0
VERTEX
8
OBJECT__57
10
96.589996
20
2.500000
30
74.601997
70
192
0
VERTEX
8
OBJECT__57
10
96.582001
20
6.372000
30
71.765999
70
192
0
VERTEX
8
OBJECT__57
10
95.193001
20
4.157000
30
73.206001
70
192
0
VERTEX
8
OBJECT__57
10
94.737000
20
4.698000
30
72.750000
70
192
0
VERTEX
8
OBJECT__57
10
93.302002
20
6.372000
30
68.486000
70
192
0
VERTEX
8
OBJECT__57
10
92.319000
20
4.698000
30
70.331001
70
192
0
VERTEX
8
OBJECT__57
10
90.790001
20
3.390000
30
65.973999
70
192
0
VERTEX
8
OBJECT__57
10
90.466003
20
2.500000
30
68.478996
70
192
0
VERTEX
8
OBJECT__57
10
91.862999
20
4.157000
30
69.875000
70
192
0
VERTEX
8
OBJECT__57
10
90.220001
20
-1.177000
30
65.403999
70
192
0
VERTEX
8
OBJECT__57
10
89.991997
20
0.000000
30
68.004997
70
192
0
VERTEX
8
OBJECT__57
10
90.045998
20
-0.868000
30
68.058998
70
192
0
VERTEX
8
OBJECT__57
10
91.860001
20
-5.194000
30
67.043999
70
192
0
VERTEX
8
OBJECT__57
10
91.254997
20
-3.830000
30
69.267998
70
192
0
VERTEX
8
OBJECT__57
10
93.528000
20
-5.000000
30
71.541000
70
192
0
VERTEX
8
OBJECT__57
10
91.815002
20
-4.118000
30
69.827003
70
192
0
VERTEX
8
OBJECT__57
10
0
20
0
30
0
70
128
71
1
72
2
73
3
0
VERTEX
8
OBJECT__57
10
0
20
0
30
0
70
128
71
2
72
4
73
3
0
VERTEX
8
OBJECT__57
10
0
20
0
30
0
70
128
71
5
72
6
73
4
0
VERTEX
8
OBJECT__57
10
0
20
0
30
0
70
128
71
7
72
8
73
6
0
VERTEX
8
OBJECT__57
10
0
20
0
30
0
70
128
71
7
72
9
73
10
0
VERTEX
8
OBJECT__57
10
0
20
0
30
0
70
128
71
10
72
8
73
7
0
VERTEX
8
OBJECT__57
10
0
20
0
30
0
70
128
71
9
72
11
73
12
0
VERTEX
8
OBJECT__57
10
0
20
0
30
0
70
128
71
11
72
13
73
12
0
VERTEX
8
OBJECT__57
10
0
20
0
30
0
70
128
71
11
72
14
73
15
0
VERTEX
8
OBJECT__57
10
0
20
0
30
0
70
128
71
16
72
17
73
18
0
VERTEX
8
OBJECT__57
10
0
20
0
30
0
70
128
71
18
72
14
73
16
0
VERTEX
8
OBJECT__57
10
0
20
0
30
0
70
128
71
16
72
19
73
20
0
VERTEX
8
OBJECT__57
10
0
20
0
30
0
70
128
71
19
72
21
73
20
0
VERTEX
8
OBJECT__57
10
0
20
0
30
0
70
128
71
19
72
22
73
23
0
VERTEX
8
OBJECT__57
10
0
20
0
30
0
70
128
71
1
72
24
73
25
0
VERTEX
8
OBJECT__57
10
0
20
0
30
0
70
128
71
25
72
22
73
1
0
VERTEX
8
OBJECT__57
10
0
20
0
30
0
70
128
71
25
72
23
73
22
0
VERTEX
8
OBJECT__57
10
0
20
0
30
0
70
128
71
23
72
21
73
19
0
VERTEX
8
OBJECT__57
10
0
20
0
30
0
70
128
71
20
72
17
73
16
0
VERTEX
8
OBJECT__57
10
0
20
0
30
0
70
128
71
18
72
15
73
14
0
VERTEX
8
OBJECT__57
10
0
20
0
30
0
70
128
71
15
72
13
73
11
0
VERTEX
8
OBJECT__57
10
0
20
0
30
0
70
128
71
12
72
10
73
9
0
VERTEX
8
OBJECT__57
10
0
20
0
30
0
70
128
71
6
72
5
73
7
0
VERTEX
8
OBJECT__57
10
0
20
0
30
0
70
128
71
4
72
2
73
5
0
VERTEX
8
OBJECT__57
10
0
20
0
30
0
70
128
71
3
72
24
73
1
0
SEQEND
8
OBJECT__57
0
POLYLINE
8
OBJECT__58
66
1
70
64
71
18
72
18
62
253
0
VERTEX
8
OBJECT__58
10
89.067001
20
8.309000
30
64.250999
70
192
0
VERTEX
8
OBJECT__58
10
90.790001
20
3.390000
30
65.973999
70
192
0
VERTEX
8
OBJECT__58
10
93.302002
20
6.372000
30
68.486000
70
192
0
VERTEX
8
OBJECT__58
10
86.634003
20
0.000000
30
61.818001
70
192
0
VERTEX
8
OBJECT__58
10
90.220001
20
-1.177000
30
65.403999
70
192
0
VERTEX
8
OBJECT__58
10
89.067001
20
-8.309000
30
64.250999
70
192
0
VERTEX
8
OBJECT__58
10
91.860001
20
-5.194000
30
67.043999
70
192
0
VERTEX
8
OBJECT__58
10
103.250999
20
0.000000
30
78.434998
70
192
0
VERTEX
8
OBJECT__58
10
100.817001
20
8.309000
30
76.000999
70
192
0
VERTEX
8
OBJECT__58
10
99.095001
20
3.390000
30
74.278999
70
192
0
VERTEX
8
OBJECT__58
10
94.942001
20
11.750000
30
70.125999
70
192
0
VERTEX
8
OBJECT__58
10
96.582001
20
6.372000
30
71.765999
70
192
0
VERTEX
8
OBJECT__58
10
94.942001
20
-11.750000
30
70.125999
70
192
0
VERTEX
8
OBJECT__58
10
94.942001
20
-6.781000
30
70.125999
70
192
0
VERTEX
8
OBJECT__58
10
100.817001
20
-8.309000
30
76.000999
70
192
0
VERTEX
8
OBJECT__58
10
98.024002
20
-5.194000
30
73.208000
70
192
0
VERTEX
8
OBJECT__58
10
99.664001
20
-1.177000
30
74.848000
70
192
0
VERTEX
8
OBJECT__58
10
99.737000
20
0.000000
30
74.920998
70
192
0
VERTEX
8
OBJECT__58
10
0
20
0
30
0
70
128
71
1
72
2
73
3
0
VERTEX
8
OBJECT__58
10
0
20
0
30
0
70
128
71
4
72
5
73
2
0
VERTEX
8
OBJECT__58
10
0
20
0
30
0
70
128
71
6
72
7
73
5
0
VERTEX
8
OBJECT__58
10
0
20
0
30
0
70
128
71
8
72
9
73
10
0
VERTEX
8
OBJECT__58
10
0
20
0
30
0
70
128
71
9
72
11
73
12
0
VERTEX
8
OBJECT__58
10
0
20
0
30
0
70
128
71
3
72
11
73
1
0
VERTEX
8
OBJECT__58
10
0
20
0
30
0
70
128
71
5
72
4
73
6
0
VERTEX
8
OBJECT__58
10
0
20
0
30
0
70
128
71
12
72
10
73
9
0
VERTEX
8
OBJECT__58
10
0
20
0
30
0
70
128
71
2
72
1
73
4
0
VERTEX
8
OBJECT__58
10
0
20
0
30
0
70
128
71
13
72
14
73
7
0
VERTEX
8
OBJECT__58
10
0
20
0
30
0
70
128
71
13
72
15
73
16
0
VERTEX
8
OBJECT__58
10
0
20
0
30
0
70
128
71
3
72
12
73
11
0
VERTEX
8
OBJECT__58
10
0
20
0
30
0
70
128
71
16
72
14
73
13
0
VERTEX
8
OBJECT__58
10
0
20
0
30
0
70
128
71
15
72
8
73
17
0
VERTEX
8
OBJECT__58
10
0
20
0
30
0
70
128
71
7
72
6
73
13
0
VERTEX
8
OBJECT__58
10
0
20
0
30
0
70
128
71
8
72
18
73
17
0
VERTEX
8
OBJECT__58
10
0
20
0
30
0
70
128
71
17
72
16
73
15
0
VERTEX
8
OBJECT__58
10
0
20
0
30
0
70
128
71
10
72
18
73
8
0
SEQEND
8
OBJECT__58
0
POLYLINE
8
OBJECT__59
66
1
70
64
71
16
72
16
62
253
0
VERTEX
8
OBJECT__59
10
106.473999
20
8.309000
30
70.344002
70
192
0
VERTEX
8
OBJECT__59
10
100.817001
20
8.309000
30
76.000999
70
192
0
VERTEX
8
OBJECT__59
10
103.250999
20
0.000000
30
78.434998
70
192
0
VERTEX
8
OBJECT__59
10
94.942001
20
11.750000
30
70.125999
70
192
0
VERTEX
8
OBJECT__59
10
94.723999
20
8.309000
30
58.594002
70
192
0
VERTEX
8
OBJECT__59
10
89.067001
20
8.309000
30
64.250999
70
192
0
VERTEX
8
OBJECT__59
10
92.291000
20
0.000000
30
56.160999
70
192
0
VERTEX
8
OBJECT__59
10
86.634003
20
0.000000
30
61.818001
70
192
0
VERTEX
8
OBJECT__59
10
94.723999
20
-8.309000
30
58.594002
70
192
0
VERTEX
8
OBJECT__59
10
89.067001
20
-8.309000
30
64.250999
70
192
0
VERTEX
8
OBJECT__59
10
100.598999
20
-11.750000
30
64.469002
70
192
0
VERTEX
8
OBJECT__59
10
94.942001
20
-11.750000
30
70.125999
70
192
0
VERTEX
8
OBJECT__59
10
100.817001
20
-8.309000
30
76.000999
70
192
0
VERTEX
8
OBJECT__59
10
108.907997
20
0.000000
30
72.778000
70
192
0
VERTEX
8
OBJECT__59
10
106.473999
20
-8.309000
30
70.344002
70
192
0
VERTEX
8
OBJECT__59
10
100.598999
20
11.750000
30
64.469002
70
192
0
VERTEX
8
OBJECT__59
10
0
20
0
30
0
70
128
71
1
72
2
73
3
0
VERTEX
8
OBJECT__59
10
0
20
0
30
0
70
128
71
4
72
2
73
1
0
VERTEX
8
OBJECT__59
10
0
20
0
30
0
70
128
71
5
72
6
73
4
0
VERTEX
8
OBJECT__59
10
0
20
0
30
0
70
128
71
5
72
7
73
8
0
VERTEX
8
OBJECT__59
10
0
20
0
30
0
70
128
71
7
72
9
73
10
0
VERTEX
8
OBJECT__59
10
0
20
0
30
0
70
128
71
11
72
12
73
10
0
VERTEX
8
OBJECT__59
10
0
20
0
30
0
70
128
71
13
72
12
73
11
0
VERTEX
8
OBJECT__59
10
0
20
0
30
0
70
128
71
14
72
3
73
13
0
VERTEX
8
OBJECT__59
10
0
20
0
30
0
70
128
71
13
72
15
73
14
0
VERTEX
8
OBJECT__59
10
0
20
0
30
0
70
128
71
11
72
15
73
13
0
VERTEX
8
OBJECT__59
10
0
20
0
30
0
70
128
71
10
72
9
73
11
0
VERTEX
8
OBJECT__59
10
0
20
0
30
0
70
128
71
10
72
8
73
7
0
VERTEX
8
OBJECT__59
10
0
20
0
30
0
70
128
71
8
72
6
73
5
0
VERTEX
8
OBJECT__59
10
0
20
0
30
0
70
128
71
4
72
16
73
5
0
VERTEX
8
OBJECT__59
10
0
20
0
30
0
70
128
71
1
72
16
73
4
0
VERTEX
8
OBJECT__59
10
0
20
0
30
0
70
128
71
3
72
14
73
1
0
SEQEND
8
OBJECT__59
0
POLYLINE
8
OBJECT__60
66
1
70
64
71
8
72
6
62
253
0
VERTEX
8
OBJECT__60
10
94.723999
20
-8.309000
30
58.594002
70
192
0
VERTEX
8
OBJECT__60
10
106.473999
20
8.309000
30
70.344002
70
192
0
VERTEX
8
OBJECT__60
10
108.907997
20
0.000000
30
72.778000
70
192
0
VERTEX
8
OBJECT__60
10
92.291000
20
0.000000
30
56.160999
70
192
0
VERTEX
8
OBJECT__60
10
94.723999
20
8.309000
30
58.594002
70
192
0
VERTEX
8
OBJECT__60
10
106.473999
20
-8.309000
30
70.344002
70
192
0
VERTEX
8
OBJECT__60
10
100.598999
20
11.750000
30
64.469002
70
192
0
VERTEX
8
OBJECT__60
10
100.598999
20
-11.750000
30
64.469002
70
192
0
VERTEX
8
OBJECT__60
10
0
20
0
30
0
70
128
71
1
72
2
73
3
0
VERTEX
8
OBJECT__60
10
0
20
0
30
0
70
128
71
2
72
4
73
5
0
VERTEX
8
OBJECT__60
10
0
20
0
30
0
70
128
71
3
72
6
73
1
0
VERTEX
8
OBJECT__60
10
0
20
0
30
0
70
128
71
2
72
1
73
4
0
VERTEX
8
OBJECT__60
10
0
20
0
30
0
70
128
71
5
72
7
73
2
0
VERTEX
8
OBJECT__60
10
0
20
0
30
0
70
128
71
6
72
8
73
1
0
SEQEND
8
OBJECT__60
0
POLYLINE
8
OBJECT__61
66
1
70
64
71
14
72
14
62
253
0
VERTEX
8
OBJECT__61
10
17.216000
20
-73.900002
30
10.541000
70
192
0
VERTEX
8
OBJECT__61
10
17.216000
20
-58.900002
30
10.541000
70
192
0
VERTEX
8
OBJECT__61
10
23.343000
20
-58.900002
30
12.737000
70
192
0
VERTEX
8
OBJECT__61
10
25.445999
20
-73.900002
30
18.895000
70
192
0
VERTEX
8
OBJECT__61
10
23.343000
20
-73.900002
30
12.737000
70
192
0
VERTEX
8
OBJECT__61
10
21.943001
20
-58.900002
30
24.379999
70
192
0
VERTEX
8
OBJECT__61
10
21.943001
20
-73.900002
30
24.379999
70
192
0
VERTEX
8
OBJECT__61
10
15.470000
20
-73.900002
30
25.059999
70
192
0
VERTEX
8
OBJECT__61
10
15.470000
20
-58.900002
30
25.059999
70
192
0
VERTEX
8
OBJECT__61
10
10.903000
20
-58.900002
30
20.424000
70
192
0
VERTEX
8
OBJECT__61
10
11.680000
20
-73.900002
30
13.962000
70
192
0
VERTEX
8
OBJECT__61
10
10.903000
20
-73.900002
30
20.424000
70
192
0
VERTEX
8
OBJECT__61
10
11.680000
20
-58.900002
30
13.962000
70
192
0
VERTEX
8
OBJECT__61
10
25.445999
20
-58.900002
30
18.895000
70
192
0
VERTEX
8
OBJECT__61
10
0
20
0
30
0
70
128
71
1
72
2
73
3
0
VERTEX
8
OBJECT__61
10
0
20
0
30
0
70
128
71
4
72
5
73
3
0
VERTEX
8
OBJECT__61
10
0
20
0
30
0
70
128
71
6
72
7
73
4
0
VERTEX
8
OBJECT__61
10
0
20
0
30
0
70
128
71
8
72
7
73
6
0
VERTEX
8
OBJECT__61
10
0
20
0
30
0
70
128
71
8
72
9
73
10
0
VERTEX
8
OBJECT__61
10
0
20
0
30
0
70
128
71
11
72
12
73
10
0
VERTEX
8
OBJECT__61
10
0
20
0
30
0
70
128
71
1
72
11
73
13
0
VERTEX
8
OBJECT__61
10
0
20
0
30
0
70
128
71
13
72
2
73
1
0
VERTEX
8
OBJECT__61
10
0
20
0
30
0
70
128
71
10
72
13
73
11
0
VERTEX
8
OBJECT__61
10
0
20
0
30
0
70
128
71
10
72
12
73
8
0
VERTEX
8
OBJECT__61
10
0
20
0
30
0
70
128
71
6
72
9
73
8
0
VERTEX
8
OBJECT__61
10
0
20
0
30
0
70
128
71
4
72
14
73
6
0
VERTEX
8
OBJECT__61
10
0
20
0
30
0
70
128
71
3
72
14
73
4
0
VERTEX
8
OBJECT__61
10
0
20
0
30
0
70
128
71
3
72
5
73
1
0
SEQEND
8
OBJECT__61
0
POLYLINE
8
OBJECT__62
66
1
70
64
71
16
72
16
62
253
0
VERTEX
8
OBJECT__62
10
21.593000
20
-58.900002
30
3.591000
70
192
0
VERTEX
8
OBJECT__62
10
30.014000
20
-58.900002
30
9.271000
70
192
0
VERTEX
8
OBJECT__62
10
23.343000
20
-58.900002
30
12.737000
70
192
0
VERTEX
8
OBJECT__62
10
32.813999
20
-58.900002
30
19.035999
70
192
0
VERTEX
8
OBJECT__62
10
25.445999
20
-58.900002
30
18.895000
70
192
0
VERTEX
8
OBJECT__62
10
19.552000
20
-58.900002
30
32.769001
70
192
0
VERTEX
8
OBJECT__62
10
15.470000
20
-58.900002
30
25.059999
70
192
0
VERTEX
8
OBJECT__62
10
21.943001
20
-58.900002
30
24.379999
70
192
0
VERTEX
8
OBJECT__62
10
28.681999
20
-58.900002
30
28.316000
70
192
0
VERTEX
8
OBJECT__62
10
9.696000
20
-58.900002
30
30.311001
70
192
0
VERTEX
8
OBJECT__62
10
3.725000
20
-58.900002
30
22.093000
70
192
0
VERTEX
8
OBJECT__62
10
10.903000
20
-58.900002
30
20.424000
70
192
0
VERTEX
8
OBJECT__62
10
4.434000
20
-58.900002
30
11.960000
70
192
0
VERTEX
8
OBJECT__62
10
11.680000
20
-58.900002
30
13.962000
70
192
0
VERTEX
8
OBJECT__62
10
11.490000
20
-58.900002
30
4.653000
70
192
0
VERTEX
8
OBJECT__62
10
17.216000
20
-58.900002
30
10.541000
70
192
0
VERTEX
8
OBJECT__62
10
0
20
0
30
0
70
128
71
1
72
2
73
3
0
VERTEX
8
OBJECT__62
10
0
20
0
30
0
70
128
71
2
72
4
73
5
0
VERTEX
8
OBJECT__62
10
0
20
0
30
0
70
128
71
6
72
7
73
8
0
VERTEX
8
OBJECT__62
10
0
20
0
30
0
70
128
71
5
72
3
73
2
0
VERTEX
8
OBJECT__62
10
0
20
0
30
0
70
128
71
9
72
8
73
5
0
VERTEX
8
OBJECT__62
10
0
20
0
30
0
70
128
71
6
72
10
73
7
0
VERTEX
8
OBJECT__62
10
0
20
0
30
0
70
128
71
10
72
11
73
12
0
VERTEX
8
OBJECT__62
10
0
20
0
30
0
70
128
71
5
72
4
73
9
0
VERTEX
8
OBJECT__62
10
0
20
0
30
0
70
128
71
12
72
7
73
10
0
VERTEX
8
OBJECT__62
10
0
20
0
30
0
70
128
71
8
72
9
73
6
0
VERTEX
8
OBJECT__62
10
0
20
0
30
0
70
128
71
13
72
14
73
12
0
VERTEX
8
OBJECT__62
10
0
20
0
30
0
70
128
71
12
72
11
73
13
0
VERTEX
8
OBJECT__62
10
0
20
0
30
0
70
128
71
15
72
16
73
14
0
VERTEX
8
OBJECT__62
10
0
20
0
30
0
70
128
71
14
72
13
73
15
0
VERTEX
8
OBJECT__62
10
0
20
0
30
0
70
128
71
3
72
16
73
1
0
VERTEX
8
OBJECT__62
10
0
20
0
30
0
70
128
71
16
72
15
73
1
0
SEQEND
8
OBJECT__62
0
POLYLINE
8
OBJECT__64
66
1
70
64
71
19
72
19
62
253
0
VERTEX
8
OBJECT__64
10
28.681999
20
-36.900002
30
28.316000
70
192
0
VERTEX
8
OBJECT__64
10
19.552000
20
-36.900002
30
32.769001
70
192
0
VERTEX
8
OBJECT__64
10
19.552000
20
-58.900002
30
32.769001
70
192
0
VERTEX
8
OBJECT__64
10
32.813999
20
-36.900002
30
19.035999
70
192
0
VERTEX
8
OBJECT__64
10
28.681999
20
-58.900002
30
28.316000
70
192
0
VERTEX
8
OBJECT__64
10
30.014000
20
-58.900002
30
9.271000
70
192
0
VERTEX
8
OBJECT__64
10
30.014000
20
-36.900002
30
9.271000
70
192
0
VERTEX
8
OBJECT__64
10
21.593000
20
-36.900002
30
3.591000
70
192
0
VERTEX
8
OBJECT__64
10
11.490000
20
-58.900002
30
4.653000
70
192
0
VERTEX
8
OBJECT__64
10
11.490000
20
-36.900002
30
4.653000
70
192
0
VERTEX
8
OBJECT__64
10
16.448000
20
-36.900002
30
3.231000
70
192
0
VERTEX
8
OBJECT__64
10
21.593000
20
-58.900002
30
3.591000
70
192
0
VERTEX
8
OBJECT__64
10
4.434000
20
-36.900002
30
11.960000
70
192
0
VERTEX
8
OBJECT__64
10
3.725000
20
-58.900002
30
22.093000
70
192
0
VERTEX
8
OBJECT__64
10
3.725000
20
-36.900002
30
22.093000
70
192
0
VERTEX
8
OBJECT__64
10
9.696000
20
-36.900002
30
30.311001
70
192
0
VERTEX
8
OBJECT__64
10
9.696000
20
-58.900002
30
30.311001
70
192
0
VERTEX
8
OBJECT__64
10
4.434000
20
-58.900002
30
11.960000
70
192
0
VERTEX
8
OBJECT__64
10
32.813999
20
-58.900002
30
19.035999
70
192
0
VERTEX
8
OBJECT__64
10
0
20
0
30
0
70
128
71
1
72
2
73
3
0
VERTEX
8
OBJECT__64
10
0
20
0
30
0
70
128
71
4
72
1
73
5
0
VERTEX
8
OBJECT__64
10
0
20
0
30
0
70
128
71
6
72
7
73
4
0
VERTEX
8
OBJECT__64
10
0
20
0
30
0
70
128
71
8
72
7
73
6
0
VERTEX
8
OBJECT__64
10
0
20
0
30
0
70
128
71
9
72
10
73
11
0
VERTEX
8
OBJECT__64
10
0
20
0
30
0
70
128
71
11
72
12
73
9
0
VERTEX
8
OBJECT__64
10
0
20
0
30
0
70
128
71
13
72
10
73
9
0
VERTEX
8
OBJECT__64
10
0
20
0
30
0
70
128
71
14
72
15
73
13
0
VERTEX
8
OBJECT__64
10
0
20
0
30
0
70
128
71
16
72
15
73
14
0
VERTEX
8
OBJECT__64
10
0
20
0
30
0
70
128
71
3
72
2
73
16
0
VERTEX
8
OBJECT__64
10
0
20
0
30
0
70
128
71
16
72
17
73
3
0
VERTEX
8
OBJECT__64
10
0
20
0
30
0
70
128
71
14
72
17
73
16
0
VERTEX
8
OBJECT__64
10
0
20
0
30
0
70
128
71
13
72
18
73
14
0
VERTEX
8
OBJECT__64
10
0
20
0
30
0
70
128
71
9
72
18
73
13
0
VERTEX
8
OBJECT__64
10
0
20
0
30
0
70
128
71
11
72
8
73
12
0
VERTEX
8
OBJECT__64
10
0
20
0
30
0
70
128
71
6
72
12
73
8
0
VERTEX
8
OBJECT__64
10
0
20
0
30
0
70
128
71
4
72
19
73
6
0
VERTEX
8
OBJECT__64
10
0
20
0
30
0
70
128
71
5
72
19
73
4
0
VERTEX
8
OBJECT__64
10
0
20
0
30
0
70
128
71
3
72
5
73
1
0
SEQEND
8
OBJECT__64
0
ENDSEC
0
EOF
