999
Converted by 3D Exploration 
999
XDimension Software, LLC
999
http://www.xdsoft.com/explorer/
0
SECTION
2
HEADER
9
$ACADVER
1
AC1008
9
$UCSORG
10
0.0
20
0.0
30
0.0
9
$UCSXDIR
10
1.0
20
0.0
30
0.0
9
$TILEMODE
70
1
9
$UCSYDIR
10
0.0
20
1.0
30
0.0
9
$EXTMIN
10
-17.180500
20
-58.000000
30
-58.000000
9
$EXTMAX
10
17.180500
20
58.000000
30
72.000000
0
ENDSEC
0
SECTION
2
TABLES
0
TABLE
2
LTYPE
70
1
0
LTYPE
2
CONTINUOUS
70
64
3
Solid line
72
65
73
0
40
0.0
0
ENDTAB
0
TABLE
2
LAYER
70
29
0
LAYER
2
OBJECT__0
70
0
62
253
6
CONTINUOUS
0
LAYER
2
OBJECT__1
70
0
62
253
6
CONTINUOUS
0
LAYER
2
OBJECT__3
70
0
62
253
6
CONTINUOUS
0
LAYER
2
OBJECT__4
70
0
62
253
6
CONTINUOUS
0
LAYER
2
OBJECT__5
70
0
62
253
6
CONTINUOUS
0
LAYER
2
OBJECT__6
70
0
62
253
6
CONTINUOUS
0
LAYER
2
OBJECT__7
70
0
62
253
6
CONTINUOUS
0
LAYER
2
OBJECT__8
70
0
62
253
6
CONTINUOUS
0
LAYER
2
OBJECT__9
70
0
62
253
6
CONTINUOUS
0
LAYER
2
OBJECT__10
70
0
62
253
6
CONTINUOUS
0
LAYER
2
OBJECT__11
70
0
62
253
6
CONTINUOUS
0
LAYER
2
OBJECT__12
70
0
62
253
6
CONTINUOUS
0
LAYER
2
OBJECT__13
70
0
62
253
6
CONTINUOUS
0
LAYER
2
OBJECT__14
70
0
62
253
6
CONTINUOUS
0
LAYER
2
OBJECT__15
70
0
62
253
6
CONTINUOUS
0
LAYER
2
OBJECT__16
70
0
62
253
6
CONTINUOUS
0
LAYER
2
OBJECT__18
70
0
62
253
6
CONTINUOUS
0
LAYER
2
OBJECT__19
70
0
62
253
6
CONTINUOUS
0
LAYER
2
OBJECT__20
70
0
62
253
6
CONTINUOUS
0
LAYER
2
OBJECT__21
70
0
62
253
6
CONTINUOUS
0
LAYER
2
OBJECT__22
70
0
62
253
6
CONTINUOUS
0
LAYER
2
OBJECT__23
70
0
62
253
6
CONTINUOUS
0
LAYER
2
OBJECT__25
70
0
62
253
6
CONTINUOUS
0
LAYER
2
OBJECT__26
70
0
62
253
6
CONTINUOUS
0
LAYER
2
OBJECT__27
70
0
62
253
6
CONTINUOUS
0
LAYER
2
OBJECT__28
70
0
62
253
6
CONTINUOUS
0
ENDTAB
0
TABLE
2
STYLE
70
1
0
STYLE
2
STANDARD
70
0
40
0.0
41
1.0
50
0.0
71
0
42
0.2
3
txt
4
1
0
ENDTAB
0
TABLE
2
UCS
70
0
0
ENDTAB
0
ENDSEC
0
SECTION
2
ENTITIES
0
POLYLINE
8
OBJECT__0
66
1
70
64
71
116
72
116
62
253
0
VERTEX
8
OBJECT__0
10
-4.130500
20
28.059999
30
22.377001
70
192
0
VERTEX
8
OBJECT__0
10
7.572500
20
28.070999
30
22.382000
70
192
0
VERTEX
8
OBJECT__0
10
7.572500
20
25.450001
30
25.450001
70
192
0
VERTEX
8
OBJECT__0
10
-4.130500
20
22.377001
30
28.059999
70
192
0
VERTEX
8
OBJECT__0
10
-4.130500
20
-22.377001
30
28.059999
70
192
0
VERTEX
8
OBJECT__0
10
7.572500
20
-22.382000
30
28.070999
70
192
0
VERTEX
8
OBJECT__0
10
7.572500
20
-25.450001
30
25.450001
70
192
0
VERTEX
8
OBJECT__0
10
-4.130500
20
-28.059999
30
22.377001
70
192
0
VERTEX
8
OBJECT__0
10
-4.130500
20
-28.059999
30
-22.377001
70
192
0
VERTEX
8
OBJECT__0
10
7.572500
20
-28.070999
30
-22.382000
70
192
0
VERTEX
8
OBJECT__0
10
7.572500
20
-25.450001
30
-25.450001
70
192
0
VERTEX
8
OBJECT__0
10
-4.130500
20
-22.377001
30
-28.059999
70
192
0
VERTEX
8
OBJECT__0
10
-4.130500
20
22.377001
30
-28.059999
70
192
0
VERTEX
8
OBJECT__0
10
7.572500
20
22.382000
30
-28.070999
70
192
0
VERTEX
8
OBJECT__0
10
7.572500
20
25.450001
30
-25.450001
70
192
0
VERTEX
8
OBJECT__0
10
-4.130500
20
28.059999
30
-22.377001
70
192
0
VERTEX
8
OBJECT__0
10
-2.030500
20
20.792000
30
-29.277000
70
192
0
VERTEX
8
OBJECT__0
10
-2.030500
20
15.580000
30
-32.352001
70
192
0
VERTEX
8
OBJECT__0
10
7.572500
20
16.340000
30
-32.069000
70
192
0
VERTEX
8
OBJECT__0
10
7.572500
20
15.596000
30
-32.377998
70
192
0
VERTEX
8
OBJECT__0
10
7.572500
20
21.156000
30
-29.118000
70
192
0
VERTEX
8
OBJECT__0
10
-3.080500
20
20.785000
30
-29.270000
70
192
0
VERTEX
8
OBJECT__0
10
-4.130500
20
20.778000
30
-29.264000
70
192
0
VERTEX
8
OBJECT__0
10
-2.030500
20
7.990000
30
-35.007999
70
192
0
VERTEX
8
OBJECT__0
10
7.572500
20
11.122000
30
-34.230999
70
192
0
VERTEX
8
OBJECT__0
10
7.572500
20
7.984000
30
-34.984001
70
192
0
VERTEX
8
OBJECT__0
10
-2.030500
20
0.000000
30
-35.909000
70
192
0
VERTEX
8
OBJECT__0
10
7.572500
20
0.000000
30
-35.992001
70
192
0
VERTEX
8
OBJECT__0
10
7.572500
20
5.630000
30
-35.549000
70
192
0
VERTEX
8
OBJECT__0
10
-2.030500
20
-7.990000
30
-35.007999
70
192
0
VERTEX
8
OBJECT__0
10
7.572500
20
-5.630000
30
-35.549000
70
192
0
VERTEX
8
OBJECT__0
10
7.572500
20
-7.984000
30
-34.984001
70
192
0
VERTEX
8
OBJECT__0
10
-2.030500
20
-15.580000
30
-32.352001
70
192
0
VERTEX
8
OBJECT__0
10
7.572500
20
-15.596000
30
-32.377998
70
192
0
VERTEX
8
OBJECT__0
10
7.572500
20
-11.122000
30
-34.230999
70
192
0
VERTEX
8
OBJECT__0
10
7.572500
20
-22.382000
30
-28.070999
70
192
0
VERTEX
8
OBJECT__0
10
-2.030500
20
-20.792000
30
-29.277000
70
192
0
VERTEX
8
OBJECT__0
10
-3.080500
20
-20.785000
30
-29.270000
70
192
0
VERTEX
8
OBJECT__0
10
7.572500
20
-21.156000
30
-29.118000
70
192
0
VERTEX
8
OBJECT__0
10
7.572500
20
-16.340000
30
-32.069000
70
192
0
VERTEX
8
OBJECT__0
10
-2.030500
20
-29.277000
30
-20.792000
70
192
0
VERTEX
8
OBJECT__0
10
-2.030500
20
-32.352001
30
-15.580000
70
192
0
VERTEX
8
OBJECT__0
10
7.572500
20
-32.069000
30
-16.340000
70
192
0
VERTEX
8
OBJECT__0
10
7.572500
20
-32.377998
30
-15.596000
70
192
0
VERTEX
8
OBJECT__0
10
7.572500
20
-29.118000
30
-21.156000
70
192
0
VERTEX
8
OBJECT__0
10
-3.080500
20
-29.270000
30
-20.785000
70
192
0
VERTEX
8
OBJECT__0
10
-4.130500
20
-29.264000
30
-20.778000
70
192
0
VERTEX
8
OBJECT__0
10
-2.030500
20
-35.007999
30
-7.990000
70
192
0
VERTEX
8
OBJECT__0
10
7.572500
20
-34.230999
30
-11.122000
70
192
0
VERTEX
8
OBJECT__0
10
7.572500
20
-34.984001
30
-7.984000
70
192
0
VERTEX
8
OBJECT__0
10
-2.030500
20
-35.909000
30
0.000000
70
192
0
VERTEX
8
OBJECT__0
10
7.572500
20
-35.992001
30
0.000000
70
192
0
VERTEX
8
OBJECT__0
10
7.572500
20
-35.549000
30
-5.630000
70
192
0
VERTEX
8
OBJECT__0
10
-2.030500
20
-35.007999
30
7.990000
70
192
0
VERTEX
8
OBJECT__0
10
7.572500
20
-35.549000
30
5.630000
70
192
0
VERTEX
8
OBJECT__0
10
7.572500
20
-34.984001
30
7.984000
70
192
0
VERTEX
8
OBJECT__0
10
-2.030500
20
-32.352001
30
15.580000
70
192
0
VERTEX
8
OBJECT__0
10
7.572500
20
-32.377998
30
15.596000
70
192
0
VERTEX
8
OBJECT__0
10
7.572500
20
-34.230999
30
11.122000
70
192
0
VERTEX
8
OBJECT__0
10
7.572500
20
-28.070999
30
22.382000
70
192
0
VERTEX
8
OBJECT__0
10
-2.030500
20
-29.277000
30
20.792000
70
192
0
VERTEX
8
OBJECT__0
10
-3.080500
20
-29.270000
30
20.785000
70
192
0
VERTEX
8
OBJECT__0
10
7.572500
20
-29.118000
30
21.156000
70
192
0
VERTEX
8
OBJECT__0
10
7.572500
20
-32.069000
30
16.340000
70
192
0
VERTEX
8
OBJECT__0
10
-2.030500
20
-20.792000
30
29.277000
70
192
0
VERTEX
8
OBJECT__0
10
-2.030500
20
-15.580000
30
32.352001
70
192
0
VERTEX
8
OBJECT__0
10
7.572500
20
-16.340000
30
32.069000
70
192
0
VERTEX
8
OBJECT__0
10
7.572500
20
-15.596000
30
32.377998
70
192
0
VERTEX
8
OBJECT__0
10
7.572500
20
-21.156000
30
29.118000
70
192
0
VERTEX
8
OBJECT__0
10
-3.080500
20
-20.785000
30
29.270000
70
192
0
VERTEX
8
OBJECT__0
10
-4.130500
20
-20.778000
30
29.264000
70
192
0
VERTEX
8
OBJECT__0
10
-2.030500
20
-7.990000
30
35.007999
70
192
0
VERTEX
8
OBJECT__0
10
7.572500
20
-11.122000
30
34.230999
70
192
0
VERTEX
8
OBJECT__0
10
7.572500
20
-7.984000
30
34.984001
70
192
0
VERTEX
8
OBJECT__0
10
-2.030500
20
0.000000
30
35.909000
70
192
0
VERTEX
8
OBJECT__0
10
7.572500
20
0.000000
30
35.992001
70
192
0
VERTEX
8
OBJECT__0
10
7.572500
20
-5.630000
30
35.549000
70
192
0
VERTEX
8
OBJECT__0
10
-2.030500
20
7.990000
30
35.007999
70
192
0
VERTEX
8
OBJECT__0
10
7.572500
20
5.630000
30
35.549000
70
192
0
VERTEX
8
OBJECT__0
10
7.572500
20
7.984000
30
34.984001
70
192
0
VERTEX
8
OBJECT__0
10
-2.030500
20
15.580000
30
32.352001
70
192
0
VERTEX
8
OBJECT__0
10
7.572500
20
15.596000
30
32.377998
70
192
0
VERTEX
8
OBJECT__0
10
7.572500
20
11.122000
30
34.230999
70
192
0
VERTEX
8
OBJECT__0
10
7.572500
20
22.382000
30
28.070999
70
192
0
VERTEX
8
OBJECT__0
10
-2.030500
20
20.792000
30
29.277000
70
192
0
VERTEX
8
OBJECT__0
10
-3.080500
20
20.785000
30
29.270000
70
192
0
VERTEX
8
OBJECT__0
10
7.572500
20
21.156000
30
29.118000
70
192
0
VERTEX
8
OBJECT__0
10
7.572500
20
16.340000
30
32.069000
70
192
0
VERTEX
8
OBJECT__0
10
-2.030500
20
29.277000
30
20.792000
70
192
0
VERTEX
8
OBJECT__0
10
-2.030500
20
32.352001
30
15.580000
70
192
0
VERTEX
8
OBJECT__0
10
7.572500
20
32.069000
30
16.340000
70
192
0
VERTEX
8
OBJECT__0
10
7.572500
20
32.377998
30
15.596000
70
192
0
VERTEX
8
OBJECT__0
10
7.572500
20
29.118000
30
21.156000
70
192
0
VERTEX
8
OBJECT__0
10
-3.080500
20
29.270000
30
20.785000
70
192
0
VERTEX
8
OBJECT__0
10
-4.130500
20
29.264000
30
20.778000
70
192
0
VERTEX
8
OBJECT__0
10
-2.030500
20
35.007999
30
7.990000
70
192
0
VERTEX
8
OBJECT__0
10
7.572500
20
34.230999
30
11.122000
70
192
0
VERTEX
8
OBJECT__0
10
7.572500
20
34.984001
30
7.984000
70
192
0
VERTEX
8
OBJECT__0
10
-2.030500
20
35.909000
30
0.000000
70
192
0
VERTEX
8
OBJECT__0
10
7.572500
20
35.992001
30
0.000000
70
192
0
VERTEX
8
OBJECT__0
10
7.572500
20
35.549000
30
5.630000
70
192
0
VERTEX
8
OBJECT__0
10
-2.030500
20
35.007999
30
-7.990000
70
192
0
VERTEX
8
OBJECT__0
10
7.572500
20
35.549000
30
-5.630000
70
192
0
VERTEX
8
OBJECT__0
10
7.572500
20
34.984001
30
-7.984000
70
192
0
VERTEX
8
OBJECT__0
10
-2.030500
20
32.352001
30
-15.580000
70
192
0
VERTEX
8
OBJECT__0
10
7.572500
20
32.377998
30
-15.596000
70
192
0
VERTEX
8
OBJECT__0
10
7.572500
20
34.230999
30
-11.122000
70
192
0
VERTEX
8
OBJECT__0
10
7.572500
20
28.070999
30
-22.382000
70
192
0
VERTEX
8
OBJECT__0
10
-2.030500
20
29.277000
30
-20.792000
70
192
0
VERTEX
8
OBJECT__0
10
-3.080500
20
29.270000
30
-20.785000
70
192
0
VERTEX
8
OBJECT__0
10
7.572500
20
29.118000
30
-21.156000
70
192
0
VERTEX
8
OBJECT__0
10
7.572500
20
32.069000
30
-16.340000
70
192
0
VERTEX
8
OBJECT__0
10
-4.130500
20
29.264000
30
-20.778000
70
192
0
VERTEX
8
OBJECT__0
10
-4.130500
20
20.778000
30
29.264000
70
192
0
VERTEX
8
OBJECT__0
10
-4.130500
20
-29.264000
30
20.778000
70
192
0
VERTEX
8
OBJECT__0
10
-4.130500
20
-20.778000
30
-29.264000
70
192
0
VERTEX
8
OBJECT__0
10
0
20
0
30
0
70
128
71
1
72
2
73
3
0
VERTEX
8
OBJECT__0
10
0
20
0
30
0
70
128
71
3
72
4
73
1
0
VERTEX
8
OBJECT__0
10
0
20
0
30
0
70
128
71
5
72
6
73
7
0
VERTEX
8
OBJECT__0
10
0
20
0
30
0
70
128
71
7
72
8
73
5
0
VERTEX
8
OBJECT__0
10
0
20
0
30
0
70
128
71
9
72
10
73
11
0
VERTEX
8
OBJECT__0
10
0
20
0
30
0
70
128
71
11
72
12
73
9
0
VERTEX
8
OBJECT__0
10
0
20
0
30
0
70
128
71
13
72
14
73
15
0
VERTEX
8
OBJECT__0
10
0
20
0
30
0
70
128
71
15
72
16
73
13
0
VERTEX
8
OBJECT__0
10
0
20
0
30
0
70
128
71
17
72
18
73
19
0
VERTEX
8
OBJECT__0
10
0
20
0
30
0
70
128
71
18
72
20
73
19
0
VERTEX
8
OBJECT__0
10
0
20
0
30
0
70
128
71
19
72
21
73
17
0
VERTEX
8
OBJECT__0
10
0
20
0
30
0
70
128
71
13
72
22
73
17
0
VERTEX
8
OBJECT__0
10
0
20
0
30
0
70
128
71
13
72
23
73
22
0
VERTEX
8
OBJECT__0
10
0
20
0
30
0
70
128
71
17
72
14
73
13
0
VERTEX
8
OBJECT__0
10
0
20
0
30
0
70
128
71
18
72
24
73
25
0
VERTEX
8
OBJECT__0
10
0
20
0
30
0
70
128
71
24
72
26
73
25
0
VERTEX
8
OBJECT__0
10
0
20
0
30
0
70
128
71
27
72
28
73
29
0
VERTEX
8
OBJECT__0
10
0
20
0
30
0
70
128
71
29
72
24
73
27
0
VERTEX
8
OBJECT__0
10
0
20
0
30
0
70
128
71
27
72
30
73
31
0
VERTEX
8
OBJECT__0
10
0
20
0
30
0
70
128
71
30
72
32
73
31
0
VERTEX
8
OBJECT__0
10
0
20
0
30
0
70
128
71
33
72
34
73
35
0
VERTEX
8
OBJECT__0
10
0
20
0
30
0
70
128
71
35
72
30
73
33
0
VERTEX
8
OBJECT__0
10
0
20
0
30
0
70
128
71
12
72
36
73
37
0
VERTEX
8
OBJECT__0
10
0
20
0
30
0
70
128
71
37
72
38
73
12
0
VERTEX
8
OBJECT__0
10
0
20
0
30
0
70
128
71
37
72
39
73
40
0
VERTEX
8
OBJECT__0
10
0
20
0
30
0
70
128
71
37
72
36
73
39
0
VERTEX
8
OBJECT__0
10
0
20
0
30
0
70
128
71
40
72
33
73
37
0
VERTEX
8
OBJECT__0
10
0
20
0
30
0
70
128
71
40
72
34
73
33
0
VERTEX
8
OBJECT__0
10
0
20
0
30
0
70
128
71
41
72
42
73
43
0
VERTEX
8
OBJECT__0
10
0
20
0
30
0
70
128
71
42
72
44
73
43
0
VERTEX
8
OBJECT__0
10
0
20
0
30
0
70
128
71
43
72
45
73
41
0
VERTEX
8
OBJECT__0
10
0
20
0
30
0
70
128
71
9
72
46
73
41
0
VERTEX
8
OBJECT__0
10
0
20
0
30
0
70
128
71
9
72
47
73
46
0
VERTEX
8
OBJECT__0
10
0
20
0
30
0
70
128
71
41
72
10
73
9
0
VERTEX
8
OBJECT__0
10
0
20
0
30
0
70
128
71
42
72
48
73
49
0
VERTEX
8
OBJECT__0
10
0
20
0
30
0
70
128
71
48
72
50
73
49
0
VERTEX
8
OBJECT__0
10
0
20
0
30
0
70
128
71
51
72
52
73
53
0
VERTEX
8
OBJECT__0
10
0
20
0
30
0
70
128
71
53
72
48
73
51
0
VERTEX
8
OBJECT__0
10
0
20
0
30
0
70
128
71
51
72
54
73
55
0
VERTEX
8
OBJECT__0
10
0
20
0
30
0
70
128
71
54
72
56
73
55
0
VERTEX
8
OBJECT__0
10
0
20
0
30
0
70
128
71
57
72
58
73
59
0
VERTEX
8
OBJECT__0
10
0
20
0
30
0
70
128
71
59
72
54
73
57
0
VERTEX
8
OBJECT__0
10
0
20
0
30
0
70
128
71
8
72
60
73
61
0
VERTEX
8
OBJECT__0
10
0
20
0
30
0
70
128
71
61
72
62
73
8
0
VERTEX
8
OBJECT__0
10
0
20
0
30
0
70
128
71
61
72
63
73
64
0
VERTEX
8
OBJECT__0
10
0
20
0
30
0
70
128
71
61
72
60
73
63
0
VERTEX
8
OBJECT__0
10
0
20
0
30
0
70
128
71
64
72
57
73
61
0
VERTEX
8
OBJECT__0
10
0
20
0
30
0
70
128
71
64
72
58
73
57
0
VERTEX
8
OBJECT__0
10
0
20
0
30
0
70
128
71
65
72
66
73
67
0
VERTEX
8
OBJECT__0
10
0
20
0
30
0
70
128
71
66
72
68
73
67
0
VERTEX
8
OBJECT__0
10
0
20
0
30
0
70
128
71
67
72
69
73
65
0
VERTEX
8
OBJECT__0
10
0
20
0
30
0
70
128
71
5
72
70
73
65
0
VERTEX
8
OBJECT__0
10
0
20
0
30
0
70
128
71
5
72
71
73
70
0
VERTEX
8
OBJECT__0
10
0
20
0
30
0
70
128
71
65
72
6
73
5
0
VERTEX
8
OBJECT__0
10
0
20
0
30
0
70
128
71
66
72
72
73
73
0
VERTEX
8
OBJECT__0
10
0
20
0
30
0
70
128
71
72
72
74
73
73
0
VERTEX
8
OBJECT__0
10
0
20
0
30
0
70
128
71
75
72
76
73
77
0
VERTEX
8
OBJECT__0
10
0
20
0
30
0
70
128
71
77
72
72
73
75
0
VERTEX
8
OBJECT__0
10
0
20
0
30
0
70
128
71
75
72
78
73
79
0
VERTEX
8
OBJECT__0
10
0
20
0
30
0
70
128
71
78
72
80
73
79
0
VERTEX
8
OBJECT__0
10
0
20
0
30
0
70
128
71
81
72
82
73
83
0
VERTEX
8
OBJECT__0
10
0
20
0
30
0
70
128
71
83
72
78
73
81
0
VERTEX
8
OBJECT__0
10
0
20
0
30
0
70
128
71
4
72
84
73
85
0
VERTEX
8
OBJECT__0
10
0
20
0
30
0
70
128
71
85
72
86
73
4
0
VERTEX
8
OBJECT__0
10
0
20
0
30
0
70
128
71
85
72
87
73
88
0
VERTEX
8
OBJECT__0
10
0
20
0
30
0
70
128
71
85
72
84
73
87
0
VERTEX
8
OBJECT__0
10
0
20
0
30
0
70
128
71
88
72
81
73
85
0
VERTEX
8
OBJECT__0
10
0
20
0
30
0
70
128
71
88
72
82
73
81
0
VERTEX
8
OBJECT__0
10
0
20
0
30
0
70
128
71
89
72
90
73
91
0
VERTEX
8
OBJECT__0
10
0
20
0
30
0
70
128
71
90
72
92
73
91
0
VERTEX
8
OBJECT__0
10
0
20
0
30
0
70
128
71
91
72
93
73
89
0
VERTEX
8
OBJECT__0
10
0
20
0
30
0
70
128
71
1
72
94
73
89
0
VERTEX
8
OBJECT__0
10
0
20
0
30
0
70
128
71
1
72
95
73
94
0
VERTEX
8
OBJECT__0
10
0
20
0
30
0
70
128
71
89
72
2
73
1
0
VERTEX
8
OBJECT__0
10
0
20
0
30
0
70
128
71
90
72
96
73
97
0
VERTEX
8
OBJECT__0
10
0
20
0
30
0
70
128
71
96
72
98
73
97
0
VERTEX
8
OBJECT__0
10
0
20
0
30
0
70
128
71
99
72
100
73
101
0
VERTEX
8
OBJECT__0
10
0
20
0
30
0
70
128
71
101
72
96
73
99
0
VERTEX
8
OBJECT__0
10
0
20
0
30
0
70
128
71
99
72
102
73
103
0
VERTEX
8
OBJECT__0
10
0
20
0
30
0
70
128
71
102
72
104
73
103
0
VERTEX
8
OBJECT__0
10
0
20
0
30
0
70
128
71
105
72
106
73
107
0
VERTEX
8
OBJECT__0
10
0
20
0
30
0
70
128
71
107
72
102
73
105
0
VERTEX
8
OBJECT__0
10
0
20
0
30
0
70
128
71
16
72
108
73
109
0
VERTEX
8
OBJECT__0
10
0
20
0
30
0
70
128
71
109
72
110
73
16
0
VERTEX
8
OBJECT__0
10
0
20
0
30
0
70
128
71
109
72
111
73
112
0
VERTEX
8
OBJECT__0
10
0
20
0
30
0
70
128
71
109
72
108
73
111
0
VERTEX
8
OBJECT__0
10
0
20
0
30
0
70
128
71
112
72
105
73
109
0
VERTEX
8
OBJECT__0
10
0
20
0
30
0
70
128
71
112
72
106
73
105
0
VERTEX
8
OBJECT__0
10
0
20
0
30
0
70
128
71
110
72
113
73
16
0
VERTEX
8
OBJECT__0
10
0
20
0
30
0
70
128
71
107
72
104
73
102
0
VERTEX
8
OBJECT__0
10
0
20
0
30
0
70
128
71
103
72
100
73
99
0
VERTEX
8
OBJECT__0
10
0
20
0
30
0
70
128
71
101
72
98
73
96
0
VERTEX
8
OBJECT__0
10
0
20
0
30
0
70
128
71
97
72
92
73
90
0
VERTEX
8
OBJECT__0
10
0
20
0
30
0
70
128
71
93
72
2
73
89
0
VERTEX
8
OBJECT__0
10
0
20
0
30
0
70
128
71
86
72
114
73
4
0
VERTEX
8
OBJECT__0
10
0
20
0
30
0
70
128
71
83
72
80
73
78
0
VERTEX
8
OBJECT__0
10
0
20
0
30
0
70
128
71
79
72
76
73
75
0
VERTEX
8
OBJECT__0
10
0
20
0
30
0
70
128
71
77
72
74
73
72
0
VERTEX
8
OBJECT__0
10
0
20
0
30
0
70
128
71
73
72
68
73
66
0
VERTEX
8
OBJECT__0
10
0
20
0
30
0
70
128
71
69
72
6
73
65
0
VERTEX
8
OBJECT__0
10
0
20
0
30
0
70
128
71
62
72
115
73
8
0
VERTEX
8
OBJECT__0
10
0
20
0
30
0
70
128
71
59
72
56
73
54
0
VERTEX
8
OBJECT__0
10
0
20
0
30
0
70
128
71
55
72
52
73
51
0
VERTEX
8
OBJECT__0
10
0
20
0
30
0
70
128
71
53
72
50
73
48
0
VERTEX
8
OBJECT__0
10
0
20
0
30
0
70
128
71
49
72
44
73
42
0
VERTEX
8
OBJECT__0
10
0
20
0
30
0
70
128
71
45
72
10
73
41
0
VERTEX
8
OBJECT__0
10
0
20
0
30
0
70
128
71
38
72
116
73
12
0
VERTEX
8
OBJECT__0
10
0
20
0
30
0
70
128
71
35
72
32
73
30
0
VERTEX
8
OBJECT__0
10
0
20
0
30
0
70
128
71
31
72
28
73
27
0
VERTEX
8
OBJECT__0
10
0
20
0
30
0
70
128
71
29
72
26
73
24
0
VERTEX
8
OBJECT__0
10
0
20
0
30
0
70
128
71
25
72
20
73
18
0
VERTEX
8
OBJECT__0
10
0
20
0
30
0
70
128
71
21
72
14
73
17
0
VERTEX
8
OBJECT__0
10
0
20
0
30
0
70
128
71
15
72
108
73
16
0
VERTEX
8
OBJECT__0
10
0
20
0
30
0
70
128
71
11
72
36
73
12
0
VERTEX
8
OBJECT__0
10
0
20
0
30
0
70
128
71
7
72
60
73
8
0
VERTEX
8
OBJECT__0
10
0
20
0
30
0
70
128
71
3
72
84
73
4
0
SEQEND
8
OBJECT__0
0
POLYLINE
8
OBJECT__1
66
1
70
64
71
184
72
224
62
253
0
VERTEX
8
OBJECT__1
10
8.005501
20
-35.804001
30
5.671000
70
192
0
VERTEX
8
OBJECT__1
10
8.005501
20
-36.250999
30
0.000000
70
192
0
VERTEX
8
OBJECT__1
10
7.572500
20
-35.992001
30
0.000000
70
192
0
VERTEX
8
OBJECT__1
10
8.005501
20
-34.476002
30
11.202000
70
192
0
VERTEX
8
OBJECT__1
10
7.572500
20
-34.984001
30
7.984000
70
192
0
VERTEX
8
OBJECT__1
10
7.572500
20
-35.549000
30
5.630000
70
192
0
VERTEX
8
OBJECT__1
10
7.572500
20
-34.230999
30
11.122000
70
192
0
VERTEX
8
OBJECT__1
10
7.572500
20
-32.377998
30
15.596000
70
192
0
VERTEX
8
OBJECT__1
10
8.005501
20
-32.299000
30
16.457001
70
192
0
VERTEX
8
OBJECT__1
10
8.005501
20
-29.327000
30
21.308001
70
192
0
VERTEX
8
OBJECT__1
10
7.572500
20
-32.069000
30
16.340000
70
192
0
VERTEX
8
OBJECT__1
10
8.005501
20
-25.632999
30
25.632999
70
192
0
VERTEX
8
OBJECT__1
10
7.572500
20
-28.070999
30
22.382000
70
192
0
VERTEX
8
OBJECT__1
10
7.572500
20
-29.118000
30
21.156000
70
192
0
VERTEX
8
OBJECT__1
10
7.572500
20
-25.450001
30
25.450001
70
192
0
VERTEX
8
OBJECT__1
10
7.572500
20
-22.382000
30
28.070999
70
192
0
VERTEX
8
OBJECT__1
10
8.005501
20
-21.308001
30
29.327000
70
192
0
VERTEX
8
OBJECT__1
10
8.005501
20
-16.457001
30
32.299000
70
192
0
VERTEX
8
OBJECT__1
10
7.572500
20
-21.156000
30
29.118000
70
192
0
VERTEX
8
OBJECT__1
10
8.005501
20
-11.202000
30
34.476002
70
192
0
VERTEX
8
OBJECT__1
10
7.572500
20
-15.596000
30
32.377998
70
192
0
VERTEX
8
OBJECT__1
10
7.572500
20
-16.340000
30
32.069000
70
192
0
VERTEX
8
OBJECT__1
10
7.572500
20
-11.122000
30
34.230999
70
192
0
VERTEX
8
OBJECT__1
10
7.572500
20
-7.984000
30
34.984001
70
192
0
VERTEX
8
OBJECT__1
10
8.005501
20
-5.671000
30
35.804001
70
192
0
VERTEX
8
OBJECT__1
10
8.005501
20
0.000000
30
36.250999
70
192
0
VERTEX
8
OBJECT__1
10
7.572500
20
-5.630000
30
35.549000
70
192
0
VERTEX
8
OBJECT__1
10
8.005501
20
5.671000
30
35.804001
70
192
0
VERTEX
8
OBJECT__1
10
7.572500
20
0.000000
30
35.992001
70
192
0
VERTEX
8
OBJECT__1
10
8.005501
20
11.202000
30
34.476002
70
192
0
VERTEX
8
OBJECT__1
10
7.572500
20
7.984000
30
34.984001
70
192
0
VERTEX
8
OBJECT__1
10
7.572500
20
5.630000
30
35.549000
70
192
0
VERTEX
8
OBJECT__1
10
7.572500
20
11.122000
30
34.230999
70
192
0
VERTEX
8
OBJECT__1
10
7.572500
20
15.596000
30
32.377998
70
192
0
VERTEX
8
OBJECT__1
10
8.005501
20
16.457001
30
32.299000
70
192
0
VERTEX
8
OBJECT__1
10
8.005501
20
21.308001
30
29.327000
70
192
0
VERTEX
8
OBJECT__1
10
7.572500
20
16.340000
30
32.069000
70
192
0
VERTEX
8
OBJECT__1
10
8.005501
20
25.632999
30
25.632999
70
192
0
VERTEX
8
OBJECT__1
10
7.572500
20
22.382000
30
28.070999
70
192
0
VERTEX
8
OBJECT__1
10
7.572500
20
21.156000
30
29.118000
70
192
0
VERTEX
8
OBJECT__1
10
7.572500
20
25.450001
30
25.450001
70
192
0
VERTEX
8
OBJECT__1
10
7.572500
20
28.070999
30
22.382000
70
192
0
VERTEX
8
OBJECT__1
10
8.005501
20
29.327000
30
21.308001
70
192
0
VERTEX
8
OBJECT__1
10
7.572500
20
29.118000
30
21.156000
70
192
0
VERTEX
8
OBJECT__1
10
7.572500
20
32.069000
30
16.340000
70
192
0
VERTEX
8
OBJECT__1
10
8.005501
20
34.476002
30
11.202000
70
192
0
VERTEX
8
OBJECT__1
10
8.005501
20
32.299000
30
16.457001
70
192
0
VERTEX
8
OBJECT__1
10
7.572500
20
32.377998
30
15.596000
70
192
0
VERTEX
8
OBJECT__1
10
7.572500
20
34.230999
30
11.122000
70
192
0
VERTEX
8
OBJECT__1
10
7.572500
20
34.984001
30
7.984000
70
192
0
VERTEX
8
OBJECT__1
10
8.005501
20
35.804001
30
5.671000
70
192
0
VERTEX
8
OBJECT__1
10
7.572500
20
35.549000
30
5.630000
70
192
0
VERTEX
8
OBJECT__1
10
7.572500
20
35.992001
30
0.000000
70
192
0
VERTEX
8
OBJECT__1
10
8.005501
20
36.250999
30
0.000000
70
192
0
VERTEX
8
OBJECT__1
10
7.572500
20
35.549000
30
-5.630000
70
192
0
VERTEX
8
OBJECT__1
10
8.005501
20
34.476002
30
-11.202000
70
192
0
VERTEX
8
OBJECT__1
10
8.005501
20
35.804001
30
-5.671000
70
192
0
VERTEX
8
OBJECT__1
10
7.572500
20
34.984001
30
-7.984000
70
192
0
VERTEX
8
OBJECT__1
10
7.572500
20
34.230999
30
-11.122000
70
192
0
VERTEX
8
OBJECT__1
10
7.572500
20
32.377998
30
-15.596000
70
192
0
VERTEX
8
OBJECT__1
10
8.005501
20
32.299000
30
-16.457001
70
192
0
VERTEX
8
OBJECT__1
10
8.005501
20
29.327000
30
-21.308001
70
192
0
VERTEX
8
OBJECT__1
10
7.572500
20
32.069000
30
-16.340000
70
192
0
VERTEX
8
OBJECT__1
10
8.005501
20
25.632999
30
-25.632999
70
192
0
VERTEX
8
OBJECT__1
10
7.572500
20
28.070999
30
-22.382000
70
192
0
VERTEX
8
OBJECT__1
10
7.572500
20
29.118000
30
-21.156000
70
192
0
VERTEX
8
OBJECT__1
10
7.572500
20
25.450001
30
-25.450001
70
192
0
VERTEX
8
OBJECT__1
10
7.572500
20
22.382000
30
-28.070999
70
192
0
VERTEX
8
OBJECT__1
10
8.005501
20
21.308001
30
-29.327000
70
192
0
VERTEX
8
OBJECT__1
10
7.572500
20
21.156000
30
-29.118000
70
192
0
VERTEX
8
OBJECT__1
10
7.572500
20
16.340000
30
-32.069000
70
192
0
VERTEX
8
OBJECT__1
10
8.005501
20
11.202000
30
-34.476002
70
192
0
VERTEX
8
OBJECT__1
10
8.005501
20
16.457001
30
-32.299000
70
192
0
VERTEX
8
OBJECT__1
10
7.572500
20
15.596000
30
-32.377998
70
192
0
VERTEX
8
OBJECT__1
10
7.572500
20
11.122000
30
-34.230999
70
192
0
VERTEX
8
OBJECT__1
10
7.572500
20
7.984000
30
-34.984001
70
192
0
VERTEX
8
OBJECT__1
10
8.005501
20
5.671000
30
-35.804001
70
192
0
VERTEX
8
OBJECT__1
10
7.572500
20
5.630000
30
-35.549000
70
192
0
VERTEX
8
OBJECT__1
10
7.572500
20
0.000000
30
-35.992001
70
192
0
VERTEX
8
OBJECT__1
10
8.005501
20
0.000000
30
-36.250999
70
192
0
VERTEX
8
OBJECT__1
10
7.572500
20
-5.630000
30
-35.549000
70
192
0
VERTEX
8
OBJECT__1
10
8.005501
20
-11.202000
30
-34.476002
70
192
0
VERTEX
8
OBJECT__1
10
8.005501
20
-5.671000
30
-35.804001
70
192
0
VERTEX
8
OBJECT__1
10
7.572500
20
-7.984000
30
-34.984001
70
192
0
VERTEX
8
OBJECT__1
10
7.572500
20
-11.122000
30
-34.230999
70
192
0
VERTEX
8
OBJECT__1
10
7.572500
20
-15.596000
30
-32.377998
70
192
0
VERTEX
8
OBJECT__1
10
8.005501
20
-16.457001
30
-32.299000
70
192
0
VERTEX
8
OBJECT__1
10
7.572500
20
-16.340000
30
-32.069000
70
192
0
VERTEX
8
OBJECT__1
10
7.572500
20
-21.156000
30
-29.118000
70
192
0
VERTEX
8
OBJECT__1
10
8.005501
20
-25.632999
30
-25.632999
70
192
0
VERTEX
8
OBJECT__1
10
8.005501
20
-21.308001
30
-29.327000
70
192
0
VERTEX
8
OBJECT__1
10
7.572500
20
-22.382000
30
-28.070999
70
192
0
VERTEX
8
OBJECT__1
10
7.572500
20
-25.450001
30
-25.450001
70
192
0
VERTEX
8
OBJECT__1
10
7.572500
20
-28.070999
30
-22.382000
70
192
0
VERTEX
8
OBJECT__1
10
8.005501
20
-29.327000
30
-21.308001
70
192
0
VERTEX
8
OBJECT__1
10
8.005501
20
-32.299000
30
-16.457001
70
192
0
VERTEX
8
OBJECT__1
10
7.572500
20
-29.118000
30
-21.156000
70
192
0
VERTEX
8
OBJECT__1
10
8.005501
20
-34.476002
30
-11.202000
70
192
0
VERTEX
8
OBJECT__1
10
7.572500
20
-32.377998
30
-15.596000
70
192
0
VERTEX
8
OBJECT__1
10
7.572500
20
-32.069000
30
-16.340000
70
192
0
VERTEX
8
OBJECT__1
10
7.572500
20
-34.230999
30
-11.122000
70
192
0
VERTEX
8
OBJECT__1
10
7.572500
20
-34.984001
30
-7.984000
70
192
0
VERTEX
8
OBJECT__1
10
8.005501
20
-35.804001
30
-5.671000
70
192
0
VERTEX
8
OBJECT__1
10
7.572500
20
-35.549000
30
-5.630000
70
192
0
VERTEX
8
OBJECT__1
10
7.993500
20
-36.301998
30
5.750000
70
192
0
VERTEX
8
OBJECT__1
10
7.993500
20
-36.539001
30
2.738000
70
192
0
VERTEX
8
OBJECT__1
10
7.993500
20
-34.956001
30
11.358000
70
192
0
VERTEX
8
OBJECT__1
10
7.993500
20
-35.724998
30
8.153000
70
192
0
VERTEX
8
OBJECT__1
10
7.993500
20
-32.749001
30
16.686001
70
192
0
VERTEX
8
OBJECT__1
10
7.993500
20
-34.115002
30
13.387000
70
192
0
VERTEX
8
OBJECT__1
10
7.993500
20
-29.735001
30
21.604000
70
192
0
VERTEX
8
OBJECT__1
10
7.993500
20
-31.745001
30
18.325001
70
192
0
VERTEX
8
OBJECT__1
10
7.993500
20
-25.990000
30
25.990000
70
192
0
VERTEX
8
OBJECT__1
10
7.993500
20
-28.666000
30
22.856001
70
192
0
VERTEX
8
OBJECT__1
10
7.993500
20
-21.604000
30
29.735001
70
192
0
VERTEX
8
OBJECT__1
10
7.993500
20
-24.945999
30
26.881001
70
192
0
VERTEX
8
OBJECT__1
10
7.993500
20
-16.686001
30
32.749001
70
192
0
VERTEX
8
OBJECT__1
10
7.993500
20
-20.667999
30
30.309000
70
192
0
VERTEX
8
OBJECT__1
10
7.993500
20
-11.358000
30
34.956001
70
192
0
VERTEX
8
OBJECT__1
10
7.993500
20
-15.926000
30
33.063999
70
192
0
VERTEX
8
OBJECT__1
10
7.993500
20
-5.750000
30
36.301998
70
192
0
VERTEX
8
OBJECT__1
10
7.993500
20
-10.825000
30
35.084000
70
192
0
VERTEX
8
OBJECT__1
10
7.993500
20
0.000000
30
36.755001
70
192
0
VERTEX
8
OBJECT__1
10
7.993500
20
-5.476000
30
36.324001
70
192
0
VERTEX
8
OBJECT__1
10
7.993500
20
5.476000
30
36.324001
70
192
0
VERTEX
8
OBJECT__1
10
7.993500
20
5.750000
30
36.301998
70
192
0
VERTEX
8
OBJECT__1
10
7.993500
20
10.825000
30
35.084000
70
192
0
VERTEX
8
OBJECT__1
10
7.993500
20
11.358000
30
34.956001
70
192
0
VERTEX
8
OBJECT__1
10
7.993500
20
15.926000
30
33.063999
70
192
0
VERTEX
8
OBJECT__1
10
7.993500
20
16.686001
30
32.749001
70
192
0
VERTEX
8
OBJECT__1
10
7.993500
20
20.667999
30
30.309000
70
192
0
VERTEX
8
OBJECT__1
10
7.993500
20
21.604000
30
29.735001
70
192
0
VERTEX
8
OBJECT__1
10
7.993500
20
24.945999
30
26.881001
70
192
0
VERTEX
8
OBJECT__1
10
7.993500
20
25.990000
30
25.990000
70
192
0
VERTEX
8
OBJECT__1
10
7.993500
20
28.666000
30
22.856001
70
192
0
VERTEX
8
OBJECT__1
10
7.993500
20
29.735001
30
21.604000
70
192
0
VERTEX
8
OBJECT__1
10
7.993500
20
31.745001
30
18.325001
70
192
0
VERTEX
8
OBJECT__1
10
7.993500
20
32.749001
30
16.686001
70
192
0
VERTEX
8
OBJECT__1
10
7.993500
20
34.115002
30
13.387000
70
192
0
VERTEX
8
OBJECT__1
10
7.993500
20
34.956001
30
11.358000
70
192
0
VERTEX
8
OBJECT__1
10
7.993500
20
35.724998
30
8.153000
70
192
0
VERTEX
8
OBJECT__1
10
7.993500
20
36.301998
30
5.750000
70
192
0
VERTEX
8
OBJECT__1
10
7.993500
20
36.539001
30
2.738000
70
192
0
VERTEX
8
OBJECT__1
10
7.993500
20
36.755001
30
0.000000
70
192
0
VERTEX
8
OBJECT__1
10
7.993500
20
36.301998
30
-5.750000
70
192
0
VERTEX
8
OBJECT__1
10
7.993500
20
36.539001
30
-2.738000
70
192
0
VERTEX
8
OBJECT__1
10
7.993500
20
34.956001
30
-11.358000
70
192
0
VERTEX
8
OBJECT__1
10
7.993500
20
35.724998
30
-8.153000
70
192
0
VERTEX
8
OBJECT__1
10
7.993500
20
32.749001
30
-16.686001
70
192
0
VERTEX
8
OBJECT__1
10
7.993500
20
34.115002
30
-13.387000
70
192
0
VERTEX
8
OBJECT__1
10
7.993500
20
29.735001
30
-21.604000
70
192
0
VERTEX
8
OBJECT__1
10
7.993500
20
31.745001
30
-18.325001
70
192
0
VERTEX
8
OBJECT__1
10
7.993500
20
25.990000
30
-25.990000
70
192
0
VERTEX
8
OBJECT__1
10
7.993500
20
28.666000
30
-22.856001
70
192
0
VERTEX
8
OBJECT__1
10
7.993500
20
21.604000
30
-29.735001
70
192
0
VERTEX
8
OBJECT__1
10
7.993500
20
24.945999
30
-26.881001
70
192
0
VERTEX
8
OBJECT__1
10
7.993500
20
16.686001
30
-32.749001
70
192
0
VERTEX
8
OBJECT__1
10
7.993500
20
20.667999
30
-30.309000
70
192
0
VERTEX
8
OBJECT__1
10
7.993500
20
11.358000
30
-34.956001
70
192
0
VERTEX
8
OBJECT__1
10
7.993500
20
15.926000
30
-33.063999
70
192
0
VERTEX
8
OBJECT__1
10
7.993500
20
5.750000
30
-36.301998
70
192
0
VERTEX
8
OBJECT__1
10
7.993500
20
10.825000
30
-35.084000
70
192
0
VERTEX
8
OBJECT__1
10
7.993500
20
0.000000
30
-36.755001
70
192
0
VERTEX
8
OBJECT__1
10
7.993500
20
5.476000
30
-36.324001
70
192
0
VERTEX
8
OBJECT__1
10
7.993500
20
-5.476000
30
-36.324001
70
192
0
VERTEX
8
OBJECT__1
10
7.993500
20
-5.750000
30
-36.301998
70
192
0
VERTEX
8
OBJECT__1
10
7.993500
20
-10.825000
30
-35.084000
70
192
0
VERTEX
8
OBJECT__1
10
7.993500
20
-11.358000
30
-34.956001
70
192
0
VERTEX
8
OBJECT__1
10
7.993500
20
-15.926000
30
-33.063999
70
192
0
VERTEX
8
OBJECT__1
10
7.993500
20
-16.686001
30
-32.749001
70
192
0
VERTEX
8
OBJECT__1
10
7.993500
20
-20.667999
30
-30.309000
70
192
0
VERTEX
8
OBJECT__1
10
7.993500
20
-21.604000
30
-29.735001
70
192
0
VERTEX
8
OBJECT__1
10
7.993500
20
-24.945999
30
-26.881001
70
192
0
VERTEX
8
OBJECT__1
10
7.993500
20
-25.990000
30
-25.990000
70
192
0
VERTEX
8
OBJECT__1
10
7.993500
20
-28.666000
30
-22.856001
70
192
0
VERTEX
8
OBJECT__1
10
7.993500
20
-29.735001
30
-21.604000
70
192
0
VERTEX
8
OBJECT__1
10
7.993500
20
-31.745001
30
-18.325001
70
192
0
VERTEX
8
OBJECT__1
10
7.993500
20
-32.749001
30
-16.686001
70
192
0
VERTEX
8
OBJECT__1
10
7.993500
20
-34.115002
30
-13.387000
70
192
0
VERTEX
8
OBJECT__1
10
7.993500
20
-34.956001
30
-11.358000
70
192
0
VERTEX
8
OBJECT__1
10
7.993500
20
-35.724998
30
-8.153000
70
192
0
VERTEX
8
OBJECT__1
10
7.993500
20
-36.301998
30
-5.750000
70
192
0
VERTEX
8
OBJECT__1
10
7.993500
20
-36.539001
30
-2.738000
70
192
0
VERTEX
8
OBJECT__1
10
7.993500
20
-36.755001
30
0.000000
70
192
0
VERTEX
8
OBJECT__1
10
0
20
0
30
0
70
128
71
1
72
2
73
3
0
VERTEX
8
OBJECT__1
10
0
20
0
30
0
70
128
71
4
72
1
73
5
0
VERTEX
8
OBJECT__1
10
0
20
0
30
0
70
128
71
1
72
6
73
5
0
VERTEX
8
OBJECT__1
10
0
20
0
30
0
70
128
71
4
72
7
73
8
0
VERTEX
8
OBJECT__1
10
0
20
0
30
0
70
128
71
8
72
9
73
4
0
VERTEX
8
OBJECT__1
10
0
20
0
30
0
70
128
71
10
72
9
73
11
0
VERTEX
8
OBJECT__1
10
0
20
0
30
0
70
128
71
12
72
10
73
13
0
VERTEX
8
OBJECT__1
10
0
20
0
30
0
70
128
71
10
72
14
73
13
0
VERTEX
8
OBJECT__1
10
0
20
0
30
0
70
128
71
12
72
15
73
16
0
VERTEX
8
OBJECT__1
10
0
20
0
30
0
70
128
71
16
72
17
73
12
0
VERTEX
8
OBJECT__1
10
0
20
0
30
0
70
128
71
18
72
17
73
19
0
VERTEX
8
OBJECT__1
10
0
20
0
30
0
70
128
71
20
72
18
73
21
0
VERTEX
8
OBJECT__1
10
0
20
0
30
0
70
128
71
18
72
22
73
21
0
VERTEX
8
OBJECT__1
10
0
20
0
30
0
70
128
71
20
72
23
73
24
0
VERTEX
8
OBJECT__1
10
0
20
0
30
0
70
128
71
24
72
25
73
20
0
VERTEX
8
OBJECT__1
10
0
20
0
30
0
70
128
71
26
72
25
73
27
0
VERTEX
8
OBJECT__1
10
0
20
0
30
0
70
128
71
28
72
26
73
29
0
VERTEX
8
OBJECT__1
10
0
20
0
30
0
70
128
71
30
72
28
73
31
0
VERTEX
8
OBJECT__1
10
0
20
0
30
0
70
128
71
28
72
32
73
31
0
VERTEX
8
OBJECT__1
10
0
20
0
30
0
70
128
71
30
72
33
73
34
0
VERTEX
8
OBJECT__1
10
0
20
0
30
0
70
128
71
34
72
35
73
30
0
VERTEX
8
OBJECT__1
10
0
20
0
30
0
70
128
71
36
72
35
73
37
0
VERTEX
8
OBJECT__1
10
0
20
0
30
0
70
128
71
38
72
36
73
39
0
VERTEX
8
OBJECT__1
10
0
20
0
30
0
70
128
71
36
72
40
73
39
0
VERTEX
8
OBJECT__1
10
0
20
0
30
0
70
128
71
38
72
41
73
42
0
VERTEX
8
OBJECT__1
10
0
20
0
30
0
70
128
71
42
72
43
73
38
0
VERTEX
8
OBJECT__1
10
0
20
0
30
0
70
128
71
43
72
44
73
45
0
VERTEX
8
OBJECT__1
10
0
20
0
30
0
70
128
71
46
72
47
73
48
0
VERTEX
8
OBJECT__1
10
0
20
0
30
0
70
128
71
47
72
45
73
48
0
VERTEX
8
OBJECT__1
10
0
20
0
30
0
70
128
71
46
72
49
73
50
0
VERTEX
8
OBJECT__1
10
0
20
0
30
0
70
128
71
50
72
51
73
46
0
VERTEX
8
OBJECT__1
10
0
20
0
30
0
70
128
71
51
72
52
73
53
0
VERTEX
8
OBJECT__1
10
0
20
0
30
0
70
128
71
54
72
53
73
55
0
VERTEX
8
OBJECT__1
10
0
20
0
30
0
70
128
71
56
72
57
73
58
0
VERTEX
8
OBJECT__1
10
0
20
0
30
0
70
128
71
57
72
55
73
58
0
VERTEX
8
OBJECT__1
10
0
20
0
30
0
70
128
71
56
72
59
73
60
0
VERTEX
8
OBJECT__1
10
0
20
0
30
0
70
128
71
60
72
61
73
56
0
VERTEX
8
OBJECT__1
10
0
20
0
30
0
70
128
71
62
72
61
73
63
0
VERTEX
8
OBJECT__1
10
0
20
0
30
0
70
128
71
64
72
62
73
65
0
VERTEX
8
OBJECT__1
10
0
20
0
30
0
70
128
71
62
72
66
73
65
0
VERTEX
8
OBJECT__1
10
0
20
0
30
0
70
128
71
64
72
67
73
68
0
VERTEX
8
OBJECT__1
10
0
20
0
30
0
70
128
71
68
72
69
73
64
0
VERTEX
8
OBJECT__1
10
0
20
0
30
0
70
128
71
69
72
70
73
71
0
VERTEX
8
OBJECT__1
10
0
20
0
30
0
70
128
71
72
72
73
73
74
0
VERTEX
8
OBJECT__1
10
0
20
0
30
0
70
128
71
73
72
71
73
74
0
VERTEX
8
OBJECT__1
10
0
20
0
30
0
70
128
71
72
72
75
73
76
0
VERTEX
8
OBJECT__1
10
0
20
0
30
0
70
128
71
76
72
77
73
72
0
VERTEX
8
OBJECT__1
10
0
20
0
30
0
70
128
71
77
72
78
73
79
0
VERTEX
8
OBJECT__1
10
0
20
0
30
0
70
128
71
80
72
79
73
81
0
VERTEX
8
OBJECT__1
10
0
20
0
30
0
70
128
71
82
72
83
73
84
0
VERTEX
8
OBJECT__1
10
0
20
0
30
0
70
128
71
83
72
81
73
84
0
VERTEX
8
OBJECT__1
10
0
20
0
30
0
70
128
71
82
72
85
73
86
0
VERTEX
8
OBJECT__1
10
0
20
0
30
0
70
128
71
86
72
87
73
82
0
VERTEX
8
OBJECT__1
10
0
20
0
30
0
70
128
71
87
72
88
73
89
0
VERTEX
8
OBJECT__1
10
0
20
0
30
0
70
128
71
90
72
91
73
92
0
VERTEX
8
OBJECT__1
10
0
20
0
30
0
70
128
71
91
72
89
73
92
0
VERTEX
8
OBJECT__1
10
0
20
0
30
0
70
128
71
90
72
93
73
94
0
VERTEX
8
OBJECT__1
10
0
20
0
30
0
70
128
71
94
72
95
73
90
0
VERTEX
8
OBJECT__1
10
0
20
0
30
0
70
128
71
96
72
95
73
97
0
VERTEX
8
OBJECT__1
10
0
20
0
30
0
70
128
71
98
72
96
73
99
0
VERTEX
8
OBJECT__1
10
0
20
0
30
0
70
128
71
96
72
100
73
99
0
VERTEX
8
OBJECT__1
10
0
20
0
30
0
70
128
71
98
72
101
73
102
0
VERTEX
8
OBJECT__1
10
0
20
0
30
0
70
128
71
102
72
103
73
98
0
VERTEX
8
OBJECT__1
10
0
20
0
30
0
70
128
71
2
72
103
73
104
0
VERTEX
8
OBJECT__1
10
0
20
0
30
0
70
128
71
1
72
105
73
106
0
VERTEX
8
OBJECT__1
10
0
20
0
30
0
70
128
71
106
72
2
73
1
0
VERTEX
8
OBJECT__1
10
0
20
0
30
0
70
128
71
4
72
107
73
108
0
VERTEX
8
OBJECT__1
10
0
20
0
30
0
70
128
71
108
72
1
73
4
0
VERTEX
8
OBJECT__1
10
0
20
0
30
0
70
128
71
9
72
109
73
110
0
VERTEX
8
OBJECT__1
10
0
20
0
30
0
70
128
71
110
72
4
73
9
0
VERTEX
8
OBJECT__1
10
0
20
0
30
0
70
128
71
10
72
111
73
112
0
VERTEX
8
OBJECT__1
10
0
20
0
30
0
70
128
71
112
72
9
73
10
0
VERTEX
8
OBJECT__1
10
0
20
0
30
0
70
128
71
12
72
113
73
114
0
VERTEX
8
OBJECT__1
10
0
20
0
30
0
70
128
71
114
72
10
73
12
0
VERTEX
8
OBJECT__1
10
0
20
0
30
0
70
128
71
17
72
115
73
116
0
VERTEX
8
OBJECT__1
10
0
20
0
30
0
70
128
71
116
72
12
73
17
0
VERTEX
8
OBJECT__1
10
0
20
0
30
0
70
128
71
18
72
117
73
118
0
VERTEX
8
OBJECT__1
10
0
20
0
30
0
70
128
71
118
72
17
73
18
0
VERTEX
8
OBJECT__1
10
0
20
0
30
0
70
128
71
20
72
119
73
120
0
VERTEX
8
OBJECT__1
10
0
20
0
30
0
70
128
71
120
72
18
73
20
0
VERTEX
8
OBJECT__1
10
0
20
0
30
0
70
128
71
25
72
121
73
122
0
VERTEX
8
OBJECT__1
10
0
20
0
30
0
70
128
71
122
72
20
73
25
0
VERTEX
8
OBJECT__1
10
0
20
0
30
0
70
128
71
26
72
123
73
124
0
VERTEX
8
OBJECT__1
10
0
20
0
30
0
70
128
71
124
72
25
73
26
0
VERTEX
8
OBJECT__1
10
0
20
0
30
0
70
128
71
26
72
28
73
125
0
VERTEX
8
OBJECT__1
10
0
20
0
30
0
70
128
71
28
72
126
73
125
0
VERTEX
8
OBJECT__1
10
0
20
0
30
0
70
128
71
28
72
30
73
127
0
VERTEX
8
OBJECT__1
10
0
20
0
30
0
70
128
71
30
72
128
73
127
0
VERTEX
8
OBJECT__1
10
0
20
0
30
0
70
128
71
30
72
35
73
129
0
VERTEX
8
OBJECT__1
10
0
20
0
30
0
70
128
71
35
72
130
73
129
0
VERTEX
8
OBJECT__1
10
0
20
0
30
0
70
128
71
35
72
36
73
131
0
VERTEX
8
OBJECT__1
10
0
20
0
30
0
70
128
71
36
72
132
73
131
0
VERTEX
8
OBJECT__1
10
0
20
0
30
0
70
128
71
36
72
38
73
133
0
VERTEX
8
OBJECT__1
10
0
20
0
30
0
70
128
71
38
72
134
73
133
0
VERTEX
8
OBJECT__1
10
0
20
0
30
0
70
128
71
38
72
43
73
135
0
VERTEX
8
OBJECT__1
10
0
20
0
30
0
70
128
71
43
72
136
73
135
0
VERTEX
8
OBJECT__1
10
0
20
0
30
0
70
128
71
43
72
47
73
137
0
VERTEX
8
OBJECT__1
10
0
20
0
30
0
70
128
71
47
72
138
73
137
0
VERTEX
8
OBJECT__1
10
0
20
0
30
0
70
128
71
47
72
46
73
139
0
VERTEX
8
OBJECT__1
10
0
20
0
30
0
70
128
71
46
72
140
73
139
0
VERTEX
8
OBJECT__1
10
0
20
0
30
0
70
128
71
46
72
51
73
141
0
VERTEX
8
OBJECT__1
10
0
20
0
30
0
70
128
71
51
72
142
73
141
0
VERTEX
8
OBJECT__1
10
0
20
0
30
0
70
128
71
51
72
54
73
143
0
VERTEX
8
OBJECT__1
10
0
20
0
30
0
70
128
71
54
72
144
73
143
0
VERTEX
8
OBJECT__1
10
0
20
0
30
0
70
128
71
57
72
145
73
146
0
VERTEX
8
OBJECT__1
10
0
20
0
30
0
70
128
71
146
72
54
73
57
0
VERTEX
8
OBJECT__1
10
0
20
0
30
0
70
128
71
56
72
147
73
148
0
VERTEX
8
OBJECT__1
10
0
20
0
30
0
70
128
71
148
72
57
73
56
0
VERTEX
8
OBJECT__1
10
0
20
0
30
0
70
128
71
61
72
149
73
150
0
VERTEX
8
OBJECT__1
10
0
20
0
30
0
70
128
71
150
72
56
73
61
0
VERTEX
8
OBJECT__1
10
0
20
0
30
0
70
128
71
62
72
151
73
152
0
VERTEX
8
OBJECT__1
10
0
20
0
30
0
70
128
71
152
72
61
73
62
0
VERTEX
8
OBJECT__1
10
0
20
0
30
0
70
128
71
64
72
153
73
154
0
VERTEX
8
OBJECT__1
10
0
20
0
30
0
70
128
71
154
72
62
73
64
0
VERTEX
8
OBJECT__1
10
0
20
0
30
0
70
128
71
69
72
155
73
156
0
VERTEX
8
OBJECT__1
10
0
20
0
30
0
70
128
71
156
72
64
73
69
0
VERTEX
8
OBJECT__1
10
0
20
0
30
0
70
128
71
73
72
157
73
158
0
VERTEX
8
OBJECT__1
10
0
20
0
30
0
70
128
71
158
72
69
73
73
0
VERTEX
8
OBJECT__1
10
0
20
0
30
0
70
128
71
72
72
159
73
160
0
VERTEX
8
OBJECT__1
10
0
20
0
30
0
70
128
71
160
72
73
73
72
0
VERTEX
8
OBJECT__1
10
0
20
0
30
0
70
128
71
77
72
161
73
162
0
VERTEX
8
OBJECT__1
10
0
20
0
30
0
70
128
71
162
72
72
73
77
0
VERTEX
8
OBJECT__1
10
0
20
0
30
0
70
128
71
80
72
163
73
164
0
VERTEX
8
OBJECT__1
10
0
20
0
30
0
70
128
71
164
72
77
73
80
0
VERTEX
8
OBJECT__1
10
0
20
0
30
0
70
128
71
80
72
83
73
165
0
VERTEX
8
OBJECT__1
10
0
20
0
30
0
70
128
71
83
72
166
73
165
0
VERTEX
8
OBJECT__1
10
0
20
0
30
0
70
128
71
83
72
82
73
167
0
VERTEX
8
OBJECT__1
10
0
20
0
30
0
70
128
71
82
72
168
73
167
0
VERTEX
8
OBJECT__1
10
0
20
0
30
0
70
128
71
82
72
87
73
169
0
VERTEX
8
OBJECT__1
10
0
20
0
30
0
70
128
71
87
72
170
73
169
0
VERTEX
8
OBJECT__1
10
0
20
0
30
0
70
128
71
87
72
91
73
171
0
VERTEX
8
OBJECT__1
10
0
20
0
30
0
70
128
71
91
72
172
73
171
0
VERTEX
8
OBJECT__1
10
0
20
0
30
0
70
128
71
91
72
90
73
173
0
VERTEX
8
OBJECT__1
10
0
20
0
30
0
70
128
71
90
72
174
73
173
0
VERTEX
8
OBJECT__1
10
0
20
0
30
0
70
128
71
90
72
95
73
175
0
VERTEX
8
OBJECT__1
10
0
20
0
30
0
70
128
71
95
72
176
73
175
0
VERTEX
8
OBJECT__1
10
0
20
0
30
0
70
128
71
95
72
96
73
177
0
VERTEX
8
OBJECT__1
10
0
20
0
30
0
70
128
71
96
72
178
73
177
0
VERTEX
8
OBJECT__1
10
0
20
0
30
0
70
128
71
96
72
98
73
179
0
VERTEX
8
OBJECT__1
10
0
20
0
30
0
70
128
71
98
72
180
73
179
0
VERTEX
8
OBJECT__1
10
0
20
0
30
0
70
128
71
98
72
103
73
181
0
VERTEX
8
OBJECT__1
10
0
20
0
30
0
70
128
71
103
72
182
73
181
0
VERTEX
8
OBJECT__1
10
0
20
0
30
0
70
128
71
103
72
2
73
183
0
VERTEX
8
OBJECT__1
10
0
20
0
30
0
70
128
71
2
72
184
73
183
0
VERTEX
8
OBJECT__1
10
0
20
0
30
0
70
128
71
183
72
182
73
103
0
VERTEX
8
OBJECT__1
10
0
20
0
30
0
70
128
71
181
72
180
73
98
0
VERTEX
8
OBJECT__1
10
0
20
0
30
0
70
128
71
179
72
178
73
96
0
VERTEX
8
OBJECT__1
10
0
20
0
30
0
70
128
71
177
72
176
73
95
0
VERTEX
8
OBJECT__1
10
0
20
0
30
0
70
128
71
175
72
174
73
90
0
VERTEX
8
OBJECT__1
10
0
20
0
30
0
70
128
71
173
72
172
73
91
0
VERTEX
8
OBJECT__1
10
0
20
0
30
0
70
128
71
171
72
170
73
87
0
VERTEX
8
OBJECT__1
10
0
20
0
30
0
70
128
71
169
72
168
73
82
0
VERTEX
8
OBJECT__1
10
0
20
0
30
0
70
128
71
167
72
166
73
83
0
VERTEX
8
OBJECT__1
10
0
20
0
30
0
70
128
71
165
72
163
73
80
0
VERTEX
8
OBJECT__1
10
0
20
0
30
0
70
128
71
164
72
161
73
77
0
VERTEX
8
OBJECT__1
10
0
20
0
30
0
70
128
71
162
72
159
73
72
0
VERTEX
8
OBJECT__1
10
0
20
0
30
0
70
128
71
160
72
157
73
73
0
VERTEX
8
OBJECT__1
10
0
20
0
30
0
70
128
71
158
72
155
73
69
0
VERTEX
8
OBJECT__1
10
0
20
0
30
0
70
128
71
156
72
153
73
64
0
VERTEX
8
OBJECT__1
10
0
20
0
30
0
70
128
71
154
72
151
73
62
0
VERTEX
8
OBJECT__1
10
0
20
0
30
0
70
128
71
152
72
149
73
61
0
VERTEX
8
OBJECT__1
10
0
20
0
30
0
70
128
71
150
72
147
73
56
0
VERTEX
8
OBJECT__1
10
0
20
0
30
0
70
128
71
148
72
145
73
57
0
VERTEX
8
OBJECT__1
10
0
20
0
30
0
70
128
71
146
72
144
73
54
0
VERTEX
8
OBJECT__1
10
0
20
0
30
0
70
128
71
143
72
142
73
51
0
VERTEX
8
OBJECT__1
10
0
20
0
30
0
70
128
71
141
72
140
73
46
0
VERTEX
8
OBJECT__1
10
0
20
0
30
0
70
128
71
139
72
138
73
47
0
VERTEX
8
OBJECT__1
10
0
20
0
30
0
70
128
71
137
72
136
73
43
0
VERTEX
8
OBJECT__1
10
0
20
0
30
0
70
128
71
135
72
134
73
38
0
VERTEX
8
OBJECT__1
10
0
20
0
30
0
70
128
71
133
72
132
73
36
0
VERTEX
8
OBJECT__1
10
0
20
0
30
0
70
128
71
131
72
130
73
35
0
VERTEX
8
OBJECT__1
10
0
20
0
30
0
70
128
71
129
72
128
73
30
0
VERTEX
8
OBJECT__1
10
0
20
0
30
0
70
128
71
127
72
126
73
28
0
VERTEX
8
OBJECT__1
10
0
20
0
30
0
70
128
71
125
72
123
73
26
0
VERTEX
8
OBJECT__1
10
0
20
0
30
0
70
128
71
124
72
121
73
25
0
VERTEX
8
OBJECT__1
10
0
20
0
30
0
70
128
71
122
72
119
73
20
0
VERTEX
8
OBJECT__1
10
0
20
0
30
0
70
128
71
120
72
117
73
18
0
VERTEX
8
OBJECT__1
10
0
20
0
30
0
70
128
71
118
72
115
73
17
0
VERTEX
8
OBJECT__1
10
0
20
0
30
0
70
128
71
116
72
113
73
12
0
VERTEX
8
OBJECT__1
10
0
20
0
30
0
70
128
71
114
72
111
73
10
0
VERTEX
8
OBJECT__1
10
0
20
0
30
0
70
128
71
112
72
109
73
9
0
VERTEX
8
OBJECT__1
10
0
20
0
30
0
70
128
71
110
72
107
73
4
0
VERTEX
8
OBJECT__1
10
0
20
0
30
0
70
128
71
108
72
105
73
1
0
VERTEX
8
OBJECT__1
10
0
20
0
30
0
70
128
71
106
72
184
73
2
0
VERTEX
8
OBJECT__1
10
0
20
0
30
0
70
128
71
104
72
3
73
2
0
VERTEX
8
OBJECT__1
10
0
20
0
30
0
70
128
71
102
72
104
73
103
0
VERTEX
8
OBJECT__1
10
0
20
0
30
0
70
128
71
99
72
101
73
98
0
VERTEX
8
OBJECT__1
10
0
20
0
30
0
70
128
71
97
72
100
73
96
0
VERTEX
8
OBJECT__1
10
0
20
0
30
0
70
128
71
94
72
97
73
95
0
VERTEX
8
OBJECT__1
10
0
20
0
30
0
70
128
71
92
72
93
73
90
0
VERTEX
8
OBJECT__1
10
0
20
0
30
0
70
128
71
89
72
91
73
87
0
VERTEX
8
OBJECT__1
10
0
20
0
30
0
70
128
71
86
72
88
73
87
0
VERTEX
8
OBJECT__1
10
0
20
0
30
0
70
128
71
84
72
85
73
82
0
VERTEX
8
OBJECT__1
10
0
20
0
30
0
70
128
71
81
72
83
73
80
0
VERTEX
8
OBJECT__1
10
0
20
0
30
0
70
128
71
79
72
80
73
77
0
VERTEX
8
OBJECT__1
10
0
20
0
30
0
70
128
71
76
72
78
73
77
0
VERTEX
8
OBJECT__1
10
0
20
0
30
0
70
128
71
74
72
75
73
72
0
VERTEX
8
OBJECT__1
10
0
20
0
30
0
70
128
71
71
72
73
73
69
0
VERTEX
8
OBJECT__1
10
0
20
0
30
0
70
128
71
68
72
70
73
69
0
VERTEX
8
OBJECT__1
10
0
20
0
30
0
70
128
71
65
72
67
73
64
0
VERTEX
8
OBJECT__1
10
0
20
0
30
0
70
128
71
63
72
66
73
62
0
VERTEX
8
OBJECT__1
10
0
20
0
30
0
70
128
71
60
72
63
73
61
0
VERTEX
8
OBJECT__1
10
0
20
0
30
0
70
128
71
58
72
59
73
56
0
VERTEX
8
OBJECT__1
10
0
20
0
30
0
70
128
71
55
72
57
73
54
0
VERTEX
8
OBJECT__1
10
0
20
0
30
0
70
128
71
53
72
54
73
51
0
VERTEX
8
OBJECT__1
10
0
20
0
30
0
70
128
71
50
72
52
73
51
0
VERTEX
8
OBJECT__1
10
0
20
0
30
0
70
128
71
48
72
49
73
46
0
VERTEX
8
OBJECT__1
10
0
20
0
30
0
70
128
71
45
72
47
73
43
0
VERTEX
8
OBJECT__1
10
0
20
0
30
0
70
128
71
42
72
44
73
43
0
VERTEX
8
OBJECT__1
10
0
20
0
30
0
70
128
71
39
72
41
73
38
0
VERTEX
8
OBJECT__1
10
0
20
0
30
0
70
128
71
37
72
40
73
36
0
VERTEX
8
OBJECT__1
10
0
20
0
30
0
70
128
71
34
72
37
73
35
0
VERTEX
8
OBJECT__1
10
0
20
0
30
0
70
128
71
31
72
33
73
30
0
VERTEX
8
OBJECT__1
10
0
20
0
30
0
70
128
71
29
72
32
73
28
0
VERTEX
8
OBJECT__1
10
0
20
0
30
0
70
128
71
27
72
29
73
26
0
VERTEX
8
OBJECT__1
10
0
20
0
30
0
70
128
71
24
72
27
73
25
0
VERTEX
8
OBJECT__1
10
0
20
0
30
0
70
128
71
21
72
23
73
20
0
VERTEX
8
OBJECT__1
10
0
20
0
30
0
70
128
71
19
72
22
73
18
0
VERTEX
8
OBJECT__1
10
0
20
0
30
0
70
128
71
16
72
19
73
17
0
VERTEX
8
OBJECT__1
10
0
20
0
30
0
70
128
71
13
72
15
73
12
0
VERTEX
8
OBJECT__1
10
0
20
0
30
0
70
128
71
11
72
14
73
10
0
VERTEX
8
OBJECT__1
10
0
20
0
30
0
70
128
71
8
72
11
73
9
0
VERTEX
8
OBJECT__1
10
0
20
0
30
0
70
128
71
5
72
7
73
4
0
VERTEX
8
OBJECT__1
10
0
20
0
30
0
70
128
71
3
72
6
73
1
0
SEQEND
8
OBJECT__1
0
POLYLINE
8
OBJECT__3
66
1
70
64
71
164
72
164
62
253
0
VERTEX
8
OBJECT__3
10
7.993500
20
0.000000
30
36.755001
70
192
0
VERTEX
8
OBJECT__3
10
5.073500
20
0.000000
30
40.999001
70
192
0
VERTEX
8
OBJECT__3
10
5.073500
20
-3.072000
30
40.999001
70
192
0
VERTEX
8
OBJECT__3
10
7.993500
20
-5.476000
30
36.324001
70
192
0
VERTEX
8
OBJECT__3
10
7.993500
20
-10.825000
30
35.084000
70
192
0
VERTEX
8
OBJECT__3
10
7.993500
20
-5.750000
30
36.301998
70
192
0
VERTEX
8
OBJECT__3
10
5.073500
20
-9.149000
30
40.083000
70
192
0
VERTEX
8
OBJECT__3
10
5.073500
20
-6.111000
30
40.541000
70
192
0
VERTEX
8
OBJECT__3
10
5.073500
20
-12.085000
30
39.176998
70
192
0
VERTEX
8
OBJECT__3
10
7.993500
20
-15.926000
30
33.063999
70
192
0
VERTEX
8
OBJECT__3
10
7.993500
20
-11.358000
30
34.956001
70
192
0
VERTEX
8
OBJECT__3
10
5.073500
20
-15.020000
30
38.271999
70
192
0
VERTEX
8
OBJECT__3
10
5.073500
20
-17.789000
30
36.938000
70
192
0
VERTEX
8
OBJECT__3
10
7.993500
20
-20.667999
30
30.309000
70
192
0
VERTEX
8
OBJECT__3
10
7.993500
20
-16.686001
30
32.749001
70
192
0
VERTEX
8
OBJECT__3
10
5.073500
20
-20.556999
30
35.605000
70
192
0
VERTEX
8
OBJECT__3
10
5.073500
20
-23.094999
30
33.875000
70
192
0
VERTEX
8
OBJECT__3
10
7.993500
20
-24.945999
30
26.881001
70
192
0
VERTEX
8
OBJECT__3
10
7.993500
20
-21.604000
30
29.735001
70
192
0
VERTEX
8
OBJECT__3
10
5.073500
20
-25.634001
30
32.144001
70
192
0
VERTEX
8
OBJECT__3
10
5.073500
20
-27.886000
30
30.054001
70
192
0
VERTEX
8
OBJECT__3
10
5.073500
20
-30.138000
30
27.964001
70
192
0
VERTEX
8
OBJECT__3
10
7.993500
20
-25.990000
30
25.990000
70
192
0
VERTEX
8
OBJECT__3
10
7.993500
20
-28.666000
30
22.856001
70
192
0
VERTEX
8
OBJECT__3
10
5.073500
20
-32.054001
30
25.562000
70
192
0
VERTEX
8
OBJECT__3
10
5.073500
20
-33.970001
30
23.160000
70
192
0
VERTEX
8
OBJECT__3
10
7.993500
20
-29.735001
30
21.604000
70
192
0
VERTEX
8
OBJECT__3
10
7.993500
20
-31.745001
30
18.325001
70
192
0
VERTEX
8
OBJECT__3
10
5.073500
20
-35.506001
30
20.499001
70
192
0
VERTEX
8
OBJECT__3
10
5.073500
20
-37.042000
30
17.839001
70
192
0
VERTEX
8
OBJECT__3
10
7.993500
20
-32.749001
30
16.686001
70
192
0
VERTEX
8
OBJECT__3
10
7.993500
20
-34.115002
30
13.387000
70
192
0
VERTEX
8
OBJECT__3
10
5.073500
20
-38.165001
30
14.978000
70
192
0
VERTEX
8
OBJECT__3
10
5.073500
20
-39.286999
30
12.118000
70
192
0
VERTEX
8
OBJECT__3
10
7.993500
20
-34.956001
30
11.358000
70
192
0
VERTEX
8
OBJECT__3
10
7.993500
20
-35.724998
30
8.153000
70
192
0
VERTEX
8
OBJECT__3
10
5.073500
20
-39.971001
30
9.123000
70
192
0
VERTEX
8
OBJECT__3
10
5.073500
20
-40.653999
30
6.128000
70
192
0
VERTEX
8
OBJECT__3
10
7.993500
20
-36.301998
30
5.750000
70
192
0
VERTEX
8
OBJECT__3
10
5.073500
20
-40.883999
30
3.064000
70
192
0
VERTEX
8
OBJECT__3
10
7.993500
20
-36.539001
30
2.738000
70
192
0
VERTEX
8
OBJECT__3
10
5.073500
20
-41.113998
30
0.000000
70
192
0
VERTEX
8
OBJECT__3
10
7.993500
20
-36.755001
30
0.000000
70
192
0
VERTEX
8
OBJECT__3
10
5.073500
20
-40.883999
30
-3.064000
70
192
0
VERTEX
8
OBJECT__3
10
7.993500
20
-36.539001
30
-2.738000
70
192
0
VERTEX
8
OBJECT__3
10
5.073500
20
-40.653999
30
-6.128000
70
192
0
VERTEX
8
OBJECT__3
10
7.993500
20
-36.301998
30
-5.750000
70
192
0
VERTEX
8
OBJECT__3
10
5.073500
20
-39.971001
30
-9.123000
70
192
0
VERTEX
8
OBJECT__3
10
7.993500
20
-35.724998
30
-8.153000
70
192
0
VERTEX
8
OBJECT__3
10
5.073500
20
-39.286999
30
-12.118000
70
192
0
VERTEX
8
OBJECT__3
10
5.073500
20
-38.165001
30
-14.978000
70
192
0
VERTEX
8
OBJECT__3
10
7.993500
20
-34.115002
30
-13.387000
70
192
0
VERTEX
8
OBJECT__3
10
7.993500
20
-34.956001
30
-11.358000
70
192
0
VERTEX
8
OBJECT__3
10
5.073500
20
-37.042000
30
-17.839001
70
192
0
VERTEX
8
OBJECT__3
10
5.073500
20
-35.506001
30
-20.499001
70
192
0
VERTEX
8
OBJECT__3
10
7.993500
20
-31.745001
30
-18.325001
70
192
0
VERTEX
8
OBJECT__3
10
7.993500
20
-32.749001
30
-16.686001
70
192
0
VERTEX
8
OBJECT__3
10
5.073500
20
-33.970001
30
-23.160000
70
192
0
VERTEX
8
OBJECT__3
10
5.073500
20
-32.054001
30
-25.562000
70
192
0
VERTEX
8
OBJECT__3
10
7.993500
20
-28.666000
30
-22.856001
70
192
0
VERTEX
8
OBJECT__3
10
7.993500
20
-29.735001
30
-21.604000
70
192
0
VERTEX
8
OBJECT__3
10
5.073500
20
-30.138000
30
-27.964001
70
192
0
VERTEX
8
OBJECT__3
10
5.073500
20
-27.886000
30
-30.054001
70
192
0
VERTEX
8
OBJECT__3
10
7.993500
20
-24.945999
30
-26.881001
70
192
0
VERTEX
8
OBJECT__3
10
7.993500
20
-25.990000
30
-25.990000
70
192
0
VERTEX
8
OBJECT__3
10
5.073500
20
-25.634001
30
-32.144001
70
192
0
VERTEX
8
OBJECT__3
10
7.993500
20
-21.604000
30
-29.735001
70
192
0
VERTEX
8
OBJECT__3
10
5.073500
20
-23.094999
30
-33.875000
70
192
0
VERTEX
8
OBJECT__3
10
7.993500
20
-20.667999
30
-30.309000
70
192
0
VERTEX
8
OBJECT__3
10
5.073500
20
-20.556999
30
-35.605000
70
192
0
VERTEX
8
OBJECT__3
10
7.993500
20
-16.686001
30
-32.749001
70
192
0
VERTEX
8
OBJECT__3
10
5.073500
20
-17.789000
30
-36.938000
70
192
0
VERTEX
8
OBJECT__3
10
7.993500
20
-15.926000
30
-33.063999
70
192
0
VERTEX
8
OBJECT__3
10
5.073500
20
-15.020000
30
-38.271999
70
192
0
VERTEX
8
OBJECT__3
10
7.993500
20
-11.358000
30
-34.956001
70
192
0
VERTEX
8
OBJECT__3
10
5.073500
20
-12.085000
30
-39.176998
70
192
0
VERTEX
8
OBJECT__3
10
7.993500
20
-10.825000
30
-35.084000
70
192
0
VERTEX
8
OBJECT__3
10
5.073500
20
-9.149000
30
-40.083000
70
192
0
VERTEX
8
OBJECT__3
10
7.993500
20
-5.750000
30
-36.301998
70
192
0
VERTEX
8
OBJECT__3
10
5.073500
20
-6.111000
30
-40.541000
70
192
0
VERTEX
8
OBJECT__3
10
7.993500
20
-5.476000
30
-36.324001
70
192
0
VERTEX
8
OBJECT__3
10
7.993500
20
0.000000
30
-36.755001
70
192
0
VERTEX
8
OBJECT__3
10
5.073500
20
-3.072000
30
-40.999001
70
192
0
VERTEX
8
OBJECT__3
10
5.073500
20
0.000000
30
-40.999001
70
192
0
VERTEX
8
OBJECT__3
10
5.073500
20
3.072000
30
-40.999001
70
192
0
VERTEX
8
OBJECT__3
10
7.993500
20
5.476000
30
-36.324001
70
192
0
VERTEX
8
OBJECT__3
10
7.993500
20
10.825000
30
-35.084000
70
192
0
VERTEX
8
OBJECT__3
10
7.993500
20
5.750000
30
-36.301998
70
192
0
VERTEX
8
OBJECT__3
10
5.073500
20
9.149000
30
-40.083000
70
192
0
VERTEX
8
OBJECT__3
10
5.073500
20
6.111000
30
-40.541000
70
192
0
VERTEX
8
OBJECT__3
10
5.073500
20
12.085000
30
-39.176998
70
192
0
VERTEX
8
OBJECT__3
10
7.993500
20
15.926000
30
-33.063999
70
192
0
VERTEX
8
OBJECT__3
10
7.993500
20
11.358000
30
-34.956001
70
192
0
VERTEX
8
OBJECT__3
10
5.073500
20
15.020000
30
-38.271999
70
192
0
VERTEX
8
OBJECT__3
10
5.073500
20
17.789000
30
-36.938000
70
192
0
VERTEX
8
OBJECT__3
10
7.993500
20
20.667999
30
-30.309000
70
192
0
VERTEX
8
OBJECT__3
10
7.993500
20
16.686001
30
-32.749001
70
192
0
VERTEX
8
OBJECT__3
10
5.073500
20
20.556999
30
-35.605000
70
192
0
VERTEX
8
OBJECT__3
10
5.073500
20
23.094999
30
-33.875000
70
192
0
VERTEX
8
OBJECT__3
10
7.993500
20
24.945999
30
-26.881001
70
192
0
VERTEX
8
OBJECT__3
10
7.993500
20
21.604000
30
-29.735001
70
192
0
VERTEX
8
OBJECT__3
10
5.073500
20
25.634001
30
-32.144001
70
192
0
VERTEX
8
OBJECT__3
10
5.073500
20
27.886000
30
-30.054001
70
192
0
VERTEX
8
OBJECT__3
10
5.073500
20
30.138000
30
-27.964001
70
192
0
VERTEX
8
OBJECT__3
10
7.993500
20
25.990000
30
-25.990000
70
192
0
VERTEX
8
OBJECT__3
10
7.993500
20
28.666000
30
-22.856001
70
192
0
VERTEX
8
OBJECT__3
10
5.073500
20
32.054001
30
-25.562000
70
192
0
VERTEX
8
OBJECT__3
10
5.073500
20
33.970001
30
-23.160000
70
192
0
VERTEX
8
OBJECT__3
10
7.993500
20
29.735001
30
-21.604000
70
192
0
VERTEX
8
OBJECT__3
10
7.993500
20
31.745001
30
-18.325001
70
192
0
VERTEX
8
OBJECT__3
10
5.073500
20
35.506001
30
-20.499001
70
192
0
VERTEX
8
OBJECT__3
10
5.073500
20
37.042000
30
-17.839001
70
192
0
VERTEX
8
OBJECT__3
10
7.993500
20
32.749001
30
-16.686001
70
192
0
VERTEX
8
OBJECT__3
10
7.993500
20
34.115002
30
-13.387000
70
192
0
VERTEX
8
OBJECT__3
10
5.073500
20
38.165001
30
-14.978000
70
192
0
VERTEX
8
OBJECT__3
10
5.073500
20
39.286999
30
-12.118000
70
192
0
VERTEX
8
OBJECT__3
10
7.993500
20
34.956001
30
-11.358000
70
192
0
VERTEX
8
OBJECT__3
10
7.993500
20
35.724998
30
-8.153000
70
192
0
VERTEX
8
OBJECT__3
10
5.073500
20
39.971001
30
-9.123000
70
192
0
VERTEX
8
OBJECT__3
10
5.073500
20
40.653999
30
-6.128000
70
192
0
VERTEX
8
OBJECT__3
10
7.993500
20
36.301998
30
-5.750000
70
192
0
VERTEX
8
OBJECT__3
10
5.073500
20
40.883999
30
-3.064000
70
192
0
VERTEX
8
OBJECT__3
10
7.993500
20
36.539001
30
-2.738000
70
192
0
VERTEX
8
OBJECT__3
10
5.073500
20
41.113998
30
0.000000
70
192
0
VERTEX
8
OBJECT__3
10
7.993500
20
36.755001
30
0.000000
70
192
0
VERTEX
8
OBJECT__3
10
5.073500
20
40.883999
30
3.064000
70
192
0
VERTEX
8
OBJECT__3
10
7.993500
20
36.539001
30
2.738000
70
192
0
VERTEX
8
OBJECT__3
10
5.073500
20
40.653999
30
6.128000
70
192
0
VERTEX
8
OBJECT__3
10
7.993500
20
36.301998
30
5.750000
70
192
0
VERTEX
8
OBJECT__3
10
5.073500
20
39.971001
30
9.123000
70
192
0
VERTEX
8
OBJECT__3
10
7.993500
20
35.724998
30
8.153000
70
192
0
VERTEX
8
OBJECT__3
10
5.073500
20
39.286999
30
12.118000
70
192
0
VERTEX
8
OBJECT__3
10
5.073500
20
38.165001
30
14.978000
70
192
0
VERTEX
8
OBJECT__3
10
7.993500
20
34.115002
30
13.387000
70
192
0
VERTEX
8
OBJECT__3
10
7.993500
20
34.956001
30
11.358000
70
192
0
VERTEX
8
OBJECT__3
10
5.073500
20
37.042000
30
17.839001
70
192
0
VERTEX
8
OBJECT__3
10
5.073500
20
35.506001
30
20.499001
70
192
0
VERTEX
8
OBJECT__3
10
7.993500
20
31.745001
30
18.325001
70
192
0
VERTEX
8
OBJECT__3
10
7.993500
20
32.749001
30
16.686001
70
192
0
VERTEX
8
OBJECT__3
10
5.073500
20
33.970001
30
23.160000
70
192
0
VERTEX
8
OBJECT__3
10
5.073500
20
32.054001
30
25.562000
70
192
0
VERTEX
8
OBJECT__3
10
7.993500
20
28.666000
30
22.856001
70
192
0
VERTEX
8
OBJECT__3
10
7.993500
20
29.735001
30
21.604000
70
192
0
VERTEX
8
OBJECT__3
10
5.073500
20
30.138000
30
27.964001
70
192
0
VERTEX
8
OBJECT__3
10
5.073500
20
27.886000
30
30.054001
70
192
0
VERTEX
8
OBJECT__3
10
7.993500
20
24.945999
30
26.881001
70
192
0
VERTEX
8
OBJECT__3
10
7.993500
20
25.990000
30
25.990000
70
192
0
VERTEX
8
OBJECT__3
10
5.073500
20
25.634001
30
32.144001
70
192
0
VERTEX
8
OBJECT__3
10
7.993500
20
21.604000
30
29.735001
70
192
0
VERTEX
8
OBJECT__3
10
5.073500
20
23.094999
30
33.875000
70
192
0
VERTEX
8
OBJECT__3
10
7.993500
20
20.667999
30
30.309000
70
192
0
VERTEX
8
OBJECT__3
10
5.073500
20
20.556999
30
35.605000
70
192
0
VERTEX
8
OBJECT__3
10
7.993500
20
16.686001
30
32.749001
70
192
0
VERTEX
8
OBJECT__3
10
5.073500
20
17.789000
30
36.938000
70
192
0
VERTEX
8
OBJECT__3
10
7.993500
20
15.926000
30
33.063999
70
192
0
VERTEX
8
OBJECT__3
10
5.073500
20
15.020000
30
38.271999
70
192
0
VERTEX
8
OBJECT__3
10
7.993500
20
11.358000
30
34.956001
70
192
0
VERTEX
8
OBJECT__3
10
5.073500
20
12.085000
30
39.176998
70
192
0
VERTEX
8
OBJECT__3
10
7.993500
20
10.825000
30
35.084000
70
192
0
VERTEX
8
OBJECT__3
10
5.073500
20
9.149000
30
40.083000
70
192
0
VERTEX
8
OBJECT__3
10
7.993500
20
5.750000
30
36.301998
70
192
0
VERTEX
8
OBJECT__3
10
5.073500
20
6.111000
30
40.541000
70
192
0
VERTEX
8
OBJECT__3
10
7.993500
20
5.476000
30
36.324001
70
192
0
VERTEX
8
OBJECT__3
10
5.073500
20
3.072000
30
40.999001
70
192
0
VERTEX
8
OBJECT__3
10
0
20
0
30
0
70
128
71
1
72
2
73
3
0
VERTEX
8
OBJECT__3
10
0
20
0
30
0
70
128
71
3
72
4
73
1
0
VERTEX
8
OBJECT__3
10
0
20
0
30
0
70
128
71
5
72
6
73
7
0
VERTEX
8
OBJECT__3
10
0
20
0
30
0
70
128
71
6
72
8
73
7
0
VERTEX
8
OBJECT__3
10
0
20
0
30
0
70
128
71
7
72
9
73
5
0
VERTEX
8
OBJECT__3
10
0
20
0
30
0
70
128
71
10
72
11
73
12
0
VERTEX
8
OBJECT__3
10
0
20
0
30
0
70
128
71
11
72
9
73
12
0
VERTEX
8
OBJECT__3
10
0
20
0
30
0
70
128
71
12
72
13
73
10
0
VERTEX
8
OBJECT__3
10
0
20
0
30
0
70
128
71
14
72
15
73
16
0
VERTEX
8
OBJECT__3
10
0
20
0
30
0
70
128
71
15
72
13
73
16
0
VERTEX
8
OBJECT__3
10
0
20
0
30
0
70
128
71
16
72
17
73
14
0
VERTEX
8
OBJECT__3
10
0
20
0
30
0
70
128
71
18
72
19
73
20
0
VERTEX
8
OBJECT__3
10
0
20
0
30
0
70
128
71
19
72
17
73
20
0
VERTEX
8
OBJECT__3
10
0
20
0
30
0
70
128
71
20
72
21
73
18
0
VERTEX
8
OBJECT__3
10
0
20
0
30
0
70
128
71
21
72
22
73
23
0
VERTEX
8
OBJECT__3
10
0
20
0
30
0
70
128
71
24
72
23
73
22
0
VERTEX
8
OBJECT__3
10
0
20
0
30
0
70
128
71
22
72
25
73
24
0
VERTEX
8
OBJECT__3
10
0
20
0
30
0
70
128
71
25
72
26
73
27
0
VERTEX
8
OBJECT__3
10
0
20
0
30
0
70
128
71
28
72
27
73
26
0
VERTEX
8
OBJECT__3
10
0
20
0
30
0
70
128
71
26
72
29
73
28
0
VERTEX
8
OBJECT__3
10
0
20
0
30
0
70
128
71
29
72
30
73
31
0
VERTEX
8
OBJECT__3
10
0
20
0
30
0
70
128
71
32
72
31
73
30
0
VERTEX
8
OBJECT__3
10
0
20
0
30
0
70
128
71
30
72
33
73
32
0
VERTEX
8
OBJECT__3
10
0
20
0
30
0
70
128
71
33
72
34
73
35
0
VERTEX
8
OBJECT__3
10
0
20
0
30
0
70
128
71
36
72
35
73
34
0
VERTEX
8
OBJECT__3
10
0
20
0
30
0
70
128
71
34
72
37
73
36
0
VERTEX
8
OBJECT__3
10
0
20
0
30
0
70
128
71
37
72
38
73
39
0
VERTEX
8
OBJECT__3
10
0
20
0
30
0
70
128
71
40
72
41
73
39
0
VERTEX
8
OBJECT__3
10
0
20
0
30
0
70
128
71
39
72
38
73
40
0
VERTEX
8
OBJECT__3
10
0
20
0
30
0
70
128
71
40
72
42
73
43
0
VERTEX
8
OBJECT__3
10
0
20
0
30
0
70
128
71
44
72
45
73
43
0
VERTEX
8
OBJECT__3
10
0
20
0
30
0
70
128
71
43
72
42
73
44
0
VERTEX
8
OBJECT__3
10
0
20
0
30
0
70
128
71
44
72
46
73
47
0
VERTEX
8
OBJECT__3
10
0
20
0
30
0
70
128
71
48
72
49
73
47
0
VERTEX
8
OBJECT__3
10
0
20
0
30
0
70
128
71
47
72
46
73
48
0
VERTEX
8
OBJECT__3
10
0
20
0
30
0
70
128
71
49
72
48
73
50
0
VERTEX
8
OBJECT__3
10
0
20
0
30
0
70
128
71
51
72
52
73
53
0
VERTEX
8
OBJECT__3
10
0
20
0
30
0
70
128
71
53
72
50
73
51
0
VERTEX
8
OBJECT__3
10
0
20
0
30
0
70
128
71
52
72
51
73
54
0
VERTEX
8
OBJECT__3
10
0
20
0
30
0
70
128
71
55
72
56
73
57
0
VERTEX
8
OBJECT__3
10
0
20
0
30
0
70
128
71
57
72
54
73
55
0
VERTEX
8
OBJECT__3
10
0
20
0
30
0
70
128
71
56
72
55
73
58
0
VERTEX
8
OBJECT__3
10
0
20
0
30
0
70
128
71
59
72
60
73
61
0
VERTEX
8
OBJECT__3
10
0
20
0
30
0
70
128
71
61
72
58
73
59
0
VERTEX
8
OBJECT__3
10
0
20
0
30
0
70
128
71
60
72
59
73
62
0
VERTEX
8
OBJECT__3
10
0
20
0
30
0
70
128
71
63
72
64
73
65
0
VERTEX
8
OBJECT__3
10
0
20
0
30
0
70
128
71
65
72
62
73
63
0
VERTEX
8
OBJECT__3
10
0
20
0
30
0
70
128
71
64
72
63
73
66
0
VERTEX
8
OBJECT__3
10
0
20
0
30
0
70
128
71
66
72
67
73
64
0
VERTEX
8
OBJECT__3
10
0
20
0
30
0
70
128
71
68
72
69
73
67
0
VERTEX
8
OBJECT__3
10
0
20
0
30
0
70
128
71
69
72
68
73
70
0
VERTEX
8
OBJECT__3
10
0
20
0
30
0
70
128
71
70
72
71
73
69
0
VERTEX
8
OBJECT__3
10
0
20
0
30
0
70
128
71
72
72
73
73
71
0
VERTEX
8
OBJECT__3
10
0
20
0
30
0
70
128
71
73
72
72
73
74
0
VERTEX
8
OBJECT__3
10
0
20
0
30
0
70
128
71
74
72
75
73
73
0
VERTEX
8
OBJECT__3
10
0
20
0
30
0
70
128
71
76
72
77
73
75
0
VERTEX
8
OBJECT__3
10
0
20
0
30
0
70
128
71
77
72
76
73
78
0
VERTEX
8
OBJECT__3
10
0
20
0
30
0
70
128
71
78
72
79
73
77
0
VERTEX
8
OBJECT__3
10
0
20
0
30
0
70
128
71
80
72
81
73
79
0
VERTEX
8
OBJECT__3
10
0
20
0
30
0
70
128
71
82
72
81
73
83
0
VERTEX
8
OBJECT__3
10
0
20
0
30
0
70
128
71
81
72
80
73
83
0
VERTEX
8
OBJECT__3
10
0
20
0
30
0
70
128
71
82
72
84
73
85
0
VERTEX
8
OBJECT__3
10
0
20
0
30
0
70
128
71
85
72
86
73
82
0
VERTEX
8
OBJECT__3
10
0
20
0
30
0
70
128
71
87
72
88
73
89
0
VERTEX
8
OBJECT__3
10
0
20
0
30
0
70
128
71
88
72
90
73
89
0
VERTEX
8
OBJECT__3
10
0
20
0
30
0
70
128
71
89
72
91
73
87
0
VERTEX
8
OBJECT__3
10
0
20
0
30
0
70
128
71
92
72
93
73
94
0
VERTEX
8
OBJECT__3
10
0
20
0
30
0
70
128
71
93
72
91
73
94
0
VERTEX
8
OBJECT__3
10
0
20
0
30
0
70
128
71
94
72
95
73
92
0
VERTEX
8
OBJECT__3
10
0
20
0
30
0
70
128
71
96
72
97
73
98
0
VERTEX
8
OBJECT__3
10
0
20
0
30
0
70
128
71
97
72
95
73
98
0
VERTEX
8
OBJECT__3
10
0
20
0
30
0
70
128
71
98
72
99
73
96
0
VERTEX
8
OBJECT__3
10
0
20
0
30
0
70
128
71
100
72
101
73
102
0
VERTEX
8
OBJECT__3
10
0
20
0
30
0
70
128
71
101
72
99
73
102
0
VERTEX
8
OBJECT__3
10
0
20
0
30
0
70
128
71
102
72
103
73
100
0
VERTEX
8
OBJECT__3
10
0
20
0
30
0
70
128
71
103
72
104
73
105
0
VERTEX
8
OBJECT__3
10
0
20
0
30
0
70
128
71
106
72
105
73
104
0
VERTEX
8
OBJECT__3
10
0
20
0
30
0
70
128
71
104
72
107
73
106
0
VERTEX
8
OBJECT__3
10
0
20
0
30
0
70
128
71
107
72
108
73
109
0
VERTEX
8
OBJECT__3
10
0
20
0
30
0
70
128
71
110
72
109
73
108
0
VERTEX
8
OBJECT__3
10
0
20
0
30
0
70
128
71
108
72
111
73
110
0
VERTEX
8
OBJECT__3
10
0
20
0
30
0
70
128
71
111
72
112
73
113
0
VERTEX
8
OBJECT__3
10
0
20
0
30
0
70
128
71
114
72
113
73
112
0
VERTEX
8
OBJECT__3
10
0
20
0
30
0
70
128
71
112
72
115
73
114
0
VERTEX
8
OBJECT__3
10
0
20
0
30
0
70
128
71
115
72
116
73
117
0
VERTEX
8
OBJECT__3
10
0
20
0
30
0
70
128
71
118
72
117
73
116
0
VERTEX
8
OBJECT__3
10
0
20
0
30
0
70
128
71
116
72
119
73
118
0
VERTEX
8
OBJECT__3
10
0
20
0
30
0
70
128
71
119
72
120
73
121
0
VERTEX
8
OBJECT__3
10
0
20
0
30
0
70
128
71
122
72
123
73
121
0
VERTEX
8
OBJECT__3
10
0
20
0
30
0
70
128
71
121
72
120
73
122
0
VERTEX
8
OBJECT__3
10
0
20
0
30
0
70
128
71
122
72
124
73
125
0
VERTEX
8
OBJECT__3
10
0
20
0
30
0
70
128
71
126
72
127
73
125
0
VERTEX
8
OBJECT__3
10
0
20
0
30
0
70
128
71
125
72
124
73
126
0
VERTEX
8
OBJECT__3
10
0
20
0
30
0
70
128
71
126
72
128
73
129
0
VERTEX
8
OBJECT__3
10
0
20
0
30
0
70
128
71
130
72
131
73
129
0
VERTEX
8
OBJECT__3
10
0
20
0
30
0
70
128
71
129
72
128
73
130
0
VERTEX
8
OBJECT__3
10
0
20
0
30
0
70
128
71
131
72
130
73
132
0
VERTEX
8
OBJECT__3
10
0
20
0
30
0
70
128
71
133
72
134
73
135
0
VERTEX
8
OBJECT__3
10
0
20
0
30
0
70
128
71
135
72
132
73
133
0
VERTEX
8
OBJECT__3
10
0
20
0
30
0
70
128
71
134
72
133
73
136
0
VERTEX
8
OBJECT__3
10
0
20
0
30
0
70
128
71
137
72
138
73
139
0
VERTEX
8
OBJECT__3
10
0
20
0
30
0
70
128
71
139
72
136
73
137
0
VERTEX
8
OBJECT__3
10
0
20
0
30
0
70
128
71
138
72
137
73
140
0
VERTEX
8
OBJECT__3
10
0
20
0
30
0
70
128
71
141
72
142
73
143
0
VERTEX
8
OBJECT__3
10
0
20
0
30
0
70
128
71
143
72
140
73
141
0
VERTEX
8
OBJECT__3
10
0
20
0
30
0
70
128
71
142
72
141
73
144
0
VERTEX
8
OBJECT__3
10
0
20
0
30
0
70
128
71
145
72
146
73
147
0
VERTEX
8
OBJECT__3
10
0
20
0
30
0
70
128
71
147
72
144
73
145
0
VERTEX
8
OBJECT__3
10
0
20
0
30
0
70
128
71
146
72
145
73
148
0
VERTEX
8
OBJECT__3
10
0
20
0
30
0
70
128
71
148
72
149
73
146
0
VERTEX
8
OBJECT__3
10
0
20
0
30
0
70
128
71
150
72
151
73
149
0
VERTEX
8
OBJECT__3
10
0
20
0
30
0
70
128
71
151
72
150
73
152
0
VERTEX
8
OBJECT__3
10
0
20
0
30
0
70
128
71
152
72
153
73
151
0
VERTEX
8
OBJECT__3
10
0
20
0
30
0
70
128
71
154
72
155
73
153
0
VERTEX
8
OBJECT__3
10
0
20
0
30
0
70
128
71
155
72
154
73
156
0
VERTEX
8
OBJECT__3
10
0
20
0
30
0
70
128
71
156
72
157
73
155
0
VERTEX
8
OBJECT__3
10
0
20
0
30
0
70
128
71
158
72
159
73
157
0
VERTEX
8
OBJECT__3
10
0
20
0
30
0
70
128
71
159
72
158
73
160
0
VERTEX
8
OBJECT__3
10
0
20
0
30
0
70
128
71
160
72
161
73
159
0
VERTEX
8
OBJECT__3
10
0
20
0
30
0
70
128
71
162
72
163
73
161
0
VERTEX
8
OBJECT__3
10
0
20
0
30
0
70
128
71
1
72
163
73
164
0
VERTEX
8
OBJECT__3
10
0
20
0
30
0
70
128
71
163
72
162
73
164
0
VERTEX
8
OBJECT__3
10
0
20
0
30
0
70
128
71
164
72
2
73
1
0
VERTEX
8
OBJECT__3
10
0
20
0
30
0
70
128
71
160
72
162
73
161
0
VERTEX
8
OBJECT__3
10
0
20
0
30
0
70
128
71
156
72
158
73
157
0
VERTEX
8
OBJECT__3
10
0
20
0
30
0
70
128
71
152
72
154
73
153
0
VERTEX
8
OBJECT__3
10
0
20
0
30
0
70
128
71
148
72
150
73
149
0
VERTEX
8
OBJECT__3
10
0
20
0
30
0
70
128
71
144
72
147
73
142
0
VERTEX
8
OBJECT__3
10
0
20
0
30
0
70
128
71
140
72
143
73
138
0
VERTEX
8
OBJECT__3
10
0
20
0
30
0
70
128
71
136
72
139
73
134
0
VERTEX
8
OBJECT__3
10
0
20
0
30
0
70
128
71
132
72
135
73
131
0
VERTEX
8
OBJECT__3
10
0
20
0
30
0
70
128
71
129
72
127
73
126
0
VERTEX
8
OBJECT__3
10
0
20
0
30
0
70
128
71
125
72
123
73
122
0
VERTEX
8
OBJECT__3
10
0
20
0
30
0
70
128
71
121
72
118
73
119
0
VERTEX
8
OBJECT__3
10
0
20
0
30
0
70
128
71
117
72
114
73
115
0
VERTEX
8
OBJECT__3
10
0
20
0
30
0
70
128
71
113
72
110
73
111
0
VERTEX
8
OBJECT__3
10
0
20
0
30
0
70
128
71
109
72
106
73
107
0
VERTEX
8
OBJECT__3
10
0
20
0
30
0
70
128
71
105
72
100
73
103
0
VERTEX
8
OBJECT__3
10
0
20
0
30
0
70
128
71
101
72
96
73
99
0
VERTEX
8
OBJECT__3
10
0
20
0
30
0
70
128
71
97
72
92
73
95
0
VERTEX
8
OBJECT__3
10
0
20
0
30
0
70
128
71
93
72
87
73
91
0
VERTEX
8
OBJECT__3
10
0
20
0
30
0
70
128
71
88
72
86
73
90
0
VERTEX
8
OBJECT__3
10
0
20
0
30
0
70
128
71
85
72
90
73
86
0
VERTEX
8
OBJECT__3
10
0
20
0
30
0
70
128
71
83
72
84
73
82
0
VERTEX
8
OBJECT__3
10
0
20
0
30
0
70
128
71
78
72
80
73
79
0
VERTEX
8
OBJECT__3
10
0
20
0
30
0
70
128
71
74
72
76
73
75
0
VERTEX
8
OBJECT__3
10
0
20
0
30
0
70
128
71
70
72
72
73
71
0
VERTEX
8
OBJECT__3
10
0
20
0
30
0
70
128
71
66
72
68
73
67
0
VERTEX
8
OBJECT__3
10
0
20
0
30
0
70
128
71
62
72
65
73
60
0
VERTEX
8
OBJECT__3
10
0
20
0
30
0
70
128
71
58
72
61
73
56
0
VERTEX
8
OBJECT__3
10
0
20
0
30
0
70
128
71
54
72
57
73
52
0
VERTEX
8
OBJECT__3
10
0
20
0
30
0
70
128
71
50
72
53
73
49
0
VERTEX
8
OBJECT__3
10
0
20
0
30
0
70
128
71
47
72
45
73
44
0
VERTEX
8
OBJECT__3
10
0
20
0
30
0
70
128
71
43
72
41
73
40
0
VERTEX
8
OBJECT__3
10
0
20
0
30
0
70
128
71
39
72
36
73
37
0
VERTEX
8
OBJECT__3
10
0
20
0
30
0
70
128
71
35
72
32
73
33
0
VERTEX
8
OBJECT__3
10
0
20
0
30
0
70
128
71
31
72
28
73
29
0
VERTEX
8
OBJECT__3
10
0
20
0
30
0
70
128
71
27
72
24
73
25
0
VERTEX
8
OBJECT__3
10
0
20
0
30
0
70
128
71
23
72
18
73
21
0
VERTEX
8
OBJECT__3
10
0
20
0
30
0
70
128
71
19
72
14
73
17
0
VERTEX
8
OBJECT__3
10
0
20
0
30
0
70
128
71
15
72
10
73
13
0
VERTEX
8
OBJECT__3
10
0
20
0
30
0
70
128
71
11
72
5
73
9
0
VERTEX
8
OBJECT__3
10
0
20
0
30
0
70
128
71
6
72
4
73
8
0
VERTEX
8
OBJECT__3
10
0
20
0
30
0
70
128
71
3
72
8
73
4
0
SEQEND
8
OBJECT__3
0
POLYLINE
8
OBJECT__4
66
1
70
64
71
150
72
150
62
253
0
VERTEX
8
OBJECT__4
10
4.316500
20
-41.525002
30
0.000000
70
192
0
VERTEX
8
OBJECT__4
10
5.073500
20
-41.113998
30
0.000000
70
192
0
VERTEX
8
OBJECT__4
10
5.073500
20
-40.883999
30
3.064000
70
192
0
VERTEX
8
OBJECT__4
10
4.316500
20
-41.061001
30
6.189000
70
192
0
VERTEX
8
OBJECT__4
10
4.316500
20
-39.680000
30
12.240000
70
192
0
VERTEX
8
OBJECT__4
10
4.316500
20
-40.508999
30
8.609000
70
192
0
VERTEX
8
OBJECT__4
10
5.073500
20
-39.971001
30
9.123000
70
192
0
VERTEX
8
OBJECT__4
10
5.073500
20
-40.653999
30
6.128000
70
192
0
VERTEX
8
OBJECT__4
10
5.073500
20
-37.042000
30
17.839001
70
192
0
VERTEX
8
OBJECT__4
10
4.316500
20
-37.412998
30
18.017000
70
192
0
VERTEX
8
OBJECT__4
10
4.316500
20
-37.866001
30
16.863001
70
192
0
VERTEX
8
OBJECT__4
10
5.073500
20
-39.286999
30
12.118000
70
192
0
VERTEX
8
OBJECT__4
10
5.073500
20
-38.165001
30
14.978000
70
192
0
VERTEX
8
OBJECT__4
10
5.073500
20
-35.506001
30
20.499001
70
192
0
VERTEX
8
OBJECT__4
10
4.316500
20
-34.308998
30
23.392000
70
192
0
VERTEX
8
OBJECT__4
10
4.316500
20
-30.440001
30
28.243999
70
192
0
VERTEX
8
OBJECT__4
10
4.316500
20
-33.535999
30
24.361000
70
192
0
VERTEX
8
OBJECT__4
10
5.073500
20
-32.054001
30
25.562000
70
192
0
VERTEX
8
OBJECT__4
10
5.073500
20
-33.970001
30
23.160000
70
192
0
VERTEX
8
OBJECT__4
10
5.073500
20
-25.634001
30
32.144001
70
192
0
VERTEX
8
OBJECT__4
10
4.316500
20
-25.889999
30
32.465000
70
192
0
VERTEX
8
OBJECT__4
10
4.316500
20
-27.709999
30
30.777000
70
192
0
VERTEX
8
OBJECT__4
10
5.073500
20
-30.138000
30
27.964001
70
192
0
VERTEX
8
OBJECT__4
10
5.073500
20
-27.886000
30
30.054001
70
192
0
VERTEX
8
OBJECT__4
10
5.073500
20
-23.094999
30
33.875000
70
192
0
VERTEX
8
OBJECT__4
10
4.316500
20
-20.761999
30
35.962002
70
192
0
VERTEX
8
OBJECT__4
10
5.073500
20
-20.556999
30
35.605000
70
192
0
VERTEX
8
OBJECT__4
10
5.073500
20
-17.789000
30
36.938000
70
192
0
VERTEX
8
OBJECT__4
10
4.316500
20
-15.171000
30
38.653999
70
192
0
VERTEX
8
OBJECT__4
10
4.316500
20
-9.240000
30
40.484001
70
192
0
VERTEX
8
OBJECT__4
10
4.316500
20
-12.799000
30
39.386002
70
192
0
VERTEX
8
OBJECT__4
10
5.073500
20
-12.085000
30
39.176998
70
192
0
VERTEX
8
OBJECT__4
10
5.073500
20
-15.020000
30
38.271999
70
192
0
VERTEX
8
OBJECT__4
10
5.073500
20
-3.072000
30
40.999001
70
192
0
VERTEX
8
OBJECT__4
10
4.316500
20
-3.103000
30
41.409000
70
192
0
VERTEX
8
OBJECT__4
10
4.316500
20
-4.329000
30
41.223999
70
192
0
VERTEX
8
OBJECT__4
10
5.073500
20
-9.149000
30
40.083000
70
192
0
VERTEX
8
OBJECT__4
10
5.073500
20
-6.111000
30
40.541000
70
192
0
VERTEX
8
OBJECT__4
10
5.073500
20
0.000000
30
40.999001
70
192
0
VERTEX
8
OBJECT__4
10
4.316500
20
3.103000
30
41.409000
70
192
0
VERTEX
8
OBJECT__4
10
4.316500
20
9.240000
30
40.484001
70
192
0
VERTEX
8
OBJECT__4
10
4.316500
20
4.329000
30
41.223999
70
192
0
VERTEX
8
OBJECT__4
10
5.073500
20
6.111000
30
40.541000
70
192
0
VERTEX
8
OBJECT__4
10
5.073500
20
3.072000
30
40.999001
70
192
0
VERTEX
8
OBJECT__4
10
5.073500
20
15.020000
30
38.271999
70
192
0
VERTEX
8
OBJECT__4
10
4.316500
20
15.171000
30
38.653999
70
192
0
VERTEX
8
OBJECT__4
10
4.316500
20
12.799000
30
39.386002
70
192
0
VERTEX
8
OBJECT__4
10
5.073500
20
9.149000
30
40.083000
70
192
0
VERTEX
8
OBJECT__4
10
5.073500
20
12.085000
30
39.176998
70
192
0
VERTEX
8
OBJECT__4
10
5.073500
20
17.789000
30
36.938000
70
192
0
VERTEX
8
OBJECT__4
10
4.316500
20
20.761999
30
35.962002
70
192
0
VERTEX
8
OBJECT__4
10
5.073500
20
20.556999
30
35.605000
70
192
0
VERTEX
8
OBJECT__4
10
5.073500
20
23.094999
30
33.875000
70
192
0
VERTEX
8
OBJECT__4
10
4.316500
20
25.889999
30
32.465000
70
192
0
VERTEX
8
OBJECT__4
10
4.316500
20
30.440001
30
28.243999
70
192
0
VERTEX
8
OBJECT__4
10
4.316500
20
27.709999
30
30.777000
70
192
0
VERTEX
8
OBJECT__4
10
5.073500
20
27.886000
30
30.054001
70
192
0
VERTEX
8
OBJECT__4
10
5.073500
20
25.634001
30
32.144001
70
192
0
VERTEX
8
OBJECT__4
10
5.073500
20
33.970001
30
23.160000
70
192
0
VERTEX
8
OBJECT__4
10
4.316500
20
34.308998
30
23.392000
70
192
0
VERTEX
8
OBJECT__4
10
4.316500
20
33.535999
30
24.361000
70
192
0
VERTEX
8
OBJECT__4
10
5.073500
20
30.138000
30
27.964001
70
192
0
VERTEX
8
OBJECT__4
10
5.073500
20
32.054001
30
25.562000
70
192
0
VERTEX
8
OBJECT__4
10
5.073500
20
35.506001
30
20.499001
70
192
0
VERTEX
8
OBJECT__4
10
4.316500
20
37.412998
30
18.017000
70
192
0
VERTEX
8
OBJECT__4
10
4.316500
20
39.680000
30
12.240000
70
192
0
VERTEX
8
OBJECT__4
10
4.316500
20
37.866001
30
16.863001
70
192
0
VERTEX
8
OBJECT__4
10
5.073500
20
38.165001
30
14.978000
70
192
0
VERTEX
8
OBJECT__4
10
5.073500
20
37.042000
30
17.839001
70
192
0
VERTEX
8
OBJECT__4
10
5.073500
20
40.653999
30
6.128000
70
192
0
VERTEX
8
OBJECT__4
10
4.316500
20
41.061001
30
6.189000
70
192
0
VERTEX
8
OBJECT__4
10
4.316500
20
40.508999
30
8.609000
70
192
0
VERTEX
8
OBJECT__4
10
5.073500
20
39.286999
30
12.118000
70
192
0
VERTEX
8
OBJECT__4
10
5.073500
20
39.971001
30
9.123000
70
192
0
VERTEX
8
OBJECT__4
10
5.073500
20
40.883999
30
3.064000
70
192
0
VERTEX
8
OBJECT__4
10
4.316500
20
41.525002
30
0.000000
70
192
0
VERTEX
8
OBJECT__4
10
5.073500
20
41.113998
30
0.000000
70
192
0
VERTEX
8
OBJECT__4
10
5.073500
20
40.883999
30
-3.064000
70
192
0
VERTEX
8
OBJECT__4
10
4.316500
20
41.061001
30
-6.189000
70
192
0
VERTEX
8
OBJECT__4
10
4.316500
20
39.680000
30
-12.240000
70
192
0
VERTEX
8
OBJECT__4
10
4.316500
20
40.508999
30
-8.609000
70
192
0
VERTEX
8
OBJECT__4
10
5.073500
20
39.971001
30
-9.123000
70
192
0
VERTEX
8
OBJECT__4
10
5.073500
20
40.653999
30
-6.128000
70
192
0
VERTEX
8
OBJECT__4
10
5.073500
20
37.042000
30
-17.839001
70
192
0
VERTEX
8
OBJECT__4
10
4.316500
20
37.412998
30
-18.017000
70
192
0
VERTEX
8
OBJECT__4
10
4.316500
20
37.866001
30
-16.863001
70
192
0
VERTEX
8
OBJECT__4
10
5.073500
20
39.286999
30
-12.118000
70
192
0
VERTEX
8
OBJECT__4
10
5.073500
20
38.165001
30
-14.978000
70
192
0
VERTEX
8
OBJECT__4
10
5.073500
20
35.506001
30
-20.499001
70
192
0
VERTEX
8
OBJECT__4
10
4.316500
20
34.308998
30
-23.392000
70
192
0
VERTEX
8
OBJECT__4
10
4.316500
20
30.440001
30
-28.243999
70
192
0
VERTEX
8
OBJECT__4
10
4.316500
20
33.535999
30
-24.361000
70
192
0
VERTEX
8
OBJECT__4
10
5.073500
20
32.054001
30
-25.562000
70
192
0
VERTEX
8
OBJECT__4
10
5.073500
20
33.970001
30
-23.160000
70
192
0
VERTEX
8
OBJECT__4
10
5.073500
20
25.634001
30
-32.144001
70
192
0
VERTEX
8
OBJECT__4
10
4.316500
20
25.889999
30
-32.465000
70
192
0
VERTEX
8
OBJECT__4
10
4.316500
20
27.709999
30
-30.777000
70
192
0
VERTEX
8
OBJECT__4
10
5.073500
20
30.138000
30
-27.964001
70
192
0
VERTEX
8
OBJECT__4
10
5.073500
20
27.886000
30
-30.054001
70
192
0
VERTEX
8
OBJECT__4
10
5.073500
20
23.094999
30
-33.875000
70
192
0
VERTEX
8
OBJECT__4
10
4.316500
20
20.761999
30
-35.962002
70
192
0
VERTEX
8
OBJECT__4
10
5.073500
20
20.556999
30
-35.605000
70
192
0
VERTEX
8
OBJECT__4
10
5.073500
20
17.789000
30
-36.938000
70
192
0
VERTEX
8
OBJECT__4
10
4.316500
20
15.171000
30
-38.653999
70
192
0
VERTEX
8
OBJECT__4
10
4.316500
20
9.240000
30
-40.484001
70
192
0
VERTEX
8
OBJECT__4
10
4.316500
20
12.799000
30
-39.386002
70
192
0
VERTEX
8
OBJECT__4
10
5.073500
20
12.085000
30
-39.176998
70
192
0
VERTEX
8
OBJECT__4
10
5.073500
20
15.020000
30
-38.271999
70
192
0
VERTEX
8
OBJECT__4
10
5.073500
20
3.072000
30
-40.999001
70
192
0
VERTEX
8
OBJECT__4
10
4.316500
20
3.103000
30
-41.409000
70
192
0
VERTEX
8
OBJECT__4
10
4.316500
20
4.329000
30
-41.223999
70
192
0
VERTEX
8
OBJECT__4
10
5.073500
20
9.149000
30
-40.083000
70
192
0
VERTEX
8
OBJECT__4
10
5.073500
20
6.111000
30
-40.541000
70
192
0
VERTEX
8
OBJECT__4
10
5.073500
20
0.000000
30
-40.999001
70
192
0
VERTEX
8
OBJECT__4
10
4.316500
20
-3.103000
30
-41.409000
70
192
0
VERTEX
8
OBJECT__4
10
4.316500
20
-9.240000
30
-40.484001
70
192
0
VERTEX
8
OBJECT__4
10
4.316500
20
-4.329000
30
-41.223999
70
192
0
VERTEX
8
OBJECT__4
10
5.073500
20
-6.111000
30
-40.541000
70
192
0
VERTEX
8
OBJECT__4
10
5.073500
20
-3.072000
30
-40.999001
70
192
0
VERTEX
8
OBJECT__4
10
5.073500
20
-15.020000
30
-38.271999
70
192
0
VERTEX
8
OBJECT__4
10
4.316500
20
-15.171000
30
-38.653999
70
192
0
VERTEX
8
OBJECT__4
10
4.316500
20
-12.799000
30
-39.386002
70
192
0
VERTEX
8
OBJECT__4
10
5.073500
20
-9.149000
30
-40.083000
70
192
0
VERTEX
8
OBJECT__4
10
5.073500
20
-12.085000
30
-39.176998
70
192
0
VERTEX
8
OBJECT__4
10
5.073500
20
-17.789000
30
-36.938000
70
192
0
VERTEX
8
OBJECT__4
10
4.316500
20
-20.761999
30
-35.962002
70
192
0
VERTEX
8
OBJECT__4
10
5.073500
20
-20.556999
30
-35.605000
70
192
0
VERTEX
8
OBJECT__4
10
5.073500
20
-23.094999
30
-33.875000
70
192
0
VERTEX
8
OBJECT__4
10
4.316500
20
-25.889999
30
-32.465000
70
192
0
VERTEX
8
OBJECT__4
10
4.316500
20
-30.440001
30
-28.243999
70
192
0
VERTEX
8
OBJECT__4
10
4.316500
20
-27.709999
30
-30.777000
70
192
0
VERTEX
8
OBJECT__4
10
5.073500
20
-27.886000
30
-30.054001
70
192
0
VERTEX
8
OBJECT__4
10
5.073500
20
-25.634001
30
-32.144001
70
192
0
VERTEX
8
OBJECT__4
10
5.073500
20
-33.970001
30
-23.160000
70
192
0
VERTEX
8
OBJECT__4
10
4.316500
20
-34.308998
30
-23.392000
70
192
0
VERTEX
8
OBJECT__4
10
4.316500
20
-33.535999
30
-24.361000
70
192
0
VERTEX
8
OBJECT__4
10
5.073500
20
-30.138000
30
-27.964001
70
192
0
VERTEX
8
OBJECT__4
10
5.073500
20
-32.054001
30
-25.562000
70
192
0
VERTEX
8
OBJECT__4
10
5.073500
20
-35.506001
30
-20.499001
70
192
0
VERTEX
8
OBJECT__4
10
4.316500
20
-37.412998
30
-18.017000
70
192
0
VERTEX
8
OBJECT__4
10
4.316500
20
-39.680000
30
-12.240000
70
192
0
VERTEX
8
OBJECT__4
10
4.316500
20
-37.866001
30
-16.863001
70
192
0
VERTEX
8
OBJECT__4
10
5.073500
20
-38.165001
30
-14.978000
70
192
0
VERTEX
8
OBJECT__4
10
5.073500
20
-37.042000
30
-17.839001
70
192
0
VERTEX
8
OBJECT__4
10
5.073500
20
-40.653999
30
-6.128000
70
192
0
VERTEX
8
OBJECT__4
10
4.316500
20
-41.061001
30
-6.189000
70
192
0
VERTEX
8
OBJECT__4
10
4.316500
20
-40.508999
30
-8.609000
70
192
0
VERTEX
8
OBJECT__4
10
5.073500
20
-39.286999
30
-12.118000
70
192
0
VERTEX
8
OBJECT__4
10
5.073500
20
-39.971001
30
-9.123000
70
192
0
VERTEX
8
OBJECT__4
10
5.073500
20
-40.883999
30
-3.064000
70
192
0
VERTEX
8
OBJECT__4
10
0
20
0
30
0
70
128
71
1
72
2
73
3
0
VERTEX
8
OBJECT__4
10
0
20
0
30
0
70
128
71
3
72
4
73
1
0
VERTEX
8
OBJECT__4
10
0
20
0
30
0
70
128
71
5
72
6
73
7
0
VERTEX
8
OBJECT__4
10
0
20
0
30
0
70
128
71
8
72
7
73
6
0
VERTEX
8
OBJECT__4
10
0
20
0
30
0
70
128
71
6
72
4
73
8
0
VERTEX
8
OBJECT__4
10
0
20
0
30
0
70
128
71
9
72
10
73
11
0
VERTEX
8
OBJECT__4
10
0
20
0
30
0
70
128
71
5
72
12
73
13
0
VERTEX
8
OBJECT__4
10
0
20
0
30
0
70
128
71
13
72
11
73
5
0
VERTEX
8
OBJECT__4
10
0
20
0
30
0
70
128
71
10
72
9
73
14
0
VERTEX
8
OBJECT__4
10
0
20
0
30
0
70
128
71
14
72
15
73
10
0
VERTEX
8
OBJECT__4
10
0
20
0
30
0
70
128
71
16
72
17
73
18
0
VERTEX
8
OBJECT__4
10
0
20
0
30
0
70
128
71
19
72
18
73
17
0
VERTEX
8
OBJECT__4
10
0
20
0
30
0
70
128
71
17
72
15
73
19
0
VERTEX
8
OBJECT__4
10
0
20
0
30
0
70
128
71
20
72
21
73
22
0
VERTEX
8
OBJECT__4
10
0
20
0
30
0
70
128
71
16
72
23
73
24
0
VERTEX
8
OBJECT__4
10
0
20
0
30
0
70
128
71
24
72
22
73
16
0
VERTEX
8
OBJECT__4
10
0
20
0
30
0
70
128
71
21
72
20
73
25
0
VERTEX
8
OBJECT__4
10
0
20
0
30
0
70
128
71
25
72
26
73
21
0
VERTEX
8
OBJECT__4
10
0
20
0
30
0
70
128
71
26
72
27
73
28
0
VERTEX
8
OBJECT__4
10
0
20
0
30
0
70
128
71
28
72
29
73
26
0
VERTEX
8
OBJECT__4
10
0
20
0
30
0
70
128
71
30
72
31
73
32
0
VERTEX
8
OBJECT__4
10
0
20
0
30
0
70
128
71
33
72
32
73
31
0
VERTEX
8
OBJECT__4
10
0
20
0
30
0
70
128
71
31
72
29
73
33
0
VERTEX
8
OBJECT__4
10
0
20
0
30
0
70
128
71
34
72
35
73
36
0
VERTEX
8
OBJECT__4
10
0
20
0
30
0
70
128
71
30
72
37
73
38
0
VERTEX
8
OBJECT__4
10
0
20
0
30
0
70
128
71
38
72
36
73
30
0
VERTEX
8
OBJECT__4
10
0
20
0
30
0
70
128
71
35
72
34
73
39
0
VERTEX
8
OBJECT__4
10
0
20
0
30
0
70
128
71
39
72
40
73
35
0
VERTEX
8
OBJECT__4
10
0
20
0
30
0
70
128
71
41
72
42
73
43
0
VERTEX
8
OBJECT__4
10
0
20
0
30
0
70
128
71
44
72
43
73
42
0
VERTEX
8
OBJECT__4
10
0
20
0
30
0
70
128
71
42
72
40
73
44
0
VERTEX
8
OBJECT__4
10
0
20
0
30
0
70
128
71
45
72
46
73
47
0
VERTEX
8
OBJECT__4
10
0
20
0
30
0
70
128
71
41
72
48
73
49
0
VERTEX
8
OBJECT__4
10
0
20
0
30
0
70
128
71
49
72
47
73
41
0
VERTEX
8
OBJECT__4
10
0
20
0
30
0
70
128
71
46
72
45
73
50
0
VERTEX
8
OBJECT__4
10
0
20
0
30
0
70
128
71
50
72
51
73
46
0
VERTEX
8
OBJECT__4
10
0
20
0
30
0
70
128
71
51
72
52
73
53
0
VERTEX
8
OBJECT__4
10
0
20
0
30
0
70
128
71
53
72
54
73
51
0
VERTEX
8
OBJECT__4
10
0
20
0
30
0
70
128
71
55
72
56
73
57
0
VERTEX
8
OBJECT__4
10
0
20
0
30
0
70
128
71
58
72
57
73
56
0
VERTEX
8
OBJECT__4
10
0
20
0
30
0
70
128
71
56
72
54
73
58
0
VERTEX
8
OBJECT__4
10
0
20
0
30
0
70
128
71
59
72
60
73
61
0
VERTEX
8
OBJECT__4
10
0
20
0
30
0
70
128
71
55
72
62
73
63
0
VERTEX
8
OBJECT__4
10
0
20
0
30
0
70
128
71
63
72
61
73
55
0
VERTEX
8
OBJECT__4
10
0
20
0
30
0
70
128
71
60
72
59
73
64
0
VERTEX
8
OBJECT__4
10
0
20
0
30
0
70
128
71
64
72
65
73
60
0
VERTEX
8
OBJECT__4
10
0
20
0
30
0
70
128
71
66
72
67
73
68
0
VERTEX
8
OBJECT__4
10
0
20
0
30
0
70
128
71
69
72
68
73
67
0
VERTEX
8
OBJECT__4
10
0
20
0
30
0
70
128
71
67
72
65
73
69
0
VERTEX
8
OBJECT__4
10
0
20
0
30
0
70
128
71
70
72
71
73
72
0
VERTEX
8
OBJECT__4
10
0
20
0
30
0
70
128
71
66
72
73
73
74
0
VERTEX
8
OBJECT__4
10
0
20
0
30
0
70
128
71
74
72
72
73
66
0
VERTEX
8
OBJECT__4
10
0
20
0
30
0
70
128
71
71
72
70
73
75
0
VERTEX
8
OBJECT__4
10
0
20
0
30
0
70
128
71
75
72
76
73
71
0
VERTEX
8
OBJECT__4
10
0
20
0
30
0
70
128
71
76
72
77
73
78
0
VERTEX
8
OBJECT__4
10
0
20
0
30
0
70
128
71
78
72
79
73
76
0
VERTEX
8
OBJECT__4
10
0
20
0
30
0
70
128
71
80
72
81
73
82
0
VERTEX
8
OBJECT__4
10
0
20
0
30
0
70
128
71
83
72
82
73
81
0
VERTEX
8
OBJECT__4
10
0
20
0
30
0
70
128
71
81
72
79
73
83
0
VERTEX
8
OBJECT__4
10
0
20
0
30
0
70
128
71
84
72
85
73
86
0
VERTEX
8
OBJECT__4
10
0
20
0
30
0
70
128
71
80
72
87
73
88
0
VERTEX
8
OBJECT__4
10
0
20
0
30
0
70
128
71
88
72
86
73
80
0
VERTEX
8
OBJECT__4
10
0
20
0
30
0
70
128
71
85
72
84
73
89
0
VERTEX
8
OBJECT__4
10
0
20
0
30
0
70
128
71
89
72
90
73
85
0
VERTEX
8
OBJECT__4
10
0
20
0
30
0
70
128
71
91
72
92
73
93
0
VERTEX
8
OBJECT__4
10
0
20
0
30
0
70
128
71
94
72
93
73
92
0
VERTEX
8
OBJECT__4
10
0
20
0
30
0
70
128
71
92
72
90
73
94
0
VERTEX
8
OBJECT__4
10
0
20
0
30
0
70
128
71
95
72
96
73
97
0
VERTEX
8
OBJECT__4
10
0
20
0
30
0
70
128
71
91
72
98
73
99
0
VERTEX
8
OBJECT__4
10
0
20
0
30
0
70
128
71
99
72
97
73
91
0
VERTEX
8
OBJECT__4
10
0
20
0
30
0
70
128
71
96
72
95
73
100
0
VERTEX
8
OBJECT__4
10
0
20
0
30
0
70
128
71
100
72
101
73
96
0
VERTEX
8
OBJECT__4
10
0
20
0
30
0
70
128
71
101
72
102
73
103
0
VERTEX
8
OBJECT__4
10
0
20
0
30
0
70
128
71
103
72
104
73
101
0
VERTEX
8
OBJECT__4
10
0
20
0
30
0
70
128
71
105
72
106
73
107
0
VERTEX
8
OBJECT__4
10
0
20
0
30
0
70
128
71
108
72
107
73
106
0
VERTEX
8
OBJECT__4
10
0
20
0
30
0
70
128
71
106
72
104
73
108
0
VERTEX
8
OBJECT__4
10
0
20
0
30
0
70
128
71
109
72
110
73
111
0
VERTEX
8
OBJECT__4
10
0
20
0
30
0
70
128
71
105
72
112
73
113
0
VERTEX
8
OBJECT__4
10
0
20
0
30
0
70
128
71
113
72
111
73
105
0
VERTEX
8
OBJECT__4
10
0
20
0
30
0
70
128
71
110
72
109
73
114
0
VERTEX
8
OBJECT__4
10
0
20
0
30
0
70
128
71
114
72
115
73
110
0
VERTEX
8
OBJECT__4
10
0
20
0
30
0
70
128
71
116
72
117
73
118
0
VERTEX
8
OBJECT__4
10
0
20
0
30
0
70
128
71
119
72
118
73
117
0
VERTEX
8
OBJECT__4
10
0
20
0
30
0
70
128
71
117
72
115
73
119
0
VERTEX
8
OBJECT__4
10
0
20
0
30
0
70
128
71
120
72
121
73
122
0
VERTEX
8
OBJECT__4
10
0
20
0
30
0
70
128
71
116
72
123
73
124
0
VERTEX
8
OBJECT__4
10
0
20
0
30
0
70
128
71
124
72
122
73
116
0
VERTEX
8
OBJECT__4
10
0
20
0
30
0
70
128
71
121
72
120
73
125
0
VERTEX
8
OBJECT__4
10
0
20
0
30
0
70
128
71
125
72
126
73
121
0
VERTEX
8
OBJECT__4
10
0
20
0
30
0
70
128
71
126
72
127
73
128
0
VERTEX
8
OBJECT__4
10
0
20
0
30
0
70
128
71
128
72
129
73
126
0
VERTEX
8
OBJECT__4
10
0
20
0
30
0
70
128
71
130
72
131
73
132
0
VERTEX
8
OBJECT__4
10
0
20
0
30
0
70
128
71
133
72
132
73
131
0
VERTEX
8
OBJECT__4
10
0
20
0
30
0
70
128
71
131
72
129
73
133
0
VERTEX
8
OBJECT__4
10
0
20
0
30
0
70
128
71
134
72
135
73
136
0
VERTEX
8
OBJECT__4
10
0
20
0
30
0
70
128
71
130
72
137
73
138
0
VERTEX
8
OBJECT__4
10
0
20
0
30
0
70
128
71
138
72
136
73
130
0
VERTEX
8
OBJECT__4
10
0
20
0
30
0
70
128
71
135
72
134
73
139
0
VERTEX
8
OBJECT__4
10
0
20
0
30
0
70
128
71
139
72
140
73
135
0
VERTEX
8
OBJECT__4
10
0
20
0
30
0
70
128
71
141
72
142
73
143
0
VERTEX
8
OBJECT__4
10
0
20
0
30
0
70
128
71
144
72
143
73
142
0
VERTEX
8
OBJECT__4
10
0
20
0
30
0
70
128
71
142
72
140
73
144
0
VERTEX
8
OBJECT__4
10
0
20
0
30
0
70
128
71
145
72
146
73
147
0
VERTEX
8
OBJECT__4
10
0
20
0
30
0
70
128
71
141
72
148
73
149
0
VERTEX
8
OBJECT__4
10
0
20
0
30
0
70
128
71
149
72
147
73
141
0
VERTEX
8
OBJECT__4
10
0
20
0
30
0
70
128
71
146
72
145
73
150
0
VERTEX
8
OBJECT__4
10
0
20
0
30
0
70
128
71
150
72
1
73
146
0
VERTEX
8
OBJECT__4
10
0
20
0
30
0
70
128
71
150
72
2
73
1
0
VERTEX
8
OBJECT__4
10
0
20
0
30
0
70
128
71
147
72
149
73
145
0
VERTEX
8
OBJECT__4
10
0
20
0
30
0
70
128
71
143
72
148
73
141
0
VERTEX
8
OBJECT__4
10
0
20
0
30
0
70
128
71
139
72
144
73
140
0
VERTEX
8
OBJECT__4
10
0
20
0
30
0
70
128
71
136
72
138
73
134
0
VERTEX
8
OBJECT__4
10
0
20
0
30
0
70
128
71
132
72
137
73
130
0
VERTEX
8
OBJECT__4
10
0
20
0
30
0
70
128
71
128
72
133
73
129
0
VERTEX
8
OBJECT__4
10
0
20
0
30
0
70
128
71
125
72
127
73
126
0
VERTEX
8
OBJECT__4
10
0
20
0
30
0
70
128
71
122
72
124
73
120
0
VERTEX
8
OBJECT__4
10
0
20
0
30
0
70
128
71
118
72
123
73
116
0
VERTEX
8
OBJECT__4
10
0
20
0
30
0
70
128
71
114
72
119
73
115
0
VERTEX
8
OBJECT__4
10
0
20
0
30
0
70
128
71
111
72
113
73
109
0
VERTEX
8
OBJECT__4
10
0
20
0
30
0
70
128
71
107
72
112
73
105
0
VERTEX
8
OBJECT__4
10
0
20
0
30
0
70
128
71
103
72
108
73
104
0
VERTEX
8
OBJECT__4
10
0
20
0
30
0
70
128
71
100
72
102
73
101
0
VERTEX
8
OBJECT__4
10
0
20
0
30
0
70
128
71
97
72
99
73
95
0
VERTEX
8
OBJECT__4
10
0
20
0
30
0
70
128
71
93
72
98
73
91
0
VERTEX
8
OBJECT__4
10
0
20
0
30
0
70
128
71
89
72
94
73
90
0
VERTEX
8
OBJECT__4
10
0
20
0
30
0
70
128
71
86
72
88
73
84
0
VERTEX
8
OBJECT__4
10
0
20
0
30
0
70
128
71
82
72
87
73
80
0
VERTEX
8
OBJECT__4
10
0
20
0
30
0
70
128
71
78
72
83
73
79
0
VERTEX
8
OBJECT__4
10
0
20
0
30
0
70
128
71
75
72
77
73
76
0
VERTEX
8
OBJECT__4
10
0
20
0
30
0
70
128
71
72
72
74
73
70
0
VERTEX
8
OBJECT__4
10
0
20
0
30
0
70
128
71
68
72
73
73
66
0
VERTEX
8
OBJECT__4
10
0
20
0
30
0
70
128
71
64
72
69
73
65
0
VERTEX
8
OBJECT__4
10
0
20
0
30
0
70
128
71
61
72
63
73
59
0
VERTEX
8
OBJECT__4
10
0
20
0
30
0
70
128
71
57
72
62
73
55
0
VERTEX
8
OBJECT__4
10
0
20
0
30
0
70
128
71
53
72
58
73
54
0
VERTEX
8
OBJECT__4
10
0
20
0
30
0
70
128
71
50
72
52
73
51
0
VERTEX
8
OBJECT__4
10
0
20
0
30
0
70
128
71
47
72
49
73
45
0
VERTEX
8
OBJECT__4
10
0
20
0
30
0
70
128
71
43
72
48
73
41
0
VERTEX
8
OBJECT__4
10
0
20
0
30
0
70
128
71
39
72
44
73
40
0
VERTEX
8
OBJECT__4
10
0
20
0
30
0
70
128
71
36
72
38
73
34
0
VERTEX
8
OBJECT__4
10
0
20
0
30
0
70
128
71
32
72
37
73
30
0
VERTEX
8
OBJECT__4
10
0
20
0
30
0
70
128
71
28
72
33
73
29
0
VERTEX
8
OBJECT__4
10
0
20
0
30
0
70
128
71
25
72
27
73
26
0
VERTEX
8
OBJECT__4
10
0
20
0
30
0
70
128
71
22
72
24
73
20
0
VERTEX
8
OBJECT__4
10
0
20
0
30
0
70
128
71
18
72
23
73
16
0
VERTEX
8
OBJECT__4
10
0
20
0
30
0
70
128
71
14
72
19
73
15
0
VERTEX
8
OBJECT__4
10
0
20
0
30
0
70
128
71
11
72
13
73
9
0
VERTEX
8
OBJECT__4
10
0
20
0
30
0
70
128
71
7
72
12
73
5
0
VERTEX
8
OBJECT__4
10
0
20
0
30
0
70
128
71
3
72
8
73
4
0
SEQEND
8
OBJECT__4
0
POLYLINE
8
OBJECT__5
66
1
70
64
71
171
72
171
62
253
0
VERTEX
8
OBJECT__5
10
4.316500
20
-41.525002
30
0.000000
70
192
0
VERTEX
8
OBJECT__5
10
2.026501
20
-41.632999
30
-0.979000
70
192
0
VERTEX
8
OBJECT__5
10
2.029499
20
-41.362000
30
-4.847000
70
192
0
VERTEX
8
OBJECT__5
10
2.026501
20
-41.645000
30
0.000000
70
192
0
VERTEX
8
OBJECT__5
10
2.035500
20
-40.731998
30
-8.658000
70
192
0
VERTEX
8
OBJECT__5
10
4.316500
20
-40.508999
30
-8.609000
70
192
0
VERTEX
8
OBJECT__5
10
4.316500
20
-41.061001
30
-6.189000
70
192
0
VERTEX
8
OBJECT__5
10
2.035500
20
-40.723999
30
-8.705000
70
192
0
VERTEX
8
OBJECT__5
10
2.040501
20
-40.158001
30
-11.025000
70
192
0
VERTEX
8
OBJECT__5
10
4.316500
20
-39.680000
30
-12.240000
70
192
0
VERTEX
8
OBJECT__5
10
2.050501
20
-38.959999
30
-14.707000
70
192
0
VERTEX
8
OBJECT__5
10
4.316500
20
-37.866001
30
-16.863001
70
192
0
VERTEX
8
OBJECT__5
10
2.057501
20
-38.004002
30
-16.921000
70
192
0
VERTEX
8
OBJECT__5
10
2.061501
20
-37.422001
30
-18.268000
70
192
0
VERTEX
8
OBJECT__5
10
4.316500
20
-37.412998
30
-18.017000
70
192
0
VERTEX
8
OBJECT__5
10
2.070499
20
-35.542999
30
-21.698000
70
192
0
VERTEX
8
OBJECT__5
10
4.316500
20
-34.308998
30
-23.392000
70
192
0
VERTEX
8
OBJECT__5
10
4.316500
20
-33.535999
30
-24.361000
70
192
0
VERTEX
8
OBJECT__5
10
2.074499
20
-34.244999
30
-23.693001
70
192
0
VERTEX
8
OBJECT__5
10
2.075500
20
-33.662998
30
-24.455999
70
192
0
VERTEX
8
OBJECT__5
10
2.079500
20
-31.895000
30
-26.773001
70
192
0
VERTEX
8
OBJECT__5
10
4.316500
20
-30.440001
30
-28.243999
70
192
0
VERTEX
8
OBJECT__5
10
4.316500
20
-27.709999
30
-30.777000
70
192
0
VERTEX
8
OBJECT__5
10
2.080500
20
-29.264000
30
-29.625000
70
192
0
VERTEX
8
OBJECT__5
10
2.079500
20
-27.833000
30
-30.912001
70
192
0
VERTEX
8
OBJECT__5
10
2.078501
20
-26.356001
30
-32.240002
70
192
0
VERTEX
8
OBJECT__5
10
4.316500
20
-20.761999
30
-35.962002
70
192
0
VERTEX
8
OBJECT__5
10
4.316500
20
-25.889999
30
-32.465000
70
192
0
VERTEX
8
OBJECT__5
10
2.075500
20
-24.473000
30
-33.692001
70
192
0
VERTEX
8
OBJECT__5
10
2.069500
20
-21.237000
30
-35.820000
70
192
0
VERTEX
8
OBJECT__5
10
2.068501
20
-20.812000
30
-36.046001
70
192
0
VERTEX
8
OBJECT__5
10
2.062500
20
-17.812000
30
-37.641998
70
192
0
VERTEX
8
OBJECT__5
10
4.316500
20
-15.171000
30
-38.653999
70
192
0
VERTEX
8
OBJECT__5
10
4.316500
20
-12.799000
30
-39.386002
70
192
0
VERTEX
8
OBJECT__5
10
2.055500
20
-14.202000
30
-39.146999
70
192
0
VERTEX
8
OBJECT__5
10
2.053499
20
-12.863000
30
-39.590000
70
192
0
VERTEX
8
OBJECT__5
10
2.051500
20
-11.943000
30
-39.894001
70
192
0
VERTEX
8
OBJECT__5
10
2.045500
20
-8.186000
30
-40.831001
70
192
0
VERTEX
8
OBJECT__5
10
4.316500
20
-9.240000
30
-40.484001
70
192
0
VERTEX
8
OBJECT__5
10
4.316500
20
-4.329000
30
-41.223999
70
192
0
VERTEX
8
OBJECT__5
10
2.042500
20
-4.353000
30
-41.416000
70
192
0
VERTEX
8
OBJECT__5
10
2.042500
20
-4.351000
30
-41.416000
70
192
0
VERTEX
8
OBJECT__5
10
4.316500
20
3.103000
30
-41.409000
70
192
0
VERTEX
8
OBJECT__5
10
4.316500
20
-3.103000
30
-41.409000
70
192
0
VERTEX
8
OBJECT__5
10
2.040501
20
-0.448000
30
-41.641998
70
192
0
VERTEX
8
OBJECT__5
10
2.040501
20
1.937000
30
-41.598999
70
192
0
VERTEX
8
OBJECT__5
10
2.042500
20
4.349000
30
-41.374001
70
192
0
VERTEX
8
OBJECT__5
10
4.316500
20
4.329000
30
-41.223999
70
192
0
VERTEX
8
OBJECT__5
10
4.316500
20
9.240000
30
-40.484001
70
192
0
VERTEX
8
OBJECT__5
10
2.043501
20
5.792000
30
-41.238998
70
192
0
VERTEX
8
OBJECT__5
10
4.316500
20
12.799000
30
-39.386002
70
192
0
VERTEX
8
OBJECT__5
10
2.047501
20
9.604000
30
-40.521000
70
192
0
VERTEX
8
OBJECT__5
10
2.053499
20
12.863000
30
-39.584999
70
192
0
VERTEX
8
OBJECT__5
10
4.316500
20
15.171000
30
-38.653999
70
192
0
VERTEX
8
OBJECT__5
10
2.054501
20
13.362000
30
-39.441002
70
192
0
VERTEX
8
OBJECT__5
10
2.058500
20
15.600000
30
-38.611000
70
192
0
VERTEX
8
OBJECT__5
10
2.065500
20
19.118999
30
-36.993999
70
192
0
VERTEX
8
OBJECT__5
10
4.316500
20
20.761999
30
-35.962002
70
192
0
VERTEX
8
OBJECT__5
10
2.068501
20
20.799000
30
-36.023998
70
192
0
VERTEX
8
OBJECT__5
10
4.316500
20
25.889999
30
-32.465000
70
192
0
VERTEX
8
OBJECT__5
10
2.072500
20
22.479000
30
-35.054001
70
192
0
VERTEX
8
OBJECT__5
10
2.077499
20
25.667999
30
-32.791000
70
192
0
VERTEX
8
OBJECT__5
10
2.079500
20
27.499001
30
-31.271000
70
192
0
VERTEX
8
OBJECT__5
10
4.316500
20
27.709999
30
-30.777000
70
192
0
VERTEX
8
OBJECT__5
10
2.079500
20
27.850000
30
-30.931999
70
192
0
VERTEX
8
OBJECT__5
10
2.080500
20
30.285999
30
-28.580000
70
192
0
VERTEX
8
OBJECT__5
10
4.316500
20
30.440001
30
-28.243999
70
192
0
VERTEX
8
OBJECT__5
10
2.077499
20
32.814999
30
-25.636999
70
192
0
VERTEX
8
OBJECT__5
10
4.316500
20
33.535999
30
-24.361000
70
192
0
VERTEX
8
OBJECT__5
10
2.075500
20
33.653999
30
-24.452000
70
192
0
VERTEX
8
OBJECT__5
10
2.071501
20
35.076000
30
-22.445000
70
192
0
VERTEX
8
OBJECT__5
10
4.316500
20
34.308998
30
-23.392000
70
192
0
VERTEX
8
OBJECT__5
10
2.067499
20
36.299000
30
-20.409000
70
192
0
VERTEX
8
OBJECT__5
10
4.316500
20
37.412998
30
-18.017000
70
192
0
VERTEX
8
OBJECT__5
10
4.316500
20
37.866001
30
-16.863001
70
192
0
VERTEX
8
OBJECT__5
10
2.057501
20
38.037998
30
-16.948000
70
192
0
VERTEX
8
OBJECT__5
10
2.057501
20
38.042999
30
-16.938000
70
192
0
VERTEX
8
OBJECT__5
10
2.047501
20
39.451000
30
-13.335000
70
192
0
VERTEX
8
OBJECT__5
10
2.037500
20
40.528000
30
-9.576000
70
192
0
VERTEX
8
OBJECT__5
10
4.316500
20
40.508999
30
-8.609000
70
192
0
VERTEX
8
OBJECT__5
10
4.316500
20
39.680000
30
-12.240000
70
192
0
VERTEX
8
OBJECT__5
10
2.035500
20
40.717999
30
-8.655000
70
192
0
VERTEX
8
OBJECT__5
10
2.032499
20
41.008999
30
-7.246000
70
192
0
VERTEX
8
OBJECT__5
10
4.316500
20
41.525002
30
0.000000
70
192
0
VERTEX
8
OBJECT__5
10
4.316500
20
41.061001
30
-6.189000
70
192
0
VERTEX
8
OBJECT__5
10
2.028500
20
41.505001
30
-3.406000
70
192
0
VERTEX
8
OBJECT__5
10
2.026501
20
41.625999
30
0.001000
70
192
0
VERTEX
8
OBJECT__5
10
2.026501
20
41.641998
30
0.470000
70
192
0
VERTEX
8
OBJECT__5
10
2.028500
20
41.414001
30
4.373000
70
192
0
VERTEX
8
OBJECT__5
10
4.316500
20
41.061001
30
6.189000
70
192
0
VERTEX
8
OBJECT__5
10
2.035500
20
40.713001
30
8.655000
70
192
0
VERTEX
8
OBJECT__5
10
4.316500
20
40.508999
30
8.609000
70
192
0
VERTEX
8
OBJECT__5
10
2.030500
20
41.297001
30
5.373000
70
192
0
VERTEX
8
OBJECT__5
10
2.036499
20
40.617001
30
9.192000
70
192
0
VERTEX
8
OBJECT__5
10
2.045500
20
39.583000
30
12.939000
70
192
0
VERTEX
8
OBJECT__5
10
4.316500
20
39.680000
30
12.240000
70
192
0
VERTEX
8
OBJECT__5
10
2.052500
20
38.776001
30
15.185000
70
192
0
VERTEX
8
OBJECT__5
10
4.316500
20
37.866001
30
16.863001
70
192
0
VERTEX
8
OBJECT__5
10
2.057501
20
38.001999
30
16.919001
70
192
0
VERTEX
8
OBJECT__5
10
2.062500
20
37.196999
30
18.722000
70
192
0
VERTEX
8
OBJECT__5
10
4.316500
20
37.412998
30
18.017000
70
192
0
VERTEX
8
OBJECT__5
10
2.071501
20
35.292999
30
22.101000
70
192
0
VERTEX
8
OBJECT__5
10
4.316500
20
34.308998
30
23.392000
70
192
0
VERTEX
8
OBJECT__5
10
2.075500
20
33.660000
30
24.455999
70
192
0
VERTEX
8
OBJECT__5
10
4.316500
20
33.535999
30
24.361000
70
192
0
VERTEX
8
OBJECT__5
10
2.077499
20
33.063999
30
25.315001
70
192
0
VERTEX
8
OBJECT__5
10
2.079500
20
31.563999
30
27.162001
70
192
0
VERTEX
8
OBJECT__5
10
2.080500
20
28.903999
30
29.976999
70
192
0
VERTEX
8
OBJECT__5
10
4.316500
20
27.709999
30
30.777000
70
192
0
VERTEX
8
OBJECT__5
10
4.316500
20
30.440001
30
28.243999
70
192
0
VERTEX
8
OBJECT__5
10
2.079500
20
27.836000
30
30.915001
70
192
0
VERTEX
8
OBJECT__5
10
2.077499
20
25.988001
30
32.536999
70
192
0
VERTEX
8
OBJECT__5
10
4.316500
20
25.889999
30
32.465000
70
192
0
VERTEX
8
OBJECT__5
10
2.072500
20
22.820999
30
34.832001
70
192
0
VERTEX
8
OBJECT__5
10
4.316500
20
20.761999
30
35.962002
70
192
0
VERTEX
8
OBJECT__5
10
2.068501
20
20.820999
30
36.063000
70
192
0
VERTEX
8
OBJECT__5
10
2.068501
20
20.796000
30
36.077999
70
192
0
VERTEX
8
OBJECT__5
10
2.061501
20
17.355000
30
37.854000
70
192
0
VERTEX
8
OBJECT__5
10
4.316500
20
15.171000
30
38.653999
70
192
0
VERTEX
8
OBJECT__5
10
4.316500
20
12.799000
30
39.386002
70
192
0
VERTEX
8
OBJECT__5
10
2.054501
20
13.757000
30
39.305000
70
192
0
VERTEX
8
OBJECT__5
10
2.053499
20
12.859000
30
39.573002
70
192
0
VERTEX
8
OBJECT__5
10
2.048500
20
10.009000
30
40.423000
70
192
0
VERTEX
8
OBJECT__5
10
4.316500
20
4.329000
30
41.223999
70
192
0
VERTEX
8
OBJECT__5
10
4.316500
20
9.240000
30
40.484001
70
192
0
VERTEX
8
OBJECT__5
10
2.045500
20
7.683000
30
40.929001
70
192
0
VERTEX
8
OBJECT__5
10
2.042500
20
4.350000
30
41.396000
70
192
0
VERTEX
8
OBJECT__5
10
2.041500
20
3.848000
30
41.466000
70
192
0
VERTEX
8
OBJECT__5
10
4.316500
20
3.103000
30
41.409000
70
192
0
VERTEX
8
OBJECT__5
10
2.040501
20
-0.027000
30
41.644001
70
192
0
VERTEX
8
OBJECT__5
10
4.316500
20
-3.103000
30
41.409000
70
192
0
VERTEX
8
OBJECT__5
10
4.316500
20
-4.329000
30
41.223999
70
192
0
VERTEX
8
OBJECT__5
10
2.041500
20
-3.932000
30
41.458000
70
192
0
VERTEX
8
OBJECT__5
10
2.042500
20
-4.352000
30
41.405998
70
192
0
VERTEX
8
OBJECT__5
10
4.316500
20
-9.240000
30
40.484001
70
192
0
VERTEX
8
OBJECT__5
10
2.043501
20
-6.300000
30
41.165001
70
192
0
VERTEX
8
OBJECT__5
10
4.316500
20
-12.799000
30
39.386002
70
192
0
VERTEX
8
OBJECT__5
10
2.048500
20
-10.097000
30
40.401001
70
192
0
VERTEX
8
OBJECT__5
10
2.053499
20
-12.859000
30
39.571999
70
192
0
VERTEX
8
OBJECT__5
10
2.054501
20
-13.812000
30
39.285999
70
192
0
VERTEX
8
OBJECT__5
10
4.316500
20
-20.761999
30
35.962002
70
192
0
VERTEX
8
OBJECT__5
10
4.316500
20
-15.171000
30
38.653999
70
192
0
VERTEX
8
OBJECT__5
10
2.061501
20
-17.436001
30
37.817001
70
192
0
VERTEX
8
OBJECT__5
10
2.066500
20
-19.573000
30
36.756001
70
192
0
VERTEX
8
OBJECT__5
10
2.068501
20
-20.799999
30
36.028000
70
192
0
VERTEX
8
OBJECT__5
10
4.316500
20
-25.889999
30
32.465000
70
192
0
VERTEX
8
OBJECT__5
10
2.072500
20
-22.903000
30
34.778000
70
192
0
VERTEX
8
OBJECT__5
10
4.316500
20
-27.709999
30
30.777000
70
192
0
VERTEX
8
OBJECT__5
10
2.077499
20
-26.040001
30
32.495998
70
192
0
VERTEX
8
OBJECT__5
10
2.079500
20
-27.834999
30
30.913000
70
192
0
VERTEX
8
OBJECT__5
10
4.316500
20
-30.440001
30
28.243999
70
192
0
VERTEX
8
OBJECT__5
10
2.080500
20
-28.974001
30
29.909000
70
192
0
VERTEX
8
OBJECT__5
10
2.080500
20
-30.632999
30
28.208000
70
192
0
VERTEX
8
OBJECT__5
10
2.077499
20
-33.122002
30
25.239000
70
192
0
VERTEX
8
OBJECT__5
10
4.316500
20
-33.535999
30
24.361000
70
192
0
VERTEX
8
OBJECT__5
10
2.075500
20
-33.661999
30
24.458000
70
192
0
VERTEX
8
OBJECT__5
10
4.316500
20
-37.412998
30
18.017000
70
192
0
VERTEX
8
OBJECT__5
10
4.316500
20
-34.308998
30
23.392000
70
192
0
VERTEX
8
OBJECT__5
10
2.071501
20
-35.327000
30
22.047001
70
192
0
VERTEX
8
OBJECT__5
10
2.057501
20
-38.033001
30
16.933001
70
192
0
VERTEX
8
OBJECT__5
10
4.316500
20
-37.866001
30
16.863001
70
192
0
VERTEX
8
OBJECT__5
10
2.062500
20
-37.241001
30
18.636000
70
192
0
VERTEX
8
OBJECT__5
10
2.056499
20
-38.243000
30
16.482000
70
192
0
VERTEX
8
OBJECT__5
10
2.045500
20
-39.609001
30
12.858000
70
192
0
VERTEX
8
OBJECT__5
10
2.036499
20
-40.633999
30
9.117000
70
192
0
VERTEX
8
OBJECT__5
10
4.316500
20
-40.508999
30
8.609000
70
192
0
VERTEX
8
OBJECT__5
10
4.316500
20
-39.680000
30
12.240000
70
192
0
VERTEX
8
OBJECT__5
10
2.035500
20
-40.715000
30
8.655000
70
192
0
VERTEX
8
OBJECT__5
10
2.029499
20
-41.310001
30
5.266000
70
192
0
VERTEX
8
OBJECT__5
10
4.316500
20
-41.061001
30
6.189000
70
192
0
VERTEX
8
OBJECT__5
10
2.027500
20
-41.543999
30
2.893000
70
192
0
VERTEX
8
OBJECT__5
10
0
20
0
30
0
70
128
71
1
72
2
73
3
0
VERTEX
8
OBJECT__5
10
0
20
0
30
0
70
128
71
1
72
4
73
2
0
VERTEX
8
OBJECT__5
10
0
20
0
30
0
70
128
71
5
72
6
73
7
0
VERTEX
8
OBJECT__5
10
0
20
0
30
0
70
128
71
7
72
3
73
5
0
VERTEX
8
OBJECT__5
10
0
20
0
30
0
70
128
71
6
72
8
73
9
0
VERTEX
8
OBJECT__5
10
0
20
0
30
0
70
128
71
6
72
5
73
8
0
VERTEX
8
OBJECT__5
10
0
20
0
30
0
70
128
71
10
72
9
73
11
0
VERTEX
8
OBJECT__5
10
0
20
0
30
0
70
128
71
11
72
12
73
10
0
VERTEX
8
OBJECT__5
10
0
20
0
30
0
70
128
71
11
72
13
73
12
0
VERTEX
8
OBJECT__5
10
0
20
0
30
0
70
128
71
13
72
14
73
15
0
VERTEX
8
OBJECT__5
10
0
20
0
30
0
70
128
71
15
72
14
73
16
0
VERTEX
8
OBJECT__5
10
0
20
0
30
0
70
128
71
16
72
17
73
15
0
VERTEX
8
OBJECT__5
10
0
20
0
30
0
70
128
71
18
72
17
73
19
0
VERTEX
8
OBJECT__5
10
0
20
0
30
0
70
128
71
19
72
20
73
18
0
VERTEX
8
OBJECT__5
10
0
20
0
30
0
70
128
71
16
72
19
73
17
0
VERTEX
8
OBJECT__5
10
0
20
0
30
0
70
128
71
18
72
20
73
21
0
VERTEX
8
OBJECT__5
10
0
20
0
30
0
70
128
71
21
72
22
73
18
0
VERTEX
8
OBJECT__5
10
0
20
0
30
0
70
128
71
23
72
22
73
24
0
VERTEX
8
OBJECT__5
10
0
20
0
30
0
70
128
71
24
72
25
73
23
0
VERTEX
8
OBJECT__5
10
0
20
0
30
0
70
128
71
23
72
25
73
26
0
VERTEX
8
OBJECT__5
10
0
20
0
30
0
70
128
71
27
72
28
73
29
0
VERTEX
8
OBJECT__5
10
0
20
0
30
0
70
128
71
29
72
30
73
27
0
VERTEX
8
OBJECT__5
10
0
20
0
30
0
70
128
71
28
72
26
73
29
0
VERTEX
8
OBJECT__5
10
0
20
0
30
0
70
128
71
30
72
31
73
27
0
VERTEX
8
OBJECT__5
10
0
20
0
30
0
70
128
71
27
72
31
73
32
0
VERTEX
8
OBJECT__5
10
0
20
0
30
0
70
128
71
32
72
33
73
27
0
VERTEX
8
OBJECT__5
10
0
20
0
30
0
70
128
71
34
72
33
73
35
0
VERTEX
8
OBJECT__5
10
0
20
0
30
0
70
128
71
35
72
36
73
34
0
VERTEX
8
OBJECT__5
10
0
20
0
30
0
70
128
71
37
72
38
73
39
0
VERTEX
8
OBJECT__5
10
0
20
0
30
0
70
128
71
34
72
36
73
37
0
VERTEX
8
OBJECT__5
10
0
20
0
30
0
70
128
71
40
72
39
73
38
0
VERTEX
8
OBJECT__5
10
0
20
0
30
0
70
128
71
38
72
41
73
40
0
VERTEX
8
OBJECT__5
10
0
20
0
30
0
70
128
71
40
72
41
73
42
0
VERTEX
8
OBJECT__5
10
0
20
0
30
0
70
128
71
43
72
44
73
45
0
VERTEX
8
OBJECT__5
10
0
20
0
30
0
70
128
71
44
72
42
73
45
0
VERTEX
8
OBJECT__5
10
0
20
0
30
0
70
128
71
45
72
46
73
43
0
VERTEX
8
OBJECT__5
10
0
20
0
30
0
70
128
71
47
72
48
73
43
0
VERTEX
8
OBJECT__5
10
0
20
0
30
0
70
128
71
43
72
46
73
47
0
VERTEX
8
OBJECT__5
10
0
20
0
30
0
70
128
71
49
72
48
73
50
0
VERTEX
8
OBJECT__5
10
0
20
0
30
0
70
128
71
48
72
47
73
50
0
VERTEX
8
OBJECT__5
10
0
20
0
30
0
70
128
71
51
72
49
73
52
0
VERTEX
8
OBJECT__5
10
0
20
0
30
0
70
128
71
52
72
53
73
51
0
VERTEX
8
OBJECT__5
10
0
20
0
30
0
70
128
71
54
72
51
73
55
0
VERTEX
8
OBJECT__5
10
0
20
0
30
0
70
128
71
51
72
53
73
55
0
VERTEX
8
OBJECT__5
10
0
20
0
30
0
70
128
71
54
72
56
73
57
0
VERTEX
8
OBJECT__5
10
0
20
0
30
0
70
128
71
57
72
58
73
54
0
VERTEX
8
OBJECT__5
10
0
20
0
30
0
70
128
71
57
72
59
73
58
0
VERTEX
8
OBJECT__5
10
0
20
0
30
0
70
128
71
60
72
58
73
61
0
VERTEX
8
OBJECT__5
10
0
20
0
30
0
70
128
71
58
72
59
73
61
0
VERTEX
8
OBJECT__5
10
0
20
0
30
0
70
128
71
60
72
62
73
63
0
VERTEX
8
OBJECT__5
10
0
20
0
30
0
70
128
71
63
72
64
73
60
0
VERTEX
8
OBJECT__5
10
0
20
0
30
0
70
128
71
63
72
65
73
64
0
VERTEX
8
OBJECT__5
10
0
20
0
30
0
70
128
71
64
72
65
73
66
0
VERTEX
8
OBJECT__5
10
0
20
0
30
0
70
128
71
67
72
66
73
68
0
VERTEX
8
OBJECT__5
10
0
20
0
30
0
70
128
71
68
72
69
73
67
0
VERTEX
8
OBJECT__5
10
0
20
0
30
0
70
128
71
68
72
70
73
69
0
VERTEX
8
OBJECT__5
10
0
20
0
30
0
70
128
71
70
72
71
73
72
0
VERTEX
8
OBJECT__5
10
0
20
0
30
0
70
128
71
72
72
71
73
73
0
VERTEX
8
OBJECT__5
10
0
20
0
30
0
70
128
71
73
72
74
73
72
0
VERTEX
8
OBJECT__5
10
0
20
0
30
0
70
128
71
75
72
74
73
76
0
VERTEX
8
OBJECT__5
10
0
20
0
30
0
70
128
71
76
72
77
73
75
0
VERTEX
8
OBJECT__5
10
0
20
0
30
0
70
128
71
73
72
76
73
74
0
VERTEX
8
OBJECT__5
10
0
20
0
30
0
70
128
71
75
72
77
73
78
0
VERTEX
8
OBJECT__5
10
0
20
0
30
0
70
128
71
79
72
80
73
81
0
VERTEX
8
OBJECT__5
10
0
20
0
30
0
70
128
71
81
72
78
73
79
0
VERTEX
8
OBJECT__5
10
0
20
0
30
0
70
128
71
79
72
82
73
80
0
VERTEX
8
OBJECT__5
10
0
20
0
30
0
70
128
71
80
72
82
73
83
0
VERTEX
8
OBJECT__5
10
0
20
0
30
0
70
128
71
84
72
85
73
86
0
VERTEX
8
OBJECT__5
10
0
20
0
30
0
70
128
71
85
72
83
73
86
0
VERTEX
8
OBJECT__5
10
0
20
0
30
0
70
128
71
86
72
87
73
84
0
VERTEX
8
OBJECT__5
10
0
20
0
30
0
70
128
71
84
72
88
73
89
0
VERTEX
8
OBJECT__5
10
0
20
0
30
0
70
128
71
84
72
87
73
88
0
VERTEX
8
OBJECT__5
10
0
20
0
30
0
70
128
71
89
72
90
73
84
0
VERTEX
8
OBJECT__5
10
0
20
0
30
0
70
128
71
91
72
92
73
90
0
VERTEX
8
OBJECT__5
10
0
20
0
30
0
70
128
71
90
72
93
73
91
0
VERTEX
8
OBJECT__5
10
0
20
0
30
0
70
128
71
94
72
95
73
96
0
VERTEX
8
OBJECT__5
10
0
20
0
30
0
70
128
71
92
72
91
73
94
0
VERTEX
8
OBJECT__5
10
0
20
0
30
0
70
128
71
96
72
95
73
97
0
VERTEX
8
OBJECT__5
10
0
20
0
30
0
70
128
71
97
72
98
73
96
0
VERTEX
8
OBJECT__5
10
0
20
0
30
0
70
128
71
97
72
99
73
98
0
VERTEX
8
OBJECT__5
10
0
20
0
30
0
70
128
71
99
72
100
73
101
0
VERTEX
8
OBJECT__5
10
0
20
0
30
0
70
128
71
101
72
100
73
102
0
VERTEX
8
OBJECT__5
10
0
20
0
30
0
70
128
71
102
72
103
73
101
0
VERTEX
8
OBJECT__5
10
0
20
0
30
0
70
128
71
102
72
104
73
103
0
VERTEX
8
OBJECT__5
10
0
20
0
30
0
70
128
71
104
72
105
73
103
0
VERTEX
8
OBJECT__5
10
0
20
0
30
0
70
128
71
105
72
106
73
107
0
VERTEX
8
OBJECT__5
10
0
20
0
30
0
70
128
71
105
72
104
73
106
0
VERTEX
8
OBJECT__5
10
0
20
0
30
0
70
128
71
108
72
109
73
110
0
VERTEX
8
OBJECT__5
10
0
20
0
30
0
70
128
71
110
72
107
73
108
0
VERTEX
8
OBJECT__5
10
0
20
0
30
0
70
128
71
108
72
111
73
109
0
VERTEX
8
OBJECT__5
10
0
20
0
30
0
70
128
71
109
72
111
73
112
0
VERTEX
8
OBJECT__5
10
0
20
0
30
0
70
128
71
113
72
112
73
114
0
VERTEX
8
OBJECT__5
10
0
20
0
30
0
70
128
71
114
72
115
73
113
0
VERTEX
8
OBJECT__5
10
0
20
0
30
0
70
128
71
114
72
116
73
115
0
VERTEX
8
OBJECT__5
10
0
20
0
30
0
70
128
71
115
72
117
73
118
0
VERTEX
8
OBJECT__5
10
0
20
0
30
0
70
128
71
118
72
119
73
115
0
VERTEX
8
OBJECT__5
10
0
20
0
30
0
70
128
71
115
72
116
73
117
0
VERTEX
8
OBJECT__5
10
0
20
0
30
0
70
128
71
120
72
119
73
121
0
VERTEX
8
OBJECT__5
10
0
20
0
30
0
70
128
71
121
72
122
73
120
0
VERTEX
8
OBJECT__5
10
0
20
0
30
0
70
128
71
120
72
122
73
123
0
VERTEX
8
OBJECT__5
10
0
20
0
30
0
70
128
71
124
72
125
73
126
0
VERTEX
8
OBJECT__5
10
0
20
0
30
0
70
128
71
125
72
123
73
126
0
VERTEX
8
OBJECT__5
10
0
20
0
30
0
70
128
71
126
72
127
73
124
0
VERTEX
8
OBJECT__5
10
0
20
0
30
0
70
128
71
124
72
127
73
128
0
VERTEX
8
OBJECT__5
10
0
20
0
30
0
70
128
71
129
72
128
73
130
0
VERTEX
8
OBJECT__5
10
0
20
0
30
0
70
128
71
130
72
131
73
129
0
VERTEX
8
OBJECT__5
10
0
20
0
30
0
70
128
71
132
72
131
73
133
0
VERTEX
8
OBJECT__5
10
0
20
0
30
0
70
128
71
133
72
134
73
132
0
VERTEX
8
OBJECT__5
10
0
20
0
30
0
70
128
71
130
72
133
73
131
0
VERTEX
8
OBJECT__5
10
0
20
0
30
0
70
128
71
135
72
132
73
136
0
VERTEX
8
OBJECT__5
10
0
20
0
30
0
70
128
71
132
72
134
73
136
0
VERTEX
8
OBJECT__5
10
0
20
0
30
0
70
128
71
137
72
135
73
138
0
VERTEX
8
OBJECT__5
10
0
20
0
30
0
70
128
71
138
72
139
73
137
0
VERTEX
8
OBJECT__5
10
0
20
0
30
0
70
128
71
137
72
139
73
140
0
VERTEX
8
OBJECT__5
10
0
20
0
30
0
70
128
71
141
72
142
73
143
0
VERTEX
8
OBJECT__5
10
0
20
0
30
0
70
128
71
142
72
140
73
143
0
VERTEX
8
OBJECT__5
10
0
20
0
30
0
70
128
71
143
72
144
73
141
0
VERTEX
8
OBJECT__5
10
0
20
0
30
0
70
128
71
144
72
145
73
141
0
VERTEX
8
OBJECT__5
10
0
20
0
30
0
70
128
71
146
72
141
73
147
0
VERTEX
8
OBJECT__5
10
0
20
0
30
0
70
128
71
141
72
145
73
147
0
VERTEX
8
OBJECT__5
10
0
20
0
30
0
70
128
71
148
72
146
73
149
0
VERTEX
8
OBJECT__5
10
0
20
0
30
0
70
128
71
149
72
150
73
148
0
VERTEX
8
OBJECT__5
10
0
20
0
30
0
70
128
71
151
72
148
73
152
0
VERTEX
8
OBJECT__5
10
0
20
0
30
0
70
128
71
148
72
150
73
152
0
VERTEX
8
OBJECT__5
10
0
20
0
30
0
70
128
71
151
72
153
73
154
0
VERTEX
8
OBJECT__5
10
0
20
0
30
0
70
128
71
154
72
155
73
151
0
VERTEX
8
OBJECT__5
10
0
20
0
30
0
70
128
71
154
72
156
73
155
0
VERTEX
8
OBJECT__5
10
0
20
0
30
0
70
128
71
157
72
158
73
159
0
VERTEX
8
OBJECT__5
10
0
20
0
30
0
70
128
71
158
72
156
73
159
0
VERTEX
8
OBJECT__5
10
0
20
0
30
0
70
128
71
160
72
161
73
157
0
VERTEX
8
OBJECT__5
10
0
20
0
30
0
70
128
71
157
72
162
73
160
0
VERTEX
8
OBJECT__5
10
0
20
0
30
0
70
128
71
159
72
162
73
157
0
VERTEX
8
OBJECT__5
10
0
20
0
30
0
70
128
71
161
72
163
73
164
0
VERTEX
8
OBJECT__5
10
0
20
0
30
0
70
128
71
161
72
160
73
163
0
VERTEX
8
OBJECT__5
10
0
20
0
30
0
70
128
71
165
72
166
73
167
0
VERTEX
8
OBJECT__5
10
0
20
0
30
0
70
128
71
167
72
164
73
165
0
VERTEX
8
OBJECT__5
10
0
20
0
30
0
70
128
71
165
72
168
73
166
0
VERTEX
8
OBJECT__5
10
0
20
0
30
0
70
128
71
168
72
169
73
170
0
VERTEX
8
OBJECT__5
10
0
20
0
30
0
70
128
71
170
72
169
73
171
0
VERTEX
8
OBJECT__5
10
0
20
0
30
0
70
128
71
171
72
1
73
170
0
VERTEX
8
OBJECT__5
10
0
20
0
30
0
70
128
71
171
72
4
73
1
0
VERTEX
8
OBJECT__5
10
0
20
0
30
0
70
128
71
170
72
166
73
168
0
VERTEX
8
OBJECT__5
10
0
20
0
30
0
70
128
71
164
72
167
73
161
0
VERTEX
8
OBJECT__5
10
0
20
0
30
0
70
128
71
158
72
155
73
156
0
VERTEX
8
OBJECT__5
10
0
20
0
30
0
70
128
71
152
72
153
73
151
0
VERTEX
8
OBJECT__5
10
0
20
0
30
0
70
128
71
147
72
149
73
146
0
VERTEX
8
OBJECT__5
10
0
20
0
30
0
70
128
71
140
72
142
73
137
0
VERTEX
8
OBJECT__5
10
0
20
0
30
0
70
128
71
136
72
138
73
135
0
VERTEX
8
OBJECT__5
10
0
20
0
30
0
70
128
71
128
72
129
73
124
0
VERTEX
8
OBJECT__5
10
0
20
0
30
0
70
128
71
123
72
125
73
120
0
VERTEX
8
OBJECT__5
10
0
20
0
30
0
70
128
71
118
72
121
73
119
0
VERTEX
8
OBJECT__5
10
0
20
0
30
0
70
128
71
112
72
113
73
109
0
VERTEX
8
OBJECT__5
10
0
20
0
30
0
70
128
71
107
72
110
73
105
0
VERTEX
8
OBJECT__5
10
0
20
0
30
0
70
128
71
101
72
98
73
99
0
VERTEX
8
OBJECT__5
10
0
20
0
30
0
70
128
71
96
72
92
73
94
0
VERTEX
8
OBJECT__5
10
0
20
0
30
0
70
128
71
89
72
93
73
90
0
VERTEX
8
OBJECT__5
10
0
20
0
30
0
70
128
71
83
72
85
73
80
0
VERTEX
8
OBJECT__5
10
0
20
0
30
0
70
128
71
78
72
81
73
75
0
VERTEX
8
OBJECT__5
10
0
20
0
30
0
70
128
71
72
72
69
73
70
0
VERTEX
8
OBJECT__5
10
0
20
0
30
0
70
128
71
66
72
67
73
64
0
VERTEX
8
OBJECT__5
10
0
20
0
30
0
70
128
71
61
72
62
73
60
0
VERTEX
8
OBJECT__5
10
0
20
0
30
0
70
128
71
55
72
56
73
54
0
VERTEX
8
OBJECT__5
10
0
20
0
30
0
70
128
71
50
72
52
73
49
0
VERTEX
8
OBJECT__5
10
0
20
0
30
0
70
128
71
42
72
44
73
40
0
VERTEX
8
OBJECT__5
10
0
20
0
30
0
70
128
71
39
72
34
73
37
0
VERTEX
8
OBJECT__5
10
0
20
0
30
0
70
128
71
32
72
35
73
33
0
VERTEX
8
OBJECT__5
10
0
20
0
30
0
70
128
71
26
72
28
73
23
0
VERTEX
8
OBJECT__5
10
0
20
0
30
0
70
128
71
21
72
24
73
22
0
VERTEX
8
OBJECT__5
10
0
20
0
30
0
70
128
71
15
72
12
73
13
0
VERTEX
8
OBJECT__5
10
0
20
0
30
0
70
128
71
9
72
10
73
6
0
VERTEX
8
OBJECT__5
10
0
20
0
30
0
70
128
71
3
72
7
73
1
0
SEQEND
8
OBJECT__5
0
POLYLINE
8
OBJECT__6
66
1
70
64
71
273
72
348
62
253
0
VERTEX
8
OBJECT__6
10
1.368500
20
-41.657001
30
-4.883000
70
192
0
VERTEX
8
OBJECT__6
10
1.374500
20
-41.014999
30
-8.768000
70
192
0
VERTEX
8
OBJECT__6
10
2.035500
20
-40.731998
30
-8.658000
70
192
0
VERTEX
8
OBJECT__6
10
2.035500
20
-40.723999
30
-8.705000
70
192
0
VERTEX
8
OBJECT__6
10
1.082500
20
-42.318001
30
-4.960000
70
192
0
VERTEX
8
OBJECT__6
10
1.088499
20
-41.667000
30
-8.908000
70
192
0
VERTEX
8
OBJECT__6
10
2.029499
20
-41.362000
30
-4.847000
70
192
0
VERTEX
8
OBJECT__6
10
2.026501
20
-41.632999
30
-0.979000
70
192
0
VERTEX
8
OBJECT__6
10
1.079500
20
-42.595001
30
-1.001000
70
192
0
VERTEX
8
OBJECT__6
10
1.367500
20
-41.841000
30
2.914000
70
192
0
VERTEX
8
OBJECT__6
10
1.366501
20
-41.931000
30
-0.986000
70
192
0
VERTEX
8
OBJECT__6
10
2.026501
20
-41.645000
30
0.000000
70
192
0
VERTEX
8
OBJECT__6
10
1.080500
20
-42.504002
30
2.960000
70
192
0
VERTEX
8
OBJECT__6
10
1.079500
20
-42.606998
30
0.000000
70
192
0
VERTEX
8
OBJECT__6
10
1.369499
20
-41.605000
30
5.304000
70
192
0
VERTEX
8
OBJECT__6
10
2.027500
20
-41.543999
30
2.893000
70
192
0
VERTEX
8
OBJECT__6
10
2.029499
20
-41.310001
30
5.266000
70
192
0
VERTEX
8
OBJECT__6
10
2.035500
20
-40.715000
30
8.655000
70
192
0
VERTEX
8
OBJECT__6
10
1.375500
20
-40.924000
30
9.184000
70
192
0
VERTEX
8
OBJECT__6
10
1.082500
20
-42.265999
30
5.389000
70
192
0
VERTEX
8
OBJECT__6
10
1.384501
20
-39.891998
30
12.952000
70
192
0
VERTEX
8
OBJECT__6
10
2.036499
20
-40.633999
30
9.117000
70
192
0
VERTEX
8
OBJECT__6
10
1.089500
20
-41.574001
30
9.330000
70
192
0
VERTEX
8
OBJECT__6
10
1.393499
20
-38.516998
30
16.601999
70
192
0
VERTEX
8
OBJECT__6
10
2.045500
20
-39.609001
30
12.858000
70
192
0
VERTEX
8
OBJECT__6
10
1.098499
20
-40.527000
30
13.159000
70
192
0
VERTEX
8
OBJECT__6
10
1.399500
20
-37.507999
30
18.771000
70
192
0
VERTEX
8
OBJECT__6
10
2.057501
20
-38.033001
30
16.933001
70
192
0
VERTEX
8
OBJECT__6
10
2.056499
20
-38.243000
30
16.482000
70
192
0
VERTEX
8
OBJECT__6
10
1.115499
20
-38.105999
30
19.070999
70
192
0
VERTEX
8
OBJECT__6
10
1.109501
20
-39.103001
30
16.926001
70
192
0
VERTEX
8
OBJECT__6
10
1.407499
20
-35.581001
30
22.207001
70
192
0
VERTEX
8
OBJECT__6
10
2.062500
20
-37.241001
30
18.636000
70
192
0
VERTEX
8
OBJECT__6
10
2.071501
20
-35.327000
30
22.047001
70
192
0
VERTEX
8
OBJECT__6
10
2.075500
20
-33.661999
30
24.458000
70
192
0
VERTEX
8
OBJECT__6
10
1.413500
20
-33.360001
30
25.422001
70
192
0
VERTEX
8
OBJECT__6
10
1.123501
20
-36.150002
30
22.563000
70
192
0
VERTEX
8
OBJECT__6
10
1.415501
20
-30.854000
30
28.412001
70
192
0
VERTEX
8
OBJECT__6
10
2.077499
20
-33.122002
30
25.239000
70
192
0
VERTEX
8
OBJECT__6
10
1.129499
20
-33.894001
30
25.830000
70
192
0
VERTEX
8
OBJECT__6
10
2.080500
20
-30.632999
30
28.208000
70
192
0
VERTEX
8
OBJECT__6
10
2.080500
20
-28.974001
30
29.909000
70
192
0
VERTEX
8
OBJECT__6
10
1.132500
20
-31.349001
30
28.868000
70
192
0
VERTEX
8
OBJECT__6
10
1.415501
20
-29.184000
30
30.125999
70
192
0
VERTEX
8
OBJECT__6
10
1.412500
20
-26.229000
30
32.730999
70
192
0
VERTEX
8
OBJECT__6
10
2.079500
20
-27.834999
30
30.913000
70
192
0
VERTEX
8
OBJECT__6
10
1.130501
20
-26.830000
30
33.098000
70
192
0
VERTEX
8
OBJECT__6
10
1.130501
20
-26.650000
30
33.256001
70
192
0
VERTEX
8
OBJECT__6
10
2.077499
20
-26.040001
30
32.495998
70
192
0
VERTEX
8
OBJECT__6
10
2.072500
20
-22.903000
30
34.778000
70
192
0
VERTEX
8
OBJECT__6
10
1.407499
20
-23.070000
30
35.029999
70
192
0
VERTEX
8
OBJECT__6
10
1.125500
20
-23.441000
30
35.591999
70
192
0
VERTEX
8
OBJECT__6
10
1.129499
20
-25.830999
30
33.852001
70
192
0
VERTEX
8
OBJECT__6
10
2.068501
20
-20.799999
30
36.028000
70
192
0
VERTEX
8
OBJECT__6
10
1.401501
20
-19.716000
30
37.021999
70
192
0
VERTEX
8
OBJECT__6
10
2.066500
20
-19.573000
30
36.756001
70
192
0
VERTEX
8
OBJECT__6
10
2.061501
20
-17.436001
30
37.817001
70
192
0
VERTEX
8
OBJECT__6
10
1.118500
20
-20.033001
30
37.616001
70
192
0
VERTEX
8
OBJECT__6
10
1.397499
20
-17.563000
30
38.091000
70
192
0
VERTEX
8
OBJECT__6
10
2.054501
20
-13.812000
30
39.285999
70
192
0
VERTEX
8
OBJECT__6
10
1.114500
20
-17.846001
30
38.702000
70
192
0
VERTEX
8
OBJECT__6
10
1.389500
20
-13.913000
30
39.570999
70
192
0
VERTEX
8
OBJECT__6
10
1.383499
20
-10.171000
30
40.694000
70
192
0
VERTEX
8
OBJECT__6
10
2.053499
20
-12.859000
30
39.571999
70
192
0
VERTEX
8
OBJECT__6
10
1.107500
20
-14.137000
30
40.206001
70
192
0
VERTEX
8
OBJECT__6
10
2.048500
20
-10.097000
30
40.401001
70
192
0
VERTEX
8
OBJECT__6
10
2.043501
20
-6.300000
30
41.165001
70
192
0
VERTEX
8
OBJECT__6
10
1.101500
20
-10.335000
30
41.347000
70
192
0
VERTEX
8
OBJECT__6
10
1.378500
20
-6.347000
30
41.463001
70
192
0
VERTEX
8
OBJECT__6
10
2.042500
20
-4.352000
30
41.405998
70
192
0
VERTEX
8
OBJECT__6
10
1.377501
20
-3.961000
30
41.757999
70
192
0
VERTEX
8
OBJECT__6
10
1.096500
20
-6.449000
30
42.127998
70
192
0
VERTEX
8
OBJECT__6
10
2.041500
20
-3.932000
30
41.458000
70
192
0
VERTEX
8
OBJECT__6
10
2.040501
20
-0.027000
30
41.644001
70
192
0
VERTEX
8
OBJECT__6
10
1.094500
20
-4.025000
30
42.429001
70
192
0
VERTEX
8
OBJECT__6
10
1.375500
20
-0.027000
30
41.945999
70
192
0
VERTEX
8
OBJECT__6
10
1.376499
20
3.876000
30
41.765999
70
192
0
VERTEX
8
OBJECT__6
10
1.093500
20
0.000000
30
42.618000
70
192
0
VERTEX
8
OBJECT__6
10
1.094500
20
3.939000
30
42.437000
70
192
0
VERTEX
8
OBJECT__6
10
1.380501
20
7.739000
30
41.224998
70
192
0
VERTEX
8
OBJECT__6
10
2.042500
20
4.350000
30
41.396000
70
192
0
VERTEX
8
OBJECT__6
10
2.041500
20
3.848000
30
41.466000
70
192
0
VERTEX
8
OBJECT__6
10
1.097500
20
7.864000
30
41.887001
70
192
0
VERTEX
8
OBJECT__6
10
1.383499
20
10.083000
30
40.716000
70
192
0
VERTEX
8
OBJECT__6
10
2.045500
20
7.683000
30
40.929001
70
192
0
VERTEX
8
OBJECT__6
10
1.101500
20
10.245000
30
41.368999
70
192
0
VERTEX
8
OBJECT__6
10
2.048500
20
10.009000
30
40.423000
70
192
0
VERTEX
8
OBJECT__6
10
2.053499
20
12.859000
30
39.573002
70
192
0
VERTEX
8
OBJECT__6
10
1.389500
20
13.858000
30
39.590000
70
192
0
VERTEX
8
OBJECT__6
10
1.107500
20
14.081000
30
40.224998
70
192
0
VERTEX
8
OBJECT__6
10
1.396500
20
17.482000
30
38.127998
70
192
0
VERTEX
8
OBJECT__6
10
2.054501
20
13.757000
30
39.305000
70
192
0
VERTEX
8
OBJECT__6
10
1.114500
20
17.763000
30
38.740002
70
192
0
VERTEX
8
OBJECT__6
10
1.403500
20
20.948000
30
36.339001
70
192
0
VERTEX
8
OBJECT__6
10
2.061501
20
17.355000
30
37.854000
70
192
0
VERTEX
8
OBJECT__6
10
1.121500
20
21.285000
30
36.922001
70
192
0
VERTEX
8
OBJECT__6
10
1.407499
20
22.987000
30
35.084000
70
192
0
VERTEX
8
OBJECT__6
10
2.068501
20
20.820999
30
36.063000
70
192
0
VERTEX
8
OBJECT__6
10
2.068501
20
20.796000
30
36.077999
70
192
0
VERTEX
8
OBJECT__6
10
1.125500
20
23.356001
30
35.646999
70
192
0
VERTEX
8
OBJECT__6
10
1.412500
20
26.177000
30
32.772999
70
192
0
VERTEX
8
OBJECT__6
10
2.072500
20
22.820999
30
34.832001
70
192
0
VERTEX
8
OBJECT__6
10
1.129499
20
25.833000
30
33.852001
70
192
0
VERTEX
8
OBJECT__6
10
1.130501
20
26.597000
30
33.298000
70
192
0
VERTEX
8
OBJECT__6
10
2.077499
20
25.988001
30
32.536999
70
192
0
VERTEX
8
OBJECT__6
10
2.079500
20
27.836000
30
30.915001
70
192
0
VERTEX
8
OBJECT__6
10
1.415501
20
29.113001
30
30.194000
70
192
0
VERTEX
8
OBJECT__6
10
1.132500
20
29.580000
30
30.677999
70
192
0
VERTEX
8
OBJECT__6
10
1.130501
20
26.830000
30
33.094002
70
192
0
VERTEX
8
OBJECT__6
10
1.415501
20
31.792000
30
27.358000
70
192
0
VERTEX
8
OBJECT__6
10
2.080500
20
28.903999
30
29.976999
70
192
0
VERTEX
8
OBJECT__6
10
1.132500
20
32.301998
30
27.797001
70
192
0
VERTEX
8
OBJECT__6
10
2.079500
20
31.563999
30
27.162001
70
192
0
VERTEX
8
OBJECT__6
10
2.077499
20
33.063999
30
25.315001
70
192
0
VERTEX
8
OBJECT__6
10
1.129499
20
33.834999
30
25.907000
70
192
0
VERTEX
8
OBJECT__6
10
1.407499
20
35.547001
30
22.261999
70
192
0
VERTEX
8
OBJECT__6
10
1.413500
20
33.301998
30
25.497999
70
192
0
VERTEX
8
OBJECT__6
10
2.075500
20
33.660000
30
24.455999
70
192
0
VERTEX
8
OBJECT__6
10
1.123501
20
36.115002
30
22.618000
70
192
0
VERTEX
8
OBJECT__6
10
2.071501
20
35.292999
30
22.101000
70
192
0
VERTEX
8
OBJECT__6
10
2.062500
20
37.196999
30
18.722000
70
192
0
VERTEX
8
OBJECT__6
10
1.115499
20
38.062000
30
19.159000
70
192
0
VERTEX
8
OBJECT__6
10
1.399500
20
37.464001
30
18.858000
70
192
0
VERTEX
8
OBJECT__6
10
2.057501
20
38.001999
30
16.919001
70
192
0
VERTEX
8
OBJECT__6
10
1.390499
20
39.054001
30
15.296000
70
192
0
VERTEX
8
OBJECT__6
10
1.105499
20
39.675999
30
15.540000
70
192
0
VERTEX
8
OBJECT__6
10
2.052500
20
38.776001
30
15.185000
70
192
0
VERTEX
8
OBJECT__6
10
2.045500
20
39.583000
30
12.939000
70
192
0
VERTEX
8
OBJECT__6
10
1.384501
20
39.866001
30
13.034000
70
192
0
VERTEX
8
OBJECT__6
10
1.100500
20
40.243000
30
13.959000
70
192
0
VERTEX
8
OBJECT__6
10
1.098499
20
40.500000
30
13.242000
70
192
0
VERTEX
8
OBJECT__6
10
2.036499
20
40.617001
30
9.192000
70
192
0
VERTEX
8
OBJECT__6
10
1.089500
20
41.556999
30
9.407000
70
192
0
VERTEX
8
OBJECT__6
10
1.369499
20
41.591999
30
5.412000
70
192
0
VERTEX
8
OBJECT__6
10
1.375500
20
40.908001
30
9.259000
70
192
0
VERTEX
8
OBJECT__6
10
2.035500
20
40.713001
30
8.655000
70
192
0
VERTEX
8
OBJECT__6
10
1.083500
20
42.250999
30
5.498000
70
192
0
VERTEX
8
OBJECT__6
10
2.030500
20
41.297001
30
5.373000
70
192
0
VERTEX
8
OBJECT__6
10
2.028500
20
41.414001
30
4.373000
70
192
0
VERTEX
8
OBJECT__6
10
1.081499
20
42.372002
30
4.475000
70
192
0
VERTEX
8
OBJECT__6
10
1.368500
20
41.709999
30
4.405000
70
192
0
VERTEX
8
OBJECT__6
10
2.026501
20
41.641998
30
0.470000
70
192
0
VERTEX
8
OBJECT__6
10
1.079500
20
42.604000
30
0.481000
70
192
0
VERTEX
8
OBJECT__6
10
1.367500
20
41.801998
30
-3.431000
70
192
0
VERTEX
8
OBJECT__6
10
1.366501
20
41.938999
30
0.473000
70
192
0
VERTEX
8
OBJECT__6
10
2.026501
20
41.625999
30
0.001000
70
192
0
VERTEX
8
OBJECT__6
10
1.081499
20
42.465000
30
-3.485000
70
192
0
VERTEX
8
OBJECT__6
10
1.079500
20
42.588001
30
0.000000
70
192
0
VERTEX
8
OBJECT__6
10
1.372499
20
41.301998
30
-7.299000
70
192
0
VERTEX
8
OBJECT__6
10
2.028500
20
41.505001
30
-3.406000
70
192
0
VERTEX
8
OBJECT__6
10
2.032499
20
41.008999
30
-7.246000
70
192
0
VERTEX
8
OBJECT__6
10
2.035500
20
40.717999
30
-8.655000
70
192
0
VERTEX
8
OBJECT__6
10
1.376499
20
40.818001
30
-9.646000
70
192
0
VERTEX
8
OBJECT__6
10
1.085501
20
41.958000
30
-7.415000
70
192
0
VERTEX
8
OBJECT__6
10
1.385500
20
39.733002
30
-13.432000
70
192
0
VERTEX
8
OBJECT__6
10
2.037500
20
40.528000
30
-9.576000
70
192
0
VERTEX
8
OBJECT__6
10
1.090500
20
41.466000
30
-9.800000
70
192
0
VERTEX
8
OBJECT__6
10
2.047501
20
39.451000
30
-13.335000
70
192
0
VERTEX
8
OBJECT__6
10
2.057501
20
38.042999
30
-16.938000
70
192
0
VERTEX
8
OBJECT__6
10
1.395500
20
38.311001
30
-17.072001
70
192
0
VERTEX
8
OBJECT__6
10
1.109501
20
39.084999
30
-16.926001
70
192
0
VERTEX
8
OBJECT__6
10
1.110500
20
38.922001
30
-17.344999
70
192
0
VERTEX
8
OBJECT__6
10
1.100500
20
40.243000
30
-13.961000
70
192
0
VERTEX
8
OBJECT__6
10
1.404499
20
36.558998
30
-20.556999
70
192
0
VERTEX
8
OBJECT__6
10
2.057501
20
38.037998
30
-16.948000
70
192
0
VERTEX
8
OBJECT__6
10
1.408501
20
35.327999
30
-22.608000
70
192
0
VERTEX
8
OBJECT__6
10
2.067499
20
36.299000
30
-20.409000
70
192
0
VERTEX
8
OBJECT__6
10
1.119499
20
37.143002
30
-20.886000
70
192
0
VERTEX
8
OBJECT__6
10
2.071501
20
35.076000
30
-22.445000
70
192
0
VERTEX
8
OBJECT__6
10
2.075500
20
33.653999
30
-24.452000
70
192
0
VERTEX
8
OBJECT__6
10
1.413500
20
33.050999
30
-25.823000
70
192
0
VERTEX
8
OBJECT__6
10
1.124500
20
35.891998
30
-22.969999
70
192
0
VERTEX
8
OBJECT__6
10
1.415501
20
30.504999
30
-28.787001
70
192
0
VERTEX
8
OBJECT__6
10
2.077499
20
32.814999
30
-25.636999
70
192
0
VERTEX
8
OBJECT__6
10
1.130501
20
33.580002
30
-26.237000
70
192
0
VERTEX
8
OBJECT__6
10
2.080500
20
30.285999
30
-28.580000
70
192
0
VERTEX
8
OBJECT__6
10
2.079500
20
27.850000
30
-30.931999
70
192
0
VERTEX
8
OBJECT__6
10
1.414499
20
27.698999
30
-31.497000
70
192
0
VERTEX
8
OBJECT__6
10
1.132500
20
30.993999
30
-29.247999
70
192
0
VERTEX
8
OBJECT__6
10
2.079500
20
27.499001
30
-31.271000
70
192
0
VERTEX
8
OBJECT__6
10
2.077499
20
25.667999
30
-32.791000
70
192
0
VERTEX
8
OBJECT__6
10
1.412500
20
25.855000
30
-33.028000
70
192
0
VERTEX
8
OBJECT__6
10
1.130501
20
26.830000
30
-33.091999
70
192
0
VERTEX
8
OBJECT__6
10
1.129499
20
26.270000
30
-33.557999
70
192
0
VERTEX
8
OBJECT__6
10
2.072500
20
22.479000
30
-35.054001
70
192
0
VERTEX
8
OBJECT__6
10
1.407499
20
22.643000
30
-35.307999
70
192
0
VERTEX
8
OBJECT__6
10
1.124500
20
23.006001
30
-35.874001
70
192
0
VERTEX
8
OBJECT__6
10
1.129499
20
25.855000
30
-33.852001
70
192
0
VERTEX
8
OBJECT__6
10
2.068501
20
20.799000
30
-36.023998
70
192
0
VERTEX
8
OBJECT__6
10
1.400499
20
19.259001
30
-37.262001
70
192
0
VERTEX
8
OBJECT__6
10
2.065500
20
19.118999
30
-36.993999
70
192
0
VERTEX
8
OBJECT__6
10
2.058500
20
15.600000
30
-38.611000
70
192
0
VERTEX
8
OBJECT__6
10
1.118500
20
19.569000
30
-37.860001
70
192
0
VERTEX
8
OBJECT__6
10
1.393499
20
15.714000
30
-38.889999
70
192
0
VERTEX
8
OBJECT__6
10
2.054501
20
13.362000
30
-39.441002
70
192
0
VERTEX
8
OBJECT__6
10
1.110500
20
15.967000
30
-39.514000
70
192
0
VERTEX
8
OBJECT__6
10
1.389500
20
13.460000
30
-39.727001
70
192
0
VERTEX
8
OBJECT__6
10
1.382500
20
9.674000
30
-40.814999
70
192
0
VERTEX
8
OBJECT__6
10
2.053499
20
12.863000
30
-39.584999
70
192
0
VERTEX
8
OBJECT__6
10
1.106501
20
13.677000
30
-40.365002
70
192
0
VERTEX
8
OBJECT__6
10
2.047501
20
9.604000
30
-40.521000
70
192
0
VERTEX
8
OBJECT__6
10
2.043501
20
5.792000
30
-41.238998
70
192
0
VERTEX
8
OBJECT__6
10
1.100500
20
9.830000
30
-41.470001
70
192
0
VERTEX
8
OBJECT__6
10
1.378500
20
5.835000
30
-41.537998
70
192
0
VERTEX
8
OBJECT__6
10
1.376499
20
1.951000
30
-41.900002
70
192
0
VERTEX
8
OBJECT__6
10
2.042500
20
4.349000
30
-41.374001
70
192
0
VERTEX
8
OBJECT__6
10
1.095499
20
5.929000
30
-42.205002
70
192
0
VERTEX
8
OBJECT__6
10
2.040501
20
1.937000
30
-41.598999
70
192
0
VERTEX
8
OBJECT__6
10
2.040501
20
-0.448000
30
-41.641998
70
192
0
VERTEX
8
OBJECT__6
10
1.375500
20
-0.451000
30
-41.943001
70
192
0
VERTEX
8
OBJECT__6
10
1.093500
20
0.000000
30
-42.608002
70
192
0
VERTEX
8
OBJECT__6
10
1.093500
20
-0.458000
30
-42.617001
70
192
0
VERTEX
8
OBJECT__6
10
1.377501
20
-4.383000
30
-41.716000
70
192
0
VERTEX
8
OBJECT__6
10
1.094500
20
-4.454000
30
-42.386002
70
192
0
VERTEX
8
OBJECT__6
10
2.042500
20
-4.351000
30
-41.416000
70
192
0
VERTEX
8
OBJECT__6
10
2.042500
20
-4.353000
30
-41.416000
70
192
0
VERTEX
8
OBJECT__6
10
1.381500
20
-8.246000
30
-41.126999
70
192
0
VERTEX
8
OBJECT__6
10
2.045500
20
-8.186000
30
-40.831001
70
192
0
VERTEX
8
OBJECT__6
10
1.098499
20
-8.379000
30
-41.786999
70
192
0
VERTEX
8
OBJECT__6
10
1.386499
20
-12.031000
30
-40.182999
70
192
0
VERTEX
8
OBJECT__6
10
1.104500
20
-12.225000
30
-40.827999
70
192
0
VERTEX
8
OBJECT__6
10
1.390499
20
-14.306000
30
-39.430000
70
192
0
VERTEX
8
OBJECT__6
10
2.053499
20
-12.863000
30
-39.590000
70
192
0
VERTEX
8
OBJECT__6
10
2.051500
20
-11.943000
30
-39.894001
70
192
0
VERTEX
8
OBJECT__6
10
1.108500
20
-14.536000
30
-40.063000
70
192
0
VERTEX
8
OBJECT__6
10
1.397499
20
-17.941999
30
-37.914001
70
192
0
VERTEX
8
OBJECT__6
10
2.055500
20
-14.202000
30
-39.146999
70
192
0
VERTEX
8
OBJECT__6
10
1.115499
20
-18.230000
30
-38.521999
70
192
0
VERTEX
8
OBJECT__6
10
2.062500
20
-17.812000
30
-37.641998
70
192
0
VERTEX
8
OBJECT__6
10
2.068501
20
-20.812000
30
-36.046001
70
192
0
VERTEX
8
OBJECT__6
10
1.404499
20
-21.392000
30
-36.078999
70
192
0
VERTEX
8
OBJECT__6
10
1.122499
20
-21.736000
30
-36.658001
70
192
0
VERTEX
8
OBJECT__6
10
1.410500
20
-24.650999
30
-33.935001
70
192
0
VERTEX
8
OBJECT__6
10
2.069500
20
-21.237000
30
-35.820000
70
192
0
VERTEX
8
OBJECT__6
10
1.128500
20
-25.047001
30
-34.480000
70
192
0
VERTEX
8
OBJECT__6
10
1.413500
20
-26.547001
30
-32.473999
70
192
0
VERTEX
8
OBJECT__6
10
2.075500
20
-24.473000
30
-33.692001
70
192
0
VERTEX
8
OBJECT__6
10
1.130501
20
-26.830000
30
-33.105000
70
192
0
VERTEX
8
OBJECT__6
10
1.129499
20
-25.861000
30
-33.852001
70
192
0
VERTEX
8
OBJECT__6
10
1.130501
20
-26.973000
30
-32.993999
70
192
0
VERTEX
8
OBJECT__6
10
2.078501
20
-26.356001
30
-32.240002
70
192
0
VERTEX
8
OBJECT__6
10
2.079500
20
-27.833000
30
-30.912001
70
192
0
VERTEX
8
OBJECT__6
10
1.415501
20
-29.476000
30
-29.840000
70
192
0
VERTEX
8
OBJECT__6
10
1.132500
20
-29.948999
30
-30.318001
70
192
0
VERTEX
8
OBJECT__6
10
1.414499
20
-32.125000
30
-26.966999
70
192
0
VERTEX
8
OBJECT__6
10
2.080500
20
-29.264000
30
-29.625000
70
192
0
VERTEX
8
OBJECT__6
10
1.131500
20
-32.639000
30
-27.399000
70
192
0
VERTEX
8
OBJECT__6
10
2.079500
20
-31.895000
30
-26.773001
70
192
0
VERTEX
8
OBJECT__6
10
2.075500
20
-33.662998
30
-24.455999
70
192
0
VERTEX
8
OBJECT__6
10
1.410500
20
-34.491001
30
-23.865000
70
192
0
VERTEX
8
OBJECT__6
10
1.127501
20
-35.042999
30
-24.247000
70
192
0
VERTEX
8
OBJECT__6
10
2.074499
20
-34.244999
30
-23.693001
70
192
0
VERTEX
8
OBJECT__6
10
2.070499
20
-35.542999
30
-21.698000
70
192
0
VERTEX
8
OBJECT__6
10
1.122499
20
-36.369999
30
-22.205000
70
192
0
VERTEX
8
OBJECT__6
10
1.406500
20
-35.799000
30
-21.855000
70
192
0
VERTEX
8
OBJECT__6
10
2.061501
20
-37.422001
30
-18.268000
70
192
0
VERTEX
8
OBJECT__6
10
1.113501
20
-38.292000
30
-18.695000
70
192
0
VERTEX
8
OBJECT__6
10
1.388500
20
-39.238998
30
-14.814000
70
192
0
VERTEX
8
OBJECT__6
10
1.398500
20
-37.691002
30
-18.400999
70
192
0
VERTEX
8
OBJECT__6
10
2.057501
20
-38.004002
30
-16.921000
70
192
0
VERTEX
8
OBJECT__6
10
1.103500
20
-39.863998
30
-15.051000
70
192
0
VERTEX
8
OBJECT__6
10
1.109501
20
-39.055000
30
-16.926001
70
192
0
VERTEX
8
OBJECT__6
10
2.050501
20
-38.959999
30
-14.707000
70
192
0
VERTEX
8
OBJECT__6
10
2.040501
20
-40.158001
30
-11.025000
70
192
0
VERTEX
8
OBJECT__6
10
1.379499
20
-40.445000
30
-11.105000
70
192
0
VERTEX
8
OBJECT__6
10
1.093500
20
-41.088001
30
-11.282000
70
192
0
VERTEX
8
OBJECT__6
10
1.100500
20
-40.243000
30
-13.884000
70
192
0
VERTEX
8
OBJECT__6
10
1.093500
20
1.982000
30
-42.573002
70
192
0
VERTEX
8
OBJECT__6
10
1.131500
20
28.143000
30
-32.001999
70
192
0
VERTEX
8
OBJECT__6
10
1.099501
20
40.365002
30
-13.647000
70
192
0
VERTEX
8
OBJECT__6
10
1.093500
20
-0.027000
30
42.618999
70
192
0
VERTEX
8
OBJECT__6
10
1.132500
20
-29.652000
30
30.608999
70
192
0
VERTEX
8
OBJECT__6
10
1.108500
20
-39.130001
30
16.868000
70
192
0
VERTEX
8
OBJECT__6
10
0
20
0
30
0
70
128
71
1
72
2
73
3
0
VERTEX
8
OBJECT__6
10
0
20
0
30
0
70
128
71
2
72
4
73
3
0
VERTEX
8
OBJECT__6
10
0
20
0
30
0
70
128
71
5
72
6
73
2
0
VERTEX
8
OBJECT__6
10
0
20
0
30
0
70
128
71
1
72
7
73
8
0
VERTEX
8
OBJECT__6
10
0
20
0
30
0
70
128
71
9
72
5
73
1
0
VERTEX
8
OBJECT__6
10
0
20
0
30
0
70
128
71
10
72
11
73
12
0
VERTEX
8
OBJECT__6
10
0
20
0
30
0
70
128
71
11
72
8
73
12
0
VERTEX
8
OBJECT__6
10
0
20
0
30
0
70
128
71
10
72
13
73
14
0
VERTEX
8
OBJECT__6
10
0
20
0
30
0
70
128
71
14
72
11
73
10
0
VERTEX
8
OBJECT__6
10
0
20
0
30
0
70
128
71
15
72
10
73
16
0
VERTEX
8
OBJECT__6
10
0
20
0
30
0
70
128
71
13
72
10
73
15
0
VERTEX
8
OBJECT__6
10
0
20
0
30
0
70
128
71
15
72
17
73
18
0
VERTEX
8
OBJECT__6
10
0
20
0
30
0
70
128
71
18
72
19
73
15
0
VERTEX
8
OBJECT__6
10
0
20
0
30
0
70
128
71
20
72
15
73
19
0
VERTEX
8
OBJECT__6
10
0
20
0
30
0
70
128
71
21
72
19
73
22
0
VERTEX
8
OBJECT__6
10
0
20
0
30
0
70
128
71
23
72
19
73
21
0
VERTEX
8
OBJECT__6
10
0
20
0
30
0
70
128
71
24
72
21
73
25
0
VERTEX
8
OBJECT__6
10
0
20
0
30
0
70
128
71
26
72
21
73
24
0
VERTEX
8
OBJECT__6
10
0
20
0
30
0
70
128
71
27
72
24
73
28
0
VERTEX
8
OBJECT__6
10
0
20
0
30
0
70
128
71
24
72
29
73
28
0
VERTEX
8
OBJECT__6
10
0
20
0
30
0
70
128
71
27
72
30
73
31
0
VERTEX
8
OBJECT__6
10
0
20
0
30
0
70
128
71
31
72
24
73
27
0
VERTEX
8
OBJECT__6
10
0
20
0
30
0
70
128
71
32
72
27
73
33
0
VERTEX
8
OBJECT__6
10
0
20
0
30
0
70
128
71
30
72
27
73
32
0
VERTEX
8
OBJECT__6
10
0
20
0
30
0
70
128
71
32
72
34
73
35
0
VERTEX
8
OBJECT__6
10
0
20
0
30
0
70
128
71
35
72
36
73
32
0
VERTEX
8
OBJECT__6
10
0
20
0
30
0
70
128
71
37
72
32
73
36
0
VERTEX
8
OBJECT__6
10
0
20
0
30
0
70
128
71
38
72
36
73
39
0
VERTEX
8
OBJECT__6
10
0
20
0
30
0
70
128
71
40
72
36
73
38
0
VERTEX
8
OBJECT__6
10
0
20
0
30
0
70
128
71
38
72
41
73
42
0
VERTEX
8
OBJECT__6
10
0
20
0
30
0
70
128
71
43
72
38
73
44
0
VERTEX
8
OBJECT__6
10
0
20
0
30
0
70
128
71
45
72
44
73
46
0
VERTEX
8
OBJECT__6
10
0
20
0
30
0
70
128
71
44
72
42
73
46
0
VERTEX
8
OBJECT__6
10
0
20
0
30
0
70
128
71
44
72
45
73
47
0
VERTEX
8
OBJECT__6
10
0
20
0
30
0
70
128
71
45
72
48
73
47
0
VERTEX
8
OBJECT__6
10
0
20
0
30
0
70
128
71
45
72
49
73
50
0
VERTEX
8
OBJECT__6
10
0
20
0
30
0
70
128
71
51
72
52
73
53
0
VERTEX
8
OBJECT__6
10
0
20
0
30
0
70
128
71
53
72
45
73
51
0
VERTEX
8
OBJECT__6
10
0
20
0
30
0
70
128
71
51
72
50
73
54
0
VERTEX
8
OBJECT__6
10
0
20
0
30
0
70
128
71
54
72
55
73
51
0
VERTEX
8
OBJECT__6
10
0
20
0
30
0
70
128
71
52
72
51
73
55
0
VERTEX
8
OBJECT__6
10
0
20
0
30
0
70
128
71
55
72
56
73
57
0
VERTEX
8
OBJECT__6
10
0
20
0
30
0
70
128
71
58
72
55
73
59
0
VERTEX
8
OBJECT__6
10
0
20
0
30
0
70
128
71
59
72
57
73
60
0
VERTEX
8
OBJECT__6
10
0
20
0
30
0
70
128
71
61
72
59
73
62
0
VERTEX
8
OBJECT__6
10
0
20
0
30
0
70
128
71
63
72
62
73
64
0
VERTEX
8
OBJECT__6
10
0
20
0
30
0
70
128
71
62
72
60
73
64
0
VERTEX
8
OBJECT__6
10
0
20
0
30
0
70
128
71
65
72
62
73
63
0
VERTEX
8
OBJECT__6
10
0
20
0
30
0
70
128
71
63
72
66
73
67
0
VERTEX
8
OBJECT__6
10
0
20
0
30
0
70
128
71
68
72
63
73
69
0
VERTEX
8
OBJECT__6
10
0
20
0
30
0
70
128
71
69
72
67
73
70
0
VERTEX
8
OBJECT__6
10
0
20
0
30
0
70
128
71
70
72
71
73
69
0
VERTEX
8
OBJECT__6
10
0
20
0
30
0
70
128
71
72
72
69
73
71
0
VERTEX
8
OBJECT__6
10
0
20
0
30
0
70
128
71
71
72
73
73
74
0
VERTEX
8
OBJECT__6
10
0
20
0
30
0
70
128
71
75
72
71
73
76
0
VERTEX
8
OBJECT__6
10
0
20
0
30
0
70
128
71
77
72
76
73
74
0
VERTEX
8
OBJECT__6
10
0
20
0
30
0
70
128
71
78
72
76
73
77
0
VERTEX
8
OBJECT__6
10
0
20
0
30
0
70
128
71
77
72
79
73
78
0
VERTEX
8
OBJECT__6
10
0
20
0
30
0
70
128
71
80
72
77
73
81
0
VERTEX
8
OBJECT__6
10
0
20
0
30
0
70
128
71
77
72
82
73
81
0
VERTEX
8
OBJECT__6
10
0
20
0
30
0
70
128
71
83
72
79
73
77
0
VERTEX
8
OBJECT__6
10
0
20
0
30
0
70
128
71
84
72
80
73
85
0
VERTEX
8
OBJECT__6
10
0
20
0
30
0
70
128
71
86
72
83
73
80
0
VERTEX
8
OBJECT__6
10
0
20
0
30
0
70
128
71
84
72
87
73
88
0
VERTEX
8
OBJECT__6
10
0
20
0
30
0
70
128
71
88
72
89
73
84
0
VERTEX
8
OBJECT__6
10
0
20
0
30
0
70
128
71
90
72
86
73
84
0
VERTEX
8
OBJECT__6
10
0
20
0
30
0
70
128
71
91
72
89
73
92
0
VERTEX
8
OBJECT__6
10
0
20
0
30
0
70
128
71
93
72
90
73
89
0
VERTEX
8
OBJECT__6
10
0
20
0
30
0
70
128
71
94
72
91
73
95
0
VERTEX
8
OBJECT__6
10
0
20
0
30
0
70
128
71
96
72
93
73
91
0
VERTEX
8
OBJECT__6
10
0
20
0
30
0
70
128
71
97
72
94
73
98
0
VERTEX
8
OBJECT__6
10
0
20
0
30
0
70
128
71
94
72
99
73
98
0
VERTEX
8
OBJECT__6
10
0
20
0
30
0
70
128
71
100
72
96
73
94
0
VERTEX
8
OBJECT__6
10
0
20
0
30
0
70
128
71
101
72
97
73
102
0
VERTEX
8
OBJECT__6
10
0
20
0
30
0
70
128
71
97
72
101
73
103
0
VERTEX
8
OBJECT__6
10
0
20
0
30
0
70
128
71
101
72
104
73
103
0
VERTEX
8
OBJECT__6
10
0
20
0
30
0
70
128
71
101
72
105
73
106
0
VERTEX
8
OBJECT__6
10
0
20
0
30
0
70
128
71
106
72
107
73
101
0
VERTEX
8
OBJECT__6
10
0
20
0
30
0
70
128
71
107
72
108
73
109
0
VERTEX
8
OBJECT__6
10
0
20
0
30
0
70
128
71
109
72
101
73
107
0
VERTEX
8
OBJECT__6
10
0
20
0
30
0
70
128
71
110
72
107
73
111
0
VERTEX
8
OBJECT__6
10
0
20
0
30
0
70
128
71
112
72
108
73
107
0
VERTEX
8
OBJECT__6
10
0
20
0
30
0
70
128
71
110
72
113
73
114
0
VERTEX
8
OBJECT__6
10
0
20
0
30
0
70
128
71
115
72
112
73
110
0
VERTEX
8
OBJECT__6
10
0
20
0
30
0
70
128
71
116
72
117
73
118
0
VERTEX
8
OBJECT__6
10
0
20
0
30
0
70
128
71
117
72
114
73
118
0
VERTEX
8
OBJECT__6
10
0
20
0
30
0
70
128
71
119
72
115
73
117
0
VERTEX
8
OBJECT__6
10
0
20
0
30
0
70
128
71
116
72
120
73
121
0
VERTEX
8
OBJECT__6
10
0
20
0
30
0
70
128
71
122
72
119
73
116
0
VERTEX
8
OBJECT__6
10
0
20
0
30
0
70
128
71
123
72
121
73
124
0
VERTEX
8
OBJECT__6
10
0
20
0
30
0
70
128
71
124
72
125
73
123
0
VERTEX
8
OBJECT__6
10
0
20
0
30
0
70
128
71
126
72
122
73
123
0
VERTEX
8
OBJECT__6
10
0
20
0
30
0
70
128
71
125
72
127
73
128
0
VERTEX
8
OBJECT__6
10
0
20
0
30
0
70
128
71
125
72
129
73
130
0
VERTEX
8
OBJECT__6
10
0
20
0
30
0
70
128
71
129
72
131
73
130
0
VERTEX
8
OBJECT__6
10
0
20
0
30
0
70
128
71
129
72
128
73
132
0
VERTEX
8
OBJECT__6
10
0
20
0
30
0
70
128
71
133
72
131
73
129
0
VERTEX
8
OBJECT__6
10
0
20
0
30
0
70
128
71
134
72
135
73
136
0
VERTEX
8
OBJECT__6
10
0
20
0
30
0
70
128
71
135
72
132
73
136
0
VERTEX
8
OBJECT__6
10
0
20
0
30
0
70
128
71
137
72
133
73
135
0
VERTEX
8
OBJECT__6
10
0
20
0
30
0
70
128
71
134
72
138
73
139
0
VERTEX
8
OBJECT__6
10
0
20
0
30
0
70
128
71
140
72
137
73
134
0
VERTEX
8
OBJECT__6
10
0
20
0
30
0
70
128
71
141
72
139
73
142
0
VERTEX
8
OBJECT__6
10
0
20
0
30
0
70
128
71
143
72
140
73
141
0
VERTEX
8
OBJECT__6
10
0
20
0
30
0
70
128
71
144
72
145
73
146
0
VERTEX
8
OBJECT__6
10
0
20
0
30
0
70
128
71
145
72
142
73
146
0
VERTEX
8
OBJECT__6
10
0
20
0
30
0
70
128
71
144
72
147
73
148
0
VERTEX
8
OBJECT__6
10
0
20
0
30
0
70
128
71
148
72
145
73
144
0
VERTEX
8
OBJECT__6
10
0
20
0
30
0
70
128
71
149
72
144
73
150
0
VERTEX
8
OBJECT__6
10
0
20
0
30
0
70
128
71
147
72
144
73
149
0
VERTEX
8
OBJECT__6
10
0
20
0
30
0
70
128
71
149
72
151
73
152
0
VERTEX
8
OBJECT__6
10
0
20
0
30
0
70
128
71
152
72
153
73
149
0
VERTEX
8
OBJECT__6
10
0
20
0
30
0
70
128
71
154
72
149
73
153
0
VERTEX
8
OBJECT__6
10
0
20
0
30
0
70
128
71
155
72
153
73
156
0
VERTEX
8
OBJECT__6
10
0
20
0
30
0
70
128
71
157
72
153
73
155
0
VERTEX
8
OBJECT__6
10
0
20
0
30
0
70
128
71
155
72
158
73
159
0
VERTEX
8
OBJECT__6
10
0
20
0
30
0
70
128
71
159
72
160
73
155
0
VERTEX
8
OBJECT__6
10
0
20
0
30
0
70
128
71
155
72
160
73
161
0
VERTEX
8
OBJECT__6
10
0
20
0
30
0
70
128
71
160
72
162
73
161
0
VERTEX
8
OBJECT__6
10
0
20
0
30
0
70
128
71
161
72
163
73
155
0
VERTEX
8
OBJECT__6
10
0
20
0
30
0
70
128
71
164
72
160
73
165
0
VERTEX
8
OBJECT__6
10
0
20
0
30
0
70
128
71
162
72
160
73
164
0
VERTEX
8
OBJECT__6
10
0
20
0
30
0
70
128
71
166
72
164
73
167
0
VERTEX
8
OBJECT__6
10
0
20
0
30
0
70
128
71
168
72
164
73
166
0
VERTEX
8
OBJECT__6
10
0
20
0
30
0
70
128
71
166
72
169
73
170
0
VERTEX
8
OBJECT__6
10
0
20
0
30
0
70
128
71
170
72
171
73
166
0
VERTEX
8
OBJECT__6
10
0
20
0
30
0
70
128
71
172
72
166
73
171
0
VERTEX
8
OBJECT__6
10
0
20
0
30
0
70
128
71
173
72
171
73
174
0
VERTEX
8
OBJECT__6
10
0
20
0
30
0
70
128
71
175
72
171
73
173
0
VERTEX
8
OBJECT__6
10
0
20
0
30
0
70
128
71
173
72
176
73
177
0
VERTEX
8
OBJECT__6
10
0
20
0
30
0
70
128
71
177
72
178
73
173
0
VERTEX
8
OBJECT__6
10
0
20
0
30
0
70
128
71
179
72
173
73
178
0
VERTEX
8
OBJECT__6
10
0
20
0
30
0
70
128
71
178
72
180
73
181
0
VERTEX
8
OBJECT__6
10
0
20
0
30
0
70
128
71
178
72
182
73
183
0
VERTEX
8
OBJECT__6
10
0
20
0
30
0
70
128
71
182
72
184
73
183
0
VERTEX
8
OBJECT__6
10
0
20
0
30
0
70
128
71
182
72
181
73
185
0
VERTEX
8
OBJECT__6
10
0
20
0
30
0
70
128
71
186
72
187
73
188
0
VERTEX
8
OBJECT__6
10
0
20
0
30
0
70
128
71
188
72
182
73
186
0
VERTEX
8
OBJECT__6
10
0
20
0
30
0
70
128
71
186
72
185
73
189
0
VERTEX
8
OBJECT__6
10
0
20
0
30
0
70
128
71
189
72
190
73
186
0
VERTEX
8
OBJECT__6
10
0
20
0
30
0
70
128
71
187
72
186
73
190
0
VERTEX
8
OBJECT__6
10
0
20
0
30
0
70
128
71
190
72
191
73
192
0
VERTEX
8
OBJECT__6
10
0
20
0
30
0
70
128
71
193
72
190
73
194
0
VERTEX
8
OBJECT__6
10
0
20
0
30
0
70
128
71
194
72
192
73
195
0
VERTEX
8
OBJECT__6
10
0
20
0
30
0
70
128
71
196
72
194
73
197
0
VERTEX
8
OBJECT__6
10
0
20
0
30
0
70
128
71
198
72
197
73
199
0
VERTEX
8
OBJECT__6
10
0
20
0
30
0
70
128
71
197
72
195
73
199
0
VERTEX
8
OBJECT__6
10
0
20
0
30
0
70
128
71
200
72
197
73
198
0
VERTEX
8
OBJECT__6
10
0
20
0
30
0
70
128
71
198
72
201
73
202
0
VERTEX
8
OBJECT__6
10
0
20
0
30
0
70
128
71
203
72
198
73
204
0
VERTEX
8
OBJECT__6
10
0
20
0
30
0
70
128
71
205
72
204
73
206
0
VERTEX
8
OBJECT__6
10
0
20
0
30
0
70
128
71
204
72
202
73
206
0
VERTEX
8
OBJECT__6
10
0
20
0
30
0
70
128
71
207
72
204
73
205
0
VERTEX
8
OBJECT__6
10
0
20
0
30
0
70
128
71
205
72
208
73
209
0
VERTEX
8
OBJECT__6
10
0
20
0
30
0
70
128
71
205
72
210
73
211
0
VERTEX
8
OBJECT__6
10
0
20
0
30
0
70
128
71
210
72
212
73
211
0
VERTEX
8
OBJECT__6
10
0
20
0
30
0
70
128
71
213
72
210
73
209
0
VERTEX
8
OBJECT__6
10
0
20
0
30
0
70
128
71
214
72
212
73
210
0
VERTEX
8
OBJECT__6
10
0
20
0
30
0
70
128
71
213
72
215
73
216
0
VERTEX
8
OBJECT__6
10
0
20
0
30
0
70
128
71
216
72
217
73
213
0
VERTEX
8
OBJECT__6
10
0
20
0
30
0
70
128
71
216
72
218
73
217
0
VERTEX
8
OBJECT__6
10
0
20
0
30
0
70
128
71
219
72
214
73
213
0
VERTEX
8
OBJECT__6
10
0
20
0
30
0
70
128
71
220
72
217
73
218
0
VERTEX
8
OBJECT__6
10
0
20
0
30
0
70
128
71
221
72
219
73
217
0
VERTEX
8
OBJECT__6
10
0
20
0
30
0
70
128
71
222
72
220
73
223
0
VERTEX
8
OBJECT__6
10
0
20
0
30
0
70
128
71
220
72
224
73
223
0
VERTEX
8
OBJECT__6
10
0
20
0
30
0
70
128
71
225
72
221
73
220
0
VERTEX
8
OBJECT__6
10
0
20
0
30
0
70
128
71
226
72
222
73
227
0
VERTEX
8
OBJECT__6
10
0
20
0
30
0
70
128
71
228
72
225
73
222
0
VERTEX
8
OBJECT__6
10
0
20
0
30
0
70
128
71
226
72
229
73
230
0
VERTEX
8
OBJECT__6
10
0
20
0
30
0
70
128
71
230
72
231
73
226
0
VERTEX
8
OBJECT__6
10
0
20
0
30
0
70
128
71
232
72
228
73
226
0
VERTEX
8
OBJECT__6
10
0
20
0
30
0
70
128
71
233
72
231
73
234
0
VERTEX
8
OBJECT__6
10
0
20
0
30
0
70
128
71
235
72
232
73
231
0
VERTEX
8
OBJECT__6
10
0
20
0
30
0
70
128
71
236
72
233
73
237
0
VERTEX
8
OBJECT__6
10
0
20
0
30
0
70
128
71
236
72
238
73
239
0
VERTEX
8
OBJECT__6
10
0
20
0
30
0
70
128
71
236
72
240
73
238
0
VERTEX
8
OBJECT__6
10
0
20
0
30
0
70
128
71
239
72
233
73
236
0
VERTEX
8
OBJECT__6
10
0
20
0
30
0
70
128
71
236
72
241
73
242
0
VERTEX
8
OBJECT__6
10
0
20
0
30
0
70
128
71
242
72
243
73
236
0
VERTEX
8
OBJECT__6
10
0
20
0
30
0
70
128
71
244
72
240
73
236
0
VERTEX
8
OBJECT__6
10
0
20
0
30
0
70
128
71
245
72
243
73
246
0
VERTEX
8
OBJECT__6
10
0
20
0
30
0
70
128
71
247
72
244
73
243
0
VERTEX
8
OBJECT__6
10
0
20
0
30
0
70
128
71
245
72
248
73
249
0
VERTEX
8
OBJECT__6
10
0
20
0
30
0
70
128
71
249
72
250
73
245
0
VERTEX
8
OBJECT__6
10
0
20
0
30
0
70
128
71
251
72
247
73
245
0
VERTEX
8
OBJECT__6
10
0
20
0
30
0
70
128
71
250
72
252
73
253
0
VERTEX
8
OBJECT__6
10
0
20
0
30
0
70
128
71
254
72
251
73
250
0
VERTEX
8
OBJECT__6
10
0
20
0
30
0
70
128
71
255
72
253
73
256
0
VERTEX
8
OBJECT__6
10
0
20
0
30
0
70
128
71
257
72
254
73
255
0
VERTEX
8
OBJECT__6
10
0
20
0
30
0
70
128
71
258
72
259
73
260
0
VERTEX
8
OBJECT__6
10
0
20
0
30
0
70
128
71
259
72
256
73
260
0
VERTEX
8
OBJECT__6
10
0
20
0
30
0
70
128
71
258
72
261
73
262
0
VERTEX
8
OBJECT__6
10
0
20
0
30
0
70
128
71
262
72
259
73
258
0
VERTEX
8
OBJECT__6
10
0
20
0
30
0
70
128
71
258
72
263
73
264
0
VERTEX
8
OBJECT__6
10
0
20
0
30
0
70
128
71
265
72
266
73
267
0
VERTEX
8
OBJECT__6
10
0
20
0
30
0
70
128
71
267
72
258
73
265
0
VERTEX
8
OBJECT__6
10
0
20
0
30
0
70
128
71
265
72
264
73
4
0
VERTEX
8
OBJECT__6
10
0
20
0
30
0
70
128
71
6
72
266
73
265
0
VERTEX
8
OBJECT__6
10
0
20
0
30
0
70
128
71
265
72
2
73
6
0
VERTEX
8
OBJECT__6
10
0
20
0
30
0
70
128
71
4
72
2
73
265
0
VERTEX
8
OBJECT__6
10
0
20
0
30
0
70
128
71
267
72
261
73
258
0
VERTEX
8
OBJECT__6
10
0
20
0
30
0
70
128
71
264
72
265
73
258
0
VERTEX
8
OBJECT__6
10
0
20
0
30
0
70
128
71
262
72
257
73
259
0
VERTEX
8
OBJECT__6
10
0
20
0
30
0
70
128
71
260
72
263
73
258
0
VERTEX
8
OBJECT__6
10
0
20
0
30
0
70
128
71
255
72
259
73
257
0
VERTEX
8
OBJECT__6
10
0
20
0
30
0
70
128
71
256
72
259
73
255
0
VERTEX
8
OBJECT__6
10
0
20
0
30
0
70
128
71
250
72
255
73
254
0
VERTEX
8
OBJECT__6
10
0
20
0
30
0
70
128
71
253
72
255
73
250
0
VERTEX
8
OBJECT__6
10
0
20
0
30
0
70
128
71
245
72
250
73
251
0
VERTEX
8
OBJECT__6
10
0
20
0
30
0
70
128
71
249
72
252
73
250
0
VERTEX
8
OBJECT__6
10
0
20
0
30
0
70
128
71
243
72
245
73
247
0
VERTEX
8
OBJECT__6
10
0
20
0
30
0
70
128
71
246
72
248
73
245
0
VERTEX
8
OBJECT__6
10
0
20
0
30
0
70
128
71
236
72
243
73
244
0
VERTEX
8
OBJECT__6
10
0
20
0
30
0
70
128
71
242
72
246
73
243
0
VERTEX
8
OBJECT__6
10
0
20
0
30
0
70
128
71
239
72
235
73
233
0
VERTEX
8
OBJECT__6
10
0
20
0
30
0
70
128
71
237
72
241
73
236
0
VERTEX
8
OBJECT__6
10
0
20
0
30
0
70
128
71
231
72
233
73
235
0
VERTEX
8
OBJECT__6
10
0
20
0
30
0
70
128
71
234
72
237
73
233
0
VERTEX
8
OBJECT__6
10
0
20
0
30
0
70
128
71
226
72
231
73
232
0
VERTEX
8
OBJECT__6
10
0
20
0
30
0
70
128
71
230
72
234
73
231
0
VERTEX
8
OBJECT__6
10
0
20
0
30
0
70
128
71
222
72
226
73
228
0
VERTEX
8
OBJECT__6
10
0
20
0
30
0
70
128
71
227
72
229
73
226
0
VERTEX
8
OBJECT__6
10
0
20
0
30
0
70
128
71
220
72
222
73
225
0
VERTEX
8
OBJECT__6
10
0
20
0
30
0
70
128
71
223
72
227
73
222
0
VERTEX
8
OBJECT__6
10
0
20
0
30
0
70
128
71
217
72
220
73
221
0
VERTEX
8
OBJECT__6
10
0
20
0
30
0
70
128
71
218
72
224
73
220
0
VERTEX
8
OBJECT__6
10
0
20
0
30
0
70
128
71
213
72
217
73
219
0
VERTEX
8
OBJECT__6
10
0
20
0
30
0
70
128
71
210
72
213
73
214
0
VERTEX
8
OBJECT__6
10
0
20
0
30
0
70
128
71
209
72
215
73
213
0
VERTEX
8
OBJECT__6
10
0
20
0
30
0
70
128
71
211
72
268
73
205
0
VERTEX
8
OBJECT__6
10
0
20
0
30
0
70
128
71
209
72
210
73
205
0
VERTEX
8
OBJECT__6
10
0
20
0
30
0
70
128
71
205
72
268
73
207
0
VERTEX
8
OBJECT__6
10
0
20
0
30
0
70
128
71
206
72
208
73
205
0
VERTEX
8
OBJECT__6
10
0
20
0
30
0
70
128
71
204
72
207
73
203
0
VERTEX
8
OBJECT__6
10
0
20
0
30
0
70
128
71
202
72
204
73
198
0
VERTEX
8
OBJECT__6
10
0
20
0
30
0
70
128
71
198
72
203
73
200
0
VERTEX
8
OBJECT__6
10
0
20
0
30
0
70
128
71
199
72
201
73
198
0
VERTEX
8
OBJECT__6
10
0
20
0
30
0
70
128
71
197
72
200
73
196
0
VERTEX
8
OBJECT__6
10
0
20
0
30
0
70
128
71
195
72
197
73
194
0
VERTEX
8
OBJECT__6
10
0
20
0
30
0
70
128
71
194
72
196
73
193
0
VERTEX
8
OBJECT__6
10
0
20
0
30
0
70
128
71
192
72
194
73
190
0
VERTEX
8
OBJECT__6
10
0
20
0
30
0
70
128
71
190
72
193
73
187
0
VERTEX
8
OBJECT__6
10
0
20
0
30
0
70
128
71
189
72
191
73
190
0
VERTEX
8
OBJECT__6
10
0
20
0
30
0
70
128
71
188
72
184
73
182
0
VERTEX
8
OBJECT__6
10
0
20
0
30
0
70
128
71
185
72
186
73
182
0
VERTEX
8
OBJECT__6
10
0
20
0
30
0
70
128
71
183
72
269
73
178
0
VERTEX
8
OBJECT__6
10
0
20
0
30
0
70
128
71
181
72
182
73
178
0
VERTEX
8
OBJECT__6
10
0
20
0
30
0
70
128
71
178
72
269
73
179
0
VERTEX
8
OBJECT__6
10
0
20
0
30
0
70
128
71
177
72
180
73
178
0
VERTEX
8
OBJECT__6
10
0
20
0
30
0
70
128
71
173
72
179
73
175
0
VERTEX
8
OBJECT__6
10
0
20
0
30
0
70
128
71
174
72
176
73
173
0
VERTEX
8
OBJECT__6
10
0
20
0
30
0
70
128
71
171
72
175
73
172
0
VERTEX
8
OBJECT__6
10
0
20
0
30
0
70
128
71
170
72
174
73
171
0
VERTEX
8
OBJECT__6
10
0
20
0
30
0
70
128
71
166
72
172
73
168
0
VERTEX
8
OBJECT__6
10
0
20
0
30
0
70
128
71
167
72
169
73
166
0
VERTEX
8
OBJECT__6
10
0
20
0
30
0
70
128
71
164
72
168
73
162
0
VERTEX
8
OBJECT__6
10
0
20
0
30
0
70
128
71
165
72
167
73
164
0
VERTEX
8
OBJECT__6
10
0
20
0
30
0
70
128
71
163
72
270
73
155
0
VERTEX
8
OBJECT__6
10
0
20
0
30
0
70
128
71
159
72
165
73
160
0
VERTEX
8
OBJECT__6
10
0
20
0
30
0
70
128
71
155
72
270
73
157
0
VERTEX
8
OBJECT__6
10
0
20
0
30
0
70
128
71
156
72
158
73
155
0
VERTEX
8
OBJECT__6
10
0
20
0
30
0
70
128
71
153
72
157
73
154
0
VERTEX
8
OBJECT__6
10
0
20
0
30
0
70
128
71
152
72
156
73
153
0
VERTEX
8
OBJECT__6
10
0
20
0
30
0
70
128
71
149
72
154
73
147
0
VERTEX
8
OBJECT__6
10
0
20
0
30
0
70
128
71
150
72
151
73
149
0
VERTEX
8
OBJECT__6
10
0
20
0
30
0
70
128
71
148
72
143
73
145
0
VERTEX
8
OBJECT__6
10
0
20
0
30
0
70
128
71
146
72
150
73
144
0
VERTEX
8
OBJECT__6
10
0
20
0
30
0
70
128
71
141
72
145
73
143
0
VERTEX
8
OBJECT__6
10
0
20
0
30
0
70
128
71
142
72
145
73
141
0
VERTEX
8
OBJECT__6
10
0
20
0
30
0
70
128
71
134
72
141
73
140
0
VERTEX
8
OBJECT__6
10
0
20
0
30
0
70
128
71
139
72
141
73
134
0
VERTEX
8
OBJECT__6
10
0
20
0
30
0
70
128
71
135
72
134
73
137
0
VERTEX
8
OBJECT__6
10
0
20
0
30
0
70
128
71
136
72
138
73
134
0
VERTEX
8
OBJECT__6
10
0
20
0
30
0
70
128
71
129
72
135
73
133
0
VERTEX
8
OBJECT__6
10
0
20
0
30
0
70
128
71
132
72
135
73
129
0
VERTEX
8
OBJECT__6
10
0
20
0
30
0
70
128
71
130
72
126
73
125
0
VERTEX
8
OBJECT__6
10
0
20
0
30
0
70
128
71
128
72
129
73
125
0
VERTEX
8
OBJECT__6
10
0
20
0
30
0
70
128
71
123
72
125
73
126
0
VERTEX
8
OBJECT__6
10
0
20
0
30
0
70
128
71
124
72
127
73
125
0
VERTEX
8
OBJECT__6
10
0
20
0
30
0
70
128
71
116
72
123
73
122
0
VERTEX
8
OBJECT__6
10
0
20
0
30
0
70
128
71
121
72
123
73
116
0
VERTEX
8
OBJECT__6
10
0
20
0
30
0
70
128
71
117
72
116
73
119
0
VERTEX
8
OBJECT__6
10
0
20
0
30
0
70
128
71
118
72
120
73
116
0
VERTEX
8
OBJECT__6
10
0
20
0
30
0
70
128
71
110
72
117
73
115
0
VERTEX
8
OBJECT__6
10
0
20
0
30
0
70
128
71
114
72
117
73
110
0
VERTEX
8
OBJECT__6
10
0
20
0
30
0
70
128
71
107
72
110
73
112
0
VERTEX
8
OBJECT__6
10
0
20
0
30
0
70
128
71
111
72
113
73
110
0
VERTEX
8
OBJECT__6
10
0
20
0
30
0
70
128
71
109
72
104
73
101
0
VERTEX
8
OBJECT__6
10
0
20
0
30
0
70
128
71
106
72
111
73
107
0
VERTEX
8
OBJECT__6
10
0
20
0
30
0
70
128
71
103
72
100
73
97
0
VERTEX
8
OBJECT__6
10
0
20
0
30
0
70
128
71
102
72
105
73
101
0
VERTEX
8
OBJECT__6
10
0
20
0
30
0
70
128
71
94
72
97
73
100
0
VERTEX
8
OBJECT__6
10
0
20
0
30
0
70
128
71
98
72
102
73
97
0
VERTEX
8
OBJECT__6
10
0
20
0
30
0
70
128
71
91
72
94
73
96
0
VERTEX
8
OBJECT__6
10
0
20
0
30
0
70
128
71
95
72
99
73
94
0
VERTEX
8
OBJECT__6
10
0
20
0
30
0
70
128
71
89
72
91
73
93
0
VERTEX
8
OBJECT__6
10
0
20
0
30
0
70
128
71
92
72
95
73
91
0
VERTEX
8
OBJECT__6
10
0
20
0
30
0
70
128
71
84
72
89
73
90
0
VERTEX
8
OBJECT__6
10
0
20
0
30
0
70
128
71
88
72
92
73
89
0
VERTEX
8
OBJECT__6
10
0
20
0
30
0
70
128
71
80
72
84
73
86
0
VERTEX
8
OBJECT__6
10
0
20
0
30
0
70
128
71
85
72
87
73
84
0
VERTEX
8
OBJECT__6
10
0
20
0
30
0
70
128
71
77
72
80
73
83
0
VERTEX
8
OBJECT__6
10
0
20
0
30
0
70
128
71
81
72
85
73
80
0
VERTEX
8
OBJECT__6
10
0
20
0
30
0
70
128
71
78
72
271
73
76
0
VERTEX
8
OBJECT__6
10
0
20
0
30
0
70
128
71
74
72
82
73
77
0
VERTEX
8
OBJECT__6
10
0
20
0
30
0
70
128
71
76
72
271
73
75
0
VERTEX
8
OBJECT__6
10
0
20
0
30
0
70
128
71
74
72
76
73
71
0
VERTEX
8
OBJECT__6
10
0
20
0
30
0
70
128
71
71
72
75
73
72
0
VERTEX
8
OBJECT__6
10
0
20
0
30
0
70
128
71
70
72
73
73
71
0
VERTEX
8
OBJECT__6
10
0
20
0
30
0
70
128
71
69
72
72
73
68
0
VERTEX
8
OBJECT__6
10
0
20
0
30
0
70
128
71
67
72
69
73
63
0
VERTEX
8
OBJECT__6
10
0
20
0
30
0
70
128
71
63
72
68
73
65
0
VERTEX
8
OBJECT__6
10
0
20
0
30
0
70
128
71
64
72
66
73
63
0
VERTEX
8
OBJECT__6
10
0
20
0
30
0
70
128
71
62
72
65
73
61
0
VERTEX
8
OBJECT__6
10
0
20
0
30
0
70
128
71
60
72
62
73
59
0
VERTEX
8
OBJECT__6
10
0
20
0
30
0
70
128
71
59
72
61
73
58
0
VERTEX
8
OBJECT__6
10
0
20
0
30
0
70
128
71
57
72
59
73
55
0
VERTEX
8
OBJECT__6
10
0
20
0
30
0
70
128
71
55
72
58
73
52
0
VERTEX
8
OBJECT__6
10
0
20
0
30
0
70
128
71
54
72
56
73
55
0
VERTEX
8
OBJECT__6
10
0
20
0
30
0
70
128
71
53
72
48
73
45
0
VERTEX
8
OBJECT__6
10
0
20
0
30
0
70
128
71
50
72
51
73
45
0
VERTEX
8
OBJECT__6
10
0
20
0
30
0
70
128
71
47
72
272
73
44
0
VERTEX
8
OBJECT__6
10
0
20
0
30
0
70
128
71
46
72
49
73
45
0
VERTEX
8
OBJECT__6
10
0
20
0
30
0
70
128
71
44
72
272
73
43
0
VERTEX
8
OBJECT__6
10
0
20
0
30
0
70
128
71
42
72
44
73
38
0
VERTEX
8
OBJECT__6
10
0
20
0
30
0
70
128
71
38
72
43
73
40
0
VERTEX
8
OBJECT__6
10
0
20
0
30
0
70
128
71
39
72
41
73
38
0
VERTEX
8
OBJECT__6
10
0
20
0
30
0
70
128
71
36
72
40
73
37
0
VERTEX
8
OBJECT__6
10
0
20
0
30
0
70
128
71
35
72
39
73
36
0
VERTEX
8
OBJECT__6
10
0
20
0
30
0
70
128
71
32
72
37
73
30
0
VERTEX
8
OBJECT__6
10
0
20
0
30
0
70
128
71
33
72
34
73
32
0
VERTEX
8
OBJECT__6
10
0
20
0
30
0
70
128
71
31
72
273
73
24
0
VERTEX
8
OBJECT__6
10
0
20
0
30
0
70
128
71
28
72
33
73
27
0
VERTEX
8
OBJECT__6
10
0
20
0
30
0
70
128
71
24
72
273
73
26
0
VERTEX
8
OBJECT__6
10
0
20
0
30
0
70
128
71
25
72
29
73
24
0
VERTEX
8
OBJECT__6
10
0
20
0
30
0
70
128
71
21
72
26
73
23
0
VERTEX
8
OBJECT__6
10
0
20
0
30
0
70
128
71
22
72
25
73
21
0
VERTEX
8
OBJECT__6
10
0
20
0
30
0
70
128
71
19
72
23
73
20
0
VERTEX
8
OBJECT__6
10
0
20
0
30
0
70
128
71
18
72
22
73
19
0
VERTEX
8
OBJECT__6
10
0
20
0
30
0
70
128
71
15
72
20
73
13
0
VERTEX
8
OBJECT__6
10
0
20
0
30
0
70
128
71
16
72
17
73
15
0
VERTEX
8
OBJECT__6
10
0
20
0
30
0
70
128
71
14
72
9
73
11
0
VERTEX
8
OBJECT__6
10
0
20
0
30
0
70
128
71
12
72
16
73
10
0
VERTEX
8
OBJECT__6
10
0
20
0
30
0
70
128
71
1
72
11
73
9
0
VERTEX
8
OBJECT__6
10
0
20
0
30
0
70
128
71
8
72
11
73
1
0
VERTEX
8
OBJECT__6
10
0
20
0
30
0
70
128
71
2
72
1
73
5
0
VERTEX
8
OBJECT__6
10
0
20
0
30
0
70
128
71
3
72
7
73
1
0
SEQEND
8
OBJECT__6
0
POLYLINE
8
OBJECT__7
66
1
70
64
71
135
72
147
62
253
0
VERTEX
8
OBJECT__7
10
0.879499
20
-40.241001
30
33.852001
70
192
0
VERTEX
8
OBJECT__7
10
1.132500
20
-29.652000
30
30.608999
70
192
0
VERTEX
8
OBJECT__7
10
1.130501
20
-26.830000
30
33.098000
70
192
0
VERTEX
8
OBJECT__7
10
1.129499
20
-33.894001
30
25.830000
70
192
0
VERTEX
8
OBJECT__7
10
1.132500
20
-31.349001
30
28.868000
70
192
0
VERTEX
8
OBJECT__7
10
1.123501
20
-36.150002
30
22.563000
70
192
0
VERTEX
8
OBJECT__7
10
1.075500
20
-40.243000
30
16.926001
70
192
0
VERTEX
8
OBJECT__7
10
1.109501
20
-39.103001
30
16.926001
70
192
0
VERTEX
8
OBJECT__7
10
1.115499
20
-38.105999
30
19.070999
70
192
0
VERTEX
8
OBJECT__7
10
1.116501
20
-26.830000
30
33.852001
70
192
0
VERTEX
8
OBJECT__7
10
1.130501
20
-26.650000
30
33.256001
70
192
0
VERTEX
8
OBJECT__7
10
1.116501
20
26.830000
30
33.852001
70
192
0
VERTEX
8
OBJECT__7
10
1.129499
20
25.833000
30
33.852001
70
192
0
VERTEX
8
OBJECT__7
10
1.130501
20
26.597000
30
33.298000
70
192
0
VERTEX
8
OBJECT__7
10
0.879499
20
40.241001
30
33.852001
70
192
0
VERTEX
8
OBJECT__7
10
1.115499
20
38.062000
30
19.159000
70
192
0
VERTEX
8
OBJECT__7
10
1.105499
20
39.675999
30
15.540000
70
192
0
VERTEX
8
OBJECT__7
10
1.123501
20
36.115002
30
22.618000
70
192
0
VERTEX
8
OBJECT__7
10
1.132500
20
29.580000
30
30.677999
70
192
0
VERTEX
8
OBJECT__7
10
1.132500
20
32.301998
30
27.797001
70
192
0
VERTEX
8
OBJECT__7
10
1.129499
20
33.834999
30
25.907000
70
192
0
VERTEX
8
OBJECT__7
10
1.130501
20
26.830000
30
33.094002
70
192
0
VERTEX
8
OBJECT__7
10
1.116501
20
26.830000
30
-33.852001
70
192
0
VERTEX
8
OBJECT__7
10
1.130501
20
26.830000
30
-33.091999
70
192
0
VERTEX
8
OBJECT__7
10
1.129499
20
26.270000
30
-33.557999
70
192
0
VERTEX
8
OBJECT__7
10
1.075500
20
-40.243000
30
-16.926001
70
192
0
VERTEX
8
OBJECT__7
10
0.879499
20
-40.241001
30
-33.852001
70
192
0
VERTEX
8
OBJECT__7
10
1.113501
20
-38.292000
30
-18.695000
70
192
0
VERTEX
8
OBJECT__7
10
1.131500
20
-32.639000
30
-27.399000
70
192
0
VERTEX
8
OBJECT__7
10
1.127501
20
-35.042999
30
-24.247000
70
192
0
VERTEX
8
OBJECT__7
10
1.122499
20
-36.369999
30
-22.205000
70
192
0
VERTEX
8
OBJECT__7
10
1.132500
20
-29.948999
30
-30.318001
70
192
0
VERTEX
8
OBJECT__7
10
1.116501
20
-26.830000
30
-33.852001
70
192
0
VERTEX
8
OBJECT__7
10
1.130501
20
-26.830000
30
-33.105000
70
192
0
VERTEX
8
OBJECT__7
10
1.130501
20
-26.973000
30
-32.993999
70
192
0
VERTEX
8
OBJECT__7
10
1.109501
20
-39.055000
30
-16.926001
70
192
0
VERTEX
8
OBJECT__7
10
1.103500
20
-39.863998
30
-15.051000
70
192
0
VERTEX
8
OBJECT__7
10
0.802500
20
-26.827000
30
50.777000
70
192
0
VERTEX
8
OBJECT__7
10
0.503500
20
-52.855999
30
50.776001
70
192
0
VERTEX
8
OBJECT__7
10
0.568501
20
-52.917000
30
33.851002
70
192
0
VERTEX
8
OBJECT__7
10
0.586500
20
-52.932999
30
29.240000
70
192
0
VERTEX
8
OBJECT__7
10
1.098499
20
-40.527000
30
13.159000
70
192
0
VERTEX
8
OBJECT__7
10
1.108500
20
-39.130001
30
16.868000
70
192
0
VERTEX
8
OBJECT__7
10
0.606501
20
-52.952999
30
16.926001
70
192
0
VERTEX
8
OBJECT__7
10
1.089500
20
-41.574001
30
9.330000
70
192
0
VERTEX
8
OBJECT__7
10
0.635500
20
-52.980000
30
0.000000
70
192
0
VERTEX
8
OBJECT__7
10
1.082500
20
-42.265999
30
5.389000
70
192
0
VERTEX
8
OBJECT__7
10
1.079500
20
-42.606998
30
0.000000
70
192
0
VERTEX
8
OBJECT__7
10
1.080500
20
-42.504002
30
2.960000
70
192
0
VERTEX
8
OBJECT__7
10
0.648500
20
-52.993999
30
-8.347000
70
192
0
VERTEX
8
OBJECT__7
10
1.082500
20
-42.318001
30
-4.960000
70
192
0
VERTEX
8
OBJECT__7
10
1.079500
20
-42.595001
30
-1.001000
70
192
0
VERTEX
8
OBJECT__7
10
1.100500
20
-40.243000
30
-13.884000
70
192
0
VERTEX
8
OBJECT__7
10
0.558500
20
-52.909000
30
-33.851002
70
192
0
VERTEX
8
OBJECT__7
10
1.093500
20
-41.088001
30
-11.282000
70
192
0
VERTEX
8
OBJECT__7
10
1.088499
20
-41.667000
30
-8.908000
70
192
0
VERTEX
8
OBJECT__7
10
0.441500
20
-52.799000
30
-66.799004
70
192
0
VERTEX
8
OBJECT__7
10
0.468500
20
-40.236000
30
-66.824997
70
192
0
VERTEX
8
OBJECT__7
10
0.497499
20
-26.823999
30
-66.851997
70
192
0
VERTEX
8
OBJECT__7
10
1.128500
20
-25.047001
30
-34.480000
70
192
0
VERTEX
8
OBJECT__7
10
1.129499
20
-25.861000
30
-33.852001
70
192
0
VERTEX
8
OBJECT__7
10
1.122499
20
-21.736000
30
-36.658001
70
192
0
VERTEX
8
OBJECT__7
10
1.115499
20
-18.230000
30
-38.521999
70
192
0
VERTEX
8
OBJECT__7
10
0.542500
20
-5.664000
30
-66.893997
70
192
0
VERTEX
8
OBJECT__7
10
1.098499
20
-8.379000
30
-41.786999
70
192
0
VERTEX
8
OBJECT__7
10
1.104500
20
-12.225000
30
-40.827999
70
192
0
VERTEX
8
OBJECT__7
10
1.108500
20
-14.536000
30
-40.063000
70
192
0
VERTEX
8
OBJECT__7
10
1.094500
20
-4.454000
30
-42.386002
70
192
0
VERTEX
8
OBJECT__7
10
0.539499
20
0.000000
30
-66.890999
70
192
0
VERTEX
8
OBJECT__7
10
1.093500
20
-0.458000
30
-42.617001
70
192
0
VERTEX
8
OBJECT__7
10
1.093500
20
0.000000
30
-42.608002
70
192
0
VERTEX
8
OBJECT__7
10
1.095499
20
5.929000
30
-42.205002
70
192
0
VERTEX
8
OBJECT__7
10
1.093500
20
1.982000
30
-42.573002
70
192
0
VERTEX
8
OBJECT__7
10
0.523500
20
23.566999
30
-66.875999
70
192
0
VERTEX
8
OBJECT__7
10
1.100500
20
9.830000
30
-41.470001
70
192
0
VERTEX
8
OBJECT__7
10
1.110500
20
15.967000
30
-39.514000
70
192
0
VERTEX
8
OBJECT__7
10
1.106501
20
13.677000
30
-40.365002
70
192
0
VERTEX
8
OBJECT__7
10
0.514500
20
26.823999
30
-66.867996
70
192
0
VERTEX
8
OBJECT__7
10
0.802500
20
26.827000
30
-50.777000
70
192
0
VERTEX
8
OBJECT__7
10
1.118500
20
19.569000
30
-37.860001
70
192
0
VERTEX
8
OBJECT__7
10
1.124500
20
23.006001
30
-35.874001
70
192
0
VERTEX
8
OBJECT__7
10
1.129499
20
25.855000
30
-33.852001
70
192
0
VERTEX
8
OBJECT__7
10
0.441500
20
52.799000
30
-66.799004
70
192
0
VERTEX
8
OBJECT__7
10
0.503500
20
52.855999
30
-50.776001
70
192
0
VERTEX
8
OBJECT__7
10
0.568501
20
52.917000
30
-33.851002
70
192
0
VERTEX
8
OBJECT__7
10
1.131500
20
28.143000
30
-32.001999
70
192
0
VERTEX
8
OBJECT__7
10
1.132500
20
30.993999
30
-29.247999
70
192
0
VERTEX
8
OBJECT__7
10
1.130501
20
33.580002
30
-26.237000
70
192
0
VERTEX
8
OBJECT__7
10
1.124500
20
35.891998
30
-22.969999
70
192
0
VERTEX
8
OBJECT__7
10
0.586500
20
52.932999
30
-29.240000
70
192
0
VERTEX
8
OBJECT__7
10
1.110500
20
38.922001
30
-17.344999
70
192
0
VERTEX
8
OBJECT__7
10
1.119499
20
37.143002
30
-20.886000
70
192
0
VERTEX
8
OBJECT__7
10
1.075500
20
40.243000
30
-16.926001
70
192
0
VERTEX
8
OBJECT__7
10
0.606501
20
52.952999
30
-16.926001
70
192
0
VERTEX
8
OBJECT__7
10
1.109501
20
39.084999
30
-16.926001
70
192
0
VERTEX
8
OBJECT__7
10
1.099501
20
40.365002
30
-13.647000
70
192
0
VERTEX
8
OBJECT__7
10
1.100500
20
40.243000
30
-13.961000
70
192
0
VERTEX
8
OBJECT__7
10
0.635500
20
52.980000
30
0.000000
70
192
0
VERTEX
8
OBJECT__7
10
1.081499
20
42.465000
30
-3.485000
70
192
0
VERTEX
8
OBJECT__7
10
1.085501
20
41.958000
30
-7.415000
70
192
0
VERTEX
8
OBJECT__7
10
1.090500
20
41.466000
30
-9.800000
70
192
0
VERTEX
8
OBJECT__7
10
1.079500
20
42.588001
30
0.000000
70
192
0
VERTEX
8
OBJECT__7
10
0.648500
20
52.993999
30
8.347000
70
192
0
VERTEX
8
OBJECT__7
10
1.081499
20
42.372002
30
4.475000
70
192
0
VERTEX
8
OBJECT__7
10
1.089500
20
41.556999
30
9.407000
70
192
0
VERTEX
8
OBJECT__7
10
1.083500
20
42.250999
30
5.498000
70
192
0
VERTEX
8
OBJECT__7
10
0.558500
20
52.909000
30
33.851002
70
192
0
VERTEX
8
OBJECT__7
10
1.100500
20
40.243000
30
13.959000
70
192
0
VERTEX
8
OBJECT__7
10
1.098499
20
40.500000
30
13.242000
70
192
0
VERTEX
8
OBJECT__7
10
1.079500
20
42.604000
30
0.481000
70
192
0
VERTEX
8
OBJECT__7
10
0.441500
20
52.799000
30
66.799004
70
192
0
VERTEX
8
OBJECT__7
10
0.468500
20
40.236000
30
66.824997
70
192
0
VERTEX
8
OBJECT__7
10
0.497499
20
26.823999
30
66.851997
70
192
0
VERTEX
8
OBJECT__7
10
1.125500
20
23.356001
30
35.646999
70
192
0
VERTEX
8
OBJECT__7
10
1.114500
20
17.763000
30
38.740002
70
192
0
VERTEX
8
OBJECT__7
10
1.121500
20
21.285000
30
36.922001
70
192
0
VERTEX
8
OBJECT__7
10
1.107500
20
14.081000
30
40.224998
70
192
0
VERTEX
8
OBJECT__7
10
0.542500
20
5.664000
30
66.893997
70
192
0
VERTEX
8
OBJECT__7
10
1.097500
20
7.864000
30
41.887001
70
192
0
VERTEX
8
OBJECT__7
10
1.101500
20
10.245000
30
41.368999
70
192
0
VERTEX
8
OBJECT__7
10
1.094500
20
3.939000
30
42.437000
70
192
0
VERTEX
8
OBJECT__7
10
0.539499
20
0.000000
30
66.890999
70
192
0
VERTEX
8
OBJECT__7
10
1.093500
20
0.000000
30
42.618000
70
192
0
VERTEX
8
OBJECT__7
10
0.523500
20
-23.566999
30
66.875999
70
192
0
VERTEX
8
OBJECT__7
10
1.101500
20
-10.335000
30
41.347000
70
192
0
VERTEX
8
OBJECT__7
10
1.096500
20
-6.449000
30
42.127998
70
192
0
VERTEX
8
OBJECT__7
10
1.094500
20
-4.025000
30
42.429001
70
192
0
VERTEX
8
OBJECT__7
10
1.107500
20
-14.137000
30
40.206001
70
192
0
VERTEX
8
OBJECT__7
10
1.114500
20
-17.846001
30
38.702000
70
192
0
VERTEX
8
OBJECT__7
10
0.514500
20
-26.823999
30
66.867996
70
192
0
VERTEX
8
OBJECT__7
10
1.125500
20
-23.441000
30
35.591999
70
192
0
VERTEX
8
OBJECT__7
10
1.118500
20
-20.033001
30
37.616001
70
192
0
VERTEX
8
OBJECT__7
10
1.129499
20
-25.830999
30
33.852001
70
192
0
VERTEX
8
OBJECT__7
10
1.093500
20
-0.027000
30
42.618999
70
192
0
VERTEX
8
OBJECT__7
10
0.441500
20
-52.799000
30
66.799004
70
192
0
VERTEX
8
OBJECT__7
10
0
20
0
30
0
70
128
71
1
72
2
73
3
0
VERTEX
8
OBJECT__7
10
0
20
0
30
0
70
128
71
1
72
4
73
5
0
VERTEX
8
OBJECT__7
10
0
20
0
30
0
70
128
71
5
72
2
73
1
0
VERTEX
8
OBJECT__7
10
0
20
0
30
0
70
128
71
1
72
6
73
4
0
VERTEX
8
OBJECT__7
10
0
20
0
30
0
70
128
71
7
72
8
73
9
0
VERTEX
8
OBJECT__7
10
0
20
0
30
0
70
128
71
9
72
1
73
7
0
VERTEX
8
OBJECT__7
10
0
20
0
30
0
70
128
71
9
72
6
73
1
0
VERTEX
8
OBJECT__7
10
0
20
0
30
0
70
128
71
10
72
3
73
11
0
VERTEX
8
OBJECT__7
10
0
20
0
30
0
70
128
71
12
72
13
73
14
0
VERTEX
8
OBJECT__7
10
0
20
0
30
0
70
128
71
15
72
16
73
17
0
VERTEX
8
OBJECT__7
10
0
20
0
30
0
70
128
71
15
72
18
73
16
0
VERTEX
8
OBJECT__7
10
0
20
0
30
0
70
128
71
15
72
19
73
20
0
VERTEX
8
OBJECT__7
10
0
20
0
30
0
70
128
71
20
72
21
73
15
0
VERTEX
8
OBJECT__7
10
0
20
0
30
0
70
128
71
15
72
12
73
22
0
VERTEX
8
OBJECT__7
10
0
20
0
30
0
70
128
71
22
72
19
73
15
0
VERTEX
8
OBJECT__7
10
0
20
0
30
0
70
128
71
21
72
18
73
15
0
VERTEX
8
OBJECT__7
10
0
20
0
30
0
70
128
71
23
72
24
73
25
0
VERTEX
8
OBJECT__7
10
0
20
0
30
0
70
128
71
26
72
27
73
28
0
VERTEX
8
OBJECT__7
10
0
20
0
30
0
70
128
71
27
72
29
73
30
0
VERTEX
8
OBJECT__7
10
0
20
0
30
0
70
128
71
30
72
31
73
27
0
VERTEX
8
OBJECT__7
10
0
20
0
30
0
70
128
71
27
72
32
73
29
0
VERTEX
8
OBJECT__7
10
0
20
0
30
0
70
128
71
31
72
28
73
27
0
VERTEX
8
OBJECT__7
10
0
20
0
30
0
70
128
71
33
72
34
73
35
0
VERTEX
8
OBJECT__7
10
0
20
0
30
0
70
128
71
35
72
27
73
33
0
VERTEX
8
OBJECT__7
10
0
20
0
30
0
70
128
71
35
72
32
73
27
0
VERTEX
8
OBJECT__7
10
0
20
0
30
0
70
128
71
26
72
36
73
37
0
VERTEX
8
OBJECT__7
10
0
20
0
30
0
70
128
71
38
72
39
73
1
0
VERTEX
8
OBJECT__7
10
0
20
0
30
0
70
128
71
39
72
40
73
1
0
VERTEX
8
OBJECT__7
10
0
20
0
30
0
70
128
71
7
72
1
73
41
0
VERTEX
8
OBJECT__7
10
0
20
0
30
0
70
128
71
1
72
40
73
41
0
VERTEX
8
OBJECT__7
10
0
20
0
30
0
70
128
71
42
72
43
73
7
0
VERTEX
8
OBJECT__7
10
0
20
0
30
0
70
128
71
7
72
44
73
42
0
VERTEX
8
OBJECT__7
10
0
20
0
30
0
70
128
71
44
72
45
73
42
0
VERTEX
8
OBJECT__7
10
0
20
0
30
0
70
128
71
44
72
46
73
47
0
VERTEX
8
OBJECT__7
10
0
20
0
30
0
70
128
71
46
72
48
73
49
0
VERTEX
8
OBJECT__7
10
0
20
0
30
0
70
128
71
49
72
47
73
46
0
VERTEX
8
OBJECT__7
10
0
20
0
30
0
70
128
71
47
72
45
73
44
0
VERTEX
8
OBJECT__7
10
0
20
0
30
0
70
128
71
46
72
50
73
51
0
VERTEX
8
OBJECT__7
10
0
20
0
30
0
70
128
71
51
72
52
73
46
0
VERTEX
8
OBJECT__7
10
0
20
0
30
0
70
128
71
50
72
26
73
53
0
VERTEX
8
OBJECT__7
10
0
20
0
30
0
70
128
71
54
72
27
73
26
0
VERTEX
8
OBJECT__7
10
0
20
0
30
0
70
128
71
26
72
50
73
54
0
VERTEX
8
OBJECT__7
10
0
20
0
30
0
70
128
71
53
72
55
73
50
0
VERTEX
8
OBJECT__7
10
0
20
0
30
0
70
128
71
55
72
56
73
50
0
VERTEX
8
OBJECT__7
10
0
20
0
30
0
70
128
71
56
72
51
73
50
0
VERTEX
8
OBJECT__7
10
0
20
0
30
0
70
128
71
27
72
54
73
57
0
VERTEX
8
OBJECT__7
10
0
20
0
30
0
70
128
71
33
72
27
73
58
0
VERTEX
8
OBJECT__7
10
0
20
0
30
0
70
128
71
59
72
60
73
61
0
VERTEX
8
OBJECT__7
10
0
20
0
30
0
70
128
71
59
72
62
73
60
0
VERTEX
8
OBJECT__7
10
0
20
0
30
0
70
128
71
59
72
63
73
62
0
VERTEX
8
OBJECT__7
10
0
20
0
30
0
70
128
71
59
72
64
73
65
0
VERTEX
8
OBJECT__7
10
0
20
0
30
0
70
128
71
65
72
66
73
59
0
VERTEX
8
OBJECT__7
10
0
20
0
30
0
70
128
71
66
72
67
73
59
0
VERTEX
8
OBJECT__7
10
0
20
0
30
0
70
128
71
64
72
68
73
65
0
VERTEX
8
OBJECT__7
10
0
20
0
30
0
70
128
71
64
72
69
73
70
0
VERTEX
8
OBJECT__7
10
0
20
0
30
0
70
128
71
69
72
71
73
70
0
VERTEX
8
OBJECT__7
10
0
20
0
30
0
70
128
71
70
72
68
73
64
0
VERTEX
8
OBJECT__7
10
0
20
0
30
0
70
128
71
67
72
63
73
59
0
VERTEX
8
OBJECT__7
10
0
20
0
30
0
70
128
71
69
72
72
73
73
0
VERTEX
8
OBJECT__7
10
0
20
0
30
0
70
128
71
74
72
75
73
72
0
VERTEX
8
OBJECT__7
10
0
20
0
30
0
70
128
71
72
72
69
73
74
0
VERTEX
8
OBJECT__7
10
0
20
0
30
0
70
128
71
76
72
77
73
74
0
VERTEX
8
OBJECT__7
10
0
20
0
30
0
70
128
71
76
72
78
73
79
0
VERTEX
8
OBJECT__7
10
0
20
0
30
0
70
128
71
79
72
80
73
76
0
VERTEX
8
OBJECT__7
10
0
20
0
30
0
70
128
71
74
72
78
73
76
0
VERTEX
8
OBJECT__7
10
0
20
0
30
0
70
128
71
79
72
81
73
80
0
VERTEX
8
OBJECT__7
10
0
20
0
30
0
70
128
71
79
72
23
73
82
0
VERTEX
8
OBJECT__7
10
0
20
0
30
0
70
128
71
82
72
81
73
79
0
VERTEX
8
OBJECT__7
10
0
20
0
30
0
70
128
71
77
72
75
73
74
0
VERTEX
8
OBJECT__7
10
0
20
0
30
0
70
128
71
79
72
78
73
83
0
VERTEX
8
OBJECT__7
10
0
20
0
30
0
70
128
71
23
72
79
73
84
0
VERTEX
8
OBJECT__7
10
0
20
0
30
0
70
128
71
23
72
85
73
86
0
VERTEX
8
OBJECT__7
10
0
20
0
30
0
70
128
71
85
72
87
73
86
0
VERTEX
8
OBJECT__7
10
0
20
0
30
0
70
128
71
85
72
88
73
87
0
VERTEX
8
OBJECT__7
10
0
20
0
30
0
70
128
71
89
72
85
73
90
0
VERTEX
8
OBJECT__7
10
0
20
0
30
0
70
128
71
90
72
91
73
92
0
VERTEX
8
OBJECT__7
10
0
20
0
30
0
70
128
71
90
72
92
73
89
0
VERTEX
8
OBJECT__7
10
0
20
0
30
0
70
128
71
91
72
90
73
93
0
VERTEX
8
OBJECT__7
10
0
20
0
30
0
70
128
71
90
72
94
73
93
0
VERTEX
8
OBJECT__7
10
0
20
0
30
0
70
128
71
93
72
95
73
91
0
VERTEX
8
OBJECT__7
10
0
20
0
30
0
70
128
71
89
72
88
73
85
0
VERTEX
8
OBJECT__7
10
0
20
0
30
0
70
128
71
94
72
96
73
97
0
VERTEX
8
OBJECT__7
10
0
20
0
30
0
70
128
71
98
72
99
73
100
0
VERTEX
8
OBJECT__7
10
0
20
0
30
0
70
128
71
100
72
94
73
98
0
VERTEX
8
OBJECT__7
10
0
20
0
30
0
70
128
71
100
72
101
73
94
0
VERTEX
8
OBJECT__7
10
0
20
0
30
0
70
128
71
98
72
102
73
99
0
VERTEX
8
OBJECT__7
10
0
20
0
30
0
70
128
71
101
72
96
73
94
0
VERTEX
8
OBJECT__7
10
0
20
0
30
0
70
128
71
98
72
103
73
104
0
VERTEX
8
OBJECT__7
10
0
20
0
30
0
70
128
71
103
72
105
73
106
0
VERTEX
8
OBJECT__7
10
0
20
0
30
0
70
128
71
106
72
104
73
103
0
VERTEX
8
OBJECT__7
10
0
20
0
30
0
70
128
71
107
72
15
73
108
0
VERTEX
8
OBJECT__7
10
0
20
0
30
0
70
128
71
108
72
103
73
107
0
VERTEX
8
OBJECT__7
10
0
20
0
30
0
70
128
71
108
72
109
73
103
0
VERTEX
8
OBJECT__7
10
0
20
0
30
0
70
128
71
109
72
105
73
103
0
VERTEX
8
OBJECT__7
10
0
20
0
30
0
70
128
71
104
72
110
73
98
0
VERTEX
8
OBJECT__7
10
0
20
0
30
0
70
128
71
15
72
107
73
111
0
VERTEX
8
OBJECT__7
10
0
20
0
30
0
70
128
71
12
72
15
73
112
0
VERTEX
8
OBJECT__7
10
0
20
0
30
0
70
128
71
113
72
114
73
13
0
VERTEX
8
OBJECT__7
10
0
20
0
30
0
70
128
71
113
72
115
73
116
0
VERTEX
8
OBJECT__7
10
0
20
0
30
0
70
128
71
116
72
114
73
113
0
VERTEX
8
OBJECT__7
10
0
20
0
30
0
70
128
71
113
72
117
73
115
0
VERTEX
8
OBJECT__7
10
0
20
0
30
0
70
128
71
118
72
119
73
120
0
VERTEX
8
OBJECT__7
10
0
20
0
30
0
70
128
71
118
72
121
73
119
0
VERTEX
8
OBJECT__7
10
0
20
0
30
0
70
128
71
120
72
113
73
118
0
VERTEX
8
OBJECT__7
10
0
20
0
30
0
70
128
71
118
72
122
73
123
0
VERTEX
8
OBJECT__7
10
0
20
0
30
0
70
128
71
123
72
121
73
118
0
VERTEX
8
OBJECT__7
10
0
20
0
30
0
70
128
71
120
72
117
73
113
0
VERTEX
8
OBJECT__7
10
0
20
0
30
0
70
128
71
124
72
125
73
126
0
VERTEX
8
OBJECT__7
10
0
20
0
30
0
70
128
71
126
72
122
73
124
0
VERTEX
8
OBJECT__7
10
0
20
0
30
0
70
128
71
126
72
127
73
122
0
VERTEX
8
OBJECT__7
10
0
20
0
30
0
70
128
71
124
72
128
73
125
0
VERTEX
8
OBJECT__7
10
0
20
0
30
0
70
128
71
129
72
128
73
124
0
VERTEX
8
OBJECT__7
10
0
20
0
30
0
70
128
71
129
72
130
73
38
0
VERTEX
8
OBJECT__7
10
0
20
0
30
0
70
128
71
38
72
131
73
132
0
VERTEX
8
OBJECT__7
10
0
20
0
30
0
70
128
71
38
72
132
73
129
0
VERTEX
8
OBJECT__7
10
0
20
0
30
0
70
128
71
38
72
10
73
133
0
VERTEX
8
OBJECT__7
10
0
20
0
30
0
70
128
71
133
72
131
73
38
0
VERTEX
8
OBJECT__7
10
0
20
0
30
0
70
128
71
124
72
130
73
129
0
VERTEX
8
OBJECT__7
10
0
20
0
30
0
70
128
71
127
72
134
73
122
0
VERTEX
8
OBJECT__7
10
0
20
0
30
0
70
128
71
38
72
130
73
135
0
VERTEX
8
OBJECT__7
10
0
20
0
30
0
70
128
71
135
72
39
73
38
0
VERTEX
8
OBJECT__7
10
0
20
0
30
0
70
128
71
134
72
123
73
122
0
VERTEX
8
OBJECT__7
10
0
20
0
30
0
70
128
71
13
72
12
73
113
0
VERTEX
8
OBJECT__7
10
0
20
0
30
0
70
128
71
112
72
113
73
12
0
VERTEX
8
OBJECT__7
10
0
20
0
30
0
70
128
71
111
72
112
73
15
0
VERTEX
8
OBJECT__7
10
0
20
0
30
0
70
128
71
110
72
102
73
98
0
VERTEX
8
OBJECT__7
10
0
20
0
30
0
70
128
71
97
72
93
73
94
0
VERTEX
8
OBJECT__7
10
0
20
0
30
0
70
128
71
86
72
24
73
23
0
VERTEX
8
OBJECT__7
10
0
20
0
30
0
70
128
71
84
72
85
73
23
0
VERTEX
8
OBJECT__7
10
0
20
0
30
0
70
128
71
83
72
84
73
79
0
VERTEX
8
OBJECT__7
10
0
20
0
30
0
70
128
71
73
72
71
73
69
0
VERTEX
8
OBJECT__7
10
0
20
0
30
0
70
128
71
61
72
33
73
59
0
VERTEX
8
OBJECT__7
10
0
20
0
30
0
70
128
71
58
72
59
73
33
0
VERTEX
8
OBJECT__7
10
0
20
0
30
0
70
128
71
57
72
58
73
27
0
VERTEX
8
OBJECT__7
10
0
20
0
30
0
70
128
71
52
72
48
73
46
0
VERTEX
8
OBJECT__7
10
0
20
0
30
0
70
128
71
43
72
8
73
7
0
VERTEX
8
OBJECT__7
10
0
20
0
30
0
70
128
71
41
72
44
73
7
0
VERTEX
8
OBJECT__7
10
0
20
0
30
0
70
128
71
1
72
10
73
38
0
VERTEX
8
OBJECT__7
10
0
20
0
30
0
70
128
71
37
72
53
73
26
0
VERTEX
8
OBJECT__7
10
0
20
0
30
0
70
128
71
28
72
36
73
26
0
VERTEX
8
OBJECT__7
10
0
20
0
30
0
70
128
71
34
72
33
73
61
0
VERTEX
8
OBJECT__7
10
0
20
0
30
0
70
128
71
25
72
82
73
23
0
VERTEX
8
OBJECT__7
10
0
20
0
30
0
70
128
71
95
72
93
73
97
0
VERTEX
8
OBJECT__7
10
0
20
0
30
0
70
128
71
17
72
108
73
15
0
VERTEX
8
OBJECT__7
10
0
20
0
30
0
70
128
71
14
72
22
73
12
0
VERTEX
8
OBJECT__7
10
0
20
0
30
0
70
128
71
11
72
133
73
10
0
VERTEX
8
OBJECT__7
10
0
20
0
30
0
70
128
71
3
72
10
73
1
0
SEQEND
8
OBJECT__7
0
POLYLINE
8
OBJECT__8
66
1
70
64
71
20
72
22
62
253
0
VERTEX
8
OBJECT__8
10
-0.220501
20
-52.796001
30
69.264999
70
192
0
VERTEX
8
OBJECT__8
10
0.441500
20
-52.799000
30
66.799004
70
192
0
VERTEX
8
OBJECT__8
10
0.514500
20
-26.823999
30
66.867996
70
192
0
VERTEX
8
OBJECT__8
10
-0.163500
20
-23.566000
30
69.308998
70
192
0
VERTEX
8
OBJECT__8
10
-1.953500
20
-23.563000
30
71.095001
70
192
0
VERTEX
8
OBJECT__8
10
-2.014500
20
-52.789001
30
71.083000
70
192
0
VERTEX
8
OBJECT__8
10
-4.387500
20
-23.558001
30
71.777000
70
192
0
VERTEX
8
OBJECT__8
10
-4.471500
20
-52.778999
30
71.778000
70
192
0
VERTEX
8
OBJECT__8
10
0.523500
20
-23.566999
30
66.875999
70
192
0
VERTEX
8
OBJECT__8
10
0.539499
20
0.000000
30
66.890999
70
192
0
VERTEX
8
OBJECT__8
10
-0.150499
20
5.664000
30
69.319000
70
192
0
VERTEX
8
OBJECT__8
10
-1.939500
20
5.663000
30
71.098000
70
192
0
VERTEX
8
OBJECT__8
10
-4.368500
20
5.662000
30
71.776001
70
192
0
VERTEX
8
OBJECT__8
10
-0.220501
20
52.796001
30
69.264999
70
192
0
VERTEX
8
OBJECT__8
10
0.497499
20
26.823999
30
66.851997
70
192
0
VERTEX
8
OBJECT__8
10
0.468500
20
40.236000
30
66.824997
70
192
0
VERTEX
8
OBJECT__8
10
0.542500
20
5.664000
30
66.893997
70
192
0
VERTEX
8
OBJECT__8
10
-2.014500
20
52.789001
30
71.083000
70
192
0
VERTEX
8
OBJECT__8
10
-4.471500
20
52.778999
30
71.778000
70
192
0
VERTEX
8
OBJECT__8
10
0.441500
20
52.799000
30
66.799004
70
192
0
VERTEX
8
OBJECT__8
10
0
20
0
30
0
70
128
71
1
72
2
73
3
0
VERTEX
8
OBJECT__8
10
0
20
0
30
0
70
128
71
3
72
4
73
1
0
VERTEX
8
OBJECT__8
10
0
20
0
30
0
70
128
71
4
72
5
73
6
0
VERTEX
8
OBJECT__8
10
0
20
0
30
0
70
128
71
5
72
7
73
8
0
VERTEX
8
OBJECT__8
10
0
20
0
30
0
70
128
71
4
72
9
73
10
0
VERTEX
8
OBJECT__8
10
0
20
0
30
0
70
128
71
10
72
11
73
4
0
VERTEX
8
OBJECT__8
10
0
20
0
30
0
70
128
71
11
72
12
73
5
0
VERTEX
8
OBJECT__8
10
0
20
0
30
0
70
128
71
12
72
13
73
7
0
VERTEX
8
OBJECT__8
10
0
20
0
30
0
70
128
71
14
72
11
73
15
0
VERTEX
8
OBJECT__8
10
0
20
0
30
0
70
128
71
15
72
16
73
14
0
VERTEX
8
OBJECT__8
10
0
20
0
30
0
70
128
71
11
72
17
73
15
0
VERTEX
8
OBJECT__8
10
0
20
0
30
0
70
128
71
11
72
14
73
18
0
VERTEX
8
OBJECT__8
10
0
20
0
30
0
70
128
71
12
72
18
73
19
0
VERTEX
8
OBJECT__8
10
0
20
0
30
0
70
128
71
19
72
13
73
12
0
VERTEX
8
OBJECT__8
10
0
20
0
30
0
70
128
71
18
72
12
73
11
0
VERTEX
8
OBJECT__8
10
0
20
0
30
0
70
128
71
16
72
20
73
14
0
VERTEX
8
OBJECT__8
10
0
20
0
30
0
70
128
71
7
72
5
73
12
0
VERTEX
8
OBJECT__8
10
0
20
0
30
0
70
128
71
5
72
4
73
11
0
VERTEX
8
OBJECT__8
10
0
20
0
30
0
70
128
71
10
72
17
73
11
0
VERTEX
8
OBJECT__8
10
0
20
0
30
0
70
128
71
8
72
6
73
5
0
VERTEX
8
OBJECT__8
10
0
20
0
30
0
70
128
71
6
72
1
73
4
0
VERTEX
8
OBJECT__8
10
0
20
0
30
0
70
128
71
3
72
9
73
4
0
SEQEND
8
OBJECT__8
0
POLYLINE
8
OBJECT__9
66
1
70
64
71
20
72
22
62
253
0
VERTEX
8
OBJECT__9
10
-0.220501
20
52.796001
30
-69.264999
70
192
0
VERTEX
8
OBJECT__9
10
0.441500
20
52.799000
30
-66.799004
70
192
0
VERTEX
8
OBJECT__9
10
0.514500
20
26.823999
30
-66.867996
70
192
0
VERTEX
8
OBJECT__9
10
-0.163500
20
23.566000
30
-69.308998
70
192
0
VERTEX
8
OBJECT__9
10
-1.953500
20
23.563000
30
-71.095001
70
192
0
VERTEX
8
OBJECT__9
10
-2.014500
20
52.789001
30
-71.083000
70
192
0
VERTEX
8
OBJECT__9
10
-4.387500
20
23.558001
30
-71.777000
70
192
0
VERTEX
8
OBJECT__9
10
-4.471500
20
52.778999
30
-71.778000
70
192
0
VERTEX
8
OBJECT__9
10
0.523500
20
23.566999
30
-66.875999
70
192
0
VERTEX
8
OBJECT__9
10
0.539499
20
0.000000
30
-66.890999
70
192
0
VERTEX
8
OBJECT__9
10
-0.150499
20
-5.664000
30
-69.319000
70
192
0
VERTEX
8
OBJECT__9
10
-1.939500
20
-5.663000
30
-71.098000
70
192
0
VERTEX
8
OBJECT__9
10
-4.368500
20
-5.662000
30
-71.776001
70
192
0
VERTEX
8
OBJECT__9
10
-0.220501
20
-52.796001
30
-69.264999
70
192
0
VERTEX
8
OBJECT__9
10
0.497499
20
-26.823999
30
-66.851997
70
192
0
VERTEX
8
OBJECT__9
10
0.468500
20
-40.236000
30
-66.824997
70
192
0
VERTEX
8
OBJECT__9
10
0.542500
20
-5.664000
30
-66.893997
70
192
0
VERTEX
8
OBJECT__9
10
-2.014500
20
-52.789001
30
-71.083000
70
192
0
VERTEX
8
OBJECT__9
10
-4.471500
20
-52.778999
30
-71.778000
70
192
0
VERTEX
8
OBJECT__9
10
0.441500
20
-52.799000
30
-66.799004
70
192
0
VERTEX
8
OBJECT__9
10
0
20
0
30
0
70
128
71
1
72
2
73
3
0
VERTEX
8
OBJECT__9
10
0
20
0
30
0
70
128
71
3
72
4
73
1
0
VERTEX
8
OBJECT__9
10
0
20
0
30
0
70
128
71
4
72
5
73
6
0
VERTEX
8
OBJECT__9
10
0
20
0
30
0
70
128
71
5
72
7
73
8
0
VERTEX
8
OBJECT__9
10
0
20
0
30
0
70
128
71
4
72
9
73
10
0
VERTEX
8
OBJECT__9
10
0
20
0
30
0
70
128
71
10
72
11
73
4
0
VERTEX
8
OBJECT__9
10
0
20
0
30
0
70
128
71
11
72
12
73
5
0
VERTEX
8
OBJECT__9
10
0
20
0
30
0
70
128
71
12
72
13
73
7
0
VERTEX
8
OBJECT__9
10
0
20
0
30
0
70
128
71
14
72
11
73
15
0
VERTEX
8
OBJECT__9
10
0
20
0
30
0
70
128
71
15
72
16
73
14
0
VERTEX
8
OBJECT__9
10
0
20
0
30
0
70
128
71
11
72
17
73
15
0
VERTEX
8
OBJECT__9
10
0
20
0
30
0
70
128
71
11
72
14
73
18
0
VERTEX
8
OBJECT__9
10
0
20
0
30
0
70
128
71
12
72
18
73
19
0
VERTEX
8
OBJECT__9
10
0
20
0
30
0
70
128
71
19
72
13
73
12
0
VERTEX
8
OBJECT__9
10
0
20
0
30
0
70
128
71
18
72
12
73
11
0
VERTEX
8
OBJECT__9
10
0
20
0
30
0
70
128
71
16
72
20
73
14
0
VERTEX
8
OBJECT__9
10
0
20
0
30
0
70
128
71
7
72
5
73
12
0
VERTEX
8
OBJECT__9
10
0
20
0
30
0
70
128
71
5
72
4
73
11
0
VERTEX
8
OBJECT__9
10
0
20
0
30
0
70
128
71
10
72
17
73
11
0
VERTEX
8
OBJECT__9
10
0
20
0
30
0
70
128
71
8
72
6
73
5
0
VERTEX
8
OBJECT__9
10
0
20
0
30
0
70
128
71
6
72
1
73
4
0
VERTEX
8
OBJECT__9
10
0
20
0
30
0
70
128
71
3
72
9
73
4
0
SEQEND
8
OBJECT__9
0
POLYLINE
8
OBJECT__10
66
1
70
64
71
21
72
23
62
253
0
VERTEX
8
OBJECT__10
10
-0.220501
20
55.264999
30
66.795998
70
192
0
VERTEX
8
OBJECT__10
10
0.441500
20
52.799000
30
66.799004
70
192
0
VERTEX
8
OBJECT__10
10
0.558500
20
52.909000
30
33.851002
70
192
0
VERTEX
8
OBJECT__10
10
-0.075500
20
55.375999
30
8.345000
70
192
0
VERTEX
8
OBJECT__10
10
-1.859500
20
57.112999
30
8.342000
70
192
0
VERTEX
8
OBJECT__10
10
-2.014500
20
57.083000
30
66.789001
70
192
0
VERTEX
8
OBJECT__10
10
-4.258500
20
57.773998
30
8.338000
70
192
0
VERTEX
8
OBJECT__10
10
0.635500
20
52.980000
30
0.000000
70
192
0
VERTEX
8
OBJECT__10
10
0.606501
20
52.952999
30
-16.926001
70
192
0
VERTEX
8
OBJECT__10
10
0.648500
20
52.993999
30
8.347000
70
192
0
VERTEX
8
OBJECT__10
10
-0.119499
20
55.341999
30
-29.237000
70
192
0
VERTEX
8
OBJECT__10
10
-1.906500
20
57.104000
30
-29.230000
70
192
0
VERTEX
8
OBJECT__10
10
-4.323500
20
57.776001
30
-29.219999
70
192
0
VERTEX
8
OBJECT__10
10
0.568501
20
52.917000
30
-33.851002
70
192
0
VERTEX
8
OBJECT__10
10
0.503500
20
52.855999
30
-50.776001
70
192
0
VERTEX
8
OBJECT__10
10
-0.220501
20
55.264999
30
-66.795998
70
192
0
VERTEX
8
OBJECT__10
10
0.586500
20
52.932999
30
-29.240000
70
192
0
VERTEX
8
OBJECT__10
10
-2.014500
20
57.083000
30
-66.789001
70
192
0
VERTEX
8
OBJECT__10
10
-4.471500
20
57.778000
30
-66.778999
70
192
0
VERTEX
8
OBJECT__10
10
0.441500
20
52.799000
30
-66.799004
70
192
0
VERTEX
8
OBJECT__10
10
-4.471500
20
57.778000
30
66.778999
70
192
0
VERTEX
8
OBJECT__10
10
0
20
0
30
0
70
128
71
1
72
2
73
3
0
VERTEX
8
OBJECT__10
10
0
20
0
30
0
70
128
71
3
72
4
73
1
0
VERTEX
8
OBJECT__10
10
0
20
0
30
0
70
128
71
4
72
5
73
6
0
VERTEX
8
OBJECT__10
10
0
20
0
30
0
70
128
71
6
72
5
73
7
0
VERTEX
8
OBJECT__10
10
0
20
0
30
0
70
128
71
4
72
8
73
9
0
VERTEX
8
OBJECT__10
10
0
20
0
30
0
70
128
71
4
72
10
73
8
0
VERTEX
8
OBJECT__10
10
0
20
0
30
0
70
128
71
9
72
11
73
4
0
VERTEX
8
OBJECT__10
10
0
20
0
30
0
70
128
71
11
72
12
73
5
0
VERTEX
8
OBJECT__10
10
0
20
0
30
0
70
128
71
12
72
13
73
7
0
VERTEX
8
OBJECT__10
10
0
20
0
30
0
70
128
71
11
72
14
73
15
0
VERTEX
8
OBJECT__10
10
0
20
0
30
0
70
128
71
15
72
16
73
11
0
VERTEX
8
OBJECT__10
10
0
20
0
30
0
70
128
71
11
72
17
73
14
0
VERTEX
8
OBJECT__10
10
0
20
0
30
0
70
128
71
18
72
12
73
11
0
VERTEX
8
OBJECT__10
10
0
20
0
30
0
70
128
71
19
72
13
73
12
0
VERTEX
8
OBJECT__10
10
0
20
0
30
0
70
128
71
12
72
18
73
19
0
VERTEX
8
OBJECT__10
10
0
20
0
30
0
70
128
71
11
72
16
73
18
0
VERTEX
8
OBJECT__10
10
0
20
0
30
0
70
128
71
15
72
20
73
16
0
VERTEX
8
OBJECT__10
10
0
20
0
30
0
70
128
71
7
72
5
73
12
0
VERTEX
8
OBJECT__10
10
0
20
0
30
0
70
128
71
5
72
4
73
11
0
VERTEX
8
OBJECT__10
10
0
20
0
30
0
70
128
71
9
72
17
73
11
0
VERTEX
8
OBJECT__10
10
0
20
0
30
0
70
128
71
7
72
21
73
6
0
VERTEX
8
OBJECT__10
10
0
20
0
30
0
70
128
71
6
72
1
73
4
0
VERTEX
8
OBJECT__10
10
0
20
0
30
0
70
128
71
3
72
10
73
4
0
SEQEND
8
OBJECT__10
0
POLYLINE
8
OBJECT__11
66
1
70
64
71
21
72
23
62
253
0
VERTEX
8
OBJECT__11
10
-0.220501
20
-55.264999
30
-66.795998
70
192
0
VERTEX
8
OBJECT__11
10
0.441500
20
-52.799000
30
-66.799004
70
192
0
VERTEX
8
OBJECT__11
10
0.558500
20
-52.909000
30
-33.851002
70
192
0
VERTEX
8
OBJECT__11
10
-0.075500
20
-55.375999
30
-8.345000
70
192
0
VERTEX
8
OBJECT__11
10
-1.859500
20
-57.112999
30
-8.342000
70
192
0
VERTEX
8
OBJECT__11
10
-2.014500
20
-57.083000
30
-66.789001
70
192
0
VERTEX
8
OBJECT__11
10
-4.258500
20
-57.773998
30
-8.338000
70
192
0
VERTEX
8
OBJECT__11
10
0.635500
20
-52.980000
30
0.000000
70
192
0
VERTEX
8
OBJECT__11
10
0.606501
20
-52.952999
30
16.926001
70
192
0
VERTEX
8
OBJECT__11
10
-0.119499
20
-55.341999
30
29.237000
70
192
0
VERTEX
8
OBJECT__11
10
0.648500
20
-52.993999
30
-8.347000
70
192
0
VERTEX
8
OBJECT__11
10
-1.906500
20
-57.104000
30
29.230000
70
192
0
VERTEX
8
OBJECT__11
10
-4.323500
20
-57.776001
30
29.219999
70
192
0
VERTEX
8
OBJECT__11
10
0.568501
20
-52.917000
30
33.851002
70
192
0
VERTEX
8
OBJECT__11
10
0.503500
20
-52.855999
30
50.776001
70
192
0
VERTEX
8
OBJECT__11
10
-0.220501
20
-55.264999
30
66.795998
70
192
0
VERTEX
8
OBJECT__11
10
0.586500
20
-52.932999
30
29.240000
70
192
0
VERTEX
8
OBJECT__11
10
-2.014500
20
-57.083000
30
66.789001
70
192
0
VERTEX
8
OBJECT__11
10
-4.471500
20
-57.778000
30
66.778999
70
192
0
VERTEX
8
OBJECT__11
10
0.441500
20
-52.799000
30
66.799004
70
192
0
VERTEX
8
OBJECT__11
10
-4.471500
20
-57.778000
30
-66.778999
70
192
0
VERTEX
8
OBJECT__11
10
0
20
0
30
0
70
128
71
1
72
2
73
3
0
VERTEX
8
OBJECT__11
10
0
20
0
30
0
70
128
71
3
72
4
73
1
0
VERTEX
8
OBJECT__11
10
0
20
0
30
0
70
128
71
4
72
5
73
6
0
VERTEX
8
OBJECT__11
10
0
20
0
30
0
70
128
71
6
72
5
73
7
0
VERTEX
8
OBJECT__11
10
0
20
0
30
0
70
128
71
4
72
8
73
9
0
VERTEX
8
OBJECT__11
10
0
20
0
30
0
70
128
71
9
72
10
73
4
0
VERTEX
8
OBJECT__11
10
0
20
0
30
0
70
128
71
4
72
11
73
8
0
VERTEX
8
OBJECT__11
10
0
20
0
30
0
70
128
71
10
72
12
73
5
0
VERTEX
8
OBJECT__11
10
0
20
0
30
0
70
128
71
12
72
13
73
7
0
VERTEX
8
OBJECT__11
10
0
20
0
30
0
70
128
71
10
72
14
73
15
0
VERTEX
8
OBJECT__11
10
0
20
0
30
0
70
128
71
15
72
16
73
10
0
VERTEX
8
OBJECT__11
10
0
20
0
30
0
70
128
71
10
72
17
73
14
0
VERTEX
8
OBJECT__11
10
0
20
0
30
0
70
128
71
18
72
12
73
10
0
VERTEX
8
OBJECT__11
10
0
20
0
30
0
70
128
71
19
72
13
73
12
0
VERTEX
8
OBJECT__11
10
0
20
0
30
0
70
128
71
12
72
18
73
19
0
VERTEX
8
OBJECT__11
10
0
20
0
30
0
70
128
71
10
72
16
73
18
0
VERTEX
8
OBJECT__11
10
0
20
0
30
0
70
128
71
15
72
20
73
16
0
VERTEX
8
OBJECT__11
10
0
20
0
30
0
70
128
71
7
72
5
73
12
0
VERTEX
8
OBJECT__11
10
0
20
0
30
0
70
128
71
5
72
4
73
10
0
VERTEX
8
OBJECT__11
10
0
20
0
30
0
70
128
71
9
72
17
73
10
0
VERTEX
8
OBJECT__11
10
0
20
0
30
0
70
128
71
7
72
21
73
6
0
VERTEX
8
OBJECT__11
10
0
20
0
30
0
70
128
71
6
72
1
73
4
0
VERTEX
8
OBJECT__11
10
0
20
0
30
0
70
128
71
3
72
11
73
4
0
SEQEND
8
OBJECT__11
0
POLYLINE
8
OBJECT__12
66
1
70
64
71
6
72
4
62
253
0
VERTEX
8
OBJECT__12
10
-17.180500
20
58.000000
30
-67.000999
70
192
0
VERTEX
8
OBJECT__12
10
-17.180500
20
58.000000
30
67.000999
70
192
0
VERTEX
8
OBJECT__12
10
-4.258500
20
57.773998
30
8.338000
70
192
0
VERTEX
8
OBJECT__12
10
-4.471500
20
57.778000
30
66.778999
70
192
0
VERTEX
8
OBJECT__12
10
-4.323500
20
57.776001
30
-29.219999
70
192
0
VERTEX
8
OBJECT__12
10
-4.471500
20
57.778000
30
-66.778999
70
192
0
VERTEX
8
OBJECT__12
10
0
20
0
30
0
70
128
71
1
72
2
73
3
0
VERTEX
8
OBJECT__12
10
0
20
0
30
0
70
128
71
2
72
4
73
3
0
VERTEX
8
OBJECT__12
10
0
20
0
30
0
70
128
71
3
72
5
73
1
0
VERTEX
8
OBJECT__12
10
0
20
0
30
0
70
128
71
5
72
6
73
1
0
SEQEND
8
OBJECT__12
0
POLYLINE
8
OBJECT__13
66
1
70
64
71
6
72
4
62
253
0
VERTEX
8
OBJECT__13
10
-17.180500
20
-58.000000
30
67.000999
70
192
0
VERTEX
8
OBJECT__13
10
-17.180500
20
-58.000000
30
-67.000999
70
192
0
VERTEX
8
OBJECT__13
10
-4.258500
20
-57.773998
30
-8.338000
70
192
0
VERTEX
8
OBJECT__13
10
-4.471500
20
-57.778000
30
-66.778999
70
192
0
VERTEX
8
OBJECT__13
10
-4.323500
20
-57.776001
30
29.219999
70
192
0
VERTEX
8
OBJECT__13
10
-4.471500
20
-57.778000
30
66.778999
70
192
0
VERTEX
8
OBJECT__13
10
0
20
0
30
0
70
128
71
1
72
2
73
3
0
VERTEX
8
OBJECT__13
10
0
20
0
30
0
70
128
71
2
72
4
73
3
0
VERTEX
8
OBJECT__13
10
0
20
0
30
0
70
128
71
3
72
5
73
1
0
VERTEX
8
OBJECT__13
10
0
20
0
30
0
70
128
71
5
72
6
73
1
0
SEQEND
8
OBJECT__13
0
POLYLINE
8
OBJECT__14
66
1
70
64
71
70
72
70
62
253
0
VERTEX
8
OBJECT__14
10
-17.180500
20
58.000000
30
67.000999
70
192
0
VERTEX
8
OBJECT__14
10
-17.180500
20
55.599998
30
-46.228001
70
192
0
VERTEX
8
OBJECT__14
10
-17.180500
20
55.599998
30
-41.000999
70
192
0
VERTEX
8
OBJECT__14
10
-17.180500
20
55.402000
30
71.386002
70
192
0
VERTEX
8
OBJECT__14
10
-17.180500
20
54.598999
30
64.599998
70
192
0
VERTEX
8
OBJECT__14
10
-17.180500
20
38.491001
30
64.599998
70
192
0
VERTEX
8
OBJECT__14
10
-17.180500
20
55.415001
30
-45.653999
70
192
0
VERTEX
8
OBJECT__14
10
-17.180500
20
58.000000
30
-67.000999
70
192
0
VERTEX
8
OBJECT__14
10
-17.180500
20
55.599998
30
-67.000000
70
192
0
VERTEX
8
OBJECT__14
10
-17.180500
20
53.339001
30
-71.988998
70
192
0
VERTEX
8
OBJECT__14
10
-17.180500
20
53.000999
30
-72.000000
70
192
0
VERTEX
8
OBJECT__14
10
-17.180500
20
53.000000
30
-69.599998
70
192
0
VERTEX
8
OBJECT__14
10
-17.180500
20
-53.000999
30
-72.000000
70
192
0
VERTEX
8
OBJECT__14
10
-17.180500
20
-53.000000
30
-69.599998
70
192
0
VERTEX
8
OBJECT__14
10
-17.180500
20
-58.000000
30
-67.000999
70
192
0
VERTEX
8
OBJECT__14
10
-17.180500
20
-58.000000
30
67.000999
70
192
0
VERTEX
8
OBJECT__14
10
-17.180500
20
-55.598999
30
-46.193001
70
192
0
VERTEX
8
OBJECT__14
10
-17.180500
20
-55.599998
30
63.599998
70
192
0
VERTEX
8
OBJECT__14
10
-17.180500
20
-55.599998
30
-41.000999
70
192
0
VERTEX
8
OBJECT__14
10
-17.180500
20
-53.000999
30
72.000000
70
192
0
VERTEX
8
OBJECT__14
10
-17.180500
20
-37.991001
30
65.091003
70
192
0
VERTEX
8
OBJECT__14
10
-17.180500
20
-38.140999
30
64.742996
70
192
0
VERTEX
8
OBJECT__14
10
-17.180500
20
49.000000
30
-41.508999
70
192
0
VERTEX
8
OBJECT__14
10
-17.180500
20
49.056999
30
-41.368999
70
192
0
VERTEX
8
OBJECT__14
10
-17.180500
20
49.196999
30
-41.308998
70
192
0
VERTEX
8
OBJECT__14
10
-17.180500
20
55.403000
30
-41.201000
70
192
0
VERTEX
8
OBJECT__14
10
-17.180500
20
55.403000
30
-45.653000
70
192
0
VERTEX
8
OBJECT__14
10
-17.180500
20
49.000000
30
-45.068001
70
192
0
VERTEX
8
OBJECT__14
10
-17.180500
20
37.991001
30
65.091003
70
192
0
VERTEX
8
OBJECT__14
10
-17.180500
20
37.916000
30
69.403000
70
192
0
VERTEX
8
OBJECT__14
10
-17.180500
20
53.000999
30
72.000000
70
192
0
VERTEX
8
OBJECT__14
10
-17.180500
20
57.213001
30
69.693001
70
192
0
VERTEX
8
OBJECT__14
10
-17.180500
20
57.988998
30
67.338997
70
192
0
VERTEX
8
OBJECT__14
10
-17.180500
20
55.023998
30
64.504997
70
192
0
VERTEX
8
OBJECT__14
10
-17.180500
20
57.386002
30
-69.402000
70
192
0
VERTEX
8
OBJECT__14
10
-17.180500
20
54.993999
30
-68.667999
70
192
0
VERTEX
8
OBJECT__14
10
-17.180500
20
55.693001
30
-71.212997
70
192
0
VERTEX
8
OBJECT__14
10
-17.180500
20
53.459999
30
-69.558998
70
192
0
VERTEX
8
OBJECT__14
10
-17.180500
20
-55.402000
30
-71.386002
70
192
0
VERTEX
8
OBJECT__14
10
-17.180500
20
-54.667999
30
-68.994003
70
192
0
VERTEX
8
OBJECT__14
10
-17.180500
20
-57.988998
30
-67.338997
70
192
0
VERTEX
8
OBJECT__14
10
-17.180500
20
-55.599998
30
-67.000000
70
192
0
VERTEX
8
OBJECT__14
10
-17.180500
20
-55.599998
30
-46.228001
70
192
0
VERTEX
8
OBJECT__14
10
-17.180500
20
-38.491001
30
64.599998
70
192
0
VERTEX
8
OBJECT__14
10
-17.180500
20
38.140999
30
64.742996
70
192
0
VERTEX
8
OBJECT__14
10
-17.180500
20
-57.213001
30
-69.693001
70
192
0
VERTEX
8
OBJECT__14
10
-17.180500
20
-55.558998
30
-67.459999
70
192
0
VERTEX
8
OBJECT__14
10
-17.180500
20
-55.505001
30
64.025002
70
192
0
VERTEX
8
OBJECT__14
10
-17.180500
20
-37.916000
30
69.403000
70
192
0
VERTEX
8
OBJECT__14
10
-17.180500
20
-54.598999
30
64.599998
70
192
0
VERTEX
8
OBJECT__14
10
-17.180500
20
-55.693001
30
71.212997
70
192
0
VERTEX
8
OBJECT__14
10
-17.180500
20
-53.339001
30
71.988998
70
192
0
VERTEX
8
OBJECT__14
10
-17.180500
20
55.599998
30
63.599998
70
192
0
VERTEX
8
OBJECT__14
10
-17.180500
20
-55.403000
30
-45.653000
70
192
0
VERTEX
8
OBJECT__14
10
-17.180500
20
49.000999
30
-45.112000
70
192
0
VERTEX
8
OBJECT__14
10
-17.180500
20
-57.386002
30
69.402000
70
192
0
VERTEX
8
OBJECT__14
10
-17.180500
20
-37.855999
30
69.542000
70
192
0
VERTEX
8
OBJECT__14
10
-17.180500
20
37.716000
30
69.599998
70
192
0
VERTEX
8
OBJECT__14
10
-17.180500
20
-49.200001
30
-45.653000
70
192
0
VERTEX
8
OBJECT__14
10
-17.180500
20
-49.196999
30
-41.308998
70
192
0
VERTEX
8
OBJECT__14
10
-17.180500
20
-49.000000
30
-45.068001
70
192
0
VERTEX
8
OBJECT__14
10
-17.180500
20
-49.056999
30
-41.368999
70
192
0
VERTEX
8
OBJECT__14
10
-17.180500
20
-49.000000
30
-41.508999
70
192
0
VERTEX
8
OBJECT__14
10
-17.180500
20
49.200001
30
-45.653000
70
192
0
VERTEX
8
OBJECT__14
10
-17.180500
20
37.855999
30
69.542000
70
192
0
VERTEX
8
OBJECT__14
10
-17.180500
20
-37.716000
30
69.599998
70
192
0
VERTEX
8
OBJECT__14
10
-17.180500
20
-55.403000
30
-41.201000
70
192
0
VERTEX
8
OBJECT__14
10
-17.180500
20
-49.185001
30
-45.651001
70
192
0
VERTEX
8
OBJECT__14
10
-17.180500
20
55.542000
30
-41.140999
70
192
0
VERTEX
8
OBJECT__14
10
-17.180500
20
-55.542000
30
-41.140999
70
192
0
VERTEX
8
OBJECT__14
10
0
20
0
30
0
70
128
71
1
72
2
73
3
0
VERTEX
8
OBJECT__14
10
0
20
0
30
0
70
128
71
4
72
5
73
6
0
VERTEX
8
OBJECT__14
10
0
20
0
30
0
70
128
71
2
72
7
73
3
0
VERTEX
8
OBJECT__14
10
0
20
0
30
0
70
128
71
8
72
9
73
2
0
VERTEX
8
OBJECT__14
10
0
20
0
30
0
70
128
71
10
72
11
73
12
0
VERTEX
8
OBJECT__14
10
0
20
0
30
0
70
128
71
13
72
14
73
12
0
VERTEX
8
OBJECT__14
10
0
20
0
30
0
70
128
71
15
72
16
73
17
0
VERTEX
8
OBJECT__14
10
0
20
0
30
0
70
128
71
16
72
18
73
19
0
VERTEX
8
OBJECT__14
10
0
20
0
30
0
70
128
71
20
72
21
73
22
0
VERTEX
8
OBJECT__14
10
0
20
0
30
0
70
128
71
23
72
24
73
25
0
VERTEX
8
OBJECT__14
10
0
20
0
30
0
70
128
71
26
72
27
73
28
0
VERTEX
8
OBJECT__14
10
0
20
0
30
0
70
128
71
29
72
30
73
31
0
VERTEX
8
OBJECT__14
10
0
20
0
30
0
70
128
71
6
72
29
73
4
0
VERTEX
8
OBJECT__14
10
0
20
0
30
0
70
128
71
32
72
33
73
34
0
VERTEX
8
OBJECT__14
10
0
20
0
30
0
70
128
71
2
72
1
73
8
0
VERTEX
8
OBJECT__14
10
0
20
0
30
0
70
128
71
35
72
36
73
9
0
VERTEX
8
OBJECT__14
10
0
20
0
30
0
70
128
71
37
72
10
73
38
0
VERTEX
8
OBJECT__14
10
0
20
0
30
0
70
128
71
12
72
11
73
13
0
VERTEX
8
OBJECT__14
10
0
20
0
30
0
70
128
71
39
72
40
73
14
0
VERTEX
8
OBJECT__14
10
0
20
0
30
0
70
128
71
41
72
15
73
42
0
VERTEX
8
OBJECT__14
10
0
20
0
30
0
70
128
71
17
72
43
73
15
0
VERTEX
8
OBJECT__14
10
0
20
0
30
0
70
128
71
19
72
17
73
16
0
VERTEX
8
OBJECT__14
10
0
20
0
30
0
70
128
71
22
72
44
73
20
0
VERTEX
8
OBJECT__14
10
0
20
0
30
0
70
128
71
28
72
23
73
26
0
VERTEX
8
OBJECT__14
10
0
20
0
30
0
70
128
71
6
72
45
73
29
0
VERTEX
8
OBJECT__14
10
0
20
0
30
0
70
128
71
5
72
4
73
32
0
VERTEX
8
OBJECT__14
10
0
20
0
30
0
70
128
71
34
72
33
73
1
0
VERTEX
8
OBJECT__14
10
0
20
0
30
0
70
128
71
9
72
8
73
35
0
VERTEX
8
OBJECT__14
10
0
20
0
30
0
70
128
71
36
72
35
73
37
0
VERTEX
8
OBJECT__14
10
0
20
0
30
0
70
128
71
14
72
13
73
39
0
VERTEX
8
OBJECT__14
10
0
20
0
30
0
70
128
71
46
72
41
73
47
0
VERTEX
8
OBJECT__14
10
0
20
0
30
0
70
128
71
43
72
42
73
15
0
VERTEX
8
OBJECT__14
10
0
20
0
30
0
70
128
71
16
72
48
73
18
0
VERTEX
8
OBJECT__14
10
0
20
0
30
0
70
128
71
20
72
49
73
21
0
VERTEX
8
OBJECT__14
10
0
20
0
30
0
70
128
71
50
72
51
73
52
0
VERTEX
8
OBJECT__14
10
0
20
0
30
0
70
128
71
26
72
7
73
27
0
VERTEX
8
OBJECT__14
10
0
20
0
30
0
70
128
71
34
72
5
73
32
0
VERTEX
8
OBJECT__14
10
0
20
0
30
0
70
128
71
3
72
53
73
1
0
VERTEX
8
OBJECT__14
10
0
20
0
30
0
70
128
71
12
72
38
73
10
0
VERTEX
8
OBJECT__14
10
0
20
0
30
0
70
128
71
40
72
39
73
46
0
VERTEX
8
OBJECT__14
10
0
20
0
30
0
70
128
71
19
72
54
73
17
0
VERTEX
8
OBJECT__14
10
0
20
0
30
0
70
128
71
50
72
48
73
16
0
VERTEX
8
OBJECT__14
10
0
20
0
30
0
70
128
71
52
72
20
73
50
0
VERTEX
8
OBJECT__14
10
0
20
0
30
0
70
128
71
25
72
26
73
23
0
VERTEX
8
OBJECT__14
10
0
20
0
30
0
70
128
71
27
72
55
73
28
0
VERTEX
8
OBJECT__14
10
0
20
0
30
0
70
128
71
31
72
4
73
29
0
VERTEX
8
OBJECT__14
10
0
20
0
30
0
70
128
71
38
72
36
73
37
0
VERTEX
8
OBJECT__14
10
0
20
0
30
0
70
128
71
42
72
47
73
41
0
VERTEX
8
OBJECT__14
10
0
20
0
30
0
70
128
71
16
72
56
73
50
0
VERTEX
8
OBJECT__14
10
0
20
0
30
0
70
128
71
20
72
57
73
49
0
VERTEX
8
OBJECT__14
10
0
20
0
30
0
70
128
71
20
72
31
73
58
0
VERTEX
8
OBJECT__14
10
0
20
0
30
0
70
128
71
59
72
60
73
61
0
VERTEX
8
OBJECT__14
10
0
20
0
30
0
70
128
71
60
72
62
73
63
0
VERTEX
8
OBJECT__14
10
0
20
0
30
0
70
128
71
27
72
64
73
55
0
VERTEX
8
OBJECT__14
10
0
20
0
30
0
70
128
71
30
72
65
73
31
0
VERTEX
8
OBJECT__14
10
0
20
0
30
0
70
128
71
47
72
40
73
46
0
VERTEX
8
OBJECT__14
10
0
20
0
30
0
70
128
71
44
72
50
73
20
0
VERTEX
8
OBJECT__14
10
0
20
0
30
0
70
128
71
58
72
66
73
20
0
VERTEX
8
OBJECT__14
10
0
20
0
30
0
70
128
71
54
72
67
73
60
0
VERTEX
8
OBJECT__14
10
0
20
0
30
0
70
128
71
63
72
61
73
60
0
VERTEX
8
OBJECT__14
10
0
20
0
30
0
70
128
71
1
72
53
73
34
0
VERTEX
8
OBJECT__14
10
0
20
0
30
0
70
128
71
66
72
57
73
20
0
VERTEX
8
OBJECT__14
10
0
20
0
30
0
70
128
71
61
72
68
73
59
0
VERTEX
8
OBJECT__14
10
0
20
0
30
0
70
128
71
26
72
69
73
7
0
VERTEX
8
OBJECT__14
10
0
20
0
30
0
70
128
71
56
72
51
73
50
0
VERTEX
8
OBJECT__14
10
0
20
0
30
0
70
128
71
54
72
70
73
67
0
VERTEX
8
OBJECT__14
10
0
20
0
30
0
70
128
71
65
72
58
73
31
0
VERTEX
8
OBJECT__14
10
0
20
0
30
0
70
128
71
54
72
19
73
70
0
VERTEX
8
OBJECT__14
10
0
20
0
30
0
70
128
71
60
72
59
73
54
0
VERTEX
8
OBJECT__14
10
0
20
0
30
0
70
128
71
69
72
3
73
7
0
SEQEND
8
OBJECT__14
0
POLYLINE
8
OBJECT__15
66
1
70
64
71
63
72
98
62
253
0
VERTEX
8
OBJECT__15
10
1.763500
20
-14.506000
30
0.000000
70
192
0
VERTEX
8
OBJECT__15
10
1.585501
20
-14.505000
30
-18.002001
70
192
0
VERTEX
8
OBJECT__15
10
1.663500
20
0.000000
30
-18.002001
70
192
0
VERTEX
8
OBJECT__15
10
0.731501
20
-29.004000
30
54.000999
70
192
0
VERTEX
8
OBJECT__15
10
1.044500
20
-29.007000
30
36.000999
70
192
0
VERTEX
8
OBJECT__15
10
1.201500
20
-14.504000
30
36.001999
70
192
0
VERTEX
8
OBJECT__15
10
0.419500
20
0.000000
30
72.000000
70
192
0
VERTEX
8
OBJECT__15
10
0.419500
20
-29.000000
30
72.000000
70
192
0
VERTEX
8
OBJECT__15
10
1.253500
20
0.000000
30
36.001999
70
192
0
VERTEX
8
OBJECT__15
10
0.419500
20
58.000000
30
0.000000
70
192
0
VERTEX
8
OBJECT__15
10
1.046499
20
43.507999
30
0.000000
70
192
0
VERTEX
8
OBJECT__15
10
0.963499
20
43.507000
30
-18.000999
70
192
0
VERTEX
8
OBJECT__15
10
0.784500
20
43.506001
30
36.000999
70
192
0
VERTEX
8
OBJECT__15
10
0.419500
20
58.000000
30
36.000000
70
192
0
VERTEX
8
OBJECT__15
10
0.419500
20
58.000000
30
72.000000
70
192
0
VERTEX
8
OBJECT__15
10
1.046499
20
-43.507999
30
0.000000
70
192
0
VERTEX
8
OBJECT__15
10
0.963499
20
-43.507000
30
-18.000999
70
192
0
VERTEX
8
OBJECT__15
10
1.352501
20
-29.007999
30
-18.002001
70
192
0
VERTEX
8
OBJECT__15
10
0.419500
20
-29.000000
30
-72.000000
70
192
0
VERTEX
8
OBJECT__15
10
0.419500
20
0.000000
30
-72.000000
70
192
0
VERTEX
8
OBJECT__15
10
1.201500
20
-14.504000
30
-36.001999
70
192
0
VERTEX
8
OBJECT__15
10
1.253500
20
0.000000
30
-36.001999
70
192
0
VERTEX
8
OBJECT__15
10
1.494499
20
-29.009001
30
0.000000
70
192
0
VERTEX
8
OBJECT__15
10
1.044500
20
-29.007000
30
-36.000999
70
192
0
VERTEX
8
OBJECT__15
10
0.601500
20
-43.502998
30
-54.000000
70
192
0
VERTEX
8
OBJECT__15
10
0.784500
20
-43.506001
30
-36.000999
70
192
0
VERTEX
8
OBJECT__15
10
0.419500
20
-58.000000
30
0.000000
70
192
0
VERTEX
8
OBJECT__15
10
0.419500
20
-58.000000
30
-18.000000
70
192
0
VERTEX
8
OBJECT__15
10
0.419500
20
-58.000000
30
-36.000000
70
192
0
VERTEX
8
OBJECT__15
10
0.419500
20
-58.000000
30
-54.000000
70
192
0
VERTEX
8
OBJECT__15
10
0.419500
20
-58.000000
30
-72.000000
70
192
0
VERTEX
8
OBJECT__15
10
0.419500
20
-43.500000
30
-72.000000
70
192
0
VERTEX
8
OBJECT__15
10
1.585501
20
-14.505000
30
18.002001
70
192
0
VERTEX
8
OBJECT__15
10
1.663500
20
0.000000
30
18.002001
70
192
0
VERTEX
8
OBJECT__15
10
0.419500
20
-43.500000
30
72.000000
70
192
0
VERTEX
8
OBJECT__15
10
0.601500
20
-43.502998
30
54.000000
70
192
0
VERTEX
8
OBJECT__15
10
0.419500
20
-58.000000
30
72.000000
70
192
0
VERTEX
8
OBJECT__15
10
0.419500
20
-58.000000
30
54.000000
70
192
0
VERTEX
8
OBJECT__15
10
0.784500
20
-43.506001
30
36.000999
70
192
0
VERTEX
8
OBJECT__15
10
0.963499
20
-43.507000
30
18.000999
70
192
0
VERTEX
8
OBJECT__15
10
1.352501
20
-29.007999
30
18.002001
70
192
0
VERTEX
8
OBJECT__15
10
1.853500
20
0.000000
30
0.000000
70
192
0
VERTEX
8
OBJECT__15
10
0.419500
20
-58.000000
30
18.000000
70
192
0
VERTEX
8
OBJECT__15
10
1.044500
20
29.007000
30
36.000999
70
192
0
VERTEX
8
OBJECT__15
10
0.419500
20
29.000000
30
72.000000
70
192
0
VERTEX
8
OBJECT__15
10
0.419500
20
58.000000
30
18.000000
70
192
0
VERTEX
8
OBJECT__15
10
0.419500
20
43.500000
30
72.000000
70
192
0
VERTEX
8
OBJECT__15
10
0.963499
20
43.507000
30
18.000999
70
192
0
VERTEX
8
OBJECT__15
10
1.352501
20
29.007999
30
18.002001
70
192
0
VERTEX
8
OBJECT__15
10
1.585501
20
14.505000
30
18.002001
70
192
0
VERTEX
8
OBJECT__15
10
1.763500
20
14.506000
30
0.000000
70
192
0
VERTEX
8
OBJECT__15
10
1.494499
20
29.009001
30
0.000000
70
192
0
VERTEX
8
OBJECT__15
10
0.419500
20
58.000000
30
-54.000000
70
192
0
VERTEX
8
OBJECT__15
10
0.419500
20
58.000000
30
-36.000000
70
192
0
VERTEX
8
OBJECT__15
10
0.784500
20
43.506001
30
-36.000999
70
192
0
VERTEX
8
OBJECT__15
10
0.731501
20
29.004000
30
-54.000999
70
192
0
VERTEX
8
OBJECT__15
10
1.585501
20
14.505000
30
-18.002001
70
192
0
VERTEX
8
OBJECT__15
10
1.352501
20
29.007999
30
-18.002001
70
192
0
VERTEX
8
OBJECT__15
10
0.419500
20
58.000000
30
-18.000000
70
192
0
VERTEX
8
OBJECT__15
10
1.044500
20
29.007000
30
-36.000999
70
192
0
VERTEX
8
OBJECT__15
10
0.419500
20
29.000000
30
-72.000000
70
192
0
VERTEX
8
OBJECT__15
10
0.419500
20
58.000000
30
-72.000000
70
192
0
VERTEX
8
OBJECT__15
10
0.419500
20
-58.000000
30
36.000000
70
192
0
VERTEX
8
OBJECT__15
10
0
20
0
30
0
70
128
71
1
72
2
73
3
0
VERTEX
8
OBJECT__15
10
0
20
0
30
0
70
128
71
4
72
5
73
6
0
VERTEX
8
OBJECT__15
10
0
20
0
30
0
70
128
71
7
72
8
73
4
0
VERTEX
8
OBJECT__15
10
0
20
0
30
0
70
128
71
4
72
9
73
7
0
VERTEX
8
OBJECT__15
10
0
20
0
30
0
70
128
71
10
72
11
73
12
0
VERTEX
8
OBJECT__15
10
0
20
0
30
0
70
128
71
13
72
14
73
15
0
VERTEX
8
OBJECT__15
10
0
20
0
30
0
70
128
71
16
72
17
73
18
0
VERTEX
8
OBJECT__15
10
0
20
0
30
0
70
128
71
19
72
20
73
21
0
VERTEX
8
OBJECT__15
10
0
20
0
30
0
70
128
71
20
72
22
73
21
0
VERTEX
8
OBJECT__15
10
0
20
0
30
0
70
128
71
2
72
21
73
22
0
VERTEX
8
OBJECT__15
10
0
20
0
30
0
70
128
71
2
72
1
73
23
0
VERTEX
8
OBJECT__15
10
0
20
0
30
0
70
128
71
21
72
2
73
18
0
VERTEX
8
OBJECT__15
10
0
20
0
30
0
70
128
71
19
72
24
73
25
0
VERTEX
8
OBJECT__15
10
0
20
0
30
0
70
128
71
24
72
26
73
25
0
VERTEX
8
OBJECT__15
10
0
20
0
30
0
70
128
71
17
72
26
73
24
0
VERTEX
8
OBJECT__15
10
0
20
0
30
0
70
128
71
27
72
28
73
17
0
VERTEX
8
OBJECT__15
10
0
20
0
30
0
70
128
71
28
72
29
73
26
0
VERTEX
8
OBJECT__15
10
0
20
0
30
0
70
128
71
26
72
29
73
30
0
VERTEX
8
OBJECT__15
10
0
20
0
30
0
70
128
71
31
72
32
73
25
0
VERTEX
8
OBJECT__15
10
0
20
0
30
0
70
128
71
33
72
34
73
9
0
VERTEX
8
OBJECT__15
10
0
20
0
30
0
70
128
71
4
72
8
73
35
0
VERTEX
8
OBJECT__15
10
0
20
0
30
0
70
128
71
5
72
4
73
36
0
VERTEX
8
OBJECT__15
10
0
20
0
30
0
70
128
71
37
72
38
73
36
0
VERTEX
8
OBJECT__15
10
0
20
0
30
0
70
128
71
39
72
36
73
38
0
VERTEX
8
OBJECT__15
10
0
20
0
30
0
70
128
71
40
72
41
73
5
0
VERTEX
8
OBJECT__15
10
0
20
0
30
0
70
128
71
1
72
42
73
34
0
VERTEX
8
OBJECT__15
10
0
20
0
30
0
70
128
71
6
72
5
73
41
0
VERTEX
8
OBJECT__15
10
0
20
0
30
0
70
128
71
33
72
41
73
23
0
VERTEX
8
OBJECT__15
10
0
20
0
30
0
70
128
71
16
72
23
73
41
0
VERTEX
8
OBJECT__15
10
0
20
0
30
0
70
128
71
43
72
40
73
39
0
VERTEX
8
OBJECT__15
10
0
20
0
30
0
70
128
71
27
72
16
73
40
0
VERTEX
8
OBJECT__15
10
0
20
0
30
0
70
128
71
9
72
44
73
45
0
VERTEX
8
OBJECT__15
10
0
20
0
30
0
70
128
71
46
72
14
73
13
0
VERTEX
8
OBJECT__15
10
0
20
0
30
0
70
128
71
44
72
13
73
47
0
VERTEX
8
OBJECT__15
10
0
20
0
30
0
70
128
71
10
72
46
73
48
0
VERTEX
8
OBJECT__15
10
0
20
0
30
0
70
128
71
48
72
13
73
44
0
VERTEX
8
OBJECT__15
10
0
20
0
30
0
70
128
71
11
72
48
73
49
0
VERTEX
8
OBJECT__15
10
0
20
0
30
0
70
128
71
44
72
9
73
50
0
VERTEX
8
OBJECT__15
10
0
20
0
30
0
70
128
71
9
72
34
73
50
0
VERTEX
8
OBJECT__15
10
0
20
0
30
0
70
128
71
50
72
51
73
52
0
VERTEX
8
OBJECT__15
10
0
20
0
30
0
70
128
71
51
72
50
73
34
0
VERTEX
8
OBJECT__15
10
0
20
0
30
0
70
128
71
53
72
54
73
55
0
VERTEX
8
OBJECT__15
10
0
20
0
30
0
70
128
71
55
72
56
73
53
0
VERTEX
8
OBJECT__15
10
0
20
0
30
0
70
128
71
57
72
58
73
52
0
VERTEX
8
OBJECT__15
10
0
20
0
30
0
70
128
71
59
72
12
73
55
0
VERTEX
8
OBJECT__15
10
0
20
0
30
0
70
128
71
11
72
52
73
58
0
VERTEX
8
OBJECT__15
10
0
20
0
30
0
70
128
71
12
72
58
73
60
0
VERTEX
8
OBJECT__15
10
0
20
0
30
0
70
128
71
60
72
58
73
57
0
VERTEX
8
OBJECT__15
10
0
20
0
30
0
70
128
71
57
72
22
73
60
0
VERTEX
8
OBJECT__15
10
0
20
0
30
0
70
128
71
51
72
42
73
3
0
VERTEX
8
OBJECT__15
10
0
20
0
30
0
70
128
71
20
72
61
73
56
0
VERTEX
8
OBJECT__15
10
0
20
0
30
0
70
128
71
56
72
22
73
20
0
VERTEX
8
OBJECT__15
10
0
20
0
30
0
70
128
71
62
72
53
73
56
0
VERTEX
8
OBJECT__15
10
0
20
0
30
0
70
128
71
56
72
61
73
62
0
VERTEX
8
OBJECT__15
10
0
20
0
30
0
70
128
71
56
72
60
73
22
0
VERTEX
8
OBJECT__15
10
0
20
0
30
0
70
128
71
3
72
57
73
51
0
VERTEX
8
OBJECT__15
10
0
20
0
30
0
70
128
71
57
72
3
73
22
0
VERTEX
8
OBJECT__15
10
0
20
0
30
0
70
128
71
60
72
55
73
12
0
VERTEX
8
OBJECT__15
10
0
20
0
30
0
70
128
71
58
72
12
73
11
0
VERTEX
8
OBJECT__15
10
0
20
0
30
0
70
128
71
55
72
54
73
59
0
VERTEX
8
OBJECT__15
10
0
20
0
30
0
70
128
71
52
72
51
73
57
0
VERTEX
8
OBJECT__15
10
0
20
0
30
0
70
128
71
55
72
60
73
56
0
VERTEX
8
OBJECT__15
10
0
20
0
30
0
70
128
71
34
72
42
73
51
0
VERTEX
8
OBJECT__15
10
0
20
0
30
0
70
128
71
52
72
49
73
50
0
VERTEX
8
OBJECT__15
10
0
20
0
30
0
70
128
71
50
72
49
73
44
0
VERTEX
8
OBJECT__15
10
0
20
0
30
0
70
128
71
49
72
52
73
11
0
VERTEX
8
OBJECT__15
10
0
20
0
30
0
70
128
71
44
72
49
73
48
0
VERTEX
8
OBJECT__15
10
0
20
0
30
0
70
128
71
48
72
11
73
10
0
VERTEX
8
OBJECT__15
10
0
20
0
30
0
70
128
71
47
72
45
73
44
0
VERTEX
8
OBJECT__15
10
0
20
0
30
0
70
128
71
13
72
48
73
46
0
VERTEX
8
OBJECT__15
10
0
20
0
30
0
70
128
71
45
72
7
73
9
0
VERTEX
8
OBJECT__15
10
0
20
0
30
0
70
128
71
40
72
43
73
27
0
VERTEX
8
OBJECT__15
10
0
20
0
30
0
70
128
71
39
72
63
73
43
0
VERTEX
8
OBJECT__15
10
0
20
0
30
0
70
128
71
41
72
40
73
16
0
VERTEX
8
OBJECT__15
10
0
20
0
30
0
70
128
71
23
72
1
73
33
0
VERTEX
8
OBJECT__15
10
0
20
0
30
0
70
128
71
41
72
33
73
6
0
VERTEX
8
OBJECT__15
10
0
20
0
30
0
70
128
71
34
72
33
73
1
0
VERTEX
8
OBJECT__15
10
0
20
0
30
0
70
128
71
5
72
39
73
40
0
VERTEX
8
OBJECT__15
10
0
20
0
30
0
70
128
71
38
72
63
73
39
0
VERTEX
8
OBJECT__15
10
0
20
0
30
0
70
128
71
36
72
35
73
37
0
VERTEX
8
OBJECT__15
10
0
20
0
30
0
70
128
71
36
72
39
73
5
0
VERTEX
8
OBJECT__15
10
0
20
0
30
0
70
128
71
35
72
36
73
4
0
VERTEX
8
OBJECT__15
10
0
20
0
30
0
70
128
71
9
72
6
73
33
0
VERTEX
8
OBJECT__15
10
0
20
0
30
0
70
128
71
25
72
30
73
31
0
VERTEX
8
OBJECT__15
10
0
20
0
30
0
70
128
71
30
72
25
73
26
0
VERTEX
8
OBJECT__15
10
0
20
0
30
0
70
128
71
26
72
17
73
28
0
VERTEX
8
OBJECT__15
10
0
20
0
30
0
70
128
71
17
72
16
73
27
0
VERTEX
8
OBJECT__15
10
0
20
0
30
0
70
128
71
24
72
18
73
17
0
VERTEX
8
OBJECT__15
10
0
20
0
30
0
70
128
71
25
72
32
73
19
0
VERTEX
8
OBJECT__15
10
0
20
0
30
0
70
128
71
18
72
24
73
21
0
VERTEX
8
OBJECT__15
10
0
20
0
30
0
70
128
71
23
72
18
73
2
0
VERTEX
8
OBJECT__15
10
0
20
0
30
0
70
128
71
22
72
3
73
2
0
VERTEX
8
OBJECT__15
10
0
20
0
30
0
70
128
71
21
72
24
73
19
0
VERTEX
8
OBJECT__15
10
0
20
0
30
0
70
128
71
18
72
23
73
16
0
VERTEX
8
OBJECT__15
10
0
20
0
30
0
70
128
71
15
72
47
73
13
0
VERTEX
8
OBJECT__15
10
0
20
0
30
0
70
128
71
12
72
59
73
10
0
VERTEX
8
OBJECT__15
10
0
20
0
30
0
70
128
71
6
72
9
73
4
0
VERTEX
8
OBJECT__15
10
0
20
0
30
0
70
128
71
3
72
42
73
1
0
SEQEND
8
OBJECT__15
0
POLYLINE
8
OBJECT__16
66
1
70
64
71
8
72
6
62
253
0
VERTEX
8
OBJECT__16
10
-17.180500
20
-58.000000
30
-72.000000
70
192
0
VERTEX
8
OBJECT__16
10
0.419500
20
-29.000000
30
-72.000000
70
192
0
VERTEX
8
OBJECT__16
10
0.419500
20
-43.500000
30
-72.000000
70
192
0
VERTEX
8
OBJECT__16
10
0.419500
20
0.000000
30
-72.000000
70
192
0
VERTEX
8
OBJECT__16
10
-17.180500
20
58.000000
30
-72.000000
70
192
0
VERTEX
8
OBJECT__16
10
0.419500
20
29.000000
30
-72.000000
70
192
0
VERTEX
8
OBJECT__16
10
0.419500
20
58.000000
30
-72.000000
70
192
0
VERTEX
8
OBJECT__16
10
0.419500
20
-58.000000
30
-72.000000
70
192
0
VERTEX
8
OBJECT__16
10
0
20
0
30
0
70
128
71
1
72
2
73
3
0
VERTEX
8
OBJECT__16
10
0
20
0
30
0
70
128
71
1
72
4
73
2
0
VERTEX
8
OBJECT__16
10
0
20
0
30
0
70
128
71
5
72
6
73
4
0
VERTEX
8
OBJECT__16
10
0
20
0
30
0
70
128
71
4
72
1
73
5
0
VERTEX
8
OBJECT__16
10
0
20
0
30
0
70
128
71
5
72
7
73
6
0
VERTEX
8
OBJECT__16
10
0
20
0
30
0
70
128
71
3
72
8
73
1
0
SEQEND
8
OBJECT__16
0
POLYLINE
8
OBJECT__18
66
1
70
64
71
10
72
8
62
253
0
VERTEX
8
OBJECT__18
10
-17.180500
20
58.000000
30
-72.000000
70
192
0
VERTEX
8
OBJECT__18
10
0.419500
20
58.000000
30
-36.000000
70
192
0
VERTEX
8
OBJECT__18
10
0.419500
20
58.000000
30
-54.000000
70
192
0
VERTEX
8
OBJECT__18
10
0.419500
20
58.000000
30
-18.000000
70
192
0
VERTEX
8
OBJECT__18
10
0.419500
20
58.000000
30
0.000000
70
192
0
VERTEX
8
OBJECT__18
10
-17.180500
20
58.000000
30
72.000000
70
192
0
VERTEX
8
OBJECT__18
10
0.419500
20
58.000000
30
18.000000
70
192
0
VERTEX
8
OBJECT__18
10
0.419500
20
58.000000
30
36.000000
70
192
0
VERTEX
8
OBJECT__18
10
0.419500
20
58.000000
30
72.000000
70
192
0
VERTEX
8
OBJECT__18
10
0.419500
20
58.000000
30
-72.000000
70
192
0
VERTEX
8
OBJECT__18
10
0
20
0
30
0
70
128
71
1
72
2
73
3
0
VERTEX
8
OBJECT__18
10
0
20
0
30
0
70
128
71
1
72
4
73
2
0
VERTEX
8
OBJECT__18
10
0
20
0
30
0
70
128
71
1
72
5
73
4
0
VERTEX
8
OBJECT__18
10
0
20
0
30
0
70
128
71
6
72
7
73
5
0
VERTEX
8
OBJECT__18
10
0
20
0
30
0
70
128
71
5
72
1
73
6
0
VERTEX
8
OBJECT__18
10
0
20
0
30
0
70
128
71
6
72
8
73
7
0
VERTEX
8
OBJECT__18
10
0
20
0
30
0
70
128
71
6
72
9
73
8
0
VERTEX
8
OBJECT__18
10
0
20
0
30
0
70
128
71
3
72
10
73
1
0
SEQEND
8
OBJECT__18
0
POLYLINE
8
OBJECT__19
66
1
70
64
71
9
72
7
62
253
0
VERTEX
8
OBJECT__19
10
-17.180500
20
58.000000
30
72.000000
70
192
0
VERTEX
8
OBJECT__19
10
0.419500
20
29.000000
30
72.000000
70
192
0
VERTEX
8
OBJECT__19
10
0.419500
20
43.500000
30
72.000000
70
192
0
VERTEX
8
OBJECT__19
10
0.419500
20
0.000000
30
72.000000
70
192
0
VERTEX
8
OBJECT__19
10
-17.180500
20
-58.000000
30
72.000000
70
192
0
VERTEX
8
OBJECT__19
10
0.419500
20
-29.000000
30
72.000000
70
192
0
VERTEX
8
OBJECT__19
10
0.419500
20
-43.500000
30
72.000000
70
192
0
VERTEX
8
OBJECT__19
10
0.419500
20
-58.000000
30
72.000000
70
192
0
VERTEX
8
OBJECT__19
10
0.419500
20
58.000000
30
72.000000
70
192
0
VERTEX
8
OBJECT__19
10
0
20
0
30
0
70
128
71
1
72
2
73
3
0
VERTEX
8
OBJECT__19
10
0
20
0
30
0
70
128
71
1
72
4
73
2
0
VERTEX
8
OBJECT__19
10
0
20
0
30
0
70
128
71
5
72
6
73
4
0
VERTEX
8
OBJECT__19
10
0
20
0
30
0
70
128
71
4
72
1
73
5
0
VERTEX
8
OBJECT__19
10
0
20
0
30
0
70
128
71
5
72
7
73
6
0
VERTEX
8
OBJECT__19
10
0
20
0
30
0
70
128
71
5
72
8
73
7
0
VERTEX
8
OBJECT__19
10
0
20
0
30
0
70
128
71
3
72
9
73
1
0
SEQEND
8
OBJECT__19
0
POLYLINE
8
OBJECT__20
66
1
70
64
71
11
72
9
62
253
0
VERTEX
8
OBJECT__20
10
-17.180500
20
-58.000000
30
72.000000
70
192
0
VERTEX
8
OBJECT__20
10
0.419500
20
-58.000000
30
36.000000
70
192
0
VERTEX
8
OBJECT__20
10
0.419500
20
-58.000000
30
54.000000
70
192
0
VERTEX
8
OBJECT__20
10
0.419500
20
-58.000000
30
18.000000
70
192
0
VERTEX
8
OBJECT__20
10
-17.180500
20
-58.000000
30
-72.000000
70
192
0
VERTEX
8
OBJECT__20
10
0.419500
20
-58.000000
30
0.000000
70
192
0
VERTEX
8
OBJECT__20
10
0.419500
20
-58.000000
30
-18.000000
70
192
0
VERTEX
8
OBJECT__20
10
0.419500
20
-58.000000
30
-36.000000
70
192
0
VERTEX
8
OBJECT__20
10
0.419500
20
-58.000000
30
-54.000000
70
192
0
VERTEX
8
OBJECT__20
10
0.419500
20
-58.000000
30
-72.000000
70
192
0
VERTEX
8
OBJECT__20
10
0.419500
20
-58.000000
30
72.000000
70
192
0
VERTEX
8
OBJECT__20
10
0
20
0
30
0
70
128
71
1
72
2
73
3
0
VERTEX
8
OBJECT__20
10
0
20
0
30
0
70
128
71
1
72
4
73
2
0
VERTEX
8
OBJECT__20
10
0
20
0
30
0
70
128
71
1
72
5
73
6
0
VERTEX
8
OBJECT__20
10
0
20
0
30
0
70
128
71
6
72
4
73
1
0
VERTEX
8
OBJECT__20
10
0
20
0
30
0
70
128
71
5
72
7
73
6
0
VERTEX
8
OBJECT__20
10
0
20
0
30
0
70
128
71
5
72
8
73
7
0
VERTEX
8
OBJECT__20
10
0
20
0
30
0
70
128
71
5
72
9
73
8
0
VERTEX
8
OBJECT__20
10
0
20
0
30
0
70
128
71
5
72
10
73
9
0
VERTEX
8
OBJECT__20
10
0
20
0
30
0
70
128
71
3
72
11
73
1
0
SEQEND
8
OBJECT__20
0
POLYLINE
8
OBJECT__21
66
1
70
64
71
4
72
2
62
253
0
VERTEX
8
OBJECT__21
10
-17.180500
20
-58.000000
30
72.000000
70
192
0
VERTEX
8
OBJECT__21
10
-17.180500
20
58.000000
30
72.000000
70
192
0
VERTEX
8
OBJECT__21
10
-17.180500
20
58.000000
30
-72.000000
70
192
0
VERTEX
8
OBJECT__21
10
-17.180500
20
-58.000000
30
-72.000000
70
192
0
VERTEX
8
OBJECT__21
10
0
20
0
30
0
70
128
71
1
72
2
73
3
0
VERTEX
8
OBJECT__21
10
0
20
0
30
0
70
128
71
3
72
4
73
1
0
SEQEND
8
OBJECT__21
0
POLYLINE
8
OBJECT__22
66
1
70
64
71
84
72
84
62
253
0
VERTEX
8
OBJECT__22
10
5.127501
20
0.000000
30
-35.750000
70
192
0
VERTEX
8
OBJECT__22
10
5.127501
20
5.328000
30
-35.351002
70
192
0
VERTEX
8
OBJECT__22
10
5.371500
20
5.310000
30
-35.227001
70
192
0
VERTEX
8
OBJECT__22
10
5.127501
20
10.537000
30
-34.161999
70
192
0
VERTEX
8
OBJECT__22
10
5.371500
20
10.501000
30
-34.042000
70
192
0
VERTEX
8
OBJECT__22
10
5.127501
20
15.511000
30
-32.209999
70
192
0
VERTEX
8
OBJECT__22
10
5.371500
20
15.457000
30
-32.097000
70
192
0
VERTEX
8
OBJECT__22
10
5.127501
20
20.139000
30
-29.538000
70
192
0
VERTEX
8
OBJECT__22
10
5.371500
20
20.068001
30
-29.434999
70
192
0
VERTEX
8
OBJECT__22
10
5.127501
20
24.316000
30
-26.207001
70
192
0
VERTEX
8
OBJECT__22
10
5.371500
20
24.231001
30
-26.115000
70
192
0
VERTEX
8
OBJECT__22
10
5.127501
20
27.950001
30
-22.290001
70
192
0
VERTEX
8
OBJECT__22
10
5.371500
20
27.853001
30
-22.212000
70
192
0
VERTEX
8
OBJECT__22
10
5.127501
20
30.959999
30
-17.875000
70
192
0
VERTEX
8
OBJECT__22
10
5.371500
20
30.851999
30
-17.813000
70
192
0
VERTEX
8
OBJECT__22
10
5.127501
20
33.278999
30
-13.061000
70
192
0
VERTEX
8
OBJECT__22
10
5.371500
20
33.161999
30
-13.015000
70
192
0
VERTEX
8
OBJECT__22
10
5.127501
20
34.854000
30
-7.955000
70
192
0
VERTEX
8
OBJECT__22
10
5.371500
20
34.731998
30
-7.927000
70
192
0
VERTEX
8
OBJECT__22
10
5.127501
20
35.650002
30
-2.672000
70
192
0
VERTEX
8
OBJECT__22
10
5.371500
20
35.525002
30
-2.662000
70
192
0
VERTEX
8
OBJECT__22
10
5.127501
20
35.650002
30
2.672000
70
192
0
VERTEX
8
OBJECT__22
10
5.371500
20
35.525002
30
2.662000
70
192
0
VERTEX
8
OBJECT__22
10
5.127501
20
34.854000
30
7.955000
70
192
0
VERTEX
8
OBJECT__22
10
5.371500
20
34.731998
30
7.927000
70
192
0
VERTEX
8
OBJECT__22
10
5.127501
20
33.278999
30
13.061000
70
192
0
VERTEX
8
OBJECT__22
10
5.371500
20
33.161999
30
13.015000
70
192
0
VERTEX
8
OBJECT__22
10
5.127501
20
30.959999
30
17.875000
70
192
0
VERTEX
8
OBJECT__22
10
5.371500
20
30.851999
30
17.813000
70
192
0
VERTEX
8
OBJECT__22
10
5.127501
20
27.950001
30
22.290001
70
192
0
VERTEX
8
OBJECT__22
10
5.371500
20
27.853001
30
22.212000
70
192
0
VERTEX
8
OBJECT__22
10
5.127501
20
24.316000
30
26.207001
70
192
0
VERTEX
8
OBJECT__22
10
5.371500
20
24.231001
30
26.115000
70
192
0
VERTEX
8
OBJECT__22
10
5.127501
20
20.139000
30
29.538000
70
192
0
VERTEX
8
OBJECT__22
10
5.371500
20
20.068001
30
29.434999
70
192
0
VERTEX
8
OBJECT__22
10
5.127501
20
15.511000
30
32.209999
70
192
0
VERTEX
8
OBJECT__22
10
5.371500
20
15.457000
30
32.097000
70
192
0
VERTEX
8
OBJECT__22
10
5.127501
20
10.537000
30
34.161999
70
192
0
VERTEX
8
OBJECT__22
10
5.371500
20
10.501000
30
34.042000
70
192
0
VERTEX
8
OBJECT__22
10
5.127501
20
5.328000
30
35.351002
70
192
0
VERTEX
8
OBJECT__22
10
5.371500
20
5.310000
30
35.227001
70
192
0
VERTEX
8
OBJECT__22
10
5.127501
20
0.000000
30
35.750000
70
192
0
VERTEX
8
OBJECT__22
10
5.371500
20
0.000000
30
35.625000
70
192
0
VERTEX
8
OBJECT__22
10
5.127501
20
-5.328000
30
35.351002
70
192
0
VERTEX
8
OBJECT__22
10
5.371500
20
-5.310000
30
35.227001
70
192
0
VERTEX
8
OBJECT__22
10
5.127501
20
-10.537000
30
34.161999
70
192
0
VERTEX
8
OBJECT__22
10
5.371500
20
-10.501000
30
34.042000
70
192
0
VERTEX
8
OBJECT__22
10
5.127501
20
-15.511000
30
32.209999
70
192
0
VERTEX
8
OBJECT__22
10
5.371500
20
-15.457000
30
32.097000
70
192
0
VERTEX
8
OBJECT__22
10
5.127501
20
-20.139000
30
29.538000
70
192
0
VERTEX
8
OBJECT__22
10
5.371500
20
-20.068001
30
29.434999
70
192
0
VERTEX
8
OBJECT__22
10
5.127501
20
-24.316000
30
26.207001
70
192
0
VERTEX
8
OBJECT__22
10
5.371500
20
-24.231001
30
26.115000
70
192
0
VERTEX
8
OBJECT__22
10
5.127501
20
-27.950001
30
22.290001
70
192
0
VERTEX
8
OBJECT__22
10
5.371500
20
-27.853001
30
22.212000
70
192
0
VERTEX
8
OBJECT__22
10
5.127501
20
-30.959999
30
17.875000
70
192
0
VERTEX
8
OBJECT__22
10
5.371500
20
-30.851999
30
17.813000
70
192
0
VERTEX
8
OBJECT__22
10
5.127501
20
-33.278999
30
13.061000
70
192
0
VERTEX
8
OBJECT__22
10
5.371500
20
-33.161999
30
13.015000
70
192
0
VERTEX
8
OBJECT__22
10
5.127501
20
-34.854000
30
7.955000
70
192
0
VERTEX
8
OBJECT__22
10
5.371500
20
-34.731998
30
7.927000
70
192
0
VERTEX
8
OBJECT__22
10
5.127501
20
-35.650002
30
2.672000
70
192
0
VERTEX
8
OBJECT__22
10
5.371500
20
-35.525002
30
2.662000
70
192
0
VERTEX
8
OBJECT__22
10
5.127501
20
-35.650002
30
-2.672000
70
192
0
VERTEX
8
OBJECT__22
10
5.371500
20
-35.525002
30
-2.662000
70
192
0
VERTEX
8
OBJECT__22
10
5.127501
20
-34.854000
30
-7.955000
70
192
0
VERTEX
8
OBJECT__22
10
5.371500
20
-34.731998
30
-7.927000
70
192
0
VERTEX
8
OBJECT__22
10
5.127501
20
-33.278999
30
-13.061000
70
192
0
VERTEX
8
OBJECT__22
10
5.371500
20
-33.161999
30
-13.015000
70
192
0
VERTEX
8
OBJECT__22
10
5.127501
20
-30.959999
30
-17.875000
70
192
0
VERTEX
8
OBJECT__22
10
5.371500
20
-30.851999
30
-17.813000
70
192
0
VERTEX
8
OBJECT__22
10
5.127501
20
-27.950001
30
-22.290001
70
192
0
VERTEX
8
OBJECT__22
10
5.371500
20
-27.853001
30
-22.212000
70
192
0
VERTEX
8
OBJECT__22
10
5.127501
20
-24.316000
30
-26.207001
70
192
0
VERTEX
8
OBJECT__22
10
5.371500
20
-24.231001
30
-26.115000
70
192
0
VERTEX
8
OBJECT__22
10
5.127501
20
-20.139000
30
-29.538000
70
192
0
VERTEX
8
OBJECT__22
10
5.371500
20
-20.068001
30
-29.434999
70
192
0
VERTEX
8
OBJECT__22
10
5.127501
20
-15.511000
30
-32.209999
70
192
0
VERTEX
8
OBJECT__22
10
5.371500
20
-15.457000
30
-32.097000
70
192
0
VERTEX
8
OBJECT__22
10
5.127501
20
-10.537000
30
-34.161999
70
192
0
VERTEX
8
OBJECT__22
10
5.371500
20
-10.501000
30
-34.042000
70
192
0
VERTEX
8
OBJECT__22
10
5.127501
20
-5.328000
30
-35.351002
70
192
0
VERTEX
8
OBJECT__22
10
5.371500
20
-5.310000
30
-35.227001
70
192
0
VERTEX
8
OBJECT__22
10
5.371500
20
0.000000
30
-35.625000
70
192
0
VERTEX
8
OBJECT__22
10
0
20
0
30
0
70
128
71
1
72
2
73
3
0
VERTEX
8
OBJECT__22
10
0
20
0
30
0
70
128
71
2
72
4
73
5
0
VERTEX
8
OBJECT__22
10
0
20
0
30
0
70
128
71
4
72
6
73
7
0
VERTEX
8
OBJECT__22
10
0
20
0
30
0
70
128
71
8
72
9
73
7
0
VERTEX
8
OBJECT__22
10
0
20
0
30
0
70
128
71
8
72
10
73
11
0
VERTEX
8
OBJECT__22
10
0
20
0
30
0
70
128
71
10
72
12
73
13
0
VERTEX
8
OBJECT__22
10
0
20
0
30
0
70
128
71
12
72
14
73
15
0
VERTEX
8
OBJECT__22
10
0
20
0
30
0
70
128
71
14
72
16
73
17
0
VERTEX
8
OBJECT__22
10
0
20
0
30
0
70
128
71
18
72
19
73
17
0
VERTEX
8
OBJECT__22
10
0
20
0
30
0
70
128
71
20
72
21
73
19
0
VERTEX
8
OBJECT__22
10
0
20
0
30
0
70
128
71
20
72
22
73
23
0
VERTEX
8
OBJECT__22
10
0
20
0
30
0
70
128
71
22
72
24
73
25
0
VERTEX
8
OBJECT__22
10
0
20
0
30
0
70
128
71
24
72
26
73
27
0
VERTEX
8
OBJECT__22
10
0
20
0
30
0
70
128
71
26
72
28
73
29
0
VERTEX
8
OBJECT__22
10
0
20
0
30
0
70
128
71
28
72
30
73
31
0
VERTEX
8
OBJECT__22
10
0
20
0
30
0
70
128
71
30
72
32
73
33
0
VERTEX
8
OBJECT__22
10
0
20
0
30
0
70
128
71
32
72
34
73
35
0
VERTEX
8
OBJECT__22
10
0
20
0
30
0
70
128
71
34
72
36
73
37
0
VERTEX
8
OBJECT__22
10
0
20
0
30
0
70
128
71
36
72
38
73
39
0
VERTEX
8
OBJECT__22
10
0
20
0
30
0
70
128
71
38
72
40
73
41
0
VERTEX
8
OBJECT__22
10
0
20
0
30
0
70
128
71
40
72
42
73
43
0
VERTEX
8
OBJECT__22
10
0
20
0
30
0
70
128
71
44
72
45
73
43
0
VERTEX
8
OBJECT__22
10
0
20
0
30
0
70
128
71
46
72
47
73
45
0
VERTEX
8
OBJECT__22
10
0
20
0
30
0
70
128
71
48
72
49
73
47
0
VERTEX
8
OBJECT__22
10
0
20
0
30
0
70
128
71
50
72
51
73
49
0
VERTEX
8
OBJECT__22
10
0
20
0
30
0
70
128
71
52
72
53
73
51
0
VERTEX
8
OBJECT__22
10
0
20
0
30
0
70
128
71
54
72
55
73
53
0
VERTEX
8
OBJECT__22
10
0
20
0
30
0
70
128
71
54
72
56
73
57
0
VERTEX
8
OBJECT__22
10
0
20
0
30
0
70
128
71
56
72
58
73
59
0
VERTEX
8
OBJECT__22
10
0
20
0
30
0
70
128
71
60
72
61
73
59
0
VERTEX
8
OBJECT__22
10
0
20
0
30
0
70
128
71
62
72
63
73
61
0
VERTEX
8
OBJECT__22
10
0
20
0
30
0
70
128
71
62
72
64
73
65
0
VERTEX
8
OBJECT__22
10
0
20
0
30
0
70
128
71
66
72
67
73
65
0
VERTEX
8
OBJECT__22
10
0
20
0
30
0
70
128
71
68
72
69
73
67
0
VERTEX
8
OBJECT__22
10
0
20
0
30
0
70
128
71
70
72
71
73
69
0
VERTEX
8
OBJECT__22
10
0
20
0
30
0
70
128
71
72
72
73
73
71
0
VERTEX
8
OBJECT__22
10
0
20
0
30
0
70
128
71
74
72
75
73
73
0
VERTEX
8
OBJECT__22
10
0
20
0
30
0
70
128
71
74
72
76
73
77
0
VERTEX
8
OBJECT__22
10
0
20
0
30
0
70
128
71
76
72
78
73
79
0
VERTEX
8
OBJECT__22
10
0
20
0
30
0
70
128
71
78
72
80
73
81
0
VERTEX
8
OBJECT__22
10
0
20
0
30
0
70
128
71
82
72
83
73
81
0
VERTEX
8
OBJECT__22
10
0
20
0
30
0
70
128
71
82
72
1
73
84
0
VERTEX
8
OBJECT__22
10
0
20
0
30
0
70
128
71
84
72
83
73
82
0
VERTEX
8
OBJECT__22
10
0
20
0
30
0
70
128
71
81
72
80
73
82
0
VERTEX
8
OBJECT__22
10
0
20
0
30
0
70
128
71
81
72
79
73
78
0
VERTEX
8
OBJECT__22
10
0
20
0
30
0
70
128
71
79
72
77
73
76
0
VERTEX
8
OBJECT__22
10
0
20
0
30
0
70
128
71
77
72
75
73
74
0
VERTEX
8
OBJECT__22
10
0
20
0
30
0
70
128
71
73
72
72
73
74
0
VERTEX
8
OBJECT__22
10
0
20
0
30
0
70
128
71
71
72
70
73
72
0
VERTEX
8
OBJECT__22
10
0
20
0
30
0
70
128
71
69
72
68
73
70
0
VERTEX
8
OBJECT__22
10
0
20
0
30
0
70
128
71
67
72
66
73
68
0
VERTEX
8
OBJECT__22
10
0
20
0
30
0
70
128
71
65
72
64
73
66
0
VERTEX
8
OBJECT__22
10
0
20
0
30
0
70
128
71
65
72
63
73
62
0
VERTEX
8
OBJECT__22
10
0
20
0
30
0
70
128
71
61
72
60
73
62
0
VERTEX
8
OBJECT__22
10
0
20
0
30
0
70
128
71
59
72
58
73
60
0
VERTEX
8
OBJECT__22
10
0
20
0
30
0
70
128
71
59
72
57
73
56
0
VERTEX
8
OBJECT__22
10
0
20
0
30
0
70
128
71
57
72
55
73
54
0
VERTEX
8
OBJECT__22
10
0
20
0
30
0
70
128
71
53
72
52
73
54
0
VERTEX
8
OBJECT__22
10
0
20
0
30
0
70
128
71
51
72
50
73
52
0
VERTEX
8
OBJECT__22
10
0
20
0
30
0
70
128
71
49
72
48
73
50
0
VERTEX
8
OBJECT__22
10
0
20
0
30
0
70
128
71
47
72
46
73
48
0
VERTEX
8
OBJECT__22
10
0
20
0
30
0
70
128
71
45
72
44
73
46
0
VERTEX
8
OBJECT__22
10
0
20
0
30
0
70
128
71
43
72
42
73
44
0
VERTEX
8
OBJECT__22
10
0
20
0
30
0
70
128
71
43
72
41
73
40
0
VERTEX
8
OBJECT__22
10
0
20
0
30
0
70
128
71
41
72
39
73
38
0
VERTEX
8
OBJECT__22
10
0
20
0
30
0
70
128
71
39
72
37
73
36
0
VERTEX
8
OBJECT__22
10
0
20
0
30
0
70
128
71
37
72
35
73
34
0
VERTEX
8
OBJECT__22
10
0
20
0
30
0
70
128
71
35
72
33
73
32
0
VERTEX
8
OBJECT__22
10
0
20
0
30
0
70
128
71
33
72
31
73
30
0
VERTEX
8
OBJECT__22
10
0
20
0
30
0
70
128
71
31
72
29
73
28
0
VERTEX
8
OBJECT__22
10
0
20
0
30
0
70
128
71
29
72
27
73
26
0
VERTEX
8
OBJECT__22
10
0
20
0
30
0
70
128
71
27
72
25
73
24
0
VERTEX
8
OBJECT__22
10
0
20
0
30
0
70
128
71
25
72
23
73
22
0
VERTEX
8
OBJECT__22
10
0
20
0
30
0
70
128
71
23
72
21
73
20
0
VERTEX
8
OBJECT__22
10
0
20
0
30
0
70
128
71
19
72
18
73
20
0
VERTEX
8
OBJECT__22
10
0
20
0
30
0
70
128
71
17
72
16
73
18
0
VERTEX
8
OBJECT__22
10
0
20
0
30
0
70
128
71
17
72
15
73
14
0
VERTEX
8
OBJECT__22
10
0
20
0
30
0
70
128
71
15
72
13
73
12
0
VERTEX
8
OBJECT__22
10
0
20
0
30
0
70
128
71
13
72
11
73
10
0
VERTEX
8
OBJECT__22
10
0
20
0
30
0
70
128
71
11
72
9
73
8
0
VERTEX
8
OBJECT__22
10
0
20
0
30
0
70
128
71
7
72
6
73
8
0
VERTEX
8
OBJECT__22
10
0
20
0
30
0
70
128
71
7
72
5
73
4
0
VERTEX
8
OBJECT__22
10
0
20
0
30
0
70
128
71
5
72
3
73
2
0
VERTEX
8
OBJECT__22
10
0
20
0
30
0
70
128
71
3
72
84
73
1
0
SEQEND
8
OBJECT__22
0
POLYLINE
8
OBJECT__23
66
1
70
64
71
108
72
108
62
253
0
VERTEX
8
OBJECT__23
10
5.371500
20
5.310000
30
35.227001
70
192
0
VERTEX
8
OBJECT__23
10
5.371500
20
0.000000
30
35.625000
70
192
0
VERTEX
8
OBJECT__23
10
5.615499
20
0.000000
30
35.500000
70
192
0
VERTEX
8
OBJECT__23
10
5.371500
20
10.501000
30
34.042000
70
192
0
VERTEX
8
OBJECT__23
10
5.615499
20
7.360000
30
34.631001
70
192
0
VERTEX
8
OBJECT__23
10
5.615499
20
5.291000
30
35.103001
70
192
0
VERTEX
8
OBJECT__23
10
5.615499
20
10.464000
30
33.923000
70
192
0
VERTEX
8
OBJECT__23
10
5.615499
20
14.416000
30
32.372002
70
192
0
VERTEX
8
OBJECT__23
10
5.371500
20
15.457000
30
32.097000
70
192
0
VERTEX
8
OBJECT__23
10
5.371500
20
20.068001
30
29.434999
70
192
0
VERTEX
8
OBJECT__23
10
5.615499
20
15.403000
30
31.983999
70
192
0
VERTEX
8
OBJECT__23
10
5.371500
20
24.231001
30
26.115000
70
192
0
VERTEX
8
OBJECT__23
10
5.615499
20
20.827000
30
28.670000
70
192
0
VERTEX
8
OBJECT__23
10
5.615499
20
19.997999
30
29.330999
70
192
0
VERTEX
8
OBJECT__23
10
5.615499
20
24.146000
30
26.023001
70
192
0
VERTEX
8
OBJECT__23
10
5.615499
20
26.312000
30
23.688999
70
192
0
VERTEX
8
OBJECT__23
10
5.371500
20
27.853001
30
22.212000
70
192
0
VERTEX
8
OBJECT__23
10
5.615499
20
27.754999
30
22.134001
70
192
0
VERTEX
8
OBJECT__23
10
5.615499
20
30.743999
30
17.750000
70
192
0
VERTEX
8
OBJECT__23
10
5.371500
20
30.851999
30
17.813000
70
192
0
VERTEX
8
OBJECT__23
10
5.615499
20
33.046001
30
12.970000
70
192
0
VERTEX
8
OBJECT__23
10
5.371500
20
34.731998
30
7.927000
70
192
0
VERTEX
8
OBJECT__23
10
5.371500
20
33.161999
30
13.015000
70
192
0
VERTEX
8
OBJECT__23
10
5.615499
20
33.671001
30
10.942000
70
192
0
VERTEX
8
OBJECT__23
10
5.615499
20
34.610001
30
7.899000
70
192
0
VERTEX
8
OBJECT__23
10
5.615499
20
35.243000
30
3.701000
70
192
0
VERTEX
8
OBJECT__23
10
5.371500
20
35.525002
30
2.662000
70
192
0
VERTEX
8
OBJECT__23
10
5.371500
20
35.525002
30
-2.662000
70
192
0
VERTEX
8
OBJECT__23
10
5.615499
20
35.401001
30
2.653000
70
192
0
VERTEX
8
OBJECT__23
10
5.371500
20
34.731998
30
-7.927000
70
192
0
VERTEX
8
OBJECT__23
10
5.615499
20
35.243000
30
-3.701000
70
192
0
VERTEX
8
OBJECT__23
10
5.615499
20
35.401001
30
-2.653000
70
192
0
VERTEX
8
OBJECT__23
10
5.615499
20
34.610001
30
-7.899000
70
192
0
VERTEX
8
OBJECT__23
10
5.615499
20
33.671001
30
-10.942000
70
192
0
VERTEX
8
OBJECT__23
10
5.371500
20
33.161999
30
-13.015000
70
192
0
VERTEX
8
OBJECT__23
10
5.371500
20
30.851999
30
-17.813000
70
192
0
VERTEX
8
OBJECT__23
10
5.615499
20
33.046001
30
-12.970000
70
192
0
VERTEX
8
OBJECT__23
10
5.371500
20
27.853001
30
-22.212000
70
192
0
VERTEX
8
OBJECT__23
10
5.615499
20
30.743999
30
-17.750000
70
192
0
VERTEX
8
OBJECT__23
10
5.371500
20
24.231001
30
-26.115000
70
192
0
VERTEX
8
OBJECT__23
10
5.615499
20
26.312000
30
-23.688999
70
192
0
VERTEX
8
OBJECT__23
10
5.615499
20
27.754999
30
-22.134001
70
192
0
VERTEX
8
OBJECT__23
10
5.615499
20
24.146000
30
-26.023001
70
192
0
VERTEX
8
OBJECT__23
10
5.615499
20
20.827000
30
-28.670000
70
192
0
VERTEX
8
OBJECT__23
10
5.371500
20
20.068001
30
-29.434999
70
192
0
VERTEX
8
OBJECT__23
10
5.371500
20
15.457000
30
-32.097000
70
192
0
VERTEX
8
OBJECT__23
10
5.615499
20
19.997999
30
-29.330999
70
192
0
VERTEX
8
OBJECT__23
10
5.371500
20
10.501000
30
-34.042000
70
192
0
VERTEX
8
OBJECT__23
10
5.615499
20
14.416000
30
-32.372002
70
192
0
VERTEX
8
OBJECT__23
10
5.615499
20
15.403000
30
-31.983999
70
192
0
VERTEX
8
OBJECT__23
10
5.615499
20
10.464000
30
-33.923000
70
192
0
VERTEX
8
OBJECT__23
10
5.615499
20
7.360000
30
-34.631001
70
192
0
VERTEX
8
OBJECT__23
10
5.371500
20
5.310000
30
-35.227001
70
192
0
VERTEX
8
OBJECT__23
10
5.615499
20
5.291000
30
-35.103001
70
192
0
VERTEX
8
OBJECT__23
10
5.615499
20
0.000000
30
-35.500000
70
192
0
VERTEX
8
OBJECT__23
10
5.371500
20
-5.310000
30
-35.227001
70
192
0
VERTEX
8
OBJECT__23
10
5.371500
20
0.000000
30
-35.625000
70
192
0
VERTEX
8
OBJECT__23
10
5.371500
20
-10.501000
30
-34.042000
70
192
0
VERTEX
8
OBJECT__23
10
5.615499
20
-7.360000
30
-34.631001
70
192
0
VERTEX
8
OBJECT__23
10
5.615499
20
-5.291000
30
-35.103001
70
192
0
VERTEX
8
OBJECT__23
10
5.615499
20
-10.464000
30
-33.923000
70
192
0
VERTEX
8
OBJECT__23
10
5.615499
20
-14.416000
30
-32.372002
70
192
0
VERTEX
8
OBJECT__23
10
5.371500
20
-15.457000
30
-32.097000
70
192
0
VERTEX
8
OBJECT__23
10
5.615499
20
-15.403000
30
-31.983999
70
192
0
VERTEX
8
OBJECT__23
10
5.615499
20
-19.997999
30
-29.330999
70
192
0
VERTEX
8
OBJECT__23
10
5.371500
20
-24.231001
30
-26.115000
70
192
0
VERTEX
8
OBJECT__23
10
5.371500
20
-20.068001
30
-29.434999
70
192
0
VERTEX
8
OBJECT__23
10
5.615499
20
-20.827000
30
-28.670000
70
192
0
VERTEX
8
OBJECT__23
10
5.615499
20
-24.146000
30
-26.023001
70
192
0
VERTEX
8
OBJECT__23
10
5.615499
20
-26.312000
30
-23.688999
70
192
0
VERTEX
8
OBJECT__23
10
5.371500
20
-27.853001
30
-22.212000
70
192
0
VERTEX
8
OBJECT__23
10
5.615499
20
-27.754999
30
-22.134001
70
192
0
VERTEX
8
OBJECT__23
10
5.615499
20
-30.743999
30
-17.750000
70
192
0
VERTEX
8
OBJECT__23
10
5.371500
20
-30.851999
30
-17.813000
70
192
0
VERTEX
8
OBJECT__23
10
5.615499
20
-33.046001
30
-12.970000
70
192
0
VERTEX
8
OBJECT__23
10
5.371500
20
-34.731998
30
-7.927000
70
192
0
VERTEX
8
OBJECT__23
10
5.371500
20
-33.161999
30
-13.015000
70
192
0
VERTEX
8
OBJECT__23
10
5.615499
20
-33.671001
30
-10.942000
70
192
0
VERTEX
8
OBJECT__23
10
5.615499
20
-34.610001
30
-7.899000
70
192
0
VERTEX
8
OBJECT__23
10
5.615499
20
-35.243000
30
-3.701000
70
192
0
VERTEX
8
OBJECT__23
10
5.371500
20
-35.525002
30
-2.662000
70
192
0
VERTEX
8
OBJECT__23
10
5.371500
20
-35.525002
30
2.662000
70
192
0
VERTEX
8
OBJECT__23
10
5.615499
20
-35.401001
30
-2.653000
70
192
0
VERTEX
8
OBJECT__23
10
5.371500
20
-34.731998
30
7.927000
70
192
0
VERTEX
8
OBJECT__23
10
5.615499
20
-35.243000
30
3.701000
70
192
0
VERTEX
8
OBJECT__23
10
5.615499
20
-35.401001
30
2.653000
70
192
0
VERTEX
8
OBJECT__23
10
5.615499
20
-34.610001
30
7.899000
70
192
0
VERTEX
8
OBJECT__23
10
5.615499
20
-33.671001
30
10.942000
70
192
0
VERTEX
8
OBJECT__23
10
5.371500
20
-33.161999
30
13.015000
70
192
0
VERTEX
8
OBJECT__23
10
5.371500
20
-30.851999
30
17.813000
70
192
0
VERTEX
8
OBJECT__23
10
5.615499
20
-33.046001
30
12.970000
70
192
0
VERTEX
8
OBJECT__23
10
5.371500
20
-27.853001
30
22.212000
70
192
0
VERTEX
8
OBJECT__23
10
5.615499
20
-30.743999
30
17.750000
70
192
0
VERTEX
8
OBJECT__23
10
5.371500
20
-24.231001
30
26.115000
70
192
0
VERTEX
8
OBJECT__23
10
5.615499
20
-26.312000
30
23.688999
70
192
0
VERTEX
8
OBJECT__23
10
5.615499
20
-27.754999
30
22.134001
70
192
0
VERTEX
8
OBJECT__23
10
5.615499
20
-24.146000
30
26.023001
70
192
0
VERTEX
8
OBJECT__23
10
5.615499
20
-20.827000
30
28.670000
70
192
0
VERTEX
8
OBJECT__23
10
5.371500
20
-20.068001
30
29.434999
70
192
0
VERTEX
8
OBJECT__23
10
5.371500
20
-15.457000
30
32.097000
70
192
0
VERTEX
8
OBJECT__23
10
5.615499
20
-19.997999
30
29.330999
70
192
0
VERTEX
8
OBJECT__23
10
5.371500
20
-10.501000
30
34.042000
70
192
0
VERTEX
8
OBJECT__23
10
5.615499
20
-14.416000
30
32.372002
70
192
0
VERTEX
8
OBJECT__23
10
5.615499
20
-15.403000
30
31.983999
70
192
0
VERTEX
8
OBJECT__23
10
5.615499
20
-10.464000
30
33.923000
70
192
0
VERTEX
8
OBJECT__23
10
5.615499
20
-7.360000
30
34.631001
70
192
0
VERTEX
8
OBJECT__23
10
5.371500
20
-5.310000
30
35.227001
70
192
0
VERTEX
8
OBJECT__23
10
5.615499
20
-5.291000
30
35.103001
70
192
0
VERTEX
8
OBJECT__23
10
0
20
0
30
0
70
128
71
1
72
2
73
3
0
VERTEX
8
OBJECT__23
10
0
20
0
30
0
70
128
71
4
72
1
73
5
0
VERTEX
8
OBJECT__23
10
0
20
0
30
0
70
128
71
1
72
6
73
5
0
VERTEX
8
OBJECT__23
10
0
20
0
30
0
70
128
71
4
72
7
73
8
0
VERTEX
8
OBJECT__23
10
0
20
0
30
0
70
128
71
8
72
9
73
4
0
VERTEX
8
OBJECT__23
10
0
20
0
30
0
70
128
71
10
72
9
73
11
0
VERTEX
8
OBJECT__23
10
0
20
0
30
0
70
128
71
12
72
10
73
13
0
VERTEX
8
OBJECT__23
10
0
20
0
30
0
70
128
71
10
72
14
73
13
0
VERTEX
8
OBJECT__23
10
0
20
0
30
0
70
128
71
12
72
15
73
16
0
VERTEX
8
OBJECT__23
10
0
20
0
30
0
70
128
71
16
72
17
73
12
0
VERTEX
8
OBJECT__23
10
0
20
0
30
0
70
128
71
17
72
18
73
19
0
VERTEX
8
OBJECT__23
10
0
20
0
30
0
70
128
71
20
72
19
73
21
0
VERTEX
8
OBJECT__23
10
0
20
0
30
0
70
128
71
22
72
23
73
24
0
VERTEX
8
OBJECT__23
10
0
20
0
30
0
70
128
71
23
72
21
73
24
0
VERTEX
8
OBJECT__23
10
0
20
0
30
0
70
128
71
22
72
25
73
26
0
VERTEX
8
OBJECT__23
10
0
20
0
30
0
70
128
71
26
72
27
73
22
0
VERTEX
8
OBJECT__23
10
0
20
0
30
0
70
128
71
28
72
27
73
29
0
VERTEX
8
OBJECT__23
10
0
20
0
30
0
70
128
71
30
72
28
73
31
0
VERTEX
8
OBJECT__23
10
0
20
0
30
0
70
128
71
28
72
32
73
31
0
VERTEX
8
OBJECT__23
10
0
20
0
30
0
70
128
71
30
72
33
73
34
0
VERTEX
8
OBJECT__23
10
0
20
0
30
0
70
128
71
34
72
35
73
30
0
VERTEX
8
OBJECT__23
10
0
20
0
30
0
70
128
71
36
72
35
73
37
0
VERTEX
8
OBJECT__23
10
0
20
0
30
0
70
128
71
38
72
36
73
39
0
VERTEX
8
OBJECT__23
10
0
20
0
30
0
70
128
71
40
72
38
73
41
0
VERTEX
8
OBJECT__23
10
0
20
0
30
0
70
128
71
38
72
42
73
41
0
VERTEX
8
OBJECT__23
10
0
20
0
30
0
70
128
71
40
72
43
73
44
0
VERTEX
8
OBJECT__23
10
0
20
0
30
0
70
128
71
44
72
45
73
40
0
VERTEX
8
OBJECT__23
10
0
20
0
30
0
70
128
71
46
72
45
73
47
0
VERTEX
8
OBJECT__23
10
0
20
0
30
0
70
128
71
48
72
46
73
49
0
VERTEX
8
OBJECT__23
10
0
20
0
30
0
70
128
71
46
72
50
73
49
0
VERTEX
8
OBJECT__23
10
0
20
0
30
0
70
128
71
48
72
51
73
52
0
VERTEX
8
OBJECT__23
10
0
20
0
30
0
70
128
71
52
72
53
73
48
0
VERTEX
8
OBJECT__23
10
0
20
0
30
0
70
128
71
53
72
54
73
55
0
VERTEX
8
OBJECT__23
10
0
20
0
30
0
70
128
71
56
72
57
73
55
0
VERTEX
8
OBJECT__23
10
0
20
0
30
0
70
128
71
58
72
56
73
59
0
VERTEX
8
OBJECT__23
10
0
20
0
30
0
70
128
71
56
72
60
73
59
0
VERTEX
8
OBJECT__23
10
0
20
0
30
0
70
128
71
58
72
61
73
62
0
VERTEX
8
OBJECT__23
10
0
20
0
30
0
70
128
71
62
72
63
73
58
0
VERTEX
8
OBJECT__23
10
0
20
0
30
0
70
128
71
63
72
64
73
65
0
VERTEX
8
OBJECT__23
10
0
20
0
30
0
70
128
71
66
72
67
73
68
0
VERTEX
8
OBJECT__23
10
0
20
0
30
0
70
128
71
67
72
65
73
68
0
VERTEX
8
OBJECT__23
10
0
20
0
30
0
70
128
71
66
72
69
73
70
0
VERTEX
8
OBJECT__23
10
0
20
0
30
0
70
128
71
70
72
71
73
66
0
VERTEX
8
OBJECT__23
10
0
20
0
30
0
70
128
71
71
72
72
73
73
0
VERTEX
8
OBJECT__23
10
0
20
0
30
0
70
128
71
74
72
73
73
75
0
VERTEX
8
OBJECT__23
10
0
20
0
30
0
70
128
71
76
72
77
73
78
0
VERTEX
8
OBJECT__23
10
0
20
0
30
0
70
128
71
77
72
75
73
78
0
VERTEX
8
OBJECT__23
10
0
20
0
30
0
70
128
71
76
72
79
73
80
0
VERTEX
8
OBJECT__23
10
0
20
0
30
0
70
128
71
80
72
81
73
76
0
VERTEX
8
OBJECT__23
10
0
20
0
30
0
70
128
71
82
72
81
73
83
0
VERTEX
8
OBJECT__23
10
0
20
0
30
0
70
128
71
84
72
82
73
85
0
VERTEX
8
OBJECT__23
10
0
20
0
30
0
70
128
71
82
72
86
73
85
0
VERTEX
8
OBJECT__23
10
0
20
0
30
0
70
128
71
84
72
87
73
88
0
VERTEX
8
OBJECT__23
10
0
20
0
30
0
70
128
71
88
72
89
73
84
0
VERTEX
8
OBJECT__23
10
0
20
0
30
0
70
128
71
90
72
89
73
91
0
VERTEX
8
OBJECT__23
10
0
20
0
30
0
70
128
71
92
72
90
73
93
0
VERTEX
8
OBJECT__23
10
0
20
0
30
0
70
128
71
94
72
92
73
95
0
VERTEX
8
OBJECT__23
10
0
20
0
30
0
70
128
71
92
72
96
73
95
0
VERTEX
8
OBJECT__23
10
0
20
0
30
0
70
128
71
94
72
97
73
98
0
VERTEX
8
OBJECT__23
10
0
20
0
30
0
70
128
71
98
72
99
73
94
0
VERTEX
8
OBJECT__23
10
0
20
0
30
0
70
128
71
100
72
99
73
101
0
VERTEX
8
OBJECT__23
10
0
20
0
30
0
70
128
71
102
72
100
73
103
0
VERTEX
8
OBJECT__23
10
0
20
0
30
0
70
128
71
100
72
104
73
103
0
VERTEX
8
OBJECT__23
10
0
20
0
30
0
70
128
71
102
72
105
73
106
0
VERTEX
8
OBJECT__23
10
0
20
0
30
0
70
128
71
106
72
107
73
102
0
VERTEX
8
OBJECT__23
10
0
20
0
30
0
70
128
71
107
72
108
73
3
0
VERTEX
8
OBJECT__23
10
0
20
0
30
0
70
128
71
3
72
2
73
107
0
VERTEX
8
OBJECT__23
10
0
20
0
30
0
70
128
71
106
72
108
73
107
0
VERTEX
8
OBJECT__23
10
0
20
0
30
0
70
128
71
103
72
105
73
102
0
VERTEX
8
OBJECT__23
10
0
20
0
30
0
70
128
71
101
72
104
73
100
0
VERTEX
8
OBJECT__23
10
0
20
0
30
0
70
128
71
98
72
101
73
99
0
VERTEX
8
OBJECT__23
10
0
20
0
30
0
70
128
71
95
72
97
73
94
0
VERTEX
8
OBJECT__23
10
0
20
0
30
0
70
128
71
93
72
96
73
92
0
VERTEX
8
OBJECT__23
10
0
20
0
30
0
70
128
71
91
72
93
73
90
0
VERTEX
8
OBJECT__23
10
0
20
0
30
0
70
128
71
88
72
91
73
89
0
VERTEX
8
OBJECT__23
10
0
20
0
30
0
70
128
71
85
72
87
73
84
0
VERTEX
8
OBJECT__23
10
0
20
0
30
0
70
128
71
83
72
86
73
82
0
VERTEX
8
OBJECT__23
10
0
20
0
30
0
70
128
71
80
72
83
73
81
0
VERTEX
8
OBJECT__23
10
0
20
0
30
0
70
128
71
78
72
79
73
76
0
VERTEX
8
OBJECT__23
10
0
20
0
30
0
70
128
71
75
72
77
73
74
0
VERTEX
8
OBJECT__23
10
0
20
0
30
0
70
128
71
73
72
74
73
71
0
VERTEX
8
OBJECT__23
10
0
20
0
30
0
70
128
71
70
72
72
73
71
0
VERTEX
8
OBJECT__23
10
0
20
0
30
0
70
128
71
68
72
69
73
66
0
VERTEX
8
OBJECT__23
10
0
20
0
30
0
70
128
71
65
72
67
73
63
0
VERTEX
8
OBJECT__23
10
0
20
0
30
0
70
128
71
62
72
64
73
63
0
VERTEX
8
OBJECT__23
10
0
20
0
30
0
70
128
71
59
72
61
73
58
0
VERTEX
8
OBJECT__23
10
0
20
0
30
0
70
128
71
55
72
60
73
56
0
VERTEX
8
OBJECT__23
10
0
20
0
30
0
70
128
71
55
72
57
73
53
0
VERTEX
8
OBJECT__23
10
0
20
0
30
0
70
128
71
52
72
54
73
53
0
VERTEX
8
OBJECT__23
10
0
20
0
30
0
70
128
71
49
72
51
73
48
0
VERTEX
8
OBJECT__23
10
0
20
0
30
0
70
128
71
47
72
50
73
46
0
VERTEX
8
OBJECT__23
10
0
20
0
30
0
70
128
71
44
72
47
73
45
0
VERTEX
8
OBJECT__23
10
0
20
0
30
0
70
128
71
41
72
43
73
40
0
VERTEX
8
OBJECT__23
10
0
20
0
30
0
70
128
71
39
72
42
73
38
0
VERTEX
8
OBJECT__23
10
0
20
0
30
0
70
128
71
37
72
39
73
36
0
VERTEX
8
OBJECT__23
10
0
20
0
30
0
70
128
71
34
72
37
73
35
0
VERTEX
8
OBJECT__23
10
0
20
0
30
0
70
128
71
31
72
33
73
30
0
VERTEX
8
OBJECT__23
10
0
20
0
30
0
70
128
71
29
72
32
73
28
0
VERTEX
8
OBJECT__23
10
0
20
0
30
0
70
128
71
26
72
29
73
27
0
VERTEX
8
OBJECT__23
10
0
20
0
30
0
70
128
71
24
72
25
73
22
0
VERTEX
8
OBJECT__23
10
0
20
0
30
0
70
128
71
21
72
23
73
20
0
VERTEX
8
OBJECT__23
10
0
20
0
30
0
70
128
71
19
72
20
73
17
0
VERTEX
8
OBJECT__23
10
0
20
0
30
0
70
128
71
16
72
18
73
17
0
VERTEX
8
OBJECT__23
10
0
20
0
30
0
70
128
71
13
72
15
73
12
0
VERTEX
8
OBJECT__23
10
0
20
0
30
0
70
128
71
11
72
14
73
10
0
VERTEX
8
OBJECT__23
10
0
20
0
30
0
70
128
71
8
72
11
73
9
0
VERTEX
8
OBJECT__23
10
0
20
0
30
0
70
128
71
5
72
7
73
4
0
VERTEX
8
OBJECT__23
10
0
20
0
30
0
70
128
71
3
72
6
73
1
0
SEQEND
8
OBJECT__23
0
POLYLINE
8
OBJECT__25
66
1
70
64
71
96
72
96
62
253
0
VERTEX
8
OBJECT__25
10
6.119499
20
0.000000
30
35.500000
70
192
0
VERTEX
8
OBJECT__25
10
6.119499
20
7.381000
30
34.723999
70
192
0
VERTEX
8
OBJECT__25
10
5.615499
20
5.291000
30
35.103001
70
192
0
VERTEX
8
OBJECT__25
10
5.615499
20
7.360000
30
34.631001
70
192
0
VERTEX
8
OBJECT__25
10
6.119499
20
14.439000
30
32.431000
70
192
0
VERTEX
8
OBJECT__25
10
5.615499
20
14.416000
30
32.372002
70
192
0
VERTEX
8
OBJECT__25
10
5.615499
20
10.464000
30
33.923000
70
192
0
VERTEX
8
OBJECT__25
10
6.119499
20
20.865999
30
28.719999
70
192
0
VERTEX
8
OBJECT__25
10
5.615499
20
19.997999
30
29.330999
70
192
0
VERTEX
8
OBJECT__25
10
5.615499
20
15.403000
30
31.983999
70
192
0
VERTEX
8
OBJECT__25
10
5.615499
20
20.827000
30
28.670000
70
192
0
VERTEX
8
OBJECT__25
10
6.119499
20
26.382000
30
23.754000
70
192
0
VERTEX
8
OBJECT__25
10
5.615499
20
24.146000
30
26.023001
70
192
0
VERTEX
8
OBJECT__25
10
5.615499
20
26.312000
30
23.688999
70
192
0
VERTEX
8
OBJECT__25
10
6.119499
20
30.743999
30
17.750000
70
192
0
VERTEX
8
OBJECT__25
10
5.615499
20
30.743999
30
17.750000
70
192
0
VERTEX
8
OBJECT__25
10
5.615499
20
27.754999
30
22.134001
70
192
0
VERTEX
8
OBJECT__25
10
6.119499
20
33.763000
30
10.970000
70
192
0
VERTEX
8
OBJECT__25
10
5.615499
20
33.046001
30
12.970000
70
192
0
VERTEX
8
OBJECT__25
10
5.615499
20
33.671001
30
10.942000
70
192
0
VERTEX
8
OBJECT__25
10
6.119499
20
35.306000
30
3.711000
70
192
0
VERTEX
8
OBJECT__25
10
5.615499
20
35.243000
30
3.701000
70
192
0
VERTEX
8
OBJECT__25
10
5.615499
20
34.610001
30
7.899000
70
192
0
VERTEX
8
OBJECT__25
10
6.119499
20
35.306000
30
-3.711000
70
192
0
VERTEX
8
OBJECT__25
10
5.615499
20
35.401001
30
-2.653000
70
192
0
VERTEX
8
OBJECT__25
10
5.615499
20
35.401001
30
2.653000
70
192
0
VERTEX
8
OBJECT__25
10
5.615499
20
35.243000
30
-3.701000
70
192
0
VERTEX
8
OBJECT__25
10
6.119499
20
33.763000
30
-10.970000
70
192
0
VERTEX
8
OBJECT__25
10
5.615499
20
34.610001
30
-7.899000
70
192
0
VERTEX
8
OBJECT__25
10
5.615499
20
33.671001
30
-10.942000
70
192
0
VERTEX
8
OBJECT__25
10
6.119499
20
30.743999
30
-17.750000
70
192
0
VERTEX
8
OBJECT__25
10
5.615499
20
30.743999
30
-17.750000
70
192
0
VERTEX
8
OBJECT__25
10
5.615499
20
33.046001
30
-12.970000
70
192
0
VERTEX
8
OBJECT__25
10
6.119499
20
26.382000
30
-23.754000
70
192
0
VERTEX
8
OBJECT__25
10
5.615499
20
27.754999
30
-22.134001
70
192
0
VERTEX
8
OBJECT__25
10
5.615499
20
26.312000
30
-23.688999
70
192
0
VERTEX
8
OBJECT__25
10
6.119499
20
20.865999
30
-28.719999
70
192
0
VERTEX
8
OBJECT__25
10
5.615499
20
20.827000
30
-28.670000
70
192
0
VERTEX
8
OBJECT__25
10
5.615499
20
24.146000
30
-26.023001
70
192
0
VERTEX
8
OBJECT__25
10
6.119499
20
14.439000
30
-32.431000
70
192
0
VERTEX
8
OBJECT__25
10
5.615499
20
15.403000
30
-31.983999
70
192
0
VERTEX
8
OBJECT__25
10
5.615499
20
19.997999
30
-29.330999
70
192
0
VERTEX
8
OBJECT__25
10
5.615499
20
14.416000
30
-32.372002
70
192
0
VERTEX
8
OBJECT__25
10
6.119499
20
7.381000
30
-34.723999
70
192
0
VERTEX
8
OBJECT__25
10
5.615499
20
10.464000
30
-33.923000
70
192
0
VERTEX
8
OBJECT__25
10
5.615499
20
7.360000
30
-34.631001
70
192
0
VERTEX
8
OBJECT__25
10
6.119499
20
0.000000
30
-35.500000
70
192
0
VERTEX
8
OBJECT__25
10
5.615499
20
0.000000
30
-35.500000
70
192
0
VERTEX
8
OBJECT__25
10
5.615499
20
5.291000
30
-35.103001
70
192
0
VERTEX
8
OBJECT__25
10
6.119499
20
-7.381000
30
-34.723999
70
192
0
VERTEX
8
OBJECT__25
10
5.615499
20
-5.291000
30
-35.103001
70
192
0
VERTEX
8
OBJECT__25
10
5.615499
20
-7.360000
30
-34.631001
70
192
0
VERTEX
8
OBJECT__25
10
6.119499
20
-14.439000
30
-32.431000
70
192
0
VERTEX
8
OBJECT__25
10
5.615499
20
-14.416000
30
-32.372002
70
192
0
VERTEX
8
OBJECT__25
10
5.615499
20
-10.464000
30
-33.923000
70
192
0
VERTEX
8
OBJECT__25
10
6.119499
20
-20.865999
30
-28.719999
70
192
0
VERTEX
8
OBJECT__25
10
5.615499
20
-19.997999
30
-29.330999
70
192
0
VERTEX
8
OBJECT__25
10
5.615499
20
-15.403000
30
-31.983999
70
192
0
VERTEX
8
OBJECT__25
10
5.615499
20
-20.827000
30
-28.670000
70
192
0
VERTEX
8
OBJECT__25
10
6.119499
20
-26.382000
30
-23.754000
70
192
0
VERTEX
8
OBJECT__25
10
5.615499
20
-24.146000
30
-26.023001
70
192
0
VERTEX
8
OBJECT__25
10
5.615499
20
-26.312000
30
-23.688999
70
192
0
VERTEX
8
OBJECT__25
10
6.119499
20
-30.743999
30
-17.750000
70
192
0
VERTEX
8
OBJECT__25
10
5.615499
20
-30.743999
30
-17.750000
70
192
0
VERTEX
8
OBJECT__25
10
5.615499
20
-27.754999
30
-22.134001
70
192
0
VERTEX
8
OBJECT__25
10
6.119499
20
-33.763000
30
-10.970000
70
192
0
VERTEX
8
OBJECT__25
10
5.615499
20
-33.046001
30
-12.970000
70
192
0
VERTEX
8
OBJECT__25
10
5.615499
20
-33.671001
30
-10.942000
70
192
0
VERTEX
8
OBJECT__25
10
6.119499
20
-35.306000
30
-3.711000
70
192
0
VERTEX
8
OBJECT__25
10
5.615499
20
-35.243000
30
-3.701000
70
192
0
VERTEX
8
OBJECT__25
10
5.615499
20
-34.610001
30
-7.899000
70
192
0
VERTEX
8
OBJECT__25
10
6.119499
20
-35.306000
30
3.711000
70
192
0
VERTEX
8
OBJECT__25
10
5.615499
20
-35.401001
30
2.653000
70
192
0
VERTEX
8
OBJECT__25
10
5.615499
20
-35.401001
30
-2.653000
70
192
0
VERTEX
8
OBJECT__25
10
5.615499
20
-35.243000
30
3.701000
70
192
0
VERTEX
8
OBJECT__25
10
6.119499
20
-33.763000
30
10.970000
70
192
0
VERTEX
8
OBJECT__25
10
5.615499
20
-34.610001
30
7.899000
70
192
0
VERTEX
8
OBJECT__25
10
5.615499
20
-33.671001
30
10.942000
70
192
0
VERTEX
8
OBJECT__25
10
6.119499
20
-30.743999
30
17.750000
70
192
0
VERTEX
8
OBJECT__25
10
5.615499
20
-30.743999
30
17.750000
70
192
0
VERTEX
8
OBJECT__25
10
5.615499
20
-33.046001
30
12.970000
70
192
0
VERTEX
8
OBJECT__25
10
6.119499
20
-26.382000
30
23.754000
70
192
0
VERTEX
8
OBJECT__25
10
5.615499
20
-27.754999
30
22.134001
70
192
0
VERTEX
8
OBJECT__25
10
5.615499
20
-26.312000
30
23.688999
70
192
0
VERTEX
8
OBJECT__25
10
6.119499
20
-20.865999
30
28.719999
70
192
0
VERTEX
8
OBJECT__25
10
5.615499
20
-20.827000
30
28.670000
70
192
0
VERTEX
8
OBJECT__25
10
5.615499
20
-24.146000
30
26.023001
70
192
0
VERTEX
8
OBJECT__25
10
6.119499
20
-14.439000
30
32.431000
70
192
0
VERTEX
8
OBJECT__25
10
5.615499
20
-15.403000
30
31.983999
70
192
0
VERTEX
8
OBJECT__25
10
5.615499
20
-19.997999
30
29.330999
70
192
0
VERTEX
8
OBJECT__25
10
5.615499
20
-14.416000
30
32.372002
70
192
0
VERTEX
8
OBJECT__25
10
6.119499
20
-7.381000
30
34.723999
70
192
0
VERTEX
8
OBJECT__25
10
5.615499
20
-10.464000
30
33.923000
70
192
0
VERTEX
8
OBJECT__25
10
5.615499
20
-7.360000
30
34.631001
70
192
0
VERTEX
8
OBJECT__25
10
5.615499
20
0.000000
30
35.500000
70
192
0
VERTEX
8
OBJECT__25
10
5.615499
20
-5.291000
30
35.103001
70
192
0
VERTEX
8
OBJECT__25
10
0
20
0
30
0
70
128
71
1
72
2
73
3
0
VERTEX
8
OBJECT__25
10
0
20
0
30
0
70
128
71
2
72
4
73
3
0
VERTEX
8
OBJECT__25
10
0
20
0
30
0
70
128
71
5
72
6
73
7
0
VERTEX
8
OBJECT__25
10
0
20
0
30
0
70
128
71
7
72
2
73
5
0
VERTEX
8
OBJECT__25
10
0
20
0
30
0
70
128
71
8
72
9
73
10
0
VERTEX
8
OBJECT__25
10
0
20
0
30
0
70
128
71
10
72
5
73
8
0
VERTEX
8
OBJECT__25
10
0
20
0
30
0
70
128
71
8
72
11
73
9
0
VERTEX
8
OBJECT__25
10
0
20
0
30
0
70
128
71
8
72
12
73
13
0
VERTEX
8
OBJECT__25
10
0
20
0
30
0
70
128
71
12
72
14
73
13
0
VERTEX
8
OBJECT__25
10
0
20
0
30
0
70
128
71
15
72
16
73
17
0
VERTEX
8
OBJECT__25
10
0
20
0
30
0
70
128
71
17
72
12
73
15
0
VERTEX
8
OBJECT__25
10
0
20
0
30
0
70
128
71
15
72
18
73
19
0
VERTEX
8
OBJECT__25
10
0
20
0
30
0
70
128
71
18
72
20
73
19
0
VERTEX
8
OBJECT__25
10
0
20
0
30
0
70
128
71
21
72
22
73
23
0
VERTEX
8
OBJECT__25
10
0
20
0
30
0
70
128
71
23
72
18
73
21
0
VERTEX
8
OBJECT__25
10
0
20
0
30
0
70
128
71
21
72
24
73
25
0
VERTEX
8
OBJECT__25
10
0
20
0
30
0
70
128
71
25
72
26
73
21
0
VERTEX
8
OBJECT__25
10
0
20
0
30
0
70
128
71
24
72
27
73
25
0
VERTEX
8
OBJECT__25
10
0
20
0
30
0
70
128
71
24
72
28
73
29
0
VERTEX
8
OBJECT__25
10
0
20
0
30
0
70
128
71
28
72
30
73
29
0
VERTEX
8
OBJECT__25
10
0
20
0
30
0
70
128
71
31
72
32
73
33
0
VERTEX
8
OBJECT__25
10
0
20
0
30
0
70
128
71
33
72
28
73
31
0
VERTEX
8
OBJECT__25
10
0
20
0
30
0
70
128
71
31
72
34
73
35
0
VERTEX
8
OBJECT__25
10
0
20
0
30
0
70
128
71
34
72
36
73
35
0
VERTEX
8
OBJECT__25
10
0
20
0
30
0
70
128
71
37
72
38
73
39
0
VERTEX
8
OBJECT__25
10
0
20
0
30
0
70
128
71
39
72
34
73
37
0
VERTEX
8
OBJECT__25
10
0
20
0
30
0
70
128
71
40
72
41
73
42
0
VERTEX
8
OBJECT__25
10
0
20
0
30
0
70
128
71
42
72
37
73
40
0
VERTEX
8
OBJECT__25
10
0
20
0
30
0
70
128
71
40
72
43
73
41
0
VERTEX
8
OBJECT__25
10
0
20
0
30
0
70
128
71
40
72
44
73
45
0
VERTEX
8
OBJECT__25
10
0
20
0
30
0
70
128
71
44
72
46
73
45
0
VERTEX
8
OBJECT__25
10
0
20
0
30
0
70
128
71
47
72
48
73
49
0
VERTEX
8
OBJECT__25
10
0
20
0
30
0
70
128
71
49
72
44
73
47
0
VERTEX
8
OBJECT__25
10
0
20
0
30
0
70
128
71
47
72
50
73
51
0
VERTEX
8
OBJECT__25
10
0
20
0
30
0
70
128
71
50
72
52
73
51
0
VERTEX
8
OBJECT__25
10
0
20
0
30
0
70
128
71
53
72
54
73
55
0
VERTEX
8
OBJECT__25
10
0
20
0
30
0
70
128
71
55
72
50
73
53
0
VERTEX
8
OBJECT__25
10
0
20
0
30
0
70
128
71
56
72
57
73
58
0
VERTEX
8
OBJECT__25
10
0
20
0
30
0
70
128
71
58
72
53
73
56
0
VERTEX
8
OBJECT__25
10
0
20
0
30
0
70
128
71
56
72
59
73
57
0
VERTEX
8
OBJECT__25
10
0
20
0
30
0
70
128
71
56
72
60
73
61
0
VERTEX
8
OBJECT__25
10
0
20
0
30
0
70
128
71
60
72
62
73
61
0
VERTEX
8
OBJECT__25
10
0
20
0
30
0
70
128
71
63
72
64
73
65
0
VERTEX
8
OBJECT__25
10
0
20
0
30
0
70
128
71
65
72
60
73
63
0
VERTEX
8
OBJECT__25
10
0
20
0
30
0
70
128
71
63
72
66
73
67
0
VERTEX
8
OBJECT__25
10
0
20
0
30
0
70
128
71
66
72
68
73
67
0
VERTEX
8
OBJECT__25
10
0
20
0
30
0
70
128
71
69
72
70
73
71
0
VERTEX
8
OBJECT__25
10
0
20
0
30
0
70
128
71
71
72
66
73
69
0
VERTEX
8
OBJECT__25
10
0
20
0
30
0
70
128
71
72
72
73
73
74
0
VERTEX
8
OBJECT__25
10
0
20
0
30
0
70
128
71
74
72
69
73
72
0
VERTEX
8
OBJECT__25
10
0
20
0
30
0
70
128
71
72
72
75
73
73
0
VERTEX
8
OBJECT__25
10
0
20
0
30
0
70
128
71
72
72
76
73
77
0
VERTEX
8
OBJECT__25
10
0
20
0
30
0
70
128
71
76
72
78
73
77
0
VERTEX
8
OBJECT__25
10
0
20
0
30
0
70
128
71
79
72
80
73
81
0
VERTEX
8
OBJECT__25
10
0
20
0
30
0
70
128
71
81
72
76
73
79
0
VERTEX
8
OBJECT__25
10
0
20
0
30
0
70
128
71
79
72
82
73
83
0
VERTEX
8
OBJECT__25
10
0
20
0
30
0
70
128
71
82
72
84
73
83
0
VERTEX
8
OBJECT__25
10
0
20
0
30
0
70
128
71
85
72
86
73
87
0
VERTEX
8
OBJECT__25
10
0
20
0
30
0
70
128
71
87
72
82
73
85
0
VERTEX
8
OBJECT__25
10
0
20
0
30
0
70
128
71
85
72
88
73
89
0
VERTEX
8
OBJECT__25
10
0
20
0
30
0
70
128
71
89
72
90
73
85
0
VERTEX
8
OBJECT__25
10
0
20
0
30
0
70
128
71
88
72
91
73
89
0
VERTEX
8
OBJECT__25
10
0
20
0
30
0
70
128
71
88
72
92
73
93
0
VERTEX
8
OBJECT__25
10
0
20
0
30
0
70
128
71
92
72
94
73
93
0
VERTEX
8
OBJECT__25
10
0
20
0
30
0
70
128
71
1
72
95
73
96
0
VERTEX
8
OBJECT__25
10
0
20
0
30
0
70
128
71
96
72
92
73
1
0
VERTEX
8
OBJECT__25
10
0
20
0
30
0
70
128
71
96
72
94
73
92
0
VERTEX
8
OBJECT__25
10
0
20
0
30
0
70
128
71
93
72
91
73
88
0
VERTEX
8
OBJECT__25
10
0
20
0
30
0
70
128
71
90
72
86
73
85
0
VERTEX
8
OBJECT__25
10
0
20
0
30
0
70
128
71
87
72
84
73
82
0
VERTEX
8
OBJECT__25
10
0
20
0
30
0
70
128
71
83
72
80
73
79
0
VERTEX
8
OBJECT__25
10
0
20
0
30
0
70
128
71
81
72
78
73
76
0
VERTEX
8
OBJECT__25
10
0
20
0
30
0
70
128
71
77
72
75
73
72
0
VERTEX
8
OBJECT__25
10
0
20
0
30
0
70
128
71
74
72
70
73
69
0
VERTEX
8
OBJECT__25
10
0
20
0
30
0
70
128
71
71
72
68
73
66
0
VERTEX
8
OBJECT__25
10
0
20
0
30
0
70
128
71
67
72
64
73
63
0
VERTEX
8
OBJECT__25
10
0
20
0
30
0
70
128
71
65
72
62
73
60
0
VERTEX
8
OBJECT__25
10
0
20
0
30
0
70
128
71
61
72
59
73
56
0
VERTEX
8
OBJECT__25
10
0
20
0
30
0
70
128
71
58
72
54
73
53
0
VERTEX
8
OBJECT__25
10
0
20
0
30
0
70
128
71
55
72
52
73
50
0
VERTEX
8
OBJECT__25
10
0
20
0
30
0
70
128
71
51
72
48
73
47
0
VERTEX
8
OBJECT__25
10
0
20
0
30
0
70
128
71
49
72
46
73
44
0
VERTEX
8
OBJECT__25
10
0
20
0
30
0
70
128
71
45
72
43
73
40
0
VERTEX
8
OBJECT__25
10
0
20
0
30
0
70
128
71
42
72
38
73
37
0
VERTEX
8
OBJECT__25
10
0
20
0
30
0
70
128
71
39
72
36
73
34
0
VERTEX
8
OBJECT__25
10
0
20
0
30
0
70
128
71
35
72
32
73
31
0
VERTEX
8
OBJECT__25
10
0
20
0
30
0
70
128
71
33
72
30
73
28
0
VERTEX
8
OBJECT__25
10
0
20
0
30
0
70
128
71
29
72
27
73
24
0
VERTEX
8
OBJECT__25
10
0
20
0
30
0
70
128
71
26
72
22
73
21
0
VERTEX
8
OBJECT__25
10
0
20
0
30
0
70
128
71
23
72
20
73
18
0
VERTEX
8
OBJECT__25
10
0
20
0
30
0
70
128
71
19
72
16
73
15
0
VERTEX
8
OBJECT__25
10
0
20
0
30
0
70
128
71
17
72
14
73
12
0
VERTEX
8
OBJECT__25
10
0
20
0
30
0
70
128
71
13
72
11
73
8
0
VERTEX
8
OBJECT__25
10
0
20
0
30
0
70
128
71
10
72
6
73
5
0
VERTEX
8
OBJECT__25
10
0
20
0
30
0
70
128
71
7
72
4
73
2
0
VERTEX
8
OBJECT__25
10
0
20
0
30
0
70
128
71
3
72
95
73
1
0
SEQEND
8
OBJECT__25
0
POLYLINE
8
OBJECT__26
66
1
70
64
71
59
72
59
62
253
0
VERTEX
8
OBJECT__26
10
6.119499
20
33.763000
30
10.970000
70
192
0
VERTEX
8
OBJECT__26
10
6.119499
20
30.743999
30
17.750000
70
192
0
VERTEX
8
OBJECT__26
10
6.119499
20
30.923000
30
16.393999
70
192
0
VERTEX
8
OBJECT__26
10
6.119499
20
26.382000
30
23.754000
70
192
0
VERTEX
8
OBJECT__26
10
6.119499
20
26.676001
30
22.659000
70
192
0
VERTEX
8
OBJECT__26
10
6.119499
20
-20.865999
30
28.719999
70
192
0
VERTEX
8
OBJECT__26
10
6.119499
20
-21.181000
30
27.863001
70
192
0
VERTEX
8
OBJECT__26
10
6.119499
20
-14.696000
30
31.764999
70
192
0
VERTEX
8
OBJECT__26
10
6.119499
20
-26.382000
30
23.754000
70
192
0
VERTEX
8
OBJECT__26
10
6.119499
20
-26.676001
30
22.659000
70
192
0
VERTEX
8
OBJECT__26
10
6.119499
20
-33.763000
30
10.970000
70
192
0
VERTEX
8
OBJECT__26
10
6.119499
20
-33.723999
30
9.363000
70
192
0
VERTEX
8
OBJECT__26
10
6.119499
20
-30.923000
30
16.393999
70
192
0
VERTEX
8
OBJECT__26
10
6.119499
20
-35.306000
30
3.711000
70
192
0
VERTEX
8
OBJECT__26
10
6.119499
20
-34.949001
30
1.895000
70
192
0
VERTEX
8
OBJECT__26
10
6.119499
20
-35.306000
30
-3.711000
70
192
0
VERTEX
8
OBJECT__26
10
6.119499
20
-34.539001
30
-5.662000
70
192
0
VERTEX
8
OBJECT__26
10
6.119499
20
-33.763000
30
-10.970000
70
192
0
VERTEX
8
OBJECT__26
10
6.119499
20
-32.514000
30
-12.955000
70
192
0
VERTEX
8
OBJECT__26
10
6.119499
20
20.865999
30
28.719999
70
192
0
VERTEX
8
OBJECT__26
10
6.119499
20
21.181000
30
27.863001
70
192
0
VERTEX
8
OBJECT__26
10
6.119499
20
14.439000
30
32.431000
70
192
0
VERTEX
8
OBJECT__26
10
6.119499
20
14.696000
30
31.764999
70
192
0
VERTEX
8
OBJECT__26
10
6.119499
20
7.524000
30
34.181999
70
192
0
VERTEX
8
OBJECT__26
10
6.119499
20
0.000000
30
35.000000
70
192
0
VERTEX
8
OBJECT__26
10
6.119499
20
7.381000
30
34.723999
70
192
0
VERTEX
8
OBJECT__26
10
6.119499
20
0.000000
30
35.500000
70
192
0
VERTEX
8
OBJECT__26
10
6.119499
20
-7.381000
30
34.723999
70
192
0
VERTEX
8
OBJECT__26
10
6.119499
20
-30.743999
30
17.750000
70
192
0
VERTEX
8
OBJECT__26
10
6.119499
20
-30.743999
30
-17.750000
70
192
0
VERTEX
8
OBJECT__26
10
6.119499
20
-28.969000
30
-19.642000
70
192
0
VERTEX
8
OBJECT__26
10
6.119499
20
-26.382000
30
-23.754000
70
192
0
VERTEX
8
OBJECT__26
10
6.119499
20
-24.069000
30
-25.410000
70
192
0
VERTEX
8
OBJECT__26
10
6.119499
20
-7.524000
30
34.181999
70
192
0
VERTEX
8
OBJECT__26
10
6.119499
20
-14.439000
30
32.431000
70
192
0
VERTEX
8
OBJECT__26
10
6.119499
20
-20.865999
30
-28.719999
70
192
0
VERTEX
8
OBJECT__26
10
6.119499
20
-18.044001
30
-29.990000
70
192
0
VERTEX
8
OBJECT__26
10
6.119499
20
-14.439000
30
-32.431000
70
192
0
VERTEX
8
OBJECT__26
10
6.119499
20
-11.176000
30
-33.167999
70
192
0
VERTEX
8
OBJECT__26
10
6.119499
20
-7.381000
30
-34.723999
70
192
0
VERTEX
8
OBJECT__26
10
6.119499
20
-3.784000
30
-34.794998
70
192
0
VERTEX
8
OBJECT__26
10
6.119499
20
0.000000
30
-35.500000
70
192
0
VERTEX
8
OBJECT__26
10
6.119499
20
3.784000
30
-34.794998
70
192
0
VERTEX
8
OBJECT__26
10
6.119499
20
7.381000
30
-34.723999
70
192
0
VERTEX
8
OBJECT__26
10
6.119499
20
14.439000
30
-32.431000
70
192
0
VERTEX
8
OBJECT__26
10
6.119499
20
11.176000
30
-33.167999
70
192
0
VERTEX
8
OBJECT__26
10
6.119499
20
20.865999
30
-28.719999
70
192
0
VERTEX
8
OBJECT__26
10
6.119499
20
18.044001
30
-29.990000
70
192
0
VERTEX
8
OBJECT__26
10
6.119499
20
26.382000
30
-23.754000
70
192
0
VERTEX
8
OBJECT__26
10
6.119499
20
24.069000
30
-25.410000
70
192
0
VERTEX
8
OBJECT__26
10
6.119499
20
30.743999
30
-17.750000
70
192
0
VERTEX
8
OBJECT__26
10
6.119499
20
28.969000
30
-19.642000
70
192
0
VERTEX
8
OBJECT__26
10
6.119499
20
33.763000
30
-10.970000
70
192
0
VERTEX
8
OBJECT__26
10
6.119499
20
32.514000
30
-12.955000
70
192
0
VERTEX
8
OBJECT__26
10
6.119499
20
35.306000
30
-3.711000
70
192
0
VERTEX
8
OBJECT__26
10
6.119499
20
34.539001
30
-5.662000
70
192
0
VERTEX
8
OBJECT__26
10
6.119499
20
35.306000
30
3.711000
70
192
0
VERTEX
8
OBJECT__26
10
6.119499
20
33.723999
30
9.363000
70
192
0
VERTEX
8
OBJECT__26
10
6.119499
20
34.949001
30
1.895000
70
192
0
VERTEX
8
OBJECT__26
10
0
20
0
30
0
70
128
71
1
72
2
73
3
0
VERTEX
8
OBJECT__26
10
0
20
0
30
0
70
128
71
2
72
4
73
5
0
VERTEX
8
OBJECT__26
10
0
20
0
30
0
70
128
71
6
72
7
73
8
0
VERTEX
8
OBJECT__26
10
0
20
0
30
0
70
128
71
9
72
10
73
7
0
VERTEX
8
OBJECT__26
10
0
20
0
30
0
70
128
71
11
72
12
73
13
0
VERTEX
8
OBJECT__26
10
0
20
0
30
0
70
128
71
14
72
15
73
12
0
VERTEX
8
OBJECT__26
10
0
20
0
30
0
70
128
71
16
72
17
73
15
0
VERTEX
8
OBJECT__26
10
0
20
0
30
0
70
128
71
18
72
19
73
17
0
VERTEX
8
OBJECT__26
10
0
20
0
30
0
70
128
71
5
72
3
73
2
0
VERTEX
8
OBJECT__26
10
0
20
0
30
0
70
128
71
4
72
20
73
21
0
VERTEX
8
OBJECT__26
10
0
20
0
30
0
70
128
71
20
72
22
73
23
0
VERTEX
8
OBJECT__26
10
0
20
0
30
0
70
128
71
24
72
23
73
22
0
VERTEX
8
OBJECT__26
10
0
20
0
30
0
70
128
71
25
72
24
73
26
0
VERTEX
8
OBJECT__26
10
0
20
0
30
0
70
128
71
25
72
27
73
28
0
VERTEX
8
OBJECT__26
10
0
20
0
30
0
70
128
71
7
72
6
73
9
0
VERTEX
8
OBJECT__26
10
0
20
0
30
0
70
128
71
29
72
13
73
10
0
VERTEX
8
OBJECT__26
10
0
20
0
30
0
70
128
71
12
72
11
73
14
0
VERTEX
8
OBJECT__26
10
0
20
0
30
0
70
128
71
17
72
16
73
18
0
VERTEX
8
OBJECT__26
10
0
20
0
30
0
70
128
71
30
72
31
73
19
0
VERTEX
8
OBJECT__26
10
0
20
0
30
0
70
128
71
32
72
33
73
31
0
VERTEX
8
OBJECT__26
10
0
20
0
30
0
70
128
71
21
72
5
73
4
0
VERTEX
8
OBJECT__26
10
0
20
0
30
0
70
128
71
22
72
26
73
24
0
VERTEX
8
OBJECT__26
10
0
20
0
30
0
70
128
71
28
72
34
73
25
0
VERTEX
8
OBJECT__26
10
0
20
0
30
0
70
128
71
34
72
28
73
35
0
VERTEX
8
OBJECT__26
10
0
20
0
30
0
70
128
71
10
72
9
73
29
0
VERTEX
8
OBJECT__26
10
0
20
0
30
0
70
128
71
15
72
14
73
16
0
VERTEX
8
OBJECT__26
10
0
20
0
30
0
70
128
71
31
72
30
73
32
0
VERTEX
8
OBJECT__26
10
0
20
0
30
0
70
128
71
36
72
37
73
33
0
VERTEX
8
OBJECT__26
10
0
20
0
30
0
70
128
71
38
72
39
73
37
0
VERTEX
8
OBJECT__26
10
0
20
0
30
0
70
128
71
40
72
41
73
39
0
VERTEX
8
OBJECT__26
10
0
20
0
30
0
70
128
71
42
72
43
73
41
0
VERTEX
8
OBJECT__26
10
0
20
0
30
0
70
128
71
23
72
21
73
20
0
VERTEX
8
OBJECT__26
10
0
20
0
30
0
70
128
71
35
72
8
73
34
0
VERTEX
8
OBJECT__26
10
0
20
0
30
0
70
128
71
13
72
29
73
11
0
VERTEX
8
OBJECT__26
10
0
20
0
30
0
70
128
71
33
72
32
73
36
0
VERTEX
8
OBJECT__26
10
0
20
0
30
0
70
128
71
39
72
38
73
40
0
VERTEX
8
OBJECT__26
10
0
20
0
30
0
70
128
71
42
72
44
73
43
0
VERTEX
8
OBJECT__26
10
0
20
0
30
0
70
128
71
44
72
45
73
46
0
VERTEX
8
OBJECT__26
10
0
20
0
30
0
70
128
71
45
72
47
73
48
0
VERTEX
8
OBJECT__26
10
0
20
0
30
0
70
128
71
26
72
27
73
25
0
VERTEX
8
OBJECT__26
10
0
20
0
30
0
70
128
71
19
72
18
73
30
0
VERTEX
8
OBJECT__26
10
0
20
0
30
0
70
128
71
41
72
40
73
42
0
VERTEX
8
OBJECT__26
10
0
20
0
30
0
70
128
71
48
72
46
73
45
0
VERTEX
8
OBJECT__26
10
0
20
0
30
0
70
128
71
47
72
49
73
50
0
VERTEX
8
OBJECT__26
10
0
20
0
30
0
70
128
71
49
72
51
73
52
0
VERTEX
8
OBJECT__26
10
0
20
0
30
0
70
128
71
51
72
53
73
54
0
VERTEX
8
OBJECT__26
10
0
20
0
30
0
70
128
71
53
72
55
73
56
0
VERTEX
8
OBJECT__26
10
0
20
0
30
0
70
128
71
8
72
35
73
6
0
VERTEX
8
OBJECT__26
10
0
20
0
30
0
70
128
71
46
72
43
73
44
0
VERTEX
8
OBJECT__26
10
0
20
0
30
0
70
128
71
52
72
50
73
49
0
VERTEX
8
OBJECT__26
10
0
20
0
30
0
70
128
71
56
72
54
73
53
0
VERTEX
8
OBJECT__26
10
0
20
0
30
0
70
128
71
57
72
1
73
58
0
VERTEX
8
OBJECT__26
10
0
20
0
30
0
70
128
71
37
72
36
73
38
0
VERTEX
8
OBJECT__26
10
0
20
0
30
0
70
128
71
54
72
52
73
51
0
VERTEX
8
OBJECT__26
10
0
20
0
30
0
70
128
71
55
72
57
73
59
0
VERTEX
8
OBJECT__26
10
0
20
0
30
0
70
128
71
3
72
58
73
1
0
VERTEX
8
OBJECT__26
10
0
20
0
30
0
70
128
71
59
72
56
73
55
0
VERTEX
8
OBJECT__26
10
0
20
0
30
0
70
128
71
50
72
48
73
47
0
VERTEX
8
OBJECT__26
10
0
20
0
30
0
70
128
71
58
72
59
73
57
0
SEQEND
8
OBJECT__26
0
POLYLINE
8
OBJECT__27
66
1
70
64
71
98
72
98
62
253
0
VERTEX
8
OBJECT__27
10
6.119499
20
0.000000
30
35.000000
70
192
0
VERTEX
8
OBJECT__27
10
7.819500
20
0.000000
30
34.970001
70
192
0
VERTEX
8
OBJECT__27
10
7.819500
20
5.338000
30
34.560001
70
192
0
VERTEX
8
OBJECT__27
10
6.119499
20
7.524000
30
34.181999
70
192
0
VERTEX
8
OBJECT__27
10
6.119499
20
14.696000
30
31.764999
70
192
0
VERTEX
8
OBJECT__27
10
7.819500
20
10.551000
30
33.341000
70
192
0
VERTEX
8
OBJECT__27
10
7.819500
20
7.495000
30
34.056000
70
192
0
VERTEX
8
OBJECT__27
10
7.819500
20
15.517000
30
31.339001
70
192
0
VERTEX
8
OBJECT__27
10
7.819500
20
20.118999
30
28.603001
70
192
0
VERTEX
8
OBJECT__27
10
6.119499
20
21.181000
30
27.863001
70
192
0
VERTEX
8
OBJECT__27
10
7.819500
20
14.662000
30
31.684000
70
192
0
VERTEX
8
OBJECT__27
10
7.819500
20
21.115000
30
27.782000
70
192
0
VERTEX
8
OBJECT__27
10
7.819500
20
24.250000
30
25.197001
70
192
0
VERTEX
8
OBJECT__27
10
6.119499
20
26.676001
30
22.659000
70
192
0
VERTEX
8
OBJECT__27
10
6.119499
20
30.923000
30
16.393999
70
192
0
VERTEX
8
OBJECT__27
10
7.819500
20
27.812000
30
21.200001
70
192
0
VERTEX
8
OBJECT__27
10
7.819500
20
26.584000
30
22.577999
70
192
0
VERTEX
8
OBJECT__27
10
7.819500
20
30.722000
30
16.705999
70
192
0
VERTEX
8
OBJECT__27
10
7.819500
20
30.872999
30
16.370001
70
192
0
VERTEX
8
OBJECT__27
10
7.819500
20
32.911999
30
11.821000
70
192
0
VERTEX
8
OBJECT__27
10
6.119499
20
33.723999
30
9.363000
70
192
0
VERTEX
8
OBJECT__27
10
6.119499
20
34.949001
30
1.895000
70
192
0
VERTEX
8
OBJECT__27
10
7.819500
20
34.331001
30
6.658000
70
192
0
VERTEX
8
OBJECT__27
10
7.819500
20
33.597000
30
9.328000
70
192
0
VERTEX
8
OBJECT__27
10
7.819500
20
34.945000
30
1.339000
70
192
0
VERTEX
8
OBJECT__27
10
7.819500
20
34.740002
30
-4.011000
70
192
0
VERTEX
8
OBJECT__27
10
6.119499
20
34.539001
30
-5.662000
70
192
0
VERTEX
8
OBJECT__27
10
7.819500
20
34.881001
30
1.889000
70
192
0
VERTEX
8
OBJECT__27
10
6.119499
20
32.514000
30
-12.955000
70
192
0
VERTEX
8
OBJECT__27
10
7.819500
20
33.720001
30
-9.266000
70
192
0
VERTEX
8
OBJECT__27
10
7.819500
20
34.423000
30
-5.641000
70
192
0
VERTEX
8
OBJECT__27
10
6.119499
20
28.969000
30
-19.642000
70
192
0
VERTEX
8
OBJECT__27
10
7.819500
20
31.910999
30
-14.305000
70
192
0
VERTEX
8
OBJECT__27
10
7.819500
20
32.409000
30
-12.916000
70
192
0
VERTEX
8
OBJECT__27
10
7.819500
20
29.353001
30
-19.009001
70
192
0
VERTEX
8
OBJECT__27
10
7.819500
20
28.906000
30
-19.594999
70
192
0
VERTEX
8
OBJECT__27
10
7.819500
20
26.107000
30
-23.267000
70
192
0
VERTEX
8
OBJECT__27
10
6.119499
20
24.069000
30
-25.410000
70
192
0
VERTEX
8
OBJECT__27
10
6.119499
20
18.044001
30
-29.990000
70
192
0
VERTEX
8
OBJECT__27
10
7.819500
20
22.250000
30
-26.979000
70
192
0
VERTEX
8
OBJECT__27
10
7.819500
20
23.979000
30
-25.315001
70
192
0
VERTEX
8
OBJECT__27
10
7.819500
20
17.870001
30
-30.059000
70
192
0
VERTEX
8
OBJECT__27
10
7.819500
20
13.073000
30
-32.435001
70
192
0
VERTEX
8
OBJECT__27
10
6.119499
20
11.176000
30
-33.167999
70
192
0
VERTEX
8
OBJECT__27
10
7.819500
20
18.021000
30
-29.952999
70
192
0
VERTEX
8
OBJECT__27
10
6.119499
20
3.784000
30
-34.794998
70
192
0
VERTEX
8
OBJECT__27
10
7.819500
20
7.968000
30
-34.049999
70
192
0
VERTEX
8
OBJECT__27
10
7.819500
20
11.137000
30
-33.048000
70
192
0
VERTEX
8
OBJECT__27
10
7.819500
20
2.677000
30
-34.868000
70
192
0
VERTEX
8
OBJECT__27
10
7.819500
20
-2.677000
30
-34.868000
70
192
0
VERTEX
8
OBJECT__27
10
6.119499
20
-3.784000
30
-34.794998
70
192
0
VERTEX
8
OBJECT__27
10
7.819500
20
3.771000
30
-34.699001
70
192
0
VERTEX
8
OBJECT__27
10
7.819500
20
-3.771000
30
-34.699001
70
192
0
VERTEX
8
OBJECT__27
10
7.819500
20
-7.968000
30
-34.049999
70
192
0
VERTEX
8
OBJECT__27
10
6.119499
20
-11.176000
30
-33.167999
70
192
0
VERTEX
8
OBJECT__27
10
6.119499
20
-18.044001
30
-29.990000
70
192
0
VERTEX
8
OBJECT__27
10
7.819500
20
-13.073000
30
-32.435001
70
192
0
VERTEX
8
OBJECT__27
10
7.819500
20
-11.137000
30
-33.048000
70
192
0
VERTEX
8
OBJECT__27
10
7.819500
20
-17.870001
30
-30.059000
70
192
0
VERTEX
8
OBJECT__27
10
7.819500
20
-18.021000
30
-29.952999
70
192
0
VERTEX
8
OBJECT__27
10
7.819500
20
-22.250000
30
-26.979000
70
192
0
VERTEX
8
OBJECT__27
10
6.119499
20
-24.069000
30
-25.410000
70
192
0
VERTEX
8
OBJECT__27
10
6.119499
20
-28.969000
30
-19.642000
70
192
0
VERTEX
8
OBJECT__27
10
7.819500
20
-26.107000
30
-23.267000
70
192
0
VERTEX
8
OBJECT__27
10
7.819500
20
-23.979000
30
-25.315001
70
192
0
VERTEX
8
OBJECT__27
10
7.819500
20
-29.353001
30
-19.009001
70
192
0
VERTEX
8
OBJECT__27
10
7.819500
20
-31.910999
30
-14.305000
70
192
0
VERTEX
8
OBJECT__27
10
6.119499
20
-32.514000
30
-12.955000
70
192
0
VERTEX
8
OBJECT__27
10
7.819500
20
-28.906000
30
-19.594999
70
192
0
VERTEX
8
OBJECT__27
10
7.819500
20
-32.409000
30
-12.916000
70
192
0
VERTEX
8
OBJECT__27
10
7.819500
20
-33.720001
30
-9.266000
70
192
0
VERTEX
8
OBJECT__27
10
6.119499
20
-34.539001
30
-5.662000
70
192
0
VERTEX
8
OBJECT__27
10
6.119499
20
-34.949001
30
1.895000
70
192
0
VERTEX
8
OBJECT__27
10
7.819500
20
-34.740002
30
-4.011000
70
192
0
VERTEX
8
OBJECT__27
10
7.819500
20
-34.423000
30
-5.641000
70
192
0
VERTEX
8
OBJECT__27
10
7.819500
20
-34.945000
30
1.339000
70
192
0
VERTEX
8
OBJECT__27
10
7.819500
20
-34.881001
30
1.889000
70
192
0
VERTEX
8
OBJECT__27
10
7.819500
20
-34.331001
30
6.658000
70
192
0
VERTEX
8
OBJECT__27
10
6.119499
20
-33.723999
30
9.363000
70
192
0
VERTEX
8
OBJECT__27
10
6.119499
20
-30.923000
30
16.393999
70
192
0
VERTEX
8
OBJECT__27
10
7.819500
20
-32.911999
30
11.821000
70
192
0
VERTEX
8
OBJECT__27
10
7.819500
20
-33.597000
30
9.328000
70
192
0
VERTEX
8
OBJECT__27
10
7.819500
20
-30.722000
30
16.705999
70
192
0
VERTEX
8
OBJECT__27
10
7.819500
20
-27.812000
30
21.200001
70
192
0
VERTEX
8
OBJECT__27
10
6.119499
20
-26.676001
30
22.659000
70
192
0
VERTEX
8
OBJECT__27
10
7.819500
20
-30.872999
30
16.370001
70
192
0
VERTEX
8
OBJECT__27
10
6.119499
20
-21.181000
30
27.863001
70
192
0
VERTEX
8
OBJECT__27
10
7.819500
20
-24.250000
30
25.197001
70
192
0
VERTEX
8
OBJECT__27
10
7.819500
20
-26.584000
30
22.577999
70
192
0
VERTEX
8
OBJECT__27
10
6.119499
20
-14.696000
30
31.764999
70
192
0
VERTEX
8
OBJECT__27
10
7.819500
20
-20.118999
30
28.603001
70
192
0
VERTEX
8
OBJECT__27
10
7.819500
20
-21.115000
30
27.782000
70
192
0
VERTEX
8
OBJECT__27
10
7.819500
20
-15.517000
30
31.339001
70
192
0
VERTEX
8
OBJECT__27
10
7.819500
20
-14.662000
30
31.684000
70
192
0
VERTEX
8
OBJECT__27
10
7.819500
20
-10.551000
30
33.341000
70
192
0
VERTEX
8
OBJECT__27
10
6.119499
20
-7.524000
30
34.181999
70
192
0
VERTEX
8
OBJECT__27
10
7.819500
20
-5.338000
30
34.560001
70
192
0
VERTEX
8
OBJECT__27
10
7.819500
20
-7.495000
30
34.056000
70
192
0
VERTEX
8
OBJECT__27
10
0
20
0
30
0
70
128
71
1
72
2
73
3
0
VERTEX
8
OBJECT__27
10
0
20
0
30
0
70
128
71
3
72
4
73
1
0
VERTEX
8
OBJECT__27
10
0
20
0
30
0
70
128
71
5
72
4
73
6
0
VERTEX
8
OBJECT__27
10
0
20
0
30
0
70
128
71
4
72
7
73
6
0
VERTEX
8
OBJECT__27
10
0
20
0
30
0
70
128
71
5
72
8
73
9
0
VERTEX
8
OBJECT__27
10
0
20
0
30
0
70
128
71
9
72
10
73
5
0
VERTEX
8
OBJECT__27
10
0
20
0
30
0
70
128
71
5
72
11
73
8
0
VERTEX
8
OBJECT__27
10
0
20
0
30
0
70
128
71
10
72
12
73
13
0
VERTEX
8
OBJECT__27
10
0
20
0
30
0
70
128
71
13
72
14
73
10
0
VERTEX
8
OBJECT__27
10
0
20
0
30
0
70
128
71
15
72
14
73
16
0
VERTEX
8
OBJECT__27
10
0
20
0
30
0
70
128
71
14
72
17
73
16
0
VERTEX
8
OBJECT__27
10
0
20
0
30
0
70
128
71
16
72
18
73
15
0
VERTEX
8
OBJECT__27
10
0
20
0
30
0
70
128
71
15
72
19
73
20
0
VERTEX
8
OBJECT__27
10
0
20
0
30
0
70
128
71
20
72
21
73
15
0
VERTEX
8
OBJECT__27
10
0
20
0
30
0
70
128
71
22
72
21
73
23
0
VERTEX
8
OBJECT__27
10
0
20
0
30
0
70
128
71
21
72
24
73
23
0
VERTEX
8
OBJECT__27
10
0
20
0
30
0
70
128
71
22
72
25
73
26
0
VERTEX
8
OBJECT__27
10
0
20
0
30
0
70
128
71
26
72
27
73
22
0
VERTEX
8
OBJECT__27
10
0
20
0
30
0
70
128
71
22
72
28
73
25
0
VERTEX
8
OBJECT__27
10
0
20
0
30
0
70
128
71
29
72
27
73
30
0
VERTEX
8
OBJECT__27
10
0
20
0
30
0
70
128
71
27
72
31
73
30
0
VERTEX
8
OBJECT__27
10
0
20
0
30
0
70
128
71
32
72
29
73
33
0
VERTEX
8
OBJECT__27
10
0
20
0
30
0
70
128
71
29
72
34
73
33
0
VERTEX
8
OBJECT__27
10
0
20
0
30
0
70
128
71
33
72
35
73
32
0
VERTEX
8
OBJECT__27
10
0
20
0
30
0
70
128
71
32
72
36
73
37
0
VERTEX
8
OBJECT__27
10
0
20
0
30
0
70
128
71
37
72
38
73
32
0
VERTEX
8
OBJECT__27
10
0
20
0
30
0
70
128
71
39
72
38
73
40
0
VERTEX
8
OBJECT__27
10
0
20
0
30
0
70
128
71
38
72
41
73
40
0
VERTEX
8
OBJECT__27
10
0
20
0
30
0
70
128
71
39
72
42
73
43
0
VERTEX
8
OBJECT__27
10
0
20
0
30
0
70
128
71
43
72
44
73
39
0
VERTEX
8
OBJECT__27
10
0
20
0
30
0
70
128
71
39
72
45
73
42
0
VERTEX
8
OBJECT__27
10
0
20
0
30
0
70
128
71
46
72
44
73
47
0
VERTEX
8
OBJECT__27
10
0
20
0
30
0
70
128
71
44
72
48
73
47
0
VERTEX
8
OBJECT__27
10
0
20
0
30
0
70
128
71
46
72
49
73
50
0
VERTEX
8
OBJECT__27
10
0
20
0
30
0
70
128
71
50
72
51
73
46
0
VERTEX
8
OBJECT__27
10
0
20
0
30
0
70
128
71
46
72
52
73
49
0
VERTEX
8
OBJECT__27
10
0
20
0
30
0
70
128
71
51
72
53
73
54
0
VERTEX
8
OBJECT__27
10
0
20
0
30
0
70
128
71
54
72
55
73
51
0
VERTEX
8
OBJECT__27
10
0
20
0
30
0
70
128
71
56
72
55
73
57
0
VERTEX
8
OBJECT__27
10
0
20
0
30
0
70
128
71
55
72
58
73
57
0
VERTEX
8
OBJECT__27
10
0
20
0
30
0
70
128
71
57
72
59
73
56
0
VERTEX
8
OBJECT__27
10
0
20
0
30
0
70
128
71
56
72
60
73
61
0
VERTEX
8
OBJECT__27
10
0
20
0
30
0
70
128
71
61
72
62
73
56
0
VERTEX
8
OBJECT__27
10
0
20
0
30
0
70
128
71
63
72
62
73
64
0
VERTEX
8
OBJECT__27
10
0
20
0
30
0
70
128
71
62
72
65
73
64
0
VERTEX
8
OBJECT__27
10
0
20
0
30
0
70
128
71
63
72
66
73
67
0
VERTEX
8
OBJECT__27
10
0
20
0
30
0
70
128
71
67
72
68
73
63
0
VERTEX
8
OBJECT__27
10
0
20
0
30
0
70
128
71
63
72
69
73
66
0
VERTEX
8
OBJECT__27
10
0
20
0
30
0
70
128
71
68
72
70
73
71
0
VERTEX
8
OBJECT__27
10
0
20
0
30
0
70
128
71
71
72
72
73
68
0
VERTEX
8
OBJECT__27
10
0
20
0
30
0
70
128
71
73
72
72
73
74
0
VERTEX
8
OBJECT__27
10
0
20
0
30
0
70
128
71
72
72
75
73
74
0
VERTEX
8
OBJECT__27
10
0
20
0
30
0
70
128
71
74
72
76
73
73
0
VERTEX
8
OBJECT__27
10
0
20
0
30
0
70
128
71
73
72
77
73
78
0
VERTEX
8
OBJECT__27
10
0
20
0
30
0
70
128
71
78
72
79
73
73
0
VERTEX
8
OBJECT__27
10
0
20
0
30
0
70
128
71
80
72
79
73
81
0
VERTEX
8
OBJECT__27
10
0
20
0
30
0
70
128
71
79
72
82
73
81
0
VERTEX
8
OBJECT__27
10
0
20
0
30
0
70
128
71
80
72
83
73
84
0
VERTEX
8
OBJECT__27
10
0
20
0
30
0
70
128
71
84
72
85
73
80
0
VERTEX
8
OBJECT__27
10
0
20
0
30
0
70
128
71
80
72
86
73
83
0
VERTEX
8
OBJECT__27
10
0
20
0
30
0
70
128
71
87
72
85
73
88
0
VERTEX
8
OBJECT__27
10
0
20
0
30
0
70
128
71
85
72
89
73
88
0
VERTEX
8
OBJECT__27
10
0
20
0
30
0
70
128
71
90
72
87
73
91
0
VERTEX
8
OBJECT__27
10
0
20
0
30
0
70
128
71
87
72
92
73
91
0
VERTEX
8
OBJECT__27
10
0
20
0
30
0
70
128
71
91
72
93
73
90
0
VERTEX
8
OBJECT__27
10
0
20
0
30
0
70
128
71
90
72
94
73
95
0
VERTEX
8
OBJECT__27
10
0
20
0
30
0
70
128
71
95
72
96
73
90
0
VERTEX
8
OBJECT__27
10
0
20
0
30
0
70
128
71
1
72
96
73
97
0
VERTEX
8
OBJECT__27
10
0
20
0
30
0
70
128
71
96
72
98
73
97
0
VERTEX
8
OBJECT__27
10
0
20
0
30
0
70
128
71
97
72
2
73
1
0
VERTEX
8
OBJECT__27
10
0
20
0
30
0
70
128
71
95
72
98
73
96
0
VERTEX
8
OBJECT__27
10
0
20
0
30
0
70
128
71
93
72
94
73
90
0
VERTEX
8
OBJECT__27
10
0
20
0
30
0
70
128
71
88
72
92
73
87
0
VERTEX
8
OBJECT__27
10
0
20
0
30
0
70
128
71
84
72
89
73
85
0
VERTEX
8
OBJECT__27
10
0
20
0
30
0
70
128
71
81
72
86
73
80
0
VERTEX
8
OBJECT__27
10
0
20
0
30
0
70
128
71
78
72
82
73
79
0
VERTEX
8
OBJECT__27
10
0
20
0
30
0
70
128
71
76
72
77
73
73
0
VERTEX
8
OBJECT__27
10
0
20
0
30
0
70
128
71
71
72
75
73
72
0
VERTEX
8
OBJECT__27
10
0
20
0
30
0
70
128
71
67
72
70
73
68
0
VERTEX
8
OBJECT__27
10
0
20
0
30
0
70
128
71
64
72
69
73
63
0
VERTEX
8
OBJECT__27
10
0
20
0
30
0
70
128
71
61
72
65
73
62
0
VERTEX
8
OBJECT__27
10
0
20
0
30
0
70
128
71
59
72
60
73
56
0
VERTEX
8
OBJECT__27
10
0
20
0
30
0
70
128
71
54
72
58
73
55
0
VERTEX
8
OBJECT__27
10
0
20
0
30
0
70
128
71
50
72
53
73
51
0
VERTEX
8
OBJECT__27
10
0
20
0
30
0
70
128
71
47
72
52
73
46
0
VERTEX
8
OBJECT__27
10
0
20
0
30
0
70
128
71
43
72
48
73
44
0
VERTEX
8
OBJECT__27
10
0
20
0
30
0
70
128
71
40
72
45
73
39
0
VERTEX
8
OBJECT__27
10
0
20
0
30
0
70
128
71
37
72
41
73
38
0
VERTEX
8
OBJECT__27
10
0
20
0
30
0
70
128
71
35
72
36
73
32
0
VERTEX
8
OBJECT__27
10
0
20
0
30
0
70
128
71
30
72
34
73
29
0
VERTEX
8
OBJECT__27
10
0
20
0
30
0
70
128
71
26
72
31
73
27
0
VERTEX
8
OBJECT__27
10
0
20
0
30
0
70
128
71
23
72
28
73
22
0
VERTEX
8
OBJECT__27
10
0
20
0
30
0
70
128
71
20
72
24
73
21
0
VERTEX
8
OBJECT__27
10
0
20
0
30
0
70
128
71
18
72
19
73
15
0
VERTEX
8
OBJECT__27
10
0
20
0
30
0
70
128
71
13
72
17
73
14
0
VERTEX
8
OBJECT__27
10
0
20
0
30
0
70
128
71
9
72
12
73
10
0
VERTEX
8
OBJECT__27
10
0
20
0
30
0
70
128
71
6
72
11
73
5
0
VERTEX
8
OBJECT__27
10
0
20
0
30
0
70
128
71
3
72
7
73
4
0
SEQEND
8
OBJECT__27
0
POLYLINE
8
OBJECT__28
66
1
70
64
71
234
72
397
62
253
0
VERTEX
8
OBJECT__28
10
16.797501
20
0.000000
30
7.310000
70
192
0
VERTEX
8
OBJECT__28
10
16.797501
20
1.116000
30
7.225000
70
192
0
VERTEX
8
OBJECT__28
10
15.653500
20
2.220000
30
14.370000
70
192
0
VERTEX
8
OBJECT__28
10
16.797501
20
2.206000
30
6.969000
70
192
0
VERTEX
8
OBJECT__28
10
15.653500
20
4.387000
30
13.863000
70
192
0
VERTEX
8
OBJECT__28
10
16.797501
20
3.244000
30
6.551000
70
192
0
VERTEX
8
OBJECT__28
10
15.653500
20
6.452000
30
13.031000
70
192
0
VERTEX
8
OBJECT__28
10
16.797501
20
4.206000
30
5.979000
70
192
0
VERTEX
8
OBJECT__28
10
15.653500
20
8.365000
30
11.893000
70
192
0
VERTEX
8
OBJECT__28
10
16.797501
20
5.069000
30
5.267000
70
192
0
VERTEX
8
OBJECT__28
10
15.653500
20
10.083000
30
10.477000
70
192
0
VERTEX
8
OBJECT__28
10
16.797501
20
5.814000
30
4.432000
70
192
0
VERTEX
8
OBJECT__28
10
15.653500
20
11.564000
30
8.815000
70
192
0
VERTEX
8
OBJECT__28
10
16.797501
20
6.422000
30
3.492000
70
192
0
VERTEX
8
OBJECT__28
10
15.653500
20
12.774000
30
6.946000
70
192
0
VERTEX
8
OBJECT__28
10
16.797501
20
6.880000
30
2.471000
70
192
0
VERTEX
8
OBJECT__28
10
15.653500
20
13.685000
30
4.915000
70
192
0
VERTEX
8
OBJECT__28
10
16.797501
20
7.176000
30
1.392000
70
192
0
VERTEX
8
OBJECT__28
10
15.653500
20
14.274000
30
2.768000
70
192
0
VERTEX
8
OBJECT__28
10
16.797501
20
7.305000
30
0.280000
70
192
0
VERTEX
8
OBJECT__28
10
15.653500
20
14.530000
30
0.557000
70
192
0
VERTEX
8
OBJECT__28
10
16.797501
20
7.262000
30
-0.838000
70
192
0
VERTEX
8
OBJECT__28
10
15.653500
20
14.444000
30
-1.668000
70
192
0
VERTEX
8
OBJECT__28
10
16.797501
20
7.049000
30
-1.937000
70
192
0
VERTEX
8
OBJECT__28
10
15.653500
20
14.021000
30
-3.853000
70
192
0
VERTEX
8
OBJECT__28
10
16.797501
20
6.671000
30
-2.990000
70
192
0
VERTEX
8
OBJECT__28
10
15.653500
20
13.268000
30
-5.948000
70
192
0
VERTEX
8
OBJECT__28
10
16.797501
20
6.136000
30
-3.974000
70
192
0
VERTEX
8
OBJECT__28
10
15.653500
20
12.205000
30
-7.904000
70
192
0
VERTEX
8
OBJECT__28
10
16.797501
20
5.457000
30
-4.864000
70
192
0
VERTEX
8
OBJECT__28
10
15.653500
20
10.855000
30
-9.674000
70
192
0
VERTEX
8
OBJECT__28
10
16.797501
20
4.651000
30
-5.640000
70
192
0
VERTEX
8
OBJECT__28
10
15.653500
20
9.251000
30
-11.218000
70
192
0
VERTEX
8
OBJECT__28
10
16.797501
20
3.736000
30
-6.284000
70
192
0
VERTEX
8
OBJECT__28
10
15.653500
20
7.430000
30
-12.498000
70
192
0
VERTEX
8
OBJECT__28
10
16.797501
20
2.733000
30
-6.780000
70
192
0
VERTEX
8
OBJECT__28
10
15.653500
20
5.435000
30
-13.486000
70
192
0
VERTEX
8
OBJECT__28
10
16.797501
20
1.666000
30
-7.118000
70
192
0
VERTEX
8
OBJECT__28
10
15.653500
20
3.313000
30
-14.158000
70
192
0
VERTEX
8
OBJECT__28
10
16.797501
20
0.560000
30
-7.289000
70
192
0
VERTEX
8
OBJECT__28
10
15.653500
20
1.113000
30
-14.498000
70
192
0
VERTEX
8
OBJECT__28
10
16.797501
20
-0.560000
30
-7.289000
70
192
0
VERTEX
8
OBJECT__28
10
15.653500
20
-1.113000
30
-14.498000
70
192
0
VERTEX
8
OBJECT__28
10
16.797501
20
-1.666000
30
-7.118000
70
192
0
VERTEX
8
OBJECT__28
10
15.653500
20
-3.313000
30
-14.158000
70
192
0
VERTEX
8
OBJECT__28
10
16.797501
20
-2.733000
30
-6.780000
70
192
0
VERTEX
8
OBJECT__28
10
15.653500
20
-5.435000
30
-13.486000
70
192
0
VERTEX
8
OBJECT__28
10
16.797501
20
-3.736000
30
-6.284000
70
192
0
VERTEX
8
OBJECT__28
10
15.653500
20
-7.430000
30
-12.498000
70
192
0
VERTEX
8
OBJECT__28
10
16.797501
20
-4.651000
30
-5.640000
70
192
0
VERTEX
8
OBJECT__28
10
15.653500
20
-9.251000
30
-11.218000
70
192
0
VERTEX
8
OBJECT__28
10
16.797501
20
-5.457000
30
-4.864000
70
192
0
VERTEX
8
OBJECT__28
10
15.653500
20
-10.855000
30
-9.674000
70
192
0
VERTEX
8
OBJECT__28
10
16.797501
20
-6.136000
30
-3.974000
70
192
0
VERTEX
8
OBJECT__28
10
15.653500
20
-12.205000
30
-7.904000
70
192
0
VERTEX
8
OBJECT__28
10
16.797501
20
-6.671000
30
-2.990000
70
192
0
VERTEX
8
OBJECT__28
10
15.653500
20
-13.268000
30
-5.948000
70
192
0
VERTEX
8
OBJECT__28
10
16.797501
20
-7.049000
30
-1.937000
70
192
0
VERTEX
8
OBJECT__28
10
15.653500
20
-14.021000
30
-3.853000
70
192
0
VERTEX
8
OBJECT__28
10
16.797501
20
-7.262000
30
-0.838000
70
192
0
VERTEX
8
OBJECT__28
10
15.653500
20
-14.444000
30
-1.668000
70
192
0
VERTEX
8
OBJECT__28
10
16.797501
20
-7.305000
30
0.280000
70
192
0
VERTEX
8
OBJECT__28
10
15.653500
20
-14.530000
30
0.557000
70
192
0
VERTEX
8
OBJECT__28
10
16.797501
20
-7.176000
30
1.392000
70
192
0
VERTEX
8
OBJECT__28
10
15.653500
20
-14.274000
30
2.768000
70
192
0
VERTEX
8
OBJECT__28
10
16.797501
20
-6.880000
30
2.471000
70
192
0
VERTEX
8
OBJECT__28
10
15.653500
20
-13.685000
30
4.915000
70
192
0
VERTEX
8
OBJECT__28
10
16.797501
20
-6.422000
30
3.492000
70
192
0
VERTEX
8
OBJECT__28
10
15.653500
20
-12.774000
30
6.946000
70
192
0
VERTEX
8
OBJECT__28
10
16.797501
20
-5.814000
30
4.432000
70
192
0
VERTEX
8
OBJECT__28
10
15.653500
20
-11.564000
30
8.815000
70
192
0
VERTEX
8
OBJECT__28
10
16.797501
20
-5.069000
30
5.267000
70
192
0
VERTEX
8
OBJECT__28
10
15.653500
20
-10.083000
30
10.477000
70
192
0
VERTEX
8
OBJECT__28
10
16.797501
20
-4.206000
30
5.979000
70
192
0
VERTEX
8
OBJECT__28
10
15.653500
20
-8.365000
30
11.893000
70
192
0
VERTEX
8
OBJECT__28
10
16.797501
20
-3.244000
30
6.551000
70
192
0
VERTEX
8
OBJECT__28
10
15.653500
20
-6.452000
30
13.031000
70
192
0
VERTEX
8
OBJECT__28
10
16.797501
20
-2.206000
30
6.969000
70
192
0
VERTEX
8
OBJECT__28
10
15.653500
20
-4.387000
30
13.863000
70
192
0
VERTEX
8
OBJECT__28
10
16.797501
20
-1.116000
30
7.225000
70
192
0
VERTEX
8
OBJECT__28
10
15.653500
20
-2.220000
30
14.370000
70
192
0
VERTEX
8
OBJECT__28
10
15.653500
20
0.000000
30
14.540000
70
192
0
VERTEX
8
OBJECT__28
10
13.760500
20
3.299000
30
21.358000
70
192
0
VERTEX
8
OBJECT__28
10
13.760500
20
6.521000
30
20.604000
70
192
0
VERTEX
8
OBJECT__28
10
13.760500
20
9.590000
30
19.368000
70
192
0
VERTEX
8
OBJECT__28
10
13.760500
20
12.434000
30
17.677000
70
192
0
VERTEX
8
OBJECT__28
10
13.760500
20
14.986000
30
15.572000
70
192
0
VERTEX
8
OBJECT__28
10
13.760500
20
17.188000
30
13.102000
70
192
0
VERTEX
8
OBJECT__28
10
13.760500
20
18.986000
30
10.324000
70
192
0
VERTEX
8
OBJECT__28
10
13.760500
20
20.340000
30
7.305000
70
192
0
VERTEX
8
OBJECT__28
10
13.760500
20
21.216000
30
4.115000
70
192
0
VERTEX
8
OBJECT__28
10
13.760500
20
21.596001
30
0.828000
70
192
0
VERTEX
8
OBJECT__28
10
13.760500
20
21.469000
30
-2.478000
70
192
0
VERTEX
8
OBJECT__28
10
13.760500
20
20.839001
30
-5.727000
70
192
0
VERTEX
8
OBJECT__28
10
13.760500
20
19.721001
30
-8.841000
70
192
0
VERTEX
8
OBJECT__28
10
13.760500
20
18.139999
30
-11.747000
70
192
0
VERTEX
8
OBJECT__28
10
13.760500
20
16.134001
30
-14.379000
70
192
0
VERTEX
8
OBJECT__28
10
13.760500
20
13.750000
30
-16.673000
70
192
0
VERTEX
8
OBJECT__28
10
13.760500
20
11.044000
30
-18.577000
70
192
0
VERTEX
8
OBJECT__28
10
13.760500
20
8.079000
30
-20.045000
70
192
0
VERTEX
8
OBJECT__28
10
13.760500
20
4.924000
30
-21.042999
70
192
0
VERTEX
8
OBJECT__28
10
13.760500
20
1.654000
30
-21.548000
70
192
0
VERTEX
8
OBJECT__28
10
13.760500
20
-1.654000
30
-21.548000
70
192
0
VERTEX
8
OBJECT__28
10
13.760500
20
-4.924000
30
-21.042999
70
192
0
VERTEX
8
OBJECT__28
10
13.760500
20
-8.079000
30
-20.045000
70
192
0
VERTEX
8
OBJECT__28
10
13.760500
20
-11.044000
30
-18.577000
70
192
0
VERTEX
8
OBJECT__28
10
13.760500
20
-13.750000
30
-16.673000
70
192
0
VERTEX
8
OBJECT__28
10
13.760500
20
-16.134001
30
-14.379000
70
192
0
VERTEX
8
OBJECT__28
10
13.760500
20
-18.139999
30
-11.747000
70
192
0
VERTEX
8
OBJECT__28
10
13.760500
20
-19.721001
30
-8.841000
70
192
0
VERTEX
8
OBJECT__28
10
13.760500
20
-20.839001
30
-5.727000
70
192
0
VERTEX
8
OBJECT__28
10
13.760500
20
-21.469000
30
-2.478000
70
192
0
VERTEX
8
OBJECT__28
10
13.760500
20
-21.596001
30
0.828000
70
192
0
VERTEX
8
OBJECT__28
10
13.760500
20
-21.216000
30
4.115000
70
192
0
VERTEX
8
OBJECT__28
10
13.760500
20
-20.340000
30
7.305000
70
192
0
VERTEX
8
OBJECT__28
10
13.760500
20
-18.986000
30
10.324000
70
192
0
VERTEX
8
OBJECT__28
10
13.760500
20
-17.188000
30
13.102000
70
192
0
VERTEX
8
OBJECT__28
10
13.760500
20
-14.986000
30
15.572000
70
192
0
VERTEX
8
OBJECT__28
10
13.760500
20
-12.434000
30
17.677000
70
192
0
VERTEX
8
OBJECT__28
10
13.760500
20
-9.590000
30
19.368000
70
192
0
VERTEX
8
OBJECT__28
10
13.760500
20
-6.521000
30
20.604000
70
192
0
VERTEX
8
OBJECT__28
10
13.760500
20
-3.299000
30
21.358000
70
192
0
VERTEX
8
OBJECT__28
10
13.760500
20
0.000000
30
21.612000
70
192
0
VERTEX
8
OBJECT__28
10
11.139500
20
4.342000
30
28.113001
70
192
0
VERTEX
8
OBJECT__28
10
11.139500
20
8.583000
30
27.121000
70
192
0
VERTEX
8
OBJECT__28
10
11.139500
20
12.622000
30
25.493000
70
192
0
VERTEX
8
OBJECT__28
10
11.139500
20
16.365999
30
23.267000
70
192
0
VERTEX
8
OBJECT__28
10
11.139500
20
19.726000
30
20.496000
70
192
0
VERTEX
8
OBJECT__28
10
11.139500
20
22.622999
30
17.245001
70
192
0
VERTEX
8
OBJECT__28
10
11.139500
20
24.990999
30
13.589000
70
192
0
VERTEX
8
OBJECT__28
10
11.139500
20
26.771999
30
9.615000
70
192
0
VERTEX
8
OBJECT__28
10
11.139500
20
27.926001
30
5.416000
70
192
0
VERTEX
8
OBJECT__28
10
11.139500
20
28.426001
30
1.090000
70
192
0
VERTEX
8
OBJECT__28
10
11.139500
20
28.259001
30
-3.262000
70
192
0
VERTEX
8
OBJECT__28
10
11.139500
20
27.430000
30
-7.538000
70
192
0
VERTEX
8
OBJECT__28
10
11.139500
20
25.958000
30
-11.637000
70
192
0
VERTEX
8
OBJECT__28
10
11.139500
20
23.877001
30
-15.463000
70
192
0
VERTEX
8
OBJECT__28
10
11.139500
20
21.237000
30
-18.926001
70
192
0
VERTEX
8
OBJECT__28
10
11.139500
20
18.099001
30
-21.945999
70
192
0
VERTEX
8
OBJECT__28
10
11.139500
20
14.537000
30
-24.452000
70
192
0
VERTEX
8
OBJECT__28
10
11.139500
20
10.634000
30
-26.384001
70
192
0
VERTEX
8
OBJECT__28
10
11.139500
20
6.482000
30
-27.698000
70
192
0
VERTEX
8
OBJECT__28
10
11.139500
20
2.178000
30
-28.363001
70
192
0
VERTEX
8
OBJECT__28
10
11.139500
20
-2.178000
30
-28.363001
70
192
0
VERTEX
8
OBJECT__28
10
11.139500
20
-6.482000
30
-27.698000
70
192
0
VERTEX
8
OBJECT__28
10
11.139500
20
-10.634000
30
-26.384001
70
192
0
VERTEX
8
OBJECT__28
10
11.139500
20
-14.537000
30
-24.452000
70
192
0
VERTEX
8
OBJECT__28
10
11.139500
20
-18.099001
30
-21.945999
70
192
0
VERTEX
8
OBJECT__28
10
11.139500
20
-21.237000
30
-18.926001
70
192
0
VERTEX
8
OBJECT__28
10
11.139500
20
-23.877001
30
-15.463000
70
192
0
VERTEX
8
OBJECT__28
10
11.139500
20
-25.958000
30
-11.637000
70
192
0
VERTEX
8
OBJECT__28
10
11.139500
20
-27.430000
30
-7.538000
70
192
0
VERTEX
8
OBJECT__28
10
11.139500
20
-28.259001
30
-3.262000
70
192
0
VERTEX
8
OBJECT__28
10
11.139500
20
-28.426001
30
1.090000
70
192
0
VERTEX
8
OBJECT__28
10
11.139500
20
-27.926001
30
5.416000
70
192
0
VERTEX
8
OBJECT__28
10
11.139500
20
-26.771999
30
9.615000
70
192
0
VERTEX
8
OBJECT__28
10
11.139500
20
-24.990999
30
13.589000
70
192
0
VERTEX
8
OBJECT__28
10
11.139500
20
-22.622999
30
17.245001
70
192
0
VERTEX
8
OBJECT__28
10
11.139500
20
-19.726000
30
20.496000
70
192
0
VERTEX
8
OBJECT__28
10
11.139500
20
-16.365999
30
23.267000
70
192
0
VERTEX
8
OBJECT__28
10
11.139500
20
-12.622000
30
25.493000
70
192
0
VERTEX
8
OBJECT__28
10
11.139500
20
-8.583000
30
27.121000
70
192
0
VERTEX
8
OBJECT__28
10
11.139500
20
-4.342000
30
28.113001
70
192
0
VERTEX
8
OBJECT__28
10
11.139500
20
0.000000
30
28.447001
70
192
0
VERTEX
8
OBJECT__28
10
7.819500
20
0.000000
30
34.970001
70
192
0
VERTEX
8
OBJECT__28
10
7.819500
20
10.551000
30
33.341000
70
192
0
VERTEX
8
OBJECT__28
10
7.819500
20
7.495000
30
34.056000
70
192
0
VERTEX
8
OBJECT__28
10
7.819500
20
14.662000
30
31.684000
70
192
0
VERTEX
8
OBJECT__28
10
7.819500
20
15.517000
30
31.339001
70
192
0
VERTEX
8
OBJECT__28
10
7.819500
20
20.118999
30
28.603001
70
192
0
VERTEX
8
OBJECT__28
10
7.819500
20
24.250000
30
25.197001
70
192
0
VERTEX
8
OBJECT__28
10
7.819500
20
21.115000
30
27.782000
70
192
0
VERTEX
8
OBJECT__28
10
7.819500
20
26.584000
30
22.577999
70
192
0
VERTEX
8
OBJECT__28
10
7.819500
20
27.812000
30
21.200001
70
192
0
VERTEX
8
OBJECT__28
10
7.819500
20
30.722000
30
16.705999
70
192
0
VERTEX
8
OBJECT__28
10
7.819500
20
30.872999
30
16.370001
70
192
0
VERTEX
8
OBJECT__28
10
7.819500
20
32.911999
30
11.821000
70
192
0
VERTEX
8
OBJECT__28
10
7.819500
20
34.331001
30
6.658000
70
192
0
VERTEX
8
OBJECT__28
10
7.819500
20
33.597000
30
9.328000
70
192
0
VERTEX
8
OBJECT__28
10
7.819500
20
34.881001
30
1.889000
70
192
0
VERTEX
8
OBJECT__28
10
7.819500
20
34.945000
30
1.339000
70
192
0
VERTEX
8
OBJECT__28
10
7.819500
20
34.740002
30
-4.011000
70
192
0
VERTEX
8
OBJECT__28
10
7.819500
20
33.720001
30
-9.266000
70
192
0
VERTEX
8
OBJECT__28
10
7.819500
20
34.423000
30
-5.641000
70
192
0
VERTEX
8
OBJECT__28
10
7.819500
20
32.409000
30
-12.916000
70
192
0
VERTEX
8
OBJECT__28
10
7.819500
20
31.910999
30
-14.305000
70
192
0
VERTEX
8
OBJECT__28
10
7.819500
20
29.353001
30
-19.009001
70
192
0
VERTEX
8
OBJECT__28
10
7.819500
20
28.906000
30
-19.594999
70
192
0
VERTEX
8
OBJECT__28
10
7.819500
20
26.107000
30
-23.267000
70
192
0
VERTEX
8
OBJECT__28
10
7.819500
20
23.979000
30
-25.315001
70
192
0
VERTEX
8
OBJECT__28
10
7.819500
20
22.250000
30
-26.979000
70
192
0
VERTEX
8
OBJECT__28
10
7.819500
20
18.021000
30
-29.952999
70
192
0
VERTEX
8
OBJECT__28
10
7.819500
20
17.870001
30
-30.059000
70
192
0
VERTEX
8
OBJECT__28
10
7.819500
20
7.968000
30
-34.049999
70
192
0
VERTEX
8
OBJECT__28
10
7.819500
20
11.137000
30
-33.048000
70
192
0
VERTEX
8
OBJECT__28
10
7.819500
20
3.771000
30
-34.699001
70
192
0
VERTEX
8
OBJECT__28
10
7.819500
20
2.677000
30
-34.868000
70
192
0
VERTEX
8
OBJECT__28
10
7.819500
20
-2.677000
30
-34.868000
70
192
0
VERTEX
8
OBJECT__28
10
7.819500
20
-7.968000
30
-34.049999
70
192
0
VERTEX
8
OBJECT__28
10
7.819500
20
-3.771000
30
-34.699001
70
192
0
VERTEX
8
OBJECT__28
10
7.819500
20
-11.137000
30
-33.048000
70
192
0
VERTEX
8
OBJECT__28
10
7.819500
20
-13.073000
30
-32.435001
70
192
0
VERTEX
8
OBJECT__28
10
7.819500
20
-17.870001
30
-30.059000
70
192
0
VERTEX
8
OBJECT__28
10
7.819500
20
-18.021000
30
-29.952999
70
192
0
VERTEX
8
OBJECT__28
10
7.819500
20
-22.250000
30
-26.979000
70
192
0
VERTEX
8
OBJECT__28
10
7.819500
20
-26.107000
30
-23.267000
70
192
0
VERTEX
8
OBJECT__28
10
7.819500
20
-23.979000
30
-25.315001
70
192
0
VERTEX
8
OBJECT__28
10
7.819500
20
-28.906000
30
-19.594999
70
192
0
VERTEX
8
OBJECT__28
10
7.819500
20
-29.353001
30
-19.009001
70
192
0
VERTEX
8
OBJECT__28
10
7.819500
20
-33.720001
30
-9.266000
70
192
0
VERTEX
8
OBJECT__28
10
7.819500
20
-32.409000
30
-12.916000
70
192
0
VERTEX
8
OBJECT__28
10
7.819500
20
-34.423000
30
-5.641000
70
192
0
VERTEX
8
OBJECT__28
10
7.819500
20
-34.740002
30
-4.011000
70
192
0
VERTEX
8
OBJECT__28
10
7.819500
20
-34.881001
30
1.889000
70
192
0
VERTEX
8
OBJECT__28
10
7.819500
20
-34.331001
30
6.658000
70
192
0
VERTEX
8
OBJECT__28
10
7.819500
20
-33.597000
30
9.328000
70
192
0
VERTEX
8
OBJECT__28
10
7.819500
20
-32.911999
30
11.821000
70
192
0
VERTEX
8
OBJECT__28
10
7.819500
20
-30.872999
30
16.370001
70
192
0
VERTEX
8
OBJECT__28
10
7.819500
20
-30.722000
30
16.705999
70
192
0
VERTEX
8
OBJECT__28
10
7.819500
20
-27.812000
30
21.200001
70
192
0
VERTEX
8
OBJECT__28
10
7.819500
20
-24.250000
30
25.197001
70
192
0
VERTEX
8
OBJECT__28
10
7.819500
20
-26.584000
30
22.577999
70
192
0
VERTEX
8
OBJECT__28
10
7.819500
20
-21.115000
30
27.782000
70
192
0
VERTEX
8
OBJECT__28
10
7.819500
20
-20.118999
30
28.603001
70
192
0
VERTEX
8
OBJECT__28
10
7.819500
20
-15.517000
30
31.339001
70
192
0
VERTEX
8
OBJECT__28
10
7.819500
20
-14.662000
30
31.684000
70
192
0
VERTEX
8
OBJECT__28
10
7.819500
20
-10.551000
30
33.341000
70
192
0
VERTEX
8
OBJECT__28
10
7.819500
20
-7.495000
30
34.056000
70
192
0
VERTEX
8
OBJECT__28
10
7.819500
20
-5.338000
30
34.560001
70
192
0
VERTEX
8
OBJECT__28
10
7.819500
20
-34.945000
30
1.339000
70
192
0
VERTEX
8
OBJECT__28
10
7.819500
20
-31.910999
30
-14.305000
70
192
0
VERTEX
8
OBJECT__28
10
7.819500
20
13.073000
30
-32.435001
70
192
0
VERTEX
8
OBJECT__28
10
7.819500
20
5.338000
30
34.560001
70
192
0
VERTEX
8
OBJECT__28
10
17.180500
20
0.000000
30
0.000000
70
192
0
VERTEX
8
OBJECT__28
10
0
20
0
30
0
70
128
71
1
72
2
73
3
0
VERTEX
8
OBJECT__28
10
0
20
0
30
0
70
128
71
2
72
4
73
5
0
VERTEX
8
OBJECT__28
10
0
20
0
30
0
70
128
71
4
72
6
73
7
0
VERTEX
8
OBJECT__28
10
0
20
0
30
0
70
128
71
6
72
8
73
9
0
VERTEX
8
OBJECT__28
10
0
20
0
30
0
70
128
71
8
72
10
73
11
0
VERTEX
8
OBJECT__28
10
0
20
0
30
0
70
128
71
10
72
12
73
13
0
VERTEX
8
OBJECT__28
10
0
20
0
30
0
70
128
71
12
72
14
73
15
0
VERTEX
8
OBJECT__28
10
0
20
0
30
0
70
128
71
14
72
16
73
17
0
VERTEX
8
OBJECT__28
10
0
20
0
30
0
70
128
71
16
72
18
73
19
0
VERTEX
8
OBJECT__28
10
0
20
0
30
0
70
128
71
18
72
20
73
21
0
VERTEX
8
OBJECT__28
10
0
20
0
30
0
70
128
71
20
72
22
73
23
0
VERTEX
8
OBJECT__28
10
0
20
0
30
0
70
128
71
22
72
24
73
25
0
VERTEX
8
OBJECT__28
10
0
20
0
30
0
70
128
71
24
72
26
73
27
0
VERTEX
8
OBJECT__28
10
0
20
0
30
0
70
128
71
26
72
28
73
29
0
VERTEX
8
OBJECT__28
10
0
20
0
30
0
70
128
71
28
72
30
73
31
0
VERTEX
8
OBJECT__28
10
0
20
0
30
0
70
128
71
30
72
32
73
33
0
VERTEX
8
OBJECT__28
10
0
20
0
30
0
70
128
71
32
72
34
73
35
0
VERTEX
8
OBJECT__28
10
0
20
0
30
0
70
128
71
34
72
36
73
37
0
VERTEX
8
OBJECT__28
10
0
20
0
30
0
70
128
71
36
72
38
73
39
0
VERTEX
8
OBJECT__28
10
0
20
0
30
0
70
128
71
38
72
40
73
41
0
VERTEX
8
OBJECT__28
10
0
20
0
30
0
70
128
71
40
72
42
73
43
0
VERTEX
8
OBJECT__28
10
0
20
0
30
0
70
128
71
42
72
44
73
45
0
VERTEX
8
OBJECT__28
10
0
20
0
30
0
70
128
71
44
72
46
73
47
0
VERTEX
8
OBJECT__28
10
0
20
0
30
0
70
128
71
46
72
48
73
49
0
VERTEX
8
OBJECT__28
10
0
20
0
30
0
70
128
71
48
72
50
73
51
0
VERTEX
8
OBJECT__28
10
0
20
0
30
0
70
128
71
50
72
52
73
53
0
VERTEX
8
OBJECT__28
10
0
20
0
30
0
70
128
71
52
72
54
73
55
0
VERTEX
8
OBJECT__28
10
0
20
0
30
0
70
128
71
54
72
56
73
57
0
VERTEX
8
OBJECT__28
10
0
20
0
30
0
70
128
71
56
72
58
73
59
0
VERTEX
8
OBJECT__28
10
0
20
0
30
0
70
128
71
58
72
60
73
61
0
VERTEX
8
OBJECT__28
10
0
20
0
30
0
70
128
71
60
72
62
73
63
0
VERTEX
8
OBJECT__28
10
0
20
0
30
0
70
128
71
62
72
64
73
65
0
VERTEX
8
OBJECT__28
10
0
20
0
30
0
70
128
71
64
72
66
73
67
0
VERTEX
8
OBJECT__28
10
0
20
0
30
0
70
128
71
66
72
68
73
69
0
VERTEX
8
OBJECT__28
10
0
20
0
30
0
70
128
71
68
72
70
73
71
0
VERTEX
8
OBJECT__28
10
0
20
0
30
0
70
128
71
70
72
72
73
73
0
VERTEX
8
OBJECT__28
10
0
20
0
30
0
70
128
71
72
72
74
73
75
0
VERTEX
8
OBJECT__28
10
0
20
0
30
0
70
128
71
74
72
76
73
77
0
VERTEX
8
OBJECT__28
10
0
20
0
30
0
70
128
71
76
72
78
73
79
0
VERTEX
8
OBJECT__28
10
0
20
0
30
0
70
128
71
78
72
80
73
81
0
VERTEX
8
OBJECT__28
10
0
20
0
30
0
70
128
71
80
72
1
73
82
0
VERTEX
8
OBJECT__28
10
0
20
0
30
0
70
128
71
82
72
3
73
83
0
VERTEX
8
OBJECT__28
10
0
20
0
30
0
70
128
71
3
72
5
73
84
0
VERTEX
8
OBJECT__28
10
0
20
0
30
0
70
128
71
5
72
7
73
85
0
VERTEX
8
OBJECT__28
10
0
20
0
30
0
70
128
71
7
72
9
73
86
0
VERTEX
8
OBJECT__28
10
0
20
0
30
0
70
128
71
9
72
11
73
87
0
VERTEX
8
OBJECT__28
10
0
20
0
30
0
70
128
71
11
72
13
73
88
0
VERTEX
8
OBJECT__28
10
0
20
0
30
0
70
128
71
13
72
15
73
89
0
VERTEX
8
OBJECT__28
10
0
20
0
30
0
70
128
71
15
72
17
73
90
0
VERTEX
8
OBJECT__28
10
0
20
0
30
0
70
128
71
17
72
19
73
91
0
VERTEX
8
OBJECT__28
10
0
20
0
30
0
70
128
71
19
72
21
73
92
0
VERTEX
8
OBJECT__28
10
0
20
0
30
0
70
128
71
21
72
23
73
93
0
VERTEX
8
OBJECT__28
10
0
20
0
30
0
70
128
71
23
72
25
73
94
0
VERTEX
8
OBJECT__28
10
0
20
0
30
0
70
128
71
25
72
27
73
95
0
VERTEX
8
OBJECT__28
10
0
20
0
30
0
70
128
71
27
72
29
73
96
0
VERTEX
8
OBJECT__28
10
0
20
0
30
0
70
128
71
29
72
31
73
97
0
VERTEX
8
OBJECT__28
10
0
20
0
30
0
70
128
71
31
72
33
73
98
0
VERTEX
8
OBJECT__28
10
0
20
0
30
0
70
128
71
33
72
35
73
99
0
VERTEX
8
OBJECT__28
10
0
20
0
30
0
70
128
71
35
72
37
73
100
0
VERTEX
8
OBJECT__28
10
0
20
0
30
0
70
128
71
37
72
39
73
101
0
VERTEX
8
OBJECT__28
10
0
20
0
30
0
70
128
71
39
72
41
73
102
0
VERTEX
8
OBJECT__28
10
0
20
0
30
0
70
128
71
41
72
43
73
103
0
VERTEX
8
OBJECT__28
10
0
20
0
30
0
70
128
71
43
72
45
73
104
0
VERTEX
8
OBJECT__28
10
0
20
0
30
0
70
128
71
45
72
47
73
105
0
VERTEX
8
OBJECT__28
10
0
20
0
30
0
70
128
71
47
72
49
73
106
0
VERTEX
8
OBJECT__28
10
0
20
0
30
0
70
128
71
49
72
51
73
107
0
VERTEX
8
OBJECT__28
10
0
20
0
30
0
70
128
71
51
72
53
73
108
0
VERTEX
8
OBJECT__28
10
0
20
0
30
0
70
128
71
53
72
55
73
109
0
VERTEX
8
OBJECT__28
10
0
20
0
30
0
70
128
71
55
72
57
73
110
0
VERTEX
8
OBJECT__28
10
0
20
0
30
0
70
128
71
57
72
59
73
111
0
VERTEX
8
OBJECT__28
10
0
20
0
30
0
70
128
71
59
72
61
73
112
0
VERTEX
8
OBJECT__28
10
0
20
0
30
0
70
128
71
61
72
63
73
113
0
VERTEX
8
OBJECT__28
10
0
20
0
30
0
70
128
71
63
72
65
73
114
0
VERTEX
8
OBJECT__28
10
0
20
0
30
0
70
128
71
65
72
67
73
115
0
VERTEX
8
OBJECT__28
10
0
20
0
30
0
70
128
71
67
72
69
73
116
0
VERTEX
8
OBJECT__28
10
0
20
0
30
0
70
128
71
69
72
71
73
117
0
VERTEX
8
OBJECT__28
10
0
20
0
30
0
70
128
71
71
72
73
73
118
0
VERTEX
8
OBJECT__28
10
0
20
0
30
0
70
128
71
73
72
75
73
119
0
VERTEX
8
OBJECT__28
10
0
20
0
30
0
70
128
71
75
72
77
73
120
0
VERTEX
8
OBJECT__28
10
0
20
0
30
0
70
128
71
77
72
79
73
121
0
VERTEX
8
OBJECT__28
10
0
20
0
30
0
70
128
71
79
72
81
73
122
0
VERTEX
8
OBJECT__28
10
0
20
0
30
0
70
128
71
81
72
82
73
123
0
VERTEX
8
OBJECT__28
10
0
20
0
30
0
70
128
71
123
72
83
73
124
0
VERTEX
8
OBJECT__28
10
0
20
0
30
0
70
128
71
83
72
84
73
125
0
VERTEX
8
OBJECT__28
10
0
20
0
30
0
70
128
71
84
72
85
73
126
0
VERTEX
8
OBJECT__28
10
0
20
0
30
0
70
128
71
85
72
86
73
127
0
VERTEX
8
OBJECT__28
10
0
20
0
30
0
70
128
71
86
72
87
73
128
0
VERTEX
8
OBJECT__28
10
0
20
0
30
0
70
128
71
87
72
88
73
129
0
VERTEX
8
OBJECT__28
10
0
20
0
30
0
70
128
71
88
72
89
73
130
0
VERTEX
8
OBJECT__28
10
0
20
0
30
0
70
128
71
89
72
90
73
131
0
VERTEX
8
OBJECT__28
10
0
20
0
30
0
70
128
71
90
72
91
73
132
0
VERTEX
8
OBJECT__28
10
0
20
0
30
0
70
128
71
91
72
92
73
133
0
VERTEX
8
OBJECT__28
10
0
20
0
30
0
70
128
71
92
72
93
73
134
0
VERTEX
8
OBJECT__28
10
0
20
0
30
0
70
128
71
93
72
94
73
135
0
VERTEX
8
OBJECT__28
10
0
20
0
30
0
70
128
71
94
72
95
73
136
0
VERTEX
8
OBJECT__28
10
0
20
0
30
0
70
128
71
95
72
96
73
137
0
VERTEX
8
OBJECT__28
10
0
20
0
30
0
70
128
71
96
72
97
73
138
0
VERTEX
8
OBJECT__28
10
0
20
0
30
0
70
128
71
97
72
98
73
139
0
VERTEX
8
OBJECT__28
10
0
20
0
30
0
70
128
71
98
72
99
73
140
0
VERTEX
8
OBJECT__28
10
0
20
0
30
0
70
128
71
99
72
100
73
141
0
VERTEX
8
OBJECT__28
10
0
20
0
30
0
70
128
71
100
72
101
73
142
0
VERTEX
8
OBJECT__28
10
0
20
0
30
0
70
128
71
101
72
102
73
143
0
VERTEX
8
OBJECT__28
10
0
20
0
30
0
70
128
71
102
72
103
73
144
0
VERTEX
8
OBJECT__28
10
0
20
0
30
0
70
128
71
103
72
104
73
145
0
VERTEX
8
OBJECT__28
10
0
20
0
30
0
70
128
71
104
72
105
73
146
0
VERTEX
8
OBJECT__28
10
0
20
0
30
0
70
128
71
105
72
106
73
147
0
VERTEX
8
OBJECT__28
10
0
20
0
30
0
70
128
71
106
72
107
73
148
0
VERTEX
8
OBJECT__28
10
0
20
0
30
0
70
128
71
107
72
108
73
149
0
VERTEX
8
OBJECT__28
10
0
20
0
30
0
70
128
71
108
72
109
73
150
0
VERTEX
8
OBJECT__28
10
0
20
0
30
0
70
128
71
109
72
110
73
151
0
VERTEX
8
OBJECT__28
10
0
20
0
30
0
70
128
71
110
72
111
73
152
0
VERTEX
8
OBJECT__28
10
0
20
0
30
0
70
128
71
111
72
112
73
153
0
VERTEX
8
OBJECT__28
10
0
20
0
30
0
70
128
71
112
72
113
73
154
0
VERTEX
8
OBJECT__28
10
0
20
0
30
0
70
128
71
113
72
114
73
155
0
VERTEX
8
OBJECT__28
10
0
20
0
30
0
70
128
71
114
72
115
73
156
0
VERTEX
8
OBJECT__28
10
0
20
0
30
0
70
128
71
115
72
116
73
157
0
VERTEX
8
OBJECT__28
10
0
20
0
30
0
70
128
71
116
72
117
73
158
0
VERTEX
8
OBJECT__28
10
0
20
0
30
0
70
128
71
117
72
118
73
159
0
VERTEX
8
OBJECT__28
10
0
20
0
30
0
70
128
71
118
72
119
73
160
0
VERTEX
8
OBJECT__28
10
0
20
0
30
0
70
128
71
119
72
120
73
161
0
VERTEX
8
OBJECT__28
10
0
20
0
30
0
70
128
71
120
72
121
73
162
0
VERTEX
8
OBJECT__28
10
0
20
0
30
0
70
128
71
121
72
122
73
163
0
VERTEX
8
OBJECT__28
10
0
20
0
30
0
70
128
71
122
72
123
73
164
0
VERTEX
8
OBJECT__28
10
0
20
0
30
0
70
128
71
165
72
164
73
124
0
VERTEX
8
OBJECT__28
10
0
20
0
30
0
70
128
71
125
72
166
73
167
0
VERTEX
8
OBJECT__28
10
0
20
0
30
0
70
128
71
167
72
124
73
125
0
VERTEX
8
OBJECT__28
10
0
20
0
30
0
70
128
71
168
72
166
73
125
0
VERTEX
8
OBJECT__28
10
0
20
0
30
0
70
128
71
126
72
169
73
168
0
VERTEX
8
OBJECT__28
10
0
20
0
30
0
70
128
71
170
72
169
73
126
0
VERTEX
8
OBJECT__28
10
0
20
0
30
0
70
128
71
128
72
171
73
172
0
VERTEX
8
OBJECT__28
10
0
20
0
30
0
70
128
71
172
72
127
73
128
0
VERTEX
8
OBJECT__28
10
0
20
0
30
0
70
128
71
128
72
129
73
173
0
VERTEX
8
OBJECT__28
10
0
20
0
30
0
70
128
71
129
72
174
73
173
0
VERTEX
8
OBJECT__28
10
0
20
0
30
0
70
128
71
175
72
174
73
129
0
VERTEX
8
OBJECT__28
10
0
20
0
30
0
70
128
71
176
72
130
73
131
0
VERTEX
8
OBJECT__28
10
0
20
0
30
0
70
128
71
131
72
177
73
176
0
VERTEX
8
OBJECT__28
10
0
20
0
30
0
70
128
71
132
72
178
73
179
0
VERTEX
8
OBJECT__28
10
0
20
0
30
0
70
128
71
179
72
131
73
132
0
VERTEX
8
OBJECT__28
10
0
20
0
30
0
70
128
71
180
72
178
73
132
0
VERTEX
8
OBJECT__28
10
0
20
0
30
0
70
128
71
133
72
181
73
180
0
VERTEX
8
OBJECT__28
10
0
20
0
30
0
70
128
71
182
72
181
73
133
0
VERTEX
8
OBJECT__28
10
0
20
0
30
0
70
128
71
135
72
183
73
184
0
VERTEX
8
OBJECT__28
10
0
20
0
30
0
70
128
71
184
72
134
73
135
0
VERTEX
8
OBJECT__28
10
0
20
0
30
0
70
128
71
135
72
136
73
185
0
VERTEX
8
OBJECT__28
10
0
20
0
30
0
70
128
71
136
72
186
73
185
0
VERTEX
8
OBJECT__28
10
0
20
0
30
0
70
128
71
187
72
186
73
136
0
VERTEX
8
OBJECT__28
10
0
20
0
30
0
70
128
71
188
72
137
73
138
0
VERTEX
8
OBJECT__28
10
0
20
0
30
0
70
128
71
138
72
189
73
188
0
VERTEX
8
OBJECT__28
10
0
20
0
30
0
70
128
71
138
72
139
73
190
0
VERTEX
8
OBJECT__28
10
0
20
0
30
0
70
128
71
139
72
191
73
190
0
VERTEX
8
OBJECT__28
10
0
20
0
30
0
70
128
71
192
72
191
73
139
0
VERTEX
8
OBJECT__28
10
0
20
0
30
0
70
128
71
140
72
193
73
192
0
VERTEX
8
OBJECT__28
10
0
20
0
30
0
70
128
71
193
72
140
73
141
0
VERTEX
8
OBJECT__28
10
0
20
0
30
0
70
128
71
142
72
194
73
195
0
VERTEX
8
OBJECT__28
10
0
20
0
30
0
70
128
71
195
72
141
73
142
0
VERTEX
8
OBJECT__28
10
0
20
0
30
0
70
128
71
142
72
143
73
196
0
VERTEX
8
OBJECT__28
10
0
20
0
30
0
70
128
71
143
72
197
73
196
0
VERTEX
8
OBJECT__28
10
0
20
0
30
0
70
128
71
198
72
197
73
143
0
VERTEX
8
OBJECT__28
10
0
20
0
30
0
70
128
71
145
72
199
73
200
0
VERTEX
8
OBJECT__28
10
0
20
0
30
0
70
128
71
200
72
144
73
145
0
VERTEX
8
OBJECT__28
10
0
20
0
30
0
70
128
71
145
72
146
73
201
0
VERTEX
8
OBJECT__28
10
0
20
0
30
0
70
128
71
146
72
202
73
201
0
VERTEX
8
OBJECT__28
10
0
20
0
30
0
70
128
71
203
72
202
73
146
0
VERTEX
8
OBJECT__28
10
0
20
0
30
0
70
128
71
204
72
147
73
148
0
VERTEX
8
OBJECT__28
10
0
20
0
30
0
70
128
71
148
72
205
73
204
0
VERTEX
8
OBJECT__28
10
0
20
0
30
0
70
128
71
149
72
206
73
207
0
VERTEX
8
OBJECT__28
10
0
20
0
30
0
70
128
71
207
72
148
73
149
0
VERTEX
8
OBJECT__28
10
0
20
0
30
0
70
128
71
208
72
206
73
149
0
VERTEX
8
OBJECT__28
10
0
20
0
30
0
70
128
71
150
72
209
73
208
0
VERTEX
8
OBJECT__28
10
0
20
0
30
0
70
128
71
209
72
150
73
151
0
VERTEX
8
OBJECT__28
10
0
20
0
30
0
70
128
71
152
72
210
73
211
0
VERTEX
8
OBJECT__28
10
0
20
0
30
0
70
128
71
211
72
151
73
152
0
VERTEX
8
OBJECT__28
10
0
20
0
30
0
70
128
71
152
72
153
73
212
0
VERTEX
8
OBJECT__28
10
0
20
0
30
0
70
128
71
153
72
213
73
212
0
VERTEX
8
OBJECT__28
10
0
20
0
30
0
70
128
71
213
72
153
73
154
0
VERTEX
8
OBJECT__28
10
0
20
0
30
0
70
128
71
214
72
154
73
155
0
VERTEX
8
OBJECT__28
10
0
20
0
30
0
70
128
71
155
72
215
73
214
0
VERTEX
8
OBJECT__28
10
0
20
0
30
0
70
128
71
155
72
156
73
216
0
VERTEX
8
OBJECT__28
10
0
20
0
30
0
70
128
71
156
72
217
73
216
0
VERTEX
8
OBJECT__28
10
0
20
0
30
0
70
128
71
218
72
217
73
156
0
VERTEX
8
OBJECT__28
10
0
20
0
30
0
70
128
71
157
72
219
73
218
0
VERTEX
8
OBJECT__28
10
0
20
0
30
0
70
128
71
220
72
219
73
157
0
VERTEX
8
OBJECT__28
10
0
20
0
30
0
70
128
71
159
72
221
73
222
0
VERTEX
8
OBJECT__28
10
0
20
0
30
0
70
128
71
222
72
158
73
159
0
VERTEX
8
OBJECT__28
10
0
20
0
30
0
70
128
71
159
72
160
73
223
0
VERTEX
8
OBJECT__28
10
0
20
0
30
0
70
128
71
160
72
224
73
223
0
VERTEX
8
OBJECT__28
10
0
20
0
30
0
70
128
71
225
72
224
73
160
0
VERTEX
8
OBJECT__28
10
0
20
0
30
0
70
128
71
226
72
161
73
162
0
VERTEX
8
OBJECT__28
10
0
20
0
30
0
70
128
71
162
72
227
73
226
0
VERTEX
8
OBJECT__28
10
0
20
0
30
0
70
128
71
162
72
163
73
228
0
VERTEX
8
OBJECT__28
10
0
20
0
30
0
70
128
71
163
72
229
73
228
0
VERTEX
8
OBJECT__28
10
0
20
0
30
0
70
128
71
165
72
229
73
163
0
VERTEX
8
OBJECT__28
10
0
20
0
30
0
70
128
71
163
72
164
73
165
0
VERTEX
8
OBJECT__28
10
0
20
0
30
0
70
128
71
228
72
227
73
162
0
VERTEX
8
OBJECT__28
10
0
20
0
30
0
70
128
71
226
72
225
73
161
0
VERTEX
8
OBJECT__28
10
0
20
0
30
0
70
128
71
160
72
161
73
225
0
VERTEX
8
OBJECT__28
10
0
20
0
30
0
70
128
71
223
72
221
73
159
0
VERTEX
8
OBJECT__28
10
0
20
0
30
0
70
128
71
222
72
220
73
158
0
VERTEX
8
OBJECT__28
10
0
20
0
30
0
70
128
71
157
72
158
73
220
0
VERTEX
8
OBJECT__28
10
0
20
0
30
0
70
128
71
156
72
157
73
218
0
VERTEX
8
OBJECT__28
10
0
20
0
30
0
70
128
71
216
72
215
73
155
0
VERTEX
8
OBJECT__28
10
0
20
0
30
0
70
128
71
214
72
230
73
154
0
VERTEX
8
OBJECT__28
10
0
20
0
30
0
70
128
71
154
72
230
73
213
0
VERTEX
8
OBJECT__28
10
0
20
0
30
0
70
128
71
212
72
210
73
152
0
VERTEX
8
OBJECT__28
10
0
20
0
30
0
70
128
71
211
72
231
73
151
0
VERTEX
8
OBJECT__28
10
0
20
0
30
0
70
128
71
151
72
231
73
209
0
VERTEX
8
OBJECT__28
10
0
20
0
30
0
70
128
71
149
72
150
73
208
0
VERTEX
8
OBJECT__28
10
0
20
0
30
0
70
128
71
207
72
205
73
148
0
VERTEX
8
OBJECT__28
10
0
20
0
30
0
70
128
71
204
72
203
73
147
0
VERTEX
8
OBJECT__28
10
0
20
0
30
0
70
128
71
146
72
147
73
203
0
VERTEX
8
OBJECT__28
10
0
20
0
30
0
70
128
71
201
72
199
73
145
0
VERTEX
8
OBJECT__28
10
0
20
0
30
0
70
128
71
200
72
198
73
144
0
VERTEX
8
OBJECT__28
10
0
20
0
30
0
70
128
71
143
72
144
73
198
0
VERTEX
8
OBJECT__28
10
0
20
0
30
0
70
128
71
196
72
194
73
142
0
VERTEX
8
OBJECT__28
10
0
20
0
30
0
70
128
71
195
72
232
73
141
0
VERTEX
8
OBJECT__28
10
0
20
0
30
0
70
128
71
141
72
232
73
193
0
VERTEX
8
OBJECT__28
10
0
20
0
30
0
70
128
71
139
72
140
73
192
0
VERTEX
8
OBJECT__28
10
0
20
0
30
0
70
128
71
190
72
189
73
138
0
VERTEX
8
OBJECT__28
10
0
20
0
30
0
70
128
71
188
72
187
73
137
0
VERTEX
8
OBJECT__28
10
0
20
0
30
0
70
128
71
136
72
137
73
187
0
VERTEX
8
OBJECT__28
10
0
20
0
30
0
70
128
71
185
72
183
73
135
0
VERTEX
8
OBJECT__28
10
0
20
0
30
0
70
128
71
184
72
182
73
134
0
VERTEX
8
OBJECT__28
10
0
20
0
30
0
70
128
71
133
72
134
73
182
0
VERTEX
8
OBJECT__28
10
0
20
0
30
0
70
128
71
132
72
133
73
180
0
VERTEX
8
OBJECT__28
10
0
20
0
30
0
70
128
71
179
72
177
73
131
0
VERTEX
8
OBJECT__28
10
0
20
0
30
0
70
128
71
176
72
175
73
130
0
VERTEX
8
OBJECT__28
10
0
20
0
30
0
70
128
71
129
72
130
73
175
0
VERTEX
8
OBJECT__28
10
0
20
0
30
0
70
128
71
173
72
171
73
128
0
VERTEX
8
OBJECT__28
10
0
20
0
30
0
70
128
71
172
72
170
73
127
0
VERTEX
8
OBJECT__28
10
0
20
0
30
0
70
128
71
126
72
127
73
170
0
VERTEX
8
OBJECT__28
10
0
20
0
30
0
70
128
71
125
72
126
73
168
0
VERTEX
8
OBJECT__28
10
0
20
0
30
0
70
128
71
167
72
233
73
124
0
VERTEX
8
OBJECT__28
10
0
20
0
30
0
70
128
71
124
72
233
73
165
0
VERTEX
8
OBJECT__28
10
0
20
0
30
0
70
128
71
164
72
163
73
122
0
VERTEX
8
OBJECT__28
10
0
20
0
30
0
70
128
71
163
72
162
73
121
0
VERTEX
8
OBJECT__28
10
0
20
0
30
0
70
128
71
162
72
161
73
120
0
VERTEX
8
OBJECT__28
10
0
20
0
30
0
70
128
71
161
72
160
73
119
0
VERTEX
8
OBJECT__28
10
0
20
0
30
0
70
128
71
160
72
159
73
118
0
VERTEX
8
OBJECT__28
10
0
20
0
30
0
70
128
71
159
72
158
73
117
0
VERTEX
8
OBJECT__28
10
0
20
0
30
0
70
128
71
158
72
157
73
116
0
VERTEX
8
OBJECT__28
10
0
20
0
30
0
70
128
71
157
72
156
73
115
0
VERTEX
8
OBJECT__28
10
0
20
0
30
0
70
128
71
156
72
155
73
114
0
VERTEX
8
OBJECT__28
10
0
20
0
30
0
70
128
71
155
72
154
73
113
0
VERTEX
8
OBJECT__28
10
0
20
0
30
0
70
128
71
154
72
153
73
112
0
VERTEX
8
OBJECT__28
10
0
20
0
30
0
70
128
71
153
72
152
73
111
0
VERTEX
8
OBJECT__28
10
0
20
0
30
0
70
128
71
152
72
151
73
110
0
VERTEX
8
OBJECT__28
10
0
20
0
30
0
70
128
71
151
72
150
73
109
0
VERTEX
8
OBJECT__28
10
0
20
0
30
0
70
128
71
150
72
149
73
108
0
VERTEX
8
OBJECT__28
10
0
20
0
30
0
70
128
71
149
72
148
73
107
0
VERTEX
8
OBJECT__28
10
0
20
0
30
0
70
128
71
148
72
147
73
106
0
VERTEX
8
OBJECT__28
10
0
20
0
30
0
70
128
71
147
72
146
73
105
0
VERTEX
8
OBJECT__28
10
0
20
0
30
0
70
128
71
146
72
145
73
104
0
VERTEX
8
OBJECT__28
10
0
20
0
30
0
70
128
71
145
72
144
73
103
0
VERTEX
8
OBJECT__28
10
0
20
0
30
0
70
128
71
144
72
143
73
102
0
VERTEX
8
OBJECT__28
10
0
20
0
30
0
70
128
71
143
72
142
73
101
0
VERTEX
8
OBJECT__28
10
0
20
0
30
0
70
128
71
142
72
141
73
100
0
VERTEX
8
OBJECT__28
10
0
20
0
30
0
70
128
71
141
72
140
73
99
0
VERTEX
8
OBJECT__28
10
0
20
0
30
0
70
128
71
140
72
139
73
98
0
VERTEX
8
OBJECT__28
10
0
20
0
30
0
70
128
71
139
72
138
73
97
0
VERTEX
8
OBJECT__28
10
0
20
0
30
0
70
128
71
138
72
137
73
96
0
VERTEX
8
OBJECT__28
10
0
20
0
30
0
70
128
71
137
72
136
73
95
0
VERTEX
8
OBJECT__28
10
0
20
0
30
0
70
128
71
136
72
135
73
94
0
VERTEX
8
OBJECT__28
10
0
20
0
30
0
70
128
71
135
72
134
73
93
0
VERTEX
8
OBJECT__28
10
0
20
0
30
0
70
128
71
134
72
133
73
92
0
VERTEX
8
OBJECT__28
10
0
20
0
30
0
70
128
71
133
72
132
73
91
0
VERTEX
8
OBJECT__28
10
0
20
0
30
0
70
128
71
132
72
131
73
90
0
VERTEX
8
OBJECT__28
10
0
20
0
30
0
70
128
71
131
72
130
73
89
0
VERTEX
8
OBJECT__28
10
0
20
0
30
0
70
128
71
130
72
129
73
88
0
VERTEX
8
OBJECT__28
10
0
20
0
30
0
70
128
71
129
72
128
73
87
0
VERTEX
8
OBJECT__28
10
0
20
0
30
0
70
128
71
128
72
127
73
86
0
VERTEX
8
OBJECT__28
10
0
20
0
30
0
70
128
71
127
72
126
73
85
0
VERTEX
8
OBJECT__28
10
0
20
0
30
0
70
128
71
126
72
125
73
84
0
VERTEX
8
OBJECT__28
10
0
20
0
30
0
70
128
71
125
72
124
73
83
0
VERTEX
8
OBJECT__28
10
0
20
0
30
0
70
128
71
124
72
164
73
123
0
VERTEX
8
OBJECT__28
10
0
20
0
30
0
70
128
71
123
72
122
73
81
0
VERTEX
8
OBJECT__28
10
0
20
0
30
0
70
128
71
122
72
121
73
79
0
VERTEX
8
OBJECT__28
10
0
20
0
30
0
70
128
71
121
72
120
73
77
0
VERTEX
8
OBJECT__28
10
0
20
0
30
0
70
128
71
120
72
119
73
75
0
VERTEX
8
OBJECT__28
10
0
20
0
30
0
70
128
71
119
72
118
73
73
0
VERTEX
8
OBJECT__28
10
0
20
0
30
0
70
128
71
118
72
117
73
71
0
VERTEX
8
OBJECT__28
10
0
20
0
30
0
70
128
71
117
72
116
73
69
0
VERTEX
8
OBJECT__28
10
0
20
0
30
0
70
128
71
116
72
115
73
67
0
VERTEX
8
OBJECT__28
10
0
20
0
30
0
70
128
71
115
72
114
73
65
0
VERTEX
8
OBJECT__28
10
0
20
0
30
0
70
128
71
114
72
113
73
63
0
VERTEX
8
OBJECT__28
10
0
20
0
30
0
70
128
71
113
72
112
73
61
0
VERTEX
8
OBJECT__28
10
0
20
0
30
0
70
128
71
112
72
111
73
59
0
VERTEX
8
OBJECT__28
10
0
20
0
30
0
70
128
71
111
72
110
73
57
0
VERTEX
8
OBJECT__28
10
0
20
0
30
0
70
128
71
110
72
109
73
55
0
VERTEX
8
OBJECT__28
10
0
20
0
30
0
70
128
71
109
72
108
73
53
0
VERTEX
8
OBJECT__28
10
0
20
0
30
0
70
128
71
108
72
107
73
51
0
VERTEX
8
OBJECT__28
10
0
20
0
30
0
70
128
71
107
72
106
73
49
0
VERTEX
8
OBJECT__28
10
0
20
0
30
0
70
128
71
106
72
105
73
47
0
VERTEX
8
OBJECT__28
10
0
20
0
30
0
70
128
71
105
72
104
73
45
0
VERTEX
8
OBJECT__28
10
0
20
0
30
0
70
128
71
104
72
103
73
43
0
VERTEX
8
OBJECT__28
10
0
20
0
30
0
70
128
71
103
72
102
73
41
0
VERTEX
8
OBJECT__28
10
0
20
0
30
0
70
128
71
102
72
101
73
39
0
VERTEX
8
OBJECT__28
10
0
20
0
30
0
70
128
71
101
72
100
73
37
0
VERTEX
8
OBJECT__28
10
0
20
0
30
0
70
128
71
100
72
99
73
35
0
VERTEX
8
OBJECT__28
10
0
20
0
30
0
70
128
71
99
72
98
73
33
0
VERTEX
8
OBJECT__28
10
0
20
0
30
0
70
128
71
98
72
97
73
31
0
VERTEX
8
OBJECT__28
10
0
20
0
30
0
70
128
71
97
72
96
73
29
0
VERTEX
8
OBJECT__28
10
0
20
0
30
0
70
128
71
96
72
95
73
27
0
VERTEX
8
OBJECT__28
10
0
20
0
30
0
70
128
71
95
72
94
73
25
0
VERTEX
8
OBJECT__28
10
0
20
0
30
0
70
128
71
94
72
93
73
23
0
VERTEX
8
OBJECT__28
10
0
20
0
30
0
70
128
71
93
72
92
73
21
0
VERTEX
8
OBJECT__28
10
0
20
0
30
0
70
128
71
92
72
91
73
19
0
VERTEX
8
OBJECT__28
10
0
20
0
30
0
70
128
71
91
72
90
73
17
0
VERTEX
8
OBJECT__28
10
0
20
0
30
0
70
128
71
90
72
89
73
15
0
VERTEX
8
OBJECT__28
10
0
20
0
30
0
70
128
71
89
72
88
73
13
0
VERTEX
8
OBJECT__28
10
0
20
0
30
0
70
128
71
88
72
87
73
11
0
VERTEX
8
OBJECT__28
10
0
20
0
30
0
70
128
71
87
72
86
73
9
0
VERTEX
8
OBJECT__28
10
0
20
0
30
0
70
128
71
86
72
85
73
7
0
VERTEX
8
OBJECT__28
10
0
20
0
30
0
70
128
71
85
72
84
73
5
0
VERTEX
8
OBJECT__28
10
0
20
0
30
0
70
128
71
84
72
83
73
3
0
VERTEX
8
OBJECT__28
10
0
20
0
30
0
70
128
71
83
72
123
73
82
0
VERTEX
8
OBJECT__28
10
0
20
0
30
0
70
128
71
82
72
81
73
80
0
VERTEX
8
OBJECT__28
10
0
20
0
30
0
70
128
71
81
72
79
73
78
0
VERTEX
8
OBJECT__28
10
0
20
0
30
0
70
128
71
79
72
77
73
76
0
VERTEX
8
OBJECT__28
10
0
20
0
30
0
70
128
71
77
72
75
73
74
0
VERTEX
8
OBJECT__28
10
0
20
0
30
0
70
128
71
75
72
73
73
72
0
VERTEX
8
OBJECT__28
10
0
20
0
30
0
70
128
71
73
72
71
73
70
0
VERTEX
8
OBJECT__28
10
0
20
0
30
0
70
128
71
71
72
69
73
68
0
VERTEX
8
OBJECT__28
10
0
20
0
30
0
70
128
71
69
72
67
73
66
0
VERTEX
8
OBJECT__28
10
0
20
0
30
0
70
128
71
67
72
65
73
64
0
VERTEX
8
OBJECT__28
10
0
20
0
30
0
70
128
71
65
72
63
73
62
0
VERTEX
8
OBJECT__28
10
0
20
0
30
0
70
128
71
63
72
61
73
60
0
VERTEX
8
OBJECT__28
10
0
20
0
30
0
70
128
71
61
72
59
73
58
0
VERTEX
8
OBJECT__28
10
0
20
0
30
0
70
128
71
59
72
57
73
56
0
VERTEX
8
OBJECT__28
10
0
20
0
30
0
70
128
71
57
72
55
73
54
0
VERTEX
8
OBJECT__28
10
0
20
0
30
0
70
128
71
55
72
53
73
52
0
VERTEX
8
OBJECT__28
10
0
20
0
30
0
70
128
71
53
72
51
73
50
0
VERTEX
8
OBJECT__28
10
0
20
0
30
0
70
128
71
51
72
49
73
48
0
VERTEX
8
OBJECT__28
10
0
20
0
30
0
70
128
71
49
72
47
73
46
0
VERTEX
8
OBJECT__28
10
0
20
0
30
0
70
128
71
47
72
45
73
44
0
VERTEX
8
OBJECT__28
10
0
20
0
30
0
70
128
71
45
72
43
73
42
0
VERTEX
8
OBJECT__28
10
0
20
0
30
0
70
128
71
43
72
41
73
40
0
VERTEX
8
OBJECT__28
10
0
20
0
30
0
70
128
71
41
72
39
73
38
0
VERTEX
8
OBJECT__28
10
0
20
0
30
0
70
128
71
39
72
37
73
36
0
VERTEX
8
OBJECT__28
10
0
20
0
30
0
70
128
71
37
72
35
73
34
0
VERTEX
8
OBJECT__28
10
0
20
0
30
0
70
128
71
35
72
33
73
32
0
VERTEX
8
OBJECT__28
10
0
20
0
30
0
70
128
71
33
72
31
73
30
0
VERTEX
8
OBJECT__28
10
0
20
0
30
0
70
128
71
31
72
29
73
28
0
VERTEX
8
OBJECT__28
10
0
20
0
30
0
70
128
71
29
72
27
73
26
0
VERTEX
8
OBJECT__28
10
0
20
0
30
0
70
128
71
27
72
25
73
24
0
VERTEX
8
OBJECT__28
10
0
20
0
30
0
70
128
71
25
72
23
73
22
0
VERTEX
8
OBJECT__28
10
0
20
0
30
0
70
128
71
23
72
21
73
20
0
VERTEX
8
OBJECT__28
10
0
20
0
30
0
70
128
71
21
72
19
73
18
0
VERTEX
8
OBJECT__28
10
0
20
0
30
0
70
128
71
19
72
17
73
16
0
VERTEX
8
OBJECT__28
10
0
20
0
30
0
70
128
71
17
72
15
73
14
0
VERTEX
8
OBJECT__28
10
0
20
0
30
0
70
128
71
15
72
13
73
12
0
VERTEX
8
OBJECT__28
10
0
20
0
30
0
70
128
71
13
72
11
73
10
0
VERTEX
8
OBJECT__28
10
0
20
0
30
0
70
128
71
11
72
9
73
8
0
VERTEX
8
OBJECT__28
10
0
20
0
30
0
70
128
71
9
72
7
73
6
0
VERTEX
8
OBJECT__28
10
0
20
0
30
0
70
128
71
7
72
5
73
4
0
VERTEX
8
OBJECT__28
10
0
20
0
30
0
70
128
71
5
72
3
73
2
0
VERTEX
8
OBJECT__28
10
0
20
0
30
0
70
128
71
3
72
82
73
1
0
VERTEX
8
OBJECT__28
10
0
20
0
30
0
70
128
71
1
72
80
73
234
0
VERTEX
8
OBJECT__28
10
0
20
0
30
0
70
128
71
80
72
78
73
234
0
VERTEX
8
OBJECT__28
10
0
20
0
30
0
70
128
71
78
72
76
73
234
0
VERTEX
8
OBJECT__28
10
0
20
0
30
0
70
128
71
76
72
74
73
234
0
VERTEX
8
OBJECT__28
10
0
20
0
30
0
70
128
71
74
72
72
73
234
0
VERTEX
8
OBJECT__28
10
0
20
0
30
0
70
128
71
72
72
70
73
234
0
VERTEX
8
OBJECT__28
10
0
20
0
30
0
70
128
71
70
72
68
73
234
0
VERTEX
8
OBJECT__28
10
0
20
0
30
0
70
128
71
68
72
66
73
234
0
VERTEX
8
OBJECT__28
10
0
20
0
30
0
70
128
71
66
72
64
73
234
0
VERTEX
8
OBJECT__28
10
0
20
0
30
0
70
128
71
64
72
62
73
234
0
VERTEX
8
OBJECT__28
10
0
20
0
30
0
70
128
71
62
72
60
73
234
0
VERTEX
8
OBJECT__28
10
0
20
0
30
0
70
128
71
60
72
58
73
234
0
VERTEX
8
OBJECT__28
10
0
20
0
30
0
70
128
71
58
72
56
73
234
0
VERTEX
8
OBJECT__28
10
0
20
0
30
0
70
128
71
56
72
54
73
234
0
VERTEX
8
OBJECT__28
10
0
20
0
30
0
70
128
71
54
72
52
73
234
0
VERTEX
8
OBJECT__28
10
0
20
0
30
0
70
128
71
52
72
50
73
234
0
VERTEX
8
OBJECT__28
10
0
20
0
30
0
70
128
71
50
72
48
73
234
0
VERTEX
8
OBJECT__28
10
0
20
0
30
0
70
128
71
48
72
46
73
234
0
VERTEX
8
OBJECT__28
10
0
20
0
30
0
70
128
71
46
72
44
73
234
0
VERTEX
8
OBJECT__28
10
0
20
0
30
0
70
128
71
44
72
42
73
234
0
VERTEX
8
OBJECT__28
10
0
20
0
30
0
70
128
71
42
72
40
73
234
0
VERTEX
8
OBJECT__28
10
0
20
0
30
0
70
128
71
40
72
38
73
234
0
VERTEX
8
OBJECT__28
10
0
20
0
30
0
70
128
71
38
72
36
73
234
0
VERTEX
8
OBJECT__28
10
0
20
0
30
0
70
128
71
36
72
34
73
234
0
VERTEX
8
OBJECT__28
10
0
20
0
30
0
70
128
71
34
72
32
73
234
0
VERTEX
8
OBJECT__28
10
0
20
0
30
0
70
128
71
32
72
30
73
234
0
VERTEX
8
OBJECT__28
10
0
20
0
30
0
70
128
71
30
72
28
73
234
0
VERTEX
8
OBJECT__28
10
0
20
0
30
0
70
128
71
28
72
26
73
234
0
VERTEX
8
OBJECT__28
10
0
20
0
30
0
70
128
71
26
72
24
73
234
0
VERTEX
8
OBJECT__28
10
0
20
0
30
0
70
128
71
24
72
22
73
234
0
VERTEX
8
OBJECT__28
10
0
20
0
30
0
70
128
71
22
72
20
73
234
0
VERTEX
8
OBJECT__28
10
0
20
0
30
0
70
128
71
20
72
18
73
234
0
VERTEX
8
OBJECT__28
10
0
20
0
30
0
70
128
71
18
72
16
73
234
0
VERTEX
8
OBJECT__28
10
0
20
0
30
0
70
128
71
16
72
14
73
234
0
VERTEX
8
OBJECT__28
10
0
20
0
30
0
70
128
71
14
72
12
73
234
0
VERTEX
8
OBJECT__28
10
0
20
0
30
0
70
128
71
12
72
10
73
234
0
VERTEX
8
OBJECT__28
10
0
20
0
30
0
70
128
71
10
72
8
73
234
0
VERTEX
8
OBJECT__28
10
0
20
0
30
0
70
128
71
8
72
6
73
234
0
VERTEX
8
OBJECT__28
10
0
20
0
30
0
70
128
71
6
72
4
73
234
0
VERTEX
8
OBJECT__28
10
0
20
0
30
0
70
128
71
4
72
2
73
234
0
VERTEX
8
OBJECT__28
10
0
20
0
30
0
70
128
71
2
72
1
73
234
0
SEQEND
8
OBJECT__28
0
ENDSEC
0
EOF
