999
Converted by 3D Exploration 
999
XDimension Software, LLC
999
http://www.xdsoft.com/explorer/
0
SECTION
2
HEADER
9
$ACADVER
1
AC1008
9
$UCSORG
10
0.0
20
0.0
30
0.0
9
$UCSXDIR
10
1.0
20
0.0
30
0.0
9
$TILEMODE
70
1
9
$UCSYDIR
10
0.0
20
1.0
30
0.0
9
$EXTMIN
10
-23.962999
20
-23.962999
30
-23.962999
9
$EXTMAX
10
23.962999
20
23.962999
30
42.500000
0
ENDSEC
0
SECTION
2
TABLES
0
TABLE
2
LTYPE
70
1
0
LTYPE
2
CONTINUOUS
70
64
3
Solid line
72
65
73
0
40
0.0
0
ENDTAB
0
TABLE
2
LAYER
70
28
0
LAYER
2
OBJECT__0
70
0
62
253
6
CONTINUOUS
0
LAYER
2
OBJECT__1
70
0
62
253
6
CONTINUOUS
0
LAYER
2
OBJECT__3
70
0
62
253
6
CONTINUOUS
0
LAYER
2
OBJECT__4
70
0
62
253
6
CONTINUOUS
0
LAYER
2
OBJECT__5
70
0
62
253
6
CONTINUOUS
0
LAYER
2
OBJECT__6
70
0
62
253
6
CONTINUOUS
0
LAYER
2
OBJECT__7
70
0
62
253
6
CONTINUOUS
0
LAYER
2
OBJECT__8
70
0
62
253
6
CONTINUOUS
0
LAYER
2
OBJECT__9
70
0
62
253
6
CONTINUOUS
0
LAYER
2
OBJECT__10
70
0
62
253
6
CONTINUOUS
0
LAYER
2
OBJECT__11
70
0
62
253
6
CONTINUOUS
0
LAYER
2
OBJECT__12
70
0
62
253
6
CONTINUOUS
0
LAYER
2
OBJECT__13
70
0
62
253
6
CONTINUOUS
0
LAYER
2
OBJECT__14
70
0
62
253
6
CONTINUOUS
0
LAYER
2
OBJECT__15
70
0
62
253
6
CONTINUOUS
0
LAYER
2
OBJECT__16
70
0
62
253
6
CONTINUOUS
0
LAYER
2
OBJECT__17
70
0
62
253
6
CONTINUOUS
0
LAYER
2
OBJECT__18
70
0
62
253
6
CONTINUOUS
0
LAYER
2
OBJECT__19
70
0
62
253
6
CONTINUOUS
0
LAYER
2
OBJECT__20
70
0
62
253
6
CONTINUOUS
0
LAYER
2
OBJECT__21
70
0
62
253
6
CONTINUOUS
0
LAYER
2
OBJECT__22
70
0
62
253
6
CONTINUOUS
0
LAYER
2
OBJECT__23
70
0
62
253
6
CONTINUOUS
0
LAYER
2
OBJECT__24
70
0
62
253
6
CONTINUOUS
0
LAYER
2
OBJECT__25
70
0
62
253
6
CONTINUOUS
0
LAYER
2
OBJECT__26
70
0
62
253
6
CONTINUOUS
0
LAYER
2
OBJECT__27
70
0
62
253
6
CONTINUOUS
0
ENDTAB
0
TABLE
2
STYLE
70
1
0
STYLE
2
STANDARD
70
0
40
0.0
41
1.0
50
0.0
71
0
42
0.2
3
txt
4
1
0
ENDTAB
0
TABLE
2
UCS
70
0
0
ENDTAB
0
ENDSEC
0
SECTION
2
ENTITIES
0
POLYLINE
8
OBJECT__0
66
1
70
64
71
31
72
29
62
253
0
VERTEX
8
OBJECT__0
10
16.853001
20
14.467000
30
-42.500000
70
192
0
VERTEX
8
OBJECT__0
10
5.567000
20
21.502001
30
-42.500000
70
192
0
VERTEX
8
OBJECT__0
10
9.781000
20
19.941000
30
-42.500000
70
192
0
VERTEX
8
OBJECT__0
10
1.125000
20
22.181999
30
-42.500000
70
192
0
VERTEX
8
OBJECT__0
10
-3.363000
20
-21.955000
30
-42.500000
70
192
0
VERTEX
8
OBJECT__0
10
-22.211000
20
0.000000
30
-42.500000
70
192
0
VERTEX
8
OBJECT__0
10
-21.756001
20
4.471000
30
-42.500000
70
192
0
VERTEX
8
OBJECT__0
10
-20.410999
20
-8.759000
30
-42.500000
70
192
0
VERTEX
8
OBJECT__0
10
-21.756001
20
-4.471000
30
-42.500000
70
192
0
VERTEX
8
OBJECT__0
10
-15.302000
20
-16.098000
30
-42.500000
70
192
0
VERTEX
8
OBJECT__0
10
-18.230000
20
-12.688000
30
-42.500000
70
192
0
VERTEX
8
OBJECT__0
10
-7.714000
20
-20.827999
30
-42.500000
70
192
0
VERTEX
8
OBJECT__0
10
-20.410999
20
8.759000
30
-42.500000
70
192
0
VERTEX
8
OBJECT__0
10
5.567000
20
-21.502001
30
-42.500000
70
192
0
VERTEX
8
OBJECT__0
10
1.125000
20
-22.181999
30
-42.500000
70
192
0
VERTEX
8
OBJECT__0
10
13.595000
20
-17.563999
30
-42.500000
70
192
0
VERTEX
8
OBJECT__0
10
9.781000
20
-19.941000
30
-42.500000
70
192
0
VERTEX
8
OBJECT__0
10
-3.363000
20
21.955000
30
-42.500000
70
192
0
VERTEX
8
OBJECT__0
10
22.097000
20
-2.247000
30
-42.500000
70
192
0
VERTEX
8
OBJECT__0
10
21.191999
20
-6.649000
30
-42.500000
70
192
0
VERTEX
8
OBJECT__0
10
21.191999
20
6.649000
30
-42.500000
70
192
0
VERTEX
8
OBJECT__0
10
22.097000
20
2.247000
30
-42.500000
70
192
0
VERTEX
8
OBJECT__0
10
19.420000
20
10.779000
30
-42.500000
70
192
0
VERTEX
8
OBJECT__0
10
19.420000
20
-10.779000
30
-42.500000
70
192
0
VERTEX
8
OBJECT__0
10
-18.230000
20
12.688000
30
-42.500000
70
192
0
VERTEX
8
OBJECT__0
10
-15.302000
20
16.098000
30
-42.500000
70
192
0
VERTEX
8
OBJECT__0
10
-11.749000
20
-18.849001
30
-42.500000
70
192
0
VERTEX
8
OBJECT__0
10
16.853001
20
-14.467000
30
-42.500000
70
192
0
VERTEX
8
OBJECT__0
10
13.595000
20
17.563999
30
-42.500000
70
192
0
VERTEX
8
OBJECT__0
10
-11.749000
20
18.849001
30
-42.500000
70
192
0
VERTEX
8
OBJECT__0
10
-7.714000
20
20.827999
30
-42.500000
70
192
0
VERTEX
8
OBJECT__0
10
0
20
0
30
0
70
128
71
1
72
2
73
3
0
VERTEX
8
OBJECT__0
10
0
20
0
30
0
70
128
71
1
72
4
73
2
0
VERTEX
8
OBJECT__0
10
0
20
0
30
0
70
128
71
5
72
6
73
7
0
VERTEX
8
OBJECT__0
10
0
20
0
30
0
70
128
71
5
72
8
73
9
0
VERTEX
8
OBJECT__0
10
0
20
0
30
0
70
128
71
5
72
10
73
11
0
VERTEX
8
OBJECT__0
10
0
20
0
30
0
70
128
71
10
72
5
73
12
0
VERTEX
8
OBJECT__0
10
0
20
0
30
0
70
128
71
13
72
14
73
15
0
VERTEX
8
OBJECT__0
10
0
20
0
30
0
70
128
71
13
72
16
73
17
0
VERTEX
8
OBJECT__0
10
0
20
0
30
0
70
128
71
18
72
19
73
20
0
VERTEX
8
OBJECT__0
10
0
20
0
30
0
70
128
71
18
72
21
73
22
0
VERTEX
8
OBJECT__0
10
0
20
0
30
0
70
128
71
18
72
1
73
23
0
VERTEX
8
OBJECT__0
10
0
20
0
30
0
70
128
71
1
72
18
73
4
0
VERTEX
8
OBJECT__0
10
0
20
0
30
0
70
128
71
24
72
25
73
26
0
VERTEX
8
OBJECT__0
10
0
20
0
30
0
70
128
71
9
72
6
73
5
0
VERTEX
8
OBJECT__0
10
0
20
0
30
0
70
128
71
12
72
27
73
10
0
VERTEX
8
OBJECT__0
10
0
20
0
30
0
70
128
71
17
72
14
73
13
0
VERTEX
8
OBJECT__0
10
0
20
0
30
0
70
128
71
13
72
24
73
28
0
VERTEX
8
OBJECT__0
10
0
20
0
30
0
70
128
71
22
72
19
73
18
0
VERTEX
8
OBJECT__0
10
0
20
0
30
0
70
128
71
3
72
29
73
1
0
VERTEX
8
OBJECT__0
10
0
20
0
30
0
70
128
71
24
72
30
73
31
0
VERTEX
8
OBJECT__0
10
0
20
0
30
0
70
128
71
24
72
13
73
25
0
VERTEX
8
OBJECT__0
10
0
20
0
30
0
70
128
71
11
72
8
73
5
0
VERTEX
8
OBJECT__0
10
0
20
0
30
0
70
128
71
28
72
16
73
13
0
VERTEX
8
OBJECT__0
10
0
20
0
30
0
70
128
71
23
72
21
73
18
0
VERTEX
8
OBJECT__0
10
0
20
0
30
0
70
128
71
26
72
30
73
24
0
VERTEX
8
OBJECT__0
10
0
20
0
30
0
70
128
71
15
72
5
73
13
0
VERTEX
8
OBJECT__0
10
0
20
0
30
0
70
128
71
31
72
18
73
24
0
VERTEX
8
OBJECT__0
10
0
20
0
30
0
70
128
71
20
72
24
73
18
0
VERTEX
8
OBJECT__0
10
0
20
0
30
0
70
128
71
7
72
13
73
5
0
SEQEND
8
OBJECT__0
0
POLYLINE
8
OBJECT__1
66
1
70
64
71
85
72
85
62
253
0
VERTEX
8
OBJECT__1
10
-22.211000
20
0.000000
30
-42.500000
70
192
0
VERTEX
8
OBJECT__1
10
-22.604000
20
0.000000
30
-42.172001
70
192
0
VERTEX
8
OBJECT__1
10
-22.292000
20
3.068000
30
-42.172001
70
192
0
VERTEX
8
OBJECT__1
10
-21.756001
20
4.471000
30
-42.500000
70
192
0
VERTEX
8
OBJECT__1
10
-20.771999
20
8.914000
30
-42.172001
70
192
0
VERTEX
8
OBJECT__1
10
-20.410999
20
8.759000
30
-42.500000
70
192
0
VERTEX
8
OBJECT__1
10
-18.230000
20
12.688000
30
-42.500000
70
192
0
VERTEX
8
OBJECT__1
10
-20.724001
20
9.001000
30
-42.172001
70
192
0
VERTEX
8
OBJECT__1
10
-15.302000
20
16.098000
30
-42.500000
70
192
0
VERTEX
8
OBJECT__1
10
-17.452000
20
14.195000
30
-42.172001
70
192
0
VERTEX
8
OBJECT__1
10
-18.552999
20
12.913000
30
-42.172001
70
192
0
VERTEX
8
OBJECT__1
10
-15.574000
20
16.382999
30
-42.172001
70
192
0
VERTEX
8
OBJECT__1
10
-12.978000
20
18.393000
30
-42.172001
70
192
0
VERTEX
8
OBJECT__1
10
-11.749000
20
18.849001
30
-42.500000
70
192
0
VERTEX
8
OBJECT__1
10
-7.851000
20
21.197001
30
-42.172001
70
192
0
VERTEX
8
OBJECT__1
10
-7.714000
20
20.827999
30
-42.500000
70
192
0
VERTEX
8
OBJECT__1
10
-3.363000
20
21.955000
30
-42.500000
70
192
0
VERTEX
8
OBJECT__1
10
-7.563000
20
21.271999
30
-42.172001
70
192
0
VERTEX
8
OBJECT__1
10
1.125000
20
22.181999
30
-42.500000
70
192
0
VERTEX
8
OBJECT__1
10
-1.537000
20
22.438999
30
-42.172001
70
192
0
VERTEX
8
OBJECT__1
10
-3.423000
20
22.344000
30
-42.172001
70
192
0
VERTEX
8
OBJECT__1
10
1.145000
20
22.575001
30
-42.172001
70
192
0
VERTEX
8
OBJECT__1
10
4.586000
20
22.048000
30
-42.172001
70
192
0
VERTEX
8
OBJECT__1
10
5.567000
20
21.502001
30
-42.500000
70
192
0
VERTEX
8
OBJECT__1
10
9.955000
20
20.294001
30
-42.172001
70
192
0
VERTEX
8
OBJECT__1
10
9.781000
20
19.941000
30
-42.500000
70
192
0
VERTEX
8
OBJECT__1
10
13.595000
20
17.563999
30
-42.500000
70
192
0
VERTEX
8
OBJECT__1
10
10.376000
20
20.032000
30
-42.172001
70
192
0
VERTEX
8
OBJECT__1
10
16.853001
20
14.467000
30
-42.500000
70
192
0
VERTEX
8
OBJECT__1
10
15.349000
20
16.437000
30
-42.172001
70
192
0
VERTEX
8
OBJECT__1
10
13.836000
20
17.875000
30
-42.172001
70
192
0
VERTEX
8
OBJECT__1
10
17.150999
20
14.724000
30
-42.172001
70
192
0
VERTEX
8
OBJECT__1
10
19.254000
20
11.703000
30
-42.172001
70
192
0
VERTEX
8
OBJECT__1
10
19.420000
20
10.779000
30
-42.500000
70
192
0
VERTEX
8
OBJECT__1
10
21.568001
20
6.767000
30
-42.172001
70
192
0
VERTEX
8
OBJECT__1
10
21.191999
20
6.649000
30
-42.500000
70
192
0
VERTEX
8
OBJECT__1
10
22.097000
20
2.247000
30
-42.500000
70
192
0
VERTEX
8
OBJECT__1
10
21.707001
20
6.086000
30
-42.172001
70
192
0
VERTEX
8
OBJECT__1
10
22.488001
20
2.287000
30
-42.172001
70
192
0
VERTEX
8
OBJECT__1
10
22.488001
20
0.000000
30
-42.172001
70
192
0
VERTEX
8
OBJECT__1
10
22.097000
20
-2.247000
30
-42.500000
70
192
0
VERTEX
8
OBJECT__1
10
22.488001
20
-2.287000
30
-42.172001
70
192
0
VERTEX
8
OBJECT__1
10
21.707001
20
-6.086000
30
-42.172001
70
192
0
VERTEX
8
OBJECT__1
10
21.191999
20
-6.649000
30
-42.500000
70
192
0
VERTEX
8
OBJECT__1
10
19.764000
20
-10.970000
30
-42.172001
70
192
0
VERTEX
8
OBJECT__1
10
19.420000
20
-10.779000
30
-42.500000
70
192
0
VERTEX
8
OBJECT__1
10
16.853001
20
-14.467000
30
-42.500000
70
192
0
VERTEX
8
OBJECT__1
10
19.254000
20
-11.703000
30
-42.172001
70
192
0
VERTEX
8
OBJECT__1
10
17.150999
20
-14.724000
30
-42.172001
70
192
0
VERTEX
8
OBJECT__1
10
15.349000
20
-16.437000
30
-42.172001
70
192
0
VERTEX
8
OBJECT__1
10
13.595000
20
-17.563999
30
-42.500000
70
192
0
VERTEX
8
OBJECT__1
10
13.836000
20
-17.875000
30
-42.172001
70
192
0
VERTEX
8
OBJECT__1
10
10.376000
20
-20.032000
30
-42.172001
70
192
0
VERTEX
8
OBJECT__1
10
9.781000
20
-19.941000
30
-42.500000
70
192
0
VERTEX
8
OBJECT__1
10
9.955000
20
-20.294001
30
-42.172001
70
192
0
VERTEX
8
OBJECT__1
10
5.666000
20
-21.882999
30
-42.172001
70
192
0
VERTEX
8
OBJECT__1
10
5.567000
20
-21.502001
30
-42.500000
70
192
0
VERTEX
8
OBJECT__1
10
1.125000
20
-22.181999
30
-42.500000
70
192
0
VERTEX
8
OBJECT__1
10
4.586000
20
-22.048000
30
-42.172001
70
192
0
VERTEX
8
OBJECT__1
10
1.145000
20
-22.575001
30
-42.172001
70
192
0
VERTEX
8
OBJECT__1
10
-1.537000
20
-22.438999
30
-42.172001
70
192
0
VERTEX
8
OBJECT__1
10
-3.363000
20
-21.955000
30
-42.500000
70
192
0
VERTEX
8
OBJECT__1
10
-3.423000
20
-22.344000
30
-42.172001
70
192
0
VERTEX
8
OBJECT__1
10
-7.563000
20
-21.271999
30
-42.172001
70
192
0
VERTEX
8
OBJECT__1
10
-7.714000
20
-20.827999
30
-42.500000
70
192
0
VERTEX
8
OBJECT__1
10
-7.851000
20
-21.197001
30
-42.172001
70
192
0
VERTEX
8
OBJECT__1
10
-11.957000
20
-19.183001
30
-42.172001
70
192
0
VERTEX
8
OBJECT__1
10
-11.749000
20
-18.849001
30
-42.500000
70
192
0
VERTEX
8
OBJECT__1
10
-15.302000
20
-16.098000
30
-42.500000
70
192
0
VERTEX
8
OBJECT__1
10
-12.978000
20
-18.393000
30
-42.172001
70
192
0
VERTEX
8
OBJECT__1
10
-15.574000
20
-16.382999
30
-42.172001
70
192
0
VERTEX
8
OBJECT__1
10
-17.452000
20
-14.195000
30
-42.172001
70
192
0
VERTEX
8
OBJECT__1
10
-18.230000
20
-12.688000
30
-42.500000
70
192
0
VERTEX
8
OBJECT__1
10
-18.552999
20
-12.913000
30
-42.172001
70
192
0
VERTEX
8
OBJECT__1
10
-20.724001
20
-9.001000
30
-42.172001
70
192
0
VERTEX
8
OBJECT__1
10
-20.410999
20
-8.759000
30
-42.500000
70
192
0
VERTEX
8
OBJECT__1
10
-20.771999
20
-8.914000
30
-42.172001
70
192
0
VERTEX
8
OBJECT__1
10
-22.141001
20
-4.550000
30
-42.172001
70
192
0
VERTEX
8
OBJECT__1
10
-21.756001
20
-4.471000
30
-42.500000
70
192
0
VERTEX
8
OBJECT__1
10
-22.292000
20
-3.068000
30
-42.172001
70
192
0
VERTEX
8
OBJECT__1
10
21.568001
20
-6.767000
30
-42.172001
70
192
0
VERTEX
8
OBJECT__1
10
19.764000
20
10.970000
30
-42.172001
70
192
0
VERTEX
8
OBJECT__1
10
5.666000
20
21.882999
30
-42.172001
70
192
0
VERTEX
8
OBJECT__1
10
-11.957000
20
19.183001
30
-42.172001
70
192
0
VERTEX
8
OBJECT__1
10
-22.141001
20
4.550000
30
-42.172001
70
192
0
VERTEX
8
OBJECT__1
10
0
20
0
30
0
70
128
71
1
72
2
73
3
0
VERTEX
8
OBJECT__1
10
0
20
0
30
0
70
128
71
3
72
4
73
1
0
VERTEX
8
OBJECT__1
10
0
20
0
30
0
70
128
71
5
72
6
73
4
0
VERTEX
8
OBJECT__1
10
0
20
0
30
0
70
128
71
7
72
6
73
8
0
VERTEX
8
OBJECT__1
10
0
20
0
30
0
70
128
71
6
72
5
73
8
0
VERTEX
8
OBJECT__1
10
0
20
0
30
0
70
128
71
9
72
7
73
10
0
VERTEX
8
OBJECT__1
10
0
20
0
30
0
70
128
71
7
72
11
73
10
0
VERTEX
8
OBJECT__1
10
0
20
0
30
0
70
128
71
9
72
12
73
13
0
VERTEX
8
OBJECT__1
10
0
20
0
30
0
70
128
71
13
72
14
73
9
0
VERTEX
8
OBJECT__1
10
0
20
0
30
0
70
128
71
15
72
16
73
14
0
VERTEX
8
OBJECT__1
10
0
20
0
30
0
70
128
71
17
72
16
73
18
0
VERTEX
8
OBJECT__1
10
0
20
0
30
0
70
128
71
16
72
15
73
18
0
VERTEX
8
OBJECT__1
10
0
20
0
30
0
70
128
71
19
72
17
73
20
0
VERTEX
8
OBJECT__1
10
0
20
0
30
0
70
128
71
17
72
21
73
20
0
VERTEX
8
OBJECT__1
10
0
20
0
30
0
70
128
71
19
72
22
73
23
0
VERTEX
8
OBJECT__1
10
0
20
0
30
0
70
128
71
23
72
24
73
19
0
VERTEX
8
OBJECT__1
10
0
20
0
30
0
70
128
71
25
72
26
73
24
0
VERTEX
8
OBJECT__1
10
0
20
0
30
0
70
128
71
27
72
26
73
28
0
VERTEX
8
OBJECT__1
10
0
20
0
30
0
70
128
71
26
72
25
73
28
0
VERTEX
8
OBJECT__1
10
0
20
0
30
0
70
128
71
29
72
27
73
30
0
VERTEX
8
OBJECT__1
10
0
20
0
30
0
70
128
71
27
72
31
73
30
0
VERTEX
8
OBJECT__1
10
0
20
0
30
0
70
128
71
29
72
32
73
33
0
VERTEX
8
OBJECT__1
10
0
20
0
30
0
70
128
71
33
72
34
73
29
0
VERTEX
8
OBJECT__1
10
0
20
0
30
0
70
128
71
35
72
36
73
34
0
VERTEX
8
OBJECT__1
10
0
20
0
30
0
70
128
71
37
72
36
73
38
0
VERTEX
8
OBJECT__1
10
0
20
0
30
0
70
128
71
36
72
35
73
38
0
VERTEX
8
OBJECT__1
10
0
20
0
30
0
70
128
71
37
72
39
73
40
0
VERTEX
8
OBJECT__1
10
0
20
0
30
0
70
128
71
40
72
41
73
37
0
VERTEX
8
OBJECT__1
10
0
20
0
30
0
70
128
71
41
72
42
73
43
0
VERTEX
8
OBJECT__1
10
0
20
0
30
0
70
128
71
43
72
44
73
41
0
VERTEX
8
OBJECT__1
10
0
20
0
30
0
70
128
71
45
72
46
73
44
0
VERTEX
8
OBJECT__1
10
0
20
0
30
0
70
128
71
47
72
46
73
48
0
VERTEX
8
OBJECT__1
10
0
20
0
30
0
70
128
71
46
72
45
73
48
0
VERTEX
8
OBJECT__1
10
0
20
0
30
0
70
128
71
47
72
49
73
50
0
VERTEX
8
OBJECT__1
10
0
20
0
30
0
70
128
71
50
72
51
73
47
0
VERTEX
8
OBJECT__1
10
0
20
0
30
0
70
128
71
51
72
52
73
53
0
VERTEX
8
OBJECT__1
10
0
20
0
30
0
70
128
71
53
72
54
73
51
0
VERTEX
8
OBJECT__1
10
0
20
0
30
0
70
128
71
55
72
56
73
57
0
VERTEX
8
OBJECT__1
10
0
20
0
30
0
70
128
71
58
72
57
73
59
0
VERTEX
8
OBJECT__1
10
0
20
0
30
0
70
128
71
57
72
56
73
59
0
VERTEX
8
OBJECT__1
10
0
20
0
30
0
70
128
71
58
72
60
73
61
0
VERTEX
8
OBJECT__1
10
0
20
0
30
0
70
128
71
61
72
62
73
58
0
VERTEX
8
OBJECT__1
10
0
20
0
30
0
70
128
71
62
72
63
73
64
0
VERTEX
8
OBJECT__1
10
0
20
0
30
0
70
128
71
64
72
65
73
62
0
VERTEX
8
OBJECT__1
10
0
20
0
30
0
70
128
71
66
72
67
73
68
0
VERTEX
8
OBJECT__1
10
0
20
0
30
0
70
128
71
69
72
68
73
70
0
VERTEX
8
OBJECT__1
10
0
20
0
30
0
70
128
71
68
72
67
73
70
0
VERTEX
8
OBJECT__1
10
0
20
0
30
0
70
128
71
69
72
71
73
72
0
VERTEX
8
OBJECT__1
10
0
20
0
30
0
70
128
71
72
72
73
73
69
0
VERTEX
8
OBJECT__1
10
0
20
0
30
0
70
128
71
73
72
74
73
75
0
VERTEX
8
OBJECT__1
10
0
20
0
30
0
70
128
71
75
72
76
73
73
0
VERTEX
8
OBJECT__1
10
0
20
0
30
0
70
128
71
77
72
78
73
79
0
VERTEX
8
OBJECT__1
10
0
20
0
30
0
70
128
71
1
72
79
73
80
0
VERTEX
8
OBJECT__1
10
0
20
0
30
0
70
128
71
79
72
78
73
80
0
VERTEX
8
OBJECT__1
10
0
20
0
30
0
70
128
71
80
72
2
73
1
0
VERTEX
8
OBJECT__1
10
0
20
0
30
0
70
128
71
79
72
76
73
77
0
VERTEX
8
OBJECT__1
10
0
20
0
30
0
70
128
71
75
72
77
73
76
0
VERTEX
8
OBJECT__1
10
0
20
0
30
0
70
128
71
72
72
74
73
73
0
VERTEX
8
OBJECT__1
10
0
20
0
30
0
70
128
71
70
72
71
73
69
0
VERTEX
8
OBJECT__1
10
0
20
0
30
0
70
128
71
68
72
65
73
66
0
VERTEX
8
OBJECT__1
10
0
20
0
30
0
70
128
71
64
72
66
73
65
0
VERTEX
8
OBJECT__1
10
0
20
0
30
0
70
128
71
61
72
63
73
62
0
VERTEX
8
OBJECT__1
10
0
20
0
30
0
70
128
71
59
72
60
73
58
0
VERTEX
8
OBJECT__1
10
0
20
0
30
0
70
128
71
57
72
54
73
55
0
VERTEX
8
OBJECT__1
10
0
20
0
30
0
70
128
71
53
72
55
73
54
0
VERTEX
8
OBJECT__1
10
0
20
0
30
0
70
128
71
50
72
52
73
51
0
VERTEX
8
OBJECT__1
10
0
20
0
30
0
70
128
71
48
72
49
73
47
0
VERTEX
8
OBJECT__1
10
0
20
0
30
0
70
128
71
44
72
81
73
45
0
VERTEX
8
OBJECT__1
10
0
20
0
30
0
70
128
71
43
72
81
73
44
0
VERTEX
8
OBJECT__1
10
0
20
0
30
0
70
128
71
40
72
42
73
41
0
VERTEX
8
OBJECT__1
10
0
20
0
30
0
70
128
71
38
72
39
73
37
0
VERTEX
8
OBJECT__1
10
0
20
0
30
0
70
128
71
34
72
82
73
35
0
VERTEX
8
OBJECT__1
10
0
20
0
30
0
70
128
71
33
72
82
73
34
0
VERTEX
8
OBJECT__1
10
0
20
0
30
0
70
128
71
30
72
32
73
29
0
VERTEX
8
OBJECT__1
10
0
20
0
30
0
70
128
71
28
72
31
73
27
0
VERTEX
8
OBJECT__1
10
0
20
0
30
0
70
128
71
24
72
83
73
25
0
VERTEX
8
OBJECT__1
10
0
20
0
30
0
70
128
71
23
72
83
73
24
0
VERTEX
8
OBJECT__1
10
0
20
0
30
0
70
128
71
20
72
22
73
19
0
VERTEX
8
OBJECT__1
10
0
20
0
30
0
70
128
71
18
72
21
73
17
0
VERTEX
8
OBJECT__1
10
0
20
0
30
0
70
128
71
14
72
84
73
15
0
VERTEX
8
OBJECT__1
10
0
20
0
30
0
70
128
71
13
72
84
73
14
0
VERTEX
8
OBJECT__1
10
0
20
0
30
0
70
128
71
10
72
12
73
9
0
VERTEX
8
OBJECT__1
10
0
20
0
30
0
70
128
71
8
72
11
73
7
0
VERTEX
8
OBJECT__1
10
0
20
0
30
0
70
128
71
4
72
85
73
5
0
VERTEX
8
OBJECT__1
10
0
20
0
30
0
70
128
71
3
72
85
73
4
0
SEQEND
8
OBJECT__1
0
POLYLINE
8
OBJECT__3
66
1
70
64
71
108
72
108
62
253
0
VERTEX
8
OBJECT__3
10
21.707001
20
6.086000
30
-42.172001
70
192
0
VERTEX
8
OBJECT__3
10
22.969000
20
6.433000
30
-34.702999
70
192
0
VERTEX
8
OBJECT__3
10
23.503000
20
4.675000
30
-34.702999
70
192
0
VERTEX
8
OBJECT__3
10
23.962999
20
0.000000
30
-34.702999
70
192
0
VERTEX
8
OBJECT__3
10
22.488001
20
0.000000
30
-42.172001
70
192
0
VERTEX
8
OBJECT__3
10
22.488001
20
2.287000
30
-42.172001
70
192
0
VERTEX
8
OBJECT__3
10
19.764000
20
10.970000
30
-42.172001
70
192
0
VERTEX
8
OBJECT__3
10
20.405001
20
12.414000
30
-34.702999
70
192
0
VERTEX
8
OBJECT__3
10
22.139000
20
9.170000
30
-34.702999
70
192
0
VERTEX
8
OBJECT__3
10
21.568001
20
6.767000
30
-42.172001
70
192
0
VERTEX
8
OBJECT__3
10
15.349000
20
16.437000
30
-42.172001
70
192
0
VERTEX
8
OBJECT__3
10
16.313999
20
17.462000
30
-34.702999
70
192
0
VERTEX
8
OBJECT__3
10
16.944000
20
16.944000
30
-34.702999
70
192
0
VERTEX
8
OBJECT__3
10
19.924999
20
13.313000
30
-34.702999
70
192
0
VERTEX
8
OBJECT__3
10
19.254000
20
11.703000
30
-42.172001
70
192
0
VERTEX
8
OBJECT__3
10
17.150999
20
14.724000
30
-42.172001
70
192
0
VERTEX
8
OBJECT__3
10
10.376000
20
20.032000
30
-42.172001
70
192
0
VERTEX
8
OBJECT__3
10
10.971000
20
21.176001
30
-34.702999
70
192
0
VERTEX
8
OBJECT__3
10
13.313000
20
19.924999
30
-34.702999
70
192
0
VERTEX
8
OBJECT__3
10
13.836000
20
17.875000
30
-42.172001
70
192
0
VERTEX
8
OBJECT__3
10
9.170000
20
22.139000
30
-34.702999
70
192
0
VERTEX
8
OBJECT__3
10
9.955000
20
20.294001
30
-42.172001
70
192
0
VERTEX
8
OBJECT__3
10
5.666000
20
21.882999
30
-42.172001
70
192
0
VERTEX
8
OBJECT__3
10
4.870000
20
23.444000
30
-34.702999
70
192
0
VERTEX
8
OBJECT__3
10
-1.537000
20
22.438999
30
-42.172001
70
192
0
VERTEX
8
OBJECT__3
10
-1.625000
20
23.802999
30
-34.702999
70
192
0
VERTEX
8
OBJECT__3
10
0.000000
20
23.962999
30
-34.702999
70
192
0
VERTEX
8
OBJECT__3
10
4.675000
20
23.503000
30
-34.702999
70
192
0
VERTEX
8
OBJECT__3
10
4.586000
20
22.048000
30
-42.172001
70
192
0
VERTEX
8
OBJECT__3
10
1.145000
20
22.575001
30
-42.172001
70
192
0
VERTEX
8
OBJECT__3
10
-7.563000
20
21.271999
30
-42.172001
70
192
0
VERTEX
8
OBJECT__3
10
-7.999000
20
22.493999
30
-34.702999
70
192
0
VERTEX
8
OBJECT__3
10
-4.675000
20
23.503000
30
-34.702999
70
192
0
VERTEX
8
OBJECT__3
10
-3.423000
20
22.344000
30
-42.172001
70
192
0
VERTEX
8
OBJECT__3
10
-12.978000
20
18.393000
30
-42.172001
70
192
0
VERTEX
8
OBJECT__3
10
-13.786000
20
19.537001
30
-34.702999
70
192
0
VERTEX
8
OBJECT__3
10
-13.313000
20
19.924999
30
-34.702999
70
192
0
VERTEX
8
OBJECT__3
10
-9.170000
20
22.139000
30
-34.702999
70
192
0
VERTEX
8
OBJECT__3
10
-7.851000
20
21.197001
30
-42.172001
70
192
0
VERTEX
8
OBJECT__3
10
-11.957000
20
19.183001
30
-42.172001
70
192
0
VERTEX
8
OBJECT__3
10
-17.452000
20
14.195000
30
-42.172001
70
192
0
VERTEX
8
OBJECT__3
10
-18.499001
20
15.050000
30
-34.702999
70
192
0
VERTEX
8
OBJECT__3
10
-16.944000
20
16.944000
30
-34.702999
70
192
0
VERTEX
8
OBJECT__3
10
-15.574000
20
16.382999
30
-42.172001
70
192
0
VERTEX
8
OBJECT__3
10
-20.724001
20
9.001000
30
-42.172001
70
192
0
VERTEX
8
OBJECT__3
10
-21.947001
20
9.530000
30
-34.702999
70
192
0
VERTEX
8
OBJECT__3
10
-19.924999
20
13.313000
30
-34.702999
70
192
0
VERTEX
8
OBJECT__3
10
-18.552999
20
12.913000
30
-42.172001
70
192
0
VERTEX
8
OBJECT__3
10
-22.141001
20
4.550000
30
-42.172001
70
192
0
VERTEX
8
OBJECT__3
10
-22.292000
20
3.068000
30
-42.172001
70
192
0
VERTEX
8
OBJECT__3
10
-23.643000
20
3.253000
30
-34.702999
70
192
0
VERTEX
8
OBJECT__3
10
-22.139000
20
9.170000
30
-34.702999
70
192
0
VERTEX
8
OBJECT__3
10
-20.771999
20
8.914000
30
-42.172001
70
192
0
VERTEX
8
OBJECT__3
10
-23.503000
20
4.675000
30
-34.702999
70
192
0
VERTEX
8
OBJECT__3
10
-23.643000
20
-3.253000
30
-34.702999
70
192
0
VERTEX
8
OBJECT__3
10
-23.962999
20
0.000000
30
-34.702999
70
192
0
VERTEX
8
OBJECT__3
10
-22.604000
20
0.000000
30
-42.172001
70
192
0
VERTEX
8
OBJECT__3
10
-22.139000
20
-9.170000
30
-34.702999
70
192
0
VERTEX
8
OBJECT__3
10
-23.503000
20
-4.675000
30
-34.702999
70
192
0
VERTEX
8
OBJECT__3
10
-22.141001
20
-4.550000
30
-42.172001
70
192
0
VERTEX
8
OBJECT__3
10
-20.771999
20
-8.914000
30
-42.172001
70
192
0
VERTEX
8
OBJECT__3
10
-21.947001
20
-9.530000
30
-34.702999
70
192
0
VERTEX
8
OBJECT__3
10
-22.292000
20
-3.068000
30
-42.172001
70
192
0
VERTEX
8
OBJECT__3
10
-18.499001
20
-15.050000
30
-34.702999
70
192
0
VERTEX
8
OBJECT__3
10
-19.924999
20
-13.313000
30
-34.702999
70
192
0
VERTEX
8
OBJECT__3
10
-18.552999
20
-12.913000
30
-42.172001
70
192
0
VERTEX
8
OBJECT__3
10
-20.724001
20
-9.001000
30
-42.172001
70
192
0
VERTEX
8
OBJECT__3
10
-13.786000
20
-19.537001
30
-34.702999
70
192
0
VERTEX
8
OBJECT__3
10
-16.944000
20
-16.944000
30
-34.702999
70
192
0
VERTEX
8
OBJECT__3
10
-15.574000
20
-16.382999
30
-42.172001
70
192
0
VERTEX
8
OBJECT__3
10
-17.452000
20
-14.195000
30
-42.172001
70
192
0
VERTEX
8
OBJECT__3
10
-9.170000
20
-22.139000
30
-34.702999
70
192
0
VERTEX
8
OBJECT__3
10
-13.313000
20
-19.924999
30
-34.702999
70
192
0
VERTEX
8
OBJECT__3
10
-11.957000
20
-19.183001
30
-42.172001
70
192
0
VERTEX
8
OBJECT__3
10
-7.851000
20
-21.197001
30
-42.172001
70
192
0
VERTEX
8
OBJECT__3
10
-7.999000
20
-22.493999
30
-34.702999
70
192
0
VERTEX
8
OBJECT__3
10
-12.978000
20
-18.393000
30
-42.172001
70
192
0
VERTEX
8
OBJECT__3
10
-1.625000
20
-23.802999
30
-34.702999
70
192
0
VERTEX
8
OBJECT__3
10
-4.675000
20
-23.503000
30
-34.702999
70
192
0
VERTEX
8
OBJECT__3
10
-3.423000
20
-22.344000
30
-42.172001
70
192
0
VERTEX
8
OBJECT__3
10
-7.563000
20
-21.271999
30
-42.172001
70
192
0
VERTEX
8
OBJECT__3
10
4.675000
20
-23.503000
30
-34.702999
70
192
0
VERTEX
8
OBJECT__3
10
0.000000
20
-23.962999
30
-34.702999
70
192
0
VERTEX
8
OBJECT__3
10
1.145000
20
-22.575001
30
-42.172001
70
192
0
VERTEX
8
OBJECT__3
10
4.586000
20
-22.048000
30
-42.172001
70
192
0
VERTEX
8
OBJECT__3
10
4.870000
20
-23.444000
30
-34.702999
70
192
0
VERTEX
8
OBJECT__3
10
-1.537000
20
-22.438999
30
-42.172001
70
192
0
VERTEX
8
OBJECT__3
10
9.170000
20
-22.139000
30
-34.702999
70
192
0
VERTEX
8
OBJECT__3
10
5.666000
20
-21.882999
30
-42.172001
70
192
0
VERTEX
8
OBJECT__3
10
9.955000
20
-20.294001
30
-42.172001
70
192
0
VERTEX
8
OBJECT__3
10
10.971000
20
-21.176001
30
-34.702999
70
192
0
VERTEX
8
OBJECT__3
10
16.313999
20
-17.462000
30
-34.702999
70
192
0
VERTEX
8
OBJECT__3
10
13.313000
20
-19.924999
30
-34.702999
70
192
0
VERTEX
8
OBJECT__3
10
13.836000
20
-17.875000
30
-42.172001
70
192
0
VERTEX
8
OBJECT__3
10
10.376000
20
-20.032000
30
-42.172001
70
192
0
VERTEX
8
OBJECT__3
10
19.924999
20
-13.313000
30
-34.702999
70
192
0
VERTEX
8
OBJECT__3
10
16.944000
20
-16.944000
30
-34.702999
70
192
0
VERTEX
8
OBJECT__3
10
17.150999
20
-14.724000
30
-42.172001
70
192
0
VERTEX
8
OBJECT__3
10
19.254000
20
-11.703000
30
-42.172001
70
192
0
VERTEX
8
OBJECT__3
10
20.405001
20
-12.414000
30
-34.702999
70
192
0
VERTEX
8
OBJECT__3
10
15.349000
20
-16.437000
30
-42.172001
70
192
0
VERTEX
8
OBJECT__3
10
19.764000
20
-10.970000
30
-42.172001
70
192
0
VERTEX
8
OBJECT__3
10
21.568001
20
-6.767000
30
-42.172001
70
192
0
VERTEX
8
OBJECT__3
10
22.139000
20
-9.170000
30
-34.702999
70
192
0
VERTEX
8
OBJECT__3
10
22.969000
20
-6.433000
30
-34.702999
70
192
0
VERTEX
8
OBJECT__3
10
23.503000
20
-4.675000
30
-34.702999
70
192
0
VERTEX
8
OBJECT__3
10
22.488001
20
-2.287000
30
-42.172001
70
192
0
VERTEX
8
OBJECT__3
10
21.707001
20
-6.086000
30
-42.172001
70
192
0
VERTEX
8
OBJECT__3
10
0
20
0
30
0
70
128
71
1
72
2
73
3
0
VERTEX
8
OBJECT__3
10
0
20
0
30
0
70
128
71
4
72
5
73
6
0
VERTEX
8
OBJECT__3
10
0
20
0
30
0
70
128
71
6
72
3
73
4
0
VERTEX
8
OBJECT__3
10
0
20
0
30
0
70
128
71
7
72
8
73
9
0
VERTEX
8
OBJECT__3
10
0
20
0
30
0
70
128
71
9
72
10
73
7
0
VERTEX
8
OBJECT__3
10
0
20
0
30
0
70
128
71
9
72
2
73
10
0
VERTEX
8
OBJECT__3
10
0
20
0
30
0
70
128
71
2
72
1
73
10
0
VERTEX
8
OBJECT__3
10
0
20
0
30
0
70
128
71
11
72
12
73
13
0
VERTEX
8
OBJECT__3
10
0
20
0
30
0
70
128
71
14
72
15
73
16
0
VERTEX
8
OBJECT__3
10
0
20
0
30
0
70
128
71
16
72
13
73
14
0
VERTEX
8
OBJECT__3
10
0
20
0
30
0
70
128
71
14
72
8
73
15
0
VERTEX
8
OBJECT__3
10
0
20
0
30
0
70
128
71
17
72
18
73
19
0
VERTEX
8
OBJECT__3
10
0
20
0
30
0
70
128
71
12
72
11
73
20
0
VERTEX
8
OBJECT__3
10
0
20
0
30
0
70
128
71
20
72
19
73
12
0
VERTEX
8
OBJECT__3
10
0
20
0
30
0
70
128
71
21
72
22
73
23
0
VERTEX
8
OBJECT__3
10
0
20
0
30
0
70
128
71
23
72
24
73
21
0
VERTEX
8
OBJECT__3
10
0
20
0
30
0
70
128
71
21
72
18
73
22
0
VERTEX
8
OBJECT__3
10
0
20
0
30
0
70
128
71
18
72
17
73
22
0
VERTEX
8
OBJECT__3
10
0
20
0
30
0
70
128
71
25
72
26
73
27
0
VERTEX
8
OBJECT__3
10
0
20
0
30
0
70
128
71
28
72
29
73
30
0
VERTEX
8
OBJECT__3
10
0
20
0
30
0
70
128
71
30
72
27
73
28
0
VERTEX
8
OBJECT__3
10
0
20
0
30
0
70
128
71
28
72
24
73
29
0
VERTEX
8
OBJECT__3
10
0
20
0
30
0
70
128
71
31
72
32
73
33
0
VERTEX
8
OBJECT__3
10
0
20
0
30
0
70
128
71
26
72
25
73
34
0
VERTEX
8
OBJECT__3
10
0
20
0
30
0
70
128
71
34
72
33
73
26
0
VERTEX
8
OBJECT__3
10
0
20
0
30
0
70
128
71
35
72
36
73
37
0
VERTEX
8
OBJECT__3
10
0
20
0
30
0
70
128
71
38
72
39
73
40
0
VERTEX
8
OBJECT__3
10
0
20
0
30
0
70
128
71
40
72
37
73
38
0
VERTEX
8
OBJECT__3
10
0
20
0
30
0
70
128
71
38
72
32
73
39
0
VERTEX
8
OBJECT__3
10
0
20
0
30
0
70
128
71
32
72
31
73
39
0
VERTEX
8
OBJECT__3
10
0
20
0
30
0
70
128
71
41
72
42
73
43
0
VERTEX
8
OBJECT__3
10
0
20
0
30
0
70
128
71
36
72
35
73
44
0
VERTEX
8
OBJECT__3
10
0
20
0
30
0
70
128
71
44
72
43
73
36
0
VERTEX
8
OBJECT__3
10
0
20
0
30
0
70
128
71
45
72
46
73
47
0
VERTEX
8
OBJECT__3
10
0
20
0
30
0
70
128
71
42
72
41
73
48
0
VERTEX
8
OBJECT__3
10
0
20
0
30
0
70
128
71
48
72
47
73
42
0
VERTEX
8
OBJECT__3
10
0
20
0
30
0
70
128
71
49
72
50
73
51
0
VERTEX
8
OBJECT__3
10
0
20
0
30
0
70
128
71
52
72
53
73
49
0
VERTEX
8
OBJECT__3
10
0
20
0
30
0
70
128
71
49
72
54
73
52
0
VERTEX
8
OBJECT__3
10
0
20
0
30
0
70
128
71
52
72
46
73
53
0
VERTEX
8
OBJECT__3
10
0
20
0
30
0
70
128
71
46
72
45
73
53
0
VERTEX
8
OBJECT__3
10
0
20
0
30
0
70
128
71
55
72
56
73
57
0
VERTEX
8
OBJECT__3
10
0
20
0
30
0
70
128
71
51
72
50
73
57
0
VERTEX
8
OBJECT__3
10
0
20
0
30
0
70
128
71
57
72
56
73
51
0
VERTEX
8
OBJECT__3
10
0
20
0
30
0
70
128
71
58
72
59
73
60
0
VERTEX
8
OBJECT__3
10
0
20
0
30
0
70
128
71
61
72
62
73
58
0
VERTEX
8
OBJECT__3
10
0
20
0
30
0
70
128
71
60
72
59
73
55
0
VERTEX
8
OBJECT__3
10
0
20
0
30
0
70
128
71
55
72
63
73
60
0
VERTEX
8
OBJECT__3
10
0
20
0
30
0
70
128
71
60
72
61
73
58
0
VERTEX
8
OBJECT__3
10
0
20
0
30
0
70
128
71
64
72
65
73
66
0
VERTEX
8
OBJECT__3
10
0
20
0
30
0
70
128
71
67
72
66
73
65
0
VERTEX
8
OBJECT__3
10
0
20
0
30
0
70
128
71
65
72
62
73
67
0
VERTEX
8
OBJECT__3
10
0
20
0
30
0
70
128
71
68
72
69
73
70
0
VERTEX
8
OBJECT__3
10
0
20
0
30
0
70
128
71
71
72
70
73
69
0
VERTEX
8
OBJECT__3
10
0
20
0
30
0
70
128
71
69
72
64
73
71
0
VERTEX
8
OBJECT__3
10
0
20
0
30
0
70
128
71
72
72
73
73
74
0
VERTEX
8
OBJECT__3
10
0
20
0
30
0
70
128
71
75
72
76
73
72
0
VERTEX
8
OBJECT__3
10
0
20
0
30
0
70
128
71
77
72
74
73
73
0
VERTEX
8
OBJECT__3
10
0
20
0
30
0
70
128
71
73
72
68
73
77
0
VERTEX
8
OBJECT__3
10
0
20
0
30
0
70
128
71
74
72
75
73
72
0
VERTEX
8
OBJECT__3
10
0
20
0
30
0
70
128
71
78
72
79
73
80
0
VERTEX
8
OBJECT__3
10
0
20
0
30
0
70
128
71
81
72
80
73
79
0
VERTEX
8
OBJECT__3
10
0
20
0
30
0
70
128
71
79
72
76
73
81
0
VERTEX
8
OBJECT__3
10
0
20
0
30
0
70
128
71
82
72
83
73
84
0
VERTEX
8
OBJECT__3
10
0
20
0
30
0
70
128
71
85
72
86
73
82
0
VERTEX
8
OBJECT__3
10
0
20
0
30
0
70
128
71
87
72
84
73
83
0
VERTEX
8
OBJECT__3
10
0
20
0
30
0
70
128
71
83
72
78
73
87
0
VERTEX
8
OBJECT__3
10
0
20
0
30
0
70
128
71
88
72
86
73
89
0
VERTEX
8
OBJECT__3
10
0
20
0
30
0
70
128
71
90
72
91
73
88
0
VERTEX
8
OBJECT__3
10
0
20
0
30
0
70
128
71
86
72
85
73
89
0
VERTEX
8
OBJECT__3
10
0
20
0
30
0
70
128
71
89
72
90
73
88
0
VERTEX
8
OBJECT__3
10
0
20
0
30
0
70
128
71
92
72
93
73
94
0
VERTEX
8
OBJECT__3
10
0
20
0
30
0
70
128
71
95
72
94
73
93
0
VERTEX
8
OBJECT__3
10
0
20
0
30
0
70
128
71
93
72
91
73
95
0
VERTEX
8
OBJECT__3
10
0
20
0
30
0
70
128
71
96
72
97
73
98
0
VERTEX
8
OBJECT__3
10
0
20
0
30
0
70
128
71
99
72
100
73
96
0
VERTEX
8
OBJECT__3
10
0
20
0
30
0
70
128
71
101
72
98
73
97
0
VERTEX
8
OBJECT__3
10
0
20
0
30
0
70
128
71
97
72
92
73
101
0
VERTEX
8
OBJECT__3
10
0
20
0
30
0
70
128
71
102
72
103
73
104
0
VERTEX
8
OBJECT__3
10
0
20
0
30
0
70
128
71
103
72
105
73
104
0
VERTEX
8
OBJECT__3
10
0
20
0
30
0
70
128
71
100
72
99
73
102
0
VERTEX
8
OBJECT__3
10
0
20
0
30
0
70
128
71
104
72
100
73
102
0
VERTEX
8
OBJECT__3
10
0
20
0
30
0
70
128
71
4
72
106
73
107
0
VERTEX
8
OBJECT__3
10
0
20
0
30
0
70
128
71
108
72
107
73
106
0
VERTEX
8
OBJECT__3
10
0
20
0
30
0
70
128
71
106
72
105
73
108
0
VERTEX
8
OBJECT__3
10
0
20
0
30
0
70
128
71
107
72
5
73
4
0
VERTEX
8
OBJECT__3
10
0
20
0
30
0
70
128
71
103
72
108
73
105
0
VERTEX
8
OBJECT__3
10
0
20
0
30
0
70
128
71
98
72
99
73
96
0
VERTEX
8
OBJECT__3
10
0
20
0
30
0
70
128
71
94
72
101
73
92
0
VERTEX
8
OBJECT__3
10
0
20
0
30
0
70
128
71
90
72
95
73
91
0
VERTEX
8
OBJECT__3
10
0
20
0
30
0
70
128
71
84
72
85
73
82
0
VERTEX
8
OBJECT__3
10
0
20
0
30
0
70
128
71
80
72
87
73
78
0
VERTEX
8
OBJECT__3
10
0
20
0
30
0
70
128
71
75
72
81
73
76
0
VERTEX
8
OBJECT__3
10
0
20
0
30
0
70
128
71
70
72
77
73
68
0
VERTEX
8
OBJECT__3
10
0
20
0
30
0
70
128
71
66
72
71
73
64
0
VERTEX
8
OBJECT__3
10
0
20
0
30
0
70
128
71
61
72
67
73
62
0
VERTEX
8
OBJECT__3
10
0
20
0
30
0
70
128
71
57
72
63
73
55
0
VERTEX
8
OBJECT__3
10
0
20
0
30
0
70
128
71
51
72
54
73
49
0
VERTEX
8
OBJECT__3
10
0
20
0
30
0
70
128
71
47
72
48
73
45
0
VERTEX
8
OBJECT__3
10
0
20
0
30
0
70
128
71
43
72
44
73
41
0
VERTEX
8
OBJECT__3
10
0
20
0
30
0
70
128
71
37
72
40
73
35
0
VERTEX
8
OBJECT__3
10
0
20
0
30
0
70
128
71
33
72
34
73
31
0
VERTEX
8
OBJECT__3
10
0
20
0
30
0
70
128
71
27
72
30
73
25
0
VERTEX
8
OBJECT__3
10
0
20
0
30
0
70
128
71
23
72
29
73
24
0
VERTEX
8
OBJECT__3
10
0
20
0
30
0
70
128
71
19
72
20
73
17
0
VERTEX
8
OBJECT__3
10
0
20
0
30
0
70
128
71
13
72
16
73
11
0
VERTEX
8
OBJECT__3
10
0
20
0
30
0
70
128
71
7
72
15
73
8
0
VERTEX
8
OBJECT__3
10
0
20
0
30
0
70
128
71
3
72
6
73
1
0
SEQEND
8
OBJECT__3
0
POLYLINE
8
OBJECT__4
66
1
70
64
71
108
72
108
62
253
0
VERTEX
8
OBJECT__4
10
-23.954000
20
0.000000
30
-34.299000
70
192
0
VERTEX
8
OBJECT__4
10
-23.493000
20
4.673000
30
-34.299000
70
192
0
VERTEX
8
OBJECT__4
10
-23.643000
20
3.253000
30
-34.702999
70
192
0
VERTEX
8
OBJECT__4
10
-23.503000
20
4.675000
30
-34.702999
70
192
0
VERTEX
8
OBJECT__4
10
-22.139000
20
9.170000
30
-34.702999
70
192
0
VERTEX
8
OBJECT__4
10
-22.959999
20
6.431000
30
-34.299000
70
192
0
VERTEX
8
OBJECT__4
10
-21.947001
20
9.530000
30
-34.702999
70
192
0
VERTEX
8
OBJECT__4
10
-22.129999
20
9.167000
30
-34.299000
70
192
0
VERTEX
8
OBJECT__4
10
-20.396999
20
12.409000
30
-34.299000
70
192
0
VERTEX
8
OBJECT__4
10
-19.924999
20
13.313000
30
-34.702999
70
192
0
VERTEX
8
OBJECT__4
10
-16.938000
20
16.938000
30
-34.299000
70
192
0
VERTEX
8
OBJECT__4
10
-16.944000
20
16.944000
30
-34.702999
70
192
0
VERTEX
8
OBJECT__4
10
-18.499001
20
15.050000
30
-34.702999
70
192
0
VERTEX
8
OBJECT__4
10
-19.917000
20
13.308000
30
-34.299000
70
192
0
VERTEX
8
OBJECT__4
10
-13.786000
20
19.537001
30
-34.702999
70
192
0
VERTEX
8
OBJECT__4
10
-16.308001
20
17.455000
30
-34.299000
70
192
0
VERTEX
8
OBJECT__4
10
-13.308000
20
19.917000
30
-34.299000
70
192
0
VERTEX
8
OBJECT__4
10
-13.313000
20
19.924999
30
-34.702999
70
192
0
VERTEX
8
OBJECT__4
10
-10.967000
20
21.167999
30
-34.299000
70
192
0
VERTEX
8
OBJECT__4
10
-9.170000
20
22.139000
30
-34.702999
70
192
0
VERTEX
8
OBJECT__4
10
-4.868000
20
23.434000
30
-34.299000
70
192
0
VERTEX
8
OBJECT__4
10
-4.675000
20
23.503000
30
-34.702999
70
192
0
VERTEX
8
OBJECT__4
10
-7.999000
20
22.493999
30
-34.702999
70
192
0
VERTEX
8
OBJECT__4
10
-9.167000
20
22.129999
30
-34.299000
70
192
0
VERTEX
8
OBJECT__4
10
-4.673000
20
23.493000
30
-34.299000
70
192
0
VERTEX
8
OBJECT__4
10
0.000000
20
23.954000
30
-34.299000
70
192
0
VERTEX
8
OBJECT__4
10
-1.625000
20
23.802999
30
-34.702999
70
192
0
VERTEX
8
OBJECT__4
10
0.000000
20
23.962999
30
-34.702999
70
192
0
VERTEX
8
OBJECT__4
10
4.675000
20
23.503000
30
-34.702999
70
192
0
VERTEX
8
OBJECT__4
10
1.624000
20
23.794001
30
-34.299000
70
192
0
VERTEX
8
OBJECT__4
10
4.870000
20
23.444000
30
-34.702999
70
192
0
VERTEX
8
OBJECT__4
10
4.673000
20
23.493000
30
-34.299000
70
192
0
VERTEX
8
OBJECT__4
10
7.996000
20
22.485001
30
-34.299000
70
192
0
VERTEX
8
OBJECT__4
10
9.170000
20
22.139000
30
-34.702999
70
192
0
VERTEX
8
OBJECT__4
10
13.308000
20
19.917000
30
-34.299000
70
192
0
VERTEX
8
OBJECT__4
10
13.313000
20
19.924999
30
-34.702999
70
192
0
VERTEX
8
OBJECT__4
10
10.971000
20
21.176001
30
-34.702999
70
192
0
VERTEX
8
OBJECT__4
10
9.167000
20
22.129999
30
-34.299000
70
192
0
VERTEX
8
OBJECT__4
10
13.780000
20
19.528999
30
-34.299000
70
192
0
VERTEX
8
OBJECT__4
10
16.938000
20
16.938000
30
-34.299000
70
192
0
VERTEX
8
OBJECT__4
10
16.313999
20
17.462000
30
-34.702999
70
192
0
VERTEX
8
OBJECT__4
10
16.944000
20
16.944000
30
-34.702999
70
192
0
VERTEX
8
OBJECT__4
10
18.492001
20
15.044000
30
-34.299000
70
192
0
VERTEX
8
OBJECT__4
10
19.924999
20
13.313000
30
-34.702999
70
192
0
VERTEX
8
OBJECT__4
10
21.938000
20
9.526000
30
-34.299000
70
192
0
VERTEX
8
OBJECT__4
10
22.139000
20
9.170000
30
-34.702999
70
192
0
VERTEX
8
OBJECT__4
10
20.405001
20
12.414000
30
-34.702999
70
192
0
VERTEX
8
OBJECT__4
10
19.917000
20
13.308000
30
-34.299000
70
192
0
VERTEX
8
OBJECT__4
10
22.129999
20
9.167000
30
-34.299000
70
192
0
VERTEX
8
OBJECT__4
10
23.493000
20
4.673000
30
-34.299000
70
192
0
VERTEX
8
OBJECT__4
10
22.969000
20
6.433000
30
-34.702999
70
192
0
VERTEX
8
OBJECT__4
10
23.503000
20
4.675000
30
-34.702999
70
192
0
VERTEX
8
OBJECT__4
10
23.962999
20
0.000000
30
-34.702999
70
192
0
VERTEX
8
OBJECT__4
10
23.632999
20
3.252000
30
-34.299000
70
192
0
VERTEX
8
OBJECT__4
10
23.954000
20
0.000000
30
-34.299000
70
192
0
VERTEX
8
OBJECT__4
10
23.632999
20
-3.252000
30
-34.299000
70
192
0
VERTEX
8
OBJECT__4
10
23.503000
20
-4.675000
30
-34.702999
70
192
0
VERTEX
8
OBJECT__4
10
22.129999
20
-9.167000
30
-34.299000
70
192
0
VERTEX
8
OBJECT__4
10
22.139000
20
-9.170000
30
-34.702999
70
192
0
VERTEX
8
OBJECT__4
10
22.969000
20
-6.433000
30
-34.702999
70
192
0
VERTEX
8
OBJECT__4
10
23.493000
20
-4.673000
30
-34.299000
70
192
0
VERTEX
8
OBJECT__4
10
21.938000
20
-9.526000
30
-34.299000
70
192
0
VERTEX
8
OBJECT__4
10
19.917000
20
-13.308000
30
-34.299000
70
192
0
VERTEX
8
OBJECT__4
10
20.405001
20
-12.414000
30
-34.702999
70
192
0
VERTEX
8
OBJECT__4
10
19.924999
20
-13.313000
30
-34.702999
70
192
0
VERTEX
8
OBJECT__4
10
16.944000
20
-16.944000
30
-34.702999
70
192
0
VERTEX
8
OBJECT__4
10
18.492001
20
-15.044000
30
-34.299000
70
192
0
VERTEX
8
OBJECT__4
10
13.780000
20
-19.528999
30
-34.299000
70
192
0
VERTEX
8
OBJECT__4
10
13.313000
20
-19.924999
30
-34.702999
70
192
0
VERTEX
8
OBJECT__4
10
16.313999
20
-17.462000
30
-34.702999
70
192
0
VERTEX
8
OBJECT__4
10
16.938000
20
-16.938000
30
-34.299000
70
192
0
VERTEX
8
OBJECT__4
10
13.308000
20
-19.917000
30
-34.299000
70
192
0
VERTEX
8
OBJECT__4
10
9.167000
20
-22.129999
30
-34.299000
70
192
0
VERTEX
8
OBJECT__4
10
10.971000
20
-21.176001
30
-34.702999
70
192
0
VERTEX
8
OBJECT__4
10
9.170000
20
-22.139000
30
-34.702999
70
192
0
VERTEX
8
OBJECT__4
10
4.870000
20
-23.444000
30
-34.702999
70
192
0
VERTEX
8
OBJECT__4
10
7.996000
20
-22.485001
30
-34.299000
70
192
0
VERTEX
8
OBJECT__4
10
4.673000
20
-23.493000
30
-34.299000
70
192
0
VERTEX
8
OBJECT__4
10
4.675000
20
-23.503000
30
-34.702999
70
192
0
VERTEX
8
OBJECT__4
10
1.624000
20
-23.794001
30
-34.299000
70
192
0
VERTEX
8
OBJECT__4
10
0.000000
20
-23.962999
30
-34.702999
70
192
0
VERTEX
8
OBJECT__4
10
-4.673000
20
-23.493000
30
-34.299000
70
192
0
VERTEX
8
OBJECT__4
10
-4.675000
20
-23.503000
30
-34.702999
70
192
0
VERTEX
8
OBJECT__4
10
-1.625000
20
-23.802999
30
-34.702999
70
192
0
VERTEX
8
OBJECT__4
10
0.000000
20
-23.954000
30
-34.299000
70
192
0
VERTEX
8
OBJECT__4
10
-4.868000
20
-23.434000
30
-34.299000
70
192
0
VERTEX
8
OBJECT__4
10
-9.167000
20
-22.129999
30
-34.299000
70
192
0
VERTEX
8
OBJECT__4
10
-7.999000
20
-22.493999
30
-34.702999
70
192
0
VERTEX
8
OBJECT__4
10
-9.170000
20
-22.139000
30
-34.702999
70
192
0
VERTEX
8
OBJECT__4
10
-13.313000
20
-19.924999
30
-34.702999
70
192
0
VERTEX
8
OBJECT__4
10
-10.967000
20
-21.167999
30
-34.299000
70
192
0
VERTEX
8
OBJECT__4
10
-13.786000
20
-19.537001
30
-34.702999
70
192
0
VERTEX
8
OBJECT__4
10
-13.308000
20
-19.917000
30
-34.299000
70
192
0
VERTEX
8
OBJECT__4
10
-16.308001
20
-17.455000
30
-34.299000
70
192
0
VERTEX
8
OBJECT__4
10
-16.944000
20
-16.944000
30
-34.702999
70
192
0
VERTEX
8
OBJECT__4
10
-16.938000
20
-16.938000
30
-34.299000
70
192
0
VERTEX
8
OBJECT__4
10
-19.917000
20
-13.308000
30
-34.299000
70
192
0
VERTEX
8
OBJECT__4
10
-18.499001
20
-15.050000
30
-34.702999
70
192
0
VERTEX
8
OBJECT__4
10
-19.924999
20
-13.313000
30
-34.702999
70
192
0
VERTEX
8
OBJECT__4
10
-21.947001
20
-9.530000
30
-34.702999
70
192
0
VERTEX
8
OBJECT__4
10
-20.396999
20
-12.409000
30
-34.299000
70
192
0
VERTEX
8
OBJECT__4
10
-22.129999
20
-9.167000
30
-34.299000
70
192
0
VERTEX
8
OBJECT__4
10
-22.139000
20
-9.170000
30
-34.702999
70
192
0
VERTEX
8
OBJECT__4
10
-22.959999
20
-6.431000
30
-34.299000
70
192
0
VERTEX
8
OBJECT__4
10
-23.503000
20
-4.675000
30
-34.702999
70
192
0
VERTEX
8
OBJECT__4
10
-23.962999
20
0.000000
30
-34.702999
70
192
0
VERTEX
8
OBJECT__4
10
-23.643000
20
-3.253000
30
-34.702999
70
192
0
VERTEX
8
OBJECT__4
10
-23.493000
20
-4.673000
30
-34.299000
70
192
0
VERTEX
8
OBJECT__4
10
0
20
0
30
0
70
128
71
1
72
2
73
3
0
VERTEX
8
OBJECT__4
10
0
20
0
30
0
70
128
71
2
72
4
73
3
0
VERTEX
8
OBJECT__4
10
0
20
0
30
0
70
128
71
5
72
4
73
6
0
VERTEX
8
OBJECT__4
10
0
20
0
30
0
70
128
71
4
72
2
73
6
0
VERTEX
8
OBJECT__4
10
0
20
0
30
0
70
128
71
7
72
8
73
9
0
VERTEX
8
OBJECT__4
10
0
20
0
30
0
70
128
71
9
72
10
73
7
0
VERTEX
8
OBJECT__4
10
0
20
0
30
0
70
128
71
7
72
5
73
8
0
VERTEX
8
OBJECT__4
10
0
20
0
30
0
70
128
71
11
72
12
73
13
0
VERTEX
8
OBJECT__4
10
0
20
0
30
0
70
128
71
13
72
14
73
11
0
VERTEX
8
OBJECT__4
10
0
20
0
30
0
70
128
71
15
72
12
73
16
0
VERTEX
8
OBJECT__4
10
0
20
0
30
0
70
128
71
17
72
18
73
15
0
VERTEX
8
OBJECT__4
10
0
20
0
30
0
70
128
71
12
72
11
73
16
0
VERTEX
8
OBJECT__4
10
0
20
0
30
0
70
128
71
18
72
17
73
19
0
VERTEX
8
OBJECT__4
10
0
20
0
30
0
70
128
71
19
72
20
73
18
0
VERTEX
8
OBJECT__4
10
0
20
0
30
0
70
128
71
21
72
22
73
23
0
VERTEX
8
OBJECT__4
10
0
20
0
30
0
70
128
71
23
72
24
73
21
0
VERTEX
8
OBJECT__4
10
0
20
0
30
0
70
128
71
23
72
20
73
24
0
VERTEX
8
OBJECT__4
10
0
20
0
30
0
70
128
71
25
72
26
73
27
0
VERTEX
8
OBJECT__4
10
0
20
0
30
0
70
128
71
26
72
28
73
27
0
VERTEX
8
OBJECT__4
10
0
20
0
30
0
70
128
71
29
72
28
73
30
0
VERTEX
8
OBJECT__4
10
0
20
0
30
0
70
128
71
28
72
26
73
30
0
VERTEX
8
OBJECT__4
10
0
20
0
30
0
70
128
71
31
72
32
73
33
0
VERTEX
8
OBJECT__4
10
0
20
0
30
0
70
128
71
33
72
34
73
31
0
VERTEX
8
OBJECT__4
10
0
20
0
30
0
70
128
71
31
72
29
73
32
0
VERTEX
8
OBJECT__4
10
0
20
0
30
0
70
128
71
35
72
36
73
37
0
VERTEX
8
OBJECT__4
10
0
20
0
30
0
70
128
71
37
72
38
73
35
0
VERTEX
8
OBJECT__4
10
0
20
0
30
0
70
128
71
39
72
40
73
41
0
VERTEX
8
OBJECT__4
10
0
20
0
30
0
70
128
71
40
72
42
73
41
0
VERTEX
8
OBJECT__4
10
0
20
0
30
0
70
128
71
36
72
35
73
39
0
VERTEX
8
OBJECT__4
10
0
20
0
30
0
70
128
71
42
72
40
73
43
0
VERTEX
8
OBJECT__4
10
0
20
0
30
0
70
128
71
43
72
44
73
42
0
VERTEX
8
OBJECT__4
10
0
20
0
30
0
70
128
71
45
72
46
73
47
0
VERTEX
8
OBJECT__4
10
0
20
0
30
0
70
128
71
47
72
48
73
45
0
VERTEX
8
OBJECT__4
10
0
20
0
30
0
70
128
71
47
72
44
73
48
0
VERTEX
8
OBJECT__4
10
0
20
0
30
0
70
128
71
49
72
50
73
51
0
VERTEX
8
OBJECT__4
10
0
20
0
30
0
70
128
71
50
72
52
73
51
0
VERTEX
8
OBJECT__4
10
0
20
0
30
0
70
128
71
53
72
52
73
54
0
VERTEX
8
OBJECT__4
10
0
20
0
30
0
70
128
71
52
72
50
73
54
0
VERTEX
8
OBJECT__4
10
0
20
0
30
0
70
128
71
53
72
55
73
56
0
VERTEX
8
OBJECT__4
10
0
20
0
30
0
70
128
71
56
72
57
73
53
0
VERTEX
8
OBJECT__4
10
0
20
0
30
0
70
128
71
58
72
59
73
60
0
VERTEX
8
OBJECT__4
10
0
20
0
30
0
70
128
71
60
72
61
73
58
0
VERTEX
8
OBJECT__4
10
0
20
0
30
0
70
128
71
62
72
63
73
64
0
VERTEX
8
OBJECT__4
10
0
20
0
30
0
70
128
71
63
72
65
73
64
0
VERTEX
8
OBJECT__4
10
0
20
0
30
0
70
128
71
59
72
58
73
62
0
VERTEX
8
OBJECT__4
10
0
20
0
30
0
70
128
71
66
72
65
73
67
0
VERTEX
8
OBJECT__4
10
0
20
0
30
0
70
128
71
65
72
63
73
67
0
VERTEX
8
OBJECT__4
10
0
20
0
30
0
70
128
71
68
72
69
73
70
0
VERTEX
8
OBJECT__4
10
0
20
0
30
0
70
128
71
70
72
71
73
68
0
VERTEX
8
OBJECT__4
10
0
20
0
30
0
70
128
71
70
72
66
73
71
0
VERTEX
8
OBJECT__4
10
0
20
0
30
0
70
128
71
72
72
73
73
74
0
VERTEX
8
OBJECT__4
10
0
20
0
30
0
70
128
71
73
72
75
73
74
0
VERTEX
8
OBJECT__4
10
0
20
0
30
0
70
128
71
76
72
75
73
77
0
VERTEX
8
OBJECT__4
10
0
20
0
30
0
70
128
71
78
72
79
73
76
0
VERTEX
8
OBJECT__4
10
0
20
0
30
0
70
128
71
75
72
73
73
77
0
VERTEX
8
OBJECT__4
10
0
20
0
30
0
70
128
71
79
72
78
73
80
0
VERTEX
8
OBJECT__4
10
0
20
0
30
0
70
128
71
80
72
81
73
79
0
VERTEX
8
OBJECT__4
10
0
20
0
30
0
70
128
71
82
72
83
73
84
0
VERTEX
8
OBJECT__4
10
0
20
0
30
0
70
128
71
84
72
85
73
82
0
VERTEX
8
OBJECT__4
10
0
20
0
30
0
70
128
71
86
72
87
73
88
0
VERTEX
8
OBJECT__4
10
0
20
0
30
0
70
128
71
87
72
89
73
88
0
VERTEX
8
OBJECT__4
10
0
20
0
30
0
70
128
71
83
72
82
73
86
0
VERTEX
8
OBJECT__4
10
0
20
0
30
0
70
128
71
90
72
89
73
91
0
VERTEX
8
OBJECT__4
10
0
20
0
30
0
70
128
71
89
72
87
73
91
0
VERTEX
8
OBJECT__4
10
0
20
0
30
0
70
128
71
92
72
93
73
94
0
VERTEX
8
OBJECT__4
10
0
20
0
30
0
70
128
71
94
72
95
73
92
0
VERTEX
8
OBJECT__4
10
0
20
0
30
0
70
128
71
92
72
90
73
93
0
VERTEX
8
OBJECT__4
10
0
20
0
30
0
70
128
71
96
72
97
73
98
0
VERTEX
8
OBJECT__4
10
0
20
0
30
0
70
128
71
97
72
99
73
98
0
VERTEX
8
OBJECT__4
10
0
20
0
30
0
70
128
71
100
72
99
73
101
0
VERTEX
8
OBJECT__4
10
0
20
0
30
0
70
128
71
102
72
103
73
100
0
VERTEX
8
OBJECT__4
10
0
20
0
30
0
70
128
71
99
72
97
73
101
0
VERTEX
8
OBJECT__4
10
0
20
0
30
0
70
128
71
103
72
102
73
104
0
VERTEX
8
OBJECT__4
10
0
20
0
30
0
70
128
71
104
72
105
73
103
0
VERTEX
8
OBJECT__4
10
0
20
0
30
0
70
128
71
1
72
106
73
107
0
VERTEX
8
OBJECT__4
10
0
20
0
30
0
70
128
71
107
72
108
73
1
0
VERTEX
8
OBJECT__4
10
0
20
0
30
0
70
128
71
107
72
105
73
108
0
VERTEX
8
OBJECT__4
10
0
20
0
30
0
70
128
71
104
72
108
73
105
0
VERTEX
8
OBJECT__4
10
0
20
0
30
0
70
128
71
101
72
102
73
100
0
VERTEX
8
OBJECT__4
10
0
20
0
30
0
70
128
71
98
72
95
73
96
0
VERTEX
8
OBJECT__4
10
0
20
0
30
0
70
128
71
94
72
96
73
95
0
VERTEX
8
OBJECT__4
10
0
20
0
30
0
70
128
71
91
72
93
73
90
0
VERTEX
8
OBJECT__4
10
0
20
0
30
0
70
128
71
88
72
83
73
86
0
VERTEX
8
OBJECT__4
10
0
20
0
30
0
70
128
71
84
72
81
73
85
0
VERTEX
8
OBJECT__4
10
0
20
0
30
0
70
128
71
80
72
85
73
81
0
VERTEX
8
OBJECT__4
10
0
20
0
30
0
70
128
71
77
72
78
73
76
0
VERTEX
8
OBJECT__4
10
0
20
0
30
0
70
128
71
74
72
69
73
72
0
VERTEX
8
OBJECT__4
10
0
20
0
30
0
70
128
71
68
72
72
73
69
0
VERTEX
8
OBJECT__4
10
0
20
0
30
0
70
128
71
67
72
71
73
66
0
VERTEX
8
OBJECT__4
10
0
20
0
30
0
70
128
71
64
72
59
73
62
0
VERTEX
8
OBJECT__4
10
0
20
0
30
0
70
128
71
60
72
57
73
61
0
VERTEX
8
OBJECT__4
10
0
20
0
30
0
70
128
71
56
72
61
73
57
0
VERTEX
8
OBJECT__4
10
0
20
0
30
0
70
128
71
54
72
55
73
53
0
VERTEX
8
OBJECT__4
10
0
20
0
30
0
70
128
71
51
72
46
73
49
0
VERTEX
8
OBJECT__4
10
0
20
0
30
0
70
128
71
45
72
49
73
46
0
VERTEX
8
OBJECT__4
10
0
20
0
30
0
70
128
71
43
72
48
73
44
0
VERTEX
8
OBJECT__4
10
0
20
0
30
0
70
128
71
41
72
36
73
39
0
VERTEX
8
OBJECT__4
10
0
20
0
30
0
70
128
71
37
72
34
73
38
0
VERTEX
8
OBJECT__4
10
0
20
0
30
0
70
128
71
33
72
38
73
34
0
VERTEX
8
OBJECT__4
10
0
20
0
30
0
70
128
71
30
72
32
73
29
0
VERTEX
8
OBJECT__4
10
0
20
0
30
0
70
128
71
27
72
22
73
25
0
VERTEX
8
OBJECT__4
10
0
20
0
30
0
70
128
71
21
72
25
73
22
0
VERTEX
8
OBJECT__4
10
0
20
0
30
0
70
128
71
19
72
24
73
20
0
VERTEX
8
OBJECT__4
10
0
20
0
30
0
70
128
71
16
72
17
73
15
0
VERTEX
8
OBJECT__4
10
0
20
0
30
0
70
128
71
13
72
10
73
14
0
VERTEX
8
OBJECT__4
10
0
20
0
30
0
70
128
71
9
72
14
73
10
0
VERTEX
8
OBJECT__4
10
0
20
0
30
0
70
128
71
6
72
8
73
5
0
VERTEX
8
OBJECT__4
10
0
20
0
30
0
70
128
71
3
72
106
73
1
0
SEQEND
8
OBJECT__4
0
POLYLINE
8
OBJECT__5
66
1
70
64
71
77
72
77
62
253
0
VERTEX
8
OBJECT__5
10
-23.493000
20
4.673000
30
-34.299000
70
192
0
VERTEX
8
OBJECT__5
10
-23.954000
20
0.000000
30
-34.299000
70
192
0
VERTEX
8
OBJECT__5
10
-15.000000
20
0.000000
30
4.500000
70
192
0
VERTEX
8
OBJECT__5
10
-14.444000
20
4.047000
30
4.500000
70
192
0
VERTEX
8
OBJECT__5
10
-22.959999
20
6.431000
30
-34.299000
70
192
0
VERTEX
8
OBJECT__5
10
-22.129999
20
9.167000
30
-34.299000
70
192
0
VERTEX
8
OBJECT__5
10
-12.816000
20
7.794000
30
4.500000
70
192
0
VERTEX
8
OBJECT__5
10
-20.396999
20
12.409000
30
-34.299000
70
192
0
VERTEX
8
OBJECT__5
10
-19.917000
20
13.308000
30
-34.299000
70
192
0
VERTEX
8
OBJECT__5
10
-10.238000
20
10.963000
30
4.500000
70
192
0
VERTEX
8
OBJECT__5
10
-16.308001
20
17.455000
30
-34.299000
70
192
0
VERTEX
8
OBJECT__5
10
-16.938000
20
16.938000
30
-34.299000
70
192
0
VERTEX
8
OBJECT__5
10
-13.308000
20
19.917000
30
-34.299000
70
192
0
VERTEX
8
OBJECT__5
10
-6.901000
20
13.318000
30
4.500000
70
192
0
VERTEX
8
OBJECT__5
10
-10.967000
20
21.167999
30
-34.299000
70
192
0
VERTEX
8
OBJECT__5
10
-9.167000
20
22.129999
30
-34.299000
70
192
0
VERTEX
8
OBJECT__5
10
-3.052000
20
14.686000
30
4.500000
70
192
0
VERTEX
8
OBJECT__5
10
-4.868000
20
23.434000
30
-34.299000
70
192
0
VERTEX
8
OBJECT__5
10
0.000000
20
23.954000
30
-34.299000
70
192
0
VERTEX
8
OBJECT__5
10
-4.673000
20
23.493000
30
-34.299000
70
192
0
VERTEX
8
OBJECT__5
10
1.024000
20
14.965000
30
4.500000
70
192
0
VERTEX
8
OBJECT__5
10
1.624000
20
23.794001
30
-34.299000
70
192
0
VERTEX
8
OBJECT__5
10
4.673000
20
23.493000
30
-34.299000
70
192
0
VERTEX
8
OBJECT__5
10
5.023000
20
14.134000
30
4.500000
70
192
0
VERTEX
8
OBJECT__5
10
7.996000
20
22.485001
30
-34.299000
70
192
0
VERTEX
8
OBJECT__5
10
9.167000
20
22.129999
30
-34.299000
70
192
0
VERTEX
8
OBJECT__5
10
8.650000
20
12.255000
30
4.500000
70
192
0
VERTEX
8
OBJECT__5
10
13.780000
20
19.528999
30
-34.299000
70
192
0
VERTEX
8
OBJECT__5
10
13.308000
20
19.917000
30
-34.299000
70
192
0
VERTEX
8
OBJECT__5
10
16.938000
20
16.938000
30
-34.299000
70
192
0
VERTEX
8
OBJECT__5
10
11.636000
20
9.466000
30
4.500000
70
192
0
VERTEX
8
OBJECT__5
10
18.492001
20
15.044000
30
-34.299000
70
192
0
VERTEX
8
OBJECT__5
10
19.917000
20
13.308000
30
-34.299000
70
192
0
VERTEX
8
OBJECT__5
10
13.758000
20
5.976000
30
4.500000
70
192
0
VERTEX
8
OBJECT__5
10
21.938000
20
9.526000
30
-34.299000
70
192
0
VERTEX
8
OBJECT__5
10
23.493000
20
4.673000
30
-34.299000
70
192
0
VERTEX
8
OBJECT__5
10
22.129999
20
9.167000
30
-34.299000
70
192
0
VERTEX
8
OBJECT__5
10
14.860000
20
2.042000
30
4.500000
70
192
0
VERTEX
8
OBJECT__5
10
23.632999
20
3.252000
30
-34.299000
70
192
0
VERTEX
8
OBJECT__5
10
23.954000
20
0.000000
30
-34.299000
70
192
0
VERTEX
8
OBJECT__5
10
14.860000
20
-2.042000
30
4.500000
70
192
0
VERTEX
8
OBJECT__5
10
23.632999
20
-3.252000
30
-34.299000
70
192
0
VERTEX
8
OBJECT__5
10
23.493000
20
-4.673000
30
-34.299000
70
192
0
VERTEX
8
OBJECT__5
10
13.758000
20
-5.976000
30
4.500000
70
192
0
VERTEX
8
OBJECT__5
10
21.938000
20
-9.526000
30
-34.299000
70
192
0
VERTEX
8
OBJECT__5
10
22.129999
20
-9.167000
30
-34.299000
70
192
0
VERTEX
8
OBJECT__5
10
19.917000
20
-13.308000
30
-34.299000
70
192
0
VERTEX
8
OBJECT__5
10
11.636000
20
-9.466000
30
4.500000
70
192
0
VERTEX
8
OBJECT__5
10
18.492001
20
-15.044000
30
-34.299000
70
192
0
VERTEX
8
OBJECT__5
10
16.938000
20
-16.938000
30
-34.299000
70
192
0
VERTEX
8
OBJECT__5
10
8.650000
20
-12.255000
30
4.500000
70
192
0
VERTEX
8
OBJECT__5
10
13.780000
20
-19.528999
30
-34.299000
70
192
0
VERTEX
8
OBJECT__5
10
9.167000
20
-22.129999
30
-34.299000
70
192
0
VERTEX
8
OBJECT__5
10
13.308000
20
-19.917000
30
-34.299000
70
192
0
VERTEX
8
OBJECT__5
10
5.023000
20
-14.134000
30
4.500000
70
192
0
VERTEX
8
OBJECT__5
10
7.996000
20
-22.485001
30
-34.299000
70
192
0
VERTEX
8
OBJECT__5
10
4.673000
20
-23.493000
30
-34.299000
70
192
0
VERTEX
8
OBJECT__5
10
1.024000
20
-14.965000
30
4.500000
70
192
0
VERTEX
8
OBJECT__5
10
1.624000
20
-23.794001
30
-34.299000
70
192
0
VERTEX
8
OBJECT__5
10
0.000000
20
-23.954000
30
-34.299000
70
192
0
VERTEX
8
OBJECT__5
10
-3.052000
20
-14.686000
30
4.500000
70
192
0
VERTEX
8
OBJECT__5
10
-4.868000
20
-23.434000
30
-34.299000
70
192
0
VERTEX
8
OBJECT__5
10
-4.673000
20
-23.493000
30
-34.299000
70
192
0
VERTEX
8
OBJECT__5
10
-9.167000
20
-22.129999
30
-34.299000
70
192
0
VERTEX
8
OBJECT__5
10
-6.901000
20
-13.318000
30
4.500000
70
192
0
VERTEX
8
OBJECT__5
10
-10.967000
20
-21.167999
30
-34.299000
70
192
0
VERTEX
8
OBJECT__5
10
-13.308000
20
-19.917000
30
-34.299000
70
192
0
VERTEX
8
OBJECT__5
10
-10.238000
20
-10.963000
30
4.500000
70
192
0
VERTEX
8
OBJECT__5
10
-16.308001
20
-17.455000
30
-34.299000
70
192
0
VERTEX
8
OBJECT__5
10
-19.917000
20
-13.308000
30
-34.299000
70
192
0
VERTEX
8
OBJECT__5
10
-16.938000
20
-16.938000
30
-34.299000
70
192
0
VERTEX
8
OBJECT__5
10
-12.816000
20
-7.794000
30
4.500000
70
192
0
VERTEX
8
OBJECT__5
10
-20.396999
20
-12.409000
30
-34.299000
70
192
0
VERTEX
8
OBJECT__5
10
-22.129999
20
-9.167000
30
-34.299000
70
192
0
VERTEX
8
OBJECT__5
10
-14.444000
20
-4.047000
30
4.500000
70
192
0
VERTEX
8
OBJECT__5
10
-22.959999
20
-6.431000
30
-34.299000
70
192
0
VERTEX
8
OBJECT__5
10
-23.493000
20
-4.673000
30
-34.299000
70
192
0
VERTEX
8
OBJECT__5
10
0
20
0
30
0
70
128
71
1
72
2
73
3
0
VERTEX
8
OBJECT__5
10
0
20
0
30
0
70
128
71
4
72
5
73
1
0
VERTEX
8
OBJECT__5
10
0
20
0
30
0
70
128
71
6
72
4
73
7
0
VERTEX
8
OBJECT__5
10
0
20
0
30
0
70
128
71
7
72
8
73
6
0
VERTEX
8
OBJECT__5
10
0
20
0
30
0
70
128
71
9
72
7
73
10
0
VERTEX
8
OBJECT__5
10
0
20
0
30
0
70
128
71
10
72
11
73
12
0
VERTEX
8
OBJECT__5
10
0
20
0
30
0
70
128
71
10
72
12
73
9
0
VERTEX
8
OBJECT__5
10
0
20
0
30
0
70
128
71
13
72
11
73
10
0
VERTEX
8
OBJECT__5
10
0
20
0
30
0
70
128
71
14
72
15
73
13
0
VERTEX
8
OBJECT__5
10
0
20
0
30
0
70
128
71
16
72
14
73
17
0
VERTEX
8
OBJECT__5
10
0
20
0
30
0
70
128
71
17
72
18
73
16
0
VERTEX
8
OBJECT__5
10
0
20
0
30
0
70
128
71
19
72
20
73
17
0
VERTEX
8
OBJECT__5
10
0
20
0
30
0
70
128
71
17
72
21
73
19
0
VERTEX
8
OBJECT__5
10
0
20
0
30
0
70
128
71
21
72
22
73
19
0
VERTEX
8
OBJECT__5
10
0
20
0
30
0
70
128
71
23
72
21
73
24
0
VERTEX
8
OBJECT__5
10
0
20
0
30
0
70
128
71
24
72
25
73
23
0
VERTEX
8
OBJECT__5
10
0
20
0
30
0
70
128
71
26
72
24
73
27
0
VERTEX
8
OBJECT__5
10
0
20
0
30
0
70
128
71
27
72
28
73
29
0
VERTEX
8
OBJECT__5
10
0
20
0
30
0
70
128
71
27
72
29
73
26
0
VERTEX
8
OBJECT__5
10
0
20
0
30
0
70
128
71
30
72
28
73
27
0
VERTEX
8
OBJECT__5
10
0
20
0
30
0
70
128
71
31
72
32
73
30
0
VERTEX
8
OBJECT__5
10
0
20
0
30
0
70
128
71
33
72
31
73
34
0
VERTEX
8
OBJECT__5
10
0
20
0
30
0
70
128
71
34
72
35
73
33
0
VERTEX
8
OBJECT__5
10
0
20
0
30
0
70
128
71
36
72
37
73
34
0
VERTEX
8
OBJECT__5
10
0
20
0
30
0
70
128
71
34
72
38
73
36
0
VERTEX
8
OBJECT__5
10
0
20
0
30
0
70
128
71
38
72
39
73
36
0
VERTEX
8
OBJECT__5
10
0
20
0
30
0
70
128
71
40
72
39
73
38
0
VERTEX
8
OBJECT__5
10
0
20
0
30
0
70
128
71
41
72
42
73
40
0
VERTEX
8
OBJECT__5
10
0
20
0
30
0
70
128
71
43
72
41
73
44
0
VERTEX
8
OBJECT__5
10
0
20
0
30
0
70
128
71
44
72
45
73
46
0
VERTEX
8
OBJECT__5
10
0
20
0
30
0
70
128
71
44
72
46
73
43
0
VERTEX
8
OBJECT__5
10
0
20
0
30
0
70
128
71
47
72
45
73
44
0
VERTEX
8
OBJECT__5
10
0
20
0
30
0
70
128
71
48
72
49
73
47
0
VERTEX
8
OBJECT__5
10
0
20
0
30
0
70
128
71
50
72
48
73
51
0
VERTEX
8
OBJECT__5
10
0
20
0
30
0
70
128
71
51
72
52
73
50
0
VERTEX
8
OBJECT__5
10
0
20
0
30
0
70
128
71
53
72
54
73
51
0
VERTEX
8
OBJECT__5
10
0
20
0
30
0
70
128
71
51
72
55
73
53
0
VERTEX
8
OBJECT__5
10
0
20
0
30
0
70
128
71
55
72
56
73
53
0
VERTEX
8
OBJECT__5
10
0
20
0
30
0
70
128
71
57
72
56
73
55
0
VERTEX
8
OBJECT__5
10
0
20
0
30
0
70
128
71
58
72
59
73
57
0
VERTEX
8
OBJECT__5
10
0
20
0
30
0
70
128
71
60
72
58
73
61
0
VERTEX
8
OBJECT__5
10
0
20
0
30
0
70
128
71
61
72
62
73
63
0
VERTEX
8
OBJECT__5
10
0
20
0
30
0
70
128
71
61
72
63
73
60
0
VERTEX
8
OBJECT__5
10
0
20
0
30
0
70
128
71
64
72
62
73
61
0
VERTEX
8
OBJECT__5
10
0
20
0
30
0
70
128
71
65
72
66
73
64
0
VERTEX
8
OBJECT__5
10
0
20
0
30
0
70
128
71
67
72
65
73
68
0
VERTEX
8
OBJECT__5
10
0
20
0
30
0
70
128
71
68
72
69
73
67
0
VERTEX
8
OBJECT__5
10
0
20
0
30
0
70
128
71
70
72
71
73
68
0
VERTEX
8
OBJECT__5
10
0
20
0
30
0
70
128
71
68
72
72
73
70
0
VERTEX
8
OBJECT__5
10
0
20
0
30
0
70
128
71
72
72
73
73
70
0
VERTEX
8
OBJECT__5
10
0
20
0
30
0
70
128
71
74
72
73
73
72
0
VERTEX
8
OBJECT__5
10
0
20
0
30
0
70
128
71
75
72
76
73
74
0
VERTEX
8
OBJECT__5
10
0
20
0
30
0
70
128
71
77
72
75
73
3
0
VERTEX
8
OBJECT__5
10
0
20
0
30
0
70
128
71
3
72
2
73
77
0
VERTEX
8
OBJECT__5
10
0
20
0
30
0
70
128
71
77
72
76
73
75
0
VERTEX
8
OBJECT__5
10
0
20
0
30
0
70
128
71
72
72
75
73
74
0
VERTEX
8
OBJECT__5
10
0
20
0
30
0
70
128
71
71
72
69
73
68
0
VERTEX
8
OBJECT__5
10
0
20
0
30
0
70
128
71
67
72
66
73
65
0
VERTEX
8
OBJECT__5
10
0
20
0
30
0
70
128
71
61
72
65
73
64
0
VERTEX
8
OBJECT__5
10
0
20
0
30
0
70
128
71
60
72
59
73
58
0
VERTEX
8
OBJECT__5
10
0
20
0
30
0
70
128
71
55
72
58
73
57
0
VERTEX
8
OBJECT__5
10
0
20
0
30
0
70
128
71
54
72
52
73
51
0
VERTEX
8
OBJECT__5
10
0
20
0
30
0
70
128
71
50
72
49
73
48
0
VERTEX
8
OBJECT__5
10
0
20
0
30
0
70
128
71
44
72
48
73
47
0
VERTEX
8
OBJECT__5
10
0
20
0
30
0
70
128
71
43
72
42
73
41
0
VERTEX
8
OBJECT__5
10
0
20
0
30
0
70
128
71
38
72
41
73
40
0
VERTEX
8
OBJECT__5
10
0
20
0
30
0
70
128
71
37
72
35
73
34
0
VERTEX
8
OBJECT__5
10
0
20
0
30
0
70
128
71
33
72
32
73
31
0
VERTEX
8
OBJECT__5
10
0
20
0
30
0
70
128
71
27
72
31
73
30
0
VERTEX
8
OBJECT__5
10
0
20
0
30
0
70
128
71
26
72
25
73
24
0
VERTEX
8
OBJECT__5
10
0
20
0
30
0
70
128
71
23
72
22
73
21
0
VERTEX
8
OBJECT__5
10
0
20
0
30
0
70
128
71
20
72
18
73
17
0
VERTEX
8
OBJECT__5
10
0
20
0
30
0
70
128
71
16
72
15
73
14
0
VERTEX
8
OBJECT__5
10
0
20
0
30
0
70
128
71
10
72
14
73
13
0
VERTEX
8
OBJECT__5
10
0
20
0
30
0
70
128
71
9
72
8
73
7
0
VERTEX
8
OBJECT__5
10
0
20
0
30
0
70
128
71
6
72
5
73
4
0
VERTEX
8
OBJECT__5
10
0
20
0
30
0
70
128
71
3
72
4
73
1
0
SEQEND
8
OBJECT__5
0
POLYLINE
8
OBJECT__6
66
1
70
64
71
40
72
40
62
253
0
VERTEX
8
OBJECT__6
10
13.758000
20
5.976000
30
4.500000
70
192
0
VERTEX
8
OBJECT__6
10
11.636000
20
9.466000
30
4.500000
70
192
0
VERTEX
8
OBJECT__6
10
11.053000
20
6.844000
30
4.500000
70
192
0
VERTEX
8
OBJECT__6
10
7.834000
20
10.374000
30
4.500000
70
192
0
VERTEX
8
OBJECT__6
10
1.024000
20
14.965000
30
4.500000
70
192
0
VERTEX
8
OBJECT__6
10
-1.199000
20
12.945000
30
4.500000
70
192
0
VERTEX
8
OBJECT__6
10
3.558000
20
12.504000
30
4.500000
70
192
0
VERTEX
8
OBJECT__6
10
-12.816000
20
7.794000
30
4.500000
70
192
0
VERTEX
8
OBJECT__6
10
-12.122000
20
4.696000
30
4.500000
70
192
0
VERTEX
8
OBJECT__6
10
-9.607000
20
8.758000
30
4.500000
70
192
0
VERTEX
8
OBJECT__6
10
8.650000
20
12.255000
30
4.500000
70
192
0
VERTEX
8
OBJECT__6
10
5.023000
20
14.134000
30
4.500000
70
192
0
VERTEX
8
OBJECT__6
10
-5.795000
20
11.637000
30
4.500000
70
192
0
VERTEX
8
OBJECT__6
10
-3.052000
20
14.686000
30
4.500000
70
192
0
VERTEX
8
OBJECT__6
10
-6.901000
20
13.318000
30
4.500000
70
192
0
VERTEX
8
OBJECT__6
10
-10.238000
20
10.963000
30
4.500000
70
192
0
VERTEX
8
OBJECT__6
10
-14.444000
20
4.047000
30
4.500000
70
192
0
VERTEX
8
OBJECT__6
10
-13.000000
20
0.000000
30
4.500000
70
192
0
VERTEX
8
OBJECT__6
10
-12.816000
20
-7.794000
30
4.500000
70
192
0
VERTEX
8
OBJECT__6
10
-10.238000
20
-10.963000
30
4.500000
70
192
0
VERTEX
8
OBJECT__6
10
-9.607000
20
-8.758000
30
4.500000
70
192
0
VERTEX
8
OBJECT__6
10
-5.795000
20
-11.637000
30
4.500000
70
192
0
VERTEX
8
OBJECT__6
10
-6.901000
20
-13.318000
30
4.500000
70
192
0
VERTEX
8
OBJECT__6
10
-3.052000
20
-14.686000
30
4.500000
70
192
0
VERTEX
8
OBJECT__6
10
-15.000000
20
0.000000
30
4.500000
70
192
0
VERTEX
8
OBJECT__6
10
-12.122000
20
-4.696000
30
4.500000
70
192
0
VERTEX
8
OBJECT__6
10
-14.444000
20
-4.047000
30
4.500000
70
192
0
VERTEX
8
OBJECT__6
10
-1.199000
20
-12.945000
30
4.500000
70
192
0
VERTEX
8
OBJECT__6
10
1.024000
20
-14.965000
30
4.500000
70
192
0
VERTEX
8
OBJECT__6
10
5.023000
20
-14.134000
30
4.500000
70
192
0
VERTEX
8
OBJECT__6
10
3.558000
20
-12.504000
30
4.500000
70
192
0
VERTEX
8
OBJECT__6
10
12.779000
20
-2.389000
30
4.500000
70
192
0
VERTEX
8
OBJECT__6
10
11.053000
20
-6.844000
30
4.500000
70
192
0
VERTEX
8
OBJECT__6
10
13.758000
20
-5.976000
30
4.500000
70
192
0
VERTEX
8
OBJECT__6
10
7.834000
20
-10.374000
30
4.500000
70
192
0
VERTEX
8
OBJECT__6
10
8.650000
20
-12.255000
30
4.500000
70
192
0
VERTEX
8
OBJECT__6
10
11.636000
20
-9.466000
30
4.500000
70
192
0
VERTEX
8
OBJECT__6
10
12.779000
20
2.389000
30
4.500000
70
192
0
VERTEX
8
OBJECT__6
10
14.860000
20
-2.042000
30
4.500000
70
192
0
VERTEX
8
OBJECT__6
10
14.860000
20
2.042000
30
4.500000
70
192
0
VERTEX
8
OBJECT__6
10
0
20
0
30
0
70
128
71
1
72
2
73
3
0
VERTEX
8
OBJECT__6
10
0
20
0
30
0
70
128
71
4
72
3
73
2
0
VERTEX
8
OBJECT__6
10
0
20
0
30
0
70
128
71
5
72
6
73
7
0
VERTEX
8
OBJECT__6
10
0
20
0
30
0
70
128
71
8
72
9
73
10
0
VERTEX
8
OBJECT__6
10
0
20
0
30
0
70
128
71
2
72
11
73
4
0
VERTEX
8
OBJECT__6
10
0
20
0
30
0
70
128
71
4
72
11
73
12
0
VERTEX
8
OBJECT__6
10
0
20
0
30
0
70
128
71
7
72
12
73
5
0
VERTEX
8
OBJECT__6
10
0
20
0
30
0
70
128
71
13
72
6
73
14
0
VERTEX
8
OBJECT__6
10
0
20
0
30
0
70
128
71
13
72
15
73
16
0
VERTEX
8
OBJECT__6
10
0
20
0
30
0
70
128
71
10
72
16
73
8
0
VERTEX
8
OBJECT__6
10
0
20
0
30
0
70
128
71
12
72
7
73
4
0
VERTEX
8
OBJECT__6
10
0
20
0
30
0
70
128
71
14
72
15
73
13
0
VERTEX
8
OBJECT__6
10
0
20
0
30
0
70
128
71
8
72
17
73
9
0
VERTEX
8
OBJECT__6
10
0
20
0
30
0
70
128
71
18
72
9
73
17
0
VERTEX
8
OBJECT__6
10
0
20
0
30
0
70
128
71
19
72
20
73
21
0
VERTEX
8
OBJECT__6
10
0
20
0
30
0
70
128
71
22
72
21
73
20
0
VERTEX
8
OBJECT__6
10
0
20
0
30
0
70
128
71
22
72
23
73
24
0
VERTEX
8
OBJECT__6
10
0
20
0
30
0
70
128
71
5
72
14
73
6
0
VERTEX
8
OBJECT__6
10
0
20
0
30
0
70
128
71
17
72
25
73
18
0
VERTEX
8
OBJECT__6
10
0
20
0
30
0
70
128
71
26
72
27
73
19
0
VERTEX
8
OBJECT__6
10
0
20
0
30
0
70
128
71
24
72
28
73
22
0
VERTEX
8
OBJECT__6
10
0
20
0
30
0
70
128
71
29
72
30
73
31
0
VERTEX
8
OBJECT__6
10
0
20
0
30
0
70
128
71
32
72
33
73
34
0
VERTEX
8
OBJECT__6
10
0
20
0
30
0
70
128
71
16
72
10
73
13
0
VERTEX
8
OBJECT__6
10
0
20
0
30
0
70
128
71
18
72
25
73
27
0
VERTEX
8
OBJECT__6
10
0
20
0
30
0
70
128
71
20
72
23
73
22
0
VERTEX
8
OBJECT__6
10
0
20
0
30
0
70
128
71
28
72
24
73
29
0
VERTEX
8
OBJECT__6
10
0
20
0
30
0
70
128
71
35
72
31
73
30
0
VERTEX
8
OBJECT__6
10
0
20
0
30
0
70
128
71
35
72
36
73
37
0
VERTEX
8
OBJECT__6
10
0
20
0
30
0
70
128
71
33
72
37
73
34
0
VERTEX
8
OBJECT__6
10
0
20
0
30
0
70
128
71
38
72
32
73
39
0
VERTEX
8
OBJECT__6
10
0
20
0
30
0
70
128
71
27
72
26
73
18
0
VERTEX
8
OBJECT__6
10
0
20
0
30
0
70
128
71
31
72
28
73
29
0
VERTEX
8
OBJECT__6
10
0
20
0
30
0
70
128
71
37
72
33
73
35
0
VERTEX
8
OBJECT__6
10
0
20
0
30
0
70
128
71
39
72
40
73
38
0
VERTEX
8
OBJECT__6
10
0
20
0
30
0
70
128
71
21
72
26
73
19
0
VERTEX
8
OBJECT__6
10
0
20
0
30
0
70
128
71
34
72
39
73
32
0
VERTEX
8
OBJECT__6
10
0
20
0
30
0
70
128
71
30
72
36
73
35
0
VERTEX
8
OBJECT__6
10
0
20
0
30
0
70
128
71
3
72
38
73
1
0
VERTEX
8
OBJECT__6
10
0
20
0
30
0
70
128
71
38
72
40
73
1
0
SEQEND
8
OBJECT__6
0
POLYLINE
8
OBJECT__7
66
1
70
64
71
58
72
58
62
253
0
VERTEX
8
OBJECT__7
10
-13.000000
20
0.000000
30
4.500000
70
192
0
VERTEX
8
OBJECT__7
10
-13.000000
20
0.000000
30
6.500000
70
192
0
VERTEX
8
OBJECT__7
10
-12.592000
20
3.233000
30
6.500000
70
192
0
VERTEX
8
OBJECT__7
10
-12.122000
20
4.696000
30
4.500000
70
192
0
VERTEX
8
OBJECT__7
10
-9.607000
20
8.758000
30
4.500000
70
192
0
VERTEX
8
OBJECT__7
10
-11.392000
20
6.263000
30
6.500000
70
192
0
VERTEX
8
OBJECT__7
10
-12.027000
20
4.659000
30
6.500000
70
192
0
VERTEX
8
OBJECT__7
10
-9.477000
20
8.899000
30
6.500000
70
192
0
VERTEX
8
OBJECT__7
10
-6.966000
20
10.976000
30
6.500000
70
192
0
VERTEX
8
OBJECT__7
10
-5.795000
20
11.637000
30
4.500000
70
192
0
VERTEX
8
OBJECT__7
10
-9.589000
20
8.745000
30
6.500000
70
192
0
VERTEX
8
OBJECT__7
10
-1.199000
20
12.945000
30
4.500000
70
192
0
VERTEX
8
OBJECT__7
10
-4.017000
20
12.364000
30
6.500000
70
192
0
VERTEX
8
OBJECT__7
10
-5.752000
20
11.547000
30
6.500000
70
192
0
VERTEX
8
OBJECT__7
10
-0.816000
20
12.974000
30
6.500000
70
192
0
VERTEX
8
OBJECT__7
10
2.436000
20
12.770000
30
6.500000
70
192
0
VERTEX
8
OBJECT__7
10
3.558000
20
12.504000
30
4.500000
70
192
0
VERTEX
8
OBJECT__7
10
-1.192000
20
12.903000
30
6.500000
70
192
0
VERTEX
8
OBJECT__7
10
7.834000
20
10.374000
30
4.500000
70
192
0
VERTEX
8
OBJECT__7
10
5.535000
20
11.763000
30
6.500000
70
192
0
VERTEX
8
OBJECT__7
10
3.529000
20
12.415000
30
6.500000
70
192
0
VERTEX
8
OBJECT__7
10
8.287000
20
10.017000
30
6.500000
70
192
0
VERTEX
8
OBJECT__7
10
10.517000
20
7.641000
30
6.500000
70
192
0
VERTEX
8
OBJECT__7
10
11.053000
20
6.844000
30
4.500000
70
192
0
VERTEX
8
OBJECT__7
10
7.802000
20
10.324000
30
6.500000
70
192
0
VERTEX
8
OBJECT__7
10
12.779000
20
2.389000
30
4.500000
70
192
0
VERTEX
8
OBJECT__7
10
12.087000
20
4.786000
30
6.500000
70
192
0
VERTEX
8
OBJECT__7
10
10.978000
20
6.803000
30
6.500000
70
192
0
VERTEX
8
OBJECT__7
10
12.897000
20
1.629000
30
6.500000
70
192
0
VERTEX
8
OBJECT__7
10
12.897000
20
-1.629000
30
6.500000
70
192
0
VERTEX
8
OBJECT__7
10
12.779000
20
-2.389000
30
4.500000
70
192
0
VERTEX
8
OBJECT__7
10
12.707000
20
2.370000
30
6.500000
70
192
0
VERTEX
8
OBJECT__7
10
12.707000
20
-2.370000
30
6.500000
70
192
0
VERTEX
8
OBJECT__7
10
12.087000
20
-4.786000
30
6.500000
70
192
0
VERTEX
8
OBJECT__7
10
11.053000
20
-6.844000
30
4.500000
70
192
0
VERTEX
8
OBJECT__7
10
7.834000
20
-10.374000
30
4.500000
70
192
0
VERTEX
8
OBJECT__7
10
10.517000
20
-7.641000
30
6.500000
70
192
0
VERTEX
8
OBJECT__7
10
8.287000
20
-10.017000
30
6.500000
70
192
0
VERTEX
8
OBJECT__7
10
10.978000
20
-6.803000
30
6.500000
70
192
0
VERTEX
8
OBJECT__7
10
7.802000
20
-10.324000
30
6.500000
70
192
0
VERTEX
8
OBJECT__7
10
5.535000
20
-11.763000
30
6.500000
70
192
0
VERTEX
8
OBJECT__7
10
3.558000
20
-12.504000
30
4.500000
70
192
0
VERTEX
8
OBJECT__7
10
-1.199000
20
-12.945000
30
4.500000
70
192
0
VERTEX
8
OBJECT__7
10
2.436000
20
-12.770000
30
6.500000
70
192
0
VERTEX
8
OBJECT__7
10
-0.816000
20
-12.974000
30
6.500000
70
192
0
VERTEX
8
OBJECT__7
10
3.529000
20
-12.415000
30
6.500000
70
192
0
VERTEX
8
OBJECT__7
10
-1.192000
20
-12.903000
30
6.500000
70
192
0
VERTEX
8
OBJECT__7
10
-4.017000
20
-12.364000
30
6.500000
70
192
0
VERTEX
8
OBJECT__7
10
-5.795000
20
-11.637000
30
4.500000
70
192
0
VERTEX
8
OBJECT__7
10
-9.607000
20
-8.758000
30
4.500000
70
192
0
VERTEX
8
OBJECT__7
10
-6.966000
20
-10.976000
30
6.500000
70
192
0
VERTEX
8
OBJECT__7
10
-9.477000
20
-8.899000
30
6.500000
70
192
0
VERTEX
8
OBJECT__7
10
-5.752000
20
-11.547000
30
6.500000
70
192
0
VERTEX
8
OBJECT__7
10
-9.589000
20
-8.745000
30
6.500000
70
192
0
VERTEX
8
OBJECT__7
10
-11.392000
20
-6.263000
30
6.500000
70
192
0
VERTEX
8
OBJECT__7
10
-12.122000
20
-4.696000
30
4.500000
70
192
0
VERTEX
8
OBJECT__7
10
-12.592000
20
-3.233000
30
6.500000
70
192
0
VERTEX
8
OBJECT__7
10
-12.027000
20
-4.659000
30
6.500000
70
192
0
VERTEX
8
OBJECT__7
10
0
20
0
30
0
70
128
71
1
72
2
73
3
0
VERTEX
8
OBJECT__7
10
0
20
0
30
0
70
128
71
3
72
4
73
1
0
VERTEX
8
OBJECT__7
10
0
20
0
30
0
70
128
71
5
72
4
73
6
0
VERTEX
8
OBJECT__7
10
0
20
0
30
0
70
128
71
4
72
7
73
6
0
VERTEX
8
OBJECT__7
10
0
20
0
30
0
70
128
71
5
72
8
73
9
0
VERTEX
8
OBJECT__7
10
0
20
0
30
0
70
128
71
9
72
10
73
5
0
VERTEX
8
OBJECT__7
10
0
20
0
30
0
70
128
71
5
72
11
73
8
0
VERTEX
8
OBJECT__7
10
0
20
0
30
0
70
128
71
12
72
10
73
13
0
VERTEX
8
OBJECT__7
10
0
20
0
30
0
70
128
71
10
72
14
73
13
0
VERTEX
8
OBJECT__7
10
0
20
0
30
0
70
128
71
12
72
15
73
16
0
VERTEX
8
OBJECT__7
10
0
20
0
30
0
70
128
71
16
72
17
73
12
0
VERTEX
8
OBJECT__7
10
0
20
0
30
0
70
128
71
12
72
18
73
15
0
VERTEX
8
OBJECT__7
10
0
20
0
30
0
70
128
71
19
72
17
73
20
0
VERTEX
8
OBJECT__7
10
0
20
0
30
0
70
128
71
17
72
21
73
20
0
VERTEX
8
OBJECT__7
10
0
20
0
30
0
70
128
71
19
72
22
73
23
0
VERTEX
8
OBJECT__7
10
0
20
0
30
0
70
128
71
23
72
24
73
19
0
VERTEX
8
OBJECT__7
10
0
20
0
30
0
70
128
71
19
72
25
73
22
0
VERTEX
8
OBJECT__7
10
0
20
0
30
0
70
128
71
26
72
24
73
27
0
VERTEX
8
OBJECT__7
10
0
20
0
30
0
70
128
71
24
72
28
73
27
0
VERTEX
8
OBJECT__7
10
0
20
0
30
0
70
128
71
26
72
29
73
30
0
VERTEX
8
OBJECT__7
10
0
20
0
30
0
70
128
71
30
72
31
73
26
0
VERTEX
8
OBJECT__7
10
0
20
0
30
0
70
128
71
26
72
32
73
29
0
VERTEX
8
OBJECT__7
10
0
20
0
30
0
70
128
71
31
72
33
73
34
0
VERTEX
8
OBJECT__7
10
0
20
0
30
0
70
128
71
34
72
35
73
31
0
VERTEX
8
OBJECT__7
10
0
20
0
30
0
70
128
71
36
72
35
73
37
0
VERTEX
8
OBJECT__7
10
0
20
0
30
0
70
128
71
37
72
38
73
36
0
VERTEX
8
OBJECT__7
10
0
20
0
30
0
70
128
71
35
72
39
73
37
0
VERTEX
8
OBJECT__7
10
0
20
0
30
0
70
128
71
36
72
40
73
41
0
VERTEX
8
OBJECT__7
10
0
20
0
30
0
70
128
71
41
72
42
73
36
0
VERTEX
8
OBJECT__7
10
0
20
0
30
0
70
128
71
43
72
42
73
44
0
VERTEX
8
OBJECT__7
10
0
20
0
30
0
70
128
71
44
72
45
73
43
0
VERTEX
8
OBJECT__7
10
0
20
0
30
0
70
128
71
42
72
46
73
44
0
VERTEX
8
OBJECT__7
10
0
20
0
30
0
70
128
71
43
72
47
73
48
0
VERTEX
8
OBJECT__7
10
0
20
0
30
0
70
128
71
48
72
49
73
43
0
VERTEX
8
OBJECT__7
10
0
20
0
30
0
70
128
71
50
72
49
73
51
0
VERTEX
8
OBJECT__7
10
0
20
0
30
0
70
128
71
51
72
52
73
50
0
VERTEX
8
OBJECT__7
10
0
20
0
30
0
70
128
71
49
72
53
73
51
0
VERTEX
8
OBJECT__7
10
0
20
0
30
0
70
128
71
50
72
54
73
55
0
VERTEX
8
OBJECT__7
10
0
20
0
30
0
70
128
71
55
72
56
73
50
0
VERTEX
8
OBJECT__7
10
0
20
0
30
0
70
128
71
1
72
56
73
57
0
VERTEX
8
OBJECT__7
10
0
20
0
30
0
70
128
71
56
72
58
73
57
0
VERTEX
8
OBJECT__7
10
0
20
0
30
0
70
128
71
57
72
2
73
1
0
VERTEX
8
OBJECT__7
10
0
20
0
30
0
70
128
71
55
72
58
73
56
0
VERTEX
8
OBJECT__7
10
0
20
0
30
0
70
128
71
52
72
54
73
50
0
VERTEX
8
OBJECT__7
10
0
20
0
30
0
70
128
71
48
72
53
73
49
0
VERTEX
8
OBJECT__7
10
0
20
0
30
0
70
128
71
45
72
47
73
43
0
VERTEX
8
OBJECT__7
10
0
20
0
30
0
70
128
71
41
72
46
73
42
0
VERTEX
8
OBJECT__7
10
0
20
0
30
0
70
128
71
38
72
40
73
36
0
VERTEX
8
OBJECT__7
10
0
20
0
30
0
70
128
71
34
72
39
73
35
0
VERTEX
8
OBJECT__7
10
0
20
0
30
0
70
128
71
30
72
33
73
31
0
VERTEX
8
OBJECT__7
10
0
20
0
30
0
70
128
71
27
72
32
73
26
0
VERTEX
8
OBJECT__7
10
0
20
0
30
0
70
128
71
23
72
28
73
24
0
VERTEX
8
OBJECT__7
10
0
20
0
30
0
70
128
71
20
72
25
73
19
0
VERTEX
8
OBJECT__7
10
0
20
0
30
0
70
128
71
16
72
21
73
17
0
VERTEX
8
OBJECT__7
10
0
20
0
30
0
70
128
71
13
72
18
73
12
0
VERTEX
8
OBJECT__7
10
0
20
0
30
0
70
128
71
9
72
14
73
10
0
VERTEX
8
OBJECT__7
10
0
20
0
30
0
70
128
71
6
72
11
73
5
0
VERTEX
8
OBJECT__7
10
0
20
0
30
0
70
128
71
3
72
7
73
4
0
SEQEND
8
OBJECT__7
0
POLYLINE
8
OBJECT__8
66
1
70
64
71
133
72
183
62
253
0
VERTEX
8
OBJECT__8
10
-15.000000
20
0.000000
30
8.500000
70
192
0
VERTEX
8
OBJECT__8
10
-14.529000
20
3.730000
30
8.500000
70
192
0
VERTEX
8
OBJECT__8
10
-14.269000
20
3.664000
30
7.500000
70
192
0
VERTEX
8
OBJECT__8
10
-12.910000
20
7.097000
30
7.500000
70
192
0
VERTEX
8
OBJECT__8
10
-13.991000
20
5.089000
30
8.500000
70
192
0
VERTEX
8
OBJECT__8
10
-13.145000
20
7.226000
30
8.500000
70
192
0
VERTEX
8
OBJECT__8
10
-11.425000
20
9.594000
30
8.500000
70
192
0
VERTEX
8
OBJECT__8
10
-10.739000
20
10.085000
30
7.500000
70
192
0
VERTEX
8
OBJECT__8
10
-8.037000
20
12.665000
30
8.500000
70
192
0
VERTEX
8
OBJECT__8
10
-7.894000
20
12.439000
30
7.500000
70
192
0
VERTEX
8
OBJECT__8
10
-4.552000
20
14.011000
30
7.500000
70
192
0
VERTEX
8
OBJECT__8
10
-7.472000
20
12.931000
30
8.500000
70
192
0
VERTEX
8
OBJECT__8
10
-4.635000
20
14.266000
30
8.500000
70
192
0
VERTEX
8
OBJECT__8
10
-2.583000
20
14.657000
30
8.500000
70
192
0
VERTEX
8
OBJECT__8
10
-0.925000
20
14.703000
30
7.500000
70
192
0
VERTEX
8
OBJECT__8
10
-0.942000
20
14.970000
30
8.500000
70
192
0
VERTEX
8
OBJECT__8
10
2.603000
20
14.747000
30
8.500000
70
192
0
VERTEX
8
OBJECT__8
10
2.761000
20
14.471000
30
7.500000
70
192
0
VERTEX
8
OBJECT__8
10
6.387000
20
13.572000
30
8.500000
70
192
0
VERTEX
8
OBJECT__8
10
6.273000
20
13.330000
30
7.500000
70
192
0
VERTEX
8
OBJECT__8
10
9.391000
20
11.351000
30
7.500000
70
192
0
VERTEX
8
OBJECT__8
10
7.444000
20
12.902000
30
8.500000
70
192
0
VERTEX
8
OBJECT__8
10
9.561000
20
11.558000
30
8.500000
70
192
0
VERTEX
8
OBJECT__8
10
11.421000
20
9.577000
30
8.500000
70
192
0
VERTEX
8
OBJECT__8
10
11.918000
20
8.659000
30
7.500000
70
192
0
VERTEX
8
OBJECT__8
10
13.947000
20
5.522000
30
8.500000
70
192
0
VERTEX
8
OBJECT__8
10
13.698000
20
5.423000
30
7.500000
70
192
0
VERTEX
8
OBJECT__8
10
14.616000
20
1.846000
30
7.500000
70
192
0
VERTEX
8
OBJECT__8
10
14.050000
20
5.119000
30
8.500000
70
192
0
VERTEX
8
OBJECT__8
10
14.616000
20
-1.846000
30
7.500000
70
192
0
VERTEX
8
OBJECT__8
10
14.882000
20
0.000000
30
8.500000
70
192
0
VERTEX
8
OBJECT__8
10
14.882000
20
1.880000
30
8.500000
70
192
0
VERTEX
8
OBJECT__8
10
14.882000
20
-1.880000
30
8.500000
70
192
0
VERTEX
8
OBJECT__8
10
14.050000
20
-5.119000
30
8.500000
70
192
0
VERTEX
8
OBJECT__8
10
13.698000
20
-5.423000
30
7.500000
70
192
0
VERTEX
8
OBJECT__8
10
13.947000
20
-5.522000
30
8.500000
70
192
0
VERTEX
8
OBJECT__8
10
12.135000
20
-8.817000
30
8.500000
70
192
0
VERTEX
8
OBJECT__8
10
11.918000
20
-8.659000
30
7.500000
70
192
0
VERTEX
8
OBJECT__8
10
9.391000
20
-11.351000
30
7.500000
70
192
0
VERTEX
8
OBJECT__8
10
11.421000
20
-9.577000
30
8.500000
70
192
0
VERTEX
8
OBJECT__8
10
9.561000
20
-11.558000
30
8.500000
70
192
0
VERTEX
8
OBJECT__8
10
7.444000
20
-12.902000
30
8.500000
70
192
0
VERTEX
8
OBJECT__8
10
6.273000
20
-13.330000
30
7.500000
70
192
0
VERTEX
8
OBJECT__8
10
2.811000
20
-14.734000
30
8.500000
70
192
0
VERTEX
8
OBJECT__8
10
2.761000
20
-14.471000
30
7.500000
70
192
0
VERTEX
8
OBJECT__8
10
-0.925000
20
-14.703000
30
7.500000
70
192
0
VERTEX
8
OBJECT__8
10
2.603000
20
-14.747000
30
8.500000
70
192
0
VERTEX
8
OBJECT__8
10
-4.552000
20
-14.011000
30
7.500000
70
192
0
VERTEX
8
OBJECT__8
10
-2.583000
20
-14.657000
30
8.500000
70
192
0
VERTEX
8
OBJECT__8
10
-0.942000
20
-14.970000
30
8.500000
70
192
0
VERTEX
8
OBJECT__8
10
-4.635000
20
-14.266000
30
8.500000
70
192
0
VERTEX
8
OBJECT__8
10
-7.472000
20
-12.931000
30
8.500000
70
192
0
VERTEX
8
OBJECT__8
10
-7.894000
20
-12.439000
30
7.500000
70
192
0
VERTEX
8
OBJECT__8
10
-10.935000
20
-10.268000
30
8.500000
70
192
0
VERTEX
8
OBJECT__8
10
-10.739000
20
-10.085000
30
7.500000
70
192
0
VERTEX
8
OBJECT__8
10
-12.910000
20
-7.097000
30
7.500000
70
192
0
VERTEX
8
OBJECT__8
10
-11.425000
20
-9.594000
30
8.500000
70
192
0
VERTEX
8
OBJECT__8
10
-13.145000
20
-7.226000
30
8.500000
70
192
0
VERTEX
8
OBJECT__8
10
-13.991000
20
-5.089000
30
8.500000
70
192
0
VERTEX
8
OBJECT__8
10
-14.269000
20
-3.664000
30
7.500000
70
192
0
VERTEX
8
OBJECT__8
10
-14.529000
20
-3.730000
30
8.500000
70
192
0
VERTEX
8
OBJECT__8
10
-14.732000
20
0.000000
30
7.500000
70
192
0
VERTEX
8
OBJECT__8
10
-13.560000
20
3.482000
30
6.768002
70
192
0
VERTEX
8
OBJECT__8
10
-12.268000
20
6.745000
30
6.768002
70
192
0
VERTEX
8
OBJECT__8
10
-10.206000
20
9.584000
30
6.768002
70
192
0
VERTEX
8
OBJECT__8
10
-7.502000
20
11.821000
30
6.768002
70
192
0
VERTEX
8
OBJECT__8
10
-4.326000
20
13.315000
30
6.768002
70
192
0
VERTEX
8
OBJECT__8
10
-0.879000
20
13.972000
30
6.768002
70
192
0
VERTEX
8
OBJECT__8
10
2.623000
20
13.752000
30
6.768002
70
192
0
VERTEX
8
OBJECT__8
10
5.961000
20
12.668000
30
6.768002
70
192
0
VERTEX
8
OBJECT__8
10
8.924000
20
10.787000
30
6.768002
70
192
0
VERTEX
8
OBJECT__8
10
11.326000
20
8.229000
30
6.768002
70
192
0
VERTEX
8
OBJECT__8
10
13.017000
20
5.154000
30
6.768002
70
192
0
VERTEX
8
OBJECT__8
10
13.890000
20
1.755000
30
6.768002
70
192
0
VERTEX
8
OBJECT__8
10
13.890000
20
-1.755000
30
6.768002
70
192
0
VERTEX
8
OBJECT__8
10
13.017000
20
-5.154000
30
6.768002
70
192
0
VERTEX
8
OBJECT__8
10
11.326000
20
-8.229000
30
6.768002
70
192
0
VERTEX
8
OBJECT__8
10
8.924000
20
-10.787000
30
6.768002
70
192
0
VERTEX
8
OBJECT__8
10
5.961000
20
-12.668000
30
6.768002
70
192
0
VERTEX
8
OBJECT__8
10
2.623000
20
-13.752000
30
6.768002
70
192
0
VERTEX
8
OBJECT__8
10
-0.879000
20
-13.972000
30
6.768002
70
192
0
VERTEX
8
OBJECT__8
10
-4.326000
20
-13.315000
30
6.768002
70
192
0
VERTEX
8
OBJECT__8
10
-7.502000
20
-11.821000
30
6.768002
70
192
0
VERTEX
8
OBJECT__8
10
-10.206000
20
-9.584000
30
6.768002
70
192
0
VERTEX
8
OBJECT__8
10
-12.268000
20
-6.745000
30
6.768002
70
192
0
VERTEX
8
OBJECT__8
10
-13.560000
20
-3.482000
30
6.768002
70
192
0
VERTEX
8
OBJECT__8
10
-14.000000
20
0.000000
30
6.768002
70
192
0
VERTEX
8
OBJECT__8
10
-12.592000
20
3.233000
30
6.500000
70
192
0
VERTEX
8
OBJECT__8
10
-13.000000
20
0.000000
30
6.500000
70
192
0
VERTEX
8
OBJECT__8
10
-11.392000
20
6.263000
30
6.500000
70
192
0
VERTEX
8
OBJECT__8
10
-12.027000
20
4.659000
30
6.500000
70
192
0
VERTEX
8
OBJECT__8
10
-9.589000
20
8.745000
30
6.500000
70
192
0
VERTEX
8
OBJECT__8
10
-9.477000
20
8.899000
30
6.500000
70
192
0
VERTEX
8
OBJECT__8
10
-6.966000
20
10.976000
30
6.500000
70
192
0
VERTEX
8
OBJECT__8
10
-4.017000
20
12.364000
30
6.500000
70
192
0
VERTEX
8
OBJECT__8
10
-5.752000
20
11.547000
30
6.500000
70
192
0
VERTEX
8
OBJECT__8
10
-1.192000
20
12.903000
30
6.500000
70
192
0
VERTEX
8
OBJECT__8
10
-0.816000
20
12.974000
30
6.500000
70
192
0
VERTEX
8
OBJECT__8
10
2.436000
20
12.770000
30
6.500000
70
192
0
VERTEX
8
OBJECT__8
10
5.535000
20
11.763000
30
6.500000
70
192
0
VERTEX
8
OBJECT__8
10
3.529000
20
12.415000
30
6.500000
70
192
0
VERTEX
8
OBJECT__8
10
7.802000
20
10.324000
30
6.500000
70
192
0
VERTEX
8
OBJECT__8
10
8.287000
20
10.017000
30
6.500000
70
192
0
VERTEX
8
OBJECT__8
10
10.517000
20
7.641000
30
6.500000
70
192
0
VERTEX
8
OBJECT__8
10
12.087000
20
4.786000
30
6.500000
70
192
0
VERTEX
8
OBJECT__8
10
10.978000
20
6.803000
30
6.500000
70
192
0
VERTEX
8
OBJECT__8
10
12.707000
20
2.370000
30
6.500000
70
192
0
VERTEX
8
OBJECT__8
10
12.897000
20
1.629000
30
6.500000
70
192
0
VERTEX
8
OBJECT__8
10
12.897000
20
-1.629000
30
6.500000
70
192
0
VERTEX
8
OBJECT__8
10
12.087000
20
-4.786000
30
6.500000
70
192
0
VERTEX
8
OBJECT__8
10
12.707000
20
-2.370000
30
6.500000
70
192
0
VERTEX
8
OBJECT__8
10
10.978000
20
-6.803000
30
6.500000
70
192
0
VERTEX
8
OBJECT__8
10
10.517000
20
-7.641000
30
6.500000
70
192
0
VERTEX
8
OBJECT__8
10
8.287000
20
-10.017000
30
6.500000
70
192
0
VERTEX
8
OBJECT__8
10
5.535000
20
-11.763000
30
6.500000
70
192
0
VERTEX
8
OBJECT__8
10
7.802000
20
-10.324000
30
6.500000
70
192
0
VERTEX
8
OBJECT__8
10
3.529000
20
-12.415000
30
6.500000
70
192
0
VERTEX
8
OBJECT__8
10
2.436000
20
-12.770000
30
6.500000
70
192
0
VERTEX
8
OBJECT__8
10
-0.816000
20
-12.974000
30
6.500000
70
192
0
VERTEX
8
OBJECT__8
10
-4.017000
20
-12.364000
30
6.500000
70
192
0
VERTEX
8
OBJECT__8
10
-1.192000
20
-12.903000
30
6.500000
70
192
0
VERTEX
8
OBJECT__8
10
-5.752000
20
-11.547000
30
6.500000
70
192
0
VERTEX
8
OBJECT__8
10
-6.966000
20
-10.976000
30
6.500000
70
192
0
VERTEX
8
OBJECT__8
10
-9.477000
20
-8.899000
30
6.500000
70
192
0
VERTEX
8
OBJECT__8
10
-11.392000
20
-6.263000
30
6.500000
70
192
0
VERTEX
8
OBJECT__8
10
-9.589000
20
-8.745000
30
6.500000
70
192
0
VERTEX
8
OBJECT__8
10
-12.027000
20
-4.659000
30
6.500000
70
192
0
VERTEX
8
OBJECT__8
10
-12.592000
20
-3.233000
30
6.500000
70
192
0
VERTEX
8
OBJECT__8
10
-8.037000
20
-12.665000
30
8.500000
70
192
0
VERTEX
8
OBJECT__8
10
6.387000
20
-13.572000
30
8.500000
70
192
0
VERTEX
8
OBJECT__8
10
12.135000
20
8.817000
30
8.500000
70
192
0
VERTEX
8
OBJECT__8
10
2.811000
20
14.734000
30
8.500000
70
192
0
VERTEX
8
OBJECT__8
10
-10.935000
20
10.268000
30
8.500000
70
192
0
VERTEX
8
OBJECT__8
10
0
20
0
30
0
70
128
71
1
72
2
73
3
0
VERTEX
8
OBJECT__8
10
0
20
0
30
0
70
128
71
4
72
3
73
5
0
VERTEX
8
OBJECT__8
10
0
20
0
30
0
70
128
71
3
72
2
73
5
0
VERTEX
8
OBJECT__8
10
0
20
0
30
0
70
128
71
4
72
6
73
7
0
VERTEX
8
OBJECT__8
10
0
20
0
30
0
70
128
71
7
72
8
73
4
0
VERTEX
8
OBJECT__8
10
0
20
0
30
0
70
128
71
9
72
10
73
8
0
VERTEX
8
OBJECT__8
10
0
20
0
30
0
70
128
71
11
72
10
73
12
0
VERTEX
8
OBJECT__8
10
0
20
0
30
0
70
128
71
10
72
9
73
12
0
VERTEX
8
OBJECT__8
10
0
20
0
30
0
70
128
71
11
72
13
73
14
0
VERTEX
8
OBJECT__8
10
0
20
0
30
0
70
128
71
14
72
15
73
11
0
VERTEX
8
OBJECT__8
10
0
20
0
30
0
70
128
71
15
72
16
73
17
0
VERTEX
8
OBJECT__8
10
0
20
0
30
0
70
128
71
17
72
18
73
15
0
VERTEX
8
OBJECT__8
10
0
20
0
30
0
70
128
71
19
72
20
73
18
0
VERTEX
8
OBJECT__8
10
0
20
0
30
0
70
128
71
21
72
20
73
22
0
VERTEX
8
OBJECT__8
10
0
20
0
30
0
70
128
71
20
72
19
73
22
0
VERTEX
8
OBJECT__8
10
0
20
0
30
0
70
128
71
21
72
23
73
24
0
VERTEX
8
OBJECT__8
10
0
20
0
30
0
70
128
71
24
72
25
73
21
0
VERTEX
8
OBJECT__8
10
0
20
0
30
0
70
128
71
26
72
27
73
25
0
VERTEX
8
OBJECT__8
10
0
20
0
30
0
70
128
71
28
72
27
73
29
0
VERTEX
8
OBJECT__8
10
0
20
0
30
0
70
128
71
27
72
26
73
29
0
VERTEX
8
OBJECT__8
10
0
20
0
30
0
70
128
71
30
72
28
73
31
0
VERTEX
8
OBJECT__8
10
0
20
0
30
0
70
128
71
28
72
32
73
31
0
VERTEX
8
OBJECT__8
10
0
20
0
30
0
70
128
71
30
72
33
73
34
0
VERTEX
8
OBJECT__8
10
0
20
0
30
0
70
128
71
34
72
35
73
30
0
VERTEX
8
OBJECT__8
10
0
20
0
30
0
70
128
71
36
72
37
73
38
0
VERTEX
8
OBJECT__8
10
0
20
0
30
0
70
128
71
39
72
38
73
40
0
VERTEX
8
OBJECT__8
10
0
20
0
30
0
70
128
71
38
72
37
73
40
0
VERTEX
8
OBJECT__8
10
0
20
0
30
0
70
128
71
39
72
41
73
42
0
VERTEX
8
OBJECT__8
10
0
20
0
30
0
70
128
71
42
72
43
73
39
0
VERTEX
8
OBJECT__8
10
0
20
0
30
0
70
128
71
44
72
45
73
43
0
VERTEX
8
OBJECT__8
10
0
20
0
30
0
70
128
71
46
72
45
73
47
0
VERTEX
8
OBJECT__8
10
0
20
0
30
0
70
128
71
45
72
44
73
47
0
VERTEX
8
OBJECT__8
10
0
20
0
30
0
70
128
71
48
72
46
73
49
0
VERTEX
8
OBJECT__8
10
0
20
0
30
0
70
128
71
46
72
50
73
49
0
VERTEX
8
OBJECT__8
10
0
20
0
30
0
70
128
71
48
72
51
73
52
0
VERTEX
8
OBJECT__8
10
0
20
0
30
0
70
128
71
52
72
53
73
48
0
VERTEX
8
OBJECT__8
10
0
20
0
30
0
70
128
71
54
72
55
73
53
0
VERTEX
8
OBJECT__8
10
0
20
0
30
0
70
128
71
56
72
55
73
57
0
VERTEX
8
OBJECT__8
10
0
20
0
30
0
70
128
71
55
72
54
73
57
0
VERTEX
8
OBJECT__8
10
0
20
0
30
0
70
128
71
56
72
58
73
59
0
VERTEX
8
OBJECT__8
10
0
20
0
30
0
70
128
71
59
72
60
73
56
0
VERTEX
8
OBJECT__8
10
0
20
0
30
0
70
128
71
61
72
1
73
62
0
VERTEX
8
OBJECT__8
10
0
20
0
30
0
70
128
71
62
72
3
73
63
0
VERTEX
8
OBJECT__8
10
0
20
0
30
0
70
128
71
3
72
4
73
64
0
VERTEX
8
OBJECT__8
10
0
20
0
30
0
70
128
71
4
72
8
73
65
0
VERTEX
8
OBJECT__8
10
0
20
0
30
0
70
128
71
8
72
10
73
66
0
VERTEX
8
OBJECT__8
10
0
20
0
30
0
70
128
71
10
72
11
73
67
0
VERTEX
8
OBJECT__8
10
0
20
0
30
0
70
128
71
11
72
15
73
68
0
VERTEX
8
OBJECT__8
10
0
20
0
30
0
70
128
71
15
72
18
73
69
0
VERTEX
8
OBJECT__8
10
0
20
0
30
0
70
128
71
18
72
20
73
70
0
VERTEX
8
OBJECT__8
10
0
20
0
30
0
70
128
71
20
72
21
73
71
0
VERTEX
8
OBJECT__8
10
0
20
0
30
0
70
128
71
21
72
25
73
72
0
VERTEX
8
OBJECT__8
10
0
20
0
30
0
70
128
71
25
72
27
73
73
0
VERTEX
8
OBJECT__8
10
0
20
0
30
0
70
128
71
27
72
28
73
74
0
VERTEX
8
OBJECT__8
10
0
20
0
30
0
70
128
71
28
72
30
73
75
0
VERTEX
8
OBJECT__8
10
0
20
0
30
0
70
128
71
30
72
35
73
76
0
VERTEX
8
OBJECT__8
10
0
20
0
30
0
70
128
71
35
72
38
73
77
0
VERTEX
8
OBJECT__8
10
0
20
0
30
0
70
128
71
38
72
39
73
78
0
VERTEX
8
OBJECT__8
10
0
20
0
30
0
70
128
71
39
72
43
73
79
0
VERTEX
8
OBJECT__8
10
0
20
0
30
0
70
128
71
43
72
45
73
80
0
VERTEX
8
OBJECT__8
10
0
20
0
30
0
70
128
71
45
72
46
73
81
0
VERTEX
8
OBJECT__8
10
0
20
0
30
0
70
128
71
46
72
48
73
82
0
VERTEX
8
OBJECT__8
10
0
20
0
30
0
70
128
71
48
72
53
73
83
0
VERTEX
8
OBJECT__8
10
0
20
0
30
0
70
128
71
53
72
55
73
84
0
VERTEX
8
OBJECT__8
10
0
20
0
30
0
70
128
71
55
72
56
73
85
0
VERTEX
8
OBJECT__8
10
0
20
0
30
0
70
128
71
56
72
60
73
86
0
VERTEX
8
OBJECT__8
10
0
20
0
30
0
70
128
71
60
72
62
73
87
0
VERTEX
8
OBJECT__8
10
0
20
0
30
0
70
128
71
63
72
88
73
89
0
VERTEX
8
OBJECT__8
10
0
20
0
30
0
70
128
71
64
72
90
73
91
0
VERTEX
8
OBJECT__8
10
0
20
0
30
0
70
128
71
91
72
63
73
64
0
VERTEX
8
OBJECT__8
10
0
20
0
30
0
70
128
71
64
72
65
73
92
0
VERTEX
8
OBJECT__8
10
0
20
0
30
0
70
128
71
65
72
93
73
92
0
VERTEX
8
OBJECT__8
10
0
20
0
30
0
70
128
71
65
72
66
73
94
0
VERTEX
8
OBJECT__8
10
0
20
0
30
0
70
128
71
67
72
95
73
96
0
VERTEX
8
OBJECT__8
10
0
20
0
30
0
70
128
71
96
72
66
73
67
0
VERTEX
8
OBJECT__8
10
0
20
0
30
0
70
128
71
67
72
68
73
97
0
VERTEX
8
OBJECT__8
10
0
20
0
30
0
70
128
71
68
72
98
73
97
0
VERTEX
8
OBJECT__8
10
0
20
0
30
0
70
128
71
69
72
99
73
98
0
VERTEX
8
OBJECT__8
10
0
20
0
30
0
70
128
71
70
72
100
73
101
0
VERTEX
8
OBJECT__8
10
0
20
0
30
0
70
128
71
101
72
69
73
70
0
VERTEX
8
OBJECT__8
10
0
20
0
30
0
70
128
71
70
72
71
73
102
0
VERTEX
8
OBJECT__8
10
0
20
0
30
0
70
128
71
71
72
103
73
102
0
VERTEX
8
OBJECT__8
10
0
20
0
30
0
70
128
71
72
72
104
73
103
0
VERTEX
8
OBJECT__8
10
0
20
0
30
0
70
128
71
73
72
105
73
106
0
VERTEX
8
OBJECT__8
10
0
20
0
30
0
70
128
71
106
72
72
73
73
0
VERTEX
8
OBJECT__8
10
0
20
0
30
0
70
128
71
73
72
74
73
107
0
VERTEX
8
OBJECT__8
10
0
20
0
30
0
70
128
71
74
72
108
73
107
0
VERTEX
8
OBJECT__8
10
0
20
0
30
0
70
128
71
74
72
75
73
109
0
VERTEX
8
OBJECT__8
10
0
20
0
30
0
70
128
71
76
72
110
73
111
0
VERTEX
8
OBJECT__8
10
0
20
0
30
0
70
128
71
111
72
75
73
76
0
VERTEX
8
OBJECT__8
10
0
20
0
30
0
70
128
71
76
72
77
73
112
0
VERTEX
8
OBJECT__8
10
0
20
0
30
0
70
128
71
77
72
113
73
112
0
VERTEX
8
OBJECT__8
10
0
20
0
30
0
70
128
71
78
72
114
73
113
0
VERTEX
8
OBJECT__8
10
0
20
0
30
0
70
128
71
79
72
115
73
116
0
VERTEX
8
OBJECT__8
10
0
20
0
30
0
70
128
71
116
72
78
73
79
0
VERTEX
8
OBJECT__8
10
0
20
0
30
0
70
128
71
79
72
80
73
117
0
VERTEX
8
OBJECT__8
10
0
20
0
30
0
70
128
71
80
72
118
73
117
0
VERTEX
8
OBJECT__8
10
0
20
0
30
0
70
128
71
81
72
119
73
118
0
VERTEX
8
OBJECT__8
10
0
20
0
30
0
70
128
71
82
72
120
73
121
0
VERTEX
8
OBJECT__8
10
0
20
0
30
0
70
128
71
121
72
81
73
82
0
VERTEX
8
OBJECT__8
10
0
20
0
30
0
70
128
71
82
72
83
73
122
0
VERTEX
8
OBJECT__8
10
0
20
0
30
0
70
128
71
83
72
123
73
122
0
VERTEX
8
OBJECT__8
10
0
20
0
30
0
70
128
71
83
72
84
73
124
0
VERTEX
8
OBJECT__8
10
0
20
0
30
0
70
128
71
85
72
125
73
126
0
VERTEX
8
OBJECT__8
10
0
20
0
30
0
70
128
71
126
72
84
73
85
0
VERTEX
8
OBJECT__8
10
0
20
0
30
0
70
128
71
85
72
86
73
127
0
VERTEX
8
OBJECT__8
10
0
20
0
30
0
70
128
71
86
72
128
73
127
0
VERTEX
8
OBJECT__8
10
0
20
0
30
0
70
128
71
86
72
87
73
89
0
VERTEX
8
OBJECT__8
10
0
20
0
30
0
70
128
71
89
72
128
73
86
0
VERTEX
8
OBJECT__8
10
0
20
0
30
0
70
128
71
127
72
125
73
85
0
VERTEX
8
OBJECT__8
10
0
20
0
30
0
70
128
71
126
72
124
73
84
0
VERTEX
8
OBJECT__8
10
0
20
0
30
0
70
128
71
124
72
123
73
83
0
VERTEX
8
OBJECT__8
10
0
20
0
30
0
70
128
71
122
72
120
73
82
0
VERTEX
8
OBJECT__8
10
0
20
0
30
0
70
128
71
121
72
119
73
81
0
VERTEX
8
OBJECT__8
10
0
20
0
30
0
70
128
71
118
72
80
73
81
0
VERTEX
8
OBJECT__8
10
0
20
0
30
0
70
128
71
117
72
115
73
79
0
VERTEX
8
OBJECT__8
10
0
20
0
30
0
70
128
71
116
72
114
73
78
0
VERTEX
8
OBJECT__8
10
0
20
0
30
0
70
128
71
113
72
77
73
78
0
VERTEX
8
OBJECT__8
10
0
20
0
30
0
70
128
71
112
72
110
73
76
0
VERTEX
8
OBJECT__8
10
0
20
0
30
0
70
128
71
111
72
109
73
75
0
VERTEX
8
OBJECT__8
10
0
20
0
30
0
70
128
71
109
72
108
73
74
0
VERTEX
8
OBJECT__8
10
0
20
0
30
0
70
128
71
107
72
105
73
73
0
VERTEX
8
OBJECT__8
10
0
20
0
30
0
70
128
71
106
72
104
73
72
0
VERTEX
8
OBJECT__8
10
0
20
0
30
0
70
128
71
103
72
71
73
72
0
VERTEX
8
OBJECT__8
10
0
20
0
30
0
70
128
71
102
72
100
73
70
0
VERTEX
8
OBJECT__8
10
0
20
0
30
0
70
128
71
101
72
99
73
69
0
VERTEX
8
OBJECT__8
10
0
20
0
30
0
70
128
71
98
72
68
73
69
0
VERTEX
8
OBJECT__8
10
0
20
0
30
0
70
128
71
97
72
95
73
67
0
VERTEX
8
OBJECT__8
10
0
20
0
30
0
70
128
71
96
72
94
73
66
0
VERTEX
8
OBJECT__8
10
0
20
0
30
0
70
128
71
94
72
93
73
65
0
VERTEX
8
OBJECT__8
10
0
20
0
30
0
70
128
71
92
72
90
73
64
0
VERTEX
8
OBJECT__8
10
0
20
0
30
0
70
128
71
91
72
88
73
63
0
VERTEX
8
OBJECT__8
10
0
20
0
30
0
70
128
71
89
72
87
73
63
0
VERTEX
8
OBJECT__8
10
0
20
0
30
0
70
128
71
87
72
86
73
60
0
VERTEX
8
OBJECT__8
10
0
20
0
30
0
70
128
71
86
72
85
73
56
0
VERTEX
8
OBJECT__8
10
0
20
0
30
0
70
128
71
85
72
84
73
55
0
VERTEX
8
OBJECT__8
10
0
20
0
30
0
70
128
71
84
72
83
73
53
0
VERTEX
8
OBJECT__8
10
0
20
0
30
0
70
128
71
83
72
82
73
48
0
VERTEX
8
OBJECT__8
10
0
20
0
30
0
70
128
71
82
72
81
73
46
0
VERTEX
8
OBJECT__8
10
0
20
0
30
0
70
128
71
81
72
80
73
45
0
VERTEX
8
OBJECT__8
10
0
20
0
30
0
70
128
71
80
72
79
73
43
0
VERTEX
8
OBJECT__8
10
0
20
0
30
0
70
128
71
79
72
78
73
39
0
VERTEX
8
OBJECT__8
10
0
20
0
30
0
70
128
71
78
72
77
73
38
0
VERTEX
8
OBJECT__8
10
0
20
0
30
0
70
128
71
77
72
76
73
35
0
VERTEX
8
OBJECT__8
10
0
20
0
30
0
70
128
71
76
72
75
73
30
0
VERTEX
8
OBJECT__8
10
0
20
0
30
0
70
128
71
75
72
74
73
28
0
VERTEX
8
OBJECT__8
10
0
20
0
30
0
70
128
71
74
72
73
73
27
0
VERTEX
8
OBJECT__8
10
0
20
0
30
0
70
128
71
73
72
72
73
25
0
VERTEX
8
OBJECT__8
10
0
20
0
30
0
70
128
71
72
72
71
73
21
0
VERTEX
8
OBJECT__8
10
0
20
0
30
0
70
128
71
71
72
70
73
20
0
VERTEX
8
OBJECT__8
10
0
20
0
30
0
70
128
71
70
72
69
73
18
0
VERTEX
8
OBJECT__8
10
0
20
0
30
0
70
128
71
69
72
68
73
15
0
VERTEX
8
OBJECT__8
10
0
20
0
30
0
70
128
71
68
72
67
73
11
0
VERTEX
8
OBJECT__8
10
0
20
0
30
0
70
128
71
67
72
66
73
10
0
VERTEX
8
OBJECT__8
10
0
20
0
30
0
70
128
71
66
72
65
73
8
0
VERTEX
8
OBJECT__8
10
0
20
0
30
0
70
128
71
65
72
64
73
4
0
VERTEX
8
OBJECT__8
10
0
20
0
30
0
70
128
71
64
72
63
73
3
0
VERTEX
8
OBJECT__8
10
0
20
0
30
0
70
128
71
63
72
87
73
62
0
VERTEX
8
OBJECT__8
10
0
20
0
30
0
70
128
71
62
72
60
73
61
0
VERTEX
8
OBJECT__8
10
0
20
0
30
0
70
128
71
59
72
61
73
60
0
VERTEX
8
OBJECT__8
10
0
20
0
30
0
70
128
71
57
72
58
73
56
0
VERTEX
8
OBJECT__8
10
0
20
0
30
0
70
128
71
53
72
129
73
54
0
VERTEX
8
OBJECT__8
10
0
20
0
30
0
70
128
71
52
72
129
73
53
0
VERTEX
8
OBJECT__8
10
0
20
0
30
0
70
128
71
49
72
51
73
48
0
VERTEX
8
OBJECT__8
10
0
20
0
30
0
70
128
71
47
72
50
73
46
0
VERTEX
8
OBJECT__8
10
0
20
0
30
0
70
128
71
43
72
130
73
44
0
VERTEX
8
OBJECT__8
10
0
20
0
30
0
70
128
71
42
72
130
73
43
0
VERTEX
8
OBJECT__8
10
0
20
0
30
0
70
128
71
40
72
41
73
39
0
VERTEX
8
OBJECT__8
10
0
20
0
30
0
70
128
71
38
72
35
73
36
0
VERTEX
8
OBJECT__8
10
0
20
0
30
0
70
128
71
34
72
36
73
35
0
VERTEX
8
OBJECT__8
10
0
20
0
30
0
70
128
71
31
72
33
73
30
0
VERTEX
8
OBJECT__8
10
0
20
0
30
0
70
128
71
29
72
32
73
28
0
VERTEX
8
OBJECT__8
10
0
20
0
30
0
70
128
71
25
72
131
73
26
0
VERTEX
8
OBJECT__8
10
0
20
0
30
0
70
128
71
24
72
131
73
25
0
VERTEX
8
OBJECT__8
10
0
20
0
30
0
70
128
71
22
72
23
73
21
0
VERTEX
8
OBJECT__8
10
0
20
0
30
0
70
128
71
18
72
132
73
19
0
VERTEX
8
OBJECT__8
10
0
20
0
30
0
70
128
71
17
72
132
73
18
0
VERTEX
8
OBJECT__8
10
0
20
0
30
0
70
128
71
14
72
16
73
15
0
VERTEX
8
OBJECT__8
10
0
20
0
30
0
70
128
71
12
72
13
73
11
0
VERTEX
8
OBJECT__8
10
0
20
0
30
0
70
128
71
8
72
133
73
9
0
VERTEX
8
OBJECT__8
10
0
20
0
30
0
70
128
71
7
72
133
73
8
0
VERTEX
8
OBJECT__8
10
0
20
0
30
0
70
128
71
5
72
6
73
4
0
VERTEX
8
OBJECT__8
10
0
20
0
30
0
70
128
71
3
72
62
73
1
0
SEQEND
8
OBJECT__8
0
POLYLINE
8
OBJECT__9
66
1
70
64
71
60
72
60
62
253
0
VERTEX
8
OBJECT__9
10
-15.000000
20
0.000000
30
11.500000
70
192
0
VERTEX
8
OBJECT__9
10
-14.095000
20
5.130000
30
11.500000
70
192
0
VERTEX
8
OBJECT__9
10
-14.529000
20
3.730000
30
8.500000
70
192
0
VERTEX
8
OBJECT__9
10
-13.991000
20
5.089000
30
8.500000
70
192
0
VERTEX
8
OBJECT__9
10
-11.491000
20
9.642000
30
11.500000
70
192
0
VERTEX
8
OBJECT__9
10
-11.425000
20
9.594000
30
8.500000
70
192
0
VERTEX
8
OBJECT__9
10
-13.145000
20
7.226000
30
8.500000
70
192
0
VERTEX
8
OBJECT__9
10
-7.500000
20
12.990000
30
11.500000
70
192
0
VERTEX
8
OBJECT__9
10
-8.037000
20
12.665000
30
8.500000
70
192
0
VERTEX
8
OBJECT__9
10
-10.935000
20
10.268000
30
8.500000
70
192
0
VERTEX
8
OBJECT__9
10
-7.472000
20
12.931000
30
8.500000
70
192
0
VERTEX
8
OBJECT__9
10
-2.605000
20
14.772000
30
11.500000
70
192
0
VERTEX
8
OBJECT__9
10
-4.635000
20
14.266000
30
8.500000
70
192
0
VERTEX
8
OBJECT__9
10
-2.583000
20
14.657000
30
8.500000
70
192
0
VERTEX
8
OBJECT__9
10
2.605000
20
14.772000
30
11.500000
70
192
0
VERTEX
8
OBJECT__9
10
2.603000
20
14.747000
30
8.500000
70
192
0
VERTEX
8
OBJECT__9
10
-0.942000
20
14.970000
30
8.500000
70
192
0
VERTEX
8
OBJECT__9
10
7.500000
20
12.990000
30
11.500000
70
192
0
VERTEX
8
OBJECT__9
10
6.387000
20
13.572000
30
8.500000
70
192
0
VERTEX
8
OBJECT__9
10
2.811000
20
14.734000
30
8.500000
70
192
0
VERTEX
8
OBJECT__9
10
7.444000
20
12.902000
30
8.500000
70
192
0
VERTEX
8
OBJECT__9
10
11.491000
20
9.642000
30
11.500000
70
192
0
VERTEX
8
OBJECT__9
10
11.421000
20
9.577000
30
8.500000
70
192
0
VERTEX
8
OBJECT__9
10
9.561000
20
11.558000
30
8.500000
70
192
0
VERTEX
8
OBJECT__9
10
14.095000
20
5.130000
30
11.500000
70
192
0
VERTEX
8
OBJECT__9
10
13.947000
20
5.522000
30
8.500000
70
192
0
VERTEX
8
OBJECT__9
10
12.135000
20
8.817000
30
8.500000
70
192
0
VERTEX
8
OBJECT__9
10
14.050000
20
5.119000
30
8.500000
70
192
0
VERTEX
8
OBJECT__9
10
15.000000
20
0.000000
30
11.500000
70
192
0
VERTEX
8
OBJECT__9
10
14.882000
20
1.880000
30
8.500000
70
192
0
VERTEX
8
OBJECT__9
10
14.882000
20
0.000000
30
8.500000
70
192
0
VERTEX
8
OBJECT__9
10
14.095000
20
-5.130000
30
11.500000
70
192
0
VERTEX
8
OBJECT__9
10
14.050000
20
-5.119000
30
8.500000
70
192
0
VERTEX
8
OBJECT__9
10
14.882000
20
-1.880000
30
8.500000
70
192
0
VERTEX
8
OBJECT__9
10
11.491000
20
-9.642000
30
11.500000
70
192
0
VERTEX
8
OBJECT__9
10
12.135000
20
-8.817000
30
8.500000
70
192
0
VERTEX
8
OBJECT__9
10
13.947000
20
-5.522000
30
8.500000
70
192
0
VERTEX
8
OBJECT__9
10
11.421000
20
-9.577000
30
8.500000
70
192
0
VERTEX
8
OBJECT__9
10
7.500000
20
-12.990000
30
11.500000
70
192
0
VERTEX
8
OBJECT__9
10
9.561000
20
-11.558000
30
8.500000
70
192
0
VERTEX
8
OBJECT__9
10
7.444000
20
-12.902000
30
8.500000
70
192
0
VERTEX
8
OBJECT__9
10
2.605000
20
-14.772000
30
11.500000
70
192
0
VERTEX
8
OBJECT__9
10
2.811000
20
-14.734000
30
8.500000
70
192
0
VERTEX
8
OBJECT__9
10
6.387000
20
-13.572000
30
8.500000
70
192
0
VERTEX
8
OBJECT__9
10
2.603000
20
-14.747000
30
8.500000
70
192
0
VERTEX
8
OBJECT__9
10
-2.605000
20
-14.772000
30
11.500000
70
192
0
VERTEX
8
OBJECT__9
10
-0.942000
20
-14.970000
30
8.500000
70
192
0
VERTEX
8
OBJECT__9
10
-2.583000
20
-14.657000
30
8.500000
70
192
0
VERTEX
8
OBJECT__9
10
-7.500000
20
-12.990000
30
11.500000
70
192
0
VERTEX
8
OBJECT__9
10
-7.472000
20
-12.931000
30
8.500000
70
192
0
VERTEX
8
OBJECT__9
10
-4.635000
20
-14.266000
30
8.500000
70
192
0
VERTEX
8
OBJECT__9
10
-11.491000
20
-9.642000
30
11.500000
70
192
0
VERTEX
8
OBJECT__9
10
-10.935000
20
-10.268000
30
8.500000
70
192
0
VERTEX
8
OBJECT__9
10
-8.037000
20
-12.665000
30
8.500000
70
192
0
VERTEX
8
OBJECT__9
10
-11.425000
20
-9.594000
30
8.500000
70
192
0
VERTEX
8
OBJECT__9
10
-14.095000
20
-5.130000
30
11.500000
70
192
0
VERTEX
8
OBJECT__9
10
-13.145000
20
-7.226000
30
8.500000
70
192
0
VERTEX
8
OBJECT__9
10
-13.991000
20
-5.089000
30
8.500000
70
192
0
VERTEX
8
OBJECT__9
10
-15.000000
20
0.000000
30
8.500000
70
192
0
VERTEX
8
OBJECT__9
10
-14.529000
20
-3.730000
30
8.500000
70
192
0
VERTEX
8
OBJECT__9
10
0
20
0
30
0
70
128
71
1
72
2
73
3
0
VERTEX
8
OBJECT__9
10
0
20
0
30
0
70
128
71
2
72
4
73
3
0
VERTEX
8
OBJECT__9
10
0
20
0
30
0
70
128
71
5
72
6
73
7
0
VERTEX
8
OBJECT__9
10
0
20
0
30
0
70
128
71
7
72
2
73
5
0
VERTEX
8
OBJECT__9
10
0
20
0
30
0
70
128
71
8
72
9
73
10
0
VERTEX
8
OBJECT__9
10
0
20
0
30
0
70
128
71
10
72
5
73
8
0
VERTEX
8
OBJECT__9
10
0
20
0
30
0
70
128
71
8
72
11
73
9
0
VERTEX
8
OBJECT__9
10
0
20
0
30
0
70
128
71
8
72
12
73
13
0
VERTEX
8
OBJECT__9
10
0
20
0
30
0
70
128
71
12
72
14
73
13
0
VERTEX
8
OBJECT__9
10
0
20
0
30
0
70
128
71
15
72
16
73
17
0
VERTEX
8
OBJECT__9
10
0
20
0
30
0
70
128
71
17
72
12
73
15
0
VERTEX
8
OBJECT__9
10
0
20
0
30
0
70
128
71
15
72
18
73
19
0
VERTEX
8
OBJECT__9
10
0
20
0
30
0
70
128
71
19
72
20
73
15
0
VERTEX
8
OBJECT__9
10
0
20
0
30
0
70
128
71
18
72
21
73
19
0
VERTEX
8
OBJECT__9
10
0
20
0
30
0
70
128
71
22
72
23
73
24
0
VERTEX
8
OBJECT__9
10
0
20
0
30
0
70
128
71
24
72
18
73
22
0
VERTEX
8
OBJECT__9
10
0
20
0
30
0
70
128
71
25
72
26
73
27
0
VERTEX
8
OBJECT__9
10
0
20
0
30
0
70
128
71
27
72
22
73
25
0
VERTEX
8
OBJECT__9
10
0
20
0
30
0
70
128
71
25
72
28
73
26
0
VERTEX
8
OBJECT__9
10
0
20
0
30
0
70
128
71
25
72
29
73
30
0
VERTEX
8
OBJECT__9
10
0
20
0
30
0
70
128
71
29
72
31
73
30
0
VERTEX
8
OBJECT__9
10
0
20
0
30
0
70
128
71
32
72
33
73
34
0
VERTEX
8
OBJECT__9
10
0
20
0
30
0
70
128
71
34
72
29
73
32
0
VERTEX
8
OBJECT__9
10
0
20
0
30
0
70
128
71
32
72
35
73
36
0
VERTEX
8
OBJECT__9
10
0
20
0
30
0
70
128
71
36
72
37
73
32
0
VERTEX
8
OBJECT__9
10
0
20
0
30
0
70
128
71
35
72
38
73
36
0
VERTEX
8
OBJECT__9
10
0
20
0
30
0
70
128
71
35
72
39
73
40
0
VERTEX
8
OBJECT__9
10
0
20
0
30
0
70
128
71
39
72
41
73
40
0
VERTEX
8
OBJECT__9
10
0
20
0
30
0
70
128
71
42
72
43
73
44
0
VERTEX
8
OBJECT__9
10
0
20
0
30
0
70
128
71
44
72
39
73
42
0
VERTEX
8
OBJECT__9
10
0
20
0
30
0
70
128
71
42
72
45
73
43
0
VERTEX
8
OBJECT__9
10
0
20
0
30
0
70
128
71
42
72
46
73
47
0
VERTEX
8
OBJECT__9
10
0
20
0
30
0
70
128
71
46
72
48
73
47
0
VERTEX
8
OBJECT__9
10
0
20
0
30
0
70
128
71
49
72
50
73
51
0
VERTEX
8
OBJECT__9
10
0
20
0
30
0
70
128
71
51
72
46
73
49
0
VERTEX
8
OBJECT__9
10
0
20
0
30
0
70
128
71
49
72
52
73
53
0
VERTEX
8
OBJECT__9
10
0
20
0
30
0
70
128
71
53
72
54
73
49
0
VERTEX
8
OBJECT__9
10
0
20
0
30
0
70
128
71
52
72
55
73
53
0
VERTEX
8
OBJECT__9
10
0
20
0
30
0
70
128
71
52
72
56
73
57
0
VERTEX
8
OBJECT__9
10
0
20
0
30
0
70
128
71
56
72
58
73
57
0
VERTEX
8
OBJECT__9
10
0
20
0
30
0
70
128
71
1
72
59
73
60
0
VERTEX
8
OBJECT__9
10
0
20
0
30
0
70
128
71
60
72
56
73
1
0
VERTEX
8
OBJECT__9
10
0
20
0
30
0
70
128
71
60
72
58
73
56
0
VERTEX
8
OBJECT__9
10
0
20
0
30
0
70
128
71
57
72
55
73
52
0
VERTEX
8
OBJECT__9
10
0
20
0
30
0
70
128
71
54
72
50
73
49
0
VERTEX
8
OBJECT__9
10
0
20
0
30
0
70
128
71
51
72
48
73
46
0
VERTEX
8
OBJECT__9
10
0
20
0
30
0
70
128
71
47
72
45
73
42
0
VERTEX
8
OBJECT__9
10
0
20
0
30
0
70
128
71
44
72
41
73
39
0
VERTEX
8
OBJECT__9
10
0
20
0
30
0
70
128
71
40
72
38
73
35
0
VERTEX
8
OBJECT__9
10
0
20
0
30
0
70
128
71
37
72
33
73
32
0
VERTEX
8
OBJECT__9
10
0
20
0
30
0
70
128
71
34
72
31
73
29
0
VERTEX
8
OBJECT__9
10
0
20
0
30
0
70
128
71
30
72
28
73
25
0
VERTEX
8
OBJECT__9
10
0
20
0
30
0
70
128
71
27
72
23
73
22
0
VERTEX
8
OBJECT__9
10
0
20
0
30
0
70
128
71
24
72
21
73
18
0
VERTEX
8
OBJECT__9
10
0
20
0
30
0
70
128
71
20
72
16
73
15
0
VERTEX
8
OBJECT__9
10
0
20
0
30
0
70
128
71
17
72
14
73
12
0
VERTEX
8
OBJECT__9
10
0
20
0
30
0
70
128
71
13
72
11
73
8
0
VERTEX
8
OBJECT__9
10
0
20
0
30
0
70
128
71
10
72
6
73
5
0
VERTEX
8
OBJECT__9
10
0
20
0
30
0
70
128
71
7
72
4
73
2
0
VERTEX
8
OBJECT__9
10
0
20
0
30
0
70
128
71
3
72
59
73
1
0
SEQEND
8
OBJECT__9
0
POLYLINE
8
OBJECT__10
66
1
70
64
71
44
72
44
62
253
0
VERTEX
8
OBJECT__10
10
5.451000
20
-14.374000
30
11.500000
70
192
0
VERTEX
8
OBJECT__10
10
1.853000
20
-15.261000
30
11.500000
70
192
0
VERTEX
8
OBJECT__10
10
2.605000
20
-14.772000
30
11.500000
70
192
0
VERTEX
8
OBJECT__10
10
-11.491000
20
9.642000
30
11.500000
70
192
0
VERTEX
8
OBJECT__10
10
-14.095000
20
5.130000
30
11.500000
70
192
0
VERTEX
8
OBJECT__10
10
-13.612000
20
7.144000
30
11.500000
70
192
0
VERTEX
8
OBJECT__10
10
-5.451000
20
14.374000
30
11.500000
70
192
0
VERTEX
8
OBJECT__10
10
-1.853000
20
15.261000
30
11.500000
70
192
0
VERTEX
8
OBJECT__10
10
-2.605000
20
14.772000
30
11.500000
70
192
0
VERTEX
8
OBJECT__10
10
11.491000
20
-9.642000
30
11.500000
70
192
0
VERTEX
8
OBJECT__10
10
14.095000
20
-5.130000
30
11.500000
70
192
0
VERTEX
8
OBJECT__10
10
13.612000
20
-7.144000
30
11.500000
70
192
0
VERTEX
8
OBJECT__10
10
7.500000
20
-12.990000
30
11.500000
70
192
0
VERTEX
8
OBJECT__10
10
-1.853000
20
-15.261000
30
11.500000
70
192
0
VERTEX
8
OBJECT__10
10
-5.451000
20
-14.374000
30
11.500000
70
192
0
VERTEX
8
OBJECT__10
10
-7.500000
20
-12.990000
30
11.500000
70
192
0
VERTEX
8
OBJECT__10
10
-2.605000
20
-14.772000
30
11.500000
70
192
0
VERTEX
8
OBJECT__10
10
-11.507000
20
10.194000
30
11.500000
70
192
0
VERTEX
8
OBJECT__10
10
-8.733000
20
12.651000
30
11.500000
70
192
0
VERTEX
8
OBJECT__10
10
-7.500000
20
12.990000
30
11.500000
70
192
0
VERTEX
8
OBJECT__10
10
1.853000
20
15.261000
30
11.500000
70
192
0
VERTEX
8
OBJECT__10
10
5.451000
20
14.374000
30
11.500000
70
192
0
VERTEX
8
OBJECT__10
10
7.500000
20
12.990000
30
11.500000
70
192
0
VERTEX
8
OBJECT__10
10
2.605000
20
14.772000
30
11.500000
70
192
0
VERTEX
8
OBJECT__10
10
11.491000
20
9.642000
30
11.500000
70
192
0
VERTEX
8
OBJECT__10
10
11.507000
20
10.194000
30
11.500000
70
192
0
VERTEX
8
OBJECT__10
10
13.612000
20
7.144000
30
11.500000
70
192
0
VERTEX
8
OBJECT__10
10
11.507000
20
-10.194000
30
11.500000
70
192
0
VERTEX
8
OBJECT__10
10
8.733000
20
-12.651000
30
11.500000
70
192
0
VERTEX
8
OBJECT__10
10
-8.733000
20
-12.651000
30
11.500000
70
192
0
VERTEX
8
OBJECT__10
10
8.733000
20
12.651000
30
11.500000
70
192
0
VERTEX
8
OBJECT__10
10
14.926000
20
3.679000
30
11.500000
70
192
0
VERTEX
8
OBJECT__10
10
14.095000
20
5.130000
30
11.500000
70
192
0
VERTEX
8
OBJECT__10
10
15.000000
20
0.000000
30
11.500000
70
192
0
VERTEX
8
OBJECT__10
10
15.373000
20
0.000000
30
11.500000
70
192
0
VERTEX
8
OBJECT__10
10
14.926000
20
-3.679000
30
11.500000
70
192
0
VERTEX
8
OBJECT__10
10
-11.491000
20
-9.642000
30
11.500000
70
192
0
VERTEX
8
OBJECT__10
10
-11.507000
20
-10.194000
30
11.500000
70
192
0
VERTEX
8
OBJECT__10
10
-13.612000
20
-7.144000
30
11.500000
70
192
0
VERTEX
8
OBJECT__10
10
-14.926000
20
-3.679000
30
11.500000
70
192
0
VERTEX
8
OBJECT__10
10
-14.095000
20
-5.130000
30
11.500000
70
192
0
VERTEX
8
OBJECT__10
10
-15.000000
20
0.000000
30
11.500000
70
192
0
VERTEX
8
OBJECT__10
10
-15.373000
20
0.000000
30
11.500000
70
192
0
VERTEX
8
OBJECT__10
10
-14.926000
20
3.679000
30
11.500000
70
192
0
VERTEX
8
OBJECT__10
10
0
20
0
30
0
70
128
71
1
72
2
73
3
0
VERTEX
8
OBJECT__10
10
0
20
0
30
0
70
128
71
4
72
5
73
6
0
VERTEX
8
OBJECT__10
10
0
20
0
30
0
70
128
71
7
72
8
73
9
0
VERTEX
8
OBJECT__10
10
0
20
0
30
0
70
128
71
10
72
11
73
12
0
VERTEX
8
OBJECT__10
10
0
20
0
30
0
70
128
71
3
72
13
73
1
0
VERTEX
8
OBJECT__10
10
0
20
0
30
0
70
128
71
3
72
2
73
14
0
VERTEX
8
OBJECT__10
10
0
20
0
30
0
70
128
71
15
72
16
73
17
0
VERTEX
8
OBJECT__10
10
0
20
0
30
0
70
128
71
6
72
18
73
4
0
VERTEX
8
OBJECT__10
10
0
20
0
30
0
70
128
71
4
72
18
73
19
0
VERTEX
8
OBJECT__10
10
0
20
0
30
0
70
128
71
9
72
20
73
7
0
VERTEX
8
OBJECT__10
10
0
20
0
30
0
70
128
71
9
72
8
73
21
0
VERTEX
8
OBJECT__10
10
0
20
0
30
0
70
128
71
22
72
23
73
24
0
VERTEX
8
OBJECT__10
10
0
20
0
30
0
70
128
71
25
72
26
73
27
0
VERTEX
8
OBJECT__10
10
0
20
0
30
0
70
128
71
12
72
28
73
10
0
VERTEX
8
OBJECT__10
10
0
20
0
30
0
70
128
71
10
72
28
73
29
0
VERTEX
8
OBJECT__10
10
0
20
0
30
0
70
128
71
14
72
17
73
3
0
VERTEX
8
OBJECT__10
10
0
20
0
30
0
70
128
71
15
72
30
73
16
0
VERTEX
8
OBJECT__10
10
0
20
0
30
0
70
128
71
19
72
20
73
4
0
VERTEX
8
OBJECT__10
10
0
20
0
30
0
70
128
71
21
72
24
73
9
0
VERTEX
8
OBJECT__10
10
0
20
0
30
0
70
128
71
22
72
31
73
23
0
VERTEX
8
OBJECT__10
10
0
20
0
30
0
70
128
71
25
72
23
73
31
0
VERTEX
8
OBJECT__10
10
0
20
0
30
0
70
128
71
27
72
32
73
33
0
VERTEX
8
OBJECT__10
10
0
20
0
30
0
70
128
71
34
72
33
73
32
0
VERTEX
8
OBJECT__10
10
0
20
0
30
0
70
128
71
29
72
13
73
10
0
VERTEX
8
OBJECT__10
10
0
20
0
30
0
70
128
71
17
72
14
73
15
0
VERTEX
8
OBJECT__10
10
0
20
0
30
0
70
128
71
20
72
19
73
7
0
VERTEX
8
OBJECT__10
10
0
20
0
30
0
70
128
71
31
72
26
73
25
0
VERTEX
8
OBJECT__10
10
0
20
0
30
0
70
128
71
32
72
35
73
34
0
VERTEX
8
OBJECT__10
10
0
20
0
30
0
70
128
71
34
72
35
73
36
0
VERTEX
8
OBJECT__10
10
0
20
0
30
0
70
128
71
13
72
29
73
1
0
VERTEX
8
OBJECT__10
10
0
20
0
30
0
70
128
71
37
72
16
73
30
0
VERTEX
8
OBJECT__10
10
0
20
0
30
0
70
128
71
37
72
38
73
39
0
VERTEX
8
OBJECT__10
10
0
20
0
30
0
70
128
71
24
72
21
73
22
0
VERTEX
8
OBJECT__10
10
0
20
0
30
0
70
128
71
36
72
11
73
34
0
VERTEX
8
OBJECT__10
10
0
20
0
30
0
70
128
71
30
72
38
73
37
0
VERTEX
8
OBJECT__10
10
0
20
0
30
0
70
128
71
39
72
40
73
41
0
VERTEX
8
OBJECT__10
10
0
20
0
30
0
70
128
71
42
72
43
73
44
0
VERTEX
8
OBJECT__10
10
0
20
0
30
0
70
128
71
27
72
33
73
25
0
VERTEX
8
OBJECT__10
10
0
20
0
30
0
70
128
71
39
72
41
73
37
0
VERTEX
8
OBJECT__10
10
0
20
0
30
0
70
128
71
42
72
41
73
40
0
VERTEX
8
OBJECT__10
10
0
20
0
30
0
70
128
71
5
72
44
73
6
0
VERTEX
8
OBJECT__10
10
0
20
0
30
0
70
128
71
40
72
43
73
42
0
VERTEX
8
OBJECT__10
10
0
20
0
30
0
70
128
71
11
72
36
73
12
0
VERTEX
8
OBJECT__10
10
0
20
0
30
0
70
128
71
44
72
5
73
42
0
SEQEND
8
OBJECT__10
0
POLYLINE
8
OBJECT__11
66
1
70
64
71
68
72
68
62
253
0
VERTEX
8
OBJECT__11
10
-15.773000
20
0.000000
30
11.900002
70
192
0
VERTEX
8
OBJECT__11
10
-15.314000
20
3.775000
30
11.900002
70
192
0
VERTEX
8
OBJECT__11
10
-14.926000
20
3.679000
30
11.500000
70
192
0
VERTEX
8
OBJECT__11
10
-13.612000
20
7.144000
30
11.500000
70
192
0
VERTEX
8
OBJECT__11
10
-14.715000
20
5.354000
30
11.900002
70
192
0
VERTEX
8
OBJECT__11
10
-13.966000
20
7.330000
30
11.900002
70
192
0
VERTEX
8
OBJECT__11
10
-12.045000
20
10.113000
30
11.900002
70
192
0
VERTEX
8
OBJECT__11
10
-11.507000
20
10.194000
30
11.500000
70
192
0
VERTEX
8
OBJECT__11
10
-8.960000
20
12.981000
30
11.900002
70
192
0
VERTEX
8
OBJECT__11
10
-8.733000
20
12.651000
30
11.500000
70
192
0
VERTEX
8
OBJECT__11
10
-5.451000
20
14.374000
30
11.500000
70
192
0
VERTEX
8
OBJECT__11
10
-7.839000
20
13.569000
30
11.900002
70
192
0
VERTEX
8
OBJECT__11
10
-5.593000
20
14.748000
30
11.900002
70
192
0
VERTEX
8
OBJECT__11
10
-2.720000
20
15.456000
30
11.900002
70
192
0
VERTEX
8
OBJECT__11
10
-1.853000
20
15.261000
30
11.500000
70
192
0
VERTEX
8
OBJECT__11
10
-1.901000
20
15.658000
30
11.900002
70
192
0
VERTEX
8
OBJECT__11
10
1.901000
20
15.658000
30
11.900002
70
192
0
VERTEX
8
OBJECT__11
10
1.853000
20
15.261000
30
11.500000
70
192
0
VERTEX
8
OBJECT__11
10
5.451000
20
14.374000
30
11.500000
70
192
0
VERTEX
8
OBJECT__11
10
2.720000
20
15.456000
30
11.900002
70
192
0
VERTEX
8
OBJECT__11
10
5.593000
20
14.748000
30
11.900002
70
192
0
VERTEX
8
OBJECT__11
10
7.839000
20
13.569000
30
11.900002
70
192
0
VERTEX
8
OBJECT__11
10
8.733000
20
12.651000
30
11.500000
70
192
0
VERTEX
8
OBJECT__11
10
8.960000
20
12.981000
30
11.900002
70
192
0
VERTEX
8
OBJECT__11
10
11.806000
20
10.459000
30
11.900002
70
192
0
VERTEX
8
OBJECT__11
10
11.507000
20
10.194000
30
11.500000
70
192
0
VERTEX
8
OBJECT__11
10
13.612000
20
7.144000
30
11.500000
70
192
0
VERTEX
8
OBJECT__11
10
12.045000
20
10.113000
30
11.900002
70
192
0
VERTEX
8
OBJECT__11
10
13.966000
20
7.330000
30
11.900002
70
192
0
VERTEX
8
OBJECT__11
10
14.715000
20
5.354000
30
11.900002
70
192
0
VERTEX
8
OBJECT__11
10
14.926000
20
3.679000
30
11.500000
70
192
0
VERTEX
8
OBJECT__11
10
15.773000
20
0.000000
30
11.900002
70
192
0
VERTEX
8
OBJECT__11
10
15.373000
20
0.000000
30
11.500000
70
192
0
VERTEX
8
OBJECT__11
10
15.314000
20
-3.775000
30
11.900002
70
192
0
VERTEX
8
OBJECT__11
10
14.926000
20
-3.679000
30
11.500000
70
192
0
VERTEX
8
OBJECT__11
10
13.612000
20
-7.144000
30
11.500000
70
192
0
VERTEX
8
OBJECT__11
10
14.715000
20
-5.354000
30
11.900002
70
192
0
VERTEX
8
OBJECT__11
10
13.966000
20
-7.330000
30
11.900002
70
192
0
VERTEX
8
OBJECT__11
10
12.045000
20
-10.113000
30
11.900002
70
192
0
VERTEX
8
OBJECT__11
10
11.507000
20
-10.194000
30
11.500000
70
192
0
VERTEX
8
OBJECT__11
10
8.960000
20
-12.981000
30
11.900002
70
192
0
VERTEX
8
OBJECT__11
10
8.733000
20
-12.651000
30
11.500000
70
192
0
VERTEX
8
OBJECT__11
10
5.451000
20
-14.374000
30
11.500000
70
192
0
VERTEX
8
OBJECT__11
10
7.839000
20
-13.569000
30
11.900002
70
192
0
VERTEX
8
OBJECT__11
10
5.593000
20
-14.748000
30
11.900002
70
192
0
VERTEX
8
OBJECT__11
10
2.720000
20
-15.456000
30
11.900002
70
192
0
VERTEX
8
OBJECT__11
10
1.853000
20
-15.261000
30
11.500000
70
192
0
VERTEX
8
OBJECT__11
10
1.901000
20
-15.658000
30
11.900002
70
192
0
VERTEX
8
OBJECT__11
10
-1.901000
20
-15.658000
30
11.900002
70
192
0
VERTEX
8
OBJECT__11
10
-1.853000
20
-15.261000
30
11.500000
70
192
0
VERTEX
8
OBJECT__11
10
-5.451000
20
-14.374000
30
11.500000
70
192
0
VERTEX
8
OBJECT__11
10
-2.720000
20
-15.456000
30
11.900002
70
192
0
VERTEX
8
OBJECT__11
10
-5.593000
20
-14.748000
30
11.900002
70
192
0
VERTEX
8
OBJECT__11
10
-7.839000
20
-13.569000
30
11.900002
70
192
0
VERTEX
8
OBJECT__11
10
-8.733000
20
-12.651000
30
11.500000
70
192
0
VERTEX
8
OBJECT__11
10
-8.960000
20
-12.981000
30
11.900002
70
192
0
VERTEX
8
OBJECT__11
10
-11.806000
20
-10.459000
30
11.900002
70
192
0
VERTEX
8
OBJECT__11
10
-11.507000
20
-10.194000
30
11.500000
70
192
0
VERTEX
8
OBJECT__11
10
-13.612000
20
-7.144000
30
11.500000
70
192
0
VERTEX
8
OBJECT__11
10
-12.045000
20
-10.113000
30
11.900002
70
192
0
VERTEX
8
OBJECT__11
10
-13.966000
20
-7.330000
30
11.900002
70
192
0
VERTEX
8
OBJECT__11
10
-14.715000
20
-5.354000
30
11.900002
70
192
0
VERTEX
8
OBJECT__11
10
-14.926000
20
-3.679000
30
11.500000
70
192
0
VERTEX
8
OBJECT__11
10
-15.314000
20
-3.775000
30
11.900002
70
192
0
VERTEX
8
OBJECT__11
10
-15.373000
20
0.000000
30
11.500000
70
192
0
VERTEX
8
OBJECT__11
10
11.806000
20
-10.459000
30
11.900002
70
192
0
VERTEX
8
OBJECT__11
10
15.314000
20
3.775000
30
11.900002
70
192
0
VERTEX
8
OBJECT__11
10
-11.806000
20
10.459000
30
11.900002
70
192
0
VERTEX
8
OBJECT__11
10
0
20
0
30
0
70
128
71
1
72
2
73
3
0
VERTEX
8
OBJECT__11
10
0
20
0
30
0
70
128
71
4
72
3
73
5
0
VERTEX
8
OBJECT__11
10
0
20
0
30
0
70
128
71
3
72
2
73
5
0
VERTEX
8
OBJECT__11
10
0
20
0
30
0
70
128
71
4
72
6
73
7
0
VERTEX
8
OBJECT__11
10
0
20
0
30
0
70
128
71
7
72
8
73
4
0
VERTEX
8
OBJECT__11
10
0
20
0
30
0
70
128
71
9
72
10
73
8
0
VERTEX
8
OBJECT__11
10
0
20
0
30
0
70
128
71
11
72
10
73
12
0
VERTEX
8
OBJECT__11
10
0
20
0
30
0
70
128
71
10
72
9
73
12
0
VERTEX
8
OBJECT__11
10
0
20
0
30
0
70
128
71
11
72
13
73
14
0
VERTEX
8
OBJECT__11
10
0
20
0
30
0
70
128
71
14
72
15
73
11
0
VERTEX
8
OBJECT__11
10
0
20
0
30
0
70
128
71
16
72
17
73
18
0
VERTEX
8
OBJECT__11
10
0
20
0
30
0
70
128
71
19
72
18
73
20
0
VERTEX
8
OBJECT__11
10
0
20
0
30
0
70
128
71
18
72
17
73
20
0
VERTEX
8
OBJECT__11
10
0
20
0
30
0
70
128
71
19
72
21
73
22
0
VERTEX
8
OBJECT__11
10
0
20
0
30
0
70
128
71
22
72
23
73
19
0
VERTEX
8
OBJECT__11
10
0
20
0
30
0
70
128
71
24
72
25
73
26
0
VERTEX
8
OBJECT__11
10
0
20
0
30
0
70
128
71
27
72
26
73
28
0
VERTEX
8
OBJECT__11
10
0
20
0
30
0
70
128
71
26
72
25
73
28
0
VERTEX
8
OBJECT__11
10
0
20
0
30
0
70
128
71
27
72
29
73
30
0
VERTEX
8
OBJECT__11
10
0
20
0
30
0
70
128
71
30
72
31
73
27
0
VERTEX
8
OBJECT__11
10
0
20
0
30
0
70
128
71
32
72
33
73
31
0
VERTEX
8
OBJECT__11
10
0
20
0
30
0
70
128
71
32
72
34
73
35
0
VERTEX
8
OBJECT__11
10
0
20
0
30
0
70
128
71
36
72
35
73
37
0
VERTEX
8
OBJECT__11
10
0
20
0
30
0
70
128
71
35
72
34
73
37
0
VERTEX
8
OBJECT__11
10
0
20
0
30
0
70
128
71
36
72
38
73
39
0
VERTEX
8
OBJECT__11
10
0
20
0
30
0
70
128
71
39
72
40
73
36
0
VERTEX
8
OBJECT__11
10
0
20
0
30
0
70
128
71
41
72
42
73
40
0
VERTEX
8
OBJECT__11
10
0
20
0
30
0
70
128
71
43
72
42
73
44
0
VERTEX
8
OBJECT__11
10
0
20
0
30
0
70
128
71
42
72
41
73
44
0
VERTEX
8
OBJECT__11
10
0
20
0
30
0
70
128
71
43
72
45
73
46
0
VERTEX
8
OBJECT__11
10
0
20
0
30
0
70
128
71
46
72
47
73
43
0
VERTEX
8
OBJECT__11
10
0
20
0
30
0
70
128
71
48
72
49
73
50
0
VERTEX
8
OBJECT__11
10
0
20
0
30
0
70
128
71
51
72
50
73
52
0
VERTEX
8
OBJECT__11
10
0
20
0
30
0
70
128
71
50
72
49
73
52
0
VERTEX
8
OBJECT__11
10
0
20
0
30
0
70
128
71
51
72
53
73
54
0
VERTEX
8
OBJECT__11
10
0
20
0
30
0
70
128
71
54
72
55
73
51
0
VERTEX
8
OBJECT__11
10
0
20
0
30
0
70
128
71
56
72
57
73
58
0
VERTEX
8
OBJECT__11
10
0
20
0
30
0
70
128
71
59
72
58
73
60
0
VERTEX
8
OBJECT__11
10
0
20
0
30
0
70
128
71
58
72
57
73
60
0
VERTEX
8
OBJECT__11
10
0
20
0
30
0
70
128
71
59
72
61
73
62
0
VERTEX
8
OBJECT__11
10
0
20
0
30
0
70
128
71
62
72
63
73
59
0
VERTEX
8
OBJECT__11
10
0
20
0
30
0
70
128
71
64
72
1
73
65
0
VERTEX
8
OBJECT__11
10
0
20
0
30
0
70
128
71
65
72
63
73
64
0
VERTEX
8
OBJECT__11
10
0
20
0
30
0
70
128
71
62
72
64
73
63
0
VERTEX
8
OBJECT__11
10
0
20
0
30
0
70
128
71
60
72
61
73
59
0
VERTEX
8
OBJECT__11
10
0
20
0
30
0
70
128
71
58
72
55
73
56
0
VERTEX
8
OBJECT__11
10
0
20
0
30
0
70
128
71
54
72
56
73
55
0
VERTEX
8
OBJECT__11
10
0
20
0
30
0
70
128
71
52
72
53
73
51
0
VERTEX
8
OBJECT__11
10
0
20
0
30
0
70
128
71
50
72
47
73
48
0
VERTEX
8
OBJECT__11
10
0
20
0
30
0
70
128
71
46
72
48
73
47
0
VERTEX
8
OBJECT__11
10
0
20
0
30
0
70
128
71
44
72
45
73
43
0
VERTEX
8
OBJECT__11
10
0
20
0
30
0
70
128
71
40
72
66
73
41
0
VERTEX
8
OBJECT__11
10
0
20
0
30
0
70
128
71
39
72
66
73
40
0
VERTEX
8
OBJECT__11
10
0
20
0
30
0
70
128
71
37
72
38
73
36
0
VERTEX
8
OBJECT__11
10
0
20
0
30
0
70
128
71
35
72
33
73
32
0
VERTEX
8
OBJECT__11
10
0
20
0
30
0
70
128
71
31
72
67
73
32
0
VERTEX
8
OBJECT__11
10
0
20
0
30
0
70
128
71
30
72
67
73
31
0
VERTEX
8
OBJECT__11
10
0
20
0
30
0
70
128
71
28
72
29
73
27
0
VERTEX
8
OBJECT__11
10
0
20
0
30
0
70
128
71
26
72
23
73
24
0
VERTEX
8
OBJECT__11
10
0
20
0
30
0
70
128
71
22
72
24
73
23
0
VERTEX
8
OBJECT__11
10
0
20
0
30
0
70
128
71
20
72
21
73
19
0
VERTEX
8
OBJECT__11
10
0
20
0
30
0
70
128
71
18
72
15
73
16
0
VERTEX
8
OBJECT__11
10
0
20
0
30
0
70
128
71
14
72
16
73
15
0
VERTEX
8
OBJECT__11
10
0
20
0
30
0
70
128
71
12
72
13
73
11
0
VERTEX
8
OBJECT__11
10
0
20
0
30
0
70
128
71
8
72
68
73
9
0
VERTEX
8
OBJECT__11
10
0
20
0
30
0
70
128
71
7
72
68
73
8
0
VERTEX
8
OBJECT__11
10
0
20
0
30
0
70
128
71
5
72
6
73
4
0
VERTEX
8
OBJECT__11
10
0
20
0
30
0
70
128
71
3
72
65
73
1
0
SEQEND
8
OBJECT__11
0
POLYLINE
8
OBJECT__12
66
1
70
64
71
84
72
84
62
253
0
VERTEX
8
OBJECT__12
10
-14.715000
20
5.354000
30
11.900002
70
192
0
VERTEX
8
OBJECT__12
10
-15.314000
20
3.775000
30
11.900002
70
192
0
VERTEX
8
OBJECT__12
10
-15.314000
20
3.775000
30
17.599998
70
192
0
VERTEX
8
OBJECT__12
10
-15.773000
20
0.000000
30
17.599998
70
192
0
VERTEX
8
OBJECT__12
10
-15.773000
20
0.000000
30
11.900002
70
192
0
VERTEX
8
OBJECT__12
10
-12.045000
20
10.113000
30
11.900002
70
192
0
VERTEX
8
OBJECT__12
10
-13.966000
20
7.330000
30
11.900002
70
192
0
VERTEX
8
OBJECT__12
10
-13.966000
20
7.330000
30
17.599998
70
192
0
VERTEX
8
OBJECT__12
10
-14.715000
20
5.354000
30
17.599998
70
192
0
VERTEX
8
OBJECT__12
10
-8.960000
20
12.981000
30
11.900002
70
192
0
VERTEX
8
OBJECT__12
10
-8.960000
20
12.981000
30
17.599998
70
192
0
VERTEX
8
OBJECT__12
10
-7.839000
20
13.569000
30
17.599998
70
192
0
VERTEX
8
OBJECT__12
10
-11.806000
20
10.459000
30
11.900002
70
192
0
VERTEX
8
OBJECT__12
10
-11.806000
20
10.459000
30
17.599998
70
192
0
VERTEX
8
OBJECT__12
10
-12.045000
20
10.113000
30
17.599998
70
192
0
VERTEX
8
OBJECT__12
10
-2.720000
20
15.456000
30
11.900002
70
192
0
VERTEX
8
OBJECT__12
10
-5.593000
20
14.748000
30
11.900002
70
192
0
VERTEX
8
OBJECT__12
10
-5.593000
20
14.748000
30
17.599998
70
192
0
VERTEX
8
OBJECT__12
10
-7.839000
20
13.569000
30
11.900002
70
192
0
VERTEX
8
OBJECT__12
10
2.720000
20
15.456000
30
11.900002
70
192
0
VERTEX
8
OBJECT__12
10
1.901000
20
15.658000
30
11.900002
70
192
0
VERTEX
8
OBJECT__12
10
1.901000
20
15.658000
30
17.599998
70
192
0
VERTEX
8
OBJECT__12
10
-1.901000
20
15.658000
30
17.599998
70
192
0
VERTEX
8
OBJECT__12
10
-1.901000
20
15.658000
30
11.900002
70
192
0
VERTEX
8
OBJECT__12
10
-2.720000
20
15.456000
30
17.599998
70
192
0
VERTEX
8
OBJECT__12
10
7.839000
20
13.569000
30
11.900002
70
192
0
VERTEX
8
OBJECT__12
10
5.593000
20
14.748000
30
11.900002
70
192
0
VERTEX
8
OBJECT__12
10
5.593000
20
14.748000
30
17.599998
70
192
0
VERTEX
8
OBJECT__12
10
2.720000
20
15.456000
30
17.599998
70
192
0
VERTEX
8
OBJECT__12
10
12.045000
20
10.113000
30
11.900002
70
192
0
VERTEX
8
OBJECT__12
10
11.806000
20
10.459000
30
11.900002
70
192
0
VERTEX
8
OBJECT__12
10
11.806000
20
10.459000
30
17.599998
70
192
0
VERTEX
8
OBJECT__12
10
8.960000
20
12.981000
30
17.599998
70
192
0
VERTEX
8
OBJECT__12
10
8.960000
20
12.981000
30
11.900002
70
192
0
VERTEX
8
OBJECT__12
10
7.839000
20
13.569000
30
17.599998
70
192
0
VERTEX
8
OBJECT__12
10
14.715000
20
5.354000
30
11.900002
70
192
0
VERTEX
8
OBJECT__12
10
13.966000
20
7.330000
30
11.900002
70
192
0
VERTEX
8
OBJECT__12
10
13.966000
20
7.330000
30
17.599998
70
192
0
VERTEX
8
OBJECT__12
10
12.045000
20
10.113000
30
17.599998
70
192
0
VERTEX
8
OBJECT__12
10
15.773000
20
0.000000
30
11.900002
70
192
0
VERTEX
8
OBJECT__12
10
15.314000
20
3.775000
30
11.900002
70
192
0
VERTEX
8
OBJECT__12
10
15.314000
20
3.775000
30
17.599998
70
192
0
VERTEX
8
OBJECT__12
10
14.715000
20
5.354000
30
17.599998
70
192
0
VERTEX
8
OBJECT__12
10
14.715000
20
-5.354000
30
11.900002
70
192
0
VERTEX
8
OBJECT__12
10
15.314000
20
-3.775000
30
11.900002
70
192
0
VERTEX
8
OBJECT__12
10
15.314000
20
-3.775000
30
17.599998
70
192
0
VERTEX
8
OBJECT__12
10
15.773000
20
0.000000
30
17.599998
70
192
0
VERTEX
8
OBJECT__12
10
12.045000
20
-10.113000
30
11.900002
70
192
0
VERTEX
8
OBJECT__12
10
13.966000
20
-7.330000
30
11.900002
70
192
0
VERTEX
8
OBJECT__12
10
13.966000
20
-7.330000
30
17.599998
70
192
0
VERTEX
8
OBJECT__12
10
14.715000
20
-5.354000
30
17.599998
70
192
0
VERTEX
8
OBJECT__12
10
7.839000
20
-13.569000
30
11.900002
70
192
0
VERTEX
8
OBJECT__12
10
8.960000
20
-12.981000
30
11.900002
70
192
0
VERTEX
8
OBJECT__12
10
8.960000
20
-12.981000
30
17.599998
70
192
0
VERTEX
8
OBJECT__12
10
11.806000
20
-10.459000
30
17.599998
70
192
0
VERTEX
8
OBJECT__12
10
11.806000
20
-10.459000
30
11.900002
70
192
0
VERTEX
8
OBJECT__12
10
12.045000
20
-10.113000
30
17.599998
70
192
0
VERTEX
8
OBJECT__12
10
2.720000
20
-15.456000
30
11.900002
70
192
0
VERTEX
8
OBJECT__12
10
5.593000
20
-14.748000
30
11.900002
70
192
0
VERTEX
8
OBJECT__12
10
5.593000
20
-14.748000
30
17.599998
70
192
0
VERTEX
8
OBJECT__12
10
7.839000
20
-13.569000
30
17.599998
70
192
0
VERTEX
8
OBJECT__12
10
-2.720000
20
-15.456000
30
11.900002
70
192
0
VERTEX
8
OBJECT__12
10
-1.901000
20
-15.658000
30
11.900002
70
192
0
VERTEX
8
OBJECT__12
10
-1.901000
20
-15.658000
30
17.599998
70
192
0
VERTEX
8
OBJECT__12
10
1.901000
20
-15.658000
30
17.599998
70
192
0
VERTEX
8
OBJECT__12
10
1.901000
20
-15.658000
30
11.900002
70
192
0
VERTEX
8
OBJECT__12
10
2.720000
20
-15.456000
30
17.599998
70
192
0
VERTEX
8
OBJECT__12
10
-7.839000
20
-13.569000
30
11.900002
70
192
0
VERTEX
8
OBJECT__12
10
-5.593000
20
-14.748000
30
11.900002
70
192
0
VERTEX
8
OBJECT__12
10
-5.593000
20
-14.748000
30
17.599998
70
192
0
VERTEX
8
OBJECT__12
10
-2.720000
20
-15.456000
30
17.599998
70
192
0
VERTEX
8
OBJECT__12
10
-12.045000
20
-10.113000
30
11.900002
70
192
0
VERTEX
8
OBJECT__12
10
-11.806000
20
-10.459000
30
11.900002
70
192
0
VERTEX
8
OBJECT__12
10
-11.806000
20
-10.459000
30
17.599998
70
192
0
VERTEX
8
OBJECT__12
10
-8.960000
20
-12.981000
30
17.599998
70
192
0
VERTEX
8
OBJECT__12
10
-8.960000
20
-12.981000
30
11.900002
70
192
0
VERTEX
8
OBJECT__12
10
-7.839000
20
-13.569000
30
17.599998
70
192
0
VERTEX
8
OBJECT__12
10
-14.715000
20
-5.354000
30
11.900002
70
192
0
VERTEX
8
OBJECT__12
10
-13.966000
20
-7.330000
30
11.900002
70
192
0
VERTEX
8
OBJECT__12
10
-13.966000
20
-7.330000
30
17.599998
70
192
0
VERTEX
8
OBJECT__12
10
-12.045000
20
-10.113000
30
17.599998
70
192
0
VERTEX
8
OBJECT__12
10
-15.314000
20
-3.775000
30
11.900002
70
192
0
VERTEX
8
OBJECT__12
10
-15.314000
20
-3.775000
30
17.599998
70
192
0
VERTEX
8
OBJECT__12
10
-14.715000
20
-5.354000
30
17.599998
70
192
0
VERTEX
8
OBJECT__12
10
0
20
0
30
0
70
128
71
1
72
2
73
3
0
VERTEX
8
OBJECT__12
10
0
20
0
30
0
70
128
71
4
72
3
73
2
0
VERTEX
8
OBJECT__12
10
0
20
0
30
0
70
128
71
2
72
5
73
4
0
VERTEX
8
OBJECT__12
10
0
20
0
30
0
70
128
71
6
72
7
73
8
0
VERTEX
8
OBJECT__12
10
0
20
0
30
0
70
128
71
9
72
8
73
7
0
VERTEX
8
OBJECT__12
10
0
20
0
30
0
70
128
71
7
72
1
73
9
0
VERTEX
8
OBJECT__12
10
0
20
0
30
0
70
128
71
10
72
11
73
12
0
VERTEX
8
OBJECT__12
10
0
20
0
30
0
70
128
71
13
72
14
73
11
0
VERTEX
8
OBJECT__12
10
0
20
0
30
0
70
128
71
11
72
10
73
13
0
VERTEX
8
OBJECT__12
10
0
20
0
30
0
70
128
71
15
72
14
73
13
0
VERTEX
8
OBJECT__12
10
0
20
0
30
0
70
128
71
13
72
6
73
15
0
VERTEX
8
OBJECT__12
10
0
20
0
30
0
70
128
71
16
72
17
73
18
0
VERTEX
8
OBJECT__12
10
0
20
0
30
0
70
128
71
18
72
17
73
19
0
VERTEX
8
OBJECT__12
10
0
20
0
30
0
70
128
71
19
72
12
73
18
0
VERTEX
8
OBJECT__12
10
0
20
0
30
0
70
128
71
20
72
21
73
22
0
VERTEX
8
OBJECT__12
10
0
20
0
30
0
70
128
71
23
72
22
73
21
0
VERTEX
8
OBJECT__12
10
0
20
0
30
0
70
128
71
21
72
24
73
23
0
VERTEX
8
OBJECT__12
10
0
20
0
30
0
70
128
71
25
72
23
73
24
0
VERTEX
8
OBJECT__12
10
0
20
0
30
0
70
128
71
24
72
16
73
25
0
VERTEX
8
OBJECT__12
10
0
20
0
30
0
70
128
71
26
72
27
73
28
0
VERTEX
8
OBJECT__12
10
0
20
0
30
0
70
128
71
29
72
28
73
27
0
VERTEX
8
OBJECT__12
10
0
20
0
30
0
70
128
71
27
72
20
73
29
0
VERTEX
8
OBJECT__12
10
0
20
0
30
0
70
128
71
30
72
31
73
32
0
VERTEX
8
OBJECT__12
10
0
20
0
30
0
70
128
71
33
72
32
73
31
0
VERTEX
8
OBJECT__12
10
0
20
0
30
0
70
128
71
31
72
34
73
33
0
VERTEX
8
OBJECT__12
10
0
20
0
30
0
70
128
71
35
72
33
73
34
0
VERTEX
8
OBJECT__12
10
0
20
0
30
0
70
128
71
34
72
26
73
35
0
VERTEX
8
OBJECT__12
10
0
20
0
30
0
70
128
71
36
72
37
73
38
0
VERTEX
8
OBJECT__12
10
0
20
0
30
0
70
128
71
39
72
38
73
37
0
VERTEX
8
OBJECT__12
10
0
20
0
30
0
70
128
71
37
72
30
73
39
0
VERTEX
8
OBJECT__12
10
0
20
0
30
0
70
128
71
40
72
41
73
42
0
VERTEX
8
OBJECT__12
10
0
20
0
30
0
70
128
71
43
72
42
73
41
0
VERTEX
8
OBJECT__12
10
0
20
0
30
0
70
128
71
41
72
36
73
43
0
VERTEX
8
OBJECT__12
10
0
20
0
30
0
70
128
71
44
72
45
73
46
0
VERTEX
8
OBJECT__12
10
0
20
0
30
0
70
128
71
47
72
46
73
45
0
VERTEX
8
OBJECT__12
10
0
20
0
30
0
70
128
71
45
72
40
73
47
0
VERTEX
8
OBJECT__12
10
0
20
0
30
0
70
128
71
48
72
49
73
50
0
VERTEX
8
OBJECT__12
10
0
20
0
30
0
70
128
71
51
72
50
73
49
0
VERTEX
8
OBJECT__12
10
0
20
0
30
0
70
128
71
49
72
44
73
51
0
VERTEX
8
OBJECT__12
10
0
20
0
30
0
70
128
71
52
72
53
73
54
0
VERTEX
8
OBJECT__12
10
0
20
0
30
0
70
128
71
55
72
54
73
53
0
VERTEX
8
OBJECT__12
10
0
20
0
30
0
70
128
71
53
72
56
73
55
0
VERTEX
8
OBJECT__12
10
0
20
0
30
0
70
128
71
57
72
55
73
56
0
VERTEX
8
OBJECT__12
10
0
20
0
30
0
70
128
71
56
72
48
73
57
0
VERTEX
8
OBJECT__12
10
0
20
0
30
0
70
128
71
58
72
59
73
60
0
VERTEX
8
OBJECT__12
10
0
20
0
30
0
70
128
71
61
72
60
73
59
0
VERTEX
8
OBJECT__12
10
0
20
0
30
0
70
128
71
59
72
52
73
61
0
VERTEX
8
OBJECT__12
10
0
20
0
30
0
70
128
71
62
72
63
73
64
0
VERTEX
8
OBJECT__12
10
0
20
0
30
0
70
128
71
65
72
64
73
63
0
VERTEX
8
OBJECT__12
10
0
20
0
30
0
70
128
71
63
72
66
73
65
0
VERTEX
8
OBJECT__12
10
0
20
0
30
0
70
128
71
67
72
65
73
66
0
VERTEX
8
OBJECT__12
10
0
20
0
30
0
70
128
71
66
72
58
73
67
0
VERTEX
8
OBJECT__12
10
0
20
0
30
0
70
128
71
68
72
69
73
70
0
VERTEX
8
OBJECT__12
10
0
20
0
30
0
70
128
71
71
72
70
73
69
0
VERTEX
8
OBJECT__12
10
0
20
0
30
0
70
128
71
69
72
62
73
71
0
VERTEX
8
OBJECT__12
10
0
20
0
30
0
70
128
71
72
72
73
73
74
0
VERTEX
8
OBJECT__12
10
0
20
0
30
0
70
128
71
75
72
74
73
73
0
VERTEX
8
OBJECT__12
10
0
20
0
30
0
70
128
71
73
72
76
73
75
0
VERTEX
8
OBJECT__12
10
0
20
0
30
0
70
128
71
77
72
75
73
76
0
VERTEX
8
OBJECT__12
10
0
20
0
30
0
70
128
71
76
72
68
73
77
0
VERTEX
8
OBJECT__12
10
0
20
0
30
0
70
128
71
78
72
79
73
80
0
VERTEX
8
OBJECT__12
10
0
20
0
30
0
70
128
71
81
72
80
73
79
0
VERTEX
8
OBJECT__12
10
0
20
0
30
0
70
128
71
79
72
72
73
81
0
VERTEX
8
OBJECT__12
10
0
20
0
30
0
70
128
71
5
72
82
73
83
0
VERTEX
8
OBJECT__12
10
0
20
0
30
0
70
128
71
84
72
83
73
82
0
VERTEX
8
OBJECT__12
10
0
20
0
30
0
70
128
71
82
72
78
73
84
0
VERTEX
8
OBJECT__12
10
0
20
0
30
0
70
128
71
83
72
4
73
5
0
VERTEX
8
OBJECT__12
10
0
20
0
30
0
70
128
71
80
72
84
73
78
0
VERTEX
8
OBJECT__12
10
0
20
0
30
0
70
128
71
74
72
81
73
72
0
VERTEX
8
OBJECT__12
10
0
20
0
30
0
70
128
71
70
72
77
73
68
0
VERTEX
8
OBJECT__12
10
0
20
0
30
0
70
128
71
64
72
71
73
62
0
VERTEX
8
OBJECT__12
10
0
20
0
30
0
70
128
71
60
72
67
73
58
0
VERTEX
8
OBJECT__12
10
0
20
0
30
0
70
128
71
54
72
61
73
52
0
VERTEX
8
OBJECT__12
10
0
20
0
30
0
70
128
71
50
72
57
73
48
0
VERTEX
8
OBJECT__12
10
0
20
0
30
0
70
128
71
46
72
51
73
44
0
VERTEX
8
OBJECT__12
10
0
20
0
30
0
70
128
71
42
72
47
73
40
0
VERTEX
8
OBJECT__12
10
0
20
0
30
0
70
128
71
38
72
43
73
36
0
VERTEX
8
OBJECT__12
10
0
20
0
30
0
70
128
71
32
72
39
73
30
0
VERTEX
8
OBJECT__12
10
0
20
0
30
0
70
128
71
28
72
35
73
26
0
VERTEX
8
OBJECT__12
10
0
20
0
30
0
70
128
71
22
72
29
73
20
0
VERTEX
8
OBJECT__12
10
0
20
0
30
0
70
128
71
18
72
25
73
16
0
VERTEX
8
OBJECT__12
10
0
20
0
30
0
70
128
71
12
72
19
73
10
0
VERTEX
8
OBJECT__12
10
0
20
0
30
0
70
128
71
8
72
15
73
6
0
VERTEX
8
OBJECT__12
10
0
20
0
30
0
70
128
71
3
72
9
73
1
0
SEQEND
8
OBJECT__12
0
POLYLINE
8
OBJECT__13
66
1
70
64
71
68
72
68
62
253
0
VERTEX
8
OBJECT__13
10
-15.314000
20
3.775000
30
17.599998
70
192
0
VERTEX
8
OBJECT__13
10
-15.773000
20
0.000000
30
17.599998
70
192
0
VERTEX
8
OBJECT__13
10
-15.373000
20
0.000000
30
18.000000
70
192
0
VERTEX
8
OBJECT__13
10
-13.612000
20
7.144000
30
18.000000
70
192
0
VERTEX
8
OBJECT__13
10
-13.966000
20
7.330000
30
17.599998
70
192
0
VERTEX
8
OBJECT__13
10
-14.715000
20
5.354000
30
17.599998
70
192
0
VERTEX
8
OBJECT__13
10
-14.926000
20
3.679000
30
18.000000
70
192
0
VERTEX
8
OBJECT__13
10
-11.507000
20
10.194000
30
18.000000
70
192
0
VERTEX
8
OBJECT__13
10
-12.045000
20
10.113000
30
17.599998
70
192
0
VERTEX
8
OBJECT__13
10
-11.806000
20
10.459000
30
17.599998
70
192
0
VERTEX
8
OBJECT__13
10
-8.960000
20
12.981000
30
17.599998
70
192
0
VERTEX
8
OBJECT__13
10
-5.451000
20
14.374000
30
18.000000
70
192
0
VERTEX
8
OBJECT__13
10
-5.593000
20
14.748000
30
17.599998
70
192
0
VERTEX
8
OBJECT__13
10
-7.839000
20
13.569000
30
17.599998
70
192
0
VERTEX
8
OBJECT__13
10
-8.733000
20
12.651000
30
18.000000
70
192
0
VERTEX
8
OBJECT__13
10
-1.853000
20
15.261000
30
18.000000
70
192
0
VERTEX
8
OBJECT__13
10
-2.720000
20
15.456000
30
17.599998
70
192
0
VERTEX
8
OBJECT__13
10
-1.901000
20
15.658000
30
17.599998
70
192
0
VERTEX
8
OBJECT__13
10
1.901000
20
15.658000
30
17.599998
70
192
0
VERTEX
8
OBJECT__13
10
5.451000
20
14.374000
30
18.000000
70
192
0
VERTEX
8
OBJECT__13
10
5.593000
20
14.748000
30
17.599998
70
192
0
VERTEX
8
OBJECT__13
10
2.720000
20
15.456000
30
17.599998
70
192
0
VERTEX
8
OBJECT__13
10
1.853000
20
15.261000
30
18.000000
70
192
0
VERTEX
8
OBJECT__13
10
8.733000
20
12.651000
30
18.000000
70
192
0
VERTEX
8
OBJECT__13
10
7.839000
20
13.569000
30
17.599998
70
192
0
VERTEX
8
OBJECT__13
10
8.960000
20
12.981000
30
17.599998
70
192
0
VERTEX
8
OBJECT__13
10
11.806000
20
10.459000
30
17.599998
70
192
0
VERTEX
8
OBJECT__13
10
13.612000
20
7.144000
30
18.000000
70
192
0
VERTEX
8
OBJECT__13
10
13.966000
20
7.330000
30
17.599998
70
192
0
VERTEX
8
OBJECT__13
10
12.045000
20
10.113000
30
17.599998
70
192
0
VERTEX
8
OBJECT__13
10
11.507000
20
10.194000
30
18.000000
70
192
0
VERTEX
8
OBJECT__13
10
14.926000
20
3.679000
30
18.000000
70
192
0
VERTEX
8
OBJECT__13
10
14.715000
20
5.354000
30
17.599998
70
192
0
VERTEX
8
OBJECT__13
10
15.314000
20
3.775000
30
17.599998
70
192
0
VERTEX
8
OBJECT__13
10
15.773000
20
0.000000
30
17.599998
70
192
0
VERTEX
8
OBJECT__13
10
15.314000
20
-3.775000
30
17.599998
70
192
0
VERTEX
8
OBJECT__13
10
15.373000
20
0.000000
30
18.000000
70
192
0
VERTEX
8
OBJECT__13
10
13.612000
20
-7.144000
30
18.000000
70
192
0
VERTEX
8
OBJECT__13
10
13.966000
20
-7.330000
30
17.599998
70
192
0
VERTEX
8
OBJECT__13
10
14.715000
20
-5.354000
30
17.599998
70
192
0
VERTEX
8
OBJECT__13
10
14.926000
20
-3.679000
30
18.000000
70
192
0
VERTEX
8
OBJECT__13
10
11.507000
20
-10.194000
30
18.000000
70
192
0
VERTEX
8
OBJECT__13
10
12.045000
20
-10.113000
30
17.599998
70
192
0
VERTEX
8
OBJECT__13
10
11.806000
20
-10.459000
30
17.599998
70
192
0
VERTEX
8
OBJECT__13
10
8.960000
20
-12.981000
30
17.599998
70
192
0
VERTEX
8
OBJECT__13
10
5.451000
20
-14.374000
30
18.000000
70
192
0
VERTEX
8
OBJECT__13
10
5.593000
20
-14.748000
30
17.599998
70
192
0
VERTEX
8
OBJECT__13
10
7.839000
20
-13.569000
30
17.599998
70
192
0
VERTEX
8
OBJECT__13
10
8.733000
20
-12.651000
30
18.000000
70
192
0
VERTEX
8
OBJECT__13
10
1.853000
20
-15.261000
30
18.000000
70
192
0
VERTEX
8
OBJECT__13
10
2.720000
20
-15.456000
30
17.599998
70
192
0
VERTEX
8
OBJECT__13
10
1.901000
20
-15.658000
30
17.599998
70
192
0
VERTEX
8
OBJECT__13
10
-1.853000
20
-15.261000
30
18.000000
70
192
0
VERTEX
8
OBJECT__13
10
-5.451000
20
-14.374000
30
18.000000
70
192
0
VERTEX
8
OBJECT__13
10
-5.593000
20
-14.748000
30
17.599998
70
192
0
VERTEX
8
OBJECT__13
10
-2.720000
20
-15.456000
30
17.599998
70
192
0
VERTEX
8
OBJECT__13
10
-8.733000
20
-12.651000
30
18.000000
70
192
0
VERTEX
8
OBJECT__13
10
-7.839000
20
-13.569000
30
17.599998
70
192
0
VERTEX
8
OBJECT__13
10
-8.960000
20
-12.981000
30
17.599998
70
192
0
VERTEX
8
OBJECT__13
10
-11.806000
20
-10.459000
30
17.599998
70
192
0
VERTEX
8
OBJECT__13
10
-13.612000
20
-7.144000
30
18.000000
70
192
0
VERTEX
8
OBJECT__13
10
-13.966000
20
-7.330000
30
17.599998
70
192
0
VERTEX
8
OBJECT__13
10
-12.045000
20
-10.113000
30
17.599998
70
192
0
VERTEX
8
OBJECT__13
10
-11.507000
20
-10.194000
30
18.000000
70
192
0
VERTEX
8
OBJECT__13
10
-14.926000
20
-3.679000
30
18.000000
70
192
0
VERTEX
8
OBJECT__13
10
-14.715000
20
-5.354000
30
17.599998
70
192
0
VERTEX
8
OBJECT__13
10
-15.314000
20
-3.775000
30
17.599998
70
192
0
VERTEX
8
OBJECT__13
10
-1.901000
20
-15.658000
30
17.599998
70
192
0
VERTEX
8
OBJECT__13
10
0
20
0
30
0
70
128
71
1
72
2
73
3
0
VERTEX
8
OBJECT__13
10
0
20
0
30
0
70
128
71
4
72
5
73
6
0
VERTEX
8
OBJECT__13
10
0
20
0
30
0
70
128
71
6
72
7
73
4
0
VERTEX
8
OBJECT__13
10
0
20
0
30
0
70
128
71
4
72
8
73
9
0
VERTEX
8
OBJECT__13
10
0
20
0
30
0
70
128
71
8
72
10
73
9
0
VERTEX
8
OBJECT__13
10
0
20
0
30
0
70
128
71
11
72
10
73
8
0
VERTEX
8
OBJECT__13
10
0
20
0
30
0
70
128
71
12
72
13
73
14
0
VERTEX
8
OBJECT__13
10
0
20
0
30
0
70
128
71
14
72
15
73
12
0
VERTEX
8
OBJECT__13
10
0
20
0
30
0
70
128
71
12
72
16
73
17
0
VERTEX
8
OBJECT__13
10
0
20
0
30
0
70
128
71
16
72
18
73
17
0
VERTEX
8
OBJECT__13
10
0
20
0
30
0
70
128
71
19
72
18
73
16
0
VERTEX
8
OBJECT__13
10
0
20
0
30
0
70
128
71
20
72
21
73
22
0
VERTEX
8
OBJECT__13
10
0
20
0
30
0
70
128
71
22
72
23
73
20
0
VERTEX
8
OBJECT__13
10
0
20
0
30
0
70
128
71
20
72
24
73
25
0
VERTEX
8
OBJECT__13
10
0
20
0
30
0
70
128
71
24
72
26
73
25
0
VERTEX
8
OBJECT__13
10
0
20
0
30
0
70
128
71
27
72
26
73
24
0
VERTEX
8
OBJECT__13
10
0
20
0
30
0
70
128
71
28
72
29
73
30
0
VERTEX
8
OBJECT__13
10
0
20
0
30
0
70
128
71
30
72
31
73
28
0
VERTEX
8
OBJECT__13
10
0
20
0
30
0
70
128
71
28
72
32
73
33
0
VERTEX
8
OBJECT__13
10
0
20
0
30
0
70
128
71
32
72
34
73
33
0
VERTEX
8
OBJECT__13
10
0
20
0
30
0
70
128
71
35
72
34
73
32
0
VERTEX
8
OBJECT__13
10
0
20
0
30
0
70
128
71
36
72
35
73
37
0
VERTEX
8
OBJECT__13
10
0
20
0
30
0
70
128
71
38
72
39
73
40
0
VERTEX
8
OBJECT__13
10
0
20
0
30
0
70
128
71
40
72
41
73
38
0
VERTEX
8
OBJECT__13
10
0
20
0
30
0
70
128
71
38
72
42
73
43
0
VERTEX
8
OBJECT__13
10
0
20
0
30
0
70
128
71
42
72
44
73
43
0
VERTEX
8
OBJECT__13
10
0
20
0
30
0
70
128
71
45
72
44
73
42
0
VERTEX
8
OBJECT__13
10
0
20
0
30
0
70
128
71
46
72
47
73
48
0
VERTEX
8
OBJECT__13
10
0
20
0
30
0
70
128
71
48
72
49
73
46
0
VERTEX
8
OBJECT__13
10
0
20
0
30
0
70
128
71
46
72
50
73
51
0
VERTEX
8
OBJECT__13
10
0
20
0
30
0
70
128
71
50
72
52
73
51
0
VERTEX
8
OBJECT__13
10
0
20
0
30
0
70
128
71
52
72
50
73
53
0
VERTEX
8
OBJECT__13
10
0
20
0
30
0
70
128
71
54
72
55
73
56
0
VERTEX
8
OBJECT__13
10
0
20
0
30
0
70
128
71
56
72
53
73
54
0
VERTEX
8
OBJECT__13
10
0
20
0
30
0
70
128
71
54
72
57
73
58
0
VERTEX
8
OBJECT__13
10
0
20
0
30
0
70
128
71
57
72
59
73
58
0
VERTEX
8
OBJECT__13
10
0
20
0
30
0
70
128
71
60
72
59
73
57
0
VERTEX
8
OBJECT__13
10
0
20
0
30
0
70
128
71
61
72
62
73
63
0
VERTEX
8
OBJECT__13
10
0
20
0
30
0
70
128
71
63
72
64
73
61
0
VERTEX
8
OBJECT__13
10
0
20
0
30
0
70
128
71
61
72
65
73
66
0
VERTEX
8
OBJECT__13
10
0
20
0
30
0
70
128
71
65
72
67
73
66
0
VERTEX
8
OBJECT__13
10
0
20
0
30
0
70
128
71
67
72
65
73
3
0
VERTEX
8
OBJECT__13
10
0
20
0
30
0
70
128
71
3
72
2
73
67
0
VERTEX
8
OBJECT__13
10
0
20
0
30
0
70
128
71
66
72
62
73
61
0
VERTEX
8
OBJECT__13
10
0
20
0
30
0
70
128
71
63
72
60
73
64
0
VERTEX
8
OBJECT__13
10
0
20
0
30
0
70
128
71
57
72
64
73
60
0
VERTEX
8
OBJECT__13
10
0
20
0
30
0
70
128
71
58
72
55
73
54
0
VERTEX
8
OBJECT__13
10
0
20
0
30
0
70
128
71
56
72
68
73
53
0
VERTEX
8
OBJECT__13
10
0
20
0
30
0
70
128
71
53
72
68
73
52
0
VERTEX
8
OBJECT__13
10
0
20
0
30
0
70
128
71
51
72
47
73
46
0
VERTEX
8
OBJECT__13
10
0
20
0
30
0
70
128
71
48
72
45
73
49
0
VERTEX
8
OBJECT__13
10
0
20
0
30
0
70
128
71
42
72
49
73
45
0
VERTEX
8
OBJECT__13
10
0
20
0
30
0
70
128
71
43
72
39
73
38
0
VERTEX
8
OBJECT__13
10
0
20
0
30
0
70
128
71
40
72
36
73
41
0
VERTEX
8
OBJECT__13
10
0
20
0
30
0
70
128
71
37
72
41
73
36
0
VERTEX
8
OBJECT__13
10
0
20
0
30
0
70
128
71
32
72
37
73
35
0
VERTEX
8
OBJECT__13
10
0
20
0
30
0
70
128
71
33
72
29
73
28
0
VERTEX
8
OBJECT__13
10
0
20
0
30
0
70
128
71
30
72
27
73
31
0
VERTEX
8
OBJECT__13
10
0
20
0
30
0
70
128
71
24
72
31
73
27
0
VERTEX
8
OBJECT__13
10
0
20
0
30
0
70
128
71
25
72
21
73
20
0
VERTEX
8
OBJECT__13
10
0
20
0
30
0
70
128
71
22
72
19
73
23
0
VERTEX
8
OBJECT__13
10
0
20
0
30
0
70
128
71
16
72
23
73
19
0
VERTEX
8
OBJECT__13
10
0
20
0
30
0
70
128
71
17
72
13
73
12
0
VERTEX
8
OBJECT__13
10
0
20
0
30
0
70
128
71
14
72
11
73
15
0
VERTEX
8
OBJECT__13
10
0
20
0
30
0
70
128
71
8
72
15
73
11
0
VERTEX
8
OBJECT__13
10
0
20
0
30
0
70
128
71
9
72
5
73
4
0
VERTEX
8
OBJECT__13
10
0
20
0
30
0
70
128
71
6
72
1
73
7
0
VERTEX
8
OBJECT__13
10
0
20
0
30
0
70
128
71
3
72
7
73
1
0
SEQEND
8
OBJECT__13
0
POLYLINE
8
OBJECT__14
66
1
70
64
71
44
72
44
62
253
0
VERTEX
8
OBJECT__14
10
-15.000000
20
0.000000
30
18.000000
70
192
0
VERTEX
8
OBJECT__14
10
-14.095000
20
5.130000
30
18.000000
70
192
0
VERTEX
8
OBJECT__14
10
-14.926000
20
3.679000
30
18.000000
70
192
0
VERTEX
8
OBJECT__14
10
-15.373000
20
0.000000
30
18.000000
70
192
0
VERTEX
8
OBJECT__14
10
-14.926000
20
-3.679000
30
18.000000
70
192
0
VERTEX
8
OBJECT__14
10
-11.491000
20
-9.642000
30
18.000000
70
192
0
VERTEX
8
OBJECT__14
10
-14.095000
20
-5.130000
30
18.000000
70
192
0
VERTEX
8
OBJECT__14
10
-13.612000
20
-7.144000
30
18.000000
70
192
0
VERTEX
8
OBJECT__14
10
-5.451000
20
-14.374000
30
18.000000
70
192
0
VERTEX
8
OBJECT__14
10
-1.853000
20
-15.261000
30
18.000000
70
192
0
VERTEX
8
OBJECT__14
10
-2.605000
20
-14.772000
30
18.000000
70
192
0
VERTEX
8
OBJECT__14
10
11.491000
20
9.642000
30
18.000000
70
192
0
VERTEX
8
OBJECT__14
10
14.095000
20
5.130000
30
18.000000
70
192
0
VERTEX
8
OBJECT__14
10
13.612000
20
7.144000
30
18.000000
70
192
0
VERTEX
8
OBJECT__14
10
5.451000
20
14.374000
30
18.000000
70
192
0
VERTEX
8
OBJECT__14
10
1.853000
20
15.261000
30
18.000000
70
192
0
VERTEX
8
OBJECT__14
10
2.605000
20
14.772000
30
18.000000
70
192
0
VERTEX
8
OBJECT__14
10
-11.507000
20
-10.194000
30
18.000000
70
192
0
VERTEX
8
OBJECT__14
10
-7.500000
20
-12.990000
30
18.000000
70
192
0
VERTEX
8
OBJECT__14
10
2.605000
20
-14.772000
30
18.000000
70
192
0
VERTEX
8
OBJECT__14
10
5.451000
20
-14.374000
30
18.000000
70
192
0
VERTEX
8
OBJECT__14
10
7.500000
20
-12.990000
30
18.000000
70
192
0
VERTEX
8
OBJECT__14
10
15.000000
20
0.000000
30
18.000000
70
192
0
VERTEX
8
OBJECT__14
10
15.373000
20
0.000000
30
18.000000
70
192
0
VERTEX
8
OBJECT__14
10
14.926000
20
3.679000
30
18.000000
70
192
0
VERTEX
8
OBJECT__14
10
11.507000
20
10.194000
30
18.000000
70
192
0
VERTEX
8
OBJECT__14
10
8.733000
20
12.651000
30
18.000000
70
192
0
VERTEX
8
OBJECT__14
10
7.500000
20
12.990000
30
18.000000
70
192
0
VERTEX
8
OBJECT__14
10
-5.451000
20
14.374000
30
18.000000
70
192
0
VERTEX
8
OBJECT__14
10
-7.500000
20
12.990000
30
18.000000
70
192
0
VERTEX
8
OBJECT__14
10
-2.605000
20
14.772000
30
18.000000
70
192
0
VERTEX
8
OBJECT__14
10
-8.733000
20
-12.651000
30
18.000000
70
192
0
VERTEX
8
OBJECT__14
10
1.853000
20
-15.261000
30
18.000000
70
192
0
VERTEX
8
OBJECT__14
10
8.733000
20
-12.651000
30
18.000000
70
192
0
VERTEX
8
OBJECT__14
10
11.491000
20
-9.642000
30
18.000000
70
192
0
VERTEX
8
OBJECT__14
10
11.507000
20
-10.194000
30
18.000000
70
192
0
VERTEX
8
OBJECT__14
10
13.612000
20
-7.144000
30
18.000000
70
192
0
VERTEX
8
OBJECT__14
10
-8.733000
20
12.651000
30
18.000000
70
192
0
VERTEX
8
OBJECT__14
10
-11.491000
20
9.642000
30
18.000000
70
192
0
VERTEX
8
OBJECT__14
10
-11.507000
20
10.194000
30
18.000000
70
192
0
VERTEX
8
OBJECT__14
10
-13.612000
20
7.144000
30
18.000000
70
192
0
VERTEX
8
OBJECT__14
10
14.926000
20
-3.679000
30
18.000000
70
192
0
VERTEX
8
OBJECT__14
10
14.095000
20
-5.130000
30
18.000000
70
192
0
VERTEX
8
OBJECT__14
10
-1.853000
20
15.261000
30
18.000000
70
192
0
VERTEX
8
OBJECT__14
10
0
20
0
30
0
70
128
71
1
72
2
73
3
0
VERTEX
8
OBJECT__14
10
0
20
0
30
0
70
128
71
1
72
4
73
5
0
VERTEX
8
OBJECT__14
10
0
20
0
30
0
70
128
71
6
72
7
73
8
0
VERTEX
8
OBJECT__14
10
0
20
0
30
0
70
128
71
9
72
10
73
11
0
VERTEX
8
OBJECT__14
10
0
20
0
30
0
70
128
71
12
72
13
73
14
0
VERTEX
8
OBJECT__14
10
0
20
0
30
0
70
128
71
15
72
16
73
17
0
VERTEX
8
OBJECT__14
10
0
20
0
30
0
70
128
71
5
72
7
73
1
0
VERTEX
8
OBJECT__14
10
0
20
0
30
0
70
128
71
8
72
18
73
6
0
VERTEX
8
OBJECT__14
10
0
20
0
30
0
70
128
71
11
72
19
73
9
0
VERTEX
8
OBJECT__14
10
0
20
0
30
0
70
128
71
20
72
11
73
10
0
VERTEX
8
OBJECT__14
10
0
20
0
30
0
70
128
71
21
72
22
73
20
0
VERTEX
8
OBJECT__14
10
0
20
0
30
0
70
128
71
23
72
24
73
25
0
VERTEX
8
OBJECT__14
10
0
20
0
30
0
70
128
71
14
72
26
73
12
0
VERTEX
8
OBJECT__14
10
0
20
0
30
0
70
128
71
12
72
26
73
27
0
VERTEX
8
OBJECT__14
10
0
20
0
30
0
70
128
71
17
72
28
73
15
0
VERTEX
8
OBJECT__14
10
0
20
0
30
0
70
128
71
29
72
30
73
31
0
VERTEX
8
OBJECT__14
10
0
20
0
30
0
70
128
71
7
72
5
73
8
0
VERTEX
8
OBJECT__14
10
0
20
0
30
0
70
128
71
6
72
18
73
32
0
VERTEX
8
OBJECT__14
10
0
20
0
30
0
70
128
71
10
72
33
73
20
0
VERTEX
8
OBJECT__14
10
0
20
0
30
0
70
128
71
21
72
34
73
22
0
VERTEX
8
OBJECT__14
10
0
20
0
30
0
70
128
71
35
72
36
73
37
0
VERTEX
8
OBJECT__14
10
0
20
0
30
0
70
128
71
13
72
25
73
14
0
VERTEX
8
OBJECT__14
10
0
20
0
30
0
70
128
71
28
72
27
73
15
0
VERTEX
8
OBJECT__14
10
0
20
0
30
0
70
128
71
31
72
17
73
16
0
VERTEX
8
OBJECT__14
10
0
20
0
30
0
70
128
71
29
72
38
73
30
0
VERTEX
8
OBJECT__14
10
0
20
0
30
0
70
128
71
39
72
40
73
41
0
VERTEX
8
OBJECT__14
10
0
20
0
30
0
70
128
71
32
72
19
73
6
0
VERTEX
8
OBJECT__14
10
0
20
0
30
0
70
128
71
20
72
33
73
21
0
VERTEX
8
OBJECT__14
10
0
20
0
30
0
70
128
71
35
72
22
73
34
0
VERTEX
8
OBJECT__14
10
0
20
0
30
0
70
128
71
37
72
42
73
43
0
VERTEX
8
OBJECT__14
10
0
20
0
30
0
70
128
71
27
72
28
73
12
0
VERTEX
8
OBJECT__14
10
0
20
0
30
0
70
128
71
31
72
44
73
29
0
VERTEX
8
OBJECT__14
10
0
20
0
30
0
70
128
71
39
72
30
73
38
0
VERTEX
8
OBJECT__14
10
0
20
0
30
0
70
128
71
41
72
3
73
2
0
VERTEX
8
OBJECT__14
10
0
20
0
30
0
70
128
71
19
72
32
73
9
0
VERTEX
8
OBJECT__14
10
0
20
0
30
0
70
128
71
37
72
43
73
35
0
VERTEX
8
OBJECT__14
10
0
20
0
30
0
70
128
71
16
72
44
73
31
0
VERTEX
8
OBJECT__14
10
0
20
0
30
0
70
128
71
41
72
2
73
39
0
VERTEX
8
OBJECT__14
10
0
20
0
30
0
70
128
71
34
72
36
73
35
0
VERTEX
8
OBJECT__14
10
0
20
0
30
0
70
128
71
23
72
43
73
42
0
VERTEX
8
OBJECT__14
10
0
20
0
30
0
70
128
71
38
72
40
73
39
0
VERTEX
8
OBJECT__14
10
0
20
0
30
0
70
128
71
42
72
24
73
23
0
VERTEX
8
OBJECT__14
10
0
20
0
30
0
70
128
71
3
72
4
73
1
0
VERTEX
8
OBJECT__14
10
0
20
0
30
0
70
128
71
25
72
13
73
23
0
SEQEND
8
OBJECT__14
0
POLYLINE
8
OBJECT__15
66
1
70
64
71
60
72
60
62
253
0
VERTEX
8
OBJECT__15
10
-15.000000
20
0.000000
30
18.000000
70
192
0
VERTEX
8
OBJECT__15
10
-15.000000
20
0.000000
30
20.500000
70
192
0
VERTEX
8
OBJECT__15
10
-14.529000
20
3.730000
30
20.500000
70
192
0
VERTEX
8
OBJECT__15
10
-14.095000
20
5.130000
30
18.000000
70
192
0
VERTEX
8
OBJECT__15
10
-11.491000
20
9.642000
30
18.000000
70
192
0
VERTEX
8
OBJECT__15
10
-13.145000
20
7.226000
30
20.500000
70
192
0
VERTEX
8
OBJECT__15
10
-13.991000
20
5.089000
30
20.500000
70
192
0
VERTEX
8
OBJECT__15
10
-7.500000
20
12.990000
30
18.000000
70
192
0
VERTEX
8
OBJECT__15
10
-10.935000
20
10.268000
30
20.500000
70
192
0
VERTEX
8
OBJECT__15
10
-8.037000
20
12.665000
30
20.500000
70
192
0
VERTEX
8
OBJECT__15
10
-11.425000
20
9.594000
30
20.500000
70
192
0
VERTEX
8
OBJECT__15
10
-7.472000
20
12.931000
30
20.500000
70
192
0
VERTEX
8
OBJECT__15
10
-4.635000
20
14.266000
30
20.500000
70
192
0
VERTEX
8
OBJECT__15
10
-2.605000
20
14.772000
30
18.000000
70
192
0
VERTEX
8
OBJECT__15
10
2.605000
20
14.772000
30
18.000000
70
192
0
VERTEX
8
OBJECT__15
10
-0.942000
20
14.970000
30
20.500000
70
192
0
VERTEX
8
OBJECT__15
10
-2.583000
20
14.657000
30
20.500000
70
192
0
VERTEX
8
OBJECT__15
10
2.811000
20
14.734000
30
20.500000
70
192
0
VERTEX
8
OBJECT__15
10
6.387000
20
13.572000
30
20.500000
70
192
0
VERTEX
8
OBJECT__15
10
7.500000
20
12.990000
30
18.000000
70
192
0
VERTEX
8
OBJECT__15
10
2.603000
20
14.747000
30
20.500000
70
192
0
VERTEX
8
OBJECT__15
10
11.491000
20
9.642000
30
18.000000
70
192
0
VERTEX
8
OBJECT__15
10
9.561000
20
11.558000
30
20.500000
70
192
0
VERTEX
8
OBJECT__15
10
7.444000
20
12.902000
30
20.500000
70
192
0
VERTEX
8
OBJECT__15
10
14.095000
20
5.130000
30
18.000000
70
192
0
VERTEX
8
OBJECT__15
10
12.135000
20
8.817000
30
20.500000
70
192
0
VERTEX
8
OBJECT__15
10
13.947000
20
5.522000
30
20.500000
70
192
0
VERTEX
8
OBJECT__15
10
11.421000
20
9.577000
30
20.500000
70
192
0
VERTEX
8
OBJECT__15
10
14.050000
20
5.119000
30
20.500000
70
192
0
VERTEX
8
OBJECT__15
10
14.882000
20
1.880000
30
20.500000
70
192
0
VERTEX
8
OBJECT__15
10
15.000000
20
0.000000
30
18.000000
70
192
0
VERTEX
8
OBJECT__15
10
14.095000
20
-5.130000
30
18.000000
70
192
0
VERTEX
8
OBJECT__15
10
14.882000
20
-1.880000
30
20.500000
70
192
0
VERTEX
8
OBJECT__15
10
14.882000
20
0.000000
30
20.500000
70
192
0
VERTEX
8
OBJECT__15
10
13.947000
20
-5.522000
30
20.500000
70
192
0
VERTEX
8
OBJECT__15
10
12.135000
20
-8.817000
30
20.500000
70
192
0
VERTEX
8
OBJECT__15
10
11.491000
20
-9.642000
30
18.000000
70
192
0
VERTEX
8
OBJECT__15
10
14.050000
20
-5.119000
30
20.500000
70
192
0
VERTEX
8
OBJECT__15
10
11.421000
20
-9.577000
30
20.500000
70
192
0
VERTEX
8
OBJECT__15
10
9.561000
20
-11.558000
30
20.500000
70
192
0
VERTEX
8
OBJECT__15
10
7.500000
20
-12.990000
30
18.000000
70
192
0
VERTEX
8
OBJECT__15
10
2.605000
20
-14.772000
30
18.000000
70
192
0
VERTEX
8
OBJECT__15
10
6.387000
20
-13.572000
30
20.500000
70
192
0
VERTEX
8
OBJECT__15
10
2.811000
20
-14.734000
30
20.500000
70
192
0
VERTEX
8
OBJECT__15
10
7.444000
20
-12.902000
30
20.500000
70
192
0
VERTEX
8
OBJECT__15
10
2.603000
20
-14.747000
30
20.500000
70
192
0
VERTEX
8
OBJECT__15
10
-0.942000
20
-14.970000
30
20.500000
70
192
0
VERTEX
8
OBJECT__15
10
-2.605000
20
-14.772000
30
18.000000
70
192
0
VERTEX
8
OBJECT__15
10
-7.500000
20
-12.990000
30
18.000000
70
192
0
VERTEX
8
OBJECT__15
10
-4.635000
20
-14.266000
30
20.500000
70
192
0
VERTEX
8
OBJECT__15
10
-2.583000
20
-14.657000
30
20.500000
70
192
0
VERTEX
8
OBJECT__15
10
-8.037000
20
-12.665000
30
20.500000
70
192
0
VERTEX
8
OBJECT__15
10
-10.935000
20
-10.268000
30
20.500000
70
192
0
VERTEX
8
OBJECT__15
10
-11.491000
20
-9.642000
30
18.000000
70
192
0
VERTEX
8
OBJECT__15
10
-7.472000
20
-12.931000
30
20.500000
70
192
0
VERTEX
8
OBJECT__15
10
-11.425000
20
-9.594000
30
20.500000
70
192
0
VERTEX
8
OBJECT__15
10
-13.145000
20
-7.226000
30
20.500000
70
192
0
VERTEX
8
OBJECT__15
10
-14.095000
20
-5.130000
30
18.000000
70
192
0
VERTEX
8
OBJECT__15
10
-14.529000
20
-3.730000
30
20.500000
70
192
0
VERTEX
8
OBJECT__15
10
-13.991000
20
-5.089000
30
20.500000
70
192
0
VERTEX
8
OBJECT__15
10
0
20
0
30
0
70
128
71
1
72
2
73
3
0
VERTEX
8
OBJECT__15
10
0
20
0
30
0
70
128
71
3
72
4
73
1
0
VERTEX
8
OBJECT__15
10
0
20
0
30
0
70
128
71
5
72
4
73
6
0
VERTEX
8
OBJECT__15
10
0
20
0
30
0
70
128
71
4
72
7
73
6
0
VERTEX
8
OBJECT__15
10
0
20
0
30
0
70
128
71
8
72
5
73
9
0
VERTEX
8
OBJECT__15
10
0
20
0
30
0
70
128
71
9
72
10
73
8
0
VERTEX
8
OBJECT__15
10
0
20
0
30
0
70
128
71
5
72
11
73
9
0
VERTEX
8
OBJECT__15
10
0
20
0
30
0
70
128
71
8
72
12
73
13
0
VERTEX
8
OBJECT__15
10
0
20
0
30
0
70
128
71
13
72
14
73
8
0
VERTEX
8
OBJECT__15
10
0
20
0
30
0
70
128
71
15
72
14
73
16
0
VERTEX
8
OBJECT__15
10
0
20
0
30
0
70
128
71
14
72
17
73
16
0
VERTEX
8
OBJECT__15
10
0
20
0
30
0
70
128
71
15
72
18
73
19
0
VERTEX
8
OBJECT__15
10
0
20
0
30
0
70
128
71
19
72
20
73
15
0
VERTEX
8
OBJECT__15
10
0
20
0
30
0
70
128
71
15
72
21
73
18
0
VERTEX
8
OBJECT__15
10
0
20
0
30
0
70
128
71
22
72
20
73
23
0
VERTEX
8
OBJECT__15
10
0
20
0
30
0
70
128
71
20
72
24
73
23
0
VERTEX
8
OBJECT__15
10
0
20
0
30
0
70
128
71
25
72
22
73
26
0
VERTEX
8
OBJECT__15
10
0
20
0
30
0
70
128
71
26
72
27
73
25
0
VERTEX
8
OBJECT__15
10
0
20
0
30
0
70
128
71
22
72
28
73
26
0
VERTEX
8
OBJECT__15
10
0
20
0
30
0
70
128
71
25
72
29
73
30
0
VERTEX
8
OBJECT__15
10
0
20
0
30
0
70
128
71
30
72
31
73
25
0
VERTEX
8
OBJECT__15
10
0
20
0
30
0
70
128
71
32
72
31
73
33
0
VERTEX
8
OBJECT__15
10
0
20
0
30
0
70
128
71
31
72
34
73
33
0
VERTEX
8
OBJECT__15
10
0
20
0
30
0
70
128
71
32
72
35
73
36
0
VERTEX
8
OBJECT__15
10
0
20
0
30
0
70
128
71
36
72
37
73
32
0
VERTEX
8
OBJECT__15
10
0
20
0
30
0
70
128
71
32
72
38
73
35
0
VERTEX
8
OBJECT__15
10
0
20
0
30
0
70
128
71
37
72
39
73
40
0
VERTEX
8
OBJECT__15
10
0
20
0
30
0
70
128
71
40
72
41
73
37
0
VERTEX
8
OBJECT__15
10
0
20
0
30
0
70
128
71
42
72
41
73
43
0
VERTEX
8
OBJECT__15
10
0
20
0
30
0
70
128
71
43
72
44
73
42
0
VERTEX
8
OBJECT__15
10
0
20
0
30
0
70
128
71
41
72
45
73
43
0
VERTEX
8
OBJECT__15
10
0
20
0
30
0
70
128
71
42
72
46
73
47
0
VERTEX
8
OBJECT__15
10
0
20
0
30
0
70
128
71
47
72
48
73
42
0
VERTEX
8
OBJECT__15
10
0
20
0
30
0
70
128
71
49
72
48
73
50
0
VERTEX
8
OBJECT__15
10
0
20
0
30
0
70
128
71
48
72
51
73
50
0
VERTEX
8
OBJECT__15
10
0
20
0
30
0
70
128
71
49
72
52
73
53
0
VERTEX
8
OBJECT__15
10
0
20
0
30
0
70
128
71
53
72
54
73
49
0
VERTEX
8
OBJECT__15
10
0
20
0
30
0
70
128
71
49
72
55
73
52
0
VERTEX
8
OBJECT__15
10
0
20
0
30
0
70
128
71
54
72
56
73
57
0
VERTEX
8
OBJECT__15
10
0
20
0
30
0
70
128
71
57
72
58
73
54
0
VERTEX
8
OBJECT__15
10
0
20
0
30
0
70
128
71
1
72
58
73
59
0
VERTEX
8
OBJECT__15
10
0
20
0
30
0
70
128
71
58
72
60
73
59
0
VERTEX
8
OBJECT__15
10
0
20
0
30
0
70
128
71
59
72
2
73
1
0
VERTEX
8
OBJECT__15
10
0
20
0
30
0
70
128
71
57
72
60
73
58
0
VERTEX
8
OBJECT__15
10
0
20
0
30
0
70
128
71
53
72
56
73
54
0
VERTEX
8
OBJECT__15
10
0
20
0
30
0
70
128
71
50
72
55
73
49
0
VERTEX
8
OBJECT__15
10
0
20
0
30
0
70
128
71
47
72
51
73
48
0
VERTEX
8
OBJECT__15
10
0
20
0
30
0
70
128
71
44
72
46
73
42
0
VERTEX
8
OBJECT__15
10
0
20
0
30
0
70
128
71
40
72
45
73
41
0
VERTEX
8
OBJECT__15
10
0
20
0
30
0
70
128
71
36
72
39
73
37
0
VERTEX
8
OBJECT__15
10
0
20
0
30
0
70
128
71
33
72
38
73
32
0
VERTEX
8
OBJECT__15
10
0
20
0
30
0
70
128
71
30
72
34
73
31
0
VERTEX
8
OBJECT__15
10
0
20
0
30
0
70
128
71
27
72
29
73
25
0
VERTEX
8
OBJECT__15
10
0
20
0
30
0
70
128
71
23
72
28
73
22
0
VERTEX
8
OBJECT__15
10
0
20
0
30
0
70
128
71
19
72
24
73
20
0
VERTEX
8
OBJECT__15
10
0
20
0
30
0
70
128
71
16
72
21
73
15
0
VERTEX
8
OBJECT__15
10
0
20
0
30
0
70
128
71
13
72
17
73
14
0
VERTEX
8
OBJECT__15
10
0
20
0
30
0
70
128
71
10
72
12
73
8
0
VERTEX
8
OBJECT__15
10
0
20
0
30
0
70
128
71
6
72
11
73
5
0
VERTEX
8
OBJECT__15
10
0
20
0
30
0
70
128
71
3
72
7
73
4
0
SEQEND
8
OBJECT__15
0
POLYLINE
8
OBJECT__16
66
1
70
64
71
117
72
167
62
253
0
VERTEX
8
OBJECT__16
10
-13.560000
20
3.482000
30
22.232002
70
192
0
VERTEX
8
OBJECT__16
10
-14.000000
20
0.000000
30
22.232002
70
192
0
VERTEX
8
OBJECT__16
10
-13.000000
20
0.000000
30
22.500000
70
192
0
VERTEX
8
OBJECT__16
10
-12.268000
20
6.745000
30
22.232002
70
192
0
VERTEX
8
OBJECT__16
10
-12.592000
20
3.233000
30
22.500000
70
192
0
VERTEX
8
OBJECT__16
10
-10.206000
20
9.584000
30
22.232002
70
192
0
VERTEX
8
OBJECT__16
10
-11.392000
20
6.263000
30
22.500000
70
192
0
VERTEX
8
OBJECT__16
10
-7.502000
20
11.821000
30
22.232002
70
192
0
VERTEX
8
OBJECT__16
10
-9.477000
20
8.899000
30
22.500000
70
192
0
VERTEX
8
OBJECT__16
10
-6.966000
20
10.976000
30
22.500000
70
192
0
VERTEX
8
OBJECT__16
10
-4.017000
20
12.364000
30
22.500000
70
192
0
VERTEX
8
OBJECT__16
10
-0.879000
20
13.972000
30
22.232002
70
192
0
VERTEX
8
OBJECT__16
10
-4.326000
20
13.315000
30
22.232002
70
192
0
VERTEX
8
OBJECT__16
10
2.623000
20
13.752000
30
22.232002
70
192
0
VERTEX
8
OBJECT__16
10
-0.816000
20
12.974000
30
22.500000
70
192
0
VERTEX
8
OBJECT__16
10
5.961000
20
12.668000
30
22.232002
70
192
0
VERTEX
8
OBJECT__16
10
2.436000
20
12.770000
30
22.500000
70
192
0
VERTEX
8
OBJECT__16
10
8.924000
20
10.787000
30
22.232002
70
192
0
VERTEX
8
OBJECT__16
10
5.535000
20
11.763000
30
22.500000
70
192
0
VERTEX
8
OBJECT__16
10
11.326000
20
8.229000
30
22.232002
70
192
0
VERTEX
8
OBJECT__16
10
8.287000
20
10.017000
30
22.500000
70
192
0
VERTEX
8
OBJECT__16
10
13.017000
20
5.154000
30
22.232002
70
192
0
VERTEX
8
OBJECT__16
10
10.517000
20
7.641000
30
22.500000
70
192
0
VERTEX
8
OBJECT__16
10
13.890000
20
1.755000
30
22.232002
70
192
0
VERTEX
8
OBJECT__16
10
12.087000
20
4.786000
30
22.500000
70
192
0
VERTEX
8
OBJECT__16
10
13.890000
20
-1.755000
30
22.232002
70
192
0
VERTEX
8
OBJECT__16
10
12.897000
20
1.629000
30
22.500000
70
192
0
VERTEX
8
OBJECT__16
10
13.017000
20
-5.154000
30
22.232002
70
192
0
VERTEX
8
OBJECT__16
10
12.897000
20
-1.629000
30
22.500000
70
192
0
VERTEX
8
OBJECT__16
10
11.326000
20
-8.229000
30
22.232002
70
192
0
VERTEX
8
OBJECT__16
10
12.087000
20
-4.786000
30
22.500000
70
192
0
VERTEX
8
OBJECT__16
10
10.517000
20
-7.641000
30
22.500000
70
192
0
VERTEX
8
OBJECT__16
10
8.287000
20
-10.017000
30
22.500000
70
192
0
VERTEX
8
OBJECT__16
10
8.924000
20
-10.787000
30
22.232002
70
192
0
VERTEX
8
OBJECT__16
10
5.535000
20
-11.763000
30
22.500000
70
192
0
VERTEX
8
OBJECT__16
10
2.623000
20
-13.752000
30
22.232002
70
192
0
VERTEX
8
OBJECT__16
10
5.961000
20
-12.668000
30
22.232002
70
192
0
VERTEX
8
OBJECT__16
10
-0.879000
20
-13.972000
30
22.232002
70
192
0
VERTEX
8
OBJECT__16
10
2.436000
20
-12.770000
30
22.500000
70
192
0
VERTEX
8
OBJECT__16
10
-4.326000
20
-13.315000
30
22.232002
70
192
0
VERTEX
8
OBJECT__16
10
-0.816000
20
-12.974000
30
22.500000
70
192
0
VERTEX
8
OBJECT__16
10
-7.502000
20
-11.821000
30
22.232002
70
192
0
VERTEX
8
OBJECT__16
10
-4.017000
20
-12.364000
30
22.500000
70
192
0
VERTEX
8
OBJECT__16
10
-6.966000
20
-10.976000
30
22.500000
70
192
0
VERTEX
8
OBJECT__16
10
-9.477000
20
-8.899000
30
22.500000
70
192
0
VERTEX
8
OBJECT__16
10
-10.206000
20
-9.584000
30
22.232002
70
192
0
VERTEX
8
OBJECT__16
10
-11.392000
20
-6.263000
30
22.500000
70
192
0
VERTEX
8
OBJECT__16
10
-13.560000
20
-3.482000
30
22.232002
70
192
0
VERTEX
8
OBJECT__16
10
-12.268000
20
-6.745000
30
22.232002
70
192
0
VERTEX
8
OBJECT__16
10
-12.592000
20
-3.233000
30
22.500000
70
192
0
VERTEX
8
OBJECT__16
10
-14.269000
20
3.664000
30
21.500000
70
192
0
VERTEX
8
OBJECT__16
10
-12.910000
20
7.097000
30
21.500000
70
192
0
VERTEX
8
OBJECT__16
10
-10.739000
20
10.085000
30
21.500000
70
192
0
VERTEX
8
OBJECT__16
10
-7.894000
20
12.439000
30
21.500000
70
192
0
VERTEX
8
OBJECT__16
10
-4.552000
20
14.011000
30
21.500000
70
192
0
VERTEX
8
OBJECT__16
10
-0.925000
20
14.703000
30
21.500000
70
192
0
VERTEX
8
OBJECT__16
10
2.761000
20
14.471000
30
21.500000
70
192
0
VERTEX
8
OBJECT__16
10
6.273000
20
13.330000
30
21.500000
70
192
0
VERTEX
8
OBJECT__16
10
9.391000
20
11.351000
30
21.500000
70
192
0
VERTEX
8
OBJECT__16
10
11.918000
20
8.659000
30
21.500000
70
192
0
VERTEX
8
OBJECT__16
10
13.698000
20
5.423000
30
21.500000
70
192
0
VERTEX
8
OBJECT__16
10
14.616000
20
1.846000
30
21.500000
70
192
0
VERTEX
8
OBJECT__16
10
14.616000
20
-1.846000
30
21.500000
70
192
0
VERTEX
8
OBJECT__16
10
13.698000
20
-5.423000
30
21.500000
70
192
0
VERTEX
8
OBJECT__16
10
11.918000
20
-8.659000
30
21.500000
70
192
0
VERTEX
8
OBJECT__16
10
9.391000
20
-11.351000
30
21.500000
70
192
0
VERTEX
8
OBJECT__16
10
6.273000
20
-13.330000
30
21.500000
70
192
0
VERTEX
8
OBJECT__16
10
2.761000
20
-14.471000
30
21.500000
70
192
0
VERTEX
8
OBJECT__16
10
-0.925000
20
-14.703000
30
21.500000
70
192
0
VERTEX
8
OBJECT__16
10
-4.552000
20
-14.011000
30
21.500000
70
192
0
VERTEX
8
OBJECT__16
10
-7.894000
20
-12.439000
30
21.500000
70
192
0
VERTEX
8
OBJECT__16
10
-10.739000
20
-10.085000
30
21.500000
70
192
0
VERTEX
8
OBJECT__16
10
-12.910000
20
-7.097000
30
21.500000
70
192
0
VERTEX
8
OBJECT__16
10
-14.269000
20
-3.664000
30
21.500000
70
192
0
VERTEX
8
OBJECT__16
10
-14.732000
20
0.000000
30
21.500000
70
192
0
VERTEX
8
OBJECT__16
10
-15.000000
20
0.000000
30
20.500000
70
192
0
VERTEX
8
OBJECT__16
10
-13.145000
20
7.226000
30
20.500000
70
192
0
VERTEX
8
OBJECT__16
10
-13.991000
20
5.089000
30
20.500000
70
192
0
VERTEX
8
OBJECT__16
10
-11.425000
20
9.594000
30
20.500000
70
192
0
VERTEX
8
OBJECT__16
10
-10.935000
20
10.268000
30
20.500000
70
192
0
VERTEX
8
OBJECT__16
10
-4.635000
20
14.266000
30
20.500000
70
192
0
VERTEX
8
OBJECT__16
10
-7.472000
20
12.931000
30
20.500000
70
192
0
VERTEX
8
OBJECT__16
10
-2.583000
20
14.657000
30
20.500000
70
192
0
VERTEX
8
OBJECT__16
10
-0.942000
20
14.970000
30
20.500000
70
192
0
VERTEX
8
OBJECT__16
10
2.603000
20
14.747000
30
20.500000
70
192
0
VERTEX
8
OBJECT__16
10
2.811000
20
14.734000
30
20.500000
70
192
0
VERTEX
8
OBJECT__16
10
6.387000
20
13.572000
30
20.500000
70
192
0
VERTEX
8
OBJECT__16
10
9.561000
20
11.558000
30
20.500000
70
192
0
VERTEX
8
OBJECT__16
10
7.444000
20
12.902000
30
20.500000
70
192
0
VERTEX
8
OBJECT__16
10
11.421000
20
9.577000
30
20.500000
70
192
0
VERTEX
8
OBJECT__16
10
12.135000
20
8.817000
30
20.500000
70
192
0
VERTEX
8
OBJECT__16
10
14.882000
20
1.880000
30
20.500000
70
192
0
VERTEX
8
OBJECT__16
10
14.050000
20
5.119000
30
20.500000
70
192
0
VERTEX
8
OBJECT__16
10
14.882000
20
-1.880000
30
20.500000
70
192
0
VERTEX
8
OBJECT__16
10
14.882000
20
0.000000
30
20.500000
70
192
0
VERTEX
8
OBJECT__16
10
14.050000
20
-5.119000
30
20.500000
70
192
0
VERTEX
8
OBJECT__16
10
13.947000
20
-5.522000
30
20.500000
70
192
0
VERTEX
8
OBJECT__16
10
12.135000
20
-8.817000
30
20.500000
70
192
0
VERTEX
8
OBJECT__16
10
9.561000
20
-11.558000
30
20.500000
70
192
0
VERTEX
8
OBJECT__16
10
11.421000
20
-9.577000
30
20.500000
70
192
0
VERTEX
8
OBJECT__16
10
7.444000
20
-12.902000
30
20.500000
70
192
0
VERTEX
8
OBJECT__16
10
6.387000
20
-13.572000
30
20.500000
70
192
0
VERTEX
8
OBJECT__16
10
2.811000
20
-14.734000
30
20.500000
70
192
0
VERTEX
8
OBJECT__16
10
-0.942000
20
-14.970000
30
20.500000
70
192
0
VERTEX
8
OBJECT__16
10
2.603000
20
-14.747000
30
20.500000
70
192
0
VERTEX
8
OBJECT__16
10
-4.635000
20
-14.266000
30
20.500000
70
192
0
VERTEX
8
OBJECT__16
10
-2.583000
20
-14.657000
30
20.500000
70
192
0
VERTEX
8
OBJECT__16
10
-7.472000
20
-12.931000
30
20.500000
70
192
0
VERTEX
8
OBJECT__16
10
-8.037000
20
-12.665000
30
20.500000
70
192
0
VERTEX
8
OBJECT__16
10
-10.935000
20
-10.268000
30
20.500000
70
192
0
VERTEX
8
OBJECT__16
10
-13.145000
20
-7.226000
30
20.500000
70
192
0
VERTEX
8
OBJECT__16
10
-11.425000
20
-9.594000
30
20.500000
70
192
0
VERTEX
8
OBJECT__16
10
-13.991000
20
-5.089000
30
20.500000
70
192
0
VERTEX
8
OBJECT__16
10
-14.529000
20
-3.730000
30
20.500000
70
192
0
VERTEX
8
OBJECT__16
10
13.947000
20
5.522000
30
20.500000
70
192
0
VERTEX
8
OBJECT__16
10
-8.037000
20
12.665000
30
20.500000
70
192
0
VERTEX
8
OBJECT__16
10
-14.529000
20
3.730000
30
20.500000
70
192
0
VERTEX
8
OBJECT__16
10
0
20
0
30
0
70
128
71
1
72
2
73
3
0
VERTEX
8
OBJECT__16
10
0
20
0
30
0
70
128
71
4
72
1
73
5
0
VERTEX
8
OBJECT__16
10
0
20
0
30
0
70
128
71
6
72
4
73
7
0
VERTEX
8
OBJECT__16
10
0
20
0
30
0
70
128
71
8
72
6
73
9
0
VERTEX
8
OBJECT__16
10
0
20
0
30
0
70
128
71
8
72
10
73
11
0
VERTEX
8
OBJECT__16
10
0
20
0
30
0
70
128
71
12
72
13
73
11
0
VERTEX
8
OBJECT__16
10
0
20
0
30
0
70
128
71
14
72
12
73
15
0
VERTEX
8
OBJECT__16
10
0
20
0
30
0
70
128
71
16
72
14
73
17
0
VERTEX
8
OBJECT__16
10
0
20
0
30
0
70
128
71
18
72
16
73
19
0
VERTEX
8
OBJECT__16
10
0
20
0
30
0
70
128
71
20
72
18
73
21
0
VERTEX
8
OBJECT__16
10
0
20
0
30
0
70
128
71
22
72
20
73
23
0
VERTEX
8
OBJECT__16
10
0
20
0
30
0
70
128
71
24
72
22
73
25
0
VERTEX
8
OBJECT__16
10
0
20
0
30
0
70
128
71
26
72
24
73
27
0
VERTEX
8
OBJECT__16
10
0
20
0
30
0
70
128
71
28
72
26
73
29
0
VERTEX
8
OBJECT__16
10
0
20
0
30
0
70
128
71
30
72
28
73
31
0
VERTEX
8
OBJECT__16
10
0
20
0
30
0
70
128
71
30
72
32
73
33
0
VERTEX
8
OBJECT__16
10
0
20
0
30
0
70
128
71
34
72
33
73
35
0
VERTEX
8
OBJECT__16
10
0
20
0
30
0
70
128
71
36
72
37
73
35
0
VERTEX
8
OBJECT__16
10
0
20
0
30
0
70
128
71
38
72
36
73
39
0
VERTEX
8
OBJECT__16
10
0
20
0
30
0
70
128
71
40
72
38
73
41
0
VERTEX
8
OBJECT__16
10
0
20
0
30
0
70
128
71
42
72
40
73
43
0
VERTEX
8
OBJECT__16
10
0
20
0
30
0
70
128
71
42
72
44
73
45
0
VERTEX
8
OBJECT__16
10
0
20
0
30
0
70
128
71
46
72
45
73
47
0
VERTEX
8
OBJECT__16
10
0
20
0
30
0
70
128
71
48
72
49
73
47
0
VERTEX
8
OBJECT__16
10
0
20
0
30
0
70
128
71
48
72
50
73
3
0
VERTEX
8
OBJECT__16
10
0
20
0
30
0
70
128
71
2
72
1
73
51
0
VERTEX
8
OBJECT__16
10
0
20
0
30
0
70
128
71
1
72
4
73
52
0
VERTEX
8
OBJECT__16
10
0
20
0
30
0
70
128
71
4
72
6
73
53
0
VERTEX
8
OBJECT__16
10
0
20
0
30
0
70
128
71
6
72
8
73
54
0
VERTEX
8
OBJECT__16
10
0
20
0
30
0
70
128
71
8
72
13
73
55
0
VERTEX
8
OBJECT__16
10
0
20
0
30
0
70
128
71
13
72
12
73
56
0
VERTEX
8
OBJECT__16
10
0
20
0
30
0
70
128
71
12
72
14
73
57
0
VERTEX
8
OBJECT__16
10
0
20
0
30
0
70
128
71
14
72
16
73
58
0
VERTEX
8
OBJECT__16
10
0
20
0
30
0
70
128
71
16
72
18
73
59
0
VERTEX
8
OBJECT__16
10
0
20
0
30
0
70
128
71
18
72
20
73
60
0
VERTEX
8
OBJECT__16
10
0
20
0
30
0
70
128
71
20
72
22
73
61
0
VERTEX
8
OBJECT__16
10
0
20
0
30
0
70
128
71
22
72
24
73
62
0
VERTEX
8
OBJECT__16
10
0
20
0
30
0
70
128
71
24
72
26
73
63
0
VERTEX
8
OBJECT__16
10
0
20
0
30
0
70
128
71
26
72
28
73
64
0
VERTEX
8
OBJECT__16
10
0
20
0
30
0
70
128
71
28
72
30
73
65
0
VERTEX
8
OBJECT__16
10
0
20
0
30
0
70
128
71
30
72
34
73
66
0
VERTEX
8
OBJECT__16
10
0
20
0
30
0
70
128
71
34
72
37
73
67
0
VERTEX
8
OBJECT__16
10
0
20
0
30
0
70
128
71
37
72
36
73
68
0
VERTEX
8
OBJECT__16
10
0
20
0
30
0
70
128
71
36
72
38
73
69
0
VERTEX
8
OBJECT__16
10
0
20
0
30
0
70
128
71
38
72
40
73
70
0
VERTEX
8
OBJECT__16
10
0
20
0
30
0
70
128
71
40
72
42
73
71
0
VERTEX
8
OBJECT__16
10
0
20
0
30
0
70
128
71
42
72
46
73
72
0
VERTEX
8
OBJECT__16
10
0
20
0
30
0
70
128
71
46
72
49
73
73
0
VERTEX
8
OBJECT__16
10
0
20
0
30
0
70
128
71
49
72
48
73
74
0
VERTEX
8
OBJECT__16
10
0
20
0
30
0
70
128
71
48
72
2
73
75
0
VERTEX
8
OBJECT__16
10
0
20
0
30
0
70
128
71
76
72
75
73
51
0
VERTEX
8
OBJECT__16
10
0
20
0
30
0
70
128
71
52
72
77
73
78
0
VERTEX
8
OBJECT__16
10
0
20
0
30
0
70
128
71
78
72
51
73
52
0
VERTEX
8
OBJECT__16
10
0
20
0
30
0
70
128
71
52
72
53
73
79
0
VERTEX
8
OBJECT__16
10
0
20
0
30
0
70
128
71
53
72
80
73
79
0
VERTEX
8
OBJECT__16
10
0
20
0
30
0
70
128
71
80
72
53
73
54
0
VERTEX
8
OBJECT__16
10
0
20
0
30
0
70
128
71
55
72
81
73
82
0
VERTEX
8
OBJECT__16
10
0
20
0
30
0
70
128
71
82
72
54
73
55
0
VERTEX
8
OBJECT__16
10
0
20
0
30
0
70
128
71
55
72
56
73
83
0
VERTEX
8
OBJECT__16
10
0
20
0
30
0
70
128
71
56
72
84
73
83
0
VERTEX
8
OBJECT__16
10
0
20
0
30
0
70
128
71
56
72
57
73
85
0
VERTEX
8
OBJECT__16
10
0
20
0
30
0
70
128
71
57
72
86
73
85
0
VERTEX
8
OBJECT__16
10
0
20
0
30
0
70
128
71
87
72
86
73
57
0
VERTEX
8
OBJECT__16
10
0
20
0
30
0
70
128
71
59
72
88
73
89
0
VERTEX
8
OBJECT__16
10
0
20
0
30
0
70
128
71
89
72
58
73
59
0
VERTEX
8
OBJECT__16
10
0
20
0
30
0
70
128
71
59
72
60
73
90
0
VERTEX
8
OBJECT__16
10
0
20
0
30
0
70
128
71
60
72
91
73
90
0
VERTEX
8
OBJECT__16
10
0
20
0
30
0
70
128
71
91
72
60
73
61
0
VERTEX
8
OBJECT__16
10
0
20
0
30
0
70
128
71
62
72
92
73
93
0
VERTEX
8
OBJECT__16
10
0
20
0
30
0
70
128
71
93
72
61
73
62
0
VERTEX
8
OBJECT__16
10
0
20
0
30
0
70
128
71
63
72
94
73
95
0
VERTEX
8
OBJECT__16
10
0
20
0
30
0
70
128
71
95
72
62
73
63
0
VERTEX
8
OBJECT__16
10
0
20
0
30
0
70
128
71
63
72
64
73
96
0
VERTEX
8
OBJECT__16
10
0
20
0
30
0
70
128
71
64
72
97
73
96
0
VERTEX
8
OBJECT__16
10
0
20
0
30
0
70
128
71
98
72
97
73
64
0
VERTEX
8
OBJECT__16
10
0
20
0
30
0
70
128
71
66
72
99
73
100
0
VERTEX
8
OBJECT__16
10
0
20
0
30
0
70
128
71
100
72
65
73
66
0
VERTEX
8
OBJECT__16
10
0
20
0
30
0
70
128
71
66
72
67
73
101
0
VERTEX
8
OBJECT__16
10
0
20
0
30
0
70
128
71
67
72
102
73
101
0
VERTEX
8
OBJECT__16
10
0
20
0
30
0
70
128
71
103
72
102
73
67
0
VERTEX
8
OBJECT__16
10
0
20
0
30
0
70
128
71
69
72
104
73
105
0
VERTEX
8
OBJECT__16
10
0
20
0
30
0
70
128
71
105
72
68
73
69
0
VERTEX
8
OBJECT__16
10
0
20
0
30
0
70
128
71
70
72
106
73
107
0
VERTEX
8
OBJECT__16
10
0
20
0
30
0
70
128
71
107
72
69
73
70
0
VERTEX
8
OBJECT__16
10
0
20
0
30
0
70
128
71
70
72
71
73
108
0
VERTEX
8
OBJECT__16
10
0
20
0
30
0
70
128
71
71
72
109
73
108
0
VERTEX
8
OBJECT__16
10
0
20
0
30
0
70
128
71
110
72
109
73
71
0
VERTEX
8
OBJECT__16
10
0
20
0
30
0
70
128
71
73
72
111
73
112
0
VERTEX
8
OBJECT__16
10
0
20
0
30
0
70
128
71
112
72
72
73
73
0
VERTEX
8
OBJECT__16
10
0
20
0
30
0
70
128
71
73
72
74
73
113
0
VERTEX
8
OBJECT__16
10
0
20
0
30
0
70
128
71
74
72
114
73
113
0
VERTEX
8
OBJECT__16
10
0
20
0
30
0
70
128
71
114
72
74
73
75
0
VERTEX
8
OBJECT__16
10
0
20
0
30
0
70
128
71
75
72
76
73
114
0
VERTEX
8
OBJECT__16
10
0
20
0
30
0
70
128
71
113
72
111
73
73
0
VERTEX
8
OBJECT__16
10
0
20
0
30
0
70
128
71
112
72
110
73
72
0
VERTEX
8
OBJECT__16
10
0
20
0
30
0
70
128
71
71
72
72
73
110
0
VERTEX
8
OBJECT__16
10
0
20
0
30
0
70
128
71
108
72
106
73
70
0
VERTEX
8
OBJECT__16
10
0
20
0
30
0
70
128
71
107
72
104
73
69
0
VERTEX
8
OBJECT__16
10
0
20
0
30
0
70
128
71
105
72
103
73
68
0
VERTEX
8
OBJECT__16
10
0
20
0
30
0
70
128
71
67
72
68
73
103
0
VERTEX
8
OBJECT__16
10
0
20
0
30
0
70
128
71
101
72
99
73
66
0
VERTEX
8
OBJECT__16
10
0
20
0
30
0
70
128
71
100
72
98
73
65
0
VERTEX
8
OBJECT__16
10
0
20
0
30
0
70
128
71
64
72
65
73
98
0
VERTEX
8
OBJECT__16
10
0
20
0
30
0
70
128
71
96
72
94
73
63
0
VERTEX
8
OBJECT__16
10
0
20
0
30
0
70
128
71
95
72
92
73
62
0
VERTEX
8
OBJECT__16
10
0
20
0
30
0
70
128
71
93
72
115
73
61
0
VERTEX
8
OBJECT__16
10
0
20
0
30
0
70
128
71
61
72
115
73
91
0
VERTEX
8
OBJECT__16
10
0
20
0
30
0
70
128
71
90
72
88
73
59
0
VERTEX
8
OBJECT__16
10
0
20
0
30
0
70
128
71
89
72
87
73
58
0
VERTEX
8
OBJECT__16
10
0
20
0
30
0
70
128
71
57
72
58
73
87
0
VERTEX
8
OBJECT__16
10
0
20
0
30
0
70
128
71
85
72
84
73
56
0
VERTEX
8
OBJECT__16
10
0
20
0
30
0
70
128
71
83
72
81
73
55
0
VERTEX
8
OBJECT__16
10
0
20
0
30
0
70
128
71
82
72
116
73
54
0
VERTEX
8
OBJECT__16
10
0
20
0
30
0
70
128
71
54
72
116
73
80
0
VERTEX
8
OBJECT__16
10
0
20
0
30
0
70
128
71
79
72
77
73
52
0
VERTEX
8
OBJECT__16
10
0
20
0
30
0
70
128
71
78
72
117
73
51
0
VERTEX
8
OBJECT__16
10
0
20
0
30
0
70
128
71
51
72
117
73
76
0
VERTEX
8
OBJECT__16
10
0
20
0
30
0
70
128
71
75
72
74
73
48
0
VERTEX
8
OBJECT__16
10
0
20
0
30
0
70
128
71
74
72
73
73
49
0
VERTEX
8
OBJECT__16
10
0
20
0
30
0
70
128
71
73
72
72
73
46
0
VERTEX
8
OBJECT__16
10
0
20
0
30
0
70
128
71
72
72
71
73
42
0
VERTEX
8
OBJECT__16
10
0
20
0
30
0
70
128
71
71
72
70
73
40
0
VERTEX
8
OBJECT__16
10
0
20
0
30
0
70
128
71
70
72
69
73
38
0
VERTEX
8
OBJECT__16
10
0
20
0
30
0
70
128
71
69
72
68
73
36
0
VERTEX
8
OBJECT__16
10
0
20
0
30
0
70
128
71
68
72
67
73
37
0
VERTEX
8
OBJECT__16
10
0
20
0
30
0
70
128
71
67
72
66
73
34
0
VERTEX
8
OBJECT__16
10
0
20
0
30
0
70
128
71
66
72
65
73
30
0
VERTEX
8
OBJECT__16
10
0
20
0
30
0
70
128
71
65
72
64
73
28
0
VERTEX
8
OBJECT__16
10
0
20
0
30
0
70
128
71
64
72
63
73
26
0
VERTEX
8
OBJECT__16
10
0
20
0
30
0
70
128
71
63
72
62
73
24
0
VERTEX
8
OBJECT__16
10
0
20
0
30
0
70
128
71
62
72
61
73
22
0
VERTEX
8
OBJECT__16
10
0
20
0
30
0
70
128
71
61
72
60
73
20
0
VERTEX
8
OBJECT__16
10
0
20
0
30
0
70
128
71
60
72
59
73
18
0
VERTEX
8
OBJECT__16
10
0
20
0
30
0
70
128
71
59
72
58
73
16
0
VERTEX
8
OBJECT__16
10
0
20
0
30
0
70
128
71
58
72
57
73
14
0
VERTEX
8
OBJECT__16
10
0
20
0
30
0
70
128
71
57
72
56
73
12
0
VERTEX
8
OBJECT__16
10
0
20
0
30
0
70
128
71
56
72
55
73
13
0
VERTEX
8
OBJECT__16
10
0
20
0
30
0
70
128
71
55
72
54
73
8
0
VERTEX
8
OBJECT__16
10
0
20
0
30
0
70
128
71
54
72
53
73
6
0
VERTEX
8
OBJECT__16
10
0
20
0
30
0
70
128
71
53
72
52
73
4
0
VERTEX
8
OBJECT__16
10
0
20
0
30
0
70
128
71
52
72
51
73
1
0
VERTEX
8
OBJECT__16
10
0
20
0
30
0
70
128
71
51
72
75
73
2
0
VERTEX
8
OBJECT__16
10
0
20
0
30
0
70
128
71
3
72
2
73
48
0
VERTEX
8
OBJECT__16
10
0
20
0
30
0
70
128
71
47
72
50
73
48
0
VERTEX
8
OBJECT__16
10
0
20
0
30
0
70
128
71
47
72
49
73
46
0
VERTEX
8
OBJECT__16
10
0
20
0
30
0
70
128
71
45
72
46
73
42
0
VERTEX
8
OBJECT__16
10
0
20
0
30
0
70
128
71
43
72
44
73
42
0
VERTEX
8
OBJECT__16
10
0
20
0
30
0
70
128
71
41
72
43
73
40
0
VERTEX
8
OBJECT__16
10
0
20
0
30
0
70
128
71
39
72
41
73
38
0
VERTEX
8
OBJECT__16
10
0
20
0
30
0
70
128
71
35
72
39
73
36
0
VERTEX
8
OBJECT__16
10
0
20
0
30
0
70
128
71
35
72
37
73
34
0
VERTEX
8
OBJECT__16
10
0
20
0
30
0
70
128
71
33
72
34
73
30
0
VERTEX
8
OBJECT__16
10
0
20
0
30
0
70
128
71
31
72
32
73
30
0
VERTEX
8
OBJECT__16
10
0
20
0
30
0
70
128
71
29
72
31
73
28
0
VERTEX
8
OBJECT__16
10
0
20
0
30
0
70
128
71
27
72
29
73
26
0
VERTEX
8
OBJECT__16
10
0
20
0
30
0
70
128
71
25
72
27
73
24
0
VERTEX
8
OBJECT__16
10
0
20
0
30
0
70
128
71
23
72
25
73
22
0
VERTEX
8
OBJECT__16
10
0
20
0
30
0
70
128
71
21
72
23
73
20
0
VERTEX
8
OBJECT__16
10
0
20
0
30
0
70
128
71
19
72
21
73
18
0
VERTEX
8
OBJECT__16
10
0
20
0
30
0
70
128
71
17
72
19
73
16
0
VERTEX
8
OBJECT__16
10
0
20
0
30
0
70
128
71
15
72
17
73
14
0
VERTEX
8
OBJECT__16
10
0
20
0
30
0
70
128
71
11
72
15
73
12
0
VERTEX
8
OBJECT__16
10
0
20
0
30
0
70
128
71
11
72
13
73
8
0
VERTEX
8
OBJECT__16
10
0
20
0
30
0
70
128
71
9
72
10
73
8
0
VERTEX
8
OBJECT__16
10
0
20
0
30
0
70
128
71
7
72
9
73
6
0
VERTEX
8
OBJECT__16
10
0
20
0
30
0
70
128
71
5
72
7
73
4
0
VERTEX
8
OBJECT__16
10
0
20
0
30
0
70
128
71
3
72
5
73
1
0
SEQEND
8
OBJECT__16
0
POLYLINE
8
OBJECT__17
66
1
70
64
71
48
72
48
62
253
0
VERTEX
8
OBJECT__17
10
-6.966000
20
-10.976000
30
22.500000
70
192
0
VERTEX
8
OBJECT__17
10
-5.521000
20
-10.655000
30
22.500000
70
192
0
VERTEX
8
OBJECT__17
10
-8.191000
20
-8.770000
30
22.500000
70
192
0
VERTEX
8
OBJECT__17
10
-4.017000
20
-12.364000
30
22.500000
70
192
0
VERTEX
8
OBJECT__17
10
-2.441000
20
-11.749000
30
22.500000
70
192
0
VERTEX
8
OBJECT__17
10
-0.816000
20
-12.974000
30
22.500000
70
192
0
VERTEX
8
OBJECT__17
10
0.819000
20
-11.972000
30
22.500000
70
192
0
VERTEX
8
OBJECT__17
10
11.888000
20
-1.634000
30
22.500000
70
192
0
VERTEX
8
OBJECT__17
10
12.897000
20
-1.629000
30
22.500000
70
192
0
VERTEX
8
OBJECT__17
10
12.897000
20
1.629000
30
22.500000
70
192
0
VERTEX
8
OBJECT__17
10
12.087000
20
4.786000
30
22.500000
70
192
0
VERTEX
8
OBJECT__17
10
11.007000
20
4.781000
30
22.500000
70
192
0
VERTEX
8
OBJECT__17
10
11.888000
20
1.634000
30
22.500000
70
192
0
VERTEX
8
OBJECT__17
10
-0.816000
20
12.974000
30
22.500000
70
192
0
VERTEX
8
OBJECT__17
10
-4.017000
20
12.364000
30
22.500000
70
192
0
VERTEX
8
OBJECT__17
10
-2.441000
20
11.749000
30
22.500000
70
192
0
VERTEX
8
OBJECT__17
10
-11.392000
20
-6.263000
30
22.500000
70
192
0
VERTEX
8
OBJECT__17
10
-10.253000
20
-6.235000
30
22.500000
70
192
0
VERTEX
8
OBJECT__17
10
-11.555000
20
-3.238000
30
22.500000
70
192
0
VERTEX
8
OBJECT__17
10
-9.477000
20
-8.899000
30
22.500000
70
192
0
VERTEX
8
OBJECT__17
10
10.517000
20
7.641000
30
22.500000
70
192
0
VERTEX
8
OBJECT__17
10
9.309000
20
7.573000
30
22.500000
70
192
0
VERTEX
8
OBJECT__17
10
8.287000
20
10.017000
30
22.500000
70
192
0
VERTEX
8
OBJECT__17
10
6.920000
20
9.804000
30
22.500000
70
192
0
VERTEX
8
OBJECT__17
10
5.535000
20
11.763000
30
22.500000
70
192
0
VERTEX
8
OBJECT__17
10
4.019000
20
11.307000
30
22.500000
70
192
0
VERTEX
8
OBJECT__17
10
0.819000
20
11.972000
30
22.500000
70
192
0
VERTEX
8
OBJECT__17
10
2.436000
20
12.770000
30
22.500000
70
192
0
VERTEX
8
OBJECT__17
10
-6.966000
20
10.976000
30
22.500000
70
192
0
VERTEX
8
OBJECT__17
10
-5.521000
20
10.655000
30
22.500000
70
192
0
VERTEX
8
OBJECT__17
10
-9.477000
20
8.899000
30
22.500000
70
192
0
VERTEX
8
OBJECT__17
10
-8.191000
20
8.770000
30
22.500000
70
192
0
VERTEX
8
OBJECT__17
10
-11.392000
20
6.263000
30
22.500000
70
192
0
VERTEX
8
OBJECT__17
10
-10.253000
20
6.235000
30
22.500000
70
192
0
VERTEX
8
OBJECT__17
10
2.436000
20
-12.770000
30
22.500000
70
192
0
VERTEX
8
OBJECT__17
10
5.535000
20
-11.763000
30
22.500000
70
192
0
VERTEX
8
OBJECT__17
10
8.287000
20
-10.017000
30
22.500000
70
192
0
VERTEX
8
OBJECT__17
10
6.920000
20
-9.804000
30
22.500000
70
192
0
VERTEX
8
OBJECT__17
10
10.517000
20
-7.641000
30
22.500000
70
192
0
VERTEX
8
OBJECT__17
10
9.309000
20
-7.573000
30
22.500000
70
192
0
VERTEX
8
OBJECT__17
10
-12.592000
20
3.233000
30
22.500000
70
192
0
VERTEX
8
OBJECT__17
10
-11.555000
20
3.238000
30
22.500000
70
192
0
VERTEX
8
OBJECT__17
10
-12.592000
20
-3.233000
30
22.500000
70
192
0
VERTEX
8
OBJECT__17
10
-12.000000
20
0.000000
30
22.500000
70
192
0
VERTEX
8
OBJECT__17
10
4.019000
20
-11.307000
30
22.500000
70
192
0
VERTEX
8
OBJECT__17
10
-13.000000
20
0.000000
30
22.500000
70
192
0
VERTEX
8
OBJECT__17
10
12.087000
20
-4.786000
30
22.500000
70
192
0
VERTEX
8
OBJECT__17
10
11.007000
20
-4.781000
30
22.500000
70
192
0
VERTEX
8
OBJECT__17
10
0
20
0
30
0
70
128
71
1
72
2
73
3
0
VERTEX
8
OBJECT__17
10
0
20
0
30
0
70
128
71
4
72
5
73
2
0
VERTEX
8
OBJECT__17
10
0
20
0
30
0
70
128
71
6
72
7
73
5
0
VERTEX
8
OBJECT__17
10
0
20
0
30
0
70
128
71
8
72
9
73
10
0
VERTEX
8
OBJECT__17
10
0
20
0
30
0
70
128
71
11
72
12
73
13
0
VERTEX
8
OBJECT__17
10
0
20
0
30
0
70
128
71
14
72
15
73
16
0
VERTEX
8
OBJECT__17
10
0
20
0
30
0
70
128
71
17
72
18
73
19
0
VERTEX
8
OBJECT__17
10
0
20
0
30
0
70
128
71
20
72
3
73
18
0
VERTEX
8
OBJECT__17
10
0
20
0
30
0
70
128
71
2
72
1
73
4
0
VERTEX
8
OBJECT__17
10
0
20
0
30
0
70
128
71
5
72
4
73
6
0
VERTEX
8
OBJECT__17
10
0
20
0
30
0
70
128
71
13
72
10
73
11
0
VERTEX
8
OBJECT__17
10
0
20
0
30
0
70
128
71
21
72
22
73
12
0
VERTEX
8
OBJECT__17
10
0
20
0
30
0
70
128
71
23
72
24
73
22
0
VERTEX
8
OBJECT__17
10
0
20
0
30
0
70
128
71
25
72
26
73
24
0
VERTEX
8
OBJECT__17
10
0
20
0
30
0
70
128
71
27
72
28
73
14
0
VERTEX
8
OBJECT__17
10
0
20
0
30
0
70
128
71
15
72
29
73
30
0
VERTEX
8
OBJECT__17
10
0
20
0
30
0
70
128
71
29
72
31
73
32
0
VERTEX
8
OBJECT__17
10
0
20
0
30
0
70
128
71
31
72
33
73
34
0
VERTEX
8
OBJECT__17
10
0
20
0
30
0
70
128
71
18
72
17
73
20
0
VERTEX
8
OBJECT__17
10
0
20
0
30
0
70
128
71
6
72
35
73
7
0
VERTEX
8
OBJECT__17
10
0
20
0
30
0
70
128
71
36
72
37
73
38
0
VERTEX
8
OBJECT__17
10
0
20
0
30
0
70
128
71
37
72
39
73
40
0
VERTEX
8
OBJECT__17
10
0
20
0
30
0
70
128
71
12
72
11
73
21
0
VERTEX
8
OBJECT__17
10
0
20
0
30
0
70
128
71
24
72
23
73
25
0
VERTEX
8
OBJECT__17
10
0
20
0
30
0
70
128
71
28
72
27
73
26
0
VERTEX
8
OBJECT__17
10
0
20
0
30
0
70
128
71
30
72
16
73
15
0
VERTEX
8
OBJECT__17
10
0
20
0
30
0
70
128
71
34
72
32
73
31
0
VERTEX
8
OBJECT__17
10
0
20
0
30
0
70
128
71
33
72
41
73
42
0
VERTEX
8
OBJECT__17
10
0
20
0
30
0
70
128
71
43
72
19
73
44
0
VERTEX
8
OBJECT__17
10
0
20
0
30
0
70
128
71
3
72
20
73
1
0
VERTEX
8
OBJECT__17
10
0
20
0
30
0
70
128
71
35
72
36
73
45
0
VERTEX
8
OBJECT__17
10
0
20
0
30
0
70
128
71
40
72
38
73
37
0
VERTEX
8
OBJECT__17
10
0
20
0
30
0
70
128
71
22
72
21
73
23
0
VERTEX
8
OBJECT__17
10
0
20
0
30
0
70
128
71
16
72
27
73
14
0
VERTEX
8
OBJECT__17
10
0
20
0
30
0
70
128
71
42
72
34
73
33
0
VERTEX
8
OBJECT__17
10
0
20
0
30
0
70
128
71
41
72
46
73
44
0
VERTEX
8
OBJECT__17
10
0
20
0
30
0
70
128
71
19
72
43
73
17
0
VERTEX
8
OBJECT__17
10
0
20
0
30
0
70
128
71
38
72
45
73
36
0
VERTEX
8
OBJECT__17
10
0
20
0
30
0
70
128
71
39
72
47
73
48
0
VERTEX
8
OBJECT__17
10
0
20
0
30
0
70
128
71
47
72
9
73
8
0
VERTEX
8
OBJECT__17
10
0
20
0
30
0
70
128
71
26
72
25
73
28
0
VERTEX
8
OBJECT__17
10
0
20
0
30
0
70
128
71
44
72
42
73
41
0
VERTEX
8
OBJECT__17
10
0
20
0
30
0
70
128
71
45
72
7
73
35
0
VERTEX
8
OBJECT__17
10
0
20
0
30
0
70
128
71
8
72
48
73
47
0
VERTEX
8
OBJECT__17
10
0
20
0
30
0
70
128
71
32
72
30
73
29
0
VERTEX
8
OBJECT__17
10
0
20
0
30
0
70
128
71
48
72
40
73
39
0
VERTEX
8
OBJECT__17
10
0
20
0
30
0
70
128
71
44
72
46
73
43
0
VERTEX
8
OBJECT__17
10
0
20
0
30
0
70
128
71
10
72
13
73
8
0
SEQEND
8
OBJECT__17
0
POLYLINE
8
OBJECT__18
66
1
70
64
71
105
72
151
62
253
0
VERTEX
8
OBJECT__18
10
-10.062000
20
2.819000
30
26.132004
70
192
0
VERTEX
8
OBJECT__18
10
-10.449000
20
0.000000
30
26.132004
70
192
0
VERTEX
8
OBJECT__18
10
-9.000000
20
0.000000
30
27.500000
70
192
0
VERTEX
8
OBJECT__18
10
-8.666000
20
2.428000
30
27.500000
70
192
0
VERTEX
8
OBJECT__18
10
-8.038000
20
3.874000
30
27.500000
70
192
0
VERTEX
8
OBJECT__18
10
-8.928000
20
5.429000
30
26.132004
70
192
0
VERTEX
8
OBJECT__18
10
-7.132000
20
7.637000
30
26.132004
70
192
0
VERTEX
8
OBJECT__18
10
-7.690000
20
4.676000
30
27.500000
70
192
0
VERTEX
8
OBJECT__18
10
-4.807000
20
9.278000
30
26.132004
70
192
0
VERTEX
8
OBJECT__18
10
-5.572000
20
6.981000
30
27.500000
70
192
0
VERTEX
8
OBJECT__18
10
-6.143000
20
6.578000
30
27.500000
70
192
0
VERTEX
8
OBJECT__18
10
-4.141000
20
7.991000
30
27.500000
70
192
0
VERTEX
8
OBJECT__18
10
-1.995000
20
8.753000
30
27.500000
70
192
0
VERTEX
8
OBJECT__18
10
-2.126000
20
10.231000
30
26.132004
70
192
0
VERTEX
8
OBJECT__18
10
-1.831000
20
8.812000
30
27.500000
70
192
0
VERTEX
8
OBJECT__18
10
0.614000
20
8.979000
30
27.500000
70
192
0
VERTEX
8
OBJECT__18
10
0.713000
20
10.425000
30
26.132004
70
192
0
VERTEX
8
OBJECT__18
10
1.986000
20
8.694000
30
27.500000
70
192
0
VERTEX
8
OBJECT__18
10
3.499000
20
9.846000
30
26.132004
70
192
0
VERTEX
8
OBJECT__18
10
6.026000
20
8.537000
30
26.132004
70
192
0
VERTEX
8
OBJECT__18
10
3.014000
20
8.480000
30
27.500000
70
192
0
VERTEX
8
OBJECT__18
10
8.106000
20
6.595000
30
26.132004
70
192
0
VERTEX
8
OBJECT__18
10
5.573000
20
6.995000
30
27.500000
70
192
0
VERTEX
8
OBJECT__18
10
5.190000
20
7.353000
30
27.500000
70
192
0
VERTEX
8
OBJECT__18
10
6.981000
20
5.680000
30
27.500000
70
192
0
VERTEX
8
OBJECT__18
10
8.074000
20
3.884000
30
27.500000
70
192
0
VERTEX
8
OBJECT__18
10
9.584000
20
4.163000
30
26.132004
70
192
0
VERTEX
8
OBJECT__18
10
8.255000
20
3.586000
30
27.500000
70
192
0
VERTEX
8
OBJECT__18
10
8.916000
20
1.225000
30
27.500000
70
192
0
VERTEX
8
OBJECT__18
10
10.352000
20
-1.423000
30
26.132004
70
192
0
VERTEX
8
OBJECT__18
10
10.352000
20
1.423000
30
26.132004
70
192
0
VERTEX
8
OBJECT__18
10
8.916000
20
0.000000
30
27.500000
70
192
0
VERTEX
8
OBJECT__18
10
9.584000
20
-4.163000
30
26.132004
70
192
0
VERTEX
8
OBJECT__18
10
8.916000
20
-1.225000
30
27.500000
70
192
0
VERTEX
8
OBJECT__18
10
8.106000
20
-6.595000
30
26.132004
70
192
0
VERTEX
8
OBJECT__18
10
8.074000
20
-3.884000
30
27.500000
70
192
0
VERTEX
8
OBJECT__18
10
8.255000
20
-3.586000
30
27.500000
70
192
0
VERTEX
8
OBJECT__18
10
6.981000
20
-5.680000
30
27.500000
70
192
0
VERTEX
8
OBJECT__18
10
5.573000
20
-6.995000
30
27.500000
70
192
0
VERTEX
8
OBJECT__18
10
6.026000
20
-8.537000
30
26.132004
70
192
0
VERTEX
8
OBJECT__18
10
3.499000
20
-9.846000
30
26.132004
70
192
0
VERTEX
8
OBJECT__18
10
5.190000
20
-7.353000
30
27.500000
70
192
0
VERTEX
8
OBJECT__18
10
0.713000
20
-10.425000
30
26.132004
70
192
0
VERTEX
8
OBJECT__18
10
1.986000
20
-8.694000
30
27.500000
70
192
0
VERTEX
8
OBJECT__18
10
3.014000
20
-8.480000
30
27.500000
70
192
0
VERTEX
8
OBJECT__18
10
-2.126000
20
-10.231000
30
26.132004
70
192
0
VERTEX
8
OBJECT__18
10
0.614000
20
-8.979000
30
27.500000
70
192
0
VERTEX
8
OBJECT__18
10
-4.807000
20
-9.278000
30
26.132004
70
192
0
VERTEX
8
OBJECT__18
10
-1.995000
20
-8.753000
30
27.500000
70
192
0
VERTEX
8
OBJECT__18
10
-1.831000
20
-8.812000
30
27.500000
70
192
0
VERTEX
8
OBJECT__18
10
-4.141000
20
-7.991000
30
27.500000
70
192
0
VERTEX
8
OBJECT__18
10
-5.572000
20
-6.981000
30
27.500000
70
192
0
VERTEX
8
OBJECT__18
10
-7.132000
20
-7.637000
30
26.132004
70
192
0
VERTEX
8
OBJECT__18
10
-6.143000
20
-6.578000
30
27.500000
70
192
0
VERTEX
8
OBJECT__18
10
-7.690000
20
-4.676000
30
27.500000
70
192
0
VERTEX
8
OBJECT__18
10
-10.062000
20
-2.819000
30
26.132004
70
192
0
VERTEX
8
OBJECT__18
10
-8.928000
20
-5.429000
30
26.132004
70
192
0
VERTEX
8
OBJECT__18
10
-8.038000
20
-3.874000
30
27.500000
70
192
0
VERTEX
8
OBJECT__18
10
-8.666000
20
-2.428000
30
27.500000
70
192
0
VERTEX
8
OBJECT__18
10
-11.049000
20
3.096000
30
24.422997
70
192
0
VERTEX
8
OBJECT__18
10
-9.804000
20
5.962000
30
24.422997
70
192
0
VERTEX
8
OBJECT__18
10
-7.832000
20
8.386000
30
24.422997
70
192
0
VERTEX
8
OBJECT__18
10
-5.279000
20
10.188000
30
24.422997
70
192
0
VERTEX
8
OBJECT__18
10
-2.335000
20
11.235000
30
24.422997
70
192
0
VERTEX
8
OBJECT__18
10
0.783000
20
11.448000
30
24.422997
70
192
0
VERTEX
8
OBJECT__18
10
3.843000
20
10.812000
30
24.422997
70
192
0
VERTEX
8
OBJECT__18
10
6.617000
20
9.375000
30
24.422997
70
192
0
VERTEX
8
OBJECT__18
10
8.901000
20
7.242000
30
24.422997
70
192
0
VERTEX
8
OBJECT__18
10
10.525000
20
4.572000
30
24.422997
70
192
0
VERTEX
8
OBJECT__18
10
11.368000
20
1.563000
30
24.422997
70
192
0
VERTEX
8
OBJECT__18
10
11.368000
20
-1.563000
30
24.422997
70
192
0
VERTEX
8
OBJECT__18
10
10.525000
20
-4.572000
30
24.422997
70
192
0
VERTEX
8
OBJECT__18
10
8.901000
20
-7.242000
30
24.422997
70
192
0
VERTEX
8
OBJECT__18
10
6.617000
20
-9.375000
30
24.422997
70
192
0
VERTEX
8
OBJECT__18
10
3.843000
20
-10.812000
30
24.422997
70
192
0
VERTEX
8
OBJECT__18
10
0.783000
20
-11.448000
30
24.422997
70
192
0
VERTEX
8
OBJECT__18
10
-2.335000
20
-11.235000
30
24.422997
70
192
0
VERTEX
8
OBJECT__18
10
-5.279000
20
-10.188000
30
24.422997
70
192
0
VERTEX
8
OBJECT__18
10
-7.832000
20
-8.386000
30
24.422997
70
192
0
VERTEX
8
OBJECT__18
10
-9.804000
20
-5.962000
30
24.422997
70
192
0
VERTEX
8
OBJECT__18
10
-11.049000
20
-3.096000
30
24.422997
70
192
0
VERTEX
8
OBJECT__18
10
-11.475000
20
0.000000
30
24.422997
70
192
0
VERTEX
8
OBJECT__18
10
-11.555000
20
3.238000
30
22.500000
70
192
0
VERTEX
8
OBJECT__18
10
-12.000000
20
0.000000
30
22.500000
70
192
0
VERTEX
8
OBJECT__18
10
-8.191000
20
8.770000
30
22.500000
70
192
0
VERTEX
8
OBJECT__18
10
-10.253000
20
6.235000
30
22.500000
70
192
0
VERTEX
8
OBJECT__18
10
-5.521000
20
10.655000
30
22.500000
70
192
0
VERTEX
8
OBJECT__18
10
-2.441000
20
11.749000
30
22.500000
70
192
0
VERTEX
8
OBJECT__18
10
0.819000
20
11.972000
30
22.500000
70
192
0
VERTEX
8
OBJECT__18
10
4.019000
20
11.307000
30
22.500000
70
192
0
VERTEX
8
OBJECT__18
10
9.309000
20
7.573000
30
22.500000
70
192
0
VERTEX
8
OBJECT__18
10
6.920000
20
9.804000
30
22.500000
70
192
0
VERTEX
8
OBJECT__18
10
11.007000
20
4.781000
30
22.500000
70
192
0
VERTEX
8
OBJECT__18
10
11.888000
20
1.634000
30
22.500000
70
192
0
VERTEX
8
OBJECT__18
10
11.888000
20
-1.634000
30
22.500000
70
192
0
VERTEX
8
OBJECT__18
10
11.007000
20
-4.781000
30
22.500000
70
192
0
VERTEX
8
OBJECT__18
10
6.920000
20
-9.804000
30
22.500000
70
192
0
VERTEX
8
OBJECT__18
10
9.309000
20
-7.573000
30
22.500000
70
192
0
VERTEX
8
OBJECT__18
10
4.019000
20
-11.307000
30
22.500000
70
192
0
VERTEX
8
OBJECT__18
10
-2.441000
20
-11.749000
30
22.500000
70
192
0
VERTEX
8
OBJECT__18
10
0.819000
20
-11.972000
30
22.500000
70
192
0
VERTEX
8
OBJECT__18
10
-5.521000
20
-10.655000
30
22.500000
70
192
0
VERTEX
8
OBJECT__18
10
-8.191000
20
-8.770000
30
22.500000
70
192
0
VERTEX
8
OBJECT__18
10
-10.253000
20
-6.235000
30
22.500000
70
192
0
VERTEX
8
OBJECT__18
10
-11.555000
20
-3.238000
30
22.500000
70
192
0
VERTEX
8
OBJECT__18
10
0
20
0
30
0
70
128
71
1
72
2
73
3
0
VERTEX
8
OBJECT__18
10
0
20
0
30
0
70
128
71
1
72
4
73
5
0
VERTEX
8
OBJECT__18
10
0
20
0
30
0
70
128
71
5
72
6
73
1
0
VERTEX
8
OBJECT__18
10
0
20
0
30
0
70
128
71
7
72
6
73
8
0
VERTEX
8
OBJECT__18
10
0
20
0
30
0
70
128
71
9
72
7
73
10
0
VERTEX
8
OBJECT__18
10
0
20
0
30
0
70
128
71
7
72
11
73
10
0
VERTEX
8
OBJECT__18
10
0
20
0
30
0
70
128
71
9
72
12
73
13
0
VERTEX
8
OBJECT__18
10
0
20
0
30
0
70
128
71
13
72
14
73
9
0
VERTEX
8
OBJECT__18
10
0
20
0
30
0
70
128
71
14
72
15
73
16
0
VERTEX
8
OBJECT__18
10
0
20
0
30
0
70
128
71
17
72
16
73
18
0
VERTEX
8
OBJECT__18
10
0
20
0
30
0
70
128
71
18
72
19
73
17
0
VERTEX
8
OBJECT__18
10
0
20
0
30
0
70
128
71
20
72
19
73
21
0
VERTEX
8
OBJECT__18
10
0
20
0
30
0
70
128
71
22
72
20
73
23
0
VERTEX
8
OBJECT__18
10
0
20
0
30
0
70
128
71
20
72
24
73
23
0
VERTEX
8
OBJECT__18
10
0
20
0
30
0
70
128
71
22
72
25
73
26
0
VERTEX
8
OBJECT__18
10
0
20
0
30
0
70
128
71
26
72
27
73
22
0
VERTEX
8
OBJECT__18
10
0
20
0
30
0
70
128
71
27
72
28
73
29
0
VERTEX
8
OBJECT__18
10
0
20
0
30
0
70
128
71
30
72
31
73
32
0
VERTEX
8
OBJECT__18
10
0
20
0
30
0
70
128
71
31
72
29
73
32
0
VERTEX
8
OBJECT__18
10
0
20
0
30
0
70
128
71
33
72
30
73
34
0
VERTEX
8
OBJECT__18
10
0
20
0
30
0
70
128
71
35
72
33
73
36
0
VERTEX
8
OBJECT__18
10
0
20
0
30
0
70
128
71
33
72
37
73
36
0
VERTEX
8
OBJECT__18
10
0
20
0
30
0
70
128
71
35
72
38
73
39
0
VERTEX
8
OBJECT__18
10
0
20
0
30
0
70
128
71
39
72
40
73
35
0
VERTEX
8
OBJECT__18
10
0
20
0
30
0
70
128
71
41
72
40
73
42
0
VERTEX
8
OBJECT__18
10
0
20
0
30
0
70
128
71
43
72
41
73
44
0
VERTEX
8
OBJECT__18
10
0
20
0
30
0
70
128
71
41
72
45
73
44
0
VERTEX
8
OBJECT__18
10
0
20
0
30
0
70
128
71
46
72
43
73
47
0
VERTEX
8
OBJECT__18
10
0
20
0
30
0
70
128
71
48
72
46
73
49
0
VERTEX
8
OBJECT__18
10
0
20
0
30
0
70
128
71
46
72
50
73
49
0
VERTEX
8
OBJECT__18
10
0
20
0
30
0
70
128
71
48
72
51
73
52
0
VERTEX
8
OBJECT__18
10
0
20
0
30
0
70
128
71
52
72
53
73
48
0
VERTEX
8
OBJECT__18
10
0
20
0
30
0
70
128
71
53
72
54
73
55
0
VERTEX
8
OBJECT__18
10
0
20
0
30
0
70
128
71
56
72
57
73
58
0
VERTEX
8
OBJECT__18
10
0
20
0
30
0
70
128
71
57
72
55
73
58
0
VERTEX
8
OBJECT__18
10
0
20
0
30
0
70
128
71
56
72
59
73
3
0
VERTEX
8
OBJECT__18
10
0
20
0
30
0
70
128
71
2
72
1
73
60
0
VERTEX
8
OBJECT__18
10
0
20
0
30
0
70
128
71
1
72
6
73
61
0
VERTEX
8
OBJECT__18
10
0
20
0
30
0
70
128
71
6
72
7
73
62
0
VERTEX
8
OBJECT__18
10
0
20
0
30
0
70
128
71
7
72
9
73
63
0
VERTEX
8
OBJECT__18
10
0
20
0
30
0
70
128
71
9
72
14
73
64
0
VERTEX
8
OBJECT__18
10
0
20
0
30
0
70
128
71
14
72
17
73
65
0
VERTEX
8
OBJECT__18
10
0
20
0
30
0
70
128
71
17
72
19
73
66
0
VERTEX
8
OBJECT__18
10
0
20
0
30
0
70
128
71
19
72
20
73
67
0
VERTEX
8
OBJECT__18
10
0
20
0
30
0
70
128
71
20
72
22
73
68
0
VERTEX
8
OBJECT__18
10
0
20
0
30
0
70
128
71
22
72
27
73
69
0
VERTEX
8
OBJECT__18
10
0
20
0
30
0
70
128
71
27
72
31
73
70
0
VERTEX
8
OBJECT__18
10
0
20
0
30
0
70
128
71
31
72
30
73
71
0
VERTEX
8
OBJECT__18
10
0
20
0
30
0
70
128
71
30
72
33
73
72
0
VERTEX
8
OBJECT__18
10
0
20
0
30
0
70
128
71
33
72
35
73
73
0
VERTEX
8
OBJECT__18
10
0
20
0
30
0
70
128
71
35
72
40
73
74
0
VERTEX
8
OBJECT__18
10
0
20
0
30
0
70
128
71
40
72
41
73
75
0
VERTEX
8
OBJECT__18
10
0
20
0
30
0
70
128
71
41
72
43
73
76
0
VERTEX
8
OBJECT__18
10
0
20
0
30
0
70
128
71
43
72
46
73
77
0
VERTEX
8
OBJECT__18
10
0
20
0
30
0
70
128
71
46
72
48
73
78
0
VERTEX
8
OBJECT__18
10
0
20
0
30
0
70
128
71
48
72
53
73
79
0
VERTEX
8
OBJECT__18
10
0
20
0
30
0
70
128
71
53
72
57
73
80
0
VERTEX
8
OBJECT__18
10
0
20
0
30
0
70
128
71
57
72
56
73
81
0
VERTEX
8
OBJECT__18
10
0
20
0
30
0
70
128
71
56
72
2
73
82
0
VERTEX
8
OBJECT__18
10
0
20
0
30
0
70
128
71
83
72
84
73
82
0
VERTEX
8
OBJECT__18
10
0
20
0
30
0
70
128
71
83
72
60
73
61
0
VERTEX
8
OBJECT__18
10
0
20
0
30
0
70
128
71
85
72
86
73
61
0
VERTEX
8
OBJECT__18
10
0
20
0
30
0
70
128
71
87
72
85
73
62
0
VERTEX
8
OBJECT__18
10
0
20
0
30
0
70
128
71
88
72
87
73
63
0
VERTEX
8
OBJECT__18
10
0
20
0
30
0
70
128
71
89
72
88
73
64
0
VERTEX
8
OBJECT__18
10
0
20
0
30
0
70
128
71
90
72
89
73
65
0
VERTEX
8
OBJECT__18
10
0
20
0
30
0
70
128
71
90
72
66
73
67
0
VERTEX
8
OBJECT__18
10
0
20
0
30
0
70
128
71
91
72
92
73
67
0
VERTEX
8
OBJECT__18
10
0
20
0
30
0
70
128
71
93
72
91
73
68
0
VERTEX
8
OBJECT__18
10
0
20
0
30
0
70
128
71
94
72
93
73
69
0
VERTEX
8
OBJECT__18
10
0
20
0
30
0
70
128
71
95
72
94
73
70
0
VERTEX
8
OBJECT__18
10
0
20
0
30
0
70
128
71
96
72
95
73
71
0
VERTEX
8
OBJECT__18
10
0
20
0
30
0
70
128
71
96
72
72
73
73
0
VERTEX
8
OBJECT__18
10
0
20
0
30
0
70
128
71
97
72
98
73
73
0
VERTEX
8
OBJECT__18
10
0
20
0
30
0
70
128
71
99
72
97
73
74
0
VERTEX
8
OBJECT__18
10
0
20
0
30
0
70
128
71
99
72
75
73
76
0
VERTEX
8
OBJECT__18
10
0
20
0
30
0
70
128
71
100
72
101
73
76
0
VERTEX
8
OBJECT__18
10
0
20
0
30
0
70
128
71
102
72
100
73
77
0
VERTEX
8
OBJECT__18
10
0
20
0
30
0
70
128
71
103
72
102
73
78
0
VERTEX
8
OBJECT__18
10
0
20
0
30
0
70
128
71
104
72
103
73
79
0
VERTEX
8
OBJECT__18
10
0
20
0
30
0
70
128
71
105
72
104
73
80
0
VERTEX
8
OBJECT__18
10
0
20
0
30
0
70
128
71
105
72
81
73
82
0
VERTEX
8
OBJECT__18
10
0
20
0
30
0
70
128
71
82
72
84
73
105
0
VERTEX
8
OBJECT__18
10
0
20
0
30
0
70
128
71
80
72
81
73
105
0
VERTEX
8
OBJECT__18
10
0
20
0
30
0
70
128
71
79
72
80
73
104
0
VERTEX
8
OBJECT__18
10
0
20
0
30
0
70
128
71
78
72
79
73
103
0
VERTEX
8
OBJECT__18
10
0
20
0
30
0
70
128
71
77
72
78
73
102
0
VERTEX
8
OBJECT__18
10
0
20
0
30
0
70
128
71
76
72
77
73
100
0
VERTEX
8
OBJECT__18
10
0
20
0
30
0
70
128
71
76
72
101
73
99
0
VERTEX
8
OBJECT__18
10
0
20
0
30
0
70
128
71
74
72
75
73
99
0
VERTEX
8
OBJECT__18
10
0
20
0
30
0
70
128
71
73
72
74
73
97
0
VERTEX
8
OBJECT__18
10
0
20
0
30
0
70
128
71
73
72
98
73
96
0
VERTEX
8
OBJECT__18
10
0
20
0
30
0
70
128
71
71
72
72
73
96
0
VERTEX
8
OBJECT__18
10
0
20
0
30
0
70
128
71
70
72
71
73
95
0
VERTEX
8
OBJECT__18
10
0
20
0
30
0
70
128
71
69
72
70
73
94
0
VERTEX
8
OBJECT__18
10
0
20
0
30
0
70
128
71
68
72
69
73
93
0
VERTEX
8
OBJECT__18
10
0
20
0
30
0
70
128
71
67
72
68
73
91
0
VERTEX
8
OBJECT__18
10
0
20
0
30
0
70
128
71
67
72
92
73
90
0
VERTEX
8
OBJECT__18
10
0
20
0
30
0
70
128
71
65
72
66
73
90
0
VERTEX
8
OBJECT__18
10
0
20
0
30
0
70
128
71
64
72
65
73
89
0
VERTEX
8
OBJECT__18
10
0
20
0
30
0
70
128
71
63
72
64
73
88
0
VERTEX
8
OBJECT__18
10
0
20
0
30
0
70
128
71
62
72
63
73
87
0
VERTEX
8
OBJECT__18
10
0
20
0
30
0
70
128
71
61
72
62
73
85
0
VERTEX
8
OBJECT__18
10
0
20
0
30
0
70
128
71
61
72
86
73
83
0
VERTEX
8
OBJECT__18
10
0
20
0
30
0
70
128
71
82
72
60
73
83
0
VERTEX
8
OBJECT__18
10
0
20
0
30
0
70
128
71
82
72
81
73
56
0
VERTEX
8
OBJECT__18
10
0
20
0
30
0
70
128
71
81
72
80
73
57
0
VERTEX
8
OBJECT__18
10
0
20
0
30
0
70
128
71
80
72
79
73
53
0
VERTEX
8
OBJECT__18
10
0
20
0
30
0
70
128
71
79
72
78
73
48
0
VERTEX
8
OBJECT__18
10
0
20
0
30
0
70
128
71
78
72
77
73
46
0
VERTEX
8
OBJECT__18
10
0
20
0
30
0
70
128
71
77
72
76
73
43
0
VERTEX
8
OBJECT__18
10
0
20
0
30
0
70
128
71
76
72
75
73
41
0
VERTEX
8
OBJECT__18
10
0
20
0
30
0
70
128
71
75
72
74
73
40
0
VERTEX
8
OBJECT__18
10
0
20
0
30
0
70
128
71
74
72
73
73
35
0
VERTEX
8
OBJECT__18
10
0
20
0
30
0
70
128
71
73
72
72
73
33
0
VERTEX
8
OBJECT__18
10
0
20
0
30
0
70
128
71
72
72
71
73
30
0
VERTEX
8
OBJECT__18
10
0
20
0
30
0
70
128
71
71
72
70
73
31
0
VERTEX
8
OBJECT__18
10
0
20
0
30
0
70
128
71
70
72
69
73
27
0
VERTEX
8
OBJECT__18
10
0
20
0
30
0
70
128
71
69
72
68
73
22
0
VERTEX
8
OBJECT__18
10
0
20
0
30
0
70
128
71
68
72
67
73
20
0
VERTEX
8
OBJECT__18
10
0
20
0
30
0
70
128
71
67
72
66
73
19
0
VERTEX
8
OBJECT__18
10
0
20
0
30
0
70
128
71
66
72
65
73
17
0
VERTEX
8
OBJECT__18
10
0
20
0
30
0
70
128
71
65
72
64
73
14
0
VERTEX
8
OBJECT__18
10
0
20
0
30
0
70
128
71
64
72
63
73
9
0
VERTEX
8
OBJECT__18
10
0
20
0
30
0
70
128
71
63
72
62
73
7
0
VERTEX
8
OBJECT__18
10
0
20
0
30
0
70
128
71
62
72
61
73
6
0
VERTEX
8
OBJECT__18
10
0
20
0
30
0
70
128
71
61
72
60
73
1
0
VERTEX
8
OBJECT__18
10
0
20
0
30
0
70
128
71
60
72
82
73
2
0
VERTEX
8
OBJECT__18
10
0
20
0
30
0
70
128
71
3
72
2
73
56
0
VERTEX
8
OBJECT__18
10
0
20
0
30
0
70
128
71
58
72
59
73
56
0
VERTEX
8
OBJECT__18
10
0
20
0
30
0
70
128
71
55
72
57
73
53
0
VERTEX
8
OBJECT__18
10
0
20
0
30
0
70
128
71
52
72
54
73
53
0
VERTEX
8
OBJECT__18
10
0
20
0
30
0
70
128
71
49
72
51
73
48
0
VERTEX
8
OBJECT__18
10
0
20
0
30
0
70
128
71
47
72
50
73
46
0
VERTEX
8
OBJECT__18
10
0
20
0
30
0
70
128
71
44
72
47
73
43
0
VERTEX
8
OBJECT__18
10
0
20
0
30
0
70
128
71
42
72
45
73
41
0
VERTEX
8
OBJECT__18
10
0
20
0
30
0
70
128
71
39
72
42
73
40
0
VERTEX
8
OBJECT__18
10
0
20
0
30
0
70
128
71
36
72
38
73
35
0
VERTEX
8
OBJECT__18
10
0
20
0
30
0
70
128
71
34
72
37
73
33
0
VERTEX
8
OBJECT__18
10
0
20
0
30
0
70
128
71
32
72
34
73
30
0
VERTEX
8
OBJECT__18
10
0
20
0
30
0
70
128
71
29
72
31
73
27
0
VERTEX
8
OBJECT__18
10
0
20
0
30
0
70
128
71
26
72
28
73
27
0
VERTEX
8
OBJECT__18
10
0
20
0
30
0
70
128
71
23
72
25
73
22
0
VERTEX
8
OBJECT__18
10
0
20
0
30
0
70
128
71
21
72
24
73
20
0
VERTEX
8
OBJECT__18
10
0
20
0
30
0
70
128
71
18
72
21
73
19
0
VERTEX
8
OBJECT__18
10
0
20
0
30
0
70
128
71
16
72
17
73
14
0
VERTEX
8
OBJECT__18
10
0
20
0
30
0
70
128
71
13
72
15
73
14
0
VERTEX
8
OBJECT__18
10
0
20
0
30
0
70
128
71
10
72
12
73
9
0
VERTEX
8
OBJECT__18
10
0
20
0
30
0
70
128
71
8
72
11
73
7
0
VERTEX
8
OBJECT__18
10
0
20
0
30
0
70
128
71
5
72
8
73
6
0
VERTEX
8
OBJECT__18
10
0
20
0
30
0
70
128
71
3
72
4
73
1
0
SEQEND
8
OBJECT__18
0
POLYLINE
8
OBJECT__19
66
1
70
64
71
50
72
50
62
253
0
VERTEX
8
OBJECT__19
10
-9.000000
20
0.000000
30
29.500000
70
192
0
VERTEX
8
OBJECT__19
10
-8.109000
20
3.905000
30
29.500000
70
192
0
VERTEX
8
OBJECT__19
10
-8.666000
20
2.428000
30
27.500000
70
192
0
VERTEX
8
OBJECT__19
10
-8.038000
20
3.874000
30
27.500000
70
192
0
VERTEX
8
OBJECT__19
10
-5.611000
20
7.036000
30
29.500000
70
192
0
VERTEX
8
OBJECT__19
10
-6.143000
20
6.578000
30
27.500000
70
192
0
VERTEX
8
OBJECT__19
10
-7.690000
20
4.676000
30
27.500000
70
192
0
VERTEX
8
OBJECT__19
10
-5.572000
20
6.981000
30
27.500000
70
192
0
VERTEX
8
OBJECT__19
10
-2.003000
20
8.774000
30
29.500000
70
192
0
VERTEX
8
OBJECT__19
10
-1.995000
20
8.753000
30
27.500000
70
192
0
VERTEX
8
OBJECT__19
10
-4.141000
20
7.991000
30
27.500000
70
192
0
VERTEX
8
OBJECT__19
10
2.003000
20
8.774000
30
29.500000
70
192
0
VERTEX
8
OBJECT__19
10
0.614000
20
8.979000
30
27.500000
70
192
0
VERTEX
8
OBJECT__19
10
-1.831000
20
8.812000
30
27.500000
70
192
0
VERTEX
8
OBJECT__19
10
1.986000
20
8.694000
30
27.500000
70
192
0
VERTEX
8
OBJECT__19
10
5.611000
20
7.036000
30
29.500000
70
192
0
VERTEX
8
OBJECT__19
10
5.190000
20
7.353000
30
27.500000
70
192
0
VERTEX
8
OBJECT__19
10
3.014000
20
8.480000
30
27.500000
70
192
0
VERTEX
8
OBJECT__19
10
5.573000
20
6.995000
30
27.500000
70
192
0
VERTEX
8
OBJECT__19
10
8.109000
20
3.905000
30
29.500000
70
192
0
VERTEX
8
OBJECT__19
10
8.074000
20
3.884000
30
27.500000
70
192
0
VERTEX
8
OBJECT__19
10
6.981000
20
5.680000
30
27.500000
70
192
0
VERTEX
8
OBJECT__19
10
9.000000
20
0.000000
30
29.500000
70
192
0
VERTEX
8
OBJECT__19
10
8.916000
20
1.225000
30
27.500000
70
192
0
VERTEX
8
OBJECT__19
10
8.255000
20
3.586000
30
27.500000
70
192
0
VERTEX
8
OBJECT__19
10
8.916000
20
0.000000
30
27.500000
70
192
0
VERTEX
8
OBJECT__19
10
8.109000
20
-3.905000
30
29.500000
70
192
0
VERTEX
8
OBJECT__19
10
8.255000
20
-3.586000
30
27.500000
70
192
0
VERTEX
8
OBJECT__19
10
8.916000
20
-1.225000
30
27.500000
70
192
0
VERTEX
8
OBJECT__19
10
8.074000
20
-3.884000
30
27.500000
70
192
0
VERTEX
8
OBJECT__19
10
5.611000
20
-7.036000
30
29.500000
70
192
0
VERTEX
8
OBJECT__19
10
6.981000
20
-5.680000
30
27.500000
70
192
0
VERTEX
8
OBJECT__19
10
5.573000
20
-6.995000
30
27.500000
70
192
0
VERTEX
8
OBJECT__19
10
2.003000
20
-8.774000
30
29.500000
70
192
0
VERTEX
8
OBJECT__19
10
3.014000
20
-8.480000
30
27.500000
70
192
0
VERTEX
8
OBJECT__19
10
5.190000
20
-7.353000
30
27.500000
70
192
0
VERTEX
8
OBJECT__19
10
1.986000
20
-8.694000
30
27.500000
70
192
0
VERTEX
8
OBJECT__19
10
-2.003000
20
-8.774000
30
29.500000
70
192
0
VERTEX
8
OBJECT__19
10
-1.831000
20
-8.812000
30
27.500000
70
192
0
VERTEX
8
OBJECT__19
10
0.614000
20
-8.979000
30
27.500000
70
192
0
VERTEX
8
OBJECT__19
10
-1.995000
20
-8.753000
30
27.500000
70
192
0
VERTEX
8
OBJECT__19
10
-5.611000
20
-7.036000
30
29.500000
70
192
0
VERTEX
8
OBJECT__19
10
-4.141000
20
-7.991000
30
27.500000
70
192
0
VERTEX
8
OBJECT__19
10
-5.572000
20
-6.981000
30
27.500000
70
192
0
VERTEX
8
OBJECT__19
10
-8.109000
20
-3.905000
30
29.500000
70
192
0
VERTEX
8
OBJECT__19
10
-7.690000
20
-4.676000
30
27.500000
70
192
0
VERTEX
8
OBJECT__19
10
-6.143000
20
-6.578000
30
27.500000
70
192
0
VERTEX
8
OBJECT__19
10
-8.038000
20
-3.874000
30
27.500000
70
192
0
VERTEX
8
OBJECT__19
10
-9.000000
20
0.000000
30
27.500000
70
192
0
VERTEX
8
OBJECT__19
10
-8.666000
20
-2.428000
30
27.500000
70
192
0
VERTEX
8
OBJECT__19
10
0
20
0
30
0
70
128
71
1
72
2
73
3
0
VERTEX
8
OBJECT__19
10
0
20
0
30
0
70
128
71
2
72
4
73
3
0
VERTEX
8
OBJECT__19
10
0
20
0
30
0
70
128
71
5
72
6
73
7
0
VERTEX
8
OBJECT__19
10
0
20
0
30
0
70
128
71
7
72
2
73
5
0
VERTEX
8
OBJECT__19
10
0
20
0
30
0
70
128
71
5
72
8
73
6
0
VERTEX
8
OBJECT__19
10
0
20
0
30
0
70
128
71
9
72
10
73
11
0
VERTEX
8
OBJECT__19
10
0
20
0
30
0
70
128
71
11
72
5
73
9
0
VERTEX
8
OBJECT__19
10
0
20
0
30
0
70
128
71
9
72
12
73
13
0
VERTEX
8
OBJECT__19
10
0
20
0
30
0
70
128
71
13
72
14
73
9
0
VERTEX
8
OBJECT__19
10
0
20
0
30
0
70
128
71
12
72
15
73
13
0
VERTEX
8
OBJECT__19
10
0
20
0
30
0
70
128
71
16
72
17
73
18
0
VERTEX
8
OBJECT__19
10
0
20
0
30
0
70
128
71
18
72
12
73
16
0
VERTEX
8
OBJECT__19
10
0
20
0
30
0
70
128
71
16
72
19
73
17
0
VERTEX
8
OBJECT__19
10
0
20
0
30
0
70
128
71
20
72
21
73
22
0
VERTEX
8
OBJECT__19
10
0
20
0
30
0
70
128
71
22
72
16
73
20
0
VERTEX
8
OBJECT__19
10
0
20
0
30
0
70
128
71
20
72
23
73
24
0
VERTEX
8
OBJECT__19
10
0
20
0
30
0
70
128
71
24
72
25
73
20
0
VERTEX
8
OBJECT__19
10
0
20
0
30
0
70
128
71
23
72
26
73
24
0
VERTEX
8
OBJECT__19
10
0
20
0
30
0
70
128
71
27
72
28
73
29
0
VERTEX
8
OBJECT__19
10
0
20
0
30
0
70
128
71
29
72
23
73
27
0
VERTEX
8
OBJECT__19
10
0
20
0
30
0
70
128
71
27
72
30
73
28
0
VERTEX
8
OBJECT__19
10
0
20
0
30
0
70
128
71
27
72
31
73
32
0
VERTEX
8
OBJECT__19
10
0
20
0
30
0
70
128
71
31
72
33
73
32
0
VERTEX
8
OBJECT__19
10
0
20
0
30
0
70
128
71
31
72
34
73
35
0
VERTEX
8
OBJECT__19
10
0
20
0
30
0
70
128
71
35
72
36
73
31
0
VERTEX
8
OBJECT__19
10
0
20
0
30
0
70
128
71
34
72
37
73
35
0
VERTEX
8
OBJECT__19
10
0
20
0
30
0
70
128
71
38
72
39
73
40
0
VERTEX
8
OBJECT__19
10
0
20
0
30
0
70
128
71
40
72
34
73
38
0
VERTEX
8
OBJECT__19
10
0
20
0
30
0
70
128
71
38
72
41
73
39
0
VERTEX
8
OBJECT__19
10
0
20
0
30
0
70
128
71
38
72
42
73
43
0
VERTEX
8
OBJECT__19
10
0
20
0
30
0
70
128
71
42
72
44
73
43
0
VERTEX
8
OBJECT__19
10
0
20
0
30
0
70
128
71
42
72
45
73
46
0
VERTEX
8
OBJECT__19
10
0
20
0
30
0
70
128
71
46
72
47
73
42
0
VERTEX
8
OBJECT__19
10
0
20
0
30
0
70
128
71
45
72
48
73
46
0
VERTEX
8
OBJECT__19
10
0
20
0
30
0
70
128
71
1
72
49
73
50
0
VERTEX
8
OBJECT__19
10
0
20
0
30
0
70
128
71
50
72
45
73
1
0
VERTEX
8
OBJECT__19
10
0
20
0
30
0
70
128
71
50
72
48
73
45
0
VERTEX
8
OBJECT__19
10
0
20
0
30
0
70
128
71
47
72
44
73
42
0
VERTEX
8
OBJECT__19
10
0
20
0
30
0
70
128
71
43
72
41
73
38
0
VERTEX
8
OBJECT__19
10
0
20
0
30
0
70
128
71
40
72
37
73
34
0
VERTEX
8
OBJECT__19
10
0
20
0
30
0
70
128
71
36
72
33
73
31
0
VERTEX
8
OBJECT__19
10
0
20
0
30
0
70
128
71
32
72
30
73
27
0
VERTEX
8
OBJECT__19
10
0
20
0
30
0
70
128
71
29
72
26
73
23
0
VERTEX
8
OBJECT__19
10
0
20
0
30
0
70
128
71
25
72
21
73
20
0
VERTEX
8
OBJECT__19
10
0
20
0
30
0
70
128
71
22
72
19
73
16
0
VERTEX
8
OBJECT__19
10
0
20
0
30
0
70
128
71
18
72
15
73
12
0
VERTEX
8
OBJECT__19
10
0
20
0
30
0
70
128
71
14
72
10
73
9
0
VERTEX
8
OBJECT__19
10
0
20
0
30
0
70
128
71
11
72
8
73
5
0
VERTEX
8
OBJECT__19
10
0
20
0
30
0
70
128
71
7
72
4
73
2
0
VERTEX
8
OBJECT__19
10
0
20
0
30
0
70
128
71
3
72
49
73
1
0
SEQEND
8
OBJECT__19
0
POLYLINE
8
OBJECT__20
66
1
70
64
71
30
72
30
62
253
0
VERTEX
8
OBJECT__20
10
0.000000
20
10.250000
30
29.500000
70
192
0
VERTEX
8
OBJECT__20
10
2.003000
20
8.774000
30
29.500000
70
192
0
VERTEX
8
OBJECT__20
10
-2.003000
20
8.774000
30
29.500000
70
192
0
VERTEX
8
OBJECT__20
10
-3.923000
20
9.470000
30
29.500000
70
192
0
VERTEX
8
OBJECT__20
10
-5.611000
20
7.036000
30
29.500000
70
192
0
VERTEX
8
OBJECT__20
10
3.923000
20
9.470000
30
29.500000
70
192
0
VERTEX
8
OBJECT__20
10
-9.470000
20
3.923000
30
29.500000
70
192
0
VERTEX
8
OBJECT__20
10
-8.109000
20
3.905000
30
29.500000
70
192
0
VERTEX
8
OBJECT__20
10
-9.000000
20
0.000000
30
29.500000
70
192
0
VERTEX
8
OBJECT__20
10
-7.248000
20
7.248000
30
29.500000
70
192
0
VERTEX
8
OBJECT__20
10
7.248000
20
7.248000
30
29.500000
70
192
0
VERTEX
8
OBJECT__20
10
5.611000
20
7.036000
30
29.500000
70
192
0
VERTEX
8
OBJECT__20
10
0.000000
20
-10.250000
30
29.500000
70
192
0
VERTEX
8
OBJECT__20
10
-2.003000
20
-8.774000
30
29.500000
70
192
0
VERTEX
8
OBJECT__20
10
2.003000
20
-8.774000
30
29.500000
70
192
0
VERTEX
8
OBJECT__20
10
9.470000
20
3.923000
30
29.500000
70
192
0
VERTEX
8
OBJECT__20
10
8.109000
20
3.905000
30
29.500000
70
192
0
VERTEX
8
OBJECT__20
10
7.248000
20
-7.248000
30
29.500000
70
192
0
VERTEX
8
OBJECT__20
10
5.611000
20
-7.036000
30
29.500000
70
192
0
VERTEX
8
OBJECT__20
10
8.109000
20
-3.905000
30
29.500000
70
192
0
VERTEX
8
OBJECT__20
10
3.923000
20
-9.470000
30
29.500000
70
192
0
VERTEX
8
OBJECT__20
10
-3.923000
20
-9.470000
30
29.500000
70
192
0
VERTEX
8
OBJECT__20
10
-7.248000
20
-7.248000
30
29.500000
70
192
0
VERTEX
8
OBJECT__20
10
-5.611000
20
-7.036000
30
29.500000
70
192
0
VERTEX
8
OBJECT__20
10
10.250000
20
0.000000
30
29.500000
70
192
0
VERTEX
8
OBJECT__20
10
9.000000
20
0.000000
30
29.500000
70
192
0
VERTEX
8
OBJECT__20
10
9.470000
20
-3.923000
30
29.500000
70
192
0
VERTEX
8
OBJECT__20
10
-9.470000
20
-3.923000
30
29.500000
70
192
0
VERTEX
8
OBJECT__20
10
-8.109000
20
-3.905000
30
29.500000
70
192
0
VERTEX
8
OBJECT__20
10
-10.250000
20
0.000000
30
29.500000
70
192
0
VERTEX
8
OBJECT__20
10
0
20
0
30
0
70
128
71
1
72
2
73
3
0
VERTEX
8
OBJECT__20
10
0
20
0
30
0
70
128
71
4
72
3
73
5
0
VERTEX
8
OBJECT__20
10
0
20
0
30
0
70
128
71
1
72
6
73
2
0
VERTEX
8
OBJECT__20
10
0
20
0
30
0
70
128
71
7
72
8
73
9
0
VERTEX
8
OBJECT__20
10
0
20
0
30
0
70
128
71
10
72
5
73
8
0
VERTEX
8
OBJECT__20
10
0
20
0
30
0
70
128
71
3
72
4
73
1
0
VERTEX
8
OBJECT__20
10
0
20
0
30
0
70
128
71
6
72
11
73
12
0
VERTEX
8
OBJECT__20
10
0
20
0
30
0
70
128
71
8
72
7
73
10
0
VERTEX
8
OBJECT__20
10
0
20
0
30
0
70
128
71
12
72
2
73
6
0
VERTEX
8
OBJECT__20
10
0
20
0
30
0
70
128
71
13
72
14
73
15
0
VERTEX
8
OBJECT__20
10
0
20
0
30
0
70
128
71
5
72
10
73
4
0
VERTEX
8
OBJECT__20
10
0
20
0
30
0
70
128
71
11
72
16
73
17
0
VERTEX
8
OBJECT__20
10
0
20
0
30
0
70
128
71
18
72
19
73
20
0
VERTEX
8
OBJECT__20
10
0
20
0
30
0
70
128
71
21
72
15
73
19
0
VERTEX
8
OBJECT__20
10
0
20
0
30
0
70
128
71
13
72
22
73
14
0
VERTEX
8
OBJECT__20
10
0
20
0
30
0
70
128
71
22
72
23
73
24
0
VERTEX
8
OBJECT__20
10
0
20
0
30
0
70
128
71
17
72
12
73
11
0
VERTEX
8
OBJECT__20
10
0
20
0
30
0
70
128
71
16
72
25
73
26
0
VERTEX
8
OBJECT__20
10
0
20
0
30
0
70
128
71
27
72
20
73
26
0
VERTEX
8
OBJECT__20
10
0
20
0
30
0
70
128
71
19
72
18
73
21
0
VERTEX
8
OBJECT__20
10
0
20
0
30
0
70
128
71
24
72
14
73
22
0
VERTEX
8
OBJECT__20
10
0
20
0
30
0
70
128
71
23
72
28
73
29
0
VERTEX
8
OBJECT__20
10
0
20
0
30
0
70
128
71
26
72
17
73
16
0
VERTEX
8
OBJECT__20
10
0
20
0
30
0
70
128
71
20
72
27
73
18
0
VERTEX
8
OBJECT__20
10
0
20
0
30
0
70
128
71
29
72
24
73
23
0
VERTEX
8
OBJECT__20
10
0
20
0
30
0
70
128
71
28
72
30
73
9
0
VERTEX
8
OBJECT__20
10
0
20
0
30
0
70
128
71
26
72
25
73
27
0
VERTEX
8
OBJECT__20
10
0
20
0
30
0
70
128
71
9
72
29
73
28
0
VERTEX
8
OBJECT__20
10
0
20
0
30
0
70
128
71
15
72
21
73
13
0
VERTEX
8
OBJECT__20
10
0
20
0
30
0
70
128
71
9
72
30
73
7
0
SEQEND
8
OBJECT__20
0
POLYLINE
8
OBJECT__21
66
1
70
64
71
48
72
48
62
253
0
VERTEX
8
OBJECT__21
10
4.497000
20
10.856000
30
31.000000
70
192
0
VERTEX
8
OBJECT__21
10
8.309000
20
8.309000
30
31.000000
70
192
0
VERTEX
8
OBJECT__21
10
7.248000
20
7.248000
30
29.500000
70
192
0
VERTEX
8
OBJECT__21
10
3.923000
20
9.470000
30
29.500000
70
192
0
VERTEX
8
OBJECT__21
10
0.000000
20
10.250000
30
29.500000
70
192
0
VERTEX
8
OBJECT__21
10
-4.497000
20
10.856000
30
31.000000
70
192
0
VERTEX
8
OBJECT__21
10
0.000000
20
11.750000
30
31.000000
70
192
0
VERTEX
8
OBJECT__21
10
-3.923000
20
9.470000
30
29.500000
70
192
0
VERTEX
8
OBJECT__21
10
-7.248000
20
7.248000
30
29.500000
70
192
0
VERTEX
8
OBJECT__21
10
-8.309000
20
-8.309000
30
31.000000
70
192
0
VERTEX
8
OBJECT__21
10
-7.248000
20
-7.248000
30
29.500000
70
192
0
VERTEX
8
OBJECT__21
10
-3.923000
20
-9.470000
30
29.500000
70
192
0
VERTEX
8
OBJECT__21
10
-4.497000
20
-10.856000
30
31.000000
70
192
0
VERTEX
8
OBJECT__21
10
0.000000
20
-10.250000
30
29.500000
70
192
0
VERTEX
8
OBJECT__21
10
0.000000
20
-11.750000
30
31.000000
70
192
0
VERTEX
8
OBJECT__21
10
3.923000
20
-9.470000
30
29.500000
70
192
0
VERTEX
8
OBJECT__21
10
8.309000
20
-8.309000
30
31.000000
70
192
0
VERTEX
8
OBJECT__21
10
4.497000
20
-10.856000
30
31.000000
70
192
0
VERTEX
8
OBJECT__21
10
-10.633000
20
-5.000000
30
31.000000
70
192
0
VERTEX
8
OBJECT__21
10
-9.470000
20
-3.923000
30
29.500000
70
192
0
VERTEX
8
OBJECT__21
10
-10.250000
20
0.000000
30
29.500000
70
192
0
VERTEX
8
OBJECT__21
10
-10.633000
20
-1.986000
30
30.067001
70
192
0
VERTEX
8
OBJECT__21
10
-10.633000
20
-4.413000
30
30.778999
70
192
0
VERTEX
8
OBJECT__21
10
-10.633000
20
-3.668000
30
30.498001
70
192
0
VERTEX
8
OBJECT__21
10
-10.633000
20
-0.400000
30
29.890999
70
192
0
VERTEX
8
OBJECT__21
10
-9.470000
20
3.923000
30
29.500000
70
192
0
VERTEX
8
OBJECT__21
10
-10.633000
20
3.051000
30
30.311996
70
192
0
VERTEX
8
OBJECT__21
10
-10.633000
20
3.604000
30
30.476997
70
192
0
VERTEX
8
OBJECT__21
10
-10.633000
20
1.317000
30
29.963997
70
192
0
VERTEX
8
OBJECT__21
10
-10.633000
20
0.000000
30
29.907997
70
192
0
VERTEX
8
OBJECT__21
10
-10.633000
20
5.000000
30
31.000000
70
192
0
VERTEX
8
OBJECT__21
10
-8.309000
20
8.309000
30
31.000000
70
192
0
VERTEX
8
OBJECT__21
10
-10.633000
20
4.414000
30
30.780998
70
192
0
VERTEX
8
OBJECT__21
10
10.633000
20
5.000000
30
31.000000
70
192
0
VERTEX
8
OBJECT__21
10
9.470000
20
3.923000
30
29.500000
70
192
0
VERTEX
8
OBJECT__21
10
10.250000
20
0.000000
30
29.500000
70
192
0
VERTEX
8
OBJECT__21
10
10.633000
20
1.937000
30
30.057999
70
192
0
VERTEX
8
OBJECT__21
10
10.633000
20
0.267000
30
29.886002
70
192
0
VERTEX
8
OBJECT__21
10
10.633000
20
4.414000
30
30.780998
70
192
0
VERTEX
8
OBJECT__21
10
10.633000
20
3.604000
30
30.476997
70
192
0
VERTEX
8
OBJECT__21
10
9.470000
20
-3.923000
30
29.500000
70
192
0
VERTEX
8
OBJECT__21
10
10.633000
20
-2.125000
30
30.093002
70
192
0
VERTEX
8
OBJECT__21
10
10.633000
20
-3.668000
30
30.498001
70
192
0
VERTEX
8
OBJECT__21
10
10.633000
20
-0.400000
30
29.890999
70
192
0
VERTEX
8
OBJECT__21
10
10.633000
20
0.000000
30
29.888000
70
192
0
VERTEX
8
OBJECT__21
10
10.633000
20
-5.000000
30
31.000000
70
192
0
VERTEX
8
OBJECT__21
10
7.248000
20
-7.248000
30
29.500000
70
192
0
VERTEX
8
OBJECT__21
10
10.633000
20
-4.413000
30
30.778999
70
192
0
VERTEX
8
OBJECT__21
10
0
20
0
30
0
70
128
71
1
72
2
73
3
0
VERTEX
8
OBJECT__21
10
0
20
0
30
0
70
128
71
1
72
4
73
5
0
VERTEX
8
OBJECT__21
10
0
20
0
30
0
70
128
71
6
72
7
73
5
0
VERTEX
8
OBJECT__21
10
0
20
0
30
0
70
128
71
6
72
8
73
9
0
VERTEX
8
OBJECT__21
10
0
20
0
30
0
70
128
71
10
72
11
73
12
0
VERTEX
8
OBJECT__21
10
0
20
0
30
0
70
128
71
13
72
12
73
14
0
VERTEX
8
OBJECT__21
10
0
20
0
30
0
70
128
71
15
72
14
73
16
0
VERTEX
8
OBJECT__21
10
0
20
0
30
0
70
128
71
17
72
18
73
16
0
VERTEX
8
OBJECT__21
10
0
20
0
30
0
70
128
71
19
72
20
73
11
0
VERTEX
8
OBJECT__21
10
0
20
0
30
0
70
128
71
11
72
10
73
19
0
VERTEX
8
OBJECT__21
10
0
20
0
30
0
70
128
71
21
72
20
73
22
0
VERTEX
8
OBJECT__21
10
0
20
0
30
0
70
128
71
20
72
23
73
24
0
VERTEX
8
OBJECT__21
10
0
20
0
30
0
70
128
71
24
72
22
73
20
0
VERTEX
8
OBJECT__21
10
0
20
0
30
0
70
128
71
22
72
25
73
21
0
VERTEX
8
OBJECT__21
10
0
20
0
30
0
70
128
71
26
72
27
73
28
0
VERTEX
8
OBJECT__21
10
0
20
0
30
0
70
128
71
26
72
29
73
27
0
VERTEX
8
OBJECT__21
10
0
20
0
30
0
70
128
71
21
72
30
73
29
0
VERTEX
8
OBJECT__21
10
0
20
0
30
0
70
128
71
29
72
26
73
21
0
VERTEX
8
OBJECT__21
10
0
20
0
30
0
70
128
71
31
72
32
73
9
0
VERTEX
8
OBJECT__21
10
0
20
0
30
0
70
128
71
26
72
33
73
31
0
VERTEX
8
OBJECT__21
10
0
20
0
30
0
70
128
71
34
72
35
73
3
0
VERTEX
8
OBJECT__21
10
0
20
0
30
0
70
128
71
3
72
2
73
34
0
VERTEX
8
OBJECT__21
10
0
20
0
30
0
70
128
71
36
72
35
73
37
0
VERTEX
8
OBJECT__21
10
0
20
0
30
0
70
128
71
37
72
38
73
36
0
VERTEX
8
OBJECT__21
10
0
20
0
30
0
70
128
71
35
72
39
73
40
0
VERTEX
8
OBJECT__21
10
0
20
0
30
0
70
128
71
40
72
37
73
35
0
VERTEX
8
OBJECT__21
10
0
20
0
30
0
70
128
71
41
72
42
73
43
0
VERTEX
8
OBJECT__21
10
0
20
0
30
0
70
128
71
36
72
44
73
42
0
VERTEX
8
OBJECT__21
10
0
20
0
30
0
70
128
71
36
72
45
73
44
0
VERTEX
8
OBJECT__21
10
0
20
0
30
0
70
128
71
42
72
41
73
36
0
VERTEX
8
OBJECT__21
10
0
20
0
30
0
70
128
71
46
72
17
73
47
0
VERTEX
8
OBJECT__21
10
0
20
0
30
0
70
128
71
41
72
48
73
46
0
VERTEX
8
OBJECT__21
10
0
20
0
30
0
70
128
71
47
72
41
73
46
0
VERTEX
8
OBJECT__21
10
0
20
0
30
0
70
128
71
43
72
48
73
41
0
VERTEX
8
OBJECT__21
10
0
20
0
30
0
70
128
71
38
72
45
73
36
0
VERTEX
8
OBJECT__21
10
0
20
0
30
0
70
128
71
34
72
39
73
35
0
VERTEX
8
OBJECT__21
10
0
20
0
30
0
70
128
71
9
72
26
73
31
0
VERTEX
8
OBJECT__21
10
0
20
0
30
0
70
128
71
28
72
33
73
26
0
VERTEX
8
OBJECT__21
10
0
20
0
30
0
70
128
71
25
72
30
73
21
0
VERTEX
8
OBJECT__21
10
0
20
0
30
0
70
128
71
19
72
23
73
20
0
VERTEX
8
OBJECT__21
10
0
20
0
30
0
70
128
71
16
72
47
73
17
0
VERTEX
8
OBJECT__21
10
0
20
0
30
0
70
128
71
16
72
18
73
15
0
VERTEX
8
OBJECT__21
10
0
20
0
30
0
70
128
71
14
72
15
73
13
0
VERTEX
8
OBJECT__21
10
0
20
0
30
0
70
128
71
12
72
13
73
10
0
VERTEX
8
OBJECT__21
10
0
20
0
30
0
70
128
71
9
72
32
73
6
0
VERTEX
8
OBJECT__21
10
0
20
0
30
0
70
128
71
5
72
8
73
6
0
VERTEX
8
OBJECT__21
10
0
20
0
30
0
70
128
71
5
72
7
73
1
0
VERTEX
8
OBJECT__21
10
0
20
0
30
0
70
128
71
3
72
4
73
1
0
SEQEND
8
OBJECT__21
0
POLYLINE
8
OBJECT__22
66
1
70
64
71
13
72
11
62
253
0
VERTEX
8
OBJECT__22
10
10.633000
20
5.000000
30
36.000000
70
192
0
VERTEX
8
OBJECT__22
10
10.633000
20
0.267000
30
29.886002
70
192
0
VERTEX
8
OBJECT__22
10
10.633000
20
1.937000
30
30.057999
70
192
0
VERTEX
8
OBJECT__22
10
10.633000
20
-5.000000
30
36.000000
70
192
0
VERTEX
8
OBJECT__22
10
10.633000
20
-2.125000
30
30.093002
70
192
0
VERTEX
8
OBJECT__22
10
10.633000
20
-0.400000
30
29.890999
70
192
0
VERTEX
8
OBJECT__22
10
10.633000
20
3.604000
30
30.476997
70
192
0
VERTEX
8
OBJECT__22
10
10.633000
20
-3.668000
30
30.498001
70
192
0
VERTEX
8
OBJECT__22
10
10.633000
20
0.000000
30
29.888000
70
192
0
VERTEX
8
OBJECT__22
10
10.633000
20
4.414000
30
30.780998
70
192
0
VERTEX
8
OBJECT__22
10
10.633000
20
-4.413000
30
30.778999
70
192
0
VERTEX
8
OBJECT__22
10
10.633000
20
-5.000000
30
31.000000
70
192
0
VERTEX
8
OBJECT__22
10
10.633000
20
5.000000
30
31.000000
70
192
0
VERTEX
8
OBJECT__22
10
0
20
0
30
0
70
128
71
1
72
2
73
3
0
VERTEX
8
OBJECT__22
10
0
20
0
30
0
70
128
71
4
72
5
73
6
0
VERTEX
8
OBJECT__22
10
0
20
0
30
0
70
128
71
3
72
7
73
1
0
VERTEX
8
OBJECT__22
10
0
20
0
30
0
70
128
71
4
72
8
73
5
0
VERTEX
8
OBJECT__22
10
0
20
0
30
0
70
128
71
1
72
9
73
2
0
VERTEX
8
OBJECT__22
10
0
20
0
30
0
70
128
71
6
72
1
73
4
0
VERTEX
8
OBJECT__22
10
0
20
0
30
0
70
128
71
7
72
10
73
1
0
VERTEX
8
OBJECT__22
10
0
20
0
30
0
70
128
71
4
72
11
73
8
0
VERTEX
8
OBJECT__22
10
0
20
0
30
0
70
128
71
6
72
9
73
1
0
VERTEX
8
OBJECT__22
10
0
20
0
30
0
70
128
71
4
72
12
73
11
0
VERTEX
8
OBJECT__22
10
0
20
0
30
0
70
128
71
10
72
13
73
1
0
SEQEND
8
OBJECT__22
0
POLYLINE
8
OBJECT__23
66
1
70
64
71
5
72
3
62
253
0
VERTEX
8
OBJECT__23
10
10.856000
20
4.497000
30
36.000000
70
192
0
VERTEX
8
OBJECT__23
10
11.750000
20
0.000000
30
36.000000
70
192
0
VERTEX
8
OBJECT__23
10
10.856000
20
-4.497000
30
36.000000
70
192
0
VERTEX
8
OBJECT__23
10
10.633000
20
-5.000000
30
36.000000
70
192
0
VERTEX
8
OBJECT__23
10
10.633000
20
5.000000
30
36.000000
70
192
0
VERTEX
8
OBJECT__23
10
0
20
0
30
0
70
128
71
1
72
2
73
3
0
VERTEX
8
OBJECT__23
10
0
20
0
30
0
70
128
71
4
72
5
73
1
0
VERTEX
8
OBJECT__23
10
0
20
0
30
0
70
128
71
3
72
4
73
1
0
SEQEND
8
OBJECT__23
0
POLYLINE
8
OBJECT__24
66
1
70
64
71
13
72
11
62
253
0
VERTEX
8
OBJECT__24
10
-10.633000
20
5.000000
30
36.000000
70
192
0
VERTEX
8
OBJECT__24
10
-10.633000
20
1.317000
30
29.963997
70
192
0
VERTEX
8
OBJECT__24
10
-10.633000
20
0.000000
30
29.907997
70
192
0
VERTEX
8
OBJECT__24
10
-10.633000
20
-5.000000
30
36.000000
70
192
0
VERTEX
8
OBJECT__24
10
-10.633000
20
-0.400000
30
29.890999
70
192
0
VERTEX
8
OBJECT__24
10
-10.633000
20
3.051000
30
30.311996
70
192
0
VERTEX
8
OBJECT__24
10
-10.633000
20
-1.986000
30
30.067001
70
192
0
VERTEX
8
OBJECT__24
10
-10.633000
20
3.604000
30
30.476997
70
192
0
VERTEX
8
OBJECT__24
10
-10.633000
20
-3.668000
30
30.498001
70
192
0
VERTEX
8
OBJECT__24
10
-10.633000
20
4.414000
30
30.780998
70
192
0
VERTEX
8
OBJECT__24
10
-10.633000
20
-4.413000
30
30.778999
70
192
0
VERTEX
8
OBJECT__24
10
-10.633000
20
5.000000
30
31.000000
70
192
0
VERTEX
8
OBJECT__24
10
-10.633000
20
-5.000000
30
31.000000
70
192
0
VERTEX
8
OBJECT__24
10
0
20
0
30
0
70
128
71
1
72
2
73
3
0
VERTEX
8
OBJECT__24
10
0
20
0
30
0
70
128
71
4
72
3
73
5
0
VERTEX
8
OBJECT__24
10
0
20
0
30
0
70
128
71
1
72
6
73
2
0
VERTEX
8
OBJECT__24
10
0
20
0
30
0
70
128
71
5
72
7
73
4
0
VERTEX
8
OBJECT__24
10
0
20
0
30
0
70
128
71
1
72
8
73
6
0
VERTEX
8
OBJECT__24
10
0
20
0
30
0
70
128
71
7
72
9
73
4
0
VERTEX
8
OBJECT__24
10
0
20
0
30
0
70
128
71
1
72
10
73
8
0
VERTEX
8
OBJECT__24
10
0
20
0
30
0
70
128
71
9
72
11
73
4
0
VERTEX
8
OBJECT__24
10
0
20
0
30
0
70
128
71
1
72
12
73
10
0
VERTEX
8
OBJECT__24
10
0
20
0
30
0
70
128
71
3
72
4
73
1
0
VERTEX
8
OBJECT__24
10
0
20
0
30
0
70
128
71
11
72
13
73
4
0
SEQEND
8
OBJECT__24
0
POLYLINE
8
OBJECT__25
66
1
70
64
71
5
72
3
62
253
0
VERTEX
8
OBJECT__25
10
-10.856000
20
4.497000
30
36.000000
70
192
0
VERTEX
8
OBJECT__25
10
-10.633000
20
-5.000000
30
36.000000
70
192
0
VERTEX
8
OBJECT__25
10
-10.856000
20
-4.497000
30
36.000000
70
192
0
VERTEX
8
OBJECT__25
10
-11.750000
20
0.000000
30
36.000000
70
192
0
VERTEX
8
OBJECT__25
10
-10.633000
20
5.000000
30
36.000000
70
192
0
VERTEX
8
OBJECT__25
10
0
20
0
30
0
70
128
71
1
72
2
73
3
0
VERTEX
8
OBJECT__25
10
0
20
0
30
0
70
128
71
3
72
4
73
1
0
VERTEX
8
OBJECT__25
10
0
20
0
30
0
70
128
71
1
72
5
73
2
0
SEQEND
8
OBJECT__25
0
POLYLINE
8
OBJECT__26
66
1
70
64
71
40
72
40
62
253
0
VERTEX
8
OBJECT__26
10
-4.497000
20
10.856000
30
42.500000
70
192
0
VERTEX
8
OBJECT__26
10
-4.497000
20
10.856000
30
31.000000
70
192
0
VERTEX
8
OBJECT__26
10
-8.309000
20
8.309000
30
31.000000
70
192
0
VERTEX
8
OBJECT__26
10
0.000000
20
11.750000
30
42.500000
70
192
0
VERTEX
8
OBJECT__26
10
0.000000
20
11.750000
30
31.000000
70
192
0
VERTEX
8
OBJECT__26
10
4.497000
20
10.856000
30
42.500000
70
192
0
VERTEX
8
OBJECT__26
10
4.497000
20
10.856000
30
31.000000
70
192
0
VERTEX
8
OBJECT__26
10
8.309000
20
8.309000
30
42.500000
70
192
0
VERTEX
8
OBJECT__26
10
8.309000
20
8.309000
30
31.000000
70
192
0
VERTEX
8
OBJECT__26
10
4.497000
20
-10.856000
30
42.500000
70
192
0
VERTEX
8
OBJECT__26
10
4.497000
20
-10.856000
30
31.000000
70
192
0
VERTEX
8
OBJECT__26
10
8.309000
20
-8.309000
30
31.000000
70
192
0
VERTEX
8
OBJECT__26
10
0.000000
20
-11.750000
30
42.500000
70
192
0
VERTEX
8
OBJECT__26
10
0.000000
20
-11.750000
30
31.000000
70
192
0
VERTEX
8
OBJECT__26
10
-4.497000
20
-10.856000
30
42.500000
70
192
0
VERTEX
8
OBJECT__26
10
-4.497000
20
-10.856000
30
31.000000
70
192
0
VERTEX
8
OBJECT__26
10
-8.309000
20
-8.309000
30
42.500000
70
192
0
VERTEX
8
OBJECT__26
10
-8.309000
20
-8.309000
30
31.000000
70
192
0
VERTEX
8
OBJECT__26
10
-10.856000
20
4.497000
30
42.500000
70
192
0
VERTEX
8
OBJECT__26
10
-10.856000
20
4.497000
30
36.000000
70
192
0
VERTEX
8
OBJECT__26
10
-11.750000
20
0.000000
30
36.000000
70
192
0
VERTEX
8
OBJECT__26
10
-11.750000
20
0.000000
30
42.500000
70
192
0
VERTEX
8
OBJECT__26
10
-10.856000
20
-4.497000
30
36.000000
70
192
0
VERTEX
8
OBJECT__26
10
-10.633000
20
-5.000000
30
36.000000
70
192
0
VERTEX
8
OBJECT__26
10
-10.856000
20
-4.497000
30
42.500000
70
192
0
VERTEX
8
OBJECT__26
10
10.856000
20
-4.497000
30
42.500000
70
192
0
VERTEX
8
OBJECT__26
10
8.309000
20
-8.309000
30
42.500000
70
192
0
VERTEX
8
OBJECT__26
10
10.633000
20
-5.000000
30
36.000000
70
192
0
VERTEX
8
OBJECT__26
10
10.633000
20
-5.000000
30
31.000000
70
192
0
VERTEX
8
OBJECT__26
10
10.856000
20
-4.497000
30
36.000000
70
192
0
VERTEX
8
OBJECT__26
10
11.750000
20
0.000000
30
36.000000
70
192
0
VERTEX
8
OBJECT__26
10
11.750000
20
0.000000
30
42.500000
70
192
0
VERTEX
8
OBJECT__26
10
10.856000
20
4.497000
30
36.000000
70
192
0
VERTEX
8
OBJECT__26
10
10.633000
20
5.000000
30
36.000000
70
192
0
VERTEX
8
OBJECT__26
10
10.856000
20
4.497000
30
42.500000
70
192
0
VERTEX
8
OBJECT__26
10
-8.309000
20
8.309000
30
42.500000
70
192
0
VERTEX
8
OBJECT__26
10
-10.633000
20
5.000000
30
36.000000
70
192
0
VERTEX
8
OBJECT__26
10
-10.633000
20
5.000000
30
31.000000
70
192
0
VERTEX
8
OBJECT__26
10
10.633000
20
5.000000
30
31.000000
70
192
0
VERTEX
8
OBJECT__26
10
-10.633000
20
-5.000000
30
31.000000
70
192
0
VERTEX
8
OBJECT__26
10
0
20
0
30
0
70
128
71
1
72
2
73
3
0
VERTEX
8
OBJECT__26
10
0
20
0
30
0
70
128
71
4
72
5
73
2
0
VERTEX
8
OBJECT__26
10
0
20
0
30
0
70
128
71
6
72
7
73
5
0
VERTEX
8
OBJECT__26
10
0
20
0
30
0
70
128
71
8
72
9
73
7
0
VERTEX
8
OBJECT__26
10
0
20
0
30
0
70
128
71
10
72
11
73
12
0
VERTEX
8
OBJECT__26
10
0
20
0
30
0
70
128
71
13
72
14
73
11
0
VERTEX
8
OBJECT__26
10
0
20
0
30
0
70
128
71
15
72
16
73
14
0
VERTEX
8
OBJECT__26
10
0
20
0
30
0
70
128
71
17
72
18
73
16
0
VERTEX
8
OBJECT__26
10
0
20
0
30
0
70
128
71
19
72
20
73
21
0
VERTEX
8
OBJECT__26
10
0
20
0
30
0
70
128
71
22
72
21
73
23
0
VERTEX
8
OBJECT__26
10
0
20
0
30
0
70
128
71
18
72
17
73
24
0
VERTEX
8
OBJECT__26
10
0
20
0
30
0
70
128
71
25
72
23
73
24
0
VERTEX
8
OBJECT__26
10
0
20
0
30
0
70
128
71
24
72
17
73
25
0
VERTEX
8
OBJECT__26
10
0
20
0
30
0
70
128
71
26
72
27
73
28
0
VERTEX
8
OBJECT__26
10
0
20
0
30
0
70
128
71
12
72
29
73
28
0
VERTEX
8
OBJECT__26
10
0
20
0
30
0
70
128
71
28
72
27
73
12
0
VERTEX
8
OBJECT__26
10
0
20
0
30
0
70
128
71
26
72
30
73
31
0
VERTEX
8
OBJECT__26
10
0
20
0
30
0
70
128
71
32
72
31
73
33
0
VERTEX
8
OBJECT__26
10
0
20
0
30
0
70
128
71
9
72
8
73
34
0
VERTEX
8
OBJECT__26
10
0
20
0
30
0
70
128
71
35
72
33
73
34
0
VERTEX
8
OBJECT__26
10
0
20
0
30
0
70
128
71
34
72
8
73
35
0
VERTEX
8
OBJECT__26
10
0
20
0
30
0
70
128
71
19
72
36
73
37
0
VERTEX
8
OBJECT__26
10
0
20
0
30
0
70
128
71
3
72
38
73
37
0
VERTEX
8
OBJECT__26
10
0
20
0
30
0
70
128
71
37
72
36
73
3
0
VERTEX
8
OBJECT__26
10
0
20
0
30
0
70
128
71
37
72
20
73
19
0
VERTEX
8
OBJECT__26
10
0
20
0
30
0
70
128
71
34
72
39
73
9
0
VERTEX
8
OBJECT__26
10
0
20
0
30
0
70
128
71
33
72
35
73
32
0
VERTEX
8
OBJECT__26
10
0
20
0
30
0
70
128
71
31
72
32
73
26
0
VERTEX
8
OBJECT__26
10
0
20
0
30
0
70
128
71
28
72
30
73
26
0
VERTEX
8
OBJECT__26
10
0
20
0
30
0
70
128
71
24
72
40
73
18
0
VERTEX
8
OBJECT__26
10
0
20
0
30
0
70
128
71
23
72
25
73
22
0
VERTEX
8
OBJECT__26
10
0
20
0
30
0
70
128
71
21
72
22
73
19
0
VERTEX
8
OBJECT__26
10
0
20
0
30
0
70
128
71
16
72
15
73
17
0
VERTEX
8
OBJECT__26
10
0
20
0
30
0
70
128
71
14
72
13
73
15
0
VERTEX
8
OBJECT__26
10
0
20
0
30
0
70
128
71
11
72
10
73
13
0
VERTEX
8
OBJECT__26
10
0
20
0
30
0
70
128
71
12
72
27
73
10
0
VERTEX
8
OBJECT__26
10
0
20
0
30
0
70
128
71
7
72
6
73
8
0
VERTEX
8
OBJECT__26
10
0
20
0
30
0
70
128
71
5
72
4
73
6
0
VERTEX
8
OBJECT__26
10
0
20
0
30
0
70
128
71
2
72
1
73
4
0
VERTEX
8
OBJECT__26
10
0
20
0
30
0
70
128
71
3
72
36
73
1
0
SEQEND
8
OBJECT__26
0
POLYLINE
8
OBJECT__27
66
1
70
64
71
16
72
14
62
253
0
VERTEX
8
OBJECT__27
10
0.000000
20
11.750000
30
42.500000
70
192
0
VERTEX
8
OBJECT__27
10
-8.309000
20
8.309000
30
42.500000
70
192
0
VERTEX
8
OBJECT__27
10
-10.856000
20
4.497000
30
42.500000
70
192
0
VERTEX
8
OBJECT__27
10
-4.497000
20
10.856000
30
42.500000
70
192
0
VERTEX
8
OBJECT__27
10
11.750000
20
0.000000
30
42.500000
70
192
0
VERTEX
8
OBJECT__27
10
-4.497000
20
-10.856000
30
42.500000
70
192
0
VERTEX
8
OBJECT__27
10
0.000000
20
-11.750000
30
42.500000
70
192
0
VERTEX
8
OBJECT__27
10
-11.750000
20
0.000000
30
42.500000
70
192
0
VERTEX
8
OBJECT__27
10
4.497000
20
10.856000
30
42.500000
70
192
0
VERTEX
8
OBJECT__27
10
10.856000
20
4.497000
30
42.500000
70
192
0
VERTEX
8
OBJECT__27
10
8.309000
20
8.309000
30
42.500000
70
192
0
VERTEX
8
OBJECT__27
10
4.497000
20
-10.856000
30
42.500000
70
192
0
VERTEX
8
OBJECT__27
10
8.309000
20
-8.309000
30
42.500000
70
192
0
VERTEX
8
OBJECT__27
10
-8.309000
20
-8.309000
30
42.500000
70
192
0
VERTEX
8
OBJECT__27
10
-10.856000
20
-4.497000
30
42.500000
70
192
0
VERTEX
8
OBJECT__27
10
10.856000
20
-4.497000
30
42.500000
70
192
0
VERTEX
8
OBJECT__27
10
0
20
0
30
0
70
128
71
1
72
2
73
3
0
VERTEX
8
OBJECT__27
10
0
20
0
30
0
70
128
71
1
72
4
73
2
0
VERTEX
8
OBJECT__27
10
0
20
0
30
0
70
128
71
5
72
6
73
7
0
VERTEX
8
OBJECT__27
10
0
20
0
30
0
70
128
71
8
72
9
73
1
0
VERTEX
8
OBJECT__27
10
0
20
0
30
0
70
128
71
8
72
10
73
11
0
VERTEX
8
OBJECT__27
10
0
20
0
30
0
70
128
71
5
72
12
73
13
0
VERTEX
8
OBJECT__27
10
0
20
0
30
0
70
128
71
5
72
14
73
6
0
VERTEX
8
OBJECT__27
10
0
20
0
30
0
70
128
71
11
72
9
73
8
0
VERTEX
8
OBJECT__27
10
0
20
0
30
0
70
128
71
7
72
12
73
5
0
VERTEX
8
OBJECT__27
10
0
20
0
30
0
70
128
71
5
72
8
73
15
0
VERTEX
8
OBJECT__27
10
0
20
0
30
0
70
128
71
8
72
5
73
10
0
VERTEX
8
OBJECT__27
10
0
20
0
30
0
70
128
71
15
72
14
73
5
0
VERTEX
8
OBJECT__27
10
0
20
0
30
0
70
128
71
13
72
16
73
5
0
VERTEX
8
OBJECT__27
10
0
20
0
30
0
70
128
71
3
72
8
73
1
0
SEQEND
8
OBJECT__27
0
ENDSEC
0
EOF
