999
Converted by 3D Exploration 
999
XDimension Software, LLC
999
http://www.xdsoft.com/explorer/
0
SECTION
2
HEADER
9
$ACADVER
1
AC1008
9
$UCSORG
10
0.0
20
0.0
30
0.0
9
$UCSXDIR
10
1.0
20
0.0
30
0.0
9
$TILEMODE
70
1
9
$UCSYDIR
10
0.0
20
1.0
30
0.0
9
$EXTMIN
10
-80.000000
20
-163.925003
30
-163.925003
9
$EXTMAX
10
80.000000
20
32.709000
30
288.500000
0
ENDSEC
0
SECTION
2
TABLES
0
TABLE
2
LTYPE
70
1
0
LTYPE
2
CONTINUOUS
70
64
3
Solid line
72
65
73
0
40
0.0
0
ENDTAB
0
TABLE
2
LAYER
70
60
0
LAYER
2
OBJECT__0
70
0
62
253
6
CONTINUOUS
0
LAYER
2
OBJECT__1
70
0
62
253
6
CONTINUOUS
0
LAYER
2
OBJECT__3
70
0
62
253
6
CONTINUOUS
0
LAYER
2
OBJECT__4
70
0
62
253
6
CONTINUOUS
0
LAYER
2
OBJECT__5
70
0
62
253
6
CONTINUOUS
0
LAYER
2
OBJECT__6
70
0
62
253
6
CONTINUOUS
0
LAYER
2
OBJECT__7
70
0
62
253
6
CONTINUOUS
0
LAYER
2
OBJECT__8
70
0
62
253
6
CONTINUOUS
0
LAYER
2
OBJECT__10
70
0
62
253
6
CONTINUOUS
0
LAYER
2
OBJECT__12
70
0
62
253
6
CONTINUOUS
0
LAYER
2
OBJECT__13
70
0
62
253
6
CONTINUOUS
0
LAYER
2
OBJECT__15
70
0
62
253
6
CONTINUOUS
0
LAYER
2
OBJECT__16
70
0
62
253
6
CONTINUOUS
0
LAYER
2
OBJECT__18
70
0
62
253
6
CONTINUOUS
0
LAYER
2
OBJECT__19
70
0
62
253
6
CONTINUOUS
0
LAYER
2
OBJECT__20
70
0
62
253
6
CONTINUOUS
0
LAYER
2
OBJECT__22
70
0
62
253
6
CONTINUOUS
0
LAYER
2
OBJECT__23
70
0
62
253
6
CONTINUOUS
0
LAYER
2
OBJECT__24
70
0
62
253
6
CONTINUOUS
0
LAYER
2
OBJECT__25
70
0
62
253
6
CONTINUOUS
0
LAYER
2
OBJECT__26
70
0
62
253
6
CONTINUOUS
0
LAYER
2
OBJECT__27
70
0
62
253
6
CONTINUOUS
0
LAYER
2
OBJECT__28
70
0
62
253
6
CONTINUOUS
0
LAYER
2
OBJECT__29
70
0
62
253
6
CONTINUOUS
0
LAYER
2
OBJECT__31
70
0
62
253
6
CONTINUOUS
0
LAYER
2
OBJECT__32
70
0
62
253
6
CONTINUOUS
0
LAYER
2
OBJECT__34
70
0
62
253
6
CONTINUOUS
0
LAYER
2
OBJECT__35
70
0
62
253
6
CONTINUOUS
0
LAYER
2
OBJECT__36
70
0
62
253
6
CONTINUOUS
0
LAYER
2
OBJECT__37
70
0
62
253
6
CONTINUOUS
0
LAYER
2
OBJECT__38
70
0
62
253
6
CONTINUOUS
0
LAYER
2
OBJECT__39
70
0
62
253
6
CONTINUOUS
0
LAYER
2
OBJECT__40
70
0
62
253
6
CONTINUOUS
0
LAYER
2
OBJECT__41
70
0
62
253
6
CONTINUOUS
0
LAYER
2
OBJECT__43
70
0
62
253
6
CONTINUOUS
0
LAYER
2
OBJECT__44
70
0
62
253
6
CONTINUOUS
0
LAYER
2
OBJECT__45
70
0
62
253
6
CONTINUOUS
0
LAYER
2
OBJECT__46
70
0
62
253
6
CONTINUOUS
0
LAYER
2
OBJECT__47
70
0
62
253
6
CONTINUOUS
0
LAYER
2
OBJECT__48
70
0
62
253
6
CONTINUOUS
0
LAYER
2
OBJECT__49
70
0
62
253
6
CONTINUOUS
0
LAYER
2
OBJECT__51
70
0
62
253
6
CONTINUOUS
0
LAYER
2
OBJECT__52
70
0
62
253
6
CONTINUOUS
0
LAYER
2
OBJECT__53
70
0
62
253
6
CONTINUOUS
0
LAYER
2
OBJECT__54
70
0
62
253
6
CONTINUOUS
0
LAYER
2
OBJECT__55
70
0
62
253
6
CONTINUOUS
0
LAYER
2
OBJECT__56
70
0
62
253
6
CONTINUOUS
0
LAYER
2
OBJECT__57
70
0
62
253
6
CONTINUOUS
0
LAYER
2
OBJECT__58
70
0
62
253
6
CONTINUOUS
0
ENDTAB
0
TABLE
2
STYLE
70
1
0
STYLE
2
STANDARD
70
0
40
0.0
41
1.0
50
0.0
71
0
42
0.2
3
txt
4
1
0
ENDTAB
0
TABLE
2
UCS
70
0
0
ENDTAB
0
ENDSEC
0
SECTION
2
ENTITIES
0
POLYLINE
8
OBJECT__0
66
1
70
64
71
67
72
83
62
253
0
VERTEX
8
OBJECT__0
10
1.322000
20
27.754999
30
51.473999
70
192
0
VERTEX
8
OBJECT__0
10
1.724000
20
27.087000
30
51.491001
70
192
0
VERTEX
8
OBJECT__0
10
1.471000
20
27.082001
30
51.764999
70
192
0
VERTEX
8
OBJECT__0
10
1.870000
20
26.330999
30
51.652000
70
192
0
VERTEX
8
OBJECT__0
10
1.620000
20
26.408001
30
51.889000
70
192
0
VERTEX
8
OBJECT__0
10
1.955000
20
27.145000
30
51.210999
70
192
0
VERTEX
8
OBJECT__0
10
2.120000
20
26.254999
30
51.412998
70
192
0
VERTEX
8
OBJECT__0
10
-1.322000
20
25.080999
30
52.342999
70
192
0
VERTEX
8
OBJECT__0
10
-1.724000
20
25.629999
30
51.964001
70
192
0
VERTEX
8
OBJECT__0
10
-1.471000
20
25.797001
30
52.181999
70
192
0
VERTEX
8
OBJECT__0
10
-1.870000
20
26.334000
30
51.650002
70
192
0
VERTEX
8
OBJECT__0
10
-1.620000
20
26.412001
30
51.888000
70
192
0
VERTEX
8
OBJECT__0
10
-1.955000
20
25.421000
30
51.771000
70
192
0
VERTEX
8
OBJECT__0
10
-2.120000
20
26.257000
30
51.412998
70
192
0
VERTEX
8
OBJECT__0
10
-1.954000
20
25.419001
30
51.772999
70
192
0
VERTEX
8
OBJECT__0
10
0.002000
20
28.398001
30
51.569000
70
192
0
VERTEX
8
OBJECT__0
10
0.002000
20
28.073000
30
51.879002
70
192
0
VERTEX
8
OBJECT__0
10
-0.364000
20
28.066999
30
51.876999
70
192
0
VERTEX
8
OBJECT__0
10
-0.720000
20
28.224001
30
51.532001
70
192
0
VERTEX
8
OBJECT__0
10
0.722000
20
28.222000
30
51.532001
70
192
0
VERTEX
8
OBJECT__0
10
0.999000
20
27.723000
30
51.799999
70
192
0
VERTEX
8
OBJECT__0
10
1.119000
20
27.559999
30
51.791000
70
192
0
VERTEX
8
OBJECT__0
10
0.604000
20
27.930000
30
51.847000
70
192
0
VERTEX
8
OBJECT__0
10
0.322000
20
28.077999
30
51.880001
70
192
0
VERTEX
8
OBJECT__0
10
-1.723000
20
27.089001
30
51.491001
70
192
0
VERTEX
8
OBJECT__0
10
-1.493000
20
27.030001
30
51.768002
70
192
0
VERTEX
8
OBJECT__0
10
-1.321000
20
27.756001
30
51.473999
70
192
0
VERTEX
8
OBJECT__0
10
-1.124000
20
27.566999
30
51.789001
70
192
0
VERTEX
8
OBJECT__0
10
-0.602000
20
27.933001
30
51.848000
70
192
0
VERTEX
8
OBJECT__0
10
-1.045000
20
27.681999
30
51.792999
70
192
0
VERTEX
8
OBJECT__0
10
-0.752000
20
28.507000
30
51.217999
70
192
0
VERTEX
8
OBJECT__0
10
0.003000
20
28.674000
30
51.244999
70
192
0
VERTEX
8
OBJECT__0
10
1.440000
20
27.976999
30
51.173000
70
192
0
VERTEX
8
OBJECT__0
10
0.818000
20
28.475000
30
51.213001
70
192
0
VERTEX
8
OBJECT__0
10
1.499000
20
27.929001
30
51.169998
70
192
0
VERTEX
8
OBJECT__0
10
0.025000
20
28.679001
30
51.245998
70
192
0
VERTEX
8
OBJECT__0
10
-1.950000
20
27.155001
30
51.209999
70
192
0
VERTEX
8
OBJECT__0
10
-1.490000
20
27.926001
30
51.173000
70
192
0
VERTEX
8
OBJECT__0
10
-1.455000
20
27.976999
30
51.171001
70
192
0
VERTEX
8
OBJECT__0
10
-1.463000
20
27.971001
30
51.171001
70
192
0
VERTEX
8
OBJECT__0
10
-2.120000
20
26.257999
30
51.411999
70
192
0
VERTEX
8
OBJECT__0
10
0.751000
20
24.322001
30
52.577999
70
192
0
VERTEX
8
OBJECT__0
10
-0.005000
20
24.202999
30
52.698002
70
192
0
VERTEX
8
OBJECT__0
10
-0.003000
20
24.617001
30
52.797001
70
192
0
VERTEX
8
OBJECT__0
10
-1.441000
20
24.725000
30
52.230000
70
192
0
VERTEX
8
OBJECT__0
10
-0.722000
20
24.738001
30
52.664001
70
192
0
VERTEX
8
OBJECT__0
10
-0.819000
20
24.346001
30
52.555000
70
192
0
VERTEX
8
OBJECT__0
10
-0.027000
20
24.198999
30
52.701000
70
192
0
VERTEX
8
OBJECT__0
10
1.489000
20
24.764000
30
52.201000
70
192
0
VERTEX
8
OBJECT__0
10
1.320000
20
25.080000
30
52.344002
70
192
0
VERTEX
8
OBJECT__0
10
1.723000
20
25.627001
30
51.966000
70
192
0
VERTEX
8
OBJECT__0
10
1.455000
20
24.724001
30
52.228001
70
192
0
VERTEX
8
OBJECT__0
10
0.718000
20
24.736000
30
52.665001
70
192
0
VERTEX
8
OBJECT__0
10
1.464000
20
24.729000
30
52.223999
70
192
0
VERTEX
8
OBJECT__0
10
1.960000
20
25.414000
30
51.775002
70
192
0
VERTEX
8
OBJECT__0
10
-0.003000
20
25.062000
30
52.856998
70
192
0
VERTEX
8
OBJECT__0
10
0.360000
20
25.065001
30
52.853001
70
192
0
VERTEX
8
OBJECT__0
10
-1.000000
20
25.299000
30
52.587002
70
192
0
VERTEX
8
OBJECT__0
10
-1.119000
20
25.424999
30
52.485001
70
192
0
VERTEX
8
OBJECT__0
10
-0.605000
20
25.159000
30
52.747002
70
192
0
VERTEX
8
OBJECT__0
10
-0.322000
20
25.059000
30
52.861000
70
192
0
VERTEX
8
OBJECT__0
10
1.492000
20
25.837999
30
52.155998
70
192
0
VERTEX
8
OBJECT__0
10
1.123000
20
25.417999
30
52.487000
70
192
0
VERTEX
8
OBJECT__0
10
0.600000
20
25.157000
30
52.749001
70
192
0
VERTEX
8
OBJECT__0
10
1.044000
20
25.327000
30
52.557999
70
192
0
VERTEX
8
OBJECT__0
10
2.120000
20
26.253000
30
51.414001
70
192
0
VERTEX
8
OBJECT__0
10
-1.497000
20
24.759001
30
52.201000
70
192
0
VERTEX
8
OBJECT__0
10
0
20
0
30
0
70
128
71
1
72
2
73
3
0
VERTEX
8
OBJECT__0
10
0
20
0
30
0
70
128
71
2
72
4
73
5
0
VERTEX
8
OBJECT__0
10
0
20
0
30
0
70
128
71
5
72
3
73
2
0
VERTEX
8
OBJECT__0
10
0
20
0
30
0
70
128
71
6
72
7
73
4
0
VERTEX
8
OBJECT__0
10
0
20
0
30
0
70
128
71
4
72
2
73
6
0
VERTEX
8
OBJECT__0
10
0
20
0
30
0
70
128
71
8
72
9
73
10
0
VERTEX
8
OBJECT__0
10
0
20
0
30
0
70
128
71
9
72
11
73
12
0
VERTEX
8
OBJECT__0
10
0
20
0
30
0
70
128
71
12
72
10
73
9
0
VERTEX
8
OBJECT__0
10
0
20
0
30
0
70
128
71
13
72
14
73
11
0
VERTEX
8
OBJECT__0
10
0
20
0
30
0
70
128
71
9
72
15
73
13
0
VERTEX
8
OBJECT__0
10
0
20
0
30
0
70
128
71
16
72
17
73
18
0
VERTEX
8
OBJECT__0
10
0
20
0
30
0
70
128
71
18
72
19
73
16
0
VERTEX
8
OBJECT__0
10
0
20
0
30
0
70
128
71
20
72
1
73
21
0
VERTEX
8
OBJECT__0
10
0
20
0
30
0
70
128
71
1
72
22
73
21
0
VERTEX
8
OBJECT__0
10
0
20
0
30
0
70
128
71
20
72
23
73
24
0
VERTEX
8
OBJECT__0
10
0
20
0
30
0
70
128
71
24
72
16
73
20
0
VERTEX
8
OBJECT__0
10
0
20
0
30
0
70
128
71
25
72
26
73
12
0
VERTEX
8
OBJECT__0
10
0
20
0
30
0
70
128
71
27
72
28
73
26
0
VERTEX
8
OBJECT__0
10
0
20
0
30
0
70
128
71
26
72
25
73
27
0
VERTEX
8
OBJECT__0
10
0
20
0
30
0
70
128
71
19
72
29
73
30
0
VERTEX
8
OBJECT__0
10
0
20
0
30
0
70
128
71
30
72
27
73
19
0
VERTEX
8
OBJECT__0
10
0
20
0
30
0
70
128
71
31
72
32
73
16
0
VERTEX
8
OBJECT__0
10
0
20
0
30
0
70
128
71
33
72
1
73
20
0
VERTEX
8
OBJECT__0
10
0
20
0
30
0
70
128
71
20
72
34
73
33
0
VERTEX
8
OBJECT__0
10
0
20
0
30
0
70
128
71
35
72
6
73
2
0
VERTEX
8
OBJECT__0
10
0
20
0
30
0
70
128
71
36
72
34
73
20
0
VERTEX
8
OBJECT__0
10
0
20
0
30
0
70
128
71
16
72
32
73
36
0
VERTEX
8
OBJECT__0
10
0
20
0
30
0
70
128
71
37
72
38
73
27
0
VERTEX
8
OBJECT__0
10
0
20
0
30
0
70
128
71
39
72
31
73
19
0
VERTEX
8
OBJECT__0
10
0
20
0
30
0
70
128
71
27
72
38
73
40
0
VERTEX
8
OBJECT__0
10
0
20
0
30
0
70
128
71
40
72
39
73
27
0
VERTEX
8
OBJECT__0
10
0
20
0
30
0
70
128
71
41
72
37
73
25
0
VERTEX
8
OBJECT__0
10
0
20
0
30
0
70
128
71
11
72
14
73
41
0
VERTEX
8
OBJECT__0
10
0
20
0
30
0
70
128
71
42
72
43
73
44
0
VERTEX
8
OBJECT__0
10
0
20
0
30
0
70
128
71
45
72
8
73
46
0
VERTEX
8
OBJECT__0
10
0
20
0
30
0
70
128
71
46
72
47
73
45
0
VERTEX
8
OBJECT__0
10
0
20
0
30
0
70
128
71
15
72
9
73
8
0
VERTEX
8
OBJECT__0
10
0
20
0
30
0
70
128
71
48
72
47
73
46
0
VERTEX
8
OBJECT__0
10
0
20
0
30
0
70
128
71
44
72
43
73
48
0
VERTEX
8
OBJECT__0
10
0
20
0
30
0
70
128
71
49
72
50
73
51
0
VERTEX
8
OBJECT__0
10
0
20
0
30
0
70
128
71
52
72
42
73
53
0
VERTEX
8
OBJECT__0
10
0
20
0
30
0
70
128
71
50
72
49
73
54
0
VERTEX
8
OBJECT__0
10
0
20
0
30
0
70
128
71
54
72
52
73
50
0
VERTEX
8
OBJECT__0
10
0
20
0
30
0
70
128
71
55
72
51
73
4
0
VERTEX
8
OBJECT__0
10
0
20
0
30
0
70
128
71
44
72
56
73
57
0
VERTEX
8
OBJECT__0
10
0
20
0
30
0
70
128
71
57
72
53
73
44
0
VERTEX
8
OBJECT__0
10
0
20
0
30
0
70
128
71
46
72
8
73
58
0
VERTEX
8
OBJECT__0
10
0
20
0
30
0
70
128
71
8
72
59
73
58
0
VERTEX
8
OBJECT__0
10
0
20
0
30
0
70
128
71
46
72
60
73
61
0
VERTEX
8
OBJECT__0
10
0
20
0
30
0
70
128
71
61
72
44
73
46
0
VERTEX
8
OBJECT__0
10
0
20
0
30
0
70
128
71
51
72
62
73
5
0
VERTEX
8
OBJECT__0
10
0
20
0
30
0
70
128
71
50
72
63
73
62
0
VERTEX
8
OBJECT__0
10
0
20
0
30
0
70
128
71
62
72
51
73
50
0
VERTEX
8
OBJECT__0
10
0
20
0
30
0
70
128
71
53
72
64
73
65
0
VERTEX
8
OBJECT__0
10
0
20
0
30
0
70
128
71
65
72
50
73
53
0
VERTEX
8
OBJECT__0
10
0
20
0
30
0
70
128
71
65
72
63
73
50
0
VERTEX
8
OBJECT__0
10
0
20
0
30
0
70
128
71
5
72
4
73
51
0
VERTEX
8
OBJECT__0
10
0
20
0
30
0
70
128
71
61
72
56
73
44
0
VERTEX
8
OBJECT__0
10
0
20
0
30
0
70
128
71
58
72
60
73
46
0
VERTEX
8
OBJECT__0
10
0
20
0
30
0
70
128
71
57
72
64
73
53
0
VERTEX
8
OBJECT__0
10
0
20
0
30
0
70
128
71
4
72
66
73
55
0
VERTEX
8
OBJECT__0
10
0
20
0
30
0
70
128
71
53
72
50
73
52
0
VERTEX
8
OBJECT__0
10
0
20
0
30
0
70
128
71
51
72
55
73
49
0
VERTEX
8
OBJECT__0
10
0
20
0
30
0
70
128
71
46
72
44
73
48
0
VERTEX
8
OBJECT__0
10
0
20
0
30
0
70
128
71
8
72
67
73
15
0
VERTEX
8
OBJECT__0
10
0
20
0
30
0
70
128
71
45
72
67
73
8
0
VERTEX
8
OBJECT__0
10
0
20
0
30
0
70
128
71
44
72
53
73
42
0
VERTEX
8
OBJECT__0
10
0
20
0
30
0
70
128
71
25
72
11
73
41
0
VERTEX
8
OBJECT__0
10
0
20
0
30
0
70
128
71
19
72
27
73
39
0
VERTEX
8
OBJECT__0
10
0
20
0
30
0
70
128
71
27
72
25
73
37
0
VERTEX
8
OBJECT__0
10
0
20
0
30
0
70
128
71
20
72
16
73
36
0
VERTEX
8
OBJECT__0
10
0
20
0
30
0
70
128
71
2
72
1
73
35
0
VERTEX
8
OBJECT__0
10
0
20
0
30
0
70
128
71
33
72
35
73
1
0
VERTEX
8
OBJECT__0
10
0
20
0
30
0
70
128
71
16
72
19
73
31
0
VERTEX
8
OBJECT__0
10
0
20
0
30
0
70
128
71
30
72
28
73
27
0
VERTEX
8
OBJECT__0
10
0
20
0
30
0
70
128
71
12
72
11
73
25
0
VERTEX
8
OBJECT__0
10
0
20
0
30
0
70
128
71
24
72
17
73
16
0
VERTEX
8
OBJECT__0
10
0
20
0
30
0
70
128
71
21
72
23
73
20
0
VERTEX
8
OBJECT__0
10
0
20
0
30
0
70
128
71
18
72
29
73
19
0
VERTEX
8
OBJECT__0
10
0
20
0
30
0
70
128
71
11
72
9
73
13
0
VERTEX
8
OBJECT__0
10
0
20
0
30
0
70
128
71
10
72
59
73
8
0
VERTEX
8
OBJECT__0
10
0
20
0
30
0
70
128
71
7
72
66
73
4
0
VERTEX
8
OBJECT__0
10
0
20
0
30
0
70
128
71
3
72
22
73
1
0
SEQEND
8
OBJECT__0
0
POLYLINE
8
OBJECT__1
66
1
70
64
71
69
72
71
62
253
0
VERTEX
8
OBJECT__1
10
-8.500000
20
31.919001
30
58.744999
70
192
0
VERTEX
8
OBJECT__1
10
-8.500000
20
31.379999
30
59.660999
70
192
0
VERTEX
8
OBJECT__1
10
8.500000
20
31.379999
30
59.660999
70
192
0
VERTEX
8
OBJECT__1
10
-8.500000
20
29.347000
30
60.923000
70
192
0
VERTEX
8
OBJECT__1
10
8.500000
20
29.347000
30
60.923000
70
192
0
VERTEX
8
OBJECT__1
10
8.500000
20
32.592999
30
57.598000
70
192
0
VERTEX
8
OBJECT__1
10
-8.500000
20
32.592999
30
57.598000
70
192
0
VERTEX
8
OBJECT__1
10
8.500000
20
32.695999
30
55.469002
70
192
0
VERTEX
8
OBJECT__1
10
-8.500000
20
32.695999
30
55.469002
70
192
0
VERTEX
8
OBJECT__1
10
8.500000
20
31.069000
30
52.555000
70
192
0
VERTEX
8
OBJECT__1
10
-8.500000
20
31.069000
30
52.555000
70
192
0
VERTEX
8
OBJECT__1
10
-8.500000
20
31.701000
30
53.036999
70
192
0
VERTEX
8
OBJECT__1
10
8.500000
20
31.701000
30
53.036999
70
192
0
VERTEX
8
OBJECT__1
10
-8.500000
20
32.709000
30
55.207001
70
192
0
VERTEX
8
OBJECT__1
10
8.500000
20
32.709000
30
55.207001
70
192
0
VERTEX
8
OBJECT__1
10
-8.500000
20
23.431999
30
58.480000
70
192
0
VERTEX
8
OBJECT__1
10
-8.500000
20
23.268000
30
58.275002
70
192
0
VERTEX
8
OBJECT__1
10
8.500000
20
23.268000
30
58.275002
70
192
0
VERTEX
8
OBJECT__1
10
8.500000
20
22.808001
30
55.925999
70
192
0
VERTEX
8
OBJECT__1
10
-8.500000
20
22.808001
30
55.925999
70
192
0
VERTEX
8
OBJECT__1
10
8.500000
20
23.035000
30
55.165001
70
192
0
VERTEX
8
OBJECT__1
10
-8.500000
20
23.035000
30
55.165001
70
192
0
VERTEX
8
OBJECT__1
10
-8.500000
20
25.986000
30
60.672001
70
192
0
VERTEX
8
OBJECT__1
10
-8.500000
20
24.766001
30
60.140999
70
192
0
VERTEX
8
OBJECT__1
10
8.500000
20
24.766001
30
60.140999
70
192
0
VERTEX
8
OBJECT__1
10
8.500000
20
23.431999
30
58.480000
70
192
0
VERTEX
8
OBJECT__1
10
-8.500000
20
26.959999
30
61.097000
70
192
0
VERTEX
8
OBJECT__1
10
8.500000
20
26.959999
30
61.097000
70
192
0
VERTEX
8
OBJECT__1
10
8.500000
20
25.986000
30
60.672001
70
192
0
VERTEX
8
OBJECT__1
10
8.500000
20
23.492001
30
53.632999
70
192
0
VERTEX
8
OBJECT__1
10
0.751000
20
24.322001
30
52.577999
70
192
0
VERTEX
8
OBJECT__1
10
1.455000
20
24.724001
30
52.228001
70
192
0
VERTEX
8
OBJECT__1
10
8.500000
20
24.796000
30
52.298000
70
192
0
VERTEX
8
OBJECT__1
10
-0.027000
20
24.198999
30
52.701000
70
192
0
VERTEX
8
OBJECT__1
10
-0.005000
20
24.202999
30
52.698002
70
192
0
VERTEX
8
OBJECT__1
10
-8.500000
20
23.492001
30
53.632999
70
192
0
VERTEX
8
OBJECT__1
10
-8.500000
20
24.796000
30
52.298000
70
192
0
VERTEX
8
OBJECT__1
10
-1.441000
20
24.725000
30
52.230000
70
192
0
VERTEX
8
OBJECT__1
10
-0.819000
20
24.346001
30
52.555000
70
192
0
VERTEX
8
OBJECT__1
10
8.500000
20
27.959999
30
51.270000
70
192
0
VERTEX
8
OBJECT__1
10
1.960000
20
25.414000
30
51.775002
70
192
0
VERTEX
8
OBJECT__1
10
2.120000
20
26.253000
30
51.414001
70
192
0
VERTEX
8
OBJECT__1
10
2.120000
20
26.254999
30
51.412998
70
192
0
VERTEX
8
OBJECT__1
10
1.955000
20
27.145000
30
51.210999
70
192
0
VERTEX
8
OBJECT__1
10
1.464000
20
24.729000
30
52.223999
70
192
0
VERTEX
8
OBJECT__1
10
1.489000
20
24.764000
30
52.201000
70
192
0
VERTEX
8
OBJECT__1
10
1.499000
20
27.929001
30
51.169998
70
192
0
VERTEX
8
OBJECT__1
10
8.500000
20
27.440001
30
51.181000
70
192
0
VERTEX
8
OBJECT__1
10
8.500000
20
25.164000
30
51.921001
70
192
0
VERTEX
8
OBJECT__1
10
1.440000
20
27.976999
30
51.173000
70
192
0
VERTEX
8
OBJECT__1
10
-8.500000
20
29.799000
30
51.584000
70
192
0
VERTEX
8
OBJECT__1
10
-0.752000
20
28.507000
30
51.217999
70
192
0
VERTEX
8
OBJECT__1
10
-1.455000
20
27.976999
30
51.171001
70
192
0
VERTEX
8
OBJECT__1
10
-8.500000
20
27.959999
30
51.270000
70
192
0
VERTEX
8
OBJECT__1
10
0.025000
20
28.679001
30
51.245998
70
192
0
VERTEX
8
OBJECT__1
10
0.003000
20
28.674000
30
51.244999
70
192
0
VERTEX
8
OBJECT__1
10
8.500000
20
29.799000
30
51.584000
70
192
0
VERTEX
8
OBJECT__1
10
0.818000
20
28.475000
30
51.213001
70
192
0
VERTEX
8
OBJECT__1
10
-1.955000
20
25.421000
30
51.771000
70
192
0
VERTEX
8
OBJECT__1
10
-1.954000
20
25.419001
30
51.772999
70
192
0
VERTEX
8
OBJECT__1
10
-2.120000
20
26.257999
30
51.411999
70
192
0
VERTEX
8
OBJECT__1
10
-2.120000
20
26.257000
30
51.412998
70
192
0
VERTEX
8
OBJECT__1
10
-1.950000
20
27.155001
30
51.209999
70
192
0
VERTEX
8
OBJECT__1
10
-1.463000
20
27.971001
30
51.171001
70
192
0
VERTEX
8
OBJECT__1
10
-1.490000
20
27.926001
30
51.173000
70
192
0
VERTEX
8
OBJECT__1
10
-1.497000
20
24.759001
30
52.201000
70
192
0
VERTEX
8
OBJECT__1
10
-8.500000
20
25.164000
30
51.921001
70
192
0
VERTEX
8
OBJECT__1
10
-8.500000
20
27.440001
30
51.181000
70
192
0
VERTEX
8
OBJECT__1
10
8.500000
20
31.919001
30
58.744999
70
192
0
VERTEX
8
OBJECT__1
10
0
20
0
30
0
70
128
71
1
72
2
73
3
0
VERTEX
8
OBJECT__1
10
0
20
0
30
0
70
128
71
4
72
5
73
3
0
VERTEX
8
OBJECT__1
10
0
20
0
30
0
70
128
71
3
72
2
73
4
0
VERTEX
8
OBJECT__1
10
0
20
0
30
0
70
128
71
6
72
7
73
1
0
VERTEX
8
OBJECT__1
10
0
20
0
30
0
70
128
71
7
72
6
73
8
0
VERTEX
8
OBJECT__1
10
0
20
0
30
0
70
128
71
8
72
9
73
7
0
VERTEX
8
OBJECT__1
10
0
20
0
30
0
70
128
71
10
72
11
73
12
0
VERTEX
8
OBJECT__1
10
0
20
0
30
0
70
128
71
13
72
12
73
14
0
VERTEX
8
OBJECT__1
10
0
20
0
30
0
70
128
71
14
72
15
73
13
0
VERTEX
8
OBJECT__1
10
0
20
0
30
0
70
128
71
15
72
14
73
9
0
VERTEX
8
OBJECT__1
10
0
20
0
30
0
70
128
71
9
72
8
73
15
0
VERTEX
8
OBJECT__1
10
0
20
0
30
0
70
128
71
16
72
17
73
18
0
VERTEX
8
OBJECT__1
10
0
20
0
30
0
70
128
71
19
72
18
73
17
0
VERTEX
8
OBJECT__1
10
0
20
0
30
0
70
128
71
17
72
20
73
19
0
VERTEX
8
OBJECT__1
10
0
20
0
30
0
70
128
71
21
72
19
73
20
0
VERTEX
8
OBJECT__1
10
0
20
0
30
0
70
128
71
20
72
22
73
21
0
VERTEX
8
OBJECT__1
10
0
20
0
30
0
70
128
71
23
72
24
73
25
0
VERTEX
8
OBJECT__1
10
0
20
0
30
0
70
128
71
24
72
16
73
26
0
VERTEX
8
OBJECT__1
10
0
20
0
30
0
70
128
71
26
72
25
73
24
0
VERTEX
8
OBJECT__1
10
0
20
0
30
0
70
128
71
4
72
27
73
28
0
VERTEX
8
OBJECT__1
10
0
20
0
30
0
70
128
71
29
72
28
73
27
0
VERTEX
8
OBJECT__1
10
0
20
0
30
0
70
128
71
27
72
23
73
29
0
VERTEX
8
OBJECT__1
10
0
20
0
30
0
70
128
71
30
72
31
73
32
0
VERTEX
8
OBJECT__1
10
0
20
0
30
0
70
128
71
32
72
33
73
30
0
VERTEX
8
OBJECT__1
10
0
20
0
30
0
70
128
71
21
72
22
73
34
0
VERTEX
8
OBJECT__1
10
0
20
0
30
0
70
128
71
34
72
35
73
21
0
VERTEX
8
OBJECT__1
10
0
20
0
30
0
70
128
71
35
72
31
73
21
0
VERTEX
8
OBJECT__1
10
0
20
0
30
0
70
128
71
36
72
37
73
38
0
VERTEX
8
OBJECT__1
10
0
20
0
30
0
70
128
71
39
72
22
73
36
0
VERTEX
8
OBJECT__1
10
0
20
0
30
0
70
128
71
38
72
39
73
36
0
VERTEX
8
OBJECT__1
10
0
20
0
30
0
70
128
71
39
72
34
73
22
0
VERTEX
8
OBJECT__1
10
0
20
0
30
0
70
128
71
40
72
41
73
42
0
VERTEX
8
OBJECT__1
10
0
20
0
30
0
70
128
71
42
72
43
73
40
0
VERTEX
8
OBJECT__1
10
0
20
0
30
0
70
128
71
43
72
44
73
40
0
VERTEX
8
OBJECT__1
10
0
20
0
30
0
70
128
71
40
72
45
73
46
0
VERTEX
8
OBJECT__1
10
0
20
0
30
0
70
128
71
46
72
41
73
40
0
VERTEX
8
OBJECT__1
10
0
20
0
30
0
70
128
71
44
72
47
73
40
0
VERTEX
8
OBJECT__1
10
0
20
0
30
0
70
128
71
33
72
32
73
45
0
VERTEX
8
OBJECT__1
10
0
20
0
30
0
70
128
71
45
72
48
73
49
0
VERTEX
8
OBJECT__1
10
0
20
0
30
0
70
128
71
45
72
40
73
48
0
VERTEX
8
OBJECT__1
10
0
20
0
30
0
70
128
71
45
72
49
73
33
0
VERTEX
8
OBJECT__1
10
0
20
0
30
0
70
128
71
47
72
50
73
40
0
VERTEX
8
OBJECT__1
10
0
20
0
30
0
70
128
71
51
72
52
73
53
0
VERTEX
8
OBJECT__1
10
0
20
0
30
0
70
128
71
53
72
54
73
51
0
VERTEX
8
OBJECT__1
10
0
20
0
30
0
70
128
71
11
72
10
73
55
0
VERTEX
8
OBJECT__1
10
0
20
0
30
0
70
128
71
55
72
56
73
11
0
VERTEX
8
OBJECT__1
10
0
20
0
30
0
70
128
71
56
72
52
73
11
0
VERTEX
8
OBJECT__1
10
0
20
0
30
0
70
128
71
57
72
40
73
50
0
VERTEX
8
OBJECT__1
10
0
20
0
30
0
70
128
71
58
72
10
73
57
0
VERTEX
8
OBJECT__1
10
0
20
0
30
0
70
128
71
50
72
58
73
57
0
VERTEX
8
OBJECT__1
10
0
20
0
30
0
70
128
71
58
72
55
73
10
0
VERTEX
8
OBJECT__1
10
0
20
0
30
0
70
128
71
37
72
59
73
60
0
VERTEX
8
OBJECT__1
10
0
20
0
30
0
70
128
71
37
72
61
73
62
0
VERTEX
8
OBJECT__1
10
0
20
0
30
0
70
128
71
37
72
63
73
61
0
VERTEX
8
OBJECT__1
10
0
20
0
30
0
70
128
71
62
72
59
73
37
0
VERTEX
8
OBJECT__1
10
0
20
0
30
0
70
128
71
37
72
64
73
65
0
VERTEX
8
OBJECT__1
10
0
20
0
30
0
70
128
71
65
72
63
73
37
0
VERTEX
8
OBJECT__1
10
0
20
0
30
0
70
128
71
60
72
66
73
37
0
VERTEX
8
OBJECT__1
10
0
20
0
30
0
70
128
71
54
72
53
73
64
0
VERTEX
8
OBJECT__1
10
0
20
0
30
0
70
128
71
64
72
67
73
68
0
VERTEX
8
OBJECT__1
10
0
20
0
30
0
70
128
71
64
72
37
73
67
0
VERTEX
8
OBJECT__1
10
0
20
0
30
0
70
128
71
64
72
68
73
54
0
VERTEX
8
OBJECT__1
10
0
20
0
30
0
70
128
71
66
72
38
73
37
0
VERTEX
8
OBJECT__1
10
0
20
0
30
0
70
128
71
51
72
11
73
52
0
VERTEX
8
OBJECT__1
10
0
20
0
30
0
70
128
71
30
72
21
73
31
0
VERTEX
8
OBJECT__1
10
0
20
0
30
0
70
128
71
28
72
5
73
4
0
VERTEX
8
OBJECT__1
10
0
20
0
30
0
70
128
71
25
72
29
73
23
0
VERTEX
8
OBJECT__1
10
0
20
0
30
0
70
128
71
18
72
26
73
16
0
VERTEX
8
OBJECT__1
10
0
20
0
30
0
70
128
71
12
72
13
73
10
0
VERTEX
8
OBJECT__1
10
0
20
0
30
0
70
128
71
1
72
69
73
6
0
VERTEX
8
OBJECT__1
10
0
20
0
30
0
70
128
71
3
72
69
73
1
0
SEQEND
8
OBJECT__1
0
POLYLINE
8
OBJECT__3
66
1
70
64
71
47
72
60
62
253
0
VERTEX
8
OBJECT__3
10
8.854000
20
29.302000
30
60.784000
70
192
0
VERTEX
8
OBJECT__3
10
9.000000
20
29.193001
30
60.448002
70
192
0
VERTEX
8
OBJECT__3
10
9.000000
20
31.021999
30
59.311001
70
192
0
VERTEX
8
OBJECT__3
10
8.854000
20
31.275000
30
59.557999
70
192
0
VERTEX
8
OBJECT__3
10
9.000000
20
32.113998
30
57.455002
70
192
0
VERTEX
8
OBJECT__3
10
8.854000
20
32.564999
30
55.236000
70
192
0
VERTEX
8
OBJECT__3
10
8.854000
20
32.452999
30
57.556000
70
192
0
VERTEX
8
OBJECT__3
10
8.854000
20
31.586000
30
53.129002
70
192
0
VERTEX
8
OBJECT__3
10
9.000000
20
32.217999
30
55.303001
70
192
0
VERTEX
8
OBJECT__3
10
8.854000
20
29.740999
30
51.717999
70
192
0
VERTEX
8
OBJECT__3
10
9.000000
20
31.311001
30
53.349998
70
192
0
VERTEX
8
OBJECT__3
10
8.854000
20
27.451000
30
51.327000
70
192
0
VERTEX
8
OBJECT__3
10
9.000000
20
29.599001
30
52.042000
70
192
0
VERTEX
8
OBJECT__3
10
8.854000
20
25.240999
30
52.044998
70
192
0
VERTEX
8
OBJECT__3
10
9.000000
20
27.476000
30
51.680000
70
192
0
VERTEX
8
OBJECT__3
10
8.854000
20
23.618999
30
53.707001
70
192
0
VERTEX
8
OBJECT__3
10
9.000000
20
25.427999
30
52.345001
70
192
0
VERTEX
8
OBJECT__3
10
8.854000
20
22.954000
30
55.933998
70
192
0
VERTEX
8
OBJECT__3
10
9.000000
20
23.923000
30
53.887001
70
192
0
VERTEX
8
OBJECT__3
10
8.854000
20
23.400999
30
58.213001
70
192
0
VERTEX
8
OBJECT__3
10
9.000000
20
23.306999
30
55.951000
70
192
0
VERTEX
8
OBJECT__3
10
8.854000
20
24.855000
30
60.025002
70
192
0
VERTEX
8
OBJECT__3
10
9.000000
20
23.721001
30
58.063999
70
192
0
VERTEX
8
OBJECT__3
10
9.000000
20
25.070000
30
59.743999
70
192
0
VERTEX
8
OBJECT__3
10
9.000000
20
27.045000
30
60.604000
70
192
0
VERTEX
8
OBJECT__3
10
8.854000
20
26.985001
30
60.952000
70
192
0
VERTEX
8
OBJECT__3
10
8.500000
20
31.379999
30
59.660999
70
192
0
VERTEX
8
OBJECT__3
10
8.500000
20
29.347000
30
60.923000
70
192
0
VERTEX
8
OBJECT__3
10
8.500000
20
32.592999
30
57.598000
70
192
0
VERTEX
8
OBJECT__3
10
8.500000
20
31.919001
30
58.744999
70
192
0
VERTEX
8
OBJECT__3
10
8.500000
20
32.695999
30
55.469002
70
192
0
VERTEX
8
OBJECT__3
10
8.500000
20
32.709000
30
55.207001
70
192
0
VERTEX
8
OBJECT__3
10
8.500000
20
29.799000
30
51.584000
70
192
0
VERTEX
8
OBJECT__3
10
8.500000
20
31.069000
30
52.555000
70
192
0
VERTEX
8
OBJECT__3
10
8.500000
20
27.959999
30
51.270000
70
192
0
VERTEX
8
OBJECT__3
10
8.500000
20
27.440001
30
51.181000
70
192
0
VERTEX
8
OBJECT__3
10
8.500000
20
23.492001
30
53.632999
70
192
0
VERTEX
8
OBJECT__3
10
8.500000
20
24.796000
30
52.298000
70
192
0
VERTEX
8
OBJECT__3
10
8.500000
20
23.035000
30
55.165001
70
192
0
VERTEX
8
OBJECT__3
10
8.500000
20
22.808001
30
55.925999
70
192
0
VERTEX
8
OBJECT__3
10
8.500000
20
23.268000
30
58.275002
70
192
0
VERTEX
8
OBJECT__3
10
8.500000
20
24.766001
30
60.140999
70
192
0
VERTEX
8
OBJECT__3
10
8.500000
20
23.431999
30
58.480000
70
192
0
VERTEX
8
OBJECT__3
10
8.500000
20
25.986000
30
60.672001
70
192
0
VERTEX
8
OBJECT__3
10
8.500000
20
26.959999
30
61.097000
70
192
0
VERTEX
8
OBJECT__3
10
8.500000
20
25.164000
30
51.921001
70
192
0
VERTEX
8
OBJECT__3
10
8.500000
20
31.701000
30
53.036999
70
192
0
VERTEX
8
OBJECT__3
10
0
20
0
30
0
70
128
71
1
72
2
73
3
0
VERTEX
8
OBJECT__3
10
0
20
0
30
0
70
128
71
4
72
3
73
5
0
VERTEX
8
OBJECT__3
10
0
20
0
30
0
70
128
71
6
72
7
73
5
0
VERTEX
8
OBJECT__3
10
0
20
0
30
0
70
128
71
8
72
6
73
9
0
VERTEX
8
OBJECT__3
10
0
20
0
30
0
70
128
71
10
72
8
73
11
0
VERTEX
8
OBJECT__3
10
0
20
0
30
0
70
128
71
12
72
10
73
13
0
VERTEX
8
OBJECT__3
10
0
20
0
30
0
70
128
71
14
72
12
73
15
0
VERTEX
8
OBJECT__3
10
0
20
0
30
0
70
128
71
16
72
14
73
17
0
VERTEX
8
OBJECT__3
10
0
20
0
30
0
70
128
71
18
72
16
73
19
0
VERTEX
8
OBJECT__3
10
0
20
0
30
0
70
128
71
20
72
18
73
21
0
VERTEX
8
OBJECT__3
10
0
20
0
30
0
70
128
71
22
72
20
73
23
0
VERTEX
8
OBJECT__3
10
0
20
0
30
0
70
128
71
22
72
24
73
25
0
VERTEX
8
OBJECT__3
10
0
20
0
30
0
70
128
71
1
72
26
73
25
0
VERTEX
8
OBJECT__3
10
0
20
0
30
0
70
128
71
27
72
28
73
1
0
VERTEX
8
OBJECT__3
10
0
20
0
30
0
70
128
71
7
72
29
73
30
0
VERTEX
8
OBJECT__3
10
0
20
0
30
0
70
128
71
30
72
4
73
7
0
VERTEX
8
OBJECT__3
10
0
20
0
30
0
70
128
71
7
72
6
73
31
0
VERTEX
8
OBJECT__3
10
0
20
0
30
0
70
128
71
6
72
32
73
31
0
VERTEX
8
OBJECT__3
10
0
20
0
30
0
70
128
71
32
72
6
73
8
0
VERTEX
8
OBJECT__3
10
0
20
0
30
0
70
128
71
10
72
33
73
34
0
VERTEX
8
OBJECT__3
10
0
20
0
30
0
70
128
71
34
72
8
73
10
0
VERTEX
8
OBJECT__3
10
0
20
0
30
0
70
128
71
10
72
12
73
35
0
VERTEX
8
OBJECT__3
10
0
20
0
30
0
70
128
71
12
72
36
73
35
0
VERTEX
8
OBJECT__3
10
0
20
0
30
0
70
128
71
36
72
12
73
14
0
VERTEX
8
OBJECT__3
10
0
20
0
30
0
70
128
71
16
72
37
73
38
0
VERTEX
8
OBJECT__3
10
0
20
0
30
0
70
128
71
38
72
14
73
16
0
VERTEX
8
OBJECT__3
10
0
20
0
30
0
70
128
71
16
72
18
73
39
0
VERTEX
8
OBJECT__3
10
0
20
0
30
0
70
128
71
18
72
40
73
39
0
VERTEX
8
OBJECT__3
10
0
20
0
30
0
70
128
71
41
72
40
73
18
0
VERTEX
8
OBJECT__3
10
0
20
0
30
0
70
128
71
22
72
42
73
43
0
VERTEX
8
OBJECT__3
10
0
20
0
30
0
70
128
71
43
72
20
73
22
0
VERTEX
8
OBJECT__3
10
0
20
0
30
0
70
128
71
22
72
26
73
44
0
VERTEX
8
OBJECT__3
10
0
20
0
30
0
70
128
71
26
72
45
73
44
0
VERTEX
8
OBJECT__3
10
0
20
0
30
0
70
128
71
28
72
45
73
26
0
VERTEX
8
OBJECT__3
10
0
20
0
30
0
70
128
71
26
72
1
73
28
0
VERTEX
8
OBJECT__3
10
0
20
0
30
0
70
128
71
44
72
42
73
22
0
VERTEX
8
OBJECT__3
10
0
20
0
30
0
70
128
71
43
72
41
73
20
0
VERTEX
8
OBJECT__3
10
0
20
0
30
0
70
128
71
18
72
20
73
41
0
VERTEX
8
OBJECT__3
10
0
20
0
30
0
70
128
71
39
72
37
73
16
0
VERTEX
8
OBJECT__3
10
0
20
0
30
0
70
128
71
38
72
46
73
14
0
VERTEX
8
OBJECT__3
10
0
20
0
30
0
70
128
71
14
72
46
73
36
0
VERTEX
8
OBJECT__3
10
0
20
0
30
0
70
128
71
35
72
33
73
10
0
VERTEX
8
OBJECT__3
10
0
20
0
30
0
70
128
71
34
72
47
73
8
0
VERTEX
8
OBJECT__3
10
0
20
0
30
0
70
128
71
8
72
47
73
32
0
VERTEX
8
OBJECT__3
10
0
20
0
30
0
70
128
71
31
72
29
73
7
0
VERTEX
8
OBJECT__3
10
0
20
0
30
0
70
128
71
30
72
27
73
4
0
VERTEX
8
OBJECT__3
10
0
20
0
30
0
70
128
71
1
72
4
73
27
0
VERTEX
8
OBJECT__3
10
0
20
0
30
0
70
128
71
25
72
2
73
1
0
VERTEX
8
OBJECT__3
10
0
20
0
30
0
70
128
71
25
72
26
73
22
0
VERTEX
8
OBJECT__3
10
0
20
0
30
0
70
128
71
23
72
24
73
22
0
VERTEX
8
OBJECT__3
10
0
20
0
30
0
70
128
71
21
72
23
73
20
0
VERTEX
8
OBJECT__3
10
0
20
0
30
0
70
128
71
19
72
21
73
18
0
VERTEX
8
OBJECT__3
10
0
20
0
30
0
70
128
71
17
72
19
73
16
0
VERTEX
8
OBJECT__3
10
0
20
0
30
0
70
128
71
15
72
17
73
14
0
VERTEX
8
OBJECT__3
10
0
20
0
30
0
70
128
71
13
72
15
73
12
0
VERTEX
8
OBJECT__3
10
0
20
0
30
0
70
128
71
11
72
13
73
10
0
VERTEX
8
OBJECT__3
10
0
20
0
30
0
70
128
71
9
72
11
73
8
0
VERTEX
8
OBJECT__3
10
0
20
0
30
0
70
128
71
5
72
9
73
6
0
VERTEX
8
OBJECT__3
10
0
20
0
30
0
70
128
71
5
72
7
73
4
0
VERTEX
8
OBJECT__3
10
0
20
0
30
0
70
128
71
3
72
4
73
1
0
SEQEND
8
OBJECT__3
0
POLYLINE
8
OBJECT__4
66
1
70
64
71
13
72
11
62
253
0
VERTEX
8
OBJECT__4
10
9.000000
20
27.045000
30
60.604000
70
192
0
VERTEX
8
OBJECT__4
10
9.000000
20
32.113998
30
57.455002
70
192
0
VERTEX
8
OBJECT__4
10
9.000000
20
31.021999
30
59.311001
70
192
0
VERTEX
8
OBJECT__4
10
9.000000
20
23.306999
30
55.951000
70
192
0
VERTEX
8
OBJECT__4
10
9.000000
20
23.923000
30
53.887001
70
192
0
VERTEX
8
OBJECT__4
10
9.000000
20
25.070000
30
59.743999
70
192
0
VERTEX
8
OBJECT__4
10
9.000000
20
32.217999
30
55.303001
70
192
0
VERTEX
8
OBJECT__4
10
9.000000
20
25.427999
30
52.345001
70
192
0
VERTEX
8
OBJECT__4
10
9.000000
20
27.476000
30
51.680000
70
192
0
VERTEX
8
OBJECT__4
10
9.000000
20
23.721001
30
58.063999
70
192
0
VERTEX
8
OBJECT__4
10
9.000000
20
31.311001
30
53.349998
70
192
0
VERTEX
8
OBJECT__4
10
9.000000
20
29.599001
30
52.042000
70
192
0
VERTEX
8
OBJECT__4
10
9.000000
20
29.193001
30
60.448002
70
192
0
VERTEX
8
OBJECT__4
10
0
20
0
30
0
70
128
71
1
72
2
73
3
0
VERTEX
8
OBJECT__4
10
0
20
0
30
0
70
128
71
1
72
4
73
5
0
VERTEX
8
OBJECT__4
10
0
20
0
30
0
70
128
71
4
72
1
73
6
0
VERTEX
8
OBJECT__4
10
0
20
0
30
0
70
128
71
1
72
7
73
2
0
VERTEX
8
OBJECT__4
10
0
20
0
30
0
70
128
71
1
72
8
73
9
0
VERTEX
8
OBJECT__4
10
0
20
0
30
0
70
128
71
6
72
10
73
4
0
VERTEX
8
OBJECT__4
10
0
20
0
30
0
70
128
71
1
72
11
73
7
0
VERTEX
8
OBJECT__4
10
0
20
0
30
0
70
128
71
5
72
8
73
1
0
VERTEX
8
OBJECT__4
10
0
20
0
30
0
70
128
71
1
72
12
73
11
0
VERTEX
8
OBJECT__4
10
0
20
0
30
0
70
128
71
3
72
13
73
1
0
VERTEX
8
OBJECT__4
10
0
20
0
30
0
70
128
71
9
72
12
73
1
0
SEQEND
8
OBJECT__4
0
POLYLINE
8
OBJECT__5
66
1
70
64
71
34
72
34
62
253
0
VERTEX
8
OBJECT__5
10
-8.500000
20
31.379999
30
59.660999
70
192
0
VERTEX
8
OBJECT__5
10
-9.000000
20
31.021999
30
59.311001
70
192
0
VERTEX
8
OBJECT__5
10
-9.000000
20
29.193001
30
60.448002
70
192
0
VERTEX
8
OBJECT__5
10
-9.000000
20
32.113998
30
57.455002
70
192
0
VERTEX
8
OBJECT__5
10
-8.500000
20
31.919001
30
58.744999
70
192
0
VERTEX
8
OBJECT__5
10
-8.500000
20
32.592999
30
57.598000
70
192
0
VERTEX
8
OBJECT__5
10
-8.500000
20
32.695999
30
55.469002
70
192
0
VERTEX
8
OBJECT__5
10
-9.000000
20
32.217999
30
55.303001
70
192
0
VERTEX
8
OBJECT__5
10
-8.500000
20
31.701000
30
53.036999
70
192
0
VERTEX
8
OBJECT__5
10
-9.000000
20
31.311001
30
53.349998
70
192
0
VERTEX
8
OBJECT__5
10
-9.000000
20
29.599001
30
52.042000
70
192
0
VERTEX
8
OBJECT__5
10
-8.500000
20
31.069000
30
52.555000
70
192
0
VERTEX
8
OBJECT__5
10
-8.500000
20
29.799000
30
51.584000
70
192
0
VERTEX
8
OBJECT__5
10
-8.500000
20
27.959999
30
51.270000
70
192
0
VERTEX
8
OBJECT__5
10
-9.000000
20
27.476000
30
51.680000
70
192
0
VERTEX
8
OBJECT__5
10
-8.500000
20
25.164000
30
51.921001
70
192
0
VERTEX
8
OBJECT__5
10
-9.000000
20
25.427999
30
52.345001
70
192
0
VERTEX
8
OBJECT__5
10
-9.000000
20
23.923000
30
53.887001
70
192
0
VERTEX
8
OBJECT__5
10
-8.500000
20
24.796000
30
52.298000
70
192
0
VERTEX
8
OBJECT__5
10
-8.500000
20
23.492001
30
53.632999
70
192
0
VERTEX
8
OBJECT__5
10
-8.500000
20
23.035000
30
55.165001
70
192
0
VERTEX
8
OBJECT__5
10
-9.000000
20
23.306999
30
55.951000
70
192
0
VERTEX
8
OBJECT__5
10
-8.500000
20
23.268000
30
58.275002
70
192
0
VERTEX
8
OBJECT__5
10
-9.000000
20
23.721001
30
58.063999
70
192
0
VERTEX
8
OBJECT__5
10
-9.000000
20
25.070000
30
59.743999
70
192
0
VERTEX
8
OBJECT__5
10
-8.500000
20
23.431999
30
58.480000
70
192
0
VERTEX
8
OBJECT__5
10
-8.500000
20
24.766001
30
60.140999
70
192
0
VERTEX
8
OBJECT__5
10
-8.500000
20
25.986000
30
60.672001
70
192
0
VERTEX
8
OBJECT__5
10
-9.000000
20
27.045000
30
60.604000
70
192
0
VERTEX
8
OBJECT__5
10
-8.500000
20
29.347000
30
60.923000
70
192
0
VERTEX
8
OBJECT__5
10
-8.500000
20
26.959999
30
61.097000
70
192
0
VERTEX
8
OBJECT__5
10
-8.500000
20
22.808001
30
55.925999
70
192
0
VERTEX
8
OBJECT__5
10
-8.500000
20
27.440001
30
51.181000
70
192
0
VERTEX
8
OBJECT__5
10
-8.500000
20
32.709000
30
55.207001
70
192
0
VERTEX
8
OBJECT__5
10
0
20
0
30
0
70
128
71
1
72
2
73
3
0
VERTEX
8
OBJECT__5
10
0
20
0
30
0
70
128
71
4
72
2
73
5
0
VERTEX
8
OBJECT__5
10
0
20
0
30
0
70
128
71
2
72
1
73
5
0
VERTEX
8
OBJECT__5
10
0
20
0
30
0
70
128
71
4
72
6
73
7
0
VERTEX
8
OBJECT__5
10
0
20
0
30
0
70
128
71
7
72
8
73
4
0
VERTEX
8
OBJECT__5
10
0
20
0
30
0
70
128
71
9
72
10
73
8
0
VERTEX
8
OBJECT__5
10
0
20
0
30
0
70
128
71
11
72
10
73
12
0
VERTEX
8
OBJECT__5
10
0
20
0
30
0
70
128
71
10
72
9
73
12
0
VERTEX
8
OBJECT__5
10
0
20
0
30
0
70
128
71
11
72
13
73
14
0
VERTEX
8
OBJECT__5
10
0
20
0
30
0
70
128
71
14
72
15
73
11
0
VERTEX
8
OBJECT__5
10
0
20
0
30
0
70
128
71
16
72
17
73
15
0
VERTEX
8
OBJECT__5
10
0
20
0
30
0
70
128
71
18
72
17
73
19
0
VERTEX
8
OBJECT__5
10
0
20
0
30
0
70
128
71
17
72
16
73
19
0
VERTEX
8
OBJECT__5
10
0
20
0
30
0
70
128
71
18
72
20
73
21
0
VERTEX
8
OBJECT__5
10
0
20
0
30
0
70
128
71
21
72
22
73
18
0
VERTEX
8
OBJECT__5
10
0
20
0
30
0
70
128
71
23
72
24
73
22
0
VERTEX
8
OBJECT__5
10
0
20
0
30
0
70
128
71
25
72
24
73
26
0
VERTEX
8
OBJECT__5
10
0
20
0
30
0
70
128
71
24
72
23
73
26
0
VERTEX
8
OBJECT__5
10
0
20
0
30
0
70
128
71
25
72
27
73
28
0
VERTEX
8
OBJECT__5
10
0
20
0
30
0
70
128
71
28
72
29
73
25
0
VERTEX
8
OBJECT__5
10
0
20
0
30
0
70
128
71
30
72
3
73
29
0
VERTEX
8
OBJECT__5
10
0
20
0
30
0
70
128
71
29
72
31
73
30
0
VERTEX
8
OBJECT__5
10
0
20
0
30
0
70
128
71
28
72
31
73
29
0
VERTEX
8
OBJECT__5
10
0
20
0
30
0
70
128
71
26
72
27
73
25
0
VERTEX
8
OBJECT__5
10
0
20
0
30
0
70
128
71
22
72
32
73
23
0
VERTEX
8
OBJECT__5
10
0
20
0
30
0
70
128
71
21
72
32
73
22
0
VERTEX
8
OBJECT__5
10
0
20
0
30
0
70
128
71
19
72
20
73
18
0
VERTEX
8
OBJECT__5
10
0
20
0
30
0
70
128
71
15
72
33
73
16
0
VERTEX
8
OBJECT__5
10
0
20
0
30
0
70
128
71
14
72
33
73
15
0
VERTEX
8
OBJECT__5
10
0
20
0
30
0
70
128
71
12
72
13
73
11
0
VERTEX
8
OBJECT__5
10
0
20
0
30
0
70
128
71
8
72
34
73
9
0
VERTEX
8
OBJECT__5
10
0
20
0
30
0
70
128
71
7
72
34
73
8
0
VERTEX
8
OBJECT__5
10
0
20
0
30
0
70
128
71
5
72
6
73
4
0
VERTEX
8
OBJECT__5
10
0
20
0
30
0
70
128
71
3
72
30
73
1
0
SEQEND
8
OBJECT__5
0
POLYLINE
8
OBJECT__6
66
1
70
64
71
13
72
11
62
253
0
VERTEX
8
OBJECT__6
10
-9.000000
20
27.045000
30
60.604000
70
192
0
VERTEX
8
OBJECT__6
10
-9.000000
20
32.113998
30
57.455002
70
192
0
VERTEX
8
OBJECT__6
10
-9.000000
20
32.217999
30
55.303001
70
192
0
VERTEX
8
OBJECT__6
10
-9.000000
20
29.193001
30
60.448002
70
192
0
VERTEX
8
OBJECT__6
10
-9.000000
20
31.021999
30
59.311001
70
192
0
VERTEX
8
OBJECT__6
10
-9.000000
20
23.306999
30
55.951000
70
192
0
VERTEX
8
OBJECT__6
10
-9.000000
20
23.721001
30
58.063999
70
192
0
VERTEX
8
OBJECT__6
10
-9.000000
20
25.070000
30
59.743999
70
192
0
VERTEX
8
OBJECT__6
10
-9.000000
20
25.427999
30
52.345001
70
192
0
VERTEX
8
OBJECT__6
10
-9.000000
20
23.923000
30
53.887001
70
192
0
VERTEX
8
OBJECT__6
10
-9.000000
20
29.599001
30
52.042000
70
192
0
VERTEX
8
OBJECT__6
10
-9.000000
20
27.476000
30
51.680000
70
192
0
VERTEX
8
OBJECT__6
10
-9.000000
20
31.311001
30
53.349998
70
192
0
VERTEX
8
OBJECT__6
10
0
20
0
30
0
70
128
71
1
72
2
73
3
0
VERTEX
8
OBJECT__6
10
0
20
0
30
0
70
128
71
1
72
4
73
5
0
VERTEX
8
OBJECT__6
10
0
20
0
30
0
70
128
71
6
72
7
73
8
0
VERTEX
8
OBJECT__6
10
0
20
0
30
0
70
128
71
1
72
9
73
10
0
VERTEX
8
OBJECT__6
10
0
20
0
30
0
70
128
71
5
72
2
73
1
0
VERTEX
8
OBJECT__6
10
0
20
0
30
0
70
128
71
10
72
6
73
1
0
VERTEX
8
OBJECT__6
10
0
20
0
30
0
70
128
71
1
72
11
73
12
0
VERTEX
8
OBJECT__6
10
0
20
0
30
0
70
128
71
3
72
13
73
1
0
VERTEX
8
OBJECT__6
10
0
20
0
30
0
70
128
71
12
72
9
73
1
0
VERTEX
8
OBJECT__6
10
0
20
0
30
0
70
128
71
8
72
1
73
6
0
VERTEX
8
OBJECT__6
10
0
20
0
30
0
70
128
71
13
72
11
73
1
0
SEQEND
8
OBJECT__6
0
POLYLINE
8
OBJECT__7
66
1
70
64
71
22
72
22
62
253
0
VERTEX
8
OBJECT__7
10
6.701000
20
-140.664001
30
208.399994
70
192
0
VERTEX
8
OBJECT__7
10
6.701000
20
-143.615997
30
191.658005
70
192
0
VERTEX
8
OBJECT__7
10
0.000000
20
-141.470993
30
191.279999
70
192
0
VERTEX
8
OBJECT__7
10
10.842000
20
-146.276993
30
209.389008
70
192
0
VERTEX
8
OBJECT__7
10
10.842000
20
-149.229004
30
192.647995
70
192
0
VERTEX
8
OBJECT__7
10
11.400000
20
-149.746002
30
210.001007
70
192
0
VERTEX
8
OBJECT__7
10
10.842000
20
-153.214996
30
210.613007
70
192
0
VERTEX
8
OBJECT__7
10
10.842000
20
-156.167007
30
193.871002
70
192
0
VERTEX
8
OBJECT__7
10
11.400000
20
-152.697998
30
193.259003
70
192
0
VERTEX
8
OBJECT__7
10
6.701000
20
-161.781006
30
194.860992
70
192
0
VERTEX
8
OBJECT__7
10
0.000000
20
-160.973007
30
211.981003
70
192
0
VERTEX
8
OBJECT__7
10
0.000000
20
-163.925003
30
195.238998
70
192
0
VERTEX
8
OBJECT__7
10
-6.701000
20
-161.781006
30
194.860992
70
192
0
VERTEX
8
OBJECT__7
10
-10.842000
20
-156.167007
30
193.871002
70
192
0
VERTEX
8
OBJECT__7
10
-6.701000
20
-158.828995
30
211.602997
70
192
0
VERTEX
8
OBJECT__7
10
-10.842000
20
-146.276993
30
209.389008
70
192
0
VERTEX
8
OBJECT__7
10
-10.842000
20
-149.229004
30
192.647995
70
192
0
VERTEX
8
OBJECT__7
10
-6.701000
20
-140.664001
30
208.399994
70
192
0
VERTEX
8
OBJECT__7
10
-6.701000
20
-143.615997
30
191.658005
70
192
0
VERTEX
8
OBJECT__7
10
0.000000
20
-138.518997
30
208.022003
70
192
0
VERTEX
8
OBJECT__7
10
-10.842000
20
-153.214996
30
210.613007
70
192
0
VERTEX
8
OBJECT__7
10
6.701000
20
-158.828995
30
211.602997
70
192
0
VERTEX
8
OBJECT__7
10
0
20
0
30
0
70
128
71
1
72
2
73
3
0
VERTEX
8
OBJECT__7
10
0
20
0
30
0
70
128
71
4
72
5
73
2
0
VERTEX
8
OBJECT__7
10
0
20
0
30
0
70
128
71
5
72
4
73
6
0
VERTEX
8
OBJECT__7
10
0
20
0
30
0
70
128
71
7
72
8
73
9
0
VERTEX
8
OBJECT__7
10
0
20
0
30
0
70
128
71
9
72
6
73
7
0
VERTEX
8
OBJECT__7
10
0
20
0
30
0
70
128
71
10
72
8
73
7
0
VERTEX
8
OBJECT__7
10
0
20
0
30
0
70
128
71
11
72
12
73
10
0
VERTEX
8
OBJECT__7
10
0
20
0
30
0
70
128
71
13
72
12
73
11
0
VERTEX
8
OBJECT__7
10
0
20
0
30
0
70
128
71
14
72
13
73
15
0
VERTEX
8
OBJECT__7
10
0
20
0
30
0
70
128
71
16
72
17
73
14
0
VERTEX
8
OBJECT__7
10
0
20
0
30
0
70
128
71
18
72
19
73
17
0
VERTEX
8
OBJECT__7
10
0
20
0
30
0
70
128
71
3
72
19
73
18
0
VERTEX
8
OBJECT__7
10
0
20
0
30
0
70
128
71
18
72
20
73
3
0
VERTEX
8
OBJECT__7
10
0
20
0
30
0
70
128
71
17
72
16
73
18
0
VERTEX
8
OBJECT__7
10
0
20
0
30
0
70
128
71
14
72
21
73
16
0
VERTEX
8
OBJECT__7
10
0
20
0
30
0
70
128
71
15
72
21
73
14
0
VERTEX
8
OBJECT__7
10
0
20
0
30
0
70
128
71
11
72
15
73
13
0
VERTEX
8
OBJECT__7
10
0
20
0
30
0
70
128
71
10
72
22
73
11
0
VERTEX
8
OBJECT__7
10
0
20
0
30
0
70
128
71
7
72
22
73
10
0
VERTEX
8
OBJECT__7
10
0
20
0
30
0
70
128
71
6
72
9
73
5
0
VERTEX
8
OBJECT__7
10
0
20
0
30
0
70
128
71
2
72
1
73
4
0
VERTEX
8
OBJECT__7
10
0
20
0
30
0
70
128
71
3
72
20
73
1
0
SEQEND
8
OBJECT__7
0
POLYLINE
8
OBJECT__8
66
1
70
64
71
11
72
9
62
253
0
VERTEX
8
OBJECT__8
10
10.842000
20
-156.167007
30
193.871002
70
192
0
VERTEX
8
OBJECT__8
10
-6.701000
20
-161.781006
30
194.860992
70
192
0
VERTEX
8
OBJECT__8
10
-10.842000
20
-156.167007
30
193.871002
70
192
0
VERTEX
8
OBJECT__8
10
6.701000
20
-161.781006
30
194.860992
70
192
0
VERTEX
8
OBJECT__8
10
6.701000
20
-143.615997
30
191.658005
70
192
0
VERTEX
8
OBJECT__8
10
-10.842000
20
-149.229004
30
192.647995
70
192
0
VERTEX
8
OBJECT__8
10
-6.701000
20
-143.615997
30
191.658005
70
192
0
VERTEX
8
OBJECT__8
10
0.000000
20
-163.925003
30
195.238998
70
192
0
VERTEX
8
OBJECT__8
10
0.000000
20
-141.470993
30
191.279999
70
192
0
VERTEX
8
OBJECT__8
10
11.400000
20
-152.697998
30
193.259003
70
192
0
VERTEX
8
OBJECT__8
10
10.842000
20
-149.229004
30
192.647995
70
192
0
VERTEX
8
OBJECT__8
10
0
20
0
30
0
70
128
71
1
72
2
73
3
0
VERTEX
8
OBJECT__8
10
0
20
0
30
0
70
128
71
2
72
1
73
4
0
VERTEX
8
OBJECT__8
10
0
20
0
30
0
70
128
71
5
72
6
73
7
0
VERTEX
8
OBJECT__8
10
0
20
0
30
0
70
128
71
4
72
8
73
2
0
VERTEX
8
OBJECT__8
10
0
20
0
30
0
70
128
71
7
72
9
73
5
0
VERTEX
8
OBJECT__8
10
0
20
0
30
0
70
128
71
6
72
10
73
1
0
VERTEX
8
OBJECT__8
10
0
20
0
30
0
70
128
71
5
72
11
73
6
0
VERTEX
8
OBJECT__8
10
0
20
0
30
0
70
128
71
11
72
10
73
6
0
VERTEX
8
OBJECT__8
10
0
20
0
30
0
70
128
71
3
72
6
73
1
0
SEQEND
8
OBJECT__8
0
POLYLINE
8
OBJECT__10
66
1
70
64
71
12
72
12
62
253
0
VERTEX
8
OBJECT__10
10
0.000000
20
25.767000
30
56.376999
70
192
0
VERTEX
8
OBJECT__10
10
1.662000
20
11.145000
30
8.500000
70
192
0
VERTEX
8
OBJECT__10
10
1.583000
20
12.283000
30
8.500000
70
192
0
VERTEX
8
OBJECT__10
10
0.000000
20
10.211000
30
8.500000
70
192
0
VERTEX
8
OBJECT__10
10
2.000000
20
27.669001
30
55.758999
70
192
0
VERTEX
8
OBJECT__10
10
1.482000
20
13.725000
30
8.500000
70
192
0
VERTEX
8
OBJECT__10
10
-0.067000
20
14.009000
30
8.500000
70
192
0
VERTEX
8
OBJECT__10
10
0.000000
20
29.570999
30
55.140999
70
192
0
VERTEX
8
OBJECT__10
10
-0.942000
20
14.169000
30
8.500000
70
192
0
VERTEX
8
OBJECT__10
10
-2.000000
20
27.669001
30
55.758999
70
192
0
VERTEX
8
OBJECT__10
10
-1.769000
20
12.209000
30
8.500000
70
192
0
VERTEX
8
OBJECT__10
10
-1.940000
20
11.803000
30
8.500000
70
192
0
VERTEX
8
OBJECT__10
10
0
20
0
30
0
70
128
71
1
72
2
73
3
0
VERTEX
8
OBJECT__10
10
0
20
0
30
0
70
128
71
1
72
4
73
2
0
VERTEX
8
OBJECT__10
10
0
20
0
30
0
70
128
71
5
72
6
73
7
0
VERTEX
8
OBJECT__10
10
0
20
0
30
0
70
128
71
5
72
3
73
6
0
VERTEX
8
OBJECT__10
10
0
20
0
30
0
70
128
71
8
72
7
73
9
0
VERTEX
8
OBJECT__10
10
0
20
0
30
0
70
128
71
9
72
10
73
8
0
VERTEX
8
OBJECT__10
10
0
20
0
30
0
70
128
71
1
72
10
73
11
0
VERTEX
8
OBJECT__10
10
0
20
0
30
0
70
128
71
11
72
12
73
1
0
VERTEX
8
OBJECT__10
10
0
20
0
30
0
70
128
71
12
72
4
73
1
0
VERTEX
8
OBJECT__10
10
0
20
0
30
0
70
128
71
9
72
11
73
10
0
VERTEX
8
OBJECT__10
10
0
20
0
30
0
70
128
71
7
72
8
73
5
0
VERTEX
8
OBJECT__10
10
0
20
0
30
0
70
128
71
3
72
5
73
1
0
SEQEND
8
OBJECT__10
0
POLYLINE
8
OBJECT__12
66
1
70
64
71
12
72
10
62
253
0
VERTEX
8
OBJECT__12
10
15.588000
20
-9.000000
30
98.000000
70
192
0
VERTEX
8
OBJECT__12
10
-9.000000
20
-15.588000
30
98.000000
70
192
0
VERTEX
8
OBJECT__12
10
0.000000
20
-18.000000
30
98.000000
70
192
0
VERTEX
8
OBJECT__12
10
-18.000000
20
0.000000
30
98.000000
70
192
0
VERTEX
8
OBJECT__12
10
15.588000
20
9.000000
30
98.000000
70
192
0
VERTEX
8
OBJECT__12
10
9.000000
20
15.588000
30
98.000000
70
192
0
VERTEX
8
OBJECT__12
10
9.000000
20
-15.588000
30
98.000000
70
192
0
VERTEX
8
OBJECT__12
10
18.000000
20
0.000000
30
98.000000
70
192
0
VERTEX
8
OBJECT__12
10
-15.588000
20
-9.000000
30
98.000000
70
192
0
VERTEX
8
OBJECT__12
10
0.000000
20
18.000000
30
98.000000
70
192
0
VERTEX
8
OBJECT__12
10
-9.000000
20
15.588000
30
98.000000
70
192
0
VERTEX
8
OBJECT__12
10
-15.588000
20
9.000000
30
98.000000
70
192
0
VERTEX
8
OBJECT__12
10
0
20
0
30
0
70
128
71
1
72
2
73
3
0
VERTEX
8
OBJECT__12
10
0
20
0
30
0
70
128
71
4
72
5
73
6
0
VERTEX
8
OBJECT__12
10
0
20
0
30
0
70
128
71
3
72
7
73
1
0
VERTEX
8
OBJECT__12
10
0
20
0
30
0
70
128
71
8
72
4
73
9
0
VERTEX
8
OBJECT__12
10
0
20
0
30
0
70
128
71
10
72
11
73
12
0
VERTEX
8
OBJECT__12
10
0
20
0
30
0
70
128
71
4
72
8
73
5
0
VERTEX
8
OBJECT__12
10
0
20
0
30
0
70
128
71
9
72
2
73
8
0
VERTEX
8
OBJECT__12
10
0
20
0
30
0
70
128
71
6
72
10
73
4
0
VERTEX
8
OBJECT__12
10
0
20
0
30
0
70
128
71
12
72
4
73
10
0
VERTEX
8
OBJECT__12
10
0
20
0
30
0
70
128
71
1
72
8
73
2
0
SEQEND
8
OBJECT__12
0
POLYLINE
8
OBJECT__13
66
1
70
64
71
24
72
24
62
253
0
VERTEX
8
OBJECT__13
10
-9.000000
20
-15.588000
30
98.000000
70
192
0
VERTEX
8
OBJECT__13
10
-9.000000
20
-15.588000
30
10.000000
70
192
0
VERTEX
8
OBJECT__13
10
0.000000
20
-18.000000
30
10.000000
70
192
0
VERTEX
8
OBJECT__13
10
-15.588000
20
-9.000000
30
98.000000
70
192
0
VERTEX
8
OBJECT__13
10
-15.588000
20
-9.000000
30
10.000000
70
192
0
VERTEX
8
OBJECT__13
10
-18.000000
20
0.000000
30
98.000000
70
192
0
VERTEX
8
OBJECT__13
10
-18.000000
20
0.000000
30
10.000000
70
192
0
VERTEX
8
OBJECT__13
10
-15.588000
20
9.000000
30
98.000000
70
192
0
VERTEX
8
OBJECT__13
10
-15.588000
20
9.000000
30
10.000000
70
192
0
VERTEX
8
OBJECT__13
10
-9.000000
20
15.588000
30
98.000000
70
192
0
VERTEX
8
OBJECT__13
10
-9.000000
20
15.588000
30
10.000000
70
192
0
VERTEX
8
OBJECT__13
10
0.000000
20
18.000000
30
98.000000
70
192
0
VERTEX
8
OBJECT__13
10
0.000000
20
18.000000
30
10.000000
70
192
0
VERTEX
8
OBJECT__13
10
9.000000
20
15.588000
30
98.000000
70
192
0
VERTEX
8
OBJECT__13
10
9.000000
20
15.588000
30
10.000000
70
192
0
VERTEX
8
OBJECT__13
10
15.588000
20
9.000000
30
98.000000
70
192
0
VERTEX
8
OBJECT__13
10
15.588000
20
9.000000
30
10.000000
70
192
0
VERTEX
8
OBJECT__13
10
18.000000
20
0.000000
30
98.000000
70
192
0
VERTEX
8
OBJECT__13
10
18.000000
20
0.000000
30
10.000000
70
192
0
VERTEX
8
OBJECT__13
10
15.588000
20
-9.000000
30
98.000000
70
192
0
VERTEX
8
OBJECT__13
10
15.588000
20
-9.000000
30
10.000000
70
192
0
VERTEX
8
OBJECT__13
10
9.000000
20
-15.588000
30
98.000000
70
192
0
VERTEX
8
OBJECT__13
10
9.000000
20
-15.588000
30
10.000000
70
192
0
VERTEX
8
OBJECT__13
10
0.000000
20
-18.000000
30
98.000000
70
192
0
VERTEX
8
OBJECT__13
10
0
20
0
30
0
70
128
71
1
72
2
73
3
0
VERTEX
8
OBJECT__13
10
0
20
0
30
0
70
128
71
4
72
5
73
2
0
VERTEX
8
OBJECT__13
10
0
20
0
30
0
70
128
71
6
72
7
73
5
0
VERTEX
8
OBJECT__13
10
0
20
0
30
0
70
128
71
8
72
9
73
7
0
VERTEX
8
OBJECT__13
10
0
20
0
30
0
70
128
71
10
72
11
73
9
0
VERTEX
8
OBJECT__13
10
0
20
0
30
0
70
128
71
12
72
13
73
11
0
VERTEX
8
OBJECT__13
10
0
20
0
30
0
70
128
71
14
72
15
73
13
0
VERTEX
8
OBJECT__13
10
0
20
0
30
0
70
128
71
16
72
17
73
15
0
VERTEX
8
OBJECT__13
10
0
20
0
30
0
70
128
71
18
72
19
73
17
0
VERTEX
8
OBJECT__13
10
0
20
0
30
0
70
128
71
20
72
21
73
19
0
VERTEX
8
OBJECT__13
10
0
20
0
30
0
70
128
71
22
72
23
73
21
0
VERTEX
8
OBJECT__13
10
0
20
0
30
0
70
128
71
24
72
3
73
23
0
VERTEX
8
OBJECT__13
10
0
20
0
30
0
70
128
71
23
72
22
73
24
0
VERTEX
8
OBJECT__13
10
0
20
0
30
0
70
128
71
21
72
20
73
22
0
VERTEX
8
OBJECT__13
10
0
20
0
30
0
70
128
71
19
72
18
73
20
0
VERTEX
8
OBJECT__13
10
0
20
0
30
0
70
128
71
17
72
16
73
18
0
VERTEX
8
OBJECT__13
10
0
20
0
30
0
70
128
71
15
72
14
73
16
0
VERTEX
8
OBJECT__13
10
0
20
0
30
0
70
128
71
13
72
12
73
14
0
VERTEX
8
OBJECT__13
10
0
20
0
30
0
70
128
71
11
72
10
73
12
0
VERTEX
8
OBJECT__13
10
0
20
0
30
0
70
128
71
9
72
8
73
10
0
VERTEX
8
OBJECT__13
10
0
20
0
30
0
70
128
71
7
72
6
73
8
0
VERTEX
8
OBJECT__13
10
0
20
0
30
0
70
128
71
5
72
4
73
6
0
VERTEX
8
OBJECT__13
10
0
20
0
30
0
70
128
71
2
72
1
73
4
0
VERTEX
8
OBJECT__13
10
0
20
0
30
0
70
128
71
3
72
24
73
1
0
SEQEND
8
OBJECT__13
0
POLYLINE
8
OBJECT__15
66
1
70
64
71
12
72
10
62
253
0
VERTEX
8
OBJECT__15
10
55.000000
20
-18.000000
30
88.000000
70
192
0
VERTEX
8
OBJECT__15
10
55.000000
20
-27.000000
30
85.587997
70
192
0
VERTEX
8
OBJECT__15
10
55.000000
20
-33.588001
30
79.000000
70
192
0
VERTEX
8
OBJECT__15
10
55.000000
20
-9.000000
30
54.411999
70
192
0
VERTEX
8
OBJECT__15
10
55.000000
20
-33.588001
30
61.000000
70
192
0
VERTEX
8
OBJECT__15
10
55.000000
20
-27.000000
30
54.411999
70
192
0
VERTEX
8
OBJECT__15
10
55.000000
20
-36.000000
30
70.000000
70
192
0
VERTEX
8
OBJECT__15
10
55.000000
20
-9.000000
30
85.587997
70
192
0
VERTEX
8
OBJECT__15
10
55.000000
20
-2.412000
30
61.000000
70
192
0
VERTEX
8
OBJECT__15
10
55.000000
20
-2.412000
30
79.000000
70
192
0
VERTEX
8
OBJECT__15
10
55.000000
20
-18.000000
30
52.000000
70
192
0
VERTEX
8
OBJECT__15
10
55.000000
20
0.000000
30
70.000000
70
192
0
VERTEX
8
OBJECT__15
10
0
20
0
30
0
70
128
71
1
72
2
73
3
0
VERTEX
8
OBJECT__15
10
0
20
0
30
0
70
128
71
4
72
5
73
6
0
VERTEX
8
OBJECT__15
10
0
20
0
30
0
70
128
71
7
72
8
73
1
0
VERTEX
8
OBJECT__15
10
0
20
0
30
0
70
128
71
7
72
4
73
9
0
VERTEX
8
OBJECT__15
10
0
20
0
30
0
70
128
71
4
72
7
73
5
0
VERTEX
8
OBJECT__15
10
0
20
0
30
0
70
128
71
7
72
10
73
8
0
VERTEX
8
OBJECT__15
10
0
20
0
30
0
70
128
71
6
72
11
73
4
0
VERTEX
8
OBJECT__15
10
0
20
0
30
0
70
128
71
7
72
12
73
10
0
VERTEX
8
OBJECT__15
10
0
20
0
30
0
70
128
71
3
72
7
73
1
0
VERTEX
8
OBJECT__15
10
0
20
0
30
0
70
128
71
9
72
12
73
7
0
SEQEND
8
OBJECT__15
0
POLYLINE
8
OBJECT__16
66
1
70
64
71
24
72
24
62
253
0
VERTEX
8
OBJECT__16
10
55.000000
20
-9.000000
30
85.587997
70
192
0
VERTEX
8
OBJECT__16
10
-55.000000
20
-9.000000
30
85.587997
70
192
0
VERTEX
8
OBJECT__16
10
-55.000000
20
-18.000000
30
88.000000
70
192
0
VERTEX
8
OBJECT__16
10
55.000000
20
-2.412000
30
79.000000
70
192
0
VERTEX
8
OBJECT__16
10
-55.000000
20
-2.412000
30
79.000000
70
192
0
VERTEX
8
OBJECT__16
10
55.000000
20
0.000000
30
70.000000
70
192
0
VERTEX
8
OBJECT__16
10
-55.000000
20
0.000000
30
70.000000
70
192
0
VERTEX
8
OBJECT__16
10
55.000000
20
-2.412000
30
61.000000
70
192
0
VERTEX
8
OBJECT__16
10
-55.000000
20
-2.412000
30
61.000000
70
192
0
VERTEX
8
OBJECT__16
10
55.000000
20
-9.000000
30
54.411999
70
192
0
VERTEX
8
OBJECT__16
10
-55.000000
20
-9.000000
30
54.411999
70
192
0
VERTEX
8
OBJECT__16
10
55.000000
20
-18.000000
30
52.000000
70
192
0
VERTEX
8
OBJECT__16
10
-55.000000
20
-18.000000
30
52.000000
70
192
0
VERTEX
8
OBJECT__16
10
55.000000
20
-27.000000
30
54.411999
70
192
0
VERTEX
8
OBJECT__16
10
-55.000000
20
-27.000000
30
54.411999
70
192
0
VERTEX
8
OBJECT__16
10
55.000000
20
-33.588001
30
61.000000
70
192
0
VERTEX
8
OBJECT__16
10
-55.000000
20
-33.588001
30
61.000000
70
192
0
VERTEX
8
OBJECT__16
10
55.000000
20
-36.000000
30
70.000000
70
192
0
VERTEX
8
OBJECT__16
10
-55.000000
20
-36.000000
30
70.000000
70
192
0
VERTEX
8
OBJECT__16
10
55.000000
20
-33.588001
30
79.000000
70
192
0
VERTEX
8
OBJECT__16
10
-55.000000
20
-33.588001
30
79.000000
70
192
0
VERTEX
8
OBJECT__16
10
55.000000
20
-27.000000
30
85.587997
70
192
0
VERTEX
8
OBJECT__16
10
-55.000000
20
-27.000000
30
85.587997
70
192
0
VERTEX
8
OBJECT__16
10
55.000000
20
-18.000000
30
88.000000
70
192
0
VERTEX
8
OBJECT__16
10
0
20
0
30
0
70
128
71
1
72
2
73
3
0
VERTEX
8
OBJECT__16
10
0
20
0
30
0
70
128
71
4
72
5
73
2
0
VERTEX
8
OBJECT__16
10
0
20
0
30
0
70
128
71
6
72
7
73
5
0
VERTEX
8
OBJECT__16
10
0
20
0
30
0
70
128
71
8
72
9
73
7
0
VERTEX
8
OBJECT__16
10
0
20
0
30
0
70
128
71
10
72
11
73
9
0
VERTEX
8
OBJECT__16
10
0
20
0
30
0
70
128
71
12
72
13
73
11
0
VERTEX
8
OBJECT__16
10
0
20
0
30
0
70
128
71
14
72
15
73
13
0
VERTEX
8
OBJECT__16
10
0
20
0
30
0
70
128
71
16
72
17
73
15
0
VERTEX
8
OBJECT__16
10
0
20
0
30
0
70
128
71
18
72
19
73
17
0
VERTEX
8
OBJECT__16
10
0
20
0
30
0
70
128
71
20
72
21
73
19
0
VERTEX
8
OBJECT__16
10
0
20
0
30
0
70
128
71
22
72
23
73
21
0
VERTEX
8
OBJECT__16
10
0
20
0
30
0
70
128
71
24
72
3
73
23
0
VERTEX
8
OBJECT__16
10
0
20
0
30
0
70
128
71
23
72
22
73
24
0
VERTEX
8
OBJECT__16
10
0
20
0
30
0
70
128
71
21
72
20
73
22
0
VERTEX
8
OBJECT__16
10
0
20
0
30
0
70
128
71
19
72
18
73
20
0
VERTEX
8
OBJECT__16
10
0
20
0
30
0
70
128
71
17
72
16
73
18
0
VERTEX
8
OBJECT__16
10
0
20
0
30
0
70
128
71
15
72
14
73
16
0
VERTEX
8
OBJECT__16
10
0
20
0
30
0
70
128
71
13
72
12
73
14
0
VERTEX
8
OBJECT__16
10
0
20
0
30
0
70
128
71
11
72
10
73
12
0
VERTEX
8
OBJECT__16
10
0
20
0
30
0
70
128
71
9
72
8
73
10
0
VERTEX
8
OBJECT__16
10
0
20
0
30
0
70
128
71
7
72
6
73
8
0
VERTEX
8
OBJECT__16
10
0
20
0
30
0
70
128
71
5
72
4
73
6
0
VERTEX
8
OBJECT__16
10
0
20
0
30
0
70
128
71
2
72
1
73
4
0
VERTEX
8
OBJECT__16
10
0
20
0
30
0
70
128
71
3
72
24
73
1
0
SEQEND
8
OBJECT__16
0
POLYLINE
8
OBJECT__18
66
1
70
64
71
12
72
10
62
253
0
VERTEX
8
OBJECT__18
10
-55.000000
20
-9.000000
30
54.411999
70
192
0
VERTEX
8
OBJECT__18
10
-55.000000
20
-27.000000
30
54.411999
70
192
0
VERTEX
8
OBJECT__18
10
-55.000000
20
-33.588001
30
61.000000
70
192
0
VERTEX
8
OBJECT__18
10
-55.000000
20
-2.412000
30
79.000000
70
192
0
VERTEX
8
OBJECT__18
10
-55.000000
20
0.000000
30
70.000000
70
192
0
VERTEX
8
OBJECT__18
10
-55.000000
20
-36.000000
30
70.000000
70
192
0
VERTEX
8
OBJECT__18
10
-55.000000
20
-33.588001
30
79.000000
70
192
0
VERTEX
8
OBJECT__18
10
-55.000000
20
-18.000000
30
52.000000
70
192
0
VERTEX
8
OBJECT__18
10
-55.000000
20
-9.000000
30
85.587997
70
192
0
VERTEX
8
OBJECT__18
10
-55.000000
20
-27.000000
30
85.587997
70
192
0
VERTEX
8
OBJECT__18
10
-55.000000
20
-18.000000
30
88.000000
70
192
0
VERTEX
8
OBJECT__18
10
-55.000000
20
-2.412000
30
61.000000
70
192
0
VERTEX
8
OBJECT__18
10
0
20
0
30
0
70
128
71
1
72
2
73
3
0
VERTEX
8
OBJECT__18
10
0
20
0
30
0
70
128
71
1
72
4
73
5
0
VERTEX
8
OBJECT__18
10
0
20
0
30
0
70
128
71
1
72
6
73
7
0
VERTEX
8
OBJECT__18
10
0
20
0
30
0
70
128
71
1
72
8
73
2
0
VERTEX
8
OBJECT__18
10
0
20
0
30
0
70
128
71
1
72
9
73
4
0
VERTEX
8
OBJECT__18
10
0
20
0
30
0
70
128
71
1
72
10
73
11
0
VERTEX
8
OBJECT__18
10
0
20
0
30
0
70
128
71
3
72
6
73
1
0
VERTEX
8
OBJECT__18
10
0
20
0
30
0
70
128
71
11
72
9
73
1
0
VERTEX
8
OBJECT__18
10
0
20
0
30
0
70
128
71
5
72
12
73
1
0
VERTEX
8
OBJECT__18
10
0
20
0
30
0
70
128
71
7
72
10
73
1
0
SEQEND
8
OBJECT__18
0
POLYLINE
8
OBJECT__19
66
1
70
64
71
8
72
6
62
253
0
VERTEX
8
OBJECT__19
10
-66.650002
20
-51.144001
30
87.594002
70
192
0
VERTEX
8
OBJECT__19
10
-78.349998
20
-51.144001
30
87.594002
70
192
0
VERTEX
8
OBJECT__19
10
-75.102997
20
-53.179001
30
84.068001
70
192
0
VERTEX
8
OBJECT__19
10
-77.191002
20
-48.605000
30
91.989998
70
192
0
VERTEX
8
OBJECT__19
10
-67.808998
20
-48.605000
30
91.989998
70
192
0
VERTEX
8
OBJECT__19
10
-78.500000
20
-50.476002
30
88.750000
70
192
0
VERTEX
8
OBJECT__19
10
-72.500000
20
-47.476002
30
93.945999
70
192
0
VERTEX
8
OBJECT__19
10
-69.897003
20
-53.179001
30
84.068001
70
192
0
VERTEX
8
OBJECT__19
10
0
20
0
30
0
70
128
71
1
72
2
73
3
0
VERTEX
8
OBJECT__19
10
0
20
0
30
0
70
128
71
4
72
1
73
5
0
VERTEX
8
OBJECT__19
10
0
20
0
30
0
70
128
71
1
72
6
73
2
0
VERTEX
8
OBJECT__19
10
0
20
0
30
0
70
128
71
5
72
7
73
4
0
VERTEX
8
OBJECT__19
10
0
20
0
30
0
70
128
71
4
72
6
73
1
0
VERTEX
8
OBJECT__19
10
0
20
0
30
0
70
128
71
3
72
8
73
1
0
SEQEND
8
OBJECT__19
0
POLYLINE
8
OBJECT__20
66
1
70
64
71
39
72
39
62
253
0
VERTEX
8
OBJECT__20
10
-72.500000
20
-47.476002
30
93.945999
70
192
0
VERTEX
8
OBJECT__20
10
-76.427002
20
-23.205999
30
78.244003
70
192
0
VERTEX
8
OBJECT__20
10
-77.139999
20
-23.938000
30
77.697998
70
192
0
VERTEX
8
OBJECT__20
10
-72.994003
20
-21.680000
30
79.028999
70
192
0
VERTEX
8
OBJECT__20
10
-74.632004
20
-22.103001
30
78.845001
70
192
0
VERTEX
8
OBJECT__20
10
-72.500000
20
-21.656000
30
79.039001
70
192
0
VERTEX
8
OBJECT__20
10
-77.191002
20
-48.605000
30
91.989998
70
192
0
VERTEX
8
OBJECT__20
10
-78.287003
20
-25.539000
30
76.182999
70
192
0
VERTEX
8
OBJECT__20
10
-78.497002
20
-26.535000
30
74.712997
70
192
0
VERTEX
8
OBJECT__20
10
-78.349998
20
-51.144001
30
87.594002
70
192
0
VERTEX
8
OBJECT__20
10
-78.500000
20
-50.476002
30
88.750000
70
192
0
VERTEX
8
OBJECT__20
10
-77.452003
20
-24.259001
30
77.458000
70
192
0
VERTEX
8
OBJECT__20
10
-77.612000
20
-24.423000
30
77.334999
70
192
0
VERTEX
8
OBJECT__20
10
-75.102997
20
-53.179001
30
84.068001
70
192
0
VERTEX
8
OBJECT__20
10
-76.944000
20
-27.704000
30
70.947998
70
192
0
VERTEX
8
OBJECT__20
10
-75.510002
20
-27.743000
30
69.632004
70
192
0
VERTEX
8
OBJECT__20
10
-78.078003
20
-27.329000
30
72.834000
70
192
0
VERTEX
8
OBJECT__20
10
-77.387001
20
-27.556999
30
71.683998
70
192
0
VERTEX
8
OBJECT__20
10
-78.263000
20
-26.979000
30
73.663002
70
192
0
VERTEX
8
OBJECT__20
10
-69.897003
20
-53.179001
30
84.068001
70
192
0
VERTEX
8
OBJECT__20
10
-74.044998
20
-27.688000
30
68.899002
70
192
0
VERTEX
8
OBJECT__20
10
-72.411003
20
-27.656000
30
68.647003
70
192
0
VERTEX
8
OBJECT__20
10
-70.790001
20
-27.694000
30
68.956001
70
192
0
VERTEX
8
OBJECT__20
10
-75.086998
20
-27.726999
30
69.419998
70
192
0
VERTEX
8
OBJECT__20
10
-66.811996
20
-27.235001
30
73.126999
70
192
0
VERTEX
8
OBJECT__20
10
-66.707001
20
-26.997999
30
73.665001
70
192
0
VERTEX
8
OBJECT__20
10
-67.581001
20
-27.620001
30
71.587997
70
192
0
VERTEX
8
OBJECT__20
10
-67.528999
20
-27.594000
30
71.691002
70
192
0
VERTEX
8
OBJECT__20
10
-69.939003
20
-27.719000
30
69.467003
70
192
0
VERTEX
8
OBJECT__20
10
-68.883003
20
-27.749001
30
70.100998
70
192
0
VERTEX
8
OBJECT__20
10
-67.808998
20
-48.605000
30
91.989998
70
192
0
VERTEX
8
OBJECT__20
10
-66.776001
20
-25.400000
30
76.348999
70
192
0
VERTEX
8
OBJECT__20
10
-67.582001
20
-24.243999
30
77.445000
70
192
0
VERTEX
8
OBJECT__20
10
-67.788002
20
-23.948999
30
77.723999
70
192
0
VERTEX
8
OBJECT__20
10
-66.650002
20
-51.144001
30
87.594002
70
192
0
VERTEX
8
OBJECT__20
10
-66.502998
20
-26.538000
30
74.707001
70
192
0
VERTEX
8
OBJECT__20
10
-69.190002
20
-22.743999
30
78.517998
70
192
0
VERTEX
8
OBJECT__20
10
-70.739998
20
-21.959999
30
78.910004
70
192
0
VERTEX
8
OBJECT__20
10
-67.813004
20
-23.929001
30
77.737999
70
192
0
VERTEX
8
OBJECT__20
10
0
20
0
30
0
70
128
71
1
72
2
73
3
0
VERTEX
8
OBJECT__20
10
0
20
0
30
0
70
128
71
1
72
4
73
5
0
VERTEX
8
OBJECT__20
10
0
20
0
30
0
70
128
71
1
72
6
73
4
0
VERTEX
8
OBJECT__20
10
0
20
0
30
0
70
128
71
5
72
2
73
1
0
VERTEX
8
OBJECT__20
10
0
20
0
30
0
70
128
71
7
72
8
73
9
0
VERTEX
8
OBJECT__20
10
0
20
0
30
0
70
128
71
9
72
10
73
11
0
VERTEX
8
OBJECT__20
10
0
20
0
30
0
70
128
71
7
72
3
73
12
0
VERTEX
8
OBJECT__20
10
0
20
0
30
0
70
128
71
12
72
13
73
7
0
VERTEX
8
OBJECT__20
10
0
20
0
30
0
70
128
71
13
72
8
73
7
0
VERTEX
8
OBJECT__20
10
0
20
0
30
0
70
128
71
9
72
11
73
7
0
VERTEX
8
OBJECT__20
10
0
20
0
30
0
70
128
71
14
72
15
73
16
0
VERTEX
8
OBJECT__20
10
0
20
0
30
0
70
128
71
14
72
17
73
18
0
VERTEX
8
OBJECT__20
10
0
20
0
30
0
70
128
71
18
72
15
73
14
0
VERTEX
8
OBJECT__20
10
0
20
0
30
0
70
128
71
14
72
10
73
19
0
VERTEX
8
OBJECT__20
10
0
20
0
30
0
70
128
71
19
72
17
73
14
0
VERTEX
8
OBJECT__20
10
0
20
0
30
0
70
128
71
20
72
21
73
22
0
VERTEX
8
OBJECT__20
10
0
20
0
30
0
70
128
71
22
72
23
73
20
0
VERTEX
8
OBJECT__20
10
0
20
0
30
0
70
128
71
20
72
14
73
24
0
VERTEX
8
OBJECT__20
10
0
20
0
30
0
70
128
71
24
72
21
73
20
0
VERTEX
8
OBJECT__20
10
0
20
0
30
0
70
128
71
20
72
25
73
26
0
VERTEX
8
OBJECT__20
10
0
20
0
30
0
70
128
71
20
72
27
73
28
0
VERTEX
8
OBJECT__20
10
0
20
0
30
0
70
128
71
20
72
29
73
30
0
VERTEX
8
OBJECT__20
10
0
20
0
30
0
70
128
71
30
72
27
73
20
0
VERTEX
8
OBJECT__20
10
0
20
0
30
0
70
128
71
28
72
25
73
20
0
VERTEX
8
OBJECT__20
10
0
20
0
30
0
70
128
71
31
72
32
73
33
0
VERTEX
8
OBJECT__20
10
0
20
0
30
0
70
128
71
33
72
34
73
31
0
VERTEX
8
OBJECT__20
10
0
20
0
30
0
70
128
71
31
72
35
73
36
0
VERTEX
8
OBJECT__20
10
0
20
0
30
0
70
128
71
36
72
32
73
31
0
VERTEX
8
OBJECT__20
10
0
20
0
30
0
70
128
71
35
72
26
73
36
0
VERTEX
8
OBJECT__20
10
0
20
0
30
0
70
128
71
1
72
37
73
38
0
VERTEX
8
OBJECT__20
10
0
20
0
30
0
70
128
71
1
72
31
73
39
0
VERTEX
8
OBJECT__20
10
0
20
0
30
0
70
128
71
39
72
37
73
1
0
VERTEX
8
OBJECT__20
10
0
20
0
30
0
70
128
71
38
72
6
73
1
0
VERTEX
8
OBJECT__20
10
0
20
0
30
0
70
128
71
34
72
39
73
31
0
VERTEX
8
OBJECT__20
10
0
20
0
30
0
70
128
71
26
72
35
73
20
0
VERTEX
8
OBJECT__20
10
0
20
0
30
0
70
128
71
23
72
29
73
20
0
VERTEX
8
OBJECT__20
10
0
20
0
30
0
70
128
71
16
72
24
73
14
0
VERTEX
8
OBJECT__20
10
0
20
0
30
0
70
128
71
9
72
19
73
10
0
VERTEX
8
OBJECT__20
10
0
20
0
30
0
70
128
71
3
72
7
73
1
0
SEQEND
8
OBJECT__20
0
POLYLINE
8
OBJECT__22
66
1
70
64
71
113
72
119
62
253
0
VERTEX
8
OBJECT__22
10
-57.000000
20
-11.733000
30
77.469002
70
192
0
VERTEX
8
OBJECT__22
10
-66.502998
20
-9.654000
30
75.041000
70
192
0
VERTEX
8
OBJECT__22
10
-66.707001
20
-10.327000
30
75.959999
70
192
0
VERTEX
8
OBJECT__22
10
-66.811996
20
-10.675000
30
76.433998
70
192
0
VERTEX
8
OBJECT__22
10
-57.000000
20
-8.398000
30
71.693001
70
192
0
VERTEX
8
OBJECT__22
10
-66.776001
20
-8.802000
30
73.234001
70
192
0
VERTEX
8
OBJECT__22
10
-67.582001
20
-8.431000
30
71.684998
70
192
0
VERTEX
8
OBJECT__22
10
-80.000000
20
-18.000000
30
79.750000
70
192
0
VERTEX
8
OBJECT__22
10
-76.944000
20
-12.327000
30
77.930000
70
192
0
VERTEX
8
OBJECT__22
10
-77.387001
20
-11.763000
30
77.434998
70
192
0
VERTEX
8
OBJECT__22
10
-74.044998
20
-14.110000
30
78.940002
70
192
0
VERTEX
8
OBJECT__22
10
-75.086998
20
-13.639000
30
78.713997
70
192
0
VERTEX
8
OBJECT__22
10
-75.510002
20
-13.447000
30
78.622002
70
192
0
VERTEX
8
OBJECT__22
10
-72.411003
20
-14.344000
30
79.038002
70
192
0
VERTEX
8
OBJECT__22
10
-57.000000
20
-18.000000
30
79.750000
70
192
0
VERTEX
8
OBJECT__22
10
-70.790001
20
-14.057000
30
78.917000
70
192
0
VERTEX
8
OBJECT__22
10
-68.883003
20
-13.038000
30
78.392998
70
192
0
VERTEX
8
OBJECT__22
10
-69.939003
20
-13.603000
30
78.682999
70
192
0
VERTEX
8
OBJECT__22
10
-67.528999
20
-11.738000
30
77.462997
70
192
0
VERTEX
8
OBJECT__22
10
-67.581001
20
-11.815000
30
77.537003
70
192
0
VERTEX
8
OBJECT__22
10
-80.000000
20
-8.398000
30
71.693001
70
192
0
VERTEX
8
OBJECT__22
10
-80.000000
20
-11.733000
30
77.469002
70
192
0
VERTEX
8
OBJECT__22
10
-78.497002
20
-9.651000
30
75.035004
70
192
0
VERTEX
8
OBJECT__22
10
-78.287003
20
-8.876000
30
73.438004
70
192
0
VERTEX
8
OBJECT__22
10
-77.612000
20
-8.436000
30
71.894997
70
192
0
VERTEX
8
OBJECT__22
10
-78.078003
20
-10.881000
30
76.662003
70
192
0
VERTEX
8
OBJECT__22
10
-78.263000
20
-10.338000
30
75.944000
70
192
0
VERTEX
8
OBJECT__22
10
-57.000000
20
-9.556000
30
65.125000
70
192
0
VERTEX
8
OBJECT__22
10
-67.788002
20
-8.336000
30
71.290001
70
192
0
VERTEX
8
OBJECT__22
10
-69.190002
20
-8.251000
30
69.849998
70
192
0
VERTEX
8
OBJECT__22
10
-67.813004
20
-8.334000
30
71.264999
70
192
0
VERTEX
8
OBJECT__22
10
-70.739998
20
-8.304000
30
68.973999
70
192
0
VERTEX
8
OBJECT__22
10
-80.000000
20
-9.556000
30
65.125000
70
192
0
VERTEX
8
OBJECT__22
10
-72.500000
20
-8.344000
30
68.646004
70
192
0
VERTEX
8
OBJECT__22
10
-74.632004
20
-8.289000
30
69.130997
70
192
0
VERTEX
8
OBJECT__22
10
-72.994003
20
-8.341000
30
68.671997
70
192
0
VERTEX
8
OBJECT__22
10
-77.452003
20
-8.412000
30
71.691002
70
192
0
VERTEX
8
OBJECT__22
10
-77.139999
20
-8.365000
30
71.293999
70
192
0
VERTEX
8
OBJECT__22
10
-76.427002
20
-8.258000
30
70.386002
70
192
0
VERTEX
8
OBJECT__22
10
-57.000000
20
-14.665000
30
60.838001
70
192
0
VERTEX
8
OBJECT__22
10
-57.000000
20
-18.000000
30
60.250000
70
192
0
VERTEX
8
OBJECT__22
10
-66.502998
20
-17.813999
30
60.251999
70
192
0
VERTEX
8
OBJECT__22
10
-66.737000
20
-16.683001
30
60.393002
70
192
0
VERTEX
8
OBJECT__22
10
-57.000000
20
-21.334999
30
60.838001
70
192
0
VERTEX
8
OBJECT__22
10
-66.712997
20
-19.584999
30
60.380001
70
192
0
VERTEX
8
OBJECT__22
10
-67.547997
20
-21.329000
30
60.851002
70
192
0
VERTEX
8
OBJECT__22
10
-67.388000
20
-21.141001
30
60.770000
70
192
0
VERTEX
8
OBJECT__22
10
-66.921997
20
-15.790000
30
60.504002
70
192
0
VERTEX
8
OBJECT__22
10
-80.000000
20
-14.665000
30
60.838001
70
192
0
VERTEX
8
OBJECT__22
10
-77.418999
20
-14.565000
30
60.875000
70
192
0
VERTEX
8
OBJECT__22
10
-76.116997
20
-13.213000
30
61.506001
70
192
0
VERTEX
8
OBJECT__22
10
-74.209999
20
-12.249000
30
62.126999
70
192
0
VERTEX
8
OBJECT__22
10
-75.060997
20
-12.679000
30
61.849998
70
192
0
VERTEX
8
OBJECT__22
10
-70.955002
20
-12.202000
30
62.160999
70
192
0
VERTEX
8
OBJECT__22
10
-72.588997
20
-12.001000
30
62.313999
70
192
0
VERTEX
8
OBJECT__22
10
-69.489998
20
-12.810000
30
61.745998
70
192
0
VERTEX
8
OBJECT__22
10
-69.913002
20
-12.634000
30
61.866001
70
192
0
VERTEX
8
OBJECT__22
10
-68.056000
20
-13.969000
30
61.122002
70
192
0
VERTEX
8
OBJECT__22
10
-67.612999
20
-14.680000
30
60.881001
70
192
0
VERTEX
8
OBJECT__22
10
-80.000000
20
-18.000000
30
60.250000
70
192
0
VERTEX
8
OBJECT__22
10
-78.497002
20
-17.808001
30
60.251999
70
192
0
VERTEX
8
OBJECT__22
10
-78.223999
20
-19.798000
30
60.417000
70
192
0
VERTEX
8
OBJECT__22
10
-78.292999
20
-16.674999
30
60.375000
70
192
0
VERTEX
8
OBJECT__22
10
-78.188004
20
-16.090000
30
60.438999
70
192
0
VERTEX
8
OBJECT__22
10
-77.471001
20
-14.668000
30
60.846001
70
192
0
VERTEX
8
OBJECT__22
10
-80.000000
20
-21.334999
30
60.838001
70
192
0
VERTEX
8
OBJECT__22
10
-57.000000
20
-26.444000
30
65.125000
70
192
0
VERTEX
8
OBJECT__22
10
-67.860001
20
-21.697001
30
61.008999
70
192
0
VERTEX
8
OBJECT__22
10
-68.572998
20
-22.537001
30
61.369999
70
192
0
VERTEX
8
OBJECT__22
10
-70.367996
20
-23.608999
30
62.025002
70
192
0
VERTEX
8
OBJECT__22
10
-80.000000
20
-26.444000
30
65.125000
70
192
0
VERTEX
8
OBJECT__22
10
-72.500000
20
-24.000000
30
62.314999
70
192
0
VERTEX
8
OBJECT__22
10
-72.005997
20
-23.980000
30
62.299000
70
192
0
VERTEX
8
OBJECT__22
10
-74.260002
20
-23.736000
30
62.116001
70
192
0
VERTEX
8
OBJECT__22
10
-77.211998
20
-21.715000
30
60.985001
70
192
0
VERTEX
8
OBJECT__22
10
-77.186996
20
-21.737000
30
60.997002
70
192
0
VERTEX
8
OBJECT__22
10
-75.809998
20
-23.004999
30
61.632000
70
192
0
VERTEX
8
OBJECT__22
10
-77.417999
20
-21.325001
30
60.869999
70
192
0
VERTEX
8
OBJECT__22
10
-57.000000
20
-27.601999
30
71.693001
70
192
0
VERTEX
8
OBJECT__22
10
-66.502998
20
-26.538000
30
74.707001
70
192
0
VERTEX
8
OBJECT__22
10
-66.707001
20
-26.997999
30
73.665001
70
192
0
VERTEX
8
OBJECT__22
10
-66.811996
20
-27.235001
30
73.126999
70
192
0
VERTEX
8
OBJECT__22
10
-57.000000
20
-24.267000
30
77.469002
70
192
0
VERTEX
8
OBJECT__22
10
-66.776001
20
-25.400000
30
76.348999
70
192
0
VERTEX
8
OBJECT__22
10
-67.582001
20
-24.243999
30
77.445000
70
192
0
VERTEX
8
OBJECT__22
10
-76.944000
20
-27.704000
30
70.947998
70
192
0
VERTEX
8
OBJECT__22
10
-77.387001
20
-27.556999
30
71.683998
70
192
0
VERTEX
8
OBJECT__22
10
-74.044998
20
-27.688000
30
68.899002
70
192
0
VERTEX
8
OBJECT__22
10
-75.086998
20
-27.726999
30
69.419998
70
192
0
VERTEX
8
OBJECT__22
10
-75.510002
20
-27.743000
30
69.632004
70
192
0
VERTEX
8
OBJECT__22
10
-72.411003
20
-27.656000
30
68.647003
70
192
0
VERTEX
8
OBJECT__22
10
-70.790001
20
-27.694000
30
68.956001
70
192
0
VERTEX
8
OBJECT__22
10
-68.883003
20
-27.749001
30
70.100998
70
192
0
VERTEX
8
OBJECT__22
10
-69.939003
20
-27.719000
30
69.467003
70
192
0
VERTEX
8
OBJECT__22
10
-67.528999
20
-27.594000
30
71.691002
70
192
0
VERTEX
8
OBJECT__22
10
-67.581001
20
-27.620001
30
71.587997
70
192
0
VERTEX
8
OBJECT__22
10
-80.000000
20
-24.267000
30
77.469002
70
192
0
VERTEX
8
OBJECT__22
10
-80.000000
20
-27.601999
30
71.693001
70
192
0
VERTEX
8
OBJECT__22
10
-78.497002
20
-26.535000
30
74.712997
70
192
0
VERTEX
8
OBJECT__22
10
-78.287003
20
-25.539000
30
76.182999
70
192
0
VERTEX
8
OBJECT__22
10
-77.612000
20
-24.423000
30
77.334999
70
192
0
VERTEX
8
OBJECT__22
10
-78.078003
20
-27.329000
30
72.834000
70
192
0
VERTEX
8
OBJECT__22
10
-78.263000
20
-26.979000
30
73.663002
70
192
0
VERTEX
8
OBJECT__22
10
-67.788002
20
-23.948999
30
77.723999
70
192
0
VERTEX
8
OBJECT__22
10
-69.190002
20
-22.743999
30
78.517998
70
192
0
VERTEX
8
OBJECT__22
10
-67.813004
20
-23.929001
30
77.737999
70
192
0
VERTEX
8
OBJECT__22
10
-70.739998
20
-21.959999
30
78.910004
70
192
0
VERTEX
8
OBJECT__22
10
-72.500000
20
-21.656000
30
79.039001
70
192
0
VERTEX
8
OBJECT__22
10
-74.632004
20
-22.103001
30
78.845001
70
192
0
VERTEX
8
OBJECT__22
10
-72.994003
20
-21.680000
30
79.028999
70
192
0
VERTEX
8
OBJECT__22
10
-77.452003
20
-24.259001
30
77.458000
70
192
0
VERTEX
8
OBJECT__22
10
-77.139999
20
-23.938000
30
77.697998
70
192
0
VERTEX
8
OBJECT__22
10
-76.427002
20
-23.205999
30
78.244003
70
192
0
VERTEX
8
OBJECT__22
10
0
20
0
30
0
70
128
71
1
72
2
73
3
0
VERTEX
8
OBJECT__22
10
0
20
0
30
0
70
128
71
3
72
4
73
1
0
VERTEX
8
OBJECT__22
10
0
20
0
30
0
70
128
71
5
72
6
73
2
0
VERTEX
8
OBJECT__22
10
0
20
0
30
0
70
128
71
2
72
1
73
5
0
VERTEX
8
OBJECT__22
10
0
20
0
30
0
70
128
71
5
72
7
73
6
0
VERTEX
8
OBJECT__22
10
0
20
0
30
0
70
128
71
8
72
9
73
10
0
VERTEX
8
OBJECT__22
10
0
20
0
30
0
70
128
71
8
72
11
73
12
0
VERTEX
8
OBJECT__22
10
0
20
0
30
0
70
128
71
12
72
13
73
8
0
VERTEX
8
OBJECT__22
10
0
20
0
30
0
70
128
71
13
72
9
73
8
0
VERTEX
8
OBJECT__22
10
0
20
0
30
0
70
128
71
8
72
14
73
11
0
VERTEX
8
OBJECT__22
10
0
20
0
30
0
70
128
71
15
72
16
73
14
0
VERTEX
8
OBJECT__22
10
0
20
0
30
0
70
128
71
14
72
8
73
15
0
VERTEX
8
OBJECT__22
10
0
20
0
30
0
70
128
71
15
72
17
73
18
0
VERTEX
8
OBJECT__22
10
0
20
0
30
0
70
128
71
15
72
1
73
19
0
VERTEX
8
OBJECT__22
10
0
20
0
30
0
70
128
71
19
72
20
73
15
0
VERTEX
8
OBJECT__22
10
0
20
0
30
0
70
128
71
20
72
17
73
15
0
VERTEX
8
OBJECT__22
10
0
20
0
30
0
70
128
71
18
72
16
73
15
0
VERTEX
8
OBJECT__22
10
0
20
0
30
0
70
128
71
21
72
22
73
23
0
VERTEX
8
OBJECT__22
10
0
20
0
30
0
70
128
71
23
72
24
73
21
0
VERTEX
8
OBJECT__22
10
0
20
0
30
0
70
128
71
24
72
25
73
21
0
VERTEX
8
OBJECT__22
10
0
20
0
30
0
70
128
71
22
72
26
73
27
0
VERTEX
8
OBJECT__22
10
0
20
0
30
0
70
128
71
27
72
23
73
22
0
VERTEX
8
OBJECT__22
10
0
20
0
30
0
70
128
71
22
72
10
73
26
0
VERTEX
8
OBJECT__22
10
0
20
0
30
0
70
128
71
28
72
29
73
7
0
VERTEX
8
OBJECT__22
10
0
20
0
30
0
70
128
71
28
72
30
73
31
0
VERTEX
8
OBJECT__22
10
0
20
0
30
0
70
128
71
28
72
32
73
30
0
VERTEX
8
OBJECT__22
10
0
20
0
30
0
70
128
71
31
72
29
73
28
0
VERTEX
8
OBJECT__22
10
0
20
0
30
0
70
128
71
28
72
33
73
34
0
VERTEX
8
OBJECT__22
10
0
20
0
30
0
70
128
71
33
72
35
73
36
0
VERTEX
8
OBJECT__22
10
0
20
0
30
0
70
128
71
36
72
34
73
33
0
VERTEX
8
OBJECT__22
10
0
20
0
30
0
70
128
71
34
72
32
73
28
0
VERTEX
8
OBJECT__22
10
0
20
0
30
0
70
128
71
33
72
21
73
37
0
VERTEX
8
OBJECT__22
10
0
20
0
30
0
70
128
71
37
72
38
73
33
0
VERTEX
8
OBJECT__22
10
0
20
0
30
0
70
128
71
38
72
39
73
33
0
VERTEX
8
OBJECT__22
10
0
20
0
30
0
70
128
71
39
72
35
73
33
0
VERTEX
8
OBJECT__22
10
0
20
0
30
0
70
128
71
40
72
41
73
42
0
VERTEX
8
OBJECT__22
10
0
20
0
30
0
70
128
71
42
72
43
73
40
0
VERTEX
8
OBJECT__22
10
0
20
0
30
0
70
128
71
44
72
45
73
42
0
VERTEX
8
OBJECT__22
10
0
20
0
30
0
70
128
71
44
72
46
73
47
0
VERTEX
8
OBJECT__22
10
0
20
0
30
0
70
128
71
47
72
45
73
44
0
VERTEX
8
OBJECT__22
10
0
20
0
30
0
70
128
71
42
72
41
73
44
0
VERTEX
8
OBJECT__22
10
0
20
0
30
0
70
128
71
43
72
48
73
40
0
VERTEX
8
OBJECT__22
10
0
20
0
30
0
70
128
71
49
72
33
73
50
0
VERTEX
8
OBJECT__22
10
0
20
0
30
0
70
128
71
33
72
51
73
50
0
VERTEX
8
OBJECT__22
10
0
20
0
30
0
70
128
71
33
72
52
73
53
0
VERTEX
8
OBJECT__22
10
0
20
0
30
0
70
128
71
53
72
51
73
33
0
VERTEX
8
OBJECT__22
10
0
20
0
30
0
70
128
71
28
72
54
73
55
0
VERTEX
8
OBJECT__22
10
0
20
0
30
0
70
128
71
28
72
56
73
57
0
VERTEX
8
OBJECT__22
10
0
20
0
30
0
70
128
71
28
72
58
73
56
0
VERTEX
8
OBJECT__22
10
0
20
0
30
0
70
128
71
28
72
40
73
59
0
VERTEX
8
OBJECT__22
10
0
20
0
30
0
70
128
71
59
72
58
73
28
0
VERTEX
8
OBJECT__22
10
0
20
0
30
0
70
128
71
57
72
54
73
28
0
VERTEX
8
OBJECT__22
10
0
20
0
30
0
70
128
71
55
72
33
73
28
0
VERTEX
8
OBJECT__22
10
0
20
0
30
0
70
128
71
55
72
52
73
33
0
VERTEX
8
OBJECT__22
10
0
20
0
30
0
70
128
71
60
72
61
73
62
0
VERTEX
8
OBJECT__22
10
0
20
0
30
0
70
128
71
60
72
49
73
63
0
VERTEX
8
OBJECT__22
10
0
20
0
30
0
70
128
71
49
72
64
73
63
0
VERTEX
8
OBJECT__22
10
0
20
0
30
0
70
128
71
49
72
65
73
64
0
VERTEX
8
OBJECT__22
10
0
20
0
30
0
70
128
71
63
72
61
73
60
0
VERTEX
8
OBJECT__22
10
0
20
0
30
0
70
128
71
62
72
66
73
60
0
VERTEX
8
OBJECT__22
10
0
20
0
30
0
70
128
71
67
72
68
73
46
0
VERTEX
8
OBJECT__22
10
0
20
0
30
0
70
128
71
67
72
69
73
68
0
VERTEX
8
OBJECT__22
10
0
20
0
30
0
70
128
71
67
72
70
73
69
0
VERTEX
8
OBJECT__22
10
0
20
0
30
0
70
128
71
71
72
72
73
73
0
VERTEX
8
OBJECT__22
10
0
20
0
30
0
70
128
71
73
72
67
73
71
0
VERTEX
8
OBJECT__22
10
0
20
0
30
0
70
128
71
71
72
74
73
72
0
VERTEX
8
OBJECT__22
10
0
20
0
30
0
70
128
71
71
72
75
73
76
0
VERTEX
8
OBJECT__22
10
0
20
0
30
0
70
128
71
76
72
77
73
71
0
VERTEX
8
OBJECT__22
10
0
20
0
30
0
70
128
71
66
72
78
73
75
0
VERTEX
8
OBJECT__22
10
0
20
0
30
0
70
128
71
75
72
71
73
66
0
VERTEX
8
OBJECT__22
10
0
20
0
30
0
70
128
71
77
72
74
73
71
0
VERTEX
8
OBJECT__22
10
0
20
0
30
0
70
128
71
73
72
70
73
67
0
VERTEX
8
OBJECT__22
10
0
20
0
30
0
70
128
71
79
72
80
73
81
0
VERTEX
8
OBJECT__22
10
0
20
0
30
0
70
128
71
81
72
82
73
79
0
VERTEX
8
OBJECT__22
10
0
20
0
30
0
70
128
71
83
72
84
73
80
0
VERTEX
8
OBJECT__22
10
0
20
0
30
0
70
128
71
80
72
79
73
83
0
VERTEX
8
OBJECT__22
10
0
20
0
30
0
70
128
71
83
72
85
73
84
0
VERTEX
8
OBJECT__22
10
0
20
0
30
0
70
128
71
71
72
86
73
87
0
VERTEX
8
OBJECT__22
10
0
20
0
30
0
70
128
71
71
72
88
73
89
0
VERTEX
8
OBJECT__22
10
0
20
0
30
0
70
128
71
89
72
90
73
71
0
VERTEX
8
OBJECT__22
10
0
20
0
30
0
70
128
71
90
72
86
73
71
0
VERTEX
8
OBJECT__22
10
0
20
0
30
0
70
128
71
71
72
91
73
88
0
VERTEX
8
OBJECT__22
10
0
20
0
30
0
70
128
71
67
72
92
73
91
0
VERTEX
8
OBJECT__22
10
0
20
0
30
0
70
128
71
91
72
71
73
67
0
VERTEX
8
OBJECT__22
10
0
20
0
30
0
70
128
71
67
72
93
73
94
0
VERTEX
8
OBJECT__22
10
0
20
0
30
0
70
128
71
67
72
79
73
95
0
VERTEX
8
OBJECT__22
10
0
20
0
30
0
70
128
71
95
72
96
73
67
0
VERTEX
8
OBJECT__22
10
0
20
0
30
0
70
128
71
96
72
93
73
67
0
VERTEX
8
OBJECT__22
10
0
20
0
30
0
70
128
71
94
72
92
73
67
0
VERTEX
8
OBJECT__22
10
0
20
0
30
0
70
128
71
97
72
98
73
99
0
VERTEX
8
OBJECT__22
10
0
20
0
30
0
70
128
71
99
72
100
73
97
0
VERTEX
8
OBJECT__22
10
0
20
0
30
0
70
128
71
100
72
101
73
97
0
VERTEX
8
OBJECT__22
10
0
20
0
30
0
70
128
71
98
72
102
73
103
0
VERTEX
8
OBJECT__22
10
0
20
0
30
0
70
128
71
103
72
99
73
98
0
VERTEX
8
OBJECT__22
10
0
20
0
30
0
70
128
71
98
72
87
73
102
0
VERTEX
8
OBJECT__22
10
0
20
0
30
0
70
128
71
15
72
104
73
85
0
VERTEX
8
OBJECT__22
10
0
20
0
30
0
70
128
71
15
72
105
73
106
0
VERTEX
8
OBJECT__22
10
0
20
0
30
0
70
128
71
15
72
107
73
105
0
VERTEX
8
OBJECT__22
10
0
20
0
30
0
70
128
71
106
72
104
73
15
0
VERTEX
8
OBJECT__22
10
0
20
0
30
0
70
128
71
15
72
8
73
108
0
VERTEX
8
OBJECT__22
10
0
20
0
30
0
70
128
71
8
72
109
73
110
0
VERTEX
8
OBJECT__22
10
0
20
0
30
0
70
128
71
110
72
108
73
8
0
VERTEX
8
OBJECT__22
10
0
20
0
30
0
70
128
71
108
72
107
73
15
0
VERTEX
8
OBJECT__22
10
0
20
0
30
0
70
128
71
8
72
97
73
111
0
VERTEX
8
OBJECT__22
10
0
20
0
30
0
70
128
71
111
72
112
73
8
0
VERTEX
8
OBJECT__22
10
0
20
0
30
0
70
128
71
112
72
113
73
8
0
VERTEX
8
OBJECT__22
10
0
20
0
30
0
70
128
71
113
72
109
73
8
0
VERTEX
8
OBJECT__22
10
0
20
0
30
0
70
128
71
85
72
83
73
15
0
VERTEX
8
OBJECT__22
10
0
20
0
30
0
70
128
71
101
72
111
73
97
0
VERTEX
8
OBJECT__22
10
0
20
0
30
0
70
128
71
87
72
98
73
71
0
VERTEX
8
OBJECT__22
10
0
20
0
30
0
70
128
71
82
72
95
73
79
0
VERTEX
8
OBJECT__22
10
0
20
0
30
0
70
128
71
46
72
44
73
67
0
VERTEX
8
OBJECT__22
10
0
20
0
30
0
70
128
71
62
72
78
73
66
0
VERTEX
8
OBJECT__22
10
0
20
0
30
0
70
128
71
50
72
65
73
49
0
VERTEX
8
OBJECT__22
10
0
20
0
30
0
70
128
71
48
72
59
73
40
0
VERTEX
8
OBJECT__22
10
0
20
0
30
0
70
128
71
7
72
5
73
28
0
VERTEX
8
OBJECT__22
10
0
20
0
30
0
70
128
71
25
72
37
73
21
0
VERTEX
8
OBJECT__22
10
0
20
0
30
0
70
128
71
10
72
22
73
8
0
VERTEX
8
OBJECT__22
10
0
20
0
30
0
70
128
71
4
72
19
73
1
0
SEQEND
8
OBJECT__22
0
POLYLINE
8
OBJECT__23
66
1
70
64
71
10
72
8
62
253
0
VERTEX
8
OBJECT__23
10
-80.000000
20
-18.000000
30
79.750000
70
192
0
VERTEX
8
OBJECT__23
10
-80.000000
20
-26.444000
30
65.125000
70
192
0
VERTEX
8
OBJECT__23
10
-80.000000
20
-27.601999
30
71.693001
70
192
0
VERTEX
8
OBJECT__23
10
-80.000000
20
-11.733000
30
77.469002
70
192
0
VERTEX
8
OBJECT__23
10
-80.000000
20
-8.398000
30
71.693001
70
192
0
VERTEX
8
OBJECT__23
10
-80.000000
20
-21.334999
30
60.838001
70
192
0
VERTEX
8
OBJECT__23
10
-80.000000
20
-9.556000
30
65.125000
70
192
0
VERTEX
8
OBJECT__23
10
-80.000000
20
-18.000000
30
60.250000
70
192
0
VERTEX
8
OBJECT__23
10
-80.000000
20
-14.665000
30
60.838001
70
192
0
VERTEX
8
OBJECT__23
10
-80.000000
20
-24.267000
30
77.469002
70
192
0
VERTEX
8
OBJECT__23
10
0
20
0
30
0
70
128
71
1
72
2
73
3
0
VERTEX
8
OBJECT__23
10
0
20
0
30
0
70
128
71
1
72
4
73
5
0
VERTEX
8
OBJECT__23
10
0
20
0
30
0
70
128
71
1
72
6
73
2
0
VERTEX
8
OBJECT__23
10
0
20
0
30
0
70
128
71
5
72
7
73
1
0
VERTEX
8
OBJECT__23
10
0
20
0
30
0
70
128
71
1
72
8
73
6
0
VERTEX
8
OBJECT__23
10
0
20
0
30
0
70
128
71
7
72
9
73
1
0
VERTEX
8
OBJECT__23
10
0
20
0
30
0
70
128
71
9
72
8
73
1
0
VERTEX
8
OBJECT__23
10
0
20
0
30
0
70
128
71
3
72
10
73
1
0
SEQEND
8
OBJECT__23
0
POLYLINE
8
OBJECT__24
66
1
70
64
71
39
72
39
62
253
0
VERTEX
8
OBJECT__24
10
-72.500000
20
17.476000
30
83.554001
70
192
0
VERTEX
8
OBJECT__24
10
-76.427002
20
-8.258000
30
70.386002
70
192
0
VERTEX
8
OBJECT__24
10
-77.139999
20
-8.365000
30
71.293999
70
192
0
VERTEX
8
OBJECT__24
10
-72.994003
20
-8.341000
30
68.671997
70
192
0
VERTEX
8
OBJECT__24
10
-74.632004
20
-8.289000
30
69.130997
70
192
0
VERTEX
8
OBJECT__24
10
-72.500000
20
-8.344000
30
68.646004
70
192
0
VERTEX
8
OBJECT__24
10
-77.191002
20
16.346001
30
85.510002
70
192
0
VERTEX
8
OBJECT__24
10
-78.287003
20
-8.876000
30
73.438004
70
192
0
VERTEX
8
OBJECT__24
10
-78.497002
20
-9.651000
30
75.035004
70
192
0
VERTEX
8
OBJECT__24
10
-78.349998
20
13.808000
30
89.905998
70
192
0
VERTEX
8
OBJECT__24
10
-78.500000
20
14.476000
30
88.750000
70
192
0
VERTEX
8
OBJECT__24
10
-77.452003
20
-8.412000
30
71.691002
70
192
0
VERTEX
8
OBJECT__24
10
-77.612000
20
-8.436000
30
71.894997
70
192
0
VERTEX
8
OBJECT__24
10
-75.102997
20
11.773000
30
93.431999
70
192
0
VERTEX
8
OBJECT__24
10
-76.944000
20
-12.327000
30
77.930000
70
192
0
VERTEX
8
OBJECT__24
10
-75.510002
20
-13.447000
30
78.622002
70
192
0
VERTEX
8
OBJECT__24
10
-78.078003
20
-10.881000
30
76.662003
70
192
0
VERTEX
8
OBJECT__24
10
-77.387001
20
-11.763000
30
77.434998
70
192
0
VERTEX
8
OBJECT__24
10
-78.263000
20
-10.338000
30
75.944000
70
192
0
VERTEX
8
OBJECT__24
10
-69.897003
20
11.773000
30
93.431999
70
192
0
VERTEX
8
OBJECT__24
10
-74.044998
20
-14.110000
30
78.940002
70
192
0
VERTEX
8
OBJECT__24
10
-72.411003
20
-14.344000
30
79.038002
70
192
0
VERTEX
8
OBJECT__24
10
-70.790001
20
-14.057000
30
78.917000
70
192
0
VERTEX
8
OBJECT__24
10
-75.086998
20
-13.639000
30
78.713997
70
192
0
VERTEX
8
OBJECT__24
10
-66.811996
20
-10.675000
30
76.433998
70
192
0
VERTEX
8
OBJECT__24
10
-66.707001
20
-10.327000
30
75.959999
70
192
0
VERTEX
8
OBJECT__24
10
-67.581001
20
-11.815000
30
77.537003
70
192
0
VERTEX
8
OBJECT__24
10
-67.528999
20
-11.738000
30
77.462997
70
192
0
VERTEX
8
OBJECT__24
10
-69.939003
20
-13.603000
30
78.682999
70
192
0
VERTEX
8
OBJECT__24
10
-68.883003
20
-13.038000
30
78.392998
70
192
0
VERTEX
8
OBJECT__24
10
-67.808998
20
16.346001
30
85.510002
70
192
0
VERTEX
8
OBJECT__24
10
-66.776001
20
-8.802000
30
73.234001
70
192
0
VERTEX
8
OBJECT__24
10
-67.582001
20
-8.431000
30
71.684998
70
192
0
VERTEX
8
OBJECT__24
10
-67.788002
20
-8.336000
30
71.290001
70
192
0
VERTEX
8
OBJECT__24
10
-66.650002
20
13.808000
30
89.905998
70
192
0
VERTEX
8
OBJECT__24
10
-66.502998
20
-9.654000
30
75.041000
70
192
0
VERTEX
8
OBJECT__24
10
-69.190002
20
-8.251000
30
69.849998
70
192
0
VERTEX
8
OBJECT__24
10
-70.739998
20
-8.304000
30
68.973999
70
192
0
VERTEX
8
OBJECT__24
10
-67.813004
20
-8.334000
30
71.264999
70
192
0
VERTEX
8
OBJECT__24
10
0
20
0
30
0
70
128
71
1
72
2
73
3
0
VERTEX
8
OBJECT__24
10
0
20
0
30
0
70
128
71
1
72
4
73
5
0
VERTEX
8
OBJECT__24
10
0
20
0
30
0
70
128
71
1
72
6
73
4
0
VERTEX
8
OBJECT__24
10
0
20
0
30
0
70
128
71
5
72
2
73
1
0
VERTEX
8
OBJECT__24
10
0
20
0
30
0
70
128
71
7
72
8
73
9
0
VERTEX
8
OBJECT__24
10
0
20
0
30
0
70
128
71
9
72
10
73
11
0
VERTEX
8
OBJECT__24
10
0
20
0
30
0
70
128
71
7
72
3
73
12
0
VERTEX
8
OBJECT__24
10
0
20
0
30
0
70
128
71
12
72
13
73
7
0
VERTEX
8
OBJECT__24
10
0
20
0
30
0
70
128
71
13
72
8
73
7
0
VERTEX
8
OBJECT__24
10
0
20
0
30
0
70
128
71
9
72
11
73
7
0
VERTEX
8
OBJECT__24
10
0
20
0
30
0
70
128
71
14
72
15
73
16
0
VERTEX
8
OBJECT__24
10
0
20
0
30
0
70
128
71
14
72
17
73
18
0
VERTEX
8
OBJECT__24
10
0
20
0
30
0
70
128
71
18
72
15
73
14
0
VERTEX
8
OBJECT__24
10
0
20
0
30
0
70
128
71
14
72
10
73
19
0
VERTEX
8
OBJECT__24
10
0
20
0
30
0
70
128
71
19
72
17
73
14
0
VERTEX
8
OBJECT__24
10
0
20
0
30
0
70
128
71
20
72
21
73
22
0
VERTEX
8
OBJECT__24
10
0
20
0
30
0
70
128
71
22
72
23
73
20
0
VERTEX
8
OBJECT__24
10
0
20
0
30
0
70
128
71
20
72
14
73
24
0
VERTEX
8
OBJECT__24
10
0
20
0
30
0
70
128
71
24
72
21
73
20
0
VERTEX
8
OBJECT__24
10
0
20
0
30
0
70
128
71
20
72
25
73
26
0
VERTEX
8
OBJECT__24
10
0
20
0
30
0
70
128
71
20
72
27
73
28
0
VERTEX
8
OBJECT__24
10
0
20
0
30
0
70
128
71
20
72
29
73
30
0
VERTEX
8
OBJECT__24
10
0
20
0
30
0
70
128
71
30
72
27
73
20
0
VERTEX
8
OBJECT__24
10
0
20
0
30
0
70
128
71
28
72
25
73
20
0
VERTEX
8
OBJECT__24
10
0
20
0
30
0
70
128
71
31
72
32
73
33
0
VERTEX
8
OBJECT__24
10
0
20
0
30
0
70
128
71
33
72
34
73
31
0
VERTEX
8
OBJECT__24
10
0
20
0
30
0
70
128
71
31
72
35
73
36
0
VERTEX
8
OBJECT__24
10
0
20
0
30
0
70
128
71
36
72
32
73
31
0
VERTEX
8
OBJECT__24
10
0
20
0
30
0
70
128
71
35
72
26
73
36
0
VERTEX
8
OBJECT__24
10
0
20
0
30
0
70
128
71
1
72
37
73
38
0
VERTEX
8
OBJECT__24
10
0
20
0
30
0
70
128
71
1
72
31
73
39
0
VERTEX
8
OBJECT__24
10
0
20
0
30
0
70
128
71
39
72
37
73
1
0
VERTEX
8
OBJECT__24
10
0
20
0
30
0
70
128
71
38
72
6
73
1
0
VERTEX
8
OBJECT__24
10
0
20
0
30
0
70
128
71
34
72
39
73
31
0
VERTEX
8
OBJECT__24
10
0
20
0
30
0
70
128
71
26
72
35
73
20
0
VERTEX
8
OBJECT__24
10
0
20
0
30
0
70
128
71
23
72
29
73
20
0
VERTEX
8
OBJECT__24
10
0
20
0
30
0
70
128
71
16
72
24
73
14
0
VERTEX
8
OBJECT__24
10
0
20
0
30
0
70
128
71
9
72
19
73
10
0
VERTEX
8
OBJECT__24
10
0
20
0
30
0
70
128
71
3
72
7
73
1
0
SEQEND
8
OBJECT__24
0
POLYLINE
8
OBJECT__25
66
1
70
64
71
8
72
6
62
253
0
VERTEX
8
OBJECT__25
10
-78.349998
20
13.808000
30
89.905998
70
192
0
VERTEX
8
OBJECT__25
10
-75.102997
20
11.773000
30
93.431999
70
192
0
VERTEX
8
OBJECT__25
10
-69.897003
20
11.773000
30
93.431999
70
192
0
VERTEX
8
OBJECT__25
10
-66.650002
20
13.808000
30
89.905998
70
192
0
VERTEX
8
OBJECT__25
10
-67.808998
20
16.346001
30
85.510002
70
192
0
VERTEX
8
OBJECT__25
10
-72.500000
20
17.476000
30
83.554001
70
192
0
VERTEX
8
OBJECT__25
10
-78.500000
20
14.476000
30
88.750000
70
192
0
VERTEX
8
OBJECT__25
10
-77.191002
20
16.346001
30
85.510002
70
192
0
VERTEX
8
OBJECT__25
10
0
20
0
30
0
70
128
71
1
72
2
73
3
0
VERTEX
8
OBJECT__25
10
0
20
0
30
0
70
128
71
4
72
5
73
6
0
VERTEX
8
OBJECT__25
10
0
20
0
30
0
70
128
71
4
72
7
73
1
0
VERTEX
8
OBJECT__25
10
0
20
0
30
0
70
128
71
6
72
8
73
4
0
VERTEX
8
OBJECT__25
10
0
20
0
30
0
70
128
71
8
72
7
73
4
0
VERTEX
8
OBJECT__25
10
0
20
0
30
0
70
128
71
3
72
4
73
1
0
SEQEND
8
OBJECT__25
0
POLYLINE
8
OBJECT__26
66
1
70
64
71
39
72
39
62
253
0
VERTEX
8
OBJECT__26
10
-72.500000
20
-24.000000
30
32.500000
70
192
0
VERTEX
8
OBJECT__26
10
-75.809998
20
-23.004999
30
61.632000
70
192
0
VERTEX
8
OBJECT__26
10
-77.186996
20
-21.737000
30
60.997002
70
192
0
VERTEX
8
OBJECT__26
10
-72.500000
20
-24.000000
30
62.314999
70
192
0
VERTEX
8
OBJECT__26
10
-74.260002
20
-23.736000
30
62.116001
70
192
0
VERTEX
8
OBJECT__26
10
-77.191002
20
-21.740999
30
32.500000
70
192
0
VERTEX
8
OBJECT__26
10
-78.223999
20
-19.798000
30
60.417000
70
192
0
VERTEX
8
OBJECT__26
10
-78.497002
20
-17.808001
30
60.251999
70
192
0
VERTEX
8
OBJECT__26
10
-77.211998
20
-21.715000
30
60.985001
70
192
0
VERTEX
8
OBJECT__26
10
-77.417999
20
-21.325001
30
60.869999
70
192
0
VERTEX
8
OBJECT__26
10
-78.349998
20
-16.665001
30
32.500000
70
192
0
VERTEX
8
OBJECT__26
10
-75.102997
20
-12.594000
30
32.500000
70
192
0
VERTEX
8
OBJECT__26
10
-77.418999
20
-14.565000
30
60.875000
70
192
0
VERTEX
8
OBJECT__26
10
-76.116997
20
-13.213000
30
61.506001
70
192
0
VERTEX
8
OBJECT__26
10
-78.188004
20
-16.090000
30
60.438999
70
192
0
VERTEX
8
OBJECT__26
10
-77.471001
20
-14.668000
30
60.846001
70
192
0
VERTEX
8
OBJECT__26
10
-78.292999
20
-16.674999
30
60.375000
70
192
0
VERTEX
8
OBJECT__26
10
-72.500000
20
-12.000000
30
32.500000
70
192
0
VERTEX
8
OBJECT__26
10
-75.060997
20
-12.679000
30
61.849998
70
192
0
VERTEX
8
OBJECT__26
10
-74.209999
20
-12.249000
30
62.126999
70
192
0
VERTEX
8
OBJECT__26
10
-70.955002
20
-12.202000
30
62.160999
70
192
0
VERTEX
8
OBJECT__26
10
-69.913002
20
-12.634000
30
61.866001
70
192
0
VERTEX
8
OBJECT__26
10
-72.588997
20
-12.001000
30
62.313999
70
192
0
VERTEX
8
OBJECT__26
10
-69.897003
20
-12.594000
30
32.500000
70
192
0
VERTEX
8
OBJECT__26
10
-66.921997
20
-15.790000
30
60.504002
70
192
0
VERTEX
8
OBJECT__26
10
-66.737000
20
-16.683001
30
60.393002
70
192
0
VERTEX
8
OBJECT__26
10
-68.056000
20
-13.969000
30
61.122002
70
192
0
VERTEX
8
OBJECT__26
10
-67.612999
20
-14.680000
30
60.881001
70
192
0
VERTEX
8
OBJECT__26
10
-69.489998
20
-12.810000
30
61.745998
70
192
0
VERTEX
8
OBJECT__26
10
-67.808998
20
-21.740999
30
32.500000
70
192
0
VERTEX
8
OBJECT__26
10
-67.388000
20
-21.141001
30
60.770000
70
192
0
VERTEX
8
OBJECT__26
10
-67.547997
20
-21.329000
30
60.851002
70
192
0
VERTEX
8
OBJECT__26
10
-66.712997
20
-19.584999
30
60.380001
70
192
0
VERTEX
8
OBJECT__26
10
-66.650002
20
-16.665001
30
32.500000
70
192
0
VERTEX
8
OBJECT__26
10
-66.502998
20
-17.813999
30
60.251999
70
192
0
VERTEX
8
OBJECT__26
10
-68.572998
20
-22.537001
30
61.369999
70
192
0
VERTEX
8
OBJECT__26
10
-70.367996
20
-23.608999
30
62.025002
70
192
0
VERTEX
8
OBJECT__26
10
-72.005997
20
-23.980000
30
62.299000
70
192
0
VERTEX
8
OBJECT__26
10
-67.860001
20
-21.697001
30
61.008999
70
192
0
VERTEX
8
OBJECT__26
10
0
20
0
30
0
70
128
71
1
72
2
73
3
0
VERTEX
8
OBJECT__26
10
0
20
0
30
0
70
128
71
1
72
4
73
5
0
VERTEX
8
OBJECT__26
10
0
20
0
30
0
70
128
71
5
72
2
73
1
0
VERTEX
8
OBJECT__26
10
0
20
0
30
0
70
128
71
6
72
7
73
8
0
VERTEX
8
OBJECT__26
10
0
20
0
30
0
70
128
71
6
72
3
73
9
0
VERTEX
8
OBJECT__26
10
0
20
0
30
0
70
128
71
9
72
10
73
6
0
VERTEX
8
OBJECT__26
10
0
20
0
30
0
70
128
71
10
72
7
73
6
0
VERTEX
8
OBJECT__26
10
0
20
0
30
0
70
128
71
8
72
11
73
6
0
VERTEX
8
OBJECT__26
10
0
20
0
30
0
70
128
71
12
72
13
73
14
0
VERTEX
8
OBJECT__26
10
0
20
0
30
0
70
128
71
12
72
15
73
16
0
VERTEX
8
OBJECT__26
10
0
20
0
30
0
70
128
71
16
72
13
73
12
0
VERTEX
8
OBJECT__26
10
0
20
0
30
0
70
128
71
12
72
11
73
17
0
VERTEX
8
OBJECT__26
10
0
20
0
30
0
70
128
71
17
72
15
73
12
0
VERTEX
8
OBJECT__26
10
0
20
0
30
0
70
128
71
18
72
12
73
19
0
VERTEX
8
OBJECT__26
10
0
20
0
30
0
70
128
71
19
72
20
73
18
0
VERTEX
8
OBJECT__26
10
0
20
0
30
0
70
128
71
18
72
21
73
22
0
VERTEX
8
OBJECT__26
10
0
20
0
30
0
70
128
71
18
72
23
73
21
0
VERTEX
8
OBJECT__26
10
0
20
0
30
0
70
128
71
22
72
24
73
18
0
VERTEX
8
OBJECT__26
10
0
20
0
30
0
70
128
71
24
72
25
73
26
0
VERTEX
8
OBJECT__26
10
0
20
0
30
0
70
128
71
24
72
27
73
28
0
VERTEX
8
OBJECT__26
10
0
20
0
30
0
70
128
71
24
72
22
73
29
0
VERTEX
8
OBJECT__26
10
0
20
0
30
0
70
128
71
29
72
27
73
24
0
VERTEX
8
OBJECT__26
10
0
20
0
30
0
70
128
71
28
72
25
73
24
0
VERTEX
8
OBJECT__26
10
0
20
0
30
0
70
128
71
30
72
31
73
32
0
VERTEX
8
OBJECT__26
10
0
20
0
30
0
70
128
71
30
72
33
73
31
0
VERTEX
8
OBJECT__26
10
0
20
0
30
0
70
128
71
30
72
34
73
35
0
VERTEX
8
OBJECT__26
10
0
20
0
30
0
70
128
71
35
72
33
73
30
0
VERTEX
8
OBJECT__26
10
0
20
0
30
0
70
128
71
34
72
26
73
35
0
VERTEX
8
OBJECT__26
10
0
20
0
30
0
70
128
71
1
72
36
73
37
0
VERTEX
8
OBJECT__26
10
0
20
0
30
0
70
128
71
37
72
38
73
1
0
VERTEX
8
OBJECT__26
10
0
20
0
30
0
70
128
71
1
72
30
73
39
0
VERTEX
8
OBJECT__26
10
0
20
0
30
0
70
128
71
39
72
36
73
1
0
VERTEX
8
OBJECT__26
10
0
20
0
30
0
70
128
71
38
72
4
73
1
0
VERTEX
8
OBJECT__26
10
0
20
0
30
0
70
128
71
32
72
39
73
30
0
VERTEX
8
OBJECT__26
10
0
20
0
30
0
70
128
71
26
72
34
73
24
0
VERTEX
8
OBJECT__26
10
0
20
0
30
0
70
128
71
20
72
23
73
18
0
VERTEX
8
OBJECT__26
10
0
20
0
30
0
70
128
71
14
72
19
73
12
0
VERTEX
8
OBJECT__26
10
0
20
0
30
0
70
128
71
8
72
17
73
11
0
VERTEX
8
OBJECT__26
10
0
20
0
30
0
70
128
71
3
72
6
73
1
0
SEQEND
8
OBJECT__26
0
POLYLINE
8
OBJECT__27
66
1
70
64
71
8
72
6
62
253
0
VERTEX
8
OBJECT__27
10
-72.500000
20
-24.000000
30
32.500000
70
192
0
VERTEX
8
OBJECT__27
10
-69.897003
20
-12.594000
30
32.500000
70
192
0
VERTEX
8
OBJECT__27
10
-66.650002
20
-16.665001
30
32.500000
70
192
0
VERTEX
8
OBJECT__27
10
-75.102997
20
-12.594000
30
32.500000
70
192
0
VERTEX
8
OBJECT__27
10
-77.191002
20
-21.740999
30
32.500000
70
192
0
VERTEX
8
OBJECT__27
10
-72.500000
20
-12.000000
30
32.500000
70
192
0
VERTEX
8
OBJECT__27
10
-78.349998
20
-16.665001
30
32.500000
70
192
0
VERTEX
8
OBJECT__27
10
-67.808998
20
-21.740999
30
32.500000
70
192
0
VERTEX
8
OBJECT__27
10
0
20
0
30
0
70
128
71
1
72
2
73
3
0
VERTEX
8
OBJECT__27
10
0
20
0
30
0
70
128
71
4
72
1
73
5
0
VERTEX
8
OBJECT__27
10
0
20
0
30
0
70
128
71
1
72
6
73
2
0
VERTEX
8
OBJECT__27
10
0
20
0
30
0
70
128
71
5
72
7
73
4
0
VERTEX
8
OBJECT__27
10
0
20
0
30
0
70
128
71
4
72
6
73
1
0
VERTEX
8
OBJECT__27
10
0
20
0
30
0
70
128
71
3
72
8
73
1
0
SEQEND
8
OBJECT__27
0
POLYLINE
8
OBJECT__28
66
1
70
64
71
21
72
21
62
253
0
VERTEX
8
OBJECT__28
10
-57.000000
20
-13.816000
30
84.248001
70
192
0
VERTEX
8
OBJECT__28
10
-57.000000
20
-6.777000
30
79.724998
70
192
0
VERTEX
8
OBJECT__28
10
-57.000000
20
-13.592000
30
76.068001
70
192
0
VERTEX
8
OBJECT__28
10
-57.000000
20
-18.000000
30
77.500000
70
192
0
VERTEX
8
OBJECT__28
10
-57.000000
20
-22.184000
30
84.248001
70
192
0
VERTEX
8
OBJECT__28
10
-57.000000
20
-3.301000
30
72.112999
70
192
0
VERTEX
8
OBJECT__28
10
-57.000000
20
-10.867000
30
72.318001
70
192
0
VERTEX
8
OBJECT__28
10
-57.000000
20
-26.028999
30
57.507000
70
192
0
VERTEX
8
OBJECT__28
10
-57.000000
20
-22.408001
30
63.931999
70
192
0
VERTEX
8
OBJECT__28
10
-57.000000
20
-18.000000
30
62.500000
70
192
0
VERTEX
8
OBJECT__28
10
-57.000000
20
-31.507999
30
63.831001
70
192
0
VERTEX
8
OBJECT__28
10
-57.000000
20
-25.132999
30
67.681999
70
192
0
VERTEX
8
OBJECT__28
10
-57.000000
20
-4.492000
30
63.831001
70
192
0
VERTEX
8
OBJECT__28
10
-57.000000
20
-10.867000
30
67.681999
70
192
0
VERTEX
8
OBJECT__28
10
-57.000000
20
-9.971000
30
57.507000
70
192
0
VERTEX
8
OBJECT__28
10
-57.000000
20
-13.592000
30
63.931999
70
192
0
VERTEX
8
OBJECT__28
10
-57.000000
20
-18.000000
30
55.150002
70
192
0
VERTEX
8
OBJECT__28
10
-57.000000
20
-32.699001
30
72.112999
70
192
0
VERTEX
8
OBJECT__28
10
-57.000000
20
-25.132999
30
72.318001
70
192
0
VERTEX
8
OBJECT__28
10
-57.000000
20
-29.223000
30
79.724998
70
192
0
VERTEX
8
OBJECT__28
10
-57.000000
20
-22.408001
30
76.068001
70
192
0
VERTEX
8
OBJECT__28
10
0
20
0
30
0
70
128
71
1
72
2
73
3
0
VERTEX
8
OBJECT__28
10
0
20
0
30
0
70
128
71
4
72
5
73
1
0
VERTEX
8
OBJECT__28
10
0
20
0
30
0
70
128
71
2
72
6
73
7
0
VERTEX
8
OBJECT__28
10
0
20
0
30
0
70
128
71
8
72
9
73
10
0
VERTEX
8
OBJECT__28
10
0
20
0
30
0
70
128
71
11
72
12
73
9
0
VERTEX
8
OBJECT__28
10
0
20
0
30
0
70
128
71
7
72
3
73
2
0
VERTEX
8
OBJECT__28
10
0
20
0
30
0
70
128
71
6
72
13
73
14
0
VERTEX
8
OBJECT__28
10
0
20
0
30
0
70
128
71
13
72
15
73
16
0
VERTEX
8
OBJECT__28
10
0
20
0
30
0
70
128
71
15
72
17
73
10
0
VERTEX
8
OBJECT__28
10
0
20
0
30
0
70
128
71
9
72
8
73
11
0
VERTEX
8
OBJECT__28
10
0
20
0
30
0
70
128
71
18
72
19
73
12
0
VERTEX
8
OBJECT__28
10
0
20
0
30
0
70
128
71
20
72
21
73
19
0
VERTEX
8
OBJECT__28
10
0
20
0
30
0
70
128
71
5
72
4
73
21
0
VERTEX
8
OBJECT__28
10
0
20
0
30
0
70
128
71
14
72
7
73
6
0
VERTEX
8
OBJECT__28
10
0
20
0
30
0
70
128
71
10
72
16
73
15
0
VERTEX
8
OBJECT__28
10
0
20
0
30
0
70
128
71
12
72
11
73
18
0
VERTEX
8
OBJECT__28
10
0
20
0
30
0
70
128
71
21
72
20
73
5
0
VERTEX
8
OBJECT__28
10
0
20
0
30
0
70
128
71
16
72
14
73
13
0
VERTEX
8
OBJECT__28
10
0
20
0
30
0
70
128
71
19
72
18
73
20
0
VERTEX
8
OBJECT__28
10
0
20
0
30
0
70
128
71
10
72
17
73
8
0
VERTEX
8
OBJECT__28
10
0
20
0
30
0
70
128
71
3
72
4
73
1
0
SEQEND
8
OBJECT__28
0
POLYLINE
8
OBJECT__29
66
1
70
64
71
23
72
23
62
253
0
VERTEX
8
OBJECT__29
10
-35.000000
20
-9.971000
30
57.507000
70
192
0
VERTEX
8
OBJECT__29
10
-35.000000
20
-18.000000
30
55.150002
70
192
0
VERTEX
8
OBJECT__29
10
-57.000000
20
-18.000000
30
55.150002
70
192
0
VERTEX
8
OBJECT__29
10
-57.000000
20
-4.492000
30
63.831001
70
192
0
VERTEX
8
OBJECT__29
10
-35.000000
20
-4.492000
30
63.831001
70
192
0
VERTEX
8
OBJECT__29
10
-35.000000
20
-3.301000
30
72.112999
70
192
0
VERTEX
8
OBJECT__29
10
-57.000000
20
-6.777000
30
79.724998
70
192
0
VERTEX
8
OBJECT__29
10
-35.000000
20
-6.777000
30
79.724998
70
192
0
VERTEX
8
OBJECT__29
10
-35.000000
20
-13.816000
30
84.248001
70
192
0
VERTEX
8
OBJECT__29
10
-57.000000
20
-13.816000
30
84.248001
70
192
0
VERTEX
8
OBJECT__29
10
-57.000000
20
-22.184000
30
84.248001
70
192
0
VERTEX
8
OBJECT__29
10
-35.000000
20
-18.000000
30
84.849998
70
192
0
VERTEX
8
OBJECT__29
10
-35.000000
20
-22.184000
30
84.248001
70
192
0
VERTEX
8
OBJECT__29
10
-35.000000
20
-29.223000
30
79.724998
70
192
0
VERTEX
8
OBJECT__29
10
-57.000000
20
-32.699001
30
72.112999
70
192
0
VERTEX
8
OBJECT__29
10
-35.000000
20
-32.699001
30
72.112999
70
192
0
VERTEX
8
OBJECT__29
10
-57.000000
20
-31.507999
30
63.831001
70
192
0
VERTEX
8
OBJECT__29
10
-35.000000
20
-31.507999
30
63.831001
70
192
0
VERTEX
8
OBJECT__29
10
-35.000000
20
-26.028999
30
57.507000
70
192
0
VERTEX
8
OBJECT__29
10
-57.000000
20
-26.028999
30
57.507000
70
192
0
VERTEX
8
OBJECT__29
10
-57.000000
20
-29.223000
30
79.724998
70
192
0
VERTEX
8
OBJECT__29
10
-57.000000
20
-3.301000
30
72.112999
70
192
0
VERTEX
8
OBJECT__29
10
-57.000000
20
-9.971000
30
57.507000
70
192
0
VERTEX
8
OBJECT__29
10
0
20
0
30
0
70
128
71
1
72
2
73
3
0
VERTEX
8
OBJECT__29
10
0
20
0
30
0
70
128
71
4
72
5
73
1
0
VERTEX
8
OBJECT__29
10
0
20
0
30
0
70
128
71
6
72
5
73
4
0
VERTEX
8
OBJECT__29
10
0
20
0
30
0
70
128
71
7
72
8
73
6
0
VERTEX
8
OBJECT__29
10
0
20
0
30
0
70
128
71
9
72
8
73
7
0
VERTEX
8
OBJECT__29
10
0
20
0
30
0
70
128
71
10
72
11
73
12
0
VERTEX
8
OBJECT__29
10
0
20
0
30
0
70
128
71
11
72
13
73
12
0
VERTEX
8
OBJECT__29
10
0
20
0
30
0
70
128
71
14
72
13
73
11
0
VERTEX
8
OBJECT__29
10
0
20
0
30
0
70
128
71
15
72
16
73
14
0
VERTEX
8
OBJECT__29
10
0
20
0
30
0
70
128
71
17
72
18
73
16
0
VERTEX
8
OBJECT__29
10
0
20
0
30
0
70
128
71
19
72
18
73
17
0
VERTEX
8
OBJECT__29
10
0
20
0
30
0
70
128
71
3
72
2
73
19
0
VERTEX
8
OBJECT__29
10
0
20
0
30
0
70
128
71
19
72
20
73
3
0
VERTEX
8
OBJECT__29
10
0
20
0
30
0
70
128
71
17
72
20
73
19
0
VERTEX
8
OBJECT__29
10
0
20
0
30
0
70
128
71
16
72
15
73
17
0
VERTEX
8
OBJECT__29
10
0
20
0
30
0
70
128
71
14
72
21
73
15
0
VERTEX
8
OBJECT__29
10
0
20
0
30
0
70
128
71
11
72
21
73
14
0
VERTEX
8
OBJECT__29
10
0
20
0
30
0
70
128
71
12
72
9
73
10
0
VERTEX
8
OBJECT__29
10
0
20
0
30
0
70
128
71
7
72
10
73
9
0
VERTEX
8
OBJECT__29
10
0
20
0
30
0
70
128
71
6
72
22
73
7
0
VERTEX
8
OBJECT__29
10
0
20
0
30
0
70
128
71
4
72
22
73
6
0
VERTEX
8
OBJECT__29
10
0
20
0
30
0
70
128
71
1
72
23
73
4
0
VERTEX
8
OBJECT__29
10
0
20
0
30
0
70
128
71
3
72
23
73
1
0
SEQEND
8
OBJECT__29
0
POLYLINE
8
OBJECT__31
66
1
70
64
71
15
72
13
62
253
0
VERTEX
8
OBJECT__31
10
23.816000
20
-13.750000
30
0.000000
70
192
0
VERTEX
8
OBJECT__31
10
5.718000
20
-26.899000
30
0.000000
70
192
0
VERTEX
8
OBJECT__31
10
-5.718000
20
-26.899000
30
0.000000
70
192
0
VERTEX
8
OBJECT__31
10
16.164000
20
-22.247999
30
0.000000
70
192
0
VERTEX
8
OBJECT__31
10
-11.185000
20
25.122999
30
0.000000
70
192
0
VERTEX
8
OBJECT__31
10
0.000000
20
27.500000
30
0.000000
70
192
0
VERTEX
8
OBJECT__31
10
11.185000
20
25.122999
30
0.000000
70
192
0
VERTEX
8
OBJECT__31
10
20.436001
20
18.400999
30
0.000000
70
192
0
VERTEX
8
OBJECT__31
10
-26.153999
20
8.498000
30
0.000000
70
192
0
VERTEX
8
OBJECT__31
10
-20.436001
20
18.400999
30
0.000000
70
192
0
VERTEX
8
OBJECT__31
10
-23.816000
20
-13.750000
30
0.000000
70
192
0
VERTEX
8
OBJECT__31
10
-27.349001
20
-2.875000
30
0.000000
70
192
0
VERTEX
8
OBJECT__31
10
-16.164000
20
-22.247999
30
0.000000
70
192
0
VERTEX
8
OBJECT__31
10
27.349001
20
-2.875000
30
0.000000
70
192
0
VERTEX
8
OBJECT__31
10
26.153999
20
8.498000
30
0.000000
70
192
0
VERTEX
8
OBJECT__31
10
0
20
0
30
0
70
128
71
1
72
2
73
3
0
VERTEX
8
OBJECT__31
10
0
20
0
30
0
70
128
71
1
72
4
73
2
0
VERTEX
8
OBJECT__31
10
0
20
0
30
0
70
128
71
5
72
6
73
7
0
VERTEX
8
OBJECT__31
10
0
20
0
30
0
70
128
71
8
72
9
73
10
0
VERTEX
8
OBJECT__31
10
0
20
0
30
0
70
128
71
8
72
11
73
12
0
VERTEX
8
OBJECT__31
10
0
20
0
30
0
70
128
71
13
72
14
73
1
0
VERTEX
8
OBJECT__31
10
0
20
0
30
0
70
128
71
13
72
8
73
15
0
VERTEX
8
OBJECT__31
10
0
20
0
30
0
70
128
71
10
72
5
73
8
0
VERTEX
8
OBJECT__31
10
0
20
0
30
0
70
128
71
8
72
13
73
11
0
VERTEX
8
OBJECT__31
10
0
20
0
30
0
70
128
71
15
72
14
73
13
0
VERTEX
8
OBJECT__31
10
0
20
0
30
0
70
128
71
12
72
9
73
8
0
VERTEX
8
OBJECT__31
10
0
20
0
30
0
70
128
71
7
72
8
73
5
0
VERTEX
8
OBJECT__31
10
0
20
0
30
0
70
128
71
3
72
13
73
1
0
SEQEND
8
OBJECT__31
0
POLYLINE
8
OBJECT__32
66
1
70
64
71
48
72
48
62
253
0
VERTEX
8
OBJECT__32
10
0.000000
20
27.500000
30
0.000000
70
192
0
VERTEX
8
OBJECT__32
10
0.000000
20
27.500000
30
5.500000
70
192
0
VERTEX
8
OBJECT__32
10
8.106000
20
26.278000
30
5.500000
70
192
0
VERTEX
8
OBJECT__32
10
11.185000
20
25.122999
30
0.000000
70
192
0
VERTEX
8
OBJECT__32
10
20.436001
20
18.400999
30
0.000000
70
192
0
VERTEX
8
OBJECT__32
10
15.491000
20
22.722000
30
5.500000
70
192
0
VERTEX
8
OBJECT__32
10
11.057000
20
24.857000
30
5.500000
70
192
0
VERTEX
8
OBJECT__32
10
26.153999
20
8.498000
30
0.000000
70
192
0
VERTEX
8
OBJECT__32
10
21.500000
20
17.146000
30
5.500000
70
192
0
VERTEX
8
OBJECT__32
10
25.599001
20
10.047000
30
5.500000
70
192
0
VERTEX
8
OBJECT__32
10
20.302999
20
18.257000
30
5.500000
70
192
0
VERTEX
8
OBJECT__32
10
25.962999
20
8.454000
30
5.500000
70
192
0
VERTEX
8
OBJECT__32
10
27.423000
20
2.055000
30
5.500000
70
192
0
VERTEX
8
OBJECT__32
10
27.349001
20
-2.875000
30
0.000000
70
192
0
VERTEX
8
OBJECT__32
10
23.816000
20
-13.750000
30
0.000000
70
192
0
VERTEX
8
OBJECT__32
10
26.811001
20
-6.119000
30
5.500000
70
192
0
VERTEX
8
OBJECT__32
10
27.055000
20
-2.852000
30
5.500000
70
192
0
VERTEX
8
OBJECT__32
10
23.816000
20
-13.750000
30
5.500000
70
192
0
VERTEX
8
OBJECT__32
10
18.705000
20
-20.159000
30
5.500000
70
192
0
VERTEX
8
OBJECT__32
10
16.164000
20
-22.247999
30
0.000000
70
192
0
VERTEX
8
OBJECT__32
10
5.718000
20
-26.899000
30
0.000000
70
192
0
VERTEX
8
OBJECT__32
10
11.932000
20
-24.777000
30
5.500000
70
192
0
VERTEX
8
OBJECT__32
10
15.998000
20
-22.004000
30
5.500000
70
192
0
VERTEX
8
OBJECT__32
10
4.099000
20
-27.193001
30
5.500000
70
192
0
VERTEX
8
OBJECT__32
10
-4.099000
20
-27.193001
30
5.500000
70
192
0
VERTEX
8
OBJECT__32
10
-5.718000
20
-26.899000
30
0.000000
70
192
0
VERTEX
8
OBJECT__32
10
5.660000
20
-26.711000
30
5.500000
70
192
0
VERTEX
8
OBJECT__32
10
-5.660000
20
-26.711000
30
5.500000
70
192
0
VERTEX
8
OBJECT__32
10
-11.932000
20
-24.777000
30
5.500000
70
192
0
VERTEX
8
OBJECT__32
10
-16.164000
20
-22.247999
30
0.000000
70
192
0
VERTEX
8
OBJECT__32
10
-23.816000
20
-13.750000
30
0.000000
70
192
0
VERTEX
8
OBJECT__32
10
-18.705000
20
-20.159000
30
5.500000
70
192
0
VERTEX
8
OBJECT__32
10
-15.998000
20
-22.004000
30
5.500000
70
192
0
VERTEX
8
OBJECT__32
10
-23.816000
20
-13.750000
30
5.500000
70
192
0
VERTEX
8
OBJECT__32
10
-26.811001
20
-6.119000
30
5.500000
70
192
0
VERTEX
8
OBJECT__32
10
-27.349001
20
-2.875000
30
0.000000
70
192
0
VERTEX
8
OBJECT__32
10
-26.153999
20
8.498000
30
0.000000
70
192
0
VERTEX
8
OBJECT__32
10
-27.423000
20
2.055000
30
5.500000
70
192
0
VERTEX
8
OBJECT__32
10
-27.055000
20
-2.852000
30
5.500000
70
192
0
VERTEX
8
OBJECT__32
10
-20.436001
20
18.400999
30
0.000000
70
192
0
VERTEX
8
OBJECT__32
10
-25.599001
20
10.047000
30
5.500000
70
192
0
VERTEX
8
OBJECT__32
10
-21.500000
20
17.146000
30
5.500000
70
192
0
VERTEX
8
OBJECT__32
10
-25.962999
20
8.454000
30
5.500000
70
192
0
VERTEX
8
OBJECT__32
10
-20.302999
20
18.257000
30
5.500000
70
192
0
VERTEX
8
OBJECT__32
10
-15.491000
20
22.722000
30
5.500000
70
192
0
VERTEX
8
OBJECT__32
10
-11.185000
20
25.122999
30
0.000000
70
192
0
VERTEX
8
OBJECT__32
10
-8.106000
20
26.278000
30
5.500000
70
192
0
VERTEX
8
OBJECT__32
10
-11.057000
20
24.857000
30
5.500000
70
192
0
VERTEX
8
OBJECT__32
10
0
20
0
30
0
70
128
71
1
72
2
73
3
0
VERTEX
8
OBJECT__32
10
0
20
0
30
0
70
128
71
3
72
4
73
1
0
VERTEX
8
OBJECT__32
10
0
20
0
30
0
70
128
71
5
72
4
73
6
0
VERTEX
8
OBJECT__32
10
0
20
0
30
0
70
128
71
4
72
7
73
6
0
VERTEX
8
OBJECT__32
10
0
20
0
30
0
70
128
71
8
72
5
73
9
0
VERTEX
8
OBJECT__32
10
0
20
0
30
0
70
128
71
9
72
10
73
8
0
VERTEX
8
OBJECT__32
10
0
20
0
30
0
70
128
71
5
72
11
73
9
0
VERTEX
8
OBJECT__32
10
0
20
0
30
0
70
128
71
8
72
12
73
13
0
VERTEX
8
OBJECT__32
10
0
20
0
30
0
70
128
71
13
72
14
73
8
0
VERTEX
8
OBJECT__32
10
0
20
0
30
0
70
128
71
15
72
14
73
16
0
VERTEX
8
OBJECT__32
10
0
20
0
30
0
70
128
71
14
72
17
73
16
0
VERTEX
8
OBJECT__32
10
0
20
0
30
0
70
128
71
15
72
18
73
19
0
VERTEX
8
OBJECT__32
10
0
20
0
30
0
70
128
71
19
72
20
73
15
0
VERTEX
8
OBJECT__32
10
0
20
0
30
0
70
128
71
21
72
20
73
22
0
VERTEX
8
OBJECT__32
10
0
20
0
30
0
70
128
71
20
72
23
73
22
0
VERTEX
8
OBJECT__32
10
0
20
0
30
0
70
128
71
21
72
24
73
25
0
VERTEX
8
OBJECT__32
10
0
20
0
30
0
70
128
71
25
72
26
73
21
0
VERTEX
8
OBJECT__32
10
0
20
0
30
0
70
128
71
21
72
27
73
24
0
VERTEX
8
OBJECT__32
10
0
20
0
30
0
70
128
71
26
72
28
73
29
0
VERTEX
8
OBJECT__32
10
0
20
0
30
0
70
128
71
29
72
30
73
26
0
VERTEX
8
OBJECT__32
10
0
20
0
30
0
70
128
71
31
72
30
73
32
0
VERTEX
8
OBJECT__32
10
0
20
0
30
0
70
128
71
30
72
33
73
32
0
VERTEX
8
OBJECT__32
10
0
20
0
30
0
70
128
71
31
72
34
73
35
0
VERTEX
8
OBJECT__32
10
0
20
0
30
0
70
128
71
35
72
36
73
31
0
VERTEX
8
OBJECT__32
10
0
20
0
30
0
70
128
71
37
72
36
73
38
0
VERTEX
8
OBJECT__32
10
0
20
0
30
0
70
128
71
36
72
39
73
38
0
VERTEX
8
OBJECT__32
10
0
20
0
30
0
70
128
71
40
72
37
73
41
0
VERTEX
8
OBJECT__32
10
0
20
0
30
0
70
128
71
41
72
42
73
40
0
VERTEX
8
OBJECT__32
10
0
20
0
30
0
70
128
71
37
72
43
73
41
0
VERTEX
8
OBJECT__32
10
0
20
0
30
0
70
128
71
40
72
44
73
45
0
VERTEX
8
OBJECT__32
10
0
20
0
30
0
70
128
71
45
72
46
73
40
0
VERTEX
8
OBJECT__32
10
0
20
0
30
0
70
128
71
1
72
46
73
47
0
VERTEX
8
OBJECT__32
10
0
20
0
30
0
70
128
71
46
72
48
73
47
0
VERTEX
8
OBJECT__32
10
0
20
0
30
0
70
128
71
47
72
2
73
1
0
VERTEX
8
OBJECT__32
10
0
20
0
30
0
70
128
71
45
72
48
73
46
0
VERTEX
8
OBJECT__32
10
0
20
0
30
0
70
128
71
42
72
44
73
40
0
VERTEX
8
OBJECT__32
10
0
20
0
30
0
70
128
71
38
72
43
73
37
0
VERTEX
8
OBJECT__32
10
0
20
0
30
0
70
128
71
35
72
39
73
36
0
VERTEX
8
OBJECT__32
10
0
20
0
30
0
70
128
71
32
72
34
73
31
0
VERTEX
8
OBJECT__32
10
0
20
0
30
0
70
128
71
29
72
33
73
30
0
VERTEX
8
OBJECT__32
10
0
20
0
30
0
70
128
71
25
72
28
73
26
0
VERTEX
8
OBJECT__32
10
0
20
0
30
0
70
128
71
22
72
27
73
21
0
VERTEX
8
OBJECT__32
10
0
20
0
30
0
70
128
71
19
72
23
73
20
0
VERTEX
8
OBJECT__32
10
0
20
0
30
0
70
128
71
16
72
18
73
15
0
VERTEX
8
OBJECT__32
10
0
20
0
30
0
70
128
71
13
72
17
73
14
0
VERTEX
8
OBJECT__32
10
0
20
0
30
0
70
128
71
10
72
12
73
8
0
VERTEX
8
OBJECT__32
10
0
20
0
30
0
70
128
71
6
72
11
73
5
0
VERTEX
8
OBJECT__32
10
0
20
0
30
0
70
128
71
3
72
7
73
4
0
SEQEND
8
OBJECT__32
0
POLYLINE
8
OBJECT__34
66
1
70
64
71
54
72
54
62
253
0
VERTEX
8
OBJECT__34
10
0.000000
20
27.500000
30
5.500000
70
192
0
VERTEX
8
OBJECT__34
10
0.000000
20
27.000000
30
6.000000
70
192
0
VERTEX
8
OBJECT__34
10
7.958000
20
25.799999
30
6.000000
70
192
0
VERTEX
8
OBJECT__34
10
15.210000
20
22.308001
30
6.000000
70
192
0
VERTEX
8
OBJECT__34
10
15.491000
20
22.722000
30
5.500000
70
192
0
VERTEX
8
OBJECT__34
10
11.057000
20
24.857000
30
5.500000
70
192
0
VERTEX
8
OBJECT__34
10
21.108999
20
16.834000
30
6.000000
70
192
0
VERTEX
8
OBJECT__34
10
20.302999
20
18.257000
30
5.500000
70
192
0
VERTEX
8
OBJECT__34
10
21.500000
20
17.146000
30
5.500000
70
192
0
VERTEX
8
OBJECT__34
10
25.599001
20
10.047000
30
5.500000
70
192
0
VERTEX
8
OBJECT__34
10
26.924999
20
2.018000
30
6.000000
70
192
0
VERTEX
8
OBJECT__34
10
27.423000
20
2.055000
30
5.500000
70
192
0
VERTEX
8
OBJECT__34
10
25.962999
20
8.454000
30
5.500000
70
192
0
VERTEX
8
OBJECT__34
10
25.134001
20
9.864000
30
6.000000
70
192
0
VERTEX
8
OBJECT__34
10
26.323000
20
-6.008000
30
6.000000
70
192
0
VERTEX
8
OBJECT__34
10
27.055000
20
-2.852000
30
5.500000
70
192
0
VERTEX
8
OBJECT__34
10
26.811001
20
-6.119000
30
5.500000
70
192
0
VERTEX
8
OBJECT__34
10
23.816000
20
-13.750000
30
5.500000
70
192
0
VERTEX
8
OBJECT__34
10
18.705000
20
-20.159000
30
5.500000
70
192
0
VERTEX
8
OBJECT__34
10
23.382999
20
-13.500000
30
6.000000
70
192
0
VERTEX
8
OBJECT__34
10
11.715000
20
-24.326000
30
6.000000
70
192
0
VERTEX
8
OBJECT__34
10
11.932000
20
-24.777000
30
5.500000
70
192
0
VERTEX
8
OBJECT__34
10
15.998000
20
-22.004000
30
5.500000
70
192
0
VERTEX
8
OBJECT__34
10
18.365000
20
-19.792000
30
6.000000
70
192
0
VERTEX
8
OBJECT__34
10
4.024000
20
-26.698000
30
6.000000
70
192
0
VERTEX
8
OBJECT__34
10
5.660000
20
-26.711000
30
5.500000
70
192
0
VERTEX
8
OBJECT__34
10
4.099000
20
-27.193001
30
5.500000
70
192
0
VERTEX
8
OBJECT__34
10
-4.024000
20
-26.698000
30
6.000000
70
192
0
VERTEX
8
OBJECT__34
10
-11.715000
20
-24.326000
30
6.000000
70
192
0
VERTEX
8
OBJECT__34
10
-11.932000
20
-24.777000
30
5.500000
70
192
0
VERTEX
8
OBJECT__34
10
-5.660000
20
-26.711000
30
5.500000
70
192
0
VERTEX
8
OBJECT__34
10
-18.365000
20
-19.792000
30
6.000000
70
192
0
VERTEX
8
OBJECT__34
10
-15.998000
20
-22.004000
30
5.500000
70
192
0
VERTEX
8
OBJECT__34
10
-18.705000
20
-20.159000
30
5.500000
70
192
0
VERTEX
8
OBJECT__34
10
-23.382999
20
-13.500000
30
6.000000
70
192
0
VERTEX
8
OBJECT__34
10
-26.811001
20
-6.119000
30
5.500000
70
192
0
VERTEX
8
OBJECT__34
10
-23.816000
20
-13.750000
30
5.500000
70
192
0
VERTEX
8
OBJECT__34
10
-26.924999
20
2.018000
30
6.000000
70
192
0
VERTEX
8
OBJECT__34
10
-27.423000
20
2.055000
30
5.500000
70
192
0
VERTEX
8
OBJECT__34
10
-27.055000
20
-2.852000
30
5.500000
70
192
0
VERTEX
8
OBJECT__34
10
-26.323000
20
-6.008000
30
6.000000
70
192
0
VERTEX
8
OBJECT__34
10
-25.134001
20
9.864000
30
6.000000
70
192
0
VERTEX
8
OBJECT__34
10
-25.962999
20
8.454000
30
5.500000
70
192
0
VERTEX
8
OBJECT__34
10
-25.599001
20
10.047000
30
5.500000
70
192
0
VERTEX
8
OBJECT__34
10
-21.500000
20
17.146000
30
5.500000
70
192
0
VERTEX
8
OBJECT__34
10
-15.210000
20
22.308001
30
6.000000
70
192
0
VERTEX
8
OBJECT__34
10
-15.491000
20
22.722000
30
5.500000
70
192
0
VERTEX
8
OBJECT__34
10
-20.302999
20
18.257000
30
5.500000
70
192
0
VERTEX
8
OBJECT__34
10
-21.108999
20
16.834000
30
6.000000
70
192
0
VERTEX
8
OBJECT__34
10
-7.958000
20
25.799999
30
6.000000
70
192
0
VERTEX
8
OBJECT__34
10
-11.057000
20
24.857000
30
5.500000
70
192
0
VERTEX
8
OBJECT__34
10
-8.106000
20
26.278000
30
5.500000
70
192
0
VERTEX
8
OBJECT__34
10
-4.099000
20
-27.193001
30
5.500000
70
192
0
VERTEX
8
OBJECT__34
10
8.106000
20
26.278000
30
5.500000
70
192
0
VERTEX
8
OBJECT__34
10
0
20
0
30
0
70
128
71
1
72
2
73
3
0
VERTEX
8
OBJECT__34
10
0
20
0
30
0
70
128
71
4
72
5
73
6
0
VERTEX
8
OBJECT__34
10
0
20
0
30
0
70
128
71
6
72
3
73
4
0
VERTEX
8
OBJECT__34
10
0
20
0
30
0
70
128
71
4
72
7
73
8
0
VERTEX
8
OBJECT__34
10
0
20
0
30
0
70
128
71
7
72
9
73
8
0
VERTEX
8
OBJECT__34
10
0
20
0
30
0
70
128
71
10
72
9
73
7
0
VERTEX
8
OBJECT__34
10
0
20
0
30
0
70
128
71
11
72
12
73
13
0
VERTEX
8
OBJECT__34
10
0
20
0
30
0
70
128
71
13
72
14
73
11
0
VERTEX
8
OBJECT__34
10
0
20
0
30
0
70
128
71
11
72
15
73
16
0
VERTEX
8
OBJECT__34
10
0
20
0
30
0
70
128
71
15
72
17
73
16
0
VERTEX
8
OBJECT__34
10
0
20
0
30
0
70
128
71
18
72
17
73
15
0
VERTEX
8
OBJECT__34
10
0
20
0
30
0
70
128
71
19
72
18
73
20
0
VERTEX
8
OBJECT__34
10
0
20
0
30
0
70
128
71
21
72
22
73
23
0
VERTEX
8
OBJECT__34
10
0
20
0
30
0
70
128
71
23
72
24
73
21
0
VERTEX
8
OBJECT__34
10
0
20
0
30
0
70
128
71
21
72
25
73
26
0
VERTEX
8
OBJECT__34
10
0
20
0
30
0
70
128
71
25
72
27
73
26
0
VERTEX
8
OBJECT__34
10
0
20
0
30
0
70
128
71
27
72
25
73
28
0
VERTEX
8
OBJECT__34
10
0
20
0
30
0
70
128
71
29
72
30
73
31
0
VERTEX
8
OBJECT__34
10
0
20
0
30
0
70
128
71
31
72
28
73
29
0
VERTEX
8
OBJECT__34
10
0
20
0
30
0
70
128
71
29
72
32
73
33
0
VERTEX
8
OBJECT__34
10
0
20
0
30
0
70
128
71
32
72
34
73
33
0
VERTEX
8
OBJECT__34
10
0
20
0
30
0
70
128
71
34
72
32
73
35
0
VERTEX
8
OBJECT__34
10
0
20
0
30
0
70
128
71
36
72
37
73
35
0
VERTEX
8
OBJECT__34
10
0
20
0
30
0
70
128
71
38
72
39
73
40
0
VERTEX
8
OBJECT__34
10
0
20
0
30
0
70
128
71
40
72
41
73
38
0
VERTEX
8
OBJECT__34
10
0
20
0
30
0
70
128
71
38
72
42
73
43
0
VERTEX
8
OBJECT__34
10
0
20
0
30
0
70
128
71
42
72
44
73
43
0
VERTEX
8
OBJECT__34
10
0
20
0
30
0
70
128
71
45
72
44
73
42
0
VERTEX
8
OBJECT__34
10
0
20
0
30
0
70
128
71
46
72
47
73
48
0
VERTEX
8
OBJECT__34
10
0
20
0
30
0
70
128
71
48
72
49
73
46
0
VERTEX
8
OBJECT__34
10
0
20
0
30
0
70
128
71
46
72
50
73
51
0
VERTEX
8
OBJECT__34
10
0
20
0
30
0
70
128
71
50
72
52
73
51
0
VERTEX
8
OBJECT__34
10
0
20
0
30
0
70
128
71
52
72
50
73
2
0
VERTEX
8
OBJECT__34
10
0
20
0
30
0
70
128
71
2
72
1
73
52
0
VERTEX
8
OBJECT__34
10
0
20
0
30
0
70
128
71
51
72
47
73
46
0
VERTEX
8
OBJECT__34
10
0
20
0
30
0
70
128
71
48
72
45
73
49
0
VERTEX
8
OBJECT__34
10
0
20
0
30
0
70
128
71
42
72
49
73
45
0
VERTEX
8
OBJECT__34
10
0
20
0
30
0
70
128
71
43
72
39
73
38
0
VERTEX
8
OBJECT__34
10
0
20
0
30
0
70
128
71
40
72
36
73
41
0
VERTEX
8
OBJECT__34
10
0
20
0
30
0
70
128
71
35
72
41
73
36
0
VERTEX
8
OBJECT__34
10
0
20
0
30
0
70
128
71
35
72
37
73
34
0
VERTEX
8
OBJECT__34
10
0
20
0
30
0
70
128
71
33
72
30
73
29
0
VERTEX
8
OBJECT__34
10
0
20
0
30
0
70
128
71
31
72
53
73
28
0
VERTEX
8
OBJECT__34
10
0
20
0
30
0
70
128
71
28
72
53
73
27
0
VERTEX
8
OBJECT__34
10
0
20
0
30
0
70
128
71
26
72
22
73
21
0
VERTEX
8
OBJECT__34
10
0
20
0
30
0
70
128
71
23
72
19
73
24
0
VERTEX
8
OBJECT__34
10
0
20
0
30
0
70
128
71
20
72
24
73
19
0
VERTEX
8
OBJECT__34
10
0
20
0
30
0
70
128
71
15
72
20
73
18
0
VERTEX
8
OBJECT__34
10
0
20
0
30
0
70
128
71
16
72
12
73
11
0
VERTEX
8
OBJECT__34
10
0
20
0
30
0
70
128
71
13
72
10
73
14
0
VERTEX
8
OBJECT__34
10
0
20
0
30
0
70
128
71
7
72
14
73
10
0
VERTEX
8
OBJECT__34
10
0
20
0
30
0
70
128
71
8
72
5
73
4
0
VERTEX
8
OBJECT__34
10
0
20
0
30
0
70
128
71
6
72
54
73
3
0
VERTEX
8
OBJECT__34
10
0
20
0
30
0
70
128
71
3
72
54
73
1
0
SEQEND
8
OBJECT__34
0
POLYLINE
8
OBJECT__35
66
1
70
64
71
40
72
40
62
253
0
VERTEX
8
OBJECT__35
10
21.108999
20
16.834000
30
6.000000
70
192
0
VERTEX
8
OBJECT__35
10
15.210000
20
22.308001
30
6.000000
70
192
0
VERTEX
8
OBJECT__35
10
14.127000
20
18.150000
30
6.000000
70
192
0
VERTEX
8
OBJECT__35
10
7.958000
20
25.799999
30
6.000000
70
192
0
VERTEX
8
OBJECT__35
10
7.468000
20
21.754000
30
6.000000
70
192
0
VERTEX
8
OBJECT__35
10
-15.210000
20
22.308001
30
6.000000
70
192
0
VERTEX
8
OBJECT__35
10
-14.127000
20
18.150000
30
6.000000
70
192
0
VERTEX
8
OBJECT__35
10
-7.468000
20
21.754000
30
6.000000
70
192
0
VERTEX
8
OBJECT__35
10
-21.108999
20
16.834000
30
6.000000
70
192
0
VERTEX
8
OBJECT__35
10
-19.254999
20
12.580000
30
6.000000
70
192
0
VERTEX
8
OBJECT__35
10
0.000000
20
27.000000
30
6.000000
70
192
0
VERTEX
8
OBJECT__35
10
0.000000
20
23.000000
30
6.000000
70
192
0
VERTEX
8
OBJECT__35
10
-25.134001
20
9.864000
30
6.000000
70
192
0
VERTEX
8
OBJECT__35
10
-22.296000
20
5.646000
30
6.000000
70
192
0
VERTEX
8
OBJECT__35
10
-26.924999
20
2.018000
30
6.000000
70
192
0
VERTEX
8
OBJECT__35
10
-22.921000
20
-1.899000
30
6.000000
70
192
0
VERTEX
8
OBJECT__35
10
-7.958000
20
25.799999
30
6.000000
70
192
0
VERTEX
8
OBJECT__35
10
-26.323000
20
-6.008000
30
6.000000
70
192
0
VERTEX
8
OBJECT__35
10
-23.382999
20
-13.500000
30
6.000000
70
192
0
VERTEX
8
OBJECT__35
10
-21.063000
20
-9.239000
30
6.000000
70
192
0
VERTEX
8
OBJECT__35
10
-18.365000
20
-19.792000
30
6.000000
70
192
0
VERTEX
8
OBJECT__35
10
-16.922001
20
-15.577000
30
6.000000
70
192
0
VERTEX
8
OBJECT__35
10
-11.715000
20
-24.326000
30
6.000000
70
192
0
VERTEX
8
OBJECT__35
10
-10.947000
20
-20.228001
30
6.000000
70
192
0
VERTEX
8
OBJECT__35
10
-4.024000
20
-26.698000
30
6.000000
70
192
0
VERTEX
8
OBJECT__35
10
-3.786000
20
-22.686001
30
6.000000
70
192
0
VERTEX
8
OBJECT__35
10
4.024000
20
-26.698000
30
6.000000
70
192
0
VERTEX
8
OBJECT__35
10
3.786000
20
-22.686001
30
6.000000
70
192
0
VERTEX
8
OBJECT__35
10
11.715000
20
-24.326000
30
6.000000
70
192
0
VERTEX
8
OBJECT__35
10
10.947000
20
-20.228001
30
6.000000
70
192
0
VERTEX
8
OBJECT__35
10
18.365000
20
-19.792000
30
6.000000
70
192
0
VERTEX
8
OBJECT__35
10
16.922001
20
-15.577000
30
6.000000
70
192
0
VERTEX
8
OBJECT__35
10
26.924999
20
2.018000
30
6.000000
70
192
0
VERTEX
8
OBJECT__35
10
25.134001
20
9.864000
30
6.000000
70
192
0
VERTEX
8
OBJECT__35
10
22.296000
20
5.646000
30
6.000000
70
192
0
VERTEX
8
OBJECT__35
10
23.382999
20
-13.500000
30
6.000000
70
192
0
VERTEX
8
OBJECT__35
10
21.063000
20
-9.239000
30
6.000000
70
192
0
VERTEX
8
OBJECT__35
10
26.323000
20
-6.008000
30
6.000000
70
192
0
VERTEX
8
OBJECT__35
10
22.921000
20
-1.899000
30
6.000000
70
192
0
VERTEX
8
OBJECT__35
10
19.254999
20
12.580000
30
6.000000
70
192
0
VERTEX
8
OBJECT__35
10
0
20
0
30
0
70
128
71
1
72
2
73
3
0
VERTEX
8
OBJECT__35
10
0
20
0
30
0
70
128
71
2
72
4
73
5
0
VERTEX
8
OBJECT__35
10
0
20
0
30
0
70
128
71
6
72
7
73
8
0
VERTEX
8
OBJECT__35
10
0
20
0
30
0
70
128
71
9
72
10
73
7
0
VERTEX
8
OBJECT__35
10
0
20
0
30
0
70
128
71
5
72
3
73
2
0
VERTEX
8
OBJECT__35
10
0
20
0
30
0
70
128
71
4
72
11
73
12
0
VERTEX
8
OBJECT__35
10
0
20
0
30
0
70
128
71
7
72
6
73
9
0
VERTEX
8
OBJECT__35
10
0
20
0
30
0
70
128
71
13
72
14
73
10
0
VERTEX
8
OBJECT__35
10
0
20
0
30
0
70
128
71
15
72
16
73
14
0
VERTEX
8
OBJECT__35
10
0
20
0
30
0
70
128
71
12
72
5
73
4
0
VERTEX
8
OBJECT__35
10
0
20
0
30
0
70
128
71
17
72
8
73
12
0
VERTEX
8
OBJECT__35
10
0
20
0
30
0
70
128
71
10
72
9
73
13
0
VERTEX
8
OBJECT__35
10
0
20
0
30
0
70
128
71
14
72
13
73
15
0
VERTEX
8
OBJECT__35
10
0
20
0
30
0
70
128
71
18
72
19
73
20
0
VERTEX
8
OBJECT__35
10
0
20
0
30
0
70
128
71
19
72
21
73
22
0
VERTEX
8
OBJECT__35
10
0
20
0
30
0
70
128
71
21
72
23
73
24
0
VERTEX
8
OBJECT__35
10
0
20
0
30
0
70
128
71
23
72
25
73
26
0
VERTEX
8
OBJECT__35
10
0
20
0
30
0
70
128
71
12
72
11
73
17
0
VERTEX
8
OBJECT__35
10
0
20
0
30
0
70
128
71
15
72
18
73
16
0
VERTEX
8
OBJECT__35
10
0
20
0
30
0
70
128
71
22
72
20
73
19
0
VERTEX
8
OBJECT__35
10
0
20
0
30
0
70
128
71
26
72
24
73
23
0
VERTEX
8
OBJECT__35
10
0
20
0
30
0
70
128
71
25
72
27
73
28
0
VERTEX
8
OBJECT__35
10
0
20
0
30
0
70
128
71
29
72
30
73
28
0
VERTEX
8
OBJECT__35
10
0
20
0
30
0
70
128
71
8
72
17
73
6
0
VERTEX
8
OBJECT__35
10
0
20
0
30
0
70
128
71
24
72
22
73
21
0
VERTEX
8
OBJECT__35
10
0
20
0
30
0
70
128
71
28
72
27
73
29
0
VERTEX
8
OBJECT__35
10
0
20
0
30
0
70
128
71
31
72
32
73
30
0
VERTEX
8
OBJECT__35
10
0
20
0
30
0
70
128
71
33
72
34
73
35
0
VERTEX
8
OBJECT__35
10
0
20
0
30
0
70
128
71
20
72
16
73
18
0
VERTEX
8
OBJECT__35
10
0
20
0
30
0
70
128
71
30
72
29
73
31
0
VERTEX
8
OBJECT__35
10
0
20
0
30
0
70
128
71
36
72
37
73
32
0
VERTEX
8
OBJECT__35
10
0
20
0
30
0
70
128
71
38
72
39
73
37
0
VERTEX
8
OBJECT__35
10
0
20
0
30
0
70
128
71
39
72
38
73
33
0
VERTEX
8
OBJECT__35
10
0
20
0
30
0
70
128
71
34
72
1
73
40
0
VERTEX
8
OBJECT__35
10
0
20
0
30
0
70
128
71
28
72
26
73
25
0
VERTEX
8
OBJECT__35
10
0
20
0
30
0
70
128
71
37
72
36
73
38
0
VERTEX
8
OBJECT__35
10
0
20
0
30
0
70
128
71
40
72
35
73
34
0
VERTEX
8
OBJECT__35
10
0
20
0
30
0
70
128
71
32
72
31
73
36
0
VERTEX
8
OBJECT__35
10
0
20
0
30
0
70
128
71
3
72
40
73
1
0
VERTEX
8
OBJECT__35
10
0
20
0
30
0
70
128
71
35
72
39
73
33
0
SEQEND
8
OBJECT__35
0
POLYLINE
8
OBJECT__36
66
1
70
64
71
50
72
50
62
253
0
VERTEX
8
OBJECT__36
10
7.468000
20
21.754000
30
6.000000
70
192
0
VERTEX
8
OBJECT__36
10
0.000000
20
23.000000
30
6.000000
70
192
0
VERTEX
8
OBJECT__36
10
0.000000
20
22.500000
30
6.500000
70
192
0
VERTEX
8
OBJECT__36
10
14.127000
20
18.150000
30
6.000000
70
192
0
VERTEX
8
OBJECT__36
10
10.311000
20
19.653999
30
6.500000
70
192
0
VERTEX
8
OBJECT__36
10
7.306000
20
21.281000
30
6.500000
70
192
0
VERTEX
8
OBJECT__36
10
13.820000
20
17.756001
30
6.500000
70
192
0
VERTEX
8
OBJECT__36
10
18.452999
20
12.723000
30
6.500000
70
192
0
VERTEX
8
OBJECT__36
10
19.254999
20
12.580000
30
6.000000
70
192
0
VERTEX
8
OBJECT__36
10
22.296000
20
5.646000
30
6.000000
70
192
0
VERTEX
8
OBJECT__36
10
18.836000
20
12.306000
30
6.500000
70
192
0
VERTEX
8
OBJECT__36
10
22.921000
20
-1.899000
30
6.000000
70
192
0
VERTEX
8
OBJECT__36
10
22.046000
20
2.688000
30
6.500000
70
192
0
VERTEX
8
OBJECT__36
10
21.812000
20
5.523000
30
6.500000
70
192
0
VERTEX
8
OBJECT__36
10
22.423000
20
-1.858000
30
6.500000
70
192
0
VERTEX
8
OBJECT__36
10
20.882999
20
-7.939000
30
6.500000
70
192
0
VERTEX
8
OBJECT__36
10
21.063000
20
-9.239000
30
6.000000
70
192
0
VERTEX
8
OBJECT__36
10
16.922001
20
-15.577000
30
6.000000
70
192
0
VERTEX
8
OBJECT__36
10
20.605000
20
-9.038000
30
6.500000
70
192
0
VERTEX
8
OBJECT__36
10
10.947000
20
-20.228001
30
6.000000
70
192
0
VERTEX
8
OBJECT__36
10
14.760000
20
-16.635000
30
6.500000
70
192
0
VERTEX
8
OBJECT__36
10
16.554001
20
-15.239000
30
6.500000
70
192
0
VERTEX
8
OBJECT__36
10
10.709000
20
-19.788000
30
6.500000
70
192
0
VERTEX
8
OBJECT__36
10
5.314000
20
-21.639999
30
6.500000
70
192
0
VERTEX
8
OBJECT__36
10
3.786000
20
-22.686001
30
6.000000
70
192
0
VERTEX
8
OBJECT__36
10
-3.786000
20
-22.686001
30
6.000000
70
192
0
VERTEX
8
OBJECT__36
10
3.703000
20
-22.193001
30
6.500000
70
192
0
VERTEX
8
OBJECT__36
10
-10.947000
20
-20.228001
30
6.000000
70
192
0
VERTEX
8
OBJECT__36
10
-5.314000
20
-21.639999
30
6.500000
70
192
0
VERTEX
8
OBJECT__36
10
-3.703000
20
-22.193001
30
6.500000
70
192
0
VERTEX
8
OBJECT__36
10
-10.709000
20
-19.788000
30
6.500000
70
192
0
VERTEX
8
OBJECT__36
10
-14.760000
20
-16.635000
30
6.500000
70
192
0
VERTEX
8
OBJECT__36
10
-16.922001
20
-15.577000
30
6.000000
70
192
0
VERTEX
8
OBJECT__36
10
-21.063000
20
-9.239000
30
6.000000
70
192
0
VERTEX
8
OBJECT__36
10
-16.554001
20
-15.239000
30
6.500000
70
192
0
VERTEX
8
OBJECT__36
10
-22.921000
20
-1.899000
30
6.000000
70
192
0
VERTEX
8
OBJECT__36
10
-20.882999
20
-7.939000
30
6.500000
70
192
0
VERTEX
8
OBJECT__36
10
-20.605000
20
-9.038000
30
6.500000
70
192
0
VERTEX
8
OBJECT__36
10
-22.423000
20
-1.858000
30
6.500000
70
192
0
VERTEX
8
OBJECT__36
10
-22.046000
20
2.688000
30
6.500000
70
192
0
VERTEX
8
OBJECT__36
10
-22.296000
20
5.646000
30
6.000000
70
192
0
VERTEX
8
OBJECT__36
10
-19.254999
20
12.580000
30
6.000000
70
192
0
VERTEX
8
OBJECT__36
10
-21.812000
20
5.523000
30
6.500000
70
192
0
VERTEX
8
OBJECT__36
10
-14.127000
20
18.150000
30
6.000000
70
192
0
VERTEX
8
OBJECT__36
10
-18.452999
20
12.723000
30
6.500000
70
192
0
VERTEX
8
OBJECT__36
10
-18.836000
20
12.306000
30
6.500000
70
192
0
VERTEX
8
OBJECT__36
10
-13.820000
20
17.756001
30
6.500000
70
192
0
VERTEX
8
OBJECT__36
10
-10.311000
20
19.653999
30
6.500000
70
192
0
VERTEX
8
OBJECT__36
10
-7.468000
20
21.754000
30
6.000000
70
192
0
VERTEX
8
OBJECT__36
10
-7.306000
20
21.281000
30
6.500000
70
192
0
VERTEX
8
OBJECT__36
10
0
20
0
30
0
70
128
71
1
72
2
73
3
0
VERTEX
8
OBJECT__36
10
0
20
0
30
0
70
128
71
4
72
1
73
5
0
VERTEX
8
OBJECT__36
10
0
20
0
30
0
70
128
71
1
72
6
73
5
0
VERTEX
8
OBJECT__36
10
0
20
0
30
0
70
128
71
4
72
7
73
8
0
VERTEX
8
OBJECT__36
10
0
20
0
30
0
70
128
71
8
72
9
73
4
0
VERTEX
8
OBJECT__36
10
0
20
0
30
0
70
128
71
10
72
9
73
11
0
VERTEX
8
OBJECT__36
10
0
20
0
30
0
70
128
71
12
72
10
73
13
0
VERTEX
8
OBJECT__36
10
0
20
0
30
0
70
128
71
10
72
14
73
13
0
VERTEX
8
OBJECT__36
10
0
20
0
30
0
70
128
71
12
72
15
73
16
0
VERTEX
8
OBJECT__36
10
0
20
0
30
0
70
128
71
16
72
17
73
12
0
VERTEX
8
OBJECT__36
10
0
20
0
30
0
70
128
71
18
72
17
73
19
0
VERTEX
8
OBJECT__36
10
0
20
0
30
0
70
128
71
20
72
18
73
21
0
VERTEX
8
OBJECT__36
10
0
20
0
30
0
70
128
71
18
72
22
73
21
0
VERTEX
8
OBJECT__36
10
0
20
0
30
0
70
128
71
20
72
23
73
24
0
VERTEX
8
OBJECT__36
10
0
20
0
30
0
70
128
71
24
72
25
73
20
0
VERTEX
8
OBJECT__36
10
0
20
0
30
0
70
128
71
26
72
25
73
27
0
VERTEX
8
OBJECT__36
10
0
20
0
30
0
70
128
71
28
72
26
73
29
0
VERTEX
8
OBJECT__36
10
0
20
0
30
0
70
128
71
26
72
30
73
29
0
VERTEX
8
OBJECT__36
10
0
20
0
30
0
70
128
71
28
72
31
73
32
0
VERTEX
8
OBJECT__36
10
0
20
0
30
0
70
128
71
32
72
33
73
28
0
VERTEX
8
OBJECT__36
10
0
20
0
30
0
70
128
71
34
72
33
73
35
0
VERTEX
8
OBJECT__36
10
0
20
0
30
0
70
128
71
36
72
34
73
37
0
VERTEX
8
OBJECT__36
10
0
20
0
30
0
70
128
71
34
72
38
73
37
0
VERTEX
8
OBJECT__36
10
0
20
0
30
0
70
128
71
36
72
39
73
40
0
VERTEX
8
OBJECT__36
10
0
20
0
30
0
70
128
71
40
72
41
73
36
0
VERTEX
8
OBJECT__36
10
0
20
0
30
0
70
128
71
42
72
41
73
43
0
VERTEX
8
OBJECT__36
10
0
20
0
30
0
70
128
71
44
72
42
73
45
0
VERTEX
8
OBJECT__36
10
0
20
0
30
0
70
128
71
42
72
46
73
45
0
VERTEX
8
OBJECT__36
10
0
20
0
30
0
70
128
71
44
72
47
73
48
0
VERTEX
8
OBJECT__36
10
0
20
0
30
0
70
128
71
48
72
49
73
44
0
VERTEX
8
OBJECT__36
10
0
20
0
30
0
70
128
71
49
72
50
73
3
0
VERTEX
8
OBJECT__36
10
0
20
0
30
0
70
128
71
3
72
2
73
49
0
VERTEX
8
OBJECT__36
10
0
20
0
30
0
70
128
71
48
72
50
73
49
0
VERTEX
8
OBJECT__36
10
0
20
0
30
0
70
128
71
45
72
47
73
44
0
VERTEX
8
OBJECT__36
10
0
20
0
30
0
70
128
71
43
72
46
73
42
0
VERTEX
8
OBJECT__36
10
0
20
0
30
0
70
128
71
40
72
43
73
41
0
VERTEX
8
OBJECT__36
10
0
20
0
30
0
70
128
71
37
72
39
73
36
0
VERTEX
8
OBJECT__36
10
0
20
0
30
0
70
128
71
35
72
38
73
34
0
VERTEX
8
OBJECT__36
10
0
20
0
30
0
70
128
71
32
72
35
73
33
0
VERTEX
8
OBJECT__36
10
0
20
0
30
0
70
128
71
29
72
31
73
28
0
VERTEX
8
OBJECT__36
10
0
20
0
30
0
70
128
71
27
72
30
73
26
0
VERTEX
8
OBJECT__36
10
0
20
0
30
0
70
128
71
24
72
27
73
25
0
VERTEX
8
OBJECT__36
10
0
20
0
30
0
70
128
71
21
72
23
73
20
0
VERTEX
8
OBJECT__36
10
0
20
0
30
0
70
128
71
19
72
22
73
18
0
VERTEX
8
OBJECT__36
10
0
20
0
30
0
70
128
71
16
72
19
73
17
0
VERTEX
8
OBJECT__36
10
0
20
0
30
0
70
128
71
13
72
15
73
12
0
VERTEX
8
OBJECT__36
10
0
20
0
30
0
70
128
71
11
72
14
73
10
0
VERTEX
8
OBJECT__36
10
0
20
0
30
0
70
128
71
8
72
11
73
9
0
VERTEX
8
OBJECT__36
10
0
20
0
30
0
70
128
71
5
72
7
73
4
0
VERTEX
8
OBJECT__36
10
0
20
0
30
0
70
128
71
3
72
6
73
1
0
SEQEND
8
OBJECT__36
0
POLYLINE
8
OBJECT__37
66
1
70
64
71
62
72
62
62
253
0
VERTEX
8
OBJECT__37
10
10.311000
20
19.653999
30
6.500000
70
192
0
VERTEX
8
OBJECT__37
10
7.306000
20
21.281000
30
6.500000
70
192
0
VERTEX
8
OBJECT__37
10
7.306000
20
21.281000
30
9.500000
70
192
0
VERTEX
8
OBJECT__37
10
0.000000
20
22.500000
30
9.500000
70
192
0
VERTEX
8
OBJECT__37
10
0.000000
20
22.500000
30
6.500000
70
192
0
VERTEX
8
OBJECT__37
10
18.452999
20
12.723000
30
6.500000
70
192
0
VERTEX
8
OBJECT__37
10
13.820000
20
17.756001
30
6.500000
70
192
0
VERTEX
8
OBJECT__37
10
13.820000
20
17.756001
30
9.500000
70
192
0
VERTEX
8
OBJECT__37
10
10.311000
20
19.653999
30
9.500000
70
192
0
VERTEX
8
OBJECT__37
10
22.046000
20
2.688000
30
6.500000
70
192
0
VERTEX
8
OBJECT__37
10
21.812000
20
5.523000
30
6.500000
70
192
0
VERTEX
8
OBJECT__37
10
21.812000
20
5.523000
30
9.500000
70
192
0
VERTEX
8
OBJECT__37
10
18.836000
20
12.306000
30
9.500000
70
192
0
VERTEX
8
OBJECT__37
10
18.836000
20
12.306000
30
6.500000
70
192
0
VERTEX
8
OBJECT__37
10
18.452999
20
12.723000
30
9.500000
70
192
0
VERTEX
8
OBJECT__37
10
20.882999
20
-7.939000
30
6.500000
70
192
0
VERTEX
8
OBJECT__37
10
22.423000
20
-1.858000
30
6.500000
70
192
0
VERTEX
8
OBJECT__37
10
22.423000
20
-1.858000
30
9.500000
70
192
0
VERTEX
8
OBJECT__37
10
22.046000
20
2.688000
30
9.500000
70
192
0
VERTEX
8
OBJECT__37
10
14.760000
20
-16.635000
30
6.500000
70
192
0
VERTEX
8
OBJECT__37
10
16.554001
20
-15.239000
30
6.500000
70
192
0
VERTEX
8
OBJECT__37
10
16.554001
20
-15.239000
30
9.500000
70
192
0
VERTEX
8
OBJECT__37
10
20.605000
20
-9.038000
30
9.500000
70
192
0
VERTEX
8
OBJECT__37
10
20.605000
20
-9.038000
30
6.500000
70
192
0
VERTEX
8
OBJECT__37
10
20.882999
20
-7.939000
30
9.500000
70
192
0
VERTEX
8
OBJECT__37
10
5.314000
20
-21.639999
30
6.500000
70
192
0
VERTEX
8
OBJECT__37
10
10.709000
20
-19.788000
30
6.500000
70
192
0
VERTEX
8
OBJECT__37
10
10.709000
20
-19.788000
30
9.500000
70
192
0
VERTEX
8
OBJECT__37
10
14.760000
20
-16.635000
30
9.500000
70
192
0
VERTEX
8
OBJECT__37
10
-5.314000
20
-21.639999
30
6.500000
70
192
0
VERTEX
8
OBJECT__37
10
-3.703000
20
-22.193001
30
6.500000
70
192
0
VERTEX
8
OBJECT__37
10
-3.703000
20
-22.193001
30
9.500000
70
192
0
VERTEX
8
OBJECT__37
10
3.703000
20
-22.193001
30
9.500000
70
192
0
VERTEX
8
OBJECT__37
10
3.703000
20
-22.193001
30
6.500000
70
192
0
VERTEX
8
OBJECT__37
10
5.314000
20
-21.639999
30
9.500000
70
192
0
VERTEX
8
OBJECT__37
10
-14.760000
20
-16.635000
30
6.500000
70
192
0
VERTEX
8
OBJECT__37
10
-10.709000
20
-19.788000
30
6.500000
70
192
0
VERTEX
8
OBJECT__37
10
-10.709000
20
-19.788000
30
9.500000
70
192
0
VERTEX
8
OBJECT__37
10
-5.314000
20
-21.639999
30
9.500000
70
192
0
VERTEX
8
OBJECT__37
10
-20.882999
20
-7.939000
30
6.500000
70
192
0
VERTEX
8
OBJECT__37
10
-20.605000
20
-9.038000
30
6.500000
70
192
0
VERTEX
8
OBJECT__37
10
-20.605000
20
-9.038000
30
9.500000
70
192
0
VERTEX
8
OBJECT__37
10
-16.554001
20
-15.239000
30
9.500000
70
192
0
VERTEX
8
OBJECT__37
10
-16.554001
20
-15.239000
30
6.500000
70
192
0
VERTEX
8
OBJECT__37
10
-14.760000
20
-16.635000
30
9.500000
70
192
0
VERTEX
8
OBJECT__37
10
-22.046000
20
2.688000
30
6.500000
70
192
0
VERTEX
8
OBJECT__37
10
-22.423000
20
-1.858000
30
6.500000
70
192
0
VERTEX
8
OBJECT__37
10
-22.423000
20
-1.858000
30
9.500000
70
192
0
VERTEX
8
OBJECT__37
10
-20.882999
20
-7.939000
30
9.500000
70
192
0
VERTEX
8
OBJECT__37
10
-18.452999
20
12.723000
30
6.500000
70
192
0
VERTEX
8
OBJECT__37
10
-18.836000
20
12.306000
30
6.500000
70
192
0
VERTEX
8
OBJECT__37
10
-18.836000
20
12.306000
30
9.500000
70
192
0
VERTEX
8
OBJECT__37
10
-21.812000
20
5.523000
30
9.500000
70
192
0
VERTEX
8
OBJECT__37
10
-21.812000
20
5.523000
30
6.500000
70
192
0
VERTEX
8
OBJECT__37
10
-22.046000
20
2.688000
30
9.500000
70
192
0
VERTEX
8
OBJECT__37
10
-10.311000
20
19.653999
30
6.500000
70
192
0
VERTEX
8
OBJECT__37
10
-13.820000
20
17.756001
30
6.500000
70
192
0
VERTEX
8
OBJECT__37
10
-13.820000
20
17.756001
30
9.500000
70
192
0
VERTEX
8
OBJECT__37
10
-18.452999
20
12.723000
30
9.500000
70
192
0
VERTEX
8
OBJECT__37
10
-7.306000
20
21.281000
30
6.500000
70
192
0
VERTEX
8
OBJECT__37
10
-7.306000
20
21.281000
30
9.500000
70
192
0
VERTEX
8
OBJECT__37
10
-10.311000
20
19.653999
30
9.500000
70
192
0
VERTEX
8
OBJECT__37
10
0
20
0
30
0
70
128
71
1
72
2
73
3
0
VERTEX
8
OBJECT__37
10
0
20
0
30
0
70
128
71
4
72
3
73
2
0
VERTEX
8
OBJECT__37
10
0
20
0
30
0
70
128
71
2
72
5
73
4
0
VERTEX
8
OBJECT__37
10
0
20
0
30
0
70
128
71
6
72
7
73
8
0
VERTEX
8
OBJECT__37
10
0
20
0
30
0
70
128
71
9
72
8
73
7
0
VERTEX
8
OBJECT__37
10
0
20
0
30
0
70
128
71
7
72
1
73
9
0
VERTEX
8
OBJECT__37
10
0
20
0
30
0
70
128
71
10
72
11
73
12
0
VERTEX
8
OBJECT__37
10
0
20
0
30
0
70
128
71
13
72
12
73
11
0
VERTEX
8
OBJECT__37
10
0
20
0
30
0
70
128
71
11
72
14
73
13
0
VERTEX
8
OBJECT__37
10
0
20
0
30
0
70
128
71
15
72
13
73
14
0
VERTEX
8
OBJECT__37
10
0
20
0
30
0
70
128
71
14
72
6
73
15
0
VERTEX
8
OBJECT__37
10
0
20
0
30
0
70
128
71
16
72
17
73
18
0
VERTEX
8
OBJECT__37
10
0
20
0
30
0
70
128
71
19
72
18
73
17
0
VERTEX
8
OBJECT__37
10
0
20
0
30
0
70
128
71
17
72
10
73
19
0
VERTEX
8
OBJECT__37
10
0
20
0
30
0
70
128
71
20
72
21
73
22
0
VERTEX
8
OBJECT__37
10
0
20
0
30
0
70
128
71
23
72
22
73
21
0
VERTEX
8
OBJECT__37
10
0
20
0
30
0
70
128
71
21
72
24
73
23
0
VERTEX
8
OBJECT__37
10
0
20
0
30
0
70
128
71
25
72
23
73
24
0
VERTEX
8
OBJECT__37
10
0
20
0
30
0
70
128
71
24
72
16
73
25
0
VERTEX
8
OBJECT__37
10
0
20
0
30
0
70
128
71
26
72
27
73
28
0
VERTEX
8
OBJECT__37
10
0
20
0
30
0
70
128
71
29
72
28
73
27
0
VERTEX
8
OBJECT__37
10
0
20
0
30
0
70
128
71
27
72
20
73
29
0
VERTEX
8
OBJECT__37
10
0
20
0
30
0
70
128
71
30
72
31
73
32
0
VERTEX
8
OBJECT__37
10
0
20
0
30
0
70
128
71
33
72
32
73
31
0
VERTEX
8
OBJECT__37
10
0
20
0
30
0
70
128
71
31
72
34
73
33
0
VERTEX
8
OBJECT__37
10
0
20
0
30
0
70
128
71
35
72
33
73
34
0
VERTEX
8
OBJECT__37
10
0
20
0
30
0
70
128
71
34
72
26
73
35
0
VERTEX
8
OBJECT__37
10
0
20
0
30
0
70
128
71
36
72
37
73
38
0
VERTEX
8
OBJECT__37
10
0
20
0
30
0
70
128
71
39
72
38
73
37
0
VERTEX
8
OBJECT__37
10
0
20
0
30
0
70
128
71
37
72
30
73
39
0
VERTEX
8
OBJECT__37
10
0
20
0
30
0
70
128
71
40
72
41
73
42
0
VERTEX
8
OBJECT__37
10
0
20
0
30
0
70
128
71
43
72
42
73
41
0
VERTEX
8
OBJECT__37
10
0
20
0
30
0
70
128
71
41
72
44
73
43
0
VERTEX
8
OBJECT__37
10
0
20
0
30
0
70
128
71
45
72
43
73
44
0
VERTEX
8
OBJECT__37
10
0
20
0
30
0
70
128
71
44
72
36
73
45
0
VERTEX
8
OBJECT__37
10
0
20
0
30
0
70
128
71
46
72
47
73
48
0
VERTEX
8
OBJECT__37
10
0
20
0
30
0
70
128
71
49
72
48
73
47
0
VERTEX
8
OBJECT__37
10
0
20
0
30
0
70
128
71
47
72
40
73
49
0
VERTEX
8
OBJECT__37
10
0
20
0
30
0
70
128
71
50
72
51
73
52
0
VERTEX
8
OBJECT__37
10
0
20
0
30
0
70
128
71
53
72
52
73
51
0
VERTEX
8
OBJECT__37
10
0
20
0
30
0
70
128
71
51
72
54
73
53
0
VERTEX
8
OBJECT__37
10
0
20
0
30
0
70
128
71
55
72
53
73
54
0
VERTEX
8
OBJECT__37
10
0
20
0
30
0
70
128
71
54
72
46
73
55
0
VERTEX
8
OBJECT__37
10
0
20
0
30
0
70
128
71
56
72
57
73
58
0
VERTEX
8
OBJECT__37
10
0
20
0
30
0
70
128
71
59
72
58
73
57
0
VERTEX
8
OBJECT__37
10
0
20
0
30
0
70
128
71
57
72
50
73
59
0
VERTEX
8
OBJECT__37
10
0
20
0
30
0
70
128
71
5
72
60
73
61
0
VERTEX
8
OBJECT__37
10
0
20
0
30
0
70
128
71
62
72
61
73
60
0
VERTEX
8
OBJECT__37
10
0
20
0
30
0
70
128
71
60
72
56
73
62
0
VERTEX
8
OBJECT__37
10
0
20
0
30
0
70
128
71
61
72
4
73
5
0
VERTEX
8
OBJECT__37
10
0
20
0
30
0
70
128
71
58
72
62
73
56
0
VERTEX
8
OBJECT__37
10
0
20
0
30
0
70
128
71
52
72
59
73
50
0
VERTEX
8
OBJECT__37
10
0
20
0
30
0
70
128
71
48
72
55
73
46
0
VERTEX
8
OBJECT__37
10
0
20
0
30
0
70
128
71
42
72
49
73
40
0
VERTEX
8
OBJECT__37
10
0
20
0
30
0
70
128
71
38
72
45
73
36
0
VERTEX
8
OBJECT__37
10
0
20
0
30
0
70
128
71
32
72
39
73
30
0
VERTEX
8
OBJECT__37
10
0
20
0
30
0
70
128
71
28
72
35
73
26
0
VERTEX
8
OBJECT__37
10
0
20
0
30
0
70
128
71
22
72
29
73
20
0
VERTEX
8
OBJECT__37
10
0
20
0
30
0
70
128
71
18
72
25
73
16
0
VERTEX
8
OBJECT__37
10
0
20
0
30
0
70
128
71
12
72
19
73
10
0
VERTEX
8
OBJECT__37
10
0
20
0
30
0
70
128
71
8
72
15
73
6
0
VERTEX
8
OBJECT__37
10
0
20
0
30
0
70
128
71
3
72
9
73
1
0
SEQEND
8
OBJECT__37
0
POLYLINE
8
OBJECT__38
66
1
70
64
71
50
72
50
62
253
0
VERTEX
8
OBJECT__38
10
0.000000
20
22.500000
30
9.500000
70
192
0
VERTEX
8
OBJECT__38
10
0.000000
20
22.000000
30
10.000000
70
192
0
VERTEX
8
OBJECT__38
10
7.143000
20
20.808001
30
10.000000
70
192
0
VERTEX
8
OBJECT__38
10
13.513000
20
17.361000
30
10.000000
70
192
0
VERTEX
8
OBJECT__38
10
13.820000
20
17.756001
30
9.500000
70
192
0
VERTEX
8
OBJECT__38
10
10.311000
20
19.653999
30
9.500000
70
192
0
VERTEX
8
OBJECT__38
10
18.417999
20
12.033000
30
10.000000
70
192
0
VERTEX
8
OBJECT__38
10
18.452999
20
12.723000
30
9.500000
70
192
0
VERTEX
8
OBJECT__38
10
18.836000
20
12.306000
30
9.500000
70
192
0
VERTEX
8
OBJECT__38
10
21.327000
20
5.401000
30
10.000000
70
192
0
VERTEX
8
OBJECT__38
10
21.924999
20
-1.817000
30
10.000000
70
192
0
VERTEX
8
OBJECT__38
10
22.423000
20
-1.858000
30
9.500000
70
192
0
VERTEX
8
OBJECT__38
10
22.046000
20
2.688000
30
9.500000
70
192
0
VERTEX
8
OBJECT__38
10
20.146999
20
-8.837000
30
10.000000
70
192
0
VERTEX
8
OBJECT__38
10
20.882999
20
-7.939000
30
9.500000
70
192
0
VERTEX
8
OBJECT__38
10
20.605000
20
-9.038000
30
9.500000
70
192
0
VERTEX
8
OBJECT__38
10
16.186001
20
-14.900000
30
10.000000
70
192
0
VERTEX
8
OBJECT__38
10
10.471000
20
-19.348000
30
10.000000
70
192
0
VERTEX
8
OBJECT__38
10
10.709000
20
-19.788000
30
9.500000
70
192
0
VERTEX
8
OBJECT__38
10
14.760000
20
-16.635000
30
9.500000
70
192
0
VERTEX
8
OBJECT__38
10
3.621000
20
-21.700001
30
10.000000
70
192
0
VERTEX
8
OBJECT__38
10
5.314000
20
-21.639999
30
9.500000
70
192
0
VERTEX
8
OBJECT__38
10
3.703000
20
-22.193001
30
9.500000
70
192
0
VERTEX
8
OBJECT__38
10
-3.621000
20
-21.700001
30
10.000000
70
192
0
VERTEX
8
OBJECT__38
10
-10.471000
20
-19.348000
30
10.000000
70
192
0
VERTEX
8
OBJECT__38
10
-10.709000
20
-19.788000
30
9.500000
70
192
0
VERTEX
8
OBJECT__38
10
-5.314000
20
-21.639999
30
9.500000
70
192
0
VERTEX
8
OBJECT__38
10
-16.186001
20
-14.900000
30
10.000000
70
192
0
VERTEX
8
OBJECT__38
10
-14.760000
20
-16.635000
30
9.500000
70
192
0
VERTEX
8
OBJECT__38
10
-16.554001
20
-15.239000
30
9.500000
70
192
0
VERTEX
8
OBJECT__38
10
-20.146999
20
-8.837000
30
10.000000
70
192
0
VERTEX
8
OBJECT__38
10
-21.924999
20
-1.817000
30
10.000000
70
192
0
VERTEX
8
OBJECT__38
10
-22.423000
20
-1.858000
30
9.500000
70
192
0
VERTEX
8
OBJECT__38
10
-20.882999
20
-7.939000
30
9.500000
70
192
0
VERTEX
8
OBJECT__38
10
-21.327000
20
5.401000
30
10.000000
70
192
0
VERTEX
8
OBJECT__38
10
-22.046000
20
2.688000
30
9.500000
70
192
0
VERTEX
8
OBJECT__38
10
-21.812000
20
5.523000
30
9.500000
70
192
0
VERTEX
8
OBJECT__38
10
-18.417999
20
12.033000
30
10.000000
70
192
0
VERTEX
8
OBJECT__38
10
-13.513000
20
17.361000
30
10.000000
70
192
0
VERTEX
8
OBJECT__38
10
-13.820000
20
17.756001
30
9.500000
70
192
0
VERTEX
8
OBJECT__38
10
-18.452999
20
12.723000
30
9.500000
70
192
0
VERTEX
8
OBJECT__38
10
-7.143000
20
20.808001
30
10.000000
70
192
0
VERTEX
8
OBJECT__38
10
-10.311000
20
19.653999
30
9.500000
70
192
0
VERTEX
8
OBJECT__38
10
-7.306000
20
21.281000
30
9.500000
70
192
0
VERTEX
8
OBJECT__38
10
-18.836000
20
12.306000
30
9.500000
70
192
0
VERTEX
8
OBJECT__38
10
-20.605000
20
-9.038000
30
9.500000
70
192
0
VERTEX
8
OBJECT__38
10
-3.703000
20
-22.193001
30
9.500000
70
192
0
VERTEX
8
OBJECT__38
10
16.554001
20
-15.239000
30
9.500000
70
192
0
VERTEX
8
OBJECT__38
10
21.812000
20
5.523000
30
9.500000
70
192
0
VERTEX
8
OBJECT__38
10
7.306000
20
21.281000
30
9.500000
70
192
0
VERTEX
8
OBJECT__38
10
0
20
0
30
0
70
128
71
1
72
2
73
3
0
VERTEX
8
OBJECT__38
10
0
20
0
30
0
70
128
71
4
72
5
73
6
0
VERTEX
8
OBJECT__38
10
0
20
0
30
0
70
128
71
6
72
3
73
4
0
VERTEX
8
OBJECT__38
10
0
20
0
30
0
70
128
71
4
72
7
73
8
0
VERTEX
8
OBJECT__38
10
0
20
0
30
0
70
128
71
7
72
9
73
8
0
VERTEX
8
OBJECT__38
10
0
20
0
30
0
70
128
71
9
72
7
73
10
0
VERTEX
8
OBJECT__38
10
0
20
0
30
0
70
128
71
11
72
12
73
13
0
VERTEX
8
OBJECT__38
10
0
20
0
30
0
70
128
71
13
72
10
73
11
0
VERTEX
8
OBJECT__38
10
0
20
0
30
0
70
128
71
11
72
14
73
15
0
VERTEX
8
OBJECT__38
10
0
20
0
30
0
70
128
71
14
72
16
73
15
0
VERTEX
8
OBJECT__38
10
0
20
0
30
0
70
128
71
16
72
14
73
17
0
VERTEX
8
OBJECT__38
10
0
20
0
30
0
70
128
71
18
72
19
73
20
0
VERTEX
8
OBJECT__38
10
0
20
0
30
0
70
128
71
20
72
17
73
18
0
VERTEX
8
OBJECT__38
10
0
20
0
30
0
70
128
71
18
72
21
73
22
0
VERTEX
8
OBJECT__38
10
0
20
0
30
0
70
128
71
21
72
23
73
22
0
VERTEX
8
OBJECT__38
10
0
20
0
30
0
70
128
71
23
72
21
73
24
0
VERTEX
8
OBJECT__38
10
0
20
0
30
0
70
128
71
25
72
26
73
27
0
VERTEX
8
OBJECT__38
10
0
20
0
30
0
70
128
71
27
72
24
73
25
0
VERTEX
8
OBJECT__38
10
0
20
0
30
0
70
128
71
25
72
28
73
29
0
VERTEX
8
OBJECT__38
10
0
20
0
30
0
70
128
71
28
72
30
73
29
0
VERTEX
8
OBJECT__38
10
0
20
0
30
0
70
128
71
30
72
28
73
31
0
VERTEX
8
OBJECT__38
10
0
20
0
30
0
70
128
71
32
72
33
73
34
0
VERTEX
8
OBJECT__38
10
0
20
0
30
0
70
128
71
34
72
31
73
32
0
VERTEX
8
OBJECT__38
10
0
20
0
30
0
70
128
71
32
72
35
73
36
0
VERTEX
8
OBJECT__38
10
0
20
0
30
0
70
128
71
35
72
37
73
36
0
VERTEX
8
OBJECT__38
10
0
20
0
30
0
70
128
71
37
72
35
73
38
0
VERTEX
8
OBJECT__38
10
0
20
0
30
0
70
128
71
39
72
40
73
41
0
VERTEX
8
OBJECT__38
10
0
20
0
30
0
70
128
71
41
72
38
73
39
0
VERTEX
8
OBJECT__38
10
0
20
0
30
0
70
128
71
39
72
42
73
43
0
VERTEX
8
OBJECT__38
10
0
20
0
30
0
70
128
71
42
72
44
73
43
0
VERTEX
8
OBJECT__38
10
0
20
0
30
0
70
128
71
44
72
42
73
2
0
VERTEX
8
OBJECT__38
10
0
20
0
30
0
70
128
71
2
72
1
73
44
0
VERTEX
8
OBJECT__38
10
0
20
0
30
0
70
128
71
43
72
40
73
39
0
VERTEX
8
OBJECT__38
10
0
20
0
30
0
70
128
71
41
72
45
73
38
0
VERTEX
8
OBJECT__38
10
0
20
0
30
0
70
128
71
38
72
45
73
37
0
VERTEX
8
OBJECT__38
10
0
20
0
30
0
70
128
71
36
72
33
73
32
0
VERTEX
8
OBJECT__38
10
0
20
0
30
0
70
128
71
34
72
46
73
31
0
VERTEX
8
OBJECT__38
10
0
20
0
30
0
70
128
71
31
72
46
73
30
0
VERTEX
8
OBJECT__38
10
0
20
0
30
0
70
128
71
29
72
26
73
25
0
VERTEX
8
OBJECT__38
10
0
20
0
30
0
70
128
71
27
72
47
73
24
0
VERTEX
8
OBJECT__38
10
0
20
0
30
0
70
128
71
24
72
47
73
23
0
VERTEX
8
OBJECT__38
10
0
20
0
30
0
70
128
71
22
72
19
73
18
0
VERTEX
8
OBJECT__38
10
0
20
0
30
0
70
128
71
20
72
48
73
17
0
VERTEX
8
OBJECT__38
10
0
20
0
30
0
70
128
71
17
72
48
73
16
0
VERTEX
8
OBJECT__38
10
0
20
0
30
0
70
128
71
15
72
12
73
11
0
VERTEX
8
OBJECT__38
10
0
20
0
30
0
70
128
71
13
72
49
73
10
0
VERTEX
8
OBJECT__38
10
0
20
0
30
0
70
128
71
10
72
49
73
9
0
VERTEX
8
OBJECT__38
10
0
20
0
30
0
70
128
71
8
72
5
73
4
0
VERTEX
8
OBJECT__38
10
0
20
0
30
0
70
128
71
6
72
50
73
3
0
VERTEX
8
OBJECT__38
10
0
20
0
30
0
70
128
71
3
72
50
73
1
0
SEQEND
8
OBJECT__38
0
POLYLINE
8
OBJECT__39
66
1
70
64
71
33
72
33
62
253
0
VERTEX
8
OBJECT__39
10
13.513000
20
17.361000
30
10.000000
70
192
0
VERTEX
8
OBJECT__39
10
7.419000
20
15.407000
30
10.000000
70
192
0
VERTEX
8
OBJECT__39
10
13.369000
20
10.662000
30
10.000000
70
192
0
VERTEX
8
OBJECT__39
10
7.143000
20
20.808001
30
10.000000
70
192
0
VERTEX
8
OBJECT__39
10
0.000000
20
22.000000
30
10.000000
70
192
0
VERTEX
8
OBJECT__39
10
0.000000
20
17.100000
30
10.000000
70
192
0
VERTEX
8
OBJECT__39
10
-7.143000
20
20.808001
30
10.000000
70
192
0
VERTEX
8
OBJECT__39
10
-7.419000
20
15.407000
30
10.000000
70
192
0
VERTEX
8
OBJECT__39
10
-20.146999
20
-8.837000
30
10.000000
70
192
0
VERTEX
8
OBJECT__39
10
-16.186001
20
-14.900000
30
10.000000
70
192
0
VERTEX
8
OBJECT__39
10
-13.369000
20
-10.662000
30
10.000000
70
192
0
VERTEX
8
OBJECT__39
10
16.671000
20
3.805000
30
10.000000
70
192
0
VERTEX
8
OBJECT__39
10
21.327000
20
5.401000
30
10.000000
70
192
0
VERTEX
8
OBJECT__39
10
18.417999
20
12.033000
30
10.000000
70
192
0
VERTEX
8
OBJECT__39
10
-13.513000
20
17.361000
30
10.000000
70
192
0
VERTEX
8
OBJECT__39
10
-18.417999
20
12.033000
30
10.000000
70
192
0
VERTEX
8
OBJECT__39
10
-13.369000
20
10.662000
30
10.000000
70
192
0
VERTEX
8
OBJECT__39
10
-16.671000
20
-3.805000
30
10.000000
70
192
0
VERTEX
8
OBJECT__39
10
-21.924999
20
-1.817000
30
10.000000
70
192
0
VERTEX
8
OBJECT__39
10
-7.419000
20
-15.407000
30
10.000000
70
192
0
VERTEX
8
OBJECT__39
10
3.621000
20
-21.700001
30
10.000000
70
192
0
VERTEX
8
OBJECT__39
10
10.471000
20
-19.348000
30
10.000000
70
192
0
VERTEX
8
OBJECT__39
10
7.419000
20
-15.407000
30
10.000000
70
192
0
VERTEX
8
OBJECT__39
10
-16.671000
20
3.805000
30
10.000000
70
192
0
VERTEX
8
OBJECT__39
10
-10.471000
20
-19.348000
30
10.000000
70
192
0
VERTEX
8
OBJECT__39
10
-3.621000
20
-21.700001
30
10.000000
70
192
0
VERTEX
8
OBJECT__39
10
0.000000
20
-17.100000
30
10.000000
70
192
0
VERTEX
8
OBJECT__39
10
16.186001
20
-14.900000
30
10.000000
70
192
0
VERTEX
8
OBJECT__39
10
-21.327000
20
5.401000
30
10.000000
70
192
0
VERTEX
8
OBJECT__39
10
13.369000
20
-10.662000
30
10.000000
70
192
0
VERTEX
8
OBJECT__39
10
20.146999
20
-8.837000
30
10.000000
70
192
0
VERTEX
8
OBJECT__39
10
16.671000
20
-3.805000
30
10.000000
70
192
0
VERTEX
8
OBJECT__39
10
21.924999
20
-1.817000
30
10.000000
70
192
0
VERTEX
8
OBJECT__39
10
0
20
0
30
0
70
128
71
1
72
2
73
3
0
VERTEX
8
OBJECT__39
10
0
20
0
30
0
70
128
71
4
72
5
73
6
0
VERTEX
8
OBJECT__39
10
0
20
0
30
0
70
128
71
7
72
8
73
6
0
VERTEX
8
OBJECT__39
10
0
20
0
30
0
70
128
71
9
72
10
73
11
0
VERTEX
8
OBJECT__39
10
0
20
0
30
0
70
128
71
12
72
13
73
14
0
VERTEX
8
OBJECT__39
10
0
20
0
30
0
70
128
71
3
72
14
73
1
0
VERTEX
8
OBJECT__39
10
0
20
0
30
0
70
128
71
6
72
5
73
7
0
VERTEX
8
OBJECT__39
10
0
20
0
30
0
70
128
71
15
72
16
73
17
0
VERTEX
8
OBJECT__39
10
0
20
0
30
0
70
128
71
18
72
19
73
9
0
VERTEX
8
OBJECT__39
10
0
20
0
30
0
70
128
71
20
72
11
73
10
0
VERTEX
8
OBJECT__39
10
0
20
0
30
0
70
128
71
21
72
22
73
23
0
VERTEX
8
OBJECT__39
10
0
20
0
30
0
70
128
71
14
72
3
73
12
0
VERTEX
8
OBJECT__39
10
0
20
0
30
0
70
128
71
6
72
2
73
4
0
VERTEX
8
OBJECT__39
10
0
20
0
30
0
70
128
71
8
72
7
73
15
0
VERTEX
8
OBJECT__39
10
0
20
0
30
0
70
128
71
24
72
17
73
16
0
VERTEX
8
OBJECT__39
10
0
20
0
30
0
70
128
71
10
72
25
73
20
0
VERTEX
8
OBJECT__39
10
0
20
0
30
0
70
128
71
26
72
27
73
20
0
VERTEX
8
OBJECT__39
10
0
20
0
30
0
70
128
71
27
72
26
73
21
0
VERTEX
8
OBJECT__39
10
0
20
0
30
0
70
128
71
23
72
22
73
28
0
VERTEX
8
OBJECT__39
10
0
20
0
30
0
70
128
71
1
72
4
73
2
0
VERTEX
8
OBJECT__39
10
0
20
0
30
0
70
128
71
16
72
29
73
24
0
VERTEX
8
OBJECT__39
10
0
20
0
30
0
70
128
71
20
72
25
73
26
0
VERTEX
8
OBJECT__39
10
0
20
0
30
0
70
128
71
28
72
30
73
23
0
VERTEX
8
OBJECT__39
10
0
20
0
30
0
70
128
71
31
72
32
73
30
0
VERTEX
8
OBJECT__39
10
0
20
0
30
0
70
128
71
17
72
8
73
15
0
VERTEX
8
OBJECT__39
10
0
20
0
30
0
70
128
71
19
72
18
73
24
0
VERTEX
8
OBJECT__39
10
0
20
0
30
0
70
128
71
23
72
27
73
21
0
VERTEX
8
OBJECT__39
10
0
20
0
30
0
70
128
71
30
72
28
73
31
0
VERTEX
8
OBJECT__39
10
0
20
0
30
0
70
128
71
24
72
29
73
19
0
VERTEX
8
OBJECT__39
10
0
20
0
30
0
70
128
71
31
72
33
73
32
0
VERTEX
8
OBJECT__39
10
0
20
0
30
0
70
128
71
11
72
18
73
9
0
VERTEX
8
OBJECT__39
10
0
20
0
30
0
70
128
71
12
72
32
73
13
0
VERTEX
8
OBJECT__39
10
0
20
0
30
0
70
128
71
32
72
33
73
13
0
SEQEND
8
OBJECT__39
0
POLYLINE
8
OBJECT__40
66
1
70
64
71
22
72
22
62
253
0
VERTEX
8
OBJECT__40
10
12.619000
20
8.110000
30
98.000000
70
192
0
VERTEX
8
OBJECT__40
10
12.619000
20
8.110000
30
105.000000
70
192
0
VERTEX
8
OBJECT__40
10
15.000000
20
0.000000
30
105.000000
70
192
0
VERTEX
8
OBJECT__40
10
6.231000
20
13.644000
30
98.000000
70
192
0
VERTEX
8
OBJECT__40
10
6.231000
20
13.644000
30
105.000000
70
192
0
VERTEX
8
OBJECT__40
10
-2.135000
20
14.847000
30
98.000000
70
192
0
VERTEX
8
OBJECT__40
10
-2.135000
20
14.847000
30
105.000000
70
192
0
VERTEX
8
OBJECT__40
10
-9.823000
20
11.336000
30
98.000000
70
192
0
VERTEX
8
OBJECT__40
10
-9.823000
20
11.336000
30
105.000000
70
192
0
VERTEX
8
OBJECT__40
10
-14.392000
20
4.226000
30
98.000000
70
192
0
VERTEX
8
OBJECT__40
10
-14.392000
20
4.226000
30
105.000000
70
192
0
VERTEX
8
OBJECT__40
10
-14.392000
20
-4.226000
30
98.000000
70
192
0
VERTEX
8
OBJECT__40
10
-14.392000
20
-4.226000
30
105.000000
70
192
0
VERTEX
8
OBJECT__40
10
-9.823000
20
-11.336000
30
98.000000
70
192
0
VERTEX
8
OBJECT__40
10
-9.823000
20
-11.336000
30
105.000000
70
192
0
VERTEX
8
OBJECT__40
10
-2.135000
20
-14.847000
30
98.000000
70
192
0
VERTEX
8
OBJECT__40
10
-2.135000
20
-14.847000
30
105.000000
70
192
0
VERTEX
8
OBJECT__40
10
6.231000
20
-13.644000
30
98.000000
70
192
0
VERTEX
8
OBJECT__40
10
6.231000
20
-13.644000
30
105.000000
70
192
0
VERTEX
8
OBJECT__40
10
12.619000
20
-8.110000
30
98.000000
70
192
0
VERTEX
8
OBJECT__40
10
12.619000
20
-8.110000
30
105.000000
70
192
0
VERTEX
8
OBJECT__40
10
15.000000
20
0.000000
30
98.000000
70
192
0
VERTEX
8
OBJECT__40
10
0
20
0
30
0
70
128
71
1
72
2
73
3
0
VERTEX
8
OBJECT__40
10
0
20
0
30
0
70
128
71
4
72
5
73
2
0
VERTEX
8
OBJECT__40
10
0
20
0
30
0
70
128
71
6
72
7
73
5
0
VERTEX
8
OBJECT__40
10
0
20
0
30
0
70
128
71
8
72
9
73
7
0
VERTEX
8
OBJECT__40
10
0
20
0
30
0
70
128
71
10
72
11
73
9
0
VERTEX
8
OBJECT__40
10
0
20
0
30
0
70
128
71
12
72
13
73
11
0
VERTEX
8
OBJECT__40
10
0
20
0
30
0
70
128
71
14
72
15
73
13
0
VERTEX
8
OBJECT__40
10
0
20
0
30
0
70
128
71
16
72
17
73
15
0
VERTEX
8
OBJECT__40
10
0
20
0
30
0
70
128
71
18
72
19
73
17
0
VERTEX
8
OBJECT__40
10
0
20
0
30
0
70
128
71
20
72
21
73
19
0
VERTEX
8
OBJECT__40
10
0
20
0
30
0
70
128
71
22
72
3
73
21
0
VERTEX
8
OBJECT__40
10
0
20
0
30
0
70
128
71
21
72
20
73
22
0
VERTEX
8
OBJECT__40
10
0
20
0
30
0
70
128
71
19
72
18
73
20
0
VERTEX
8
OBJECT__40
10
0
20
0
30
0
70
128
71
17
72
16
73
18
0
VERTEX
8
OBJECT__40
10
0
20
0
30
0
70
128
71
15
72
14
73
16
0
VERTEX
8
OBJECT__40
10
0
20
0
30
0
70
128
71
13
72
12
73
14
0
VERTEX
8
OBJECT__40
10
0
20
0
30
0
70
128
71
11
72
10
73
12
0
VERTEX
8
OBJECT__40
10
0
20
0
30
0
70
128
71
9
72
8
73
10
0
VERTEX
8
OBJECT__40
10
0
20
0
30
0
70
128
71
7
72
6
73
8
0
VERTEX
8
OBJECT__40
10
0
20
0
30
0
70
128
71
5
72
4
73
6
0
VERTEX
8
OBJECT__40
10
0
20
0
30
0
70
128
71
2
72
1
73
4
0
VERTEX
8
OBJECT__40
10
0
20
0
30
0
70
128
71
3
72
22
73
1
0
SEQEND
8
OBJECT__40
0
POLYLINE
8
OBJECT__41
66
1
70
64
71
21
72
21
62
253
0
VERTEX
8
OBJECT__41
10
6.231000
20
13.644000
30
105.000000
70
192
0
VERTEX
8
OBJECT__41
10
3.554000
20
10.937000
30
105.000000
70
192
0
VERTEX
8
OBJECT__41
10
9.304000
20
6.760000
30
105.000000
70
192
0
VERTEX
8
OBJECT__41
10
-2.135000
20
14.847000
30
105.000000
70
192
0
VERTEX
8
OBJECT__41
10
-3.554000
20
10.937000
30
105.000000
70
192
0
VERTEX
8
OBJECT__41
10
-14.392000
20
4.226000
30
105.000000
70
192
0
VERTEX
8
OBJECT__41
10
-11.500000
20
0.000000
30
105.000000
70
192
0
VERTEX
8
OBJECT__41
10
-9.304000
20
6.760000
30
105.000000
70
192
0
VERTEX
8
OBJECT__41
10
-9.823000
20
11.336000
30
105.000000
70
192
0
VERTEX
8
OBJECT__41
10
-14.392000
20
-4.226000
30
105.000000
70
192
0
VERTEX
8
OBJECT__41
10
-9.823000
20
-11.336000
30
105.000000
70
192
0
VERTEX
8
OBJECT__41
10
-9.304000
20
-6.760000
30
105.000000
70
192
0
VERTEX
8
OBJECT__41
10
-2.135000
20
-14.847000
30
105.000000
70
192
0
VERTEX
8
OBJECT__41
10
-3.554000
20
-10.937000
30
105.000000
70
192
0
VERTEX
8
OBJECT__41
10
6.231000
20
-13.644000
30
105.000000
70
192
0
VERTEX
8
OBJECT__41
10
3.554000
20
-10.937000
30
105.000000
70
192
0
VERTEX
8
OBJECT__41
10
12.619000
20
8.110000
30
105.000000
70
192
0
VERTEX
8
OBJECT__41
10
11.500000
20
0.000000
30
105.000000
70
192
0
VERTEX
8
OBJECT__41
10
12.619000
20
-8.110000
30
105.000000
70
192
0
VERTEX
8
OBJECT__41
10
9.304000
20
-6.760000
30
105.000000
70
192
0
VERTEX
8
OBJECT__41
10
15.000000
20
0.000000
30
105.000000
70
192
0
VERTEX
8
OBJECT__41
10
0
20
0
30
0
70
128
71
1
72
2
73
3
0
VERTEX
8
OBJECT__41
10
0
20
0
30
0
70
128
71
4
72
5
73
2
0
VERTEX
8
OBJECT__41
10
0
20
0
30
0
70
128
71
6
72
7
73
8
0
VERTEX
8
OBJECT__41
10
0
20
0
30
0
70
128
71
2
72
1
73
4
0
VERTEX
8
OBJECT__41
10
0
20
0
30
0
70
128
71
9
72
8
73
5
0
VERTEX
8
OBJECT__41
10
0
20
0
30
0
70
128
71
6
72
10
73
7
0
VERTEX
8
OBJECT__41
10
0
20
0
30
0
70
128
71
10
72
11
73
12
0
VERTEX
8
OBJECT__41
10
0
20
0
30
0
70
128
71
5
72
4
73
9
0
VERTEX
8
OBJECT__41
10
0
20
0
30
0
70
128
71
12
72
7
73
10
0
VERTEX
8
OBJECT__41
10
0
20
0
30
0
70
128
71
11
72
13
73
14
0
VERTEX
8
OBJECT__41
10
0
20
0
30
0
70
128
71
13
72
15
73
16
0
VERTEX
8
OBJECT__41
10
0
20
0
30
0
70
128
71
17
72
3
73
18
0
VERTEX
8
OBJECT__41
10
0
20
0
30
0
70
128
71
8
72
9
73
6
0
VERTEX
8
OBJECT__41
10
0
20
0
30
0
70
128
71
16
72
14
73
13
0
VERTEX
8
OBJECT__41
10
0
20
0
30
0
70
128
71
15
72
19
73
20
0
VERTEX
8
OBJECT__41
10
0
20
0
30
0
70
128
71
3
72
17
73
1
0
VERTEX
8
OBJECT__41
10
0
20
0
30
0
70
128
71
20
72
16
73
15
0
VERTEX
8
OBJECT__41
10
0
20
0
30
0
70
128
71
14
72
12
73
11
0
VERTEX
8
OBJECT__41
10
0
20
0
30
0
70
128
71
19
72
21
73
18
0
VERTEX
8
OBJECT__41
10
0
20
0
30
0
70
128
71
18
72
20
73
19
0
VERTEX
8
OBJECT__41
10
0
20
0
30
0
70
128
71
18
72
21
73
17
0
SEQEND
8
OBJECT__41
0
POLYLINE
8
OBJECT__43
66
1
70
64
71
20
72
20
62
253
0
VERTEX
8
OBJECT__43
10
9.304000
20
6.760000
30
105.000000
70
192
0
VERTEX
8
OBJECT__43
10
9.304000
20
6.760000
30
106.000000
70
192
0
VERTEX
8
OBJECT__43
10
11.500000
20
0.000000
30
106.000000
70
192
0
VERTEX
8
OBJECT__43
10
3.554000
20
10.937000
30
105.000000
70
192
0
VERTEX
8
OBJECT__43
10
3.554000
20
10.937000
30
106.000000
70
192
0
VERTEX
8
OBJECT__43
10
-3.554000
20
10.937000
30
105.000000
70
192
0
VERTEX
8
OBJECT__43
10
-3.554000
20
10.937000
30
106.000000
70
192
0
VERTEX
8
OBJECT__43
10
-9.304000
20
6.760000
30
105.000000
70
192
0
VERTEX
8
OBJECT__43
10
-9.304000
20
6.760000
30
106.000000
70
192
0
VERTEX
8
OBJECT__43
10
-11.500000
20
0.000000
30
105.000000
70
192
0
VERTEX
8
OBJECT__43
10
-11.500000
20
0.000000
30
106.000000
70
192
0
VERTEX
8
OBJECT__43
10
-9.304000
20
-6.760000
30
105.000000
70
192
0
VERTEX
8
OBJECT__43
10
-9.304000
20
-6.760000
30
106.000000
70
192
0
VERTEX
8
OBJECT__43
10
-3.554000
20
-10.937000
30
105.000000
70
192
0
VERTEX
8
OBJECT__43
10
-3.554000
20
-10.937000
30
106.000000
70
192
0
VERTEX
8
OBJECT__43
10
3.554000
20
-10.937000
30
105.000000
70
192
0
VERTEX
8
OBJECT__43
10
3.554000
20
-10.937000
30
106.000000
70
192
0
VERTEX
8
OBJECT__43
10
9.304000
20
-6.760000
30
105.000000
70
192
0
VERTEX
8
OBJECT__43
10
9.304000
20
-6.760000
30
106.000000
70
192
0
VERTEX
8
OBJECT__43
10
11.500000
20
0.000000
30
105.000000
70
192
0
VERTEX
8
OBJECT__43
10
0
20
0
30
0
70
128
71
1
72
2
73
3
0
VERTEX
8
OBJECT__43
10
0
20
0
30
0
70
128
71
4
72
5
73
2
0
VERTEX
8
OBJECT__43
10
0
20
0
30
0
70
128
71
6
72
7
73
5
0
VERTEX
8
OBJECT__43
10
0
20
0
30
0
70
128
71
8
72
9
73
7
0
VERTEX
8
OBJECT__43
10
0
20
0
30
0
70
128
71
10
72
11
73
9
0
VERTEX
8
OBJECT__43
10
0
20
0
30
0
70
128
71
12
72
13
73
11
0
VERTEX
8
OBJECT__43
10
0
20
0
30
0
70
128
71
14
72
15
73
13
0
VERTEX
8
OBJECT__43
10
0
20
0
30
0
70
128
71
16
72
17
73
15
0
VERTEX
8
OBJECT__43
10
0
20
0
30
0
70
128
71
18
72
19
73
17
0
VERTEX
8
OBJECT__43
10
0
20
0
30
0
70
128
71
20
72
3
73
19
0
VERTEX
8
OBJECT__43
10
0
20
0
30
0
70
128
71
19
72
18
73
20
0
VERTEX
8
OBJECT__43
10
0
20
0
30
0
70
128
71
17
72
16
73
18
0
VERTEX
8
OBJECT__43
10
0
20
0
30
0
70
128
71
15
72
14
73
16
0
VERTEX
8
OBJECT__43
10
0
20
0
30
0
70
128
71
13
72
12
73
14
0
VERTEX
8
OBJECT__43
10
0
20
0
30
0
70
128
71
11
72
10
73
12
0
VERTEX
8
OBJECT__43
10
0
20
0
30
0
70
128
71
9
72
8
73
10
0
VERTEX
8
OBJECT__43
10
0
20
0
30
0
70
128
71
7
72
6
73
8
0
VERTEX
8
OBJECT__43
10
0
20
0
30
0
70
128
71
5
72
4
73
6
0
VERTEX
8
OBJECT__43
10
0
20
0
30
0
70
128
71
2
72
1
73
4
0
VERTEX
8
OBJECT__43
10
0
20
0
30
0
70
128
71
3
72
20
73
1
0
SEQEND
8
OBJECT__43
0
POLYLINE
8
OBJECT__44
66
1
70
64
71
34
72
34
62
253
0
VERTEX
8
OBJECT__44
10
-9.304000
20
-6.760000
30
106.000000
70
192
0
VERTEX
8
OBJECT__44
10
-9.210000
20
-6.715000
30
202.000000
70
192
0
VERTEX
8
OBJECT__44
10
-11.212000
20
-2.559000
30
202.000000
70
192
0
VERTEX
8
OBJECT__44
10
-11.500000
20
0.000000
30
106.000000
70
192
0
VERTEX
8
OBJECT__44
10
-3.554000
20
-10.937000
30
106.000000
70
192
0
VERTEX
8
OBJECT__44
10
-4.990000
20
-10.361000
30
202.000000
70
192
0
VERTEX
8
OBJECT__44
10
-8.991000
20
-7.170000
30
202.000000
70
192
0
VERTEX
8
OBJECT__44
10
-3.500000
20
-10.701000
30
202.000000
70
192
0
VERTEX
8
OBJECT__44
10
3.554000
20
-10.937000
30
106.000000
70
192
0
VERTEX
8
OBJECT__44
10
3.500000
20
-10.701000
30
202.000000
70
192
0
VERTEX
8
OBJECT__44
10
0.000000
20
-11.500000
30
202.000000
70
192
0
VERTEX
8
OBJECT__44
10
8.991000
20
-7.170000
30
202.000000
70
192
0
VERTEX
8
OBJECT__44
10
4.990000
20
-10.361000
30
202.000000
70
192
0
VERTEX
8
OBJECT__44
10
9.304000
20
-6.760000
30
106.000000
70
192
0
VERTEX
8
OBJECT__44
10
9.210000
20
-6.715000
30
202.000000
70
192
0
VERTEX
8
OBJECT__44
10
11.500000
20
0.000000
30
106.000000
70
192
0
VERTEX
8
OBJECT__44
10
11.212000
20
-2.559000
30
202.000000
70
192
0
VERTEX
8
OBJECT__44
10
11.212000
20
0.000000
30
202.000000
70
192
0
VERTEX
8
OBJECT__44
10
9.304000
20
6.760000
30
106.000000
70
192
0
VERTEX
8
OBJECT__44
10
9.210000
20
6.715000
30
202.000000
70
192
0
VERTEX
8
OBJECT__44
10
11.212000
20
2.559000
30
202.000000
70
192
0
VERTEX
8
OBJECT__44
10
3.554000
20
10.937000
30
106.000000
70
192
0
VERTEX
8
OBJECT__44
10
4.990000
20
10.361000
30
202.000000
70
192
0
VERTEX
8
OBJECT__44
10
8.991000
20
7.170000
30
202.000000
70
192
0
VERTEX
8
OBJECT__44
10
3.500000
20
10.701000
30
202.000000
70
192
0
VERTEX
8
OBJECT__44
10
-3.554000
20
10.937000
30
106.000000
70
192
0
VERTEX
8
OBJECT__44
10
-3.500000
20
10.701000
30
202.000000
70
192
0
VERTEX
8
OBJECT__44
10
0.000000
20
11.500000
30
202.000000
70
192
0
VERTEX
8
OBJECT__44
10
-8.991000
20
7.170000
30
202.000000
70
192
0
VERTEX
8
OBJECT__44
10
-4.990000
20
10.361000
30
202.000000
70
192
0
VERTEX
8
OBJECT__44
10
-9.304000
20
6.760000
30
106.000000
70
192
0
VERTEX
8
OBJECT__44
10
-9.210000
20
6.715000
30
202.000000
70
192
0
VERTEX
8
OBJECT__44
10
-11.212000
20
2.559000
30
202.000000
70
192
0
VERTEX
8
OBJECT__44
10
-11.500000
20
0.000000
30
202.000000
70
192
0
VERTEX
8
OBJECT__44
10
0
20
0
30
0
70
128
71
1
72
2
73
3
0
VERTEX
8
OBJECT__44
10
0
20
0
30
0
70
128
71
3
72
4
73
1
0
VERTEX
8
OBJECT__44
10
0
20
0
30
0
70
128
71
1
72
5
73
6
0
VERTEX
8
OBJECT__44
10
0
20
0
30
0
70
128
71
6
72
7
73
1
0
VERTEX
8
OBJECT__44
10
0
20
0
30
0
70
128
71
5
72
8
73
6
0
VERTEX
8
OBJECT__44
10
0
20
0
30
0
70
128
71
9
72
10
73
11
0
VERTEX
8
OBJECT__44
10
0
20
0
30
0
70
128
71
11
72
5
73
9
0
VERTEX
8
OBJECT__44
10
0
20
0
30
0
70
128
71
9
72
12
73
13
0
VERTEX
8
OBJECT__44
10
0
20
0
30
0
70
128
71
14
72
15
73
12
0
VERTEX
8
OBJECT__44
10
0
20
0
30
0
70
128
71
12
72
9
73
14
0
VERTEX
8
OBJECT__44
10
0
20
0
30
0
70
128
71
13
72
10
73
9
0
VERTEX
8
OBJECT__44
10
0
20
0
30
0
70
128
71
14
72
16
73
17
0
VERTEX
8
OBJECT__44
10
0
20
0
30
0
70
128
71
16
72
18
73
17
0
VERTEX
8
OBJECT__44
10
0
20
0
30
0
70
128
71
19
72
20
73
21
0
VERTEX
8
OBJECT__44
10
0
20
0
30
0
70
128
71
21
72
16
73
19
0
VERTEX
8
OBJECT__44
10
0
20
0
30
0
70
128
71
19
72
22
73
23
0
VERTEX
8
OBJECT__44
10
0
20
0
30
0
70
128
71
23
72
24
73
19
0
VERTEX
8
OBJECT__44
10
0
20
0
30
0
70
128
71
22
72
25
73
23
0
VERTEX
8
OBJECT__44
10
0
20
0
30
0
70
128
71
26
72
27
73
28
0
VERTEX
8
OBJECT__44
10
0
20
0
30
0
70
128
71
28
72
22
73
26
0
VERTEX
8
OBJECT__44
10
0
20
0
30
0
70
128
71
26
72
29
73
30
0
VERTEX
8
OBJECT__44
10
0
20
0
30
0
70
128
71
31
72
32
73
29
0
VERTEX
8
OBJECT__44
10
0
20
0
30
0
70
128
71
29
72
26
73
31
0
VERTEX
8
OBJECT__44
10
0
20
0
30
0
70
128
71
30
72
27
73
26
0
VERTEX
8
OBJECT__44
10
0
20
0
30
0
70
128
71
31
72
4
73
33
0
VERTEX
8
OBJECT__44
10
0
20
0
30
0
70
128
71
4
72
34
73
33
0
VERTEX
8
OBJECT__44
10
0
20
0
30
0
70
128
71
33
72
32
73
31
0
VERTEX
8
OBJECT__44
10
0
20
0
30
0
70
128
71
28
72
25
73
22
0
VERTEX
8
OBJECT__44
10
0
20
0
30
0
70
128
71
24
72
20
73
19
0
VERTEX
8
OBJECT__44
10
0
20
0
30
0
70
128
71
21
72
18
73
16
0
VERTEX
8
OBJECT__44
10
0
20
0
30
0
70
128
71
17
72
15
73
14
0
VERTEX
8
OBJECT__44
10
0
20
0
30
0
70
128
71
11
72
8
73
5
0
VERTEX
8
OBJECT__44
10
0
20
0
30
0
70
128
71
7
72
2
73
1
0
VERTEX
8
OBJECT__44
10
0
20
0
30
0
70
128
71
3
72
34
73
4
0
SEQEND
8
OBJECT__44
0
POLYLINE
8
OBJECT__45
66
1
70
64
71
271
72
495
62
253
0
VERTEX
8
OBJECT__45
10
0.000000
20
-12.465000
30
213.026993
70
192
0
VERTEX
8
OBJECT__45
10
-4.990000
20
-11.343000
30
213.223999
70
192
0
VERTEX
8
OBJECT__45
10
-3.500000
20
-10.701000
30
202.000000
70
192
0
VERTEX
8
OBJECT__45
10
-4.990000
20
-10.361000
30
202.000000
70
192
0
VERTEX
8
OBJECT__45
10
0.000000
20
-15.330000
30
223.718002
70
192
0
VERTEX
8
OBJECT__45
10
-4.990000
20
-14.259000
30
224.108002
70
192
0
VERTEX
8
OBJECT__45
10
0.000000
20
-20.007000
30
233.750000
70
192
0
VERTEX
8
OBJECT__45
10
-4.990000
20
-19.021000
30
234.319000
70
192
0
VERTEX
8
OBJECT__45
10
0.000000
20
-26.356001
30
242.817001
70
192
0
VERTEX
8
OBJECT__45
10
-4.990000
20
-25.483999
30
243.548996
70
192
0
VERTEX
8
OBJECT__45
10
0.000000
20
-34.182999
30
250.643997
70
192
0
VERTEX
8
OBJECT__45
10
-4.990000
20
-33.451000
30
251.516006
70
192
0
VERTEX
8
OBJECT__45
10
0.000000
20
-43.250000
30
256.993011
70
192
0
VERTEX
8
OBJECT__45
10
-4.990000
20
-42.681000
30
257.979004
70
192
0
VERTEX
8
OBJECT__45
10
0.000000
20
-53.282001
30
261.670013
70
192
0
VERTEX
8
OBJECT__45
10
-4.990000
20
-52.891998
30
262.740997
70
192
0
VERTEX
8
OBJECT__45
10
0.000000
20
-63.973000
30
264.535004
70
192
0
VERTEX
8
OBJECT__45
10
-4.990000
20
-63.776001
30
265.657013
70
192
0
VERTEX
8
OBJECT__45
10
0.000000
20
-75.000000
30
265.500000
70
192
0
VERTEX
8
OBJECT__45
10
-4.990000
20
-75.000000
30
266.639008
70
192
0
VERTEX
8
OBJECT__45
10
0.000000
20
-86.027000
30
264.535004
70
192
0
VERTEX
8
OBJECT__45
10
-4.990000
20
-86.223999
30
265.657013
70
192
0
VERTEX
8
OBJECT__45
10
0.000000
20
-96.718002
30
261.670013
70
192
0
VERTEX
8
OBJECT__45
10
-4.990000
20
-97.108002
30
262.740997
70
192
0
VERTEX
8
OBJECT__45
10
0.000000
20
-106.750000
30
256.993011
70
192
0
VERTEX
8
OBJECT__45
10
-4.990000
20
-107.319000
30
257.979004
70
192
0
VERTEX
8
OBJECT__45
10
0.000000
20
-115.817001
30
250.643997
70
192
0
VERTEX
8
OBJECT__45
10
-4.990000
20
-116.549004
30
251.516006
70
192
0
VERTEX
8
OBJECT__45
10
0.000000
20
-123.643997
30
242.817001
70
192
0
VERTEX
8
OBJECT__45
10
-4.990000
20
-124.515999
30
243.548996
70
192
0
VERTEX
8
OBJECT__45
10
0.000000
20
-129.992996
30
233.750000
70
192
0
VERTEX
8
OBJECT__45
10
-4.990000
20
-130.979004
30
234.319000
70
192
0
VERTEX
8
OBJECT__45
10
0.000000
20
-134.669998
30
223.718002
70
192
0
VERTEX
8
OBJECT__45
10
-4.990000
20
-135.740997
30
224.108002
70
192
0
VERTEX
8
OBJECT__45
10
-4.990000
20
-138.656998
30
213.223999
70
192
0
VERTEX
8
OBJECT__45
10
-8.991000
20
-7.170000
30
202.000000
70
192
0
VERTEX
8
OBJECT__45
10
-8.991000
20
-11.261000
30
225.199005
70
192
0
VERTEX
8
OBJECT__45
10
-8.991000
20
-16.257999
30
235.914993
70
192
0
VERTEX
8
OBJECT__45
10
-8.991000
20
-23.039000
30
245.600006
70
192
0
VERTEX
8
OBJECT__45
10
-8.991000
20
-31.400000
30
253.960999
70
192
0
VERTEX
8
OBJECT__45
10
-8.991000
20
-41.084999
30
260.742004
70
192
0
VERTEX
8
OBJECT__45
10
-8.991000
20
-51.800999
30
265.739014
70
192
0
VERTEX
8
OBJECT__45
10
-8.991000
20
-63.221001
30
268.799011
70
192
0
VERTEX
8
OBJECT__45
10
-8.991000
20
-75.000000
30
269.829987
70
192
0
VERTEX
8
OBJECT__45
10
-8.991000
20
-86.778999
30
268.799011
70
192
0
VERTEX
8
OBJECT__45
10
-8.991000
20
-98.198997
30
265.739014
70
192
0
VERTEX
8
OBJECT__45
10
-8.991000
20
-108.915001
30
260.742004
70
192
0
VERTEX
8
OBJECT__45
10
-8.991000
20
-118.599998
30
253.960999
70
192
0
VERTEX
8
OBJECT__45
10
-8.991000
20
-126.960999
30
245.600006
70
192
0
VERTEX
8
OBJECT__45
10
-8.991000
20
-133.742004
30
235.914993
70
192
0
VERTEX
8
OBJECT__45
10
-8.991000
20
-138.738998
30
225.199005
70
192
0
VERTEX
8
OBJECT__45
10
-6.587000
20
-139.910995
30
213.445999
70
192
0
VERTEX
8
OBJECT__45
10
-11.212000
20
-3.660000
30
214.578995
70
192
0
VERTEX
8
OBJECT__45
10
-11.212000
20
-2.559000
30
202.000000
70
192
0
VERTEX
8
OBJECT__45
10
-9.210000
20
-6.715000
30
202.000000
70
192
0
VERTEX
8
OBJECT__45
10
-8.991000
20
-8.201000
30
213.779007
70
192
0
VERTEX
8
OBJECT__45
10
-11.212000
20
-6.928000
30
226.776001
70
192
0
VERTEX
8
OBJECT__45
10
-11.212000
20
-12.264000
30
238.220993
70
192
0
VERTEX
8
OBJECT__45
10
-11.212000
20
-19.507000
30
248.563995
70
192
0
VERTEX
8
OBJECT__45
10
-11.212000
20
-28.436001
30
257.493011
70
192
0
VERTEX
8
OBJECT__45
10
-11.212000
20
-38.778999
30
264.735992
70
192
0
VERTEX
8
OBJECT__45
10
-11.212000
20
-50.223999
30
270.071991
70
192
0
VERTEX
8
OBJECT__45
10
-11.212000
20
-62.421001
30
273.339996
70
192
0
VERTEX
8
OBJECT__45
10
-11.212000
20
-75.000000
30
274.441010
70
192
0
VERTEX
8
OBJECT__45
10
-11.212000
20
-87.579002
30
273.339996
70
192
0
VERTEX
8
OBJECT__45
10
-11.212000
20
-99.776001
30
270.071991
70
192
0
VERTEX
8
OBJECT__45
10
-11.212000
20
-111.221001
30
264.735992
70
192
0
VERTEX
8
OBJECT__45
10
-11.212000
20
-121.564003
30
257.493011
70
192
0
VERTEX
8
OBJECT__45
10
-11.212000
20
-130.492996
30
248.563995
70
192
0
VERTEX
8
OBJECT__45
10
-11.212000
20
-137.735992
30
238.220993
70
192
0
VERTEX
8
OBJECT__45
10
-11.212000
20
-143.072006
30
226.776001
70
192
0
VERTEX
8
OBJECT__45
10
-10.771000
20
-145.440002
30
214.419998
70
192
0
VERTEX
8
OBJECT__45
10
-8.991000
20
-141.798996
30
213.779007
70
192
0
VERTEX
8
OBJECT__45
10
-11.212000
20
1.381000
30
215.468002
70
192
0
VERTEX
8
OBJECT__45
10
-11.500000
20
0.000000
30
202.000000
70
192
0
VERTEX
8
OBJECT__45
10
-11.212000
20
2.559000
30
202.000000
70
192
0
VERTEX
8
OBJECT__45
10
-11.212000
20
-2.118000
30
228.526993
70
192
0
VERTEX
8
OBJECT__45
10
-11.212000
20
-7.832000
30
240.779007
70
192
0
VERTEX
8
OBJECT__45
10
-11.212000
20
-15.586000
30
251.854004
70
192
0
VERTEX
8
OBJECT__45
10
-11.212000
20
-25.146000
30
261.414001
70
192
0
VERTEX
8
OBJECT__45
10
-11.212000
20
-36.221001
30
269.167999
70
192
0
VERTEX
8
OBJECT__45
10
-11.212000
20
-48.473000
30
274.881989
70
192
0
VERTEX
8
OBJECT__45
10
-11.212000
20
-61.532001
30
278.381012
70
192
0
VERTEX
8
OBJECT__45
10
-11.212000
20
-75.000000
30
279.558990
70
192
0
VERTEX
8
OBJECT__45
10
-11.212000
20
-88.468002
30
278.381012
70
192
0
VERTEX
8
OBJECT__45
10
-11.212000
20
-101.527000
30
274.881989
70
192
0
VERTEX
8
OBJECT__45
10
-11.212000
20
-113.778999
30
269.167999
70
192
0
VERTEX
8
OBJECT__45
10
-11.212000
20
-124.853996
30
261.414001
70
192
0
VERTEX
8
OBJECT__45
10
-11.212000
20
-134.414001
30
251.854004
70
192
0
VERTEX
8
OBJECT__45
10
-11.212000
20
-142.167999
30
240.779007
70
192
0
VERTEX
8
OBJECT__45
10
-11.212000
20
-147.882004
30
228.526993
70
192
0
VERTEX
8
OBJECT__45
10
-11.212000
20
-146.339996
30
214.578995
70
192
0
VERTEX
8
OBJECT__45
10
-11.500000
20
-148.860992
30
215.024002
70
192
0
VERTEX
8
OBJECT__45
10
-9.210000
20
6.715000
30
202.000000
70
192
0
VERTEX
8
OBJECT__45
10
-8.991000
20
5.922000
30
216.268997
70
192
0
VERTEX
8
OBJECT__45
10
-8.991000
20
7.170000
30
202.000000
70
192
0
VERTEX
8
OBJECT__45
10
-8.991000
20
2.215000
30
230.104004
70
192
0
VERTEX
8
OBJECT__45
10
-8.991000
20
-3.839000
30
243.085007
70
192
0
VERTEX
8
OBJECT__45
10
-8.991000
20
-12.054000
30
254.817993
70
192
0
VERTEX
8
OBJECT__45
10
-8.991000
20
-22.181999
30
264.946014
70
192
0
VERTEX
8
OBJECT__45
10
-8.991000
20
-33.915001
30
273.161011
70
192
0
VERTEX
8
OBJECT__45
10
-8.991000
20
-46.896000
30
279.214996
70
192
0
VERTEX
8
OBJECT__45
10
-8.991000
20
-60.730999
30
282.921997
70
192
0
VERTEX
8
OBJECT__45
10
-8.991000
20
-75.000000
30
284.170013
70
192
0
VERTEX
8
OBJECT__45
10
-8.991000
20
-89.268997
30
282.921997
70
192
0
VERTEX
8
OBJECT__45
10
-8.991000
20
-103.103996
30
279.214996
70
192
0
VERTEX
8
OBJECT__45
10
-8.991000
20
-116.084999
30
273.161011
70
192
0
VERTEX
8
OBJECT__45
10
-8.991000
20
-127.818001
30
264.946014
70
192
0
VERTEX
8
OBJECT__45
10
-8.991000
20
-137.945999
30
254.817993
70
192
0
VERTEX
8
OBJECT__45
10
-8.991000
20
-146.160995
30
243.085007
70
192
0
VERTEX
8
OBJECT__45
10
-8.991000
20
-152.214996
30
230.104004
70
192
0
VERTEX
8
OBJECT__45
10
-10.771000
20
-152.281998
30
215.626999
70
192
0
VERTEX
8
OBJECT__45
10
-11.212000
20
-151.380997
30
215.468002
70
192
0
VERTEX
8
OBJECT__45
10
-4.990000
20
9.064000
30
216.822998
70
192
0
VERTEX
8
OBJECT__45
10
-4.990000
20
10.361000
30
202.000000
70
192
0
VERTEX
8
OBJECT__45
10
-4.990000
20
5.213000
30
231.195007
70
192
0
VERTEX
8
OBJECT__45
10
-4.990000
20
-1.075000
30
244.681000
70
192
0
VERTEX
8
OBJECT__45
10
-4.990000
20
-9.610000
30
256.868988
70
192
0
VERTEX
8
OBJECT__45
10
-4.990000
20
-20.131001
30
267.390015
70
192
0
VERTEX
8
OBJECT__45
10
-4.990000
20
-32.319000
30
275.924988
70
192
0
VERTEX
8
OBJECT__45
10
-4.990000
20
-45.805000
30
282.213013
70
192
0
VERTEX
8
OBJECT__45
10
-4.990000
20
-60.176998
30
286.063995
70
192
0
VERTEX
8
OBJECT__45
10
-4.990000
20
-75.000000
30
287.360992
70
192
0
VERTEX
8
OBJECT__45
10
-4.990000
20
-89.822998
30
286.063995
70
192
0
VERTEX
8
OBJECT__45
10
-4.990000
20
-104.195000
30
282.213013
70
192
0
VERTEX
8
OBJECT__45
10
-4.990000
20
-117.681000
30
275.924988
70
192
0
VERTEX
8
OBJECT__45
10
-4.990000
20
-129.869003
30
267.390015
70
192
0
VERTEX
8
OBJECT__45
10
-4.990000
20
-140.389999
30
256.868988
70
192
0
VERTEX
8
OBJECT__45
10
-4.990000
20
-148.925003
30
244.681000
70
192
0
VERTEX
8
OBJECT__45
10
-4.990000
20
-155.212997
30
231.195007
70
192
0
VERTEX
8
OBJECT__45
10
-8.991000
20
-155.921997
30
216.268997
70
192
0
VERTEX
8
OBJECT__45
10
-6.587000
20
-157.809998
30
216.602005
70
192
0
VERTEX
8
OBJECT__45
10
0.000000
20
10.186000
30
217.020996
70
192
0
VERTEX
8
OBJECT__45
10
0.000000
20
11.500000
30
202.000000
70
192
0
VERTEX
8
OBJECT__45
10
-3.500000
20
10.701000
30
202.000000
70
192
0
VERTEX
8
OBJECT__45
10
0.000000
20
6.283000
30
231.585007
70
192
0
VERTEX
8
OBJECT__45
10
0.000000
20
-0.089000
30
245.250000
70
192
0
VERTEX
8
OBJECT__45
10
0.000000
20
-8.737000
30
257.601013
70
192
0
VERTEX
8
OBJECT__45
10
0.000000
20
-19.399000
30
268.263000
70
192
0
VERTEX
8
OBJECT__45
10
0.000000
20
-31.750000
30
276.911011
70
192
0
VERTEX
8
OBJECT__45
10
0.000000
20
-45.415001
30
283.282990
70
192
0
VERTEX
8
OBJECT__45
10
0.000000
20
-59.979000
30
287.186005
70
192
0
VERTEX
8
OBJECT__45
10
0.000000
20
-75.000000
30
288.500000
70
192
0
VERTEX
8
OBJECT__45
10
0.000000
20
-90.021004
30
287.186005
70
192
0
VERTEX
8
OBJECT__45
10
0.000000
20
-104.584999
30
283.282990
70
192
0
VERTEX
8
OBJECT__45
10
0.000000
20
-118.250000
30
276.911011
70
192
0
VERTEX
8
OBJECT__45
10
0.000000
20
-130.600998
30
268.263000
70
192
0
VERTEX
8
OBJECT__45
10
0.000000
20
-141.263000
30
257.601013
70
192
0
VERTEX
8
OBJECT__45
10
0.000000
20
-149.910995
30
245.250000
70
192
0
VERTEX
8
OBJECT__45
10
0.000000
20
-156.283005
30
231.585007
70
192
0
VERTEX
8
OBJECT__45
10
0.000000
20
-160.186005
30
217.020996
70
192
0
VERTEX
8
OBJECT__45
10
4.990000
20
9.064000
30
216.822998
70
192
0
VERTEX
8
OBJECT__45
10
3.500000
20
10.701000
30
202.000000
70
192
0
VERTEX
8
OBJECT__45
10
4.990000
20
10.361000
30
202.000000
70
192
0
VERTEX
8
OBJECT__45
10
4.990000
20
5.213000
30
231.195007
70
192
0
VERTEX
8
OBJECT__45
10
4.990000
20
-1.075000
30
244.681000
70
192
0
VERTEX
8
OBJECT__45
10
4.990000
20
-9.610000
30
256.868988
70
192
0
VERTEX
8
OBJECT__45
10
4.990000
20
-20.131001
30
267.390015
70
192
0
VERTEX
8
OBJECT__45
10
4.990000
20
-32.319000
30
275.924988
70
192
0
VERTEX
8
OBJECT__45
10
4.990000
20
-45.805000
30
282.213013
70
192
0
VERTEX
8
OBJECT__45
10
4.990000
20
-60.176998
30
286.063995
70
192
0
VERTEX
8
OBJECT__45
10
4.990000
20
-75.000000
30
287.360992
70
192
0
VERTEX
8
OBJECT__45
10
4.990000
20
-89.822998
30
286.063995
70
192
0
VERTEX
8
OBJECT__45
10
4.990000
20
-104.195000
30
282.213013
70
192
0
VERTEX
8
OBJECT__45
10
4.990000
20
-117.681000
30
275.924988
70
192
0
VERTEX
8
OBJECT__45
10
4.990000
20
-129.869003
30
267.390015
70
192
0
VERTEX
8
OBJECT__45
10
4.990000
20
-140.389999
30
256.868988
70
192
0
VERTEX
8
OBJECT__45
10
4.990000
20
-148.925003
30
244.681000
70
192
0
VERTEX
8
OBJECT__45
10
4.990000
20
-155.212997
30
231.195007
70
192
0
VERTEX
8
OBJECT__45
10
4.990000
20
-159.063995
30
216.822998
70
192
0
VERTEX
8
OBJECT__45
10
8.991000
20
5.922000
30
216.268997
70
192
0
VERTEX
8
OBJECT__45
10
8.991000
20
2.215000
30
230.104004
70
192
0
VERTEX
8
OBJECT__45
10
8.991000
20
-3.839000
30
243.085007
70
192
0
VERTEX
8
OBJECT__45
10
8.991000
20
-12.054000
30
254.817993
70
192
0
VERTEX
8
OBJECT__45
10
8.991000
20
-22.181999
30
264.946014
70
192
0
VERTEX
8
OBJECT__45
10
8.991000
20
-33.915001
30
273.161011
70
192
0
VERTEX
8
OBJECT__45
10
8.991000
20
-46.896000
30
279.214996
70
192
0
VERTEX
8
OBJECT__45
10
8.991000
20
-60.730999
30
282.921997
70
192
0
VERTEX
8
OBJECT__45
10
8.991000
20
-75.000000
30
284.170013
70
192
0
VERTEX
8
OBJECT__45
10
8.991000
20
-89.268997
30
282.921997
70
192
0
VERTEX
8
OBJECT__45
10
8.991000
20
-103.103996
30
279.214996
70
192
0
VERTEX
8
OBJECT__45
10
8.991000
20
-116.084999
30
273.161011
70
192
0
VERTEX
8
OBJECT__45
10
8.991000
20
-127.818001
30
264.946014
70
192
0
VERTEX
8
OBJECT__45
10
8.991000
20
-137.945999
30
254.817993
70
192
0
VERTEX
8
OBJECT__45
10
8.991000
20
-146.160995
30
243.085007
70
192
0
VERTEX
8
OBJECT__45
10
8.991000
20
-152.214996
30
230.104004
70
192
0
VERTEX
8
OBJECT__45
10
6.587000
20
-157.809998
30
216.602005
70
192
0
VERTEX
8
OBJECT__45
10
9.210000
20
6.715000
30
202.000000
70
192
0
VERTEX
8
OBJECT__45
10
11.212000
20
1.381000
30
215.468002
70
192
0
VERTEX
8
OBJECT__45
10
11.212000
20
2.559000
30
202.000000
70
192
0
VERTEX
8
OBJECT__45
10
11.212000
20
-2.118000
30
228.526993
70
192
0
VERTEX
8
OBJECT__45
10
11.212000
20
-7.832000
30
240.779007
70
192
0
VERTEX
8
OBJECT__45
10
11.212000
20
-15.586000
30
251.854004
70
192
0
VERTEX
8
OBJECT__45
10
11.212000
20
-25.146000
30
261.414001
70
192
0
VERTEX
8
OBJECT__45
10
11.212000
20
-36.221001
30
269.167999
70
192
0
VERTEX
8
OBJECT__45
10
11.212000
20
-48.473000
30
274.881989
70
192
0
VERTEX
8
OBJECT__45
10
11.212000
20
-61.532001
30
278.381012
70
192
0
VERTEX
8
OBJECT__45
10
11.212000
20
-75.000000
30
279.558990
70
192
0
VERTEX
8
OBJECT__45
10
11.212000
20
-88.468002
30
278.381012
70
192
0
VERTEX
8
OBJECT__45
10
11.212000
20
-101.527000
30
274.881989
70
192
0
VERTEX
8
OBJECT__45
10
11.212000
20
-113.778999
30
269.167999
70
192
0
VERTEX
8
OBJECT__45
10
11.212000
20
-124.853996
30
261.414001
70
192
0
VERTEX
8
OBJECT__45
10
11.212000
20
-134.414001
30
251.854004
70
192
0
VERTEX
8
OBJECT__45
10
11.212000
20
-142.167999
30
240.779007
70
192
0
VERTEX
8
OBJECT__45
10
11.212000
20
-147.882004
30
228.526993
70
192
0
VERTEX
8
OBJECT__45
10
8.991000
20
-155.921997
30
216.268997
70
192
0
VERTEX
8
OBJECT__45
10
10.771000
20
-152.281998
30
215.626999
70
192
0
VERTEX
8
OBJECT__45
10
11.212000
20
-3.660000
30
214.578995
70
192
0
VERTEX
8
OBJECT__45
10
11.212000
20
-2.559000
30
202.000000
70
192
0
VERTEX
8
OBJECT__45
10
11.212000
20
0.000000
30
202.000000
70
192
0
VERTEX
8
OBJECT__45
10
11.212000
20
-6.928000
30
226.776001
70
192
0
VERTEX
8
OBJECT__45
10
11.212000
20
-12.264000
30
238.220993
70
192
0
VERTEX
8
OBJECT__45
10
11.212000
20
-19.507000
30
248.563995
70
192
0
VERTEX
8
OBJECT__45
10
11.212000
20
-28.436001
30
257.493011
70
192
0
VERTEX
8
OBJECT__45
10
11.212000
20
-38.778999
30
264.735992
70
192
0
VERTEX
8
OBJECT__45
10
11.212000
20
-50.223999
30
270.071991
70
192
0
VERTEX
8
OBJECT__45
10
11.212000
20
-62.421001
30
273.339996
70
192
0
VERTEX
8
OBJECT__45
10
11.212000
20
-75.000000
30
274.441010
70
192
0
VERTEX
8
OBJECT__45
10
11.212000
20
-87.579002
30
273.339996
70
192
0
VERTEX
8
OBJECT__45
10
11.212000
20
-99.776001
30
270.071991
70
192
0
VERTEX
8
OBJECT__45
10
11.212000
20
-111.221001
30
264.735992
70
192
0
VERTEX
8
OBJECT__45
10
11.212000
20
-121.564003
30
257.493011
70
192
0
VERTEX
8
OBJECT__45
10
11.212000
20
-130.492996
30
248.563995
70
192
0
VERTEX
8
OBJECT__45
10
11.212000
20
-137.735992
30
238.220993
70
192
0
VERTEX
8
OBJECT__45
10
11.212000
20
-143.072006
30
226.776001
70
192
0
VERTEX
8
OBJECT__45
10
11.212000
20
-151.380997
30
215.468002
70
192
0
VERTEX
8
OBJECT__45
10
11.212000
20
-146.339996
30
214.578995
70
192
0
VERTEX
8
OBJECT__45
10
8.991000
20
-8.201000
30
213.779007
70
192
0
VERTEX
8
OBJECT__45
10
9.210000
20
-6.715000
30
202.000000
70
192
0
VERTEX
8
OBJECT__45
10
8.991000
20
-7.170000
30
202.000000
70
192
0
VERTEX
8
OBJECT__45
10
8.991000
20
-11.261000
30
225.199005
70
192
0
VERTEX
8
OBJECT__45
10
8.991000
20
-16.257999
30
235.914993
70
192
0
VERTEX
8
OBJECT__45
10
8.991000
20
-23.039000
30
245.600006
70
192
0
VERTEX
8
OBJECT__45
10
8.991000
20
-31.400000
30
253.960999
70
192
0
VERTEX
8
OBJECT__45
10
8.991000
20
-41.084999
30
260.742004
70
192
0
VERTEX
8
OBJECT__45
10
8.991000
20
-51.800999
30
265.739014
70
192
0
VERTEX
8
OBJECT__45
10
8.991000
20
-63.221001
30
268.799011
70
192
0
VERTEX
8
OBJECT__45
10
8.991000
20
-75.000000
30
269.829987
70
192
0
VERTEX
8
OBJECT__45
10
8.991000
20
-86.778999
30
268.799011
70
192
0
VERTEX
8
OBJECT__45
10
8.991000
20
-98.198997
30
265.739014
70
192
0
VERTEX
8
OBJECT__45
10
8.991000
20
-108.915001
30
260.742004
70
192
0
VERTEX
8
OBJECT__45
10
8.991000
20
-118.599998
30
253.960999
70
192
0
VERTEX
8
OBJECT__45
10
8.991000
20
-126.960999
30
245.600006
70
192
0
VERTEX
8
OBJECT__45
10
8.991000
20
-133.742004
30
235.914993
70
192
0
VERTEX
8
OBJECT__45
10
8.991000
20
-138.738998
30
225.199005
70
192
0
VERTEX
8
OBJECT__45
10
10.771000
20
-145.440002
30
214.419998
70
192
0
VERTEX
8
OBJECT__45
10
8.991000
20
-141.798996
30
213.779007
70
192
0
VERTEX
8
OBJECT__45
10
4.990000
20
-11.343000
30
213.223999
70
192
0
VERTEX
8
OBJECT__45
10
4.990000
20
-14.259000
30
224.108002
70
192
0
VERTEX
8
OBJECT__45
10
4.990000
20
-19.021000
30
234.319000
70
192
0
VERTEX
8
OBJECT__45
10
4.990000
20
-25.483999
30
243.548996
70
192
0
VERTEX
8
OBJECT__45
10
4.990000
20
-33.451000
30
251.516006
70
192
0
VERTEX
8
OBJECT__45
10
4.990000
20
-42.681000
30
257.979004
70
192
0
VERTEX
8
OBJECT__45
10
4.990000
20
-52.891998
30
262.740997
70
192
0
VERTEX
8
OBJECT__45
10
4.990000
20
-63.776001
30
265.657013
70
192
0
VERTEX
8
OBJECT__45
10
4.990000
20
-75.000000
30
266.639008
70
192
0
VERTEX
8
OBJECT__45
10
4.990000
20
-86.223999
30
265.657013
70
192
0
VERTEX
8
OBJECT__45
10
4.990000
20
-97.108002
30
262.740997
70
192
0
VERTEX
8
OBJECT__45
10
4.990000
20
-107.319000
30
257.979004
70
192
0
VERTEX
8
OBJECT__45
10
4.990000
20
-116.549004
30
251.516006
70
192
0
VERTEX
8
OBJECT__45
10
4.990000
20
-124.515999
30
243.548996
70
192
0
VERTEX
8
OBJECT__45
10
4.990000
20
-130.979004
30
234.319000
70
192
0
VERTEX
8
OBJECT__45
10
4.990000
20
-135.740997
30
224.108002
70
192
0
VERTEX
8
OBJECT__45
10
6.587000
20
-139.910995
30
213.445999
70
192
0
VERTEX
8
OBJECT__45
10
0.000000
20
-11.500000
30
202.000000
70
192
0
VERTEX
8
OBJECT__45
10
3.500000
20
-10.701000
30
202.000000
70
192
0
VERTEX
8
OBJECT__45
10
4.990000
20
-138.656998
30
213.223999
70
192
0
VERTEX
8
OBJECT__45
10
0.000000
20
-137.535004
30
213.026993
70
192
0
VERTEX
8
OBJECT__45
10
4.990000
20
-10.361000
30
202.000000
70
192
0
VERTEX
8
OBJECT__45
10
8.991000
20
7.170000
30
202.000000
70
192
0
VERTEX
8
OBJECT__45
10
-4.990000
20
-159.063995
30
216.822998
70
192
0
VERTEX
8
OBJECT__45
10
0
20
0
30
0
70
128
71
1
72
2
73
3
0
VERTEX
8
OBJECT__45
10
0
20
0
30
0
70
128
71
2
72
4
73
3
0
VERTEX
8
OBJECT__45
10
0
20
0
30
0
70
128
71
1
72
5
73
6
0
VERTEX
8
OBJECT__45
10
0
20
0
30
0
70
128
71
5
72
7
73
8
0
VERTEX
8
OBJECT__45
10
0
20
0
30
0
70
128
71
7
72
9
73
10
0
VERTEX
8
OBJECT__45
10
0
20
0
30
0
70
128
71
9
72
11
73
12
0
VERTEX
8
OBJECT__45
10
0
20
0
30
0
70
128
71
11
72
13
73
14
0
VERTEX
8
OBJECT__45
10
0
20
0
30
0
70
128
71
13
72
15
73
16
0
VERTEX
8
OBJECT__45
10
0
20
0
30
0
70
128
71
15
72
17
73
18
0
VERTEX
8
OBJECT__45
10
0
20
0
30
0
70
128
71
17
72
19
73
20
0
VERTEX
8
OBJECT__45
10
0
20
0
30
0
70
128
71
19
72
21
73
22
0
VERTEX
8
OBJECT__45
10
0
20
0
30
0
70
128
71
21
72
23
73
24
0
VERTEX
8
OBJECT__45
10
0
20
0
30
0
70
128
71
23
72
25
73
26
0
VERTEX
8
OBJECT__45
10
0
20
0
30
0
70
128
71
25
72
27
73
28
0
VERTEX
8
OBJECT__45
10
0
20
0
30
0
70
128
71
27
72
29
73
30
0
VERTEX
8
OBJECT__45
10
0
20
0
30
0
70
128
71
29
72
31
73
32
0
VERTEX
8
OBJECT__45
10
0
20
0
30
0
70
128
71
31
72
33
73
34
0
VERTEX
8
OBJECT__45
10
0
20
0
30
0
70
128
71
35
72
34
73
33
0
VERTEX
8
OBJECT__45
10
0
20
0
30
0
70
128
71
36
72
4
73
2
0
VERTEX
8
OBJECT__45
10
0
20
0
30
0
70
128
71
2
72
6
73
37
0
VERTEX
8
OBJECT__45
10
0
20
0
30
0
70
128
71
6
72
8
73
38
0
VERTEX
8
OBJECT__45
10
0
20
0
30
0
70
128
71
8
72
10
73
39
0
VERTEX
8
OBJECT__45
10
0
20
0
30
0
70
128
71
10
72
12
73
40
0
VERTEX
8
OBJECT__45
10
0
20
0
30
0
70
128
71
12
72
14
73
41
0
VERTEX
8
OBJECT__45
10
0
20
0
30
0
70
128
71
14
72
16
73
42
0
VERTEX
8
OBJECT__45
10
0
20
0
30
0
70
128
71
16
72
18
73
43
0
VERTEX
8
OBJECT__45
10
0
20
0
30
0
70
128
71
18
72
20
73
44
0
VERTEX
8
OBJECT__45
10
0
20
0
30
0
70
128
71
20
72
22
73
45
0
VERTEX
8
OBJECT__45
10
0
20
0
30
0
70
128
71
22
72
24
73
46
0
VERTEX
8
OBJECT__45
10
0
20
0
30
0
70
128
71
24
72
26
73
47
0
VERTEX
8
OBJECT__45
10
0
20
0
30
0
70
128
71
26
72
28
73
48
0
VERTEX
8
OBJECT__45
10
0
20
0
30
0
70
128
71
28
72
30
73
49
0
VERTEX
8
OBJECT__45
10
0
20
0
30
0
70
128
71
30
72
32
73
50
0
VERTEX
8
OBJECT__45
10
0
20
0
30
0
70
128
71
32
72
34
73
51
0
VERTEX
8
OBJECT__45
10
0
20
0
30
0
70
128
71
34
72
35
73
52
0
VERTEX
8
OBJECT__45
10
0
20
0
30
0
70
128
71
52
72
51
73
34
0
VERTEX
8
OBJECT__45
10
0
20
0
30
0
70
128
71
53
72
54
73
55
0
VERTEX
8
OBJECT__45
10
0
20
0
30
0
70
128
71
55
72
56
73
53
0
VERTEX
8
OBJECT__45
10
0
20
0
30
0
70
128
71
56
72
37
73
57
0
VERTEX
8
OBJECT__45
10
0
20
0
30
0
70
128
71
37
72
38
73
58
0
VERTEX
8
OBJECT__45
10
0
20
0
30
0
70
128
71
38
72
39
73
59
0
VERTEX
8
OBJECT__45
10
0
20
0
30
0
70
128
71
39
72
40
73
60
0
VERTEX
8
OBJECT__45
10
0
20
0
30
0
70
128
71
40
72
41
73
61
0
VERTEX
8
OBJECT__45
10
0
20
0
30
0
70
128
71
41
72
42
73
62
0
VERTEX
8
OBJECT__45
10
0
20
0
30
0
70
128
71
42
72
43
73
63
0
VERTEX
8
OBJECT__45
10
0
20
0
30
0
70
128
71
43
72
44
73
64
0
VERTEX
8
OBJECT__45
10
0
20
0
30
0
70
128
71
44
72
45
73
65
0
VERTEX
8
OBJECT__45
10
0
20
0
30
0
70
128
71
45
72
46
73
66
0
VERTEX
8
OBJECT__45
10
0
20
0
30
0
70
128
71
46
72
47
73
67
0
VERTEX
8
OBJECT__45
10
0
20
0
30
0
70
128
71
47
72
48
73
68
0
VERTEX
8
OBJECT__45
10
0
20
0
30
0
70
128
71
48
72
49
73
69
0
VERTEX
8
OBJECT__45
10
0
20
0
30
0
70
128
71
49
72
50
73
70
0
VERTEX
8
OBJECT__45
10
0
20
0
30
0
70
128
71
50
72
51
73
71
0
VERTEX
8
OBJECT__45
10
0
20
0
30
0
70
128
71
72
72
71
73
51
0
VERTEX
8
OBJECT__45
10
0
20
0
30
0
70
128
71
51
72
73
73
72
0
VERTEX
8
OBJECT__45
10
0
20
0
30
0
70
128
71
53
72
74
73
75
0
VERTEX
8
OBJECT__45
10
0
20
0
30
0
70
128
71
74
72
76
73
75
0
VERTEX
8
OBJECT__45
10
0
20
0
30
0
70
128
71
53
72
57
73
77
0
VERTEX
8
OBJECT__45
10
0
20
0
30
0
70
128
71
57
72
58
73
78
0
VERTEX
8
OBJECT__45
10
0
20
0
30
0
70
128
71
58
72
59
73
79
0
VERTEX
8
OBJECT__45
10
0
20
0
30
0
70
128
71
59
72
60
73
80
0
VERTEX
8
OBJECT__45
10
0
20
0
30
0
70
128
71
60
72
61
73
81
0
VERTEX
8
OBJECT__45
10
0
20
0
30
0
70
128
71
61
72
62
73
82
0
VERTEX
8
OBJECT__45
10
0
20
0
30
0
70
128
71
62
72
63
73
83
0
VERTEX
8
OBJECT__45
10
0
20
0
30
0
70
128
71
63
72
64
73
84
0
VERTEX
8
OBJECT__45
10
0
20
0
30
0
70
128
71
64
72
65
73
85
0
VERTEX
8
OBJECT__45
10
0
20
0
30
0
70
128
71
65
72
66
73
86
0
VERTEX
8
OBJECT__45
10
0
20
0
30
0
70
128
71
66
72
67
73
87
0
VERTEX
8
OBJECT__45
10
0
20
0
30
0
70
128
71
67
72
68
73
88
0
VERTEX
8
OBJECT__45
10
0
20
0
30
0
70
128
71
68
72
69
73
89
0
VERTEX
8
OBJECT__45
10
0
20
0
30
0
70
128
71
69
72
70
73
90
0
VERTEX
8
OBJECT__45
10
0
20
0
30
0
70
128
71
70
72
71
73
91
0
VERTEX
8
OBJECT__45
10
0
20
0
30
0
70
128
71
71
72
92
73
93
0
VERTEX
8
OBJECT__45
10
0
20
0
30
0
70
128
71
93
72
91
73
71
0
VERTEX
8
OBJECT__45
10
0
20
0
30
0
70
128
71
94
72
76
73
74
0
VERTEX
8
OBJECT__45
10
0
20
0
30
0
70
128
71
95
72
96
73
94
0
VERTEX
8
OBJECT__45
10
0
20
0
30
0
70
128
71
74
72
77
73
97
0
VERTEX
8
OBJECT__45
10
0
20
0
30
0
70
128
71
77
72
78
73
98
0
VERTEX
8
OBJECT__45
10
0
20
0
30
0
70
128
71
78
72
79
73
99
0
VERTEX
8
OBJECT__45
10
0
20
0
30
0
70
128
71
79
72
80
73
100
0
VERTEX
8
OBJECT__45
10
0
20
0
30
0
70
128
71
80
72
81
73
101
0
VERTEX
8
OBJECT__45
10
0
20
0
30
0
70
128
71
81
72
82
73
102
0
VERTEX
8
OBJECT__45
10
0
20
0
30
0
70
128
71
82
72
83
73
103
0
VERTEX
8
OBJECT__45
10
0
20
0
30
0
70
128
71
83
72
84
73
104
0
VERTEX
8
OBJECT__45
10
0
20
0
30
0
70
128
71
84
72
85
73
105
0
VERTEX
8
OBJECT__45
10
0
20
0
30
0
70
128
71
85
72
86
73
106
0
VERTEX
8
OBJECT__45
10
0
20
0
30
0
70
128
71
86
72
87
73
107
0
VERTEX
8
OBJECT__45
10
0
20
0
30
0
70
128
71
87
72
88
73
108
0
VERTEX
8
OBJECT__45
10
0
20
0
30
0
70
128
71
88
72
89
73
109
0
VERTEX
8
OBJECT__45
10
0
20
0
30
0
70
128
71
89
72
90
73
110
0
VERTEX
8
OBJECT__45
10
0
20
0
30
0
70
128
71
90
72
91
73
111
0
VERTEX
8
OBJECT__45
10
0
20
0
30
0
70
128
71
111
72
91
73
112
0
VERTEX
8
OBJECT__45
10
0
20
0
30
0
70
128
71
91
72
113
73
112
0
VERTEX
8
OBJECT__45
10
0
20
0
30
0
70
128
71
114
72
115
73
96
0
VERTEX
8
OBJECT__45
10
0
20
0
30
0
70
128
71
95
72
97
73
116
0
VERTEX
8
OBJECT__45
10
0
20
0
30
0
70
128
71
97
72
98
73
117
0
VERTEX
8
OBJECT__45
10
0
20
0
30
0
70
128
71
98
72
99
73
118
0
VERTEX
8
OBJECT__45
10
0
20
0
30
0
70
128
71
99
72
100
73
119
0
VERTEX
8
OBJECT__45
10
0
20
0
30
0
70
128
71
100
72
101
73
120
0
VERTEX
8
OBJECT__45
10
0
20
0
30
0
70
128
71
101
72
102
73
121
0
VERTEX
8
OBJECT__45
10
0
20
0
30
0
70
128
71
102
72
103
73
122
0
VERTEX
8
OBJECT__45
10
0
20
0
30
0
70
128
71
103
72
104
73
123
0
VERTEX
8
OBJECT__45
10
0
20
0
30
0
70
128
71
104
72
105
73
124
0
VERTEX
8
OBJECT__45
10
0
20
0
30
0
70
128
71
105
72
106
73
125
0
VERTEX
8
OBJECT__45
10
0
20
0
30
0
70
128
71
106
72
107
73
126
0
VERTEX
8
OBJECT__45
10
0
20
0
30
0
70
128
71
107
72
108
73
127
0
VERTEX
8
OBJECT__45
10
0
20
0
30
0
70
128
71
108
72
109
73
128
0
VERTEX
8
OBJECT__45
10
0
20
0
30
0
70
128
71
109
72
110
73
129
0
VERTEX
8
OBJECT__45
10
0
20
0
30
0
70
128
71
110
72
111
73
130
0
VERTEX
8
OBJECT__45
10
0
20
0
30
0
70
128
71
111
72
131
73
132
0
VERTEX
8
OBJECT__45
10
0
20
0
30
0
70
128
71
132
72
130
73
111
0
VERTEX
8
OBJECT__45
10
0
20
0
30
0
70
128
71
133
72
134
73
135
0
VERTEX
8
OBJECT__45
10
0
20
0
30
0
70
128
71
135
72
114
73
133
0
VERTEX
8
OBJECT__45
10
0
20
0
30
0
70
128
71
114
72
116
73
136
0
VERTEX
8
OBJECT__45
10
0
20
0
30
0
70
128
71
116
72
117
73
137
0
VERTEX
8
OBJECT__45
10
0
20
0
30
0
70
128
71
117
72
118
73
138
0
VERTEX
8
OBJECT__45
10
0
20
0
30
0
70
128
71
118
72
119
73
139
0
VERTEX
8
OBJECT__45
10
0
20
0
30
0
70
128
71
119
72
120
73
140
0
VERTEX
8
OBJECT__45
10
0
20
0
30
0
70
128
71
120
72
121
73
141
0
VERTEX
8
OBJECT__45
10
0
20
0
30
0
70
128
71
121
72
122
73
142
0
VERTEX
8
OBJECT__45
10
0
20
0
30
0
70
128
71
122
72
123
73
143
0
VERTEX
8
OBJECT__45
10
0
20
0
30
0
70
128
71
123
72
124
73
144
0
VERTEX
8
OBJECT__45
10
0
20
0
30
0
70
128
71
124
72
125
73
145
0
VERTEX
8
OBJECT__45
10
0
20
0
30
0
70
128
71
125
72
126
73
146
0
VERTEX
8
OBJECT__45
10
0
20
0
30
0
70
128
71
126
72
127
73
147
0
VERTEX
8
OBJECT__45
10
0
20
0
30
0
70
128
71
127
72
128
73
148
0
VERTEX
8
OBJECT__45
10
0
20
0
30
0
70
128
71
128
72
129
73
149
0
VERTEX
8
OBJECT__45
10
0
20
0
30
0
70
128
71
129
72
130
73
150
0
VERTEX
8
OBJECT__45
10
0
20
0
30
0
70
128
71
151
72
150
73
130
0
VERTEX
8
OBJECT__45
10
0
20
0
30
0
70
128
71
133
72
152
73
153
0
VERTEX
8
OBJECT__45
10
0
20
0
30
0
70
128
71
152
72
154
73
153
0
VERTEX
8
OBJECT__45
10
0
20
0
30
0
70
128
71
133
72
136
73
155
0
VERTEX
8
OBJECT__45
10
0
20
0
30
0
70
128
71
136
72
137
73
156
0
VERTEX
8
OBJECT__45
10
0
20
0
30
0
70
128
71
137
72
138
73
157
0
VERTEX
8
OBJECT__45
10
0
20
0
30
0
70
128
71
138
72
139
73
158
0
VERTEX
8
OBJECT__45
10
0
20
0
30
0
70
128
71
139
72
140
73
159
0
VERTEX
8
OBJECT__45
10
0
20
0
30
0
70
128
71
140
72
141
73
160
0
VERTEX
8
OBJECT__45
10
0
20
0
30
0
70
128
71
141
72
142
73
161
0
VERTEX
8
OBJECT__45
10
0
20
0
30
0
70
128
71
142
72
143
73
162
0
VERTEX
8
OBJECT__45
10
0
20
0
30
0
70
128
71
143
72
144
73
163
0
VERTEX
8
OBJECT__45
10
0
20
0
30
0
70
128
71
144
72
145
73
164
0
VERTEX
8
OBJECT__45
10
0
20
0
30
0
70
128
71
145
72
146
73
165
0
VERTEX
8
OBJECT__45
10
0
20
0
30
0
70
128
71
146
72
147
73
166
0
VERTEX
8
OBJECT__45
10
0
20
0
30
0
70
128
71
147
72
148
73
167
0
VERTEX
8
OBJECT__45
10
0
20
0
30
0
70
128
71
148
72
149
73
168
0
VERTEX
8
OBJECT__45
10
0
20
0
30
0
70
128
71
149
72
150
73
169
0
VERTEX
8
OBJECT__45
10
0
20
0
30
0
70
128
71
151
72
170
73
169
0
VERTEX
8
OBJECT__45
10
0
20
0
30
0
70
128
71
154
72
152
73
171
0
VERTEX
8
OBJECT__45
10
0
20
0
30
0
70
128
71
152
72
155
73
172
0
VERTEX
8
OBJECT__45
10
0
20
0
30
0
70
128
71
155
72
156
73
173
0
VERTEX
8
OBJECT__45
10
0
20
0
30
0
70
128
71
156
72
157
73
174
0
VERTEX
8
OBJECT__45
10
0
20
0
30
0
70
128
71
157
72
158
73
175
0
VERTEX
8
OBJECT__45
10
0
20
0
30
0
70
128
71
158
72
159
73
176
0
VERTEX
8
OBJECT__45
10
0
20
0
30
0
70
128
71
159
72
160
73
177
0
VERTEX
8
OBJECT__45
10
0
20
0
30
0
70
128
71
160
72
161
73
178
0
VERTEX
8
OBJECT__45
10
0
20
0
30
0
70
128
71
161
72
162
73
179
0
VERTEX
8
OBJECT__45
10
0
20
0
30
0
70
128
71
162
72
163
73
180
0
VERTEX
8
OBJECT__45
10
0
20
0
30
0
70
128
71
163
72
164
73
181
0
VERTEX
8
OBJECT__45
10
0
20
0
30
0
70
128
71
164
72
165
73
182
0
VERTEX
8
OBJECT__45
10
0
20
0
30
0
70
128
71
165
72
166
73
183
0
VERTEX
8
OBJECT__45
10
0
20
0
30
0
70
128
71
166
72
167
73
184
0
VERTEX
8
OBJECT__45
10
0
20
0
30
0
70
128
71
167
72
168
73
185
0
VERTEX
8
OBJECT__45
10
0
20
0
30
0
70
128
71
168
72
169
73
186
0
VERTEX
8
OBJECT__45
10
0
20
0
30
0
70
128
71
186
72
169
73
187
0
VERTEX
8
OBJECT__45
10
0
20
0
30
0
70
128
71
169
72
170
73
187
0
VERTEX
8
OBJECT__45
10
0
20
0
30
0
70
128
71
188
72
171
73
189
0
VERTEX
8
OBJECT__45
10
0
20
0
30
0
70
128
71
189
72
190
73
188
0
VERTEX
8
OBJECT__45
10
0
20
0
30
0
70
128
71
171
72
172
73
191
0
VERTEX
8
OBJECT__45
10
0
20
0
30
0
70
128
71
172
72
173
73
192
0
VERTEX
8
OBJECT__45
10
0
20
0
30
0
70
128
71
173
72
174
73
193
0
VERTEX
8
OBJECT__45
10
0
20
0
30
0
70
128
71
174
72
175
73
194
0
VERTEX
8
OBJECT__45
10
0
20
0
30
0
70
128
71
175
72
176
73
195
0
VERTEX
8
OBJECT__45
10
0
20
0
30
0
70
128
71
176
72
177
73
196
0
VERTEX
8
OBJECT__45
10
0
20
0
30
0
70
128
71
177
72
178
73
197
0
VERTEX
8
OBJECT__45
10
0
20
0
30
0
70
128
71
178
72
179
73
198
0
VERTEX
8
OBJECT__45
10
0
20
0
30
0
70
128
71
179
72
180
73
199
0
VERTEX
8
OBJECT__45
10
0
20
0
30
0
70
128
71
180
72
181
73
200
0
VERTEX
8
OBJECT__45
10
0
20
0
30
0
70
128
71
181
72
182
73
201
0
VERTEX
8
OBJECT__45
10
0
20
0
30
0
70
128
71
182
72
183
73
202
0
VERTEX
8
OBJECT__45
10
0
20
0
30
0
70
128
71
183
72
184
73
203
0
VERTEX
8
OBJECT__45
10
0
20
0
30
0
70
128
71
184
72
185
73
204
0
VERTEX
8
OBJECT__45
10
0
20
0
30
0
70
128
71
185
72
186
73
205
0
VERTEX
8
OBJECT__45
10
0
20
0
30
0
70
128
71
186
72
206
73
207
0
VERTEX
8
OBJECT__45
10
0
20
0
30
0
70
128
71
207
72
205
73
186
0
VERTEX
8
OBJECT__45
10
0
20
0
30
0
70
128
71
208
72
209
73
210
0
VERTEX
8
OBJECT__45
10
0
20
0
30
0
70
128
71
210
72
189
73
208
0
VERTEX
8
OBJECT__45
10
0
20
0
30
0
70
128
71
189
72
191
73
211
0
VERTEX
8
OBJECT__45
10
0
20
0
30
0
70
128
71
191
72
192
73
212
0
VERTEX
8
OBJECT__45
10
0
20
0
30
0
70
128
71
192
72
193
73
213
0
VERTEX
8
OBJECT__45
10
0
20
0
30
0
70
128
71
193
72
194
73
214
0
VERTEX
8
OBJECT__45
10
0
20
0
30
0
70
128
71
194
72
195
73
215
0
VERTEX
8
OBJECT__45
10
0
20
0
30
0
70
128
71
195
72
196
73
216
0
VERTEX
8
OBJECT__45
10
0
20
0
30
0
70
128
71
196
72
197
73
217
0
VERTEX
8
OBJECT__45
10
0
20
0
30
0
70
128
71
197
72
198
73
218
0
VERTEX
8
OBJECT__45
10
0
20
0
30
0
70
128
71
198
72
199
73
219
0
VERTEX
8
OBJECT__45
10
0
20
0
30
0
70
128
71
199
72
200
73
220
0
VERTEX
8
OBJECT__45
10
0
20
0
30
0
70
128
71
200
72
201
73
221
0
VERTEX
8
OBJECT__45
10
0
20
0
30
0
70
128
71
201
72
202
73
222
0
VERTEX
8
OBJECT__45
10
0
20
0
30
0
70
128
71
202
72
203
73
223
0
VERTEX
8
OBJECT__45
10
0
20
0
30
0
70
128
71
203
72
204
73
224
0
VERTEX
8
OBJECT__45
10
0
20
0
30
0
70
128
71
204
72
205
73
225
0
VERTEX
8
OBJECT__45
10
0
20
0
30
0
70
128
71
205
72
226
73
227
0
VERTEX
8
OBJECT__45
10
0
20
0
30
0
70
128
71
208
72
228
73
229
0
VERTEX
8
OBJECT__45
10
0
20
0
30
0
70
128
71
228
72
230
73
229
0
VERTEX
8
OBJECT__45
10
0
20
0
30
0
70
128
71
208
72
211
73
231
0
VERTEX
8
OBJECT__45
10
0
20
0
30
0
70
128
71
211
72
212
73
232
0
VERTEX
8
OBJECT__45
10
0
20
0
30
0
70
128
71
212
72
213
73
233
0
VERTEX
8
OBJECT__45
10
0
20
0
30
0
70
128
71
213
72
214
73
234
0
VERTEX
8
OBJECT__45
10
0
20
0
30
0
70
128
71
214
72
215
73
235
0
VERTEX
8
OBJECT__45
10
0
20
0
30
0
70
128
71
215
72
216
73
236
0
VERTEX
8
OBJECT__45
10
0
20
0
30
0
70
128
71
216
72
217
73
237
0
VERTEX
8
OBJECT__45
10
0
20
0
30
0
70
128
71
217
72
218
73
238
0
VERTEX
8
OBJECT__45
10
0
20
0
30
0
70
128
71
218
72
219
73
239
0
VERTEX
8
OBJECT__45
10
0
20
0
30
0
70
128
71
219
72
220
73
240
0
VERTEX
8
OBJECT__45
10
0
20
0
30
0
70
128
71
220
72
221
73
241
0
VERTEX
8
OBJECT__45
10
0
20
0
30
0
70
128
71
221
72
222
73
242
0
VERTEX
8
OBJECT__45
10
0
20
0
30
0
70
128
71
222
72
223
73
243
0
VERTEX
8
OBJECT__45
10
0
20
0
30
0
70
128
71
223
72
224
73
244
0
VERTEX
8
OBJECT__45
10
0
20
0
30
0
70
128
71
224
72
225
73
245
0
VERTEX
8
OBJECT__45
10
0
20
0
30
0
70
128
71
225
72
246
73
247
0
VERTEX
8
OBJECT__45
10
0
20
0
30
0
70
128
71
225
72
227
73
246
0
VERTEX
8
OBJECT__45
10
0
20
0
30
0
70
128
71
230
72
228
73
248
0
VERTEX
8
OBJECT__45
10
0
20
0
30
0
70
128
71
228
72
231
73
249
0
VERTEX
8
OBJECT__45
10
0
20
0
30
0
70
128
71
231
72
232
73
250
0
VERTEX
8
OBJECT__45
10
0
20
0
30
0
70
128
71
232
72
233
73
251
0
VERTEX
8
OBJECT__45
10
0
20
0
30
0
70
128
71
233
72
234
73
252
0
VERTEX
8
OBJECT__45
10
0
20
0
30
0
70
128
71
234
72
235
73
253
0
VERTEX
8
OBJECT__45
10
0
20
0
30
0
70
128
71
235
72
236
73
254
0
VERTEX
8
OBJECT__45
10
0
20
0
30
0
70
128
71
236
72
237
73
255
0
VERTEX
8
OBJECT__45
10
0
20
0
30
0
70
128
71
237
72
238
73
256
0
VERTEX
8
OBJECT__45
10
0
20
0
30
0
70
128
71
238
72
239
73
257
0
VERTEX
8
OBJECT__45
10
0
20
0
30
0
70
128
71
239
72
240
73
258
0
VERTEX
8
OBJECT__45
10
0
20
0
30
0
70
128
71
240
72
241
73
259
0
VERTEX
8
OBJECT__45
10
0
20
0
30
0
70
128
71
241
72
242
73
260
0
VERTEX
8
OBJECT__45
10
0
20
0
30
0
70
128
71
242
72
243
73
261
0
VERTEX
8
OBJECT__45
10
0
20
0
30
0
70
128
71
243
72
244
73
262
0
VERTEX
8
OBJECT__45
10
0
20
0
30
0
70
128
71
244
72
245
73
263
0
VERTEX
8
OBJECT__45
10
0
20
0
30
0
70
128
71
263
72
245
73
264
0
VERTEX
8
OBJECT__45
10
0
20
0
30
0
70
128
71
245
72
247
73
264
0
VERTEX
8
OBJECT__45
10
0
20
0
30
0
70
128
71
1
72
265
73
266
0
VERTEX
8
OBJECT__45
10
0
20
0
30
0
70
128
71
266
72
248
73
1
0
VERTEX
8
OBJECT__45
10
0
20
0
30
0
70
128
71
248
72
249
73
5
0
VERTEX
8
OBJECT__45
10
0
20
0
30
0
70
128
71
249
72
250
73
7
0
VERTEX
8
OBJECT__45
10
0
20
0
30
0
70
128
71
250
72
251
73
9
0
VERTEX
8
OBJECT__45
10
0
20
0
30
0
70
128
71
251
72
252
73
11
0
VERTEX
8
OBJECT__45
10
0
20
0
30
0
70
128
71
252
72
253
73
13
0
VERTEX
8
OBJECT__45
10
0
20
0
30
0
70
128
71
253
72
254
73
15
0
VERTEX
8
OBJECT__45
10
0
20
0
30
0
70
128
71
254
72
255
73
17
0
VERTEX
8
OBJECT__45
10
0
20
0
30
0
70
128
71
255
72
256
73
19
0
VERTEX
8
OBJECT__45
10
0
20
0
30
0
70
128
71
256
72
257
73
21
0
VERTEX
8
OBJECT__45
10
0
20
0
30
0
70
128
71
257
72
258
73
23
0
VERTEX
8
OBJECT__45
10
0
20
0
30
0
70
128
71
258
72
259
73
25
0
VERTEX
8
OBJECT__45
10
0
20
0
30
0
70
128
71
259
72
260
73
27
0
VERTEX
8
OBJECT__45
10
0
20
0
30
0
70
128
71
260
72
261
73
29
0
VERTEX
8
OBJECT__45
10
0
20
0
30
0
70
128
71
261
72
262
73
31
0
VERTEX
8
OBJECT__45
10
0
20
0
30
0
70
128
71
262
72
263
73
33
0
VERTEX
8
OBJECT__45
10
0
20
0
30
0
70
128
71
267
72
268
73
33
0
VERTEX
8
OBJECT__45
10
0
20
0
30
0
70
128
71
33
72
263
73
267
0
VERTEX
8
OBJECT__45
10
0
20
0
30
0
70
128
71
33
72
31
73
262
0
VERTEX
8
OBJECT__45
10
0
20
0
30
0
70
128
71
31
72
29
73
261
0
VERTEX
8
OBJECT__45
10
0
20
0
30
0
70
128
71
29
72
27
73
260
0
VERTEX
8
OBJECT__45
10
0
20
0
30
0
70
128
71
27
72
25
73
259
0
VERTEX
8
OBJECT__45
10
0
20
0
30
0
70
128
71
25
72
23
73
258
0
VERTEX
8
OBJECT__45
10
0
20
0
30
0
70
128
71
23
72
21
73
257
0
VERTEX
8
OBJECT__45
10
0
20
0
30
0
70
128
71
21
72
19
73
256
0
VERTEX
8
OBJECT__45
10
0
20
0
30
0
70
128
71
19
72
17
73
255
0
VERTEX
8
OBJECT__45
10
0
20
0
30
0
70
128
71
17
72
15
73
254
0
VERTEX
8
OBJECT__45
10
0
20
0
30
0
70
128
71
15
72
13
73
253
0
VERTEX
8
OBJECT__45
10
0
20
0
30
0
70
128
71
13
72
11
73
252
0
VERTEX
8
OBJECT__45
10
0
20
0
30
0
70
128
71
11
72
9
73
251
0
VERTEX
8
OBJECT__45
10
0
20
0
30
0
70
128
71
9
72
7
73
250
0
VERTEX
8
OBJECT__45
10
0
20
0
30
0
70
128
71
7
72
5
73
249
0
VERTEX
8
OBJECT__45
10
0
20
0
30
0
70
128
71
5
72
1
73
248
0
VERTEX
8
OBJECT__45
10
0
20
0
30
0
70
128
71
266
72
269
73
248
0
VERTEX
8
OBJECT__45
10
0
20
0
30
0
70
128
71
264
72
267
73
263
0
VERTEX
8
OBJECT__45
10
0
20
0
30
0
70
128
71
263
72
262
73
244
0
VERTEX
8
OBJECT__45
10
0
20
0
30
0
70
128
71
262
72
261
73
243
0
VERTEX
8
OBJECT__45
10
0
20
0
30
0
70
128
71
261
72
260
73
242
0
VERTEX
8
OBJECT__45
10
0
20
0
30
0
70
128
71
260
72
259
73
241
0
VERTEX
8
OBJECT__45
10
0
20
0
30
0
70
128
71
259
72
258
73
240
0
VERTEX
8
OBJECT__45
10
0
20
0
30
0
70
128
71
258
72
257
73
239
0
VERTEX
8
OBJECT__45
10
0
20
0
30
0
70
128
71
257
72
256
73
238
0
VERTEX
8
OBJECT__45
10
0
20
0
30
0
70
128
71
256
72
255
73
237
0
VERTEX
8
OBJECT__45
10
0
20
0
30
0
70
128
71
255
72
254
73
236
0
VERTEX
8
OBJECT__45
10
0
20
0
30
0
70
128
71
254
72
253
73
235
0
VERTEX
8
OBJECT__45
10
0
20
0
30
0
70
128
71
253
72
252
73
234
0
VERTEX
8
OBJECT__45
10
0
20
0
30
0
70
128
71
252
72
251
73
233
0
VERTEX
8
OBJECT__45
10
0
20
0
30
0
70
128
71
251
72
250
73
232
0
VERTEX
8
OBJECT__45
10
0
20
0
30
0
70
128
71
250
72
249
73
231
0
VERTEX
8
OBJECT__45
10
0
20
0
30
0
70
128
71
249
72
248
73
228
0
VERTEX
8
OBJECT__45
10
0
20
0
30
0
70
128
71
248
72
269
73
230
0
VERTEX
8
OBJECT__45
10
0
20
0
30
0
70
128
71
247
72
245
73
225
0
VERTEX
8
OBJECT__45
10
0
20
0
30
0
70
128
71
245
72
244
73
224
0
VERTEX
8
OBJECT__45
10
0
20
0
30
0
70
128
71
244
72
243
73
223
0
VERTEX
8
OBJECT__45
10
0
20
0
30
0
70
128
71
243
72
242
73
222
0
VERTEX
8
OBJECT__45
10
0
20
0
30
0
70
128
71
242
72
241
73
221
0
VERTEX
8
OBJECT__45
10
0
20
0
30
0
70
128
71
241
72
240
73
220
0
VERTEX
8
OBJECT__45
10
0
20
0
30
0
70
128
71
240
72
239
73
219
0
VERTEX
8
OBJECT__45
10
0
20
0
30
0
70
128
71
239
72
238
73
218
0
VERTEX
8
OBJECT__45
10
0
20
0
30
0
70
128
71
238
72
237
73
217
0
VERTEX
8
OBJECT__45
10
0
20
0
30
0
70
128
71
237
72
236
73
216
0
VERTEX
8
OBJECT__45
10
0
20
0
30
0
70
128
71
236
72
235
73
215
0
VERTEX
8
OBJECT__45
10
0
20
0
30
0
70
128
71
235
72
234
73
214
0
VERTEX
8
OBJECT__45
10
0
20
0
30
0
70
128
71
234
72
233
73
213
0
VERTEX
8
OBJECT__45
10
0
20
0
30
0
70
128
71
233
72
232
73
212
0
VERTEX
8
OBJECT__45
10
0
20
0
30
0
70
128
71
232
72
231
73
211
0
VERTEX
8
OBJECT__45
10
0
20
0
30
0
70
128
71
231
72
228
73
208
0
VERTEX
8
OBJECT__45
10
0
20
0
30
0
70
128
71
229
72
209
73
208
0
VERTEX
8
OBJECT__45
10
0
20
0
30
0
70
128
71
227
72
225
73
205
0
VERTEX
8
OBJECT__45
10
0
20
0
30
0
70
128
71
225
72
224
73
204
0
VERTEX
8
OBJECT__45
10
0
20
0
30
0
70
128
71
224
72
223
73
203
0
VERTEX
8
OBJECT__45
10
0
20
0
30
0
70
128
71
223
72
222
73
202
0
VERTEX
8
OBJECT__45
10
0
20
0
30
0
70
128
71
222
72
221
73
201
0
VERTEX
8
OBJECT__45
10
0
20
0
30
0
70
128
71
221
72
220
73
200
0
VERTEX
8
OBJECT__45
10
0
20
0
30
0
70
128
71
220
72
219
73
199
0
VERTEX
8
OBJECT__45
10
0
20
0
30
0
70
128
71
219
72
218
73
198
0
VERTEX
8
OBJECT__45
10
0
20
0
30
0
70
128
71
218
72
217
73
197
0
VERTEX
8
OBJECT__45
10
0
20
0
30
0
70
128
71
217
72
216
73
196
0
VERTEX
8
OBJECT__45
10
0
20
0
30
0
70
128
71
216
72
215
73
195
0
VERTEX
8
OBJECT__45
10
0
20
0
30
0
70
128
71
215
72
214
73
194
0
VERTEX
8
OBJECT__45
10
0
20
0
30
0
70
128
71
214
72
213
73
193
0
VERTEX
8
OBJECT__45
10
0
20
0
30
0
70
128
71
213
72
212
73
192
0
VERTEX
8
OBJECT__45
10
0
20
0
30
0
70
128
71
212
72
211
73
191
0
VERTEX
8
OBJECT__45
10
0
20
0
30
0
70
128
71
211
72
208
73
189
0
VERTEX
8
OBJECT__45
10
0
20
0
30
0
70
128
71
210
72
190
73
189
0
VERTEX
8
OBJECT__45
10
0
20
0
30
0
70
128
71
207
72
226
73
205
0
VERTEX
8
OBJECT__45
10
0
20
0
30
0
70
128
71
205
72
204
73
185
0
VERTEX
8
OBJECT__45
10
0
20
0
30
0
70
128
71
204
72
203
73
184
0
VERTEX
8
OBJECT__45
10
0
20
0
30
0
70
128
71
203
72
202
73
183
0
VERTEX
8
OBJECT__45
10
0
20
0
30
0
70
128
71
202
72
201
73
182
0
VERTEX
8
OBJECT__45
10
0
20
0
30
0
70
128
71
201
72
200
73
181
0
VERTEX
8
OBJECT__45
10
0
20
0
30
0
70
128
71
200
72
199
73
180
0
VERTEX
8
OBJECT__45
10
0
20
0
30
0
70
128
71
199
72
198
73
179
0
VERTEX
8
OBJECT__45
10
0
20
0
30
0
70
128
71
198
72
197
73
178
0
VERTEX
8
OBJECT__45
10
0
20
0
30
0
70
128
71
197
72
196
73
177
0
VERTEX
8
OBJECT__45
10
0
20
0
30
0
70
128
71
196
72
195
73
176
0
VERTEX
8
OBJECT__45
10
0
20
0
30
0
70
128
71
195
72
194
73
175
0
VERTEX
8
OBJECT__45
10
0
20
0
30
0
70
128
71
194
72
193
73
174
0
VERTEX
8
OBJECT__45
10
0
20
0
30
0
70
128
71
193
72
192
73
173
0
VERTEX
8
OBJECT__45
10
0
20
0
30
0
70
128
71
192
72
191
73
172
0
VERTEX
8
OBJECT__45
10
0
20
0
30
0
70
128
71
191
72
189
73
171
0
VERTEX
8
OBJECT__45
10
0
20
0
30
0
70
128
71
188
72
270
73
171
0
VERTEX
8
OBJECT__45
10
0
20
0
30
0
70
128
71
187
72
206
73
186
0
VERTEX
8
OBJECT__45
10
0
20
0
30
0
70
128
71
186
72
185
73
168
0
VERTEX
8
OBJECT__45
10
0
20
0
30
0
70
128
71
185
72
184
73
167
0
VERTEX
8
OBJECT__45
10
0
20
0
30
0
70
128
71
184
72
183
73
166
0
VERTEX
8
OBJECT__45
10
0
20
0
30
0
70
128
71
183
72
182
73
165
0
VERTEX
8
OBJECT__45
10
0
20
0
30
0
70
128
71
182
72
181
73
164
0
VERTEX
8
OBJECT__45
10
0
20
0
30
0
70
128
71
181
72
180
73
163
0
VERTEX
8
OBJECT__45
10
0
20
0
30
0
70
128
71
180
72
179
73
162
0
VERTEX
8
OBJECT__45
10
0
20
0
30
0
70
128
71
179
72
178
73
161
0
VERTEX
8
OBJECT__45
10
0
20
0
30
0
70
128
71
178
72
177
73
160
0
VERTEX
8
OBJECT__45
10
0
20
0
30
0
70
128
71
177
72
176
73
159
0
VERTEX
8
OBJECT__45
10
0
20
0
30
0
70
128
71
176
72
175
73
158
0
VERTEX
8
OBJECT__45
10
0
20
0
30
0
70
128
71
175
72
174
73
157
0
VERTEX
8
OBJECT__45
10
0
20
0
30
0
70
128
71
174
72
173
73
156
0
VERTEX
8
OBJECT__45
10
0
20
0
30
0
70
128
71
173
72
172
73
155
0
VERTEX
8
OBJECT__45
10
0
20
0
30
0
70
128
71
172
72
171
73
152
0
VERTEX
8
OBJECT__45
10
0
20
0
30
0
70
128
71
171
72
270
73
154
0
VERTEX
8
OBJECT__45
10
0
20
0
30
0
70
128
71
169
72
150
73
151
0
VERTEX
8
OBJECT__45
10
0
20
0
30
0
70
128
71
169
72
168
73
149
0
VERTEX
8
OBJECT__45
10
0
20
0
30
0
70
128
71
168
72
167
73
148
0
VERTEX
8
OBJECT__45
10
0
20
0
30
0
70
128
71
167
72
166
73
147
0
VERTEX
8
OBJECT__45
10
0
20
0
30
0
70
128
71
166
72
165
73
146
0
VERTEX
8
OBJECT__45
10
0
20
0
30
0
70
128
71
165
72
164
73
145
0
VERTEX
8
OBJECT__45
10
0
20
0
30
0
70
128
71
164
72
163
73
144
0
VERTEX
8
OBJECT__45
10
0
20
0
30
0
70
128
71
163
72
162
73
143
0
VERTEX
8
OBJECT__45
10
0
20
0
30
0
70
128
71
162
72
161
73
142
0
VERTEX
8
OBJECT__45
10
0
20
0
30
0
70
128
71
161
72
160
73
141
0
VERTEX
8
OBJECT__45
10
0
20
0
30
0
70
128
71
160
72
159
73
140
0
VERTEX
8
OBJECT__45
10
0
20
0
30
0
70
128
71
159
72
158
73
139
0
VERTEX
8
OBJECT__45
10
0
20
0
30
0
70
128
71
158
72
157
73
138
0
VERTEX
8
OBJECT__45
10
0
20
0
30
0
70
128
71
157
72
156
73
137
0
VERTEX
8
OBJECT__45
10
0
20
0
30
0
70
128
71
156
72
155
73
136
0
VERTEX
8
OBJECT__45
10
0
20
0
30
0
70
128
71
155
72
152
73
133
0
VERTEX
8
OBJECT__45
10
0
20
0
30
0
70
128
71
153
72
134
73
133
0
VERTEX
8
OBJECT__45
10
0
20
0
30
0
70
128
71
130
72
271
73
151
0
VERTEX
8
OBJECT__45
10
0
20
0
30
0
70
128
71
150
72
149
73
129
0
VERTEX
8
OBJECT__45
10
0
20
0
30
0
70
128
71
149
72
148
73
128
0
VERTEX
8
OBJECT__45
10
0
20
0
30
0
70
128
71
148
72
147
73
127
0
VERTEX
8
OBJECT__45
10
0
20
0
30
0
70
128
71
147
72
146
73
126
0
VERTEX
8
OBJECT__45
10
0
20
0
30
0
70
128
71
146
72
145
73
125
0
VERTEX
8
OBJECT__45
10
0
20
0
30
0
70
128
71
145
72
144
73
124
0
VERTEX
8
OBJECT__45
10
0
20
0
30
0
70
128
71
144
72
143
73
123
0
VERTEX
8
OBJECT__45
10
0
20
0
30
0
70
128
71
143
72
142
73
122
0
VERTEX
8
OBJECT__45
10
0
20
0
30
0
70
128
71
142
72
141
73
121
0
VERTEX
8
OBJECT__45
10
0
20
0
30
0
70
128
71
141
72
140
73
120
0
VERTEX
8
OBJECT__45
10
0
20
0
30
0
70
128
71
140
72
139
73
119
0
VERTEX
8
OBJECT__45
10
0
20
0
30
0
70
128
71
139
72
138
73
118
0
VERTEX
8
OBJECT__45
10
0
20
0
30
0
70
128
71
138
72
137
73
117
0
VERTEX
8
OBJECT__45
10
0
20
0
30
0
70
128
71
137
72
136
73
116
0
VERTEX
8
OBJECT__45
10
0
20
0
30
0
70
128
71
136
72
133
73
114
0
VERTEX
8
OBJECT__45
10
0
20
0
30
0
70
128
71
135
72
115
73
114
0
VERTEX
8
OBJECT__45
10
0
20
0
30
0
70
128
71
132
72
271
73
130
0
VERTEX
8
OBJECT__45
10
0
20
0
30
0
70
128
71
130
72
129
73
110
0
VERTEX
8
OBJECT__45
10
0
20
0
30
0
70
128
71
129
72
128
73
109
0
VERTEX
8
OBJECT__45
10
0
20
0
30
0
70
128
71
128
72
127
73
108
0
VERTEX
8
OBJECT__45
10
0
20
0
30
0
70
128
71
127
72
126
73
107
0
VERTEX
8
OBJECT__45
10
0
20
0
30
0
70
128
71
126
72
125
73
106
0
VERTEX
8
OBJECT__45
10
0
20
0
30
0
70
128
71
125
72
124
73
105
0
VERTEX
8
OBJECT__45
10
0
20
0
30
0
70
128
71
124
72
123
73
104
0
VERTEX
8
OBJECT__45
10
0
20
0
30
0
70
128
71
123
72
122
73
103
0
VERTEX
8
OBJECT__45
10
0
20
0
30
0
70
128
71
122
72
121
73
102
0
VERTEX
8
OBJECT__45
10
0
20
0
30
0
70
128
71
121
72
120
73
101
0
VERTEX
8
OBJECT__45
10
0
20
0
30
0
70
128
71
120
72
119
73
100
0
VERTEX
8
OBJECT__45
10
0
20
0
30
0
70
128
71
119
72
118
73
99
0
VERTEX
8
OBJECT__45
10
0
20
0
30
0
70
128
71
118
72
117
73
98
0
VERTEX
8
OBJECT__45
10
0
20
0
30
0
70
128
71
117
72
116
73
97
0
VERTEX
8
OBJECT__45
10
0
20
0
30
0
70
128
71
116
72
114
73
95
0
VERTEX
8
OBJECT__45
10
0
20
0
30
0
70
128
71
96
72
95
73
114
0
VERTEX
8
OBJECT__45
10
0
20
0
30
0
70
128
71
112
72
131
73
111
0
VERTEX
8
OBJECT__45
10
0
20
0
30
0
70
128
71
111
72
110
73
90
0
VERTEX
8
OBJECT__45
10
0
20
0
30
0
70
128
71
110
72
109
73
89
0
VERTEX
8
OBJECT__45
10
0
20
0
30
0
70
128
71
109
72
108
73
88
0
VERTEX
8
OBJECT__45
10
0
20
0
30
0
70
128
71
108
72
107
73
87
0
VERTEX
8
OBJECT__45
10
0
20
0
30
0
70
128
71
107
72
106
73
86
0
VERTEX
8
OBJECT__45
10
0
20
0
30
0
70
128
71
106
72
105
73
85
0
VERTEX
8
OBJECT__45
10
0
20
0
30
0
70
128
71
105
72
104
73
84
0
VERTEX
8
OBJECT__45
10
0
20
0
30
0
70
128
71
104
72
103
73
83
0
VERTEX
8
OBJECT__45
10
0
20
0
30
0
70
128
71
103
72
102
73
82
0
VERTEX
8
OBJECT__45
10
0
20
0
30
0
70
128
71
102
72
101
73
81
0
VERTEX
8
OBJECT__45
10
0
20
0
30
0
70
128
71
101
72
100
73
80
0
VERTEX
8
OBJECT__45
10
0
20
0
30
0
70
128
71
100
72
99
73
79
0
VERTEX
8
OBJECT__45
10
0
20
0
30
0
70
128
71
99
72
98
73
78
0
VERTEX
8
OBJECT__45
10
0
20
0
30
0
70
128
71
98
72
97
73
77
0
VERTEX
8
OBJECT__45
10
0
20
0
30
0
70
128
71
97
72
95
73
74
0
VERTEX
8
OBJECT__45
10
0
20
0
30
0
70
128
71
74
72
95
73
94
0
VERTEX
8
OBJECT__45
10
0
20
0
30
0
70
128
71
93
72
113
73
91
0
VERTEX
8
OBJECT__45
10
0
20
0
30
0
70
128
71
91
72
90
73
70
0
VERTEX
8
OBJECT__45
10
0
20
0
30
0
70
128
71
90
72
89
73
69
0
VERTEX
8
OBJECT__45
10
0
20
0
30
0
70
128
71
89
72
88
73
68
0
VERTEX
8
OBJECT__45
10
0
20
0
30
0
70
128
71
88
72
87
73
67
0
VERTEX
8
OBJECT__45
10
0
20
0
30
0
70
128
71
87
72
86
73
66
0
VERTEX
8
OBJECT__45
10
0
20
0
30
0
70
128
71
86
72
85
73
65
0
VERTEX
8
OBJECT__45
10
0
20
0
30
0
70
128
71
85
72
84
73
64
0
VERTEX
8
OBJECT__45
10
0
20
0
30
0
70
128
71
84
72
83
73
63
0
VERTEX
8
OBJECT__45
10
0
20
0
30
0
70
128
71
83
72
82
73
62
0
VERTEX
8
OBJECT__45
10
0
20
0
30
0
70
128
71
82
72
81
73
61
0
VERTEX
8
OBJECT__45
10
0
20
0
30
0
70
128
71
81
72
80
73
60
0
VERTEX
8
OBJECT__45
10
0
20
0
30
0
70
128
71
80
72
79
73
59
0
VERTEX
8
OBJECT__45
10
0
20
0
30
0
70
128
71
79
72
78
73
58
0
VERTEX
8
OBJECT__45
10
0
20
0
30
0
70
128
71
78
72
77
73
57
0
VERTEX
8
OBJECT__45
10
0
20
0
30
0
70
128
71
77
72
74
73
53
0
VERTEX
8
OBJECT__45
10
0
20
0
30
0
70
128
71
75
72
54
73
53
0
VERTEX
8
OBJECT__45
10
0
20
0
30
0
70
128
71
72
72
92
73
71
0
VERTEX
8
OBJECT__45
10
0
20
0
30
0
70
128
71
71
72
70
73
50
0
VERTEX
8
OBJECT__45
10
0
20
0
30
0
70
128
71
70
72
69
73
49
0
VERTEX
8
OBJECT__45
10
0
20
0
30
0
70
128
71
69
72
68
73
48
0
VERTEX
8
OBJECT__45
10
0
20
0
30
0
70
128
71
68
72
67
73
47
0
VERTEX
8
OBJECT__45
10
0
20
0
30
0
70
128
71
67
72
66
73
46
0
VERTEX
8
OBJECT__45
10
0
20
0
30
0
70
128
71
66
72
65
73
45
0
VERTEX
8
OBJECT__45
10
0
20
0
30
0
70
128
71
65
72
64
73
44
0
VERTEX
8
OBJECT__45
10
0
20
0
30
0
70
128
71
64
72
63
73
43
0
VERTEX
8
OBJECT__45
10
0
20
0
30
0
70
128
71
63
72
62
73
42
0
VERTEX
8
OBJECT__45
10
0
20
0
30
0
70
128
71
62
72
61
73
41
0
VERTEX
8
OBJECT__45
10
0
20
0
30
0
70
128
71
61
72
60
73
40
0
VERTEX
8
OBJECT__45
10
0
20
0
30
0
70
128
71
60
72
59
73
39
0
VERTEX
8
OBJECT__45
10
0
20
0
30
0
70
128
71
59
72
58
73
38
0
VERTEX
8
OBJECT__45
10
0
20
0
30
0
70
128
71
58
72
57
73
37
0
VERTEX
8
OBJECT__45
10
0
20
0
30
0
70
128
71
57
72
53
73
56
0
VERTEX
8
OBJECT__45
10
0
20
0
30
0
70
128
71
55
72
36
73
56
0
VERTEX
8
OBJECT__45
10
0
20
0
30
0
70
128
71
52
72
73
73
51
0
VERTEX
8
OBJECT__45
10
0
20
0
30
0
70
128
71
51
72
50
73
32
0
VERTEX
8
OBJECT__45
10
0
20
0
30
0
70
128
71
50
72
49
73
30
0
VERTEX
8
OBJECT__45
10
0
20
0
30
0
70
128
71
49
72
48
73
28
0
VERTEX
8
OBJECT__45
10
0
20
0
30
0
70
128
71
48
72
47
73
26
0
VERTEX
8
OBJECT__45
10
0
20
0
30
0
70
128
71
47
72
46
73
24
0
VERTEX
8
OBJECT__45
10
0
20
0
30
0
70
128
71
46
72
45
73
22
0
VERTEX
8
OBJECT__45
10
0
20
0
30
0
70
128
71
45
72
44
73
20
0
VERTEX
8
OBJECT__45
10
0
20
0
30
0
70
128
71
44
72
43
73
18
0
VERTEX
8
OBJECT__45
10
0
20
0
30
0
70
128
71
43
72
42
73
16
0
VERTEX
8
OBJECT__45
10
0
20
0
30
0
70
128
71
42
72
41
73
14
0
VERTEX
8
OBJECT__45
10
0
20
0
30
0
70
128
71
41
72
40
73
12
0
VERTEX
8
OBJECT__45
10
0
20
0
30
0
70
128
71
40
72
39
73
10
0
VERTEX
8
OBJECT__45
10
0
20
0
30
0
70
128
71
39
72
38
73
8
0
VERTEX
8
OBJECT__45
10
0
20
0
30
0
70
128
71
38
72
37
73
6
0
VERTEX
8
OBJECT__45
10
0
20
0
30
0
70
128
71
37
72
56
73
2
0
VERTEX
8
OBJECT__45
10
0
20
0
30
0
70
128
71
2
72
56
73
36
0
VERTEX
8
OBJECT__45
10
0
20
0
30
0
70
128
71
33
72
268
73
35
0
VERTEX
8
OBJECT__45
10
0
20
0
30
0
70
128
71
34
72
32
73
31
0
VERTEX
8
OBJECT__45
10
0
20
0
30
0
70
128
71
32
72
30
73
29
0
VERTEX
8
OBJECT__45
10
0
20
0
30
0
70
128
71
30
72
28
73
27
0
VERTEX
8
OBJECT__45
10
0
20
0
30
0
70
128
71
28
72
26
73
25
0
VERTEX
8
OBJECT__45
10
0
20
0
30
0
70
128
71
26
72
24
73
23
0
VERTEX
8
OBJECT__45
10
0
20
0
30
0
70
128
71
24
72
22
73
21
0
VERTEX
8
OBJECT__45
10
0
20
0
30
0
70
128
71
22
72
20
73
19
0
VERTEX
8
OBJECT__45
10
0
20
0
30
0
70
128
71
20
72
18
73
17
0
VERTEX
8
OBJECT__45
10
0
20
0
30
0
70
128
71
18
72
16
73
15
0
VERTEX
8
OBJECT__45
10
0
20
0
30
0
70
128
71
16
72
14
73
13
0
VERTEX
8
OBJECT__45
10
0
20
0
30
0
70
128
71
14
72
12
73
11
0
VERTEX
8
OBJECT__45
10
0
20
0
30
0
70
128
71
12
72
10
73
9
0
VERTEX
8
OBJECT__45
10
0
20
0
30
0
70
128
71
10
72
8
73
7
0
VERTEX
8
OBJECT__45
10
0
20
0
30
0
70
128
71
8
72
6
73
5
0
VERTEX
8
OBJECT__45
10
0
20
0
30
0
70
128
71
6
72
2
73
1
0
VERTEX
8
OBJECT__45
10
0
20
0
30
0
70
128
71
3
72
265
73
1
0
SEQEND
8
OBJECT__45
0
POLYLINE
8
OBJECT__46
66
1
70
64
71
34
72
34
62
253
0
VERTEX
8
OBJECT__46
10
0.000000
20
-161.835999
30
207.664993
70
192
0
VERTEX
8
OBJECT__46
10
0.000000
20
-160.186005
30
217.020996
70
192
0
VERTEX
8
OBJECT__46
10
-4.990000
20
-159.063995
30
216.822998
70
192
0
VERTEX
8
OBJECT__46
10
-6.760000
20
-159.673004
30
207.283997
70
192
0
VERTEX
8
OBJECT__46
10
-10.937000
20
-154.009995
30
206.285004
70
192
0
VERTEX
8
OBJECT__46
10
-8.991000
20
-155.921997
30
216.268997
70
192
0
VERTEX
8
OBJECT__46
10
-6.587000
20
-157.809998
30
216.602005
70
192
0
VERTEX
8
OBJECT__46
10
-11.500000
20
-150.509995
30
205.667999
70
192
0
VERTEX
8
OBJECT__46
10
-11.500000
20
-148.860992
30
215.024002
70
192
0
VERTEX
8
OBJECT__46
10
-11.212000
20
-146.339996
30
214.578995
70
192
0
VERTEX
8
OBJECT__46
10
-11.212000
20
-151.380997
30
215.468002
70
192
0
VERTEX
8
OBJECT__46
10
-10.771000
20
-152.281998
30
215.626999
70
192
0
VERTEX
8
OBJECT__46
10
-10.937000
20
-147.011002
30
205.050995
70
192
0
VERTEX
8
OBJECT__46
10
-10.771000
20
-145.440002
30
214.419998
70
192
0
VERTEX
8
OBJECT__46
10
-8.991000
20
-141.798996
30
213.779007
70
192
0
VERTEX
8
OBJECT__46
10
-6.760000
20
-141.348007
30
204.052002
70
192
0
VERTEX
8
OBJECT__46
10
0.000000
20
-139.184998
30
203.671005
70
192
0
VERTEX
8
OBJECT__46
10
-4.990000
20
-138.656998
30
213.223999
70
192
0
VERTEX
8
OBJECT__46
10
-6.587000
20
-139.910995
30
213.445999
70
192
0
VERTEX
8
OBJECT__46
10
0.000000
20
-137.535004
30
213.026993
70
192
0
VERTEX
8
OBJECT__46
10
4.990000
20
-138.656998
30
213.223999
70
192
0
VERTEX
8
OBJECT__46
10
6.760000
20
-141.348007
30
204.052002
70
192
0
VERTEX
8
OBJECT__46
10
10.937000
20
-147.011002
30
205.050995
70
192
0
VERTEX
8
OBJECT__46
10
8.991000
20
-141.798996
30
213.779007
70
192
0
VERTEX
8
OBJECT__46
10
6.587000
20
-139.910995
30
213.445999
70
192
0
VERTEX
8
OBJECT__46
10
10.937000
20
-154.009995
30
206.285004
70
192
0
VERTEX
8
OBJECT__46
10
11.212000
20
-146.339996
30
214.578995
70
192
0
VERTEX
8
OBJECT__46
10
11.212000
20
-151.380997
30
215.468002
70
192
0
VERTEX
8
OBJECT__46
10
10.771000
20
-145.440002
30
214.419998
70
192
0
VERTEX
8
OBJECT__46
10
10.771000
20
-152.281998
30
215.626999
70
192
0
VERTEX
8
OBJECT__46
10
8.991000
20
-155.921997
30
216.268997
70
192
0
VERTEX
8
OBJECT__46
10
6.760000
20
-159.673004
30
207.283997
70
192
0
VERTEX
8
OBJECT__46
10
4.990000
20
-159.063995
30
216.822998
70
192
0
VERTEX
8
OBJECT__46
10
6.587000
20
-157.809998
30
216.602005
70
192
0
VERTEX
8
OBJECT__46
10
0
20
0
30
0
70
128
71
1
72
2
73
3
0
VERTEX
8
OBJECT__46
10
0
20
0
30
0
70
128
71
3
72
4
73
1
0
VERTEX
8
OBJECT__46
10
0
20
0
30
0
70
128
71
5
72
4
73
6
0
VERTEX
8
OBJECT__46
10
0
20
0
30
0
70
128
71
4
72
7
73
6
0
VERTEX
8
OBJECT__46
10
0
20
0
30
0
70
128
71
8
72
9
73
10
0
VERTEX
8
OBJECT__46
10
0
20
0
30
0
70
128
71
8
72
5
73
11
0
VERTEX
8
OBJECT__46
10
0
20
0
30
0
70
128
71
5
72
12
73
11
0
VERTEX
8
OBJECT__46
10
0
20
0
30
0
70
128
71
11
72
9
73
8
0
VERTEX
8
OBJECT__46
10
0
20
0
30
0
70
128
71
10
72
13
73
8
0
VERTEX
8
OBJECT__46
10
0
20
0
30
0
70
128
71
13
72
14
73
15
0
VERTEX
8
OBJECT__46
10
0
20
0
30
0
70
128
71
15
72
16
73
13
0
VERTEX
8
OBJECT__46
10
0
20
0
30
0
70
128
71
17
72
16
73
18
0
VERTEX
8
OBJECT__46
10
0
20
0
30
0
70
128
71
16
72
19
73
18
0
VERTEX
8
OBJECT__46
10
0
20
0
30
0
70
128
71
17
72
20
73
21
0
VERTEX
8
OBJECT__46
10
0
20
0
30
0
70
128
71
21
72
22
73
17
0
VERTEX
8
OBJECT__46
10
0
20
0
30
0
70
128
71
23
72
22
73
24
0
VERTEX
8
OBJECT__46
10
0
20
0
30
0
70
128
71
22
72
25
73
24
0
VERTEX
8
OBJECT__46
10
0
20
0
30
0
70
128
71
26
72
23
73
27
0
VERTEX
8
OBJECT__46
10
0
20
0
30
0
70
128
71
27
72
28
73
26
0
VERTEX
8
OBJECT__46
10
0
20
0
30
0
70
128
71
23
72
29
73
27
0
VERTEX
8
OBJECT__46
10
0
20
0
30
0
70
128
71
26
72
30
73
31
0
VERTEX
8
OBJECT__46
10
0
20
0
30
0
70
128
71
31
72
32
73
26
0
VERTEX
8
OBJECT__46
10
0
20
0
30
0
70
128
71
1
72
32
73
33
0
VERTEX
8
OBJECT__46
10
0
20
0
30
0
70
128
71
32
72
34
73
33
0
VERTEX
8
OBJECT__46
10
0
20
0
30
0
70
128
71
33
72
2
73
1
0
VERTEX
8
OBJECT__46
10
0
20
0
30
0
70
128
71
31
72
34
73
32
0
VERTEX
8
OBJECT__46
10
0
20
0
30
0
70
128
71
28
72
30
73
26
0
VERTEX
8
OBJECT__46
10
0
20
0
30
0
70
128
71
24
72
29
73
23
0
VERTEX
8
OBJECT__46
10
0
20
0
30
0
70
128
71
21
72
25
73
22
0
VERTEX
8
OBJECT__46
10
0
20
0
30
0
70
128
71
18
72
20
73
17
0
VERTEX
8
OBJECT__46
10
0
20
0
30
0
70
128
71
15
72
19
73
16
0
VERTEX
8
OBJECT__46
10
0
20
0
30
0
70
128
71
10
72
14
73
13
0
VERTEX
8
OBJECT__46
10
0
20
0
30
0
70
128
71
6
72
12
73
5
0
VERTEX
8
OBJECT__46
10
0
20
0
30
0
70
128
71
3
72
7
73
4
0
SEQEND
8
OBJECT__46
0
POLYLINE
8
OBJECT__47
66
1
70
64
71
11
72
9
62
253
0
VERTEX
8
OBJECT__47
10
-6.760000
20
-141.348007
30
204.052002
70
192
0
VERTEX
8
OBJECT__47
10
0.000000
20
-139.184998
30
203.671005
70
192
0
VERTEX
8
OBJECT__47
10
6.760000
20
-141.348007
30
204.052002
70
192
0
VERTEX
8
OBJECT__47
10
-10.937000
20
-154.009995
30
206.285004
70
192
0
VERTEX
8
OBJECT__47
10
6.760000
20
-159.673004
30
207.283997
70
192
0
VERTEX
8
OBJECT__47
10
0.000000
20
-161.835999
30
207.664993
70
192
0
VERTEX
8
OBJECT__47
10
10.937000
20
-147.011002
30
205.050995
70
192
0
VERTEX
8
OBJECT__47
10
10.937000
20
-154.009995
30
206.285004
70
192
0
VERTEX
8
OBJECT__47
10
-10.937000
20
-147.011002
30
205.050995
70
192
0
VERTEX
8
OBJECT__47
10
-11.500000
20
-150.509995
30
205.667999
70
192
0
VERTEX
8
OBJECT__47
10
-6.760000
20
-159.673004
30
207.283997
70
192
0
VERTEX
8
OBJECT__47
10
0
20
0
30
0
70
128
71
1
72
2
73
3
0
VERTEX
8
OBJECT__47
10
0
20
0
30
0
70
128
71
4
72
5
73
6
0
VERTEX
8
OBJECT__47
10
0
20
0
30
0
70
128
71
4
72
7
73
8
0
VERTEX
8
OBJECT__47
10
0
20
0
30
0
70
128
71
7
72
9
73
1
0
VERTEX
8
OBJECT__47
10
0
20
0
30
0
70
128
71
8
72
5
73
4
0
VERTEX
8
OBJECT__47
10
0
20
0
30
0
70
128
71
7
72
10
73
9
0
VERTEX
8
OBJECT__47
10
0
20
0
30
0
70
128
71
6
72
11
73
4
0
VERTEX
8
OBJECT__47
10
0
20
0
30
0
70
128
71
4
72
10
73
7
0
VERTEX
8
OBJECT__47
10
0
20
0
30
0
70
128
71
3
72
7
73
1
0
SEQEND
8
OBJECT__47
0
POLYLINE
8
OBJECT__48
66
1
70
64
71
8
72
6
62
253
0
VERTEX
8
OBJECT__48
10
66.650002
20
15.144000
30
87.594002
70
192
0
VERTEX
8
OBJECT__48
10
78.349998
20
15.144000
30
87.594002
70
192
0
VERTEX
8
OBJECT__48
10
75.102997
20
17.179001
30
84.068001
70
192
0
VERTEX
8
OBJECT__48
10
77.191002
20
12.605000
30
91.989998
70
192
0
VERTEX
8
OBJECT__48
10
67.808998
20
12.605000
30
91.989998
70
192
0
VERTEX
8
OBJECT__48
10
78.500000
20
14.476000
30
88.750000
70
192
0
VERTEX
8
OBJECT__48
10
72.500000
20
11.476000
30
93.945999
70
192
0
VERTEX
8
OBJECT__48
10
69.897003
20
17.179001
30
84.068001
70
192
0
VERTEX
8
OBJECT__48
10
0
20
0
30
0
70
128
71
1
72
2
73
3
0
VERTEX
8
OBJECT__48
10
0
20
0
30
0
70
128
71
4
72
1
73
5
0
VERTEX
8
OBJECT__48
10
0
20
0
30
0
70
128
71
1
72
6
73
2
0
VERTEX
8
OBJECT__48
10
0
20
0
30
0
70
128
71
5
72
7
73
4
0
VERTEX
8
OBJECT__48
10
0
20
0
30
0
70
128
71
4
72
6
73
1
0
VERTEX
8
OBJECT__48
10
0
20
0
30
0
70
128
71
3
72
8
73
1
0
SEQEND
8
OBJECT__48
0
POLYLINE
8
OBJECT__49
66
1
70
64
71
39
72
39
62
253
0
VERTEX
8
OBJECT__49
10
72.500000
20
11.476000
30
93.945999
70
192
0
VERTEX
8
OBJECT__49
10
76.427002
20
-12.794000
30
78.244003
70
192
0
VERTEX
8
OBJECT__49
10
77.139999
20
-12.062000
30
77.697998
70
192
0
VERTEX
8
OBJECT__49
10
72.994003
20
-14.320000
30
79.028999
70
192
0
VERTEX
8
OBJECT__49
10
74.632004
20
-13.897000
30
78.845001
70
192
0
VERTEX
8
OBJECT__49
10
72.500000
20
-14.344000
30
79.039001
70
192
0
VERTEX
8
OBJECT__49
10
77.191002
20
12.605000
30
91.989998
70
192
0
VERTEX
8
OBJECT__49
10
78.287003
20
-10.461000
30
76.182999
70
192
0
VERTEX
8
OBJECT__49
10
78.497002
20
-9.465000
30
74.712997
70
192
0
VERTEX
8
OBJECT__49
10
78.349998
20
15.144000
30
87.594002
70
192
0
VERTEX
8
OBJECT__49
10
78.500000
20
14.476000
30
88.750000
70
192
0
VERTEX
8
OBJECT__49
10
77.452003
20
-11.741000
30
77.458000
70
192
0
VERTEX
8
OBJECT__49
10
77.612000
20
-11.577000
30
77.334999
70
192
0
VERTEX
8
OBJECT__49
10
75.102997
20
17.179001
30
84.068001
70
192
0
VERTEX
8
OBJECT__49
10
76.944000
20
-8.296000
30
70.947998
70
192
0
VERTEX
8
OBJECT__49
10
75.510002
20
-8.257000
30
69.632004
70
192
0
VERTEX
8
OBJECT__49
10
78.078003
20
-8.671000
30
72.834000
70
192
0
VERTEX
8
OBJECT__49
10
77.387001
20
-8.443000
30
71.683998
70
192
0
VERTEX
8
OBJECT__49
10
78.263000
20
-9.021000
30
73.663002
70
192
0
VERTEX
8
OBJECT__49
10
69.897003
20
17.179001
30
84.068001
70
192
0
VERTEX
8
OBJECT__49
10
74.044998
20
-8.312000
30
68.899002
70
192
0
VERTEX
8
OBJECT__49
10
72.411003
20
-8.344000
30
68.647003
70
192
0
VERTEX
8
OBJECT__49
10
70.790001
20
-8.306000
30
68.956001
70
192
0
VERTEX
8
OBJECT__49
10
75.086998
20
-8.273000
30
69.419998
70
192
0
VERTEX
8
OBJECT__49
10
66.811996
20
-8.765000
30
73.126999
70
192
0
VERTEX
8
OBJECT__49
10
66.707001
20
-9.002000
30
73.665001
70
192
0
VERTEX
8
OBJECT__49
10
67.581001
20
-8.380000
30
71.587997
70
192
0
VERTEX
8
OBJECT__49
10
67.528999
20
-8.406000
30
71.691002
70
192
0
VERTEX
8
OBJECT__49
10
69.939003
20
-8.281000
30
69.467003
70
192
0
VERTEX
8
OBJECT__49
10
68.883003
20
-8.251000
30
70.100998
70
192
0
VERTEX
8
OBJECT__49
10
67.808998
20
12.605000
30
91.989998
70
192
0
VERTEX
8
OBJECT__49
10
66.776001
20
-10.600000
30
76.348999
70
192
0
VERTEX
8
OBJECT__49
10
67.582001
20
-11.756000
30
77.445000
70
192
0
VERTEX
8
OBJECT__49
10
67.788002
20
-12.051000
30
77.723999
70
192
0
VERTEX
8
OBJECT__49
10
66.650002
20
15.144000
30
87.594002
70
192
0
VERTEX
8
OBJECT__49
10
66.502998
20
-9.462000
30
74.707001
70
192
0
VERTEX
8
OBJECT__49
10
69.190002
20
-13.256000
30
78.517998
70
192
0
VERTEX
8
OBJECT__49
10
70.739998
20
-14.040000
30
78.910004
70
192
0
VERTEX
8
OBJECT__49
10
67.813004
20
-12.071000
30
77.737999
70
192
0
VERTEX
8
OBJECT__49
10
0
20
0
30
0
70
128
71
1
72
2
73
3
0
VERTEX
8
OBJECT__49
10
0
20
0
30
0
70
128
71
1
72
4
73
5
0
VERTEX
8
OBJECT__49
10
0
20
0
30
0
70
128
71
1
72
6
73
4
0
VERTEX
8
OBJECT__49
10
0
20
0
30
0
70
128
71
5
72
2
73
1
0
VERTEX
8
OBJECT__49
10
0
20
0
30
0
70
128
71
7
72
8
73
9
0
VERTEX
8
OBJECT__49
10
0
20
0
30
0
70
128
71
9
72
10
73
11
0
VERTEX
8
OBJECT__49
10
0
20
0
30
0
70
128
71
7
72
3
73
12
0
VERTEX
8
OBJECT__49
10
0
20
0
30
0
70
128
71
12
72
13
73
7
0
VERTEX
8
OBJECT__49
10
0
20
0
30
0
70
128
71
13
72
8
73
7
0
VERTEX
8
OBJECT__49
10
0
20
0
30
0
70
128
71
9
72
11
73
7
0
VERTEX
8
OBJECT__49
10
0
20
0
30
0
70
128
71
14
72
15
73
16
0
VERTEX
8
OBJECT__49
10
0
20
0
30
0
70
128
71
14
72
17
73
18
0
VERTEX
8
OBJECT__49
10
0
20
0
30
0
70
128
71
18
72
15
73
14
0
VERTEX
8
OBJECT__49
10
0
20
0
30
0
70
128
71
14
72
10
73
19
0
VERTEX
8
OBJECT__49
10
0
20
0
30
0
70
128
71
19
72
17
73
14
0
VERTEX
8
OBJECT__49
10
0
20
0
30
0
70
128
71
20
72
21
73
22
0
VERTEX
8
OBJECT__49
10
0
20
0
30
0
70
128
71
22
72
23
73
20
0
VERTEX
8
OBJECT__49
10
0
20
0
30
0
70
128
71
20
72
14
73
24
0
VERTEX
8
OBJECT__49
10
0
20
0
30
0
70
128
71
24
72
21
73
20
0
VERTEX
8
OBJECT__49
10
0
20
0
30
0
70
128
71
20
72
25
73
26
0
VERTEX
8
OBJECT__49
10
0
20
0
30
0
70
128
71
20
72
27
73
28
0
VERTEX
8
OBJECT__49
10
0
20
0
30
0
70
128
71
20
72
29
73
30
0
VERTEX
8
OBJECT__49
10
0
20
0
30
0
70
128
71
30
72
27
73
20
0
VERTEX
8
OBJECT__49
10
0
20
0
30
0
70
128
71
28
72
25
73
20
0
VERTEX
8
OBJECT__49
10
0
20
0
30
0
70
128
71
31
72
32
73
33
0
VERTEX
8
OBJECT__49
10
0
20
0
30
0
70
128
71
33
72
34
73
31
0
VERTEX
8
OBJECT__49
10
0
20
0
30
0
70
128
71
31
72
35
73
36
0
VERTEX
8
OBJECT__49
10
0
20
0
30
0
70
128
71
36
72
32
73
31
0
VERTEX
8
OBJECT__49
10
0
20
0
30
0
70
128
71
35
72
26
73
36
0
VERTEX
8
OBJECT__49
10
0
20
0
30
0
70
128
71
1
72
37
73
38
0
VERTEX
8
OBJECT__49
10
0
20
0
30
0
70
128
71
1
72
31
73
39
0
VERTEX
8
OBJECT__49
10
0
20
0
30
0
70
128
71
39
72
37
73
1
0
VERTEX
8
OBJECT__49
10
0
20
0
30
0
70
128
71
38
72
6
73
1
0
VERTEX
8
OBJECT__49
10
0
20
0
30
0
70
128
71
34
72
39
73
31
0
VERTEX
8
OBJECT__49
10
0
20
0
30
0
70
128
71
26
72
35
73
20
0
VERTEX
8
OBJECT__49
10
0
20
0
30
0
70
128
71
23
72
29
73
20
0
VERTEX
8
OBJECT__49
10
0
20
0
30
0
70
128
71
16
72
24
73
14
0
VERTEX
8
OBJECT__49
10
0
20
0
30
0
70
128
71
9
72
19
73
10
0
VERTEX
8
OBJECT__49
10
0
20
0
30
0
70
128
71
3
72
7
73
1
0
SEQEND
8
OBJECT__49
0
POLYLINE
8
OBJECT__51
66
1
70
64
71
113
72
119
62
253
0
VERTEX
8
OBJECT__51
10
57.000000
20
-24.267000
30
77.469002
70
192
0
VERTEX
8
OBJECT__51
10
66.502998
20
-26.346001
30
75.041000
70
192
0
VERTEX
8
OBJECT__51
10
66.707001
20
-25.673000
30
75.959999
70
192
0
VERTEX
8
OBJECT__51
10
66.811996
20
-25.325001
30
76.433998
70
192
0
VERTEX
8
OBJECT__51
10
57.000000
20
-27.601999
30
71.693001
70
192
0
VERTEX
8
OBJECT__51
10
66.776001
20
-27.198000
30
73.234001
70
192
0
VERTEX
8
OBJECT__51
10
67.582001
20
-27.569000
30
71.684998
70
192
0
VERTEX
8
OBJECT__51
10
80.000000
20
-18.000000
30
79.750000
70
192
0
VERTEX
8
OBJECT__51
10
76.944000
20
-23.673000
30
77.930000
70
192
0
VERTEX
8
OBJECT__51
10
77.387001
20
-24.237000
30
77.434998
70
192
0
VERTEX
8
OBJECT__51
10
74.044998
20
-21.889999
30
78.940002
70
192
0
VERTEX
8
OBJECT__51
10
75.086998
20
-22.361000
30
78.713997
70
192
0
VERTEX
8
OBJECT__51
10
75.510002
20
-22.552999
30
78.622002
70
192
0
VERTEX
8
OBJECT__51
10
72.411003
20
-21.656000
30
79.038002
70
192
0
VERTEX
8
OBJECT__51
10
57.000000
20
-18.000000
30
79.750000
70
192
0
VERTEX
8
OBJECT__51
10
70.790001
20
-21.943001
30
78.917000
70
192
0
VERTEX
8
OBJECT__51
10
68.883003
20
-22.962000
30
78.392998
70
192
0
VERTEX
8
OBJECT__51
10
69.939003
20
-22.396999
30
78.682999
70
192
0
VERTEX
8
OBJECT__51
10
67.528999
20
-24.261999
30
77.462997
70
192
0
VERTEX
8
OBJECT__51
10
67.581001
20
-24.184999
30
77.537003
70
192
0
VERTEX
8
OBJECT__51
10
80.000000
20
-27.601999
30
71.693001
70
192
0
VERTEX
8
OBJECT__51
10
80.000000
20
-24.267000
30
77.469002
70
192
0
VERTEX
8
OBJECT__51
10
78.497002
20
-26.349001
30
75.035004
70
192
0
VERTEX
8
OBJECT__51
10
78.287003
20
-27.124001
30
73.438004
70
192
0
VERTEX
8
OBJECT__51
10
77.612000
20
-27.563999
30
71.894997
70
192
0
VERTEX
8
OBJECT__51
10
78.078003
20
-25.118999
30
76.662003
70
192
0
VERTEX
8
OBJECT__51
10
78.263000
20
-25.662001
30
75.944000
70
192
0
VERTEX
8
OBJECT__51
10
57.000000
20
-26.444000
30
65.125000
70
192
0
VERTEX
8
OBJECT__51
10
67.788002
20
-27.664000
30
71.290001
70
192
0
VERTEX
8
OBJECT__51
10
69.190002
20
-27.749001
30
69.849998
70
192
0
VERTEX
8
OBJECT__51
10
67.813004
20
-27.666000
30
71.264999
70
192
0
VERTEX
8
OBJECT__51
10
70.739998
20
-27.695999
30
68.973999
70
192
0
VERTEX
8
OBJECT__51
10
80.000000
20
-26.444000
30
65.125000
70
192
0
VERTEX
8
OBJECT__51
10
72.500000
20
-27.656000
30
68.646004
70
192
0
VERTEX
8
OBJECT__51
10
74.632004
20
-27.711000
30
69.130997
70
192
0
VERTEX
8
OBJECT__51
10
72.994003
20
-27.659000
30
68.671997
70
192
0
VERTEX
8
OBJECT__51
10
77.452003
20
-27.587999
30
71.691002
70
192
0
VERTEX
8
OBJECT__51
10
77.139999
20
-27.635000
30
71.293999
70
192
0
VERTEX
8
OBJECT__51
10
76.427002
20
-27.742001
30
70.386002
70
192
0
VERTEX
8
OBJECT__51
10
57.000000
20
-21.334999
30
60.838001
70
192
0
VERTEX
8
OBJECT__51
10
57.000000
20
-18.000000
30
60.250000
70
192
0
VERTEX
8
OBJECT__51
10
66.502998
20
-18.186001
30
60.251999
70
192
0
VERTEX
8
OBJECT__51
10
66.737000
20
-19.316999
30
60.393002
70
192
0
VERTEX
8
OBJECT__51
10
57.000000
20
-14.665000
30
60.838001
70
192
0
VERTEX
8
OBJECT__51
10
66.712997
20
-16.415001
30
60.380001
70
192
0
VERTEX
8
OBJECT__51
10
67.547997
20
-14.671000
30
60.851002
70
192
0
VERTEX
8
OBJECT__51
10
67.388000
20
-14.859000
30
60.770000
70
192
0
VERTEX
8
OBJECT__51
10
66.921997
20
-20.209999
30
60.504002
70
192
0
VERTEX
8
OBJECT__51
10
80.000000
20
-21.334999
30
60.838001
70
192
0
VERTEX
8
OBJECT__51
10
77.418999
20
-21.434999
30
60.875000
70
192
0
VERTEX
8
OBJECT__51
10
76.116997
20
-22.787001
30
61.506001
70
192
0
VERTEX
8
OBJECT__51
10
74.209999
20
-23.750999
30
62.126999
70
192
0
VERTEX
8
OBJECT__51
10
75.060997
20
-23.320999
30
61.849998
70
192
0
VERTEX
8
OBJECT__51
10
70.955002
20
-23.798000
30
62.160999
70
192
0
VERTEX
8
OBJECT__51
10
72.588997
20
-23.999001
30
62.313999
70
192
0
VERTEX
8
OBJECT__51
10
69.489998
20
-23.190001
30
61.745998
70
192
0
VERTEX
8
OBJECT__51
10
69.913002
20
-23.365999
30
61.866001
70
192
0
VERTEX
8
OBJECT__51
10
68.056000
20
-22.031000
30
61.122002
70
192
0
VERTEX
8
OBJECT__51
10
67.612999
20
-21.320000
30
60.881001
70
192
0
VERTEX
8
OBJECT__51
10
80.000000
20
-18.000000
30
60.250000
70
192
0
VERTEX
8
OBJECT__51
10
78.497002
20
-18.191999
30
60.251999
70
192
0
VERTEX
8
OBJECT__51
10
78.223999
20
-16.202000
30
60.417000
70
192
0
VERTEX
8
OBJECT__51
10
78.292999
20
-19.325001
30
60.375000
70
192
0
VERTEX
8
OBJECT__51
10
78.188004
20
-19.910000
30
60.438999
70
192
0
VERTEX
8
OBJECT__51
10
77.471001
20
-21.332001
30
60.846001
70
192
0
VERTEX
8
OBJECT__51
10
80.000000
20
-14.665000
30
60.838001
70
192
0
VERTEX
8
OBJECT__51
10
57.000000
20
-9.556000
30
65.125000
70
192
0
VERTEX
8
OBJECT__51
10
67.860001
20
-14.303000
30
61.008999
70
192
0
VERTEX
8
OBJECT__51
10
68.572998
20
-13.463000
30
61.369999
70
192
0
VERTEX
8
OBJECT__51
10
70.367996
20
-12.391000
30
62.025002
70
192
0
VERTEX
8
OBJECT__51
10
80.000000
20
-9.556000
30
65.125000
70
192
0
VERTEX
8
OBJECT__51
10
72.500000
20
-12.000000
30
62.314999
70
192
0
VERTEX
8
OBJECT__51
10
72.005997
20
-12.020000
30
62.299000
70
192
0
VERTEX
8
OBJECT__51
10
74.260002
20
-12.264000
30
62.116001
70
192
0
VERTEX
8
OBJECT__51
10
77.211998
20
-14.285000
30
60.985001
70
192
0
VERTEX
8
OBJECT__51
10
77.186996
20
-14.263000
30
60.997002
70
192
0
VERTEX
8
OBJECT__51
10
75.809998
20
-12.995000
30
61.632000
70
192
0
VERTEX
8
OBJECT__51
10
77.417999
20
-14.675000
30
60.869999
70
192
0
VERTEX
8
OBJECT__51
10
57.000000
20
-8.398000
30
71.693001
70
192
0
VERTEX
8
OBJECT__51
10
66.502998
20
-9.462000
30
74.707001
70
192
0
VERTEX
8
OBJECT__51
10
66.707001
20
-9.002000
30
73.665001
70
192
0
VERTEX
8
OBJECT__51
10
66.811996
20
-8.765000
30
73.126999
70
192
0
VERTEX
8
OBJECT__51
10
57.000000
20
-11.733000
30
77.469002
70
192
0
VERTEX
8
OBJECT__51
10
66.776001
20
-10.600000
30
76.348999
70
192
0
VERTEX
8
OBJECT__51
10
67.582001
20
-11.756000
30
77.445000
70
192
0
VERTEX
8
OBJECT__51
10
76.944000
20
-8.296000
30
70.947998
70
192
0
VERTEX
8
OBJECT__51
10
77.387001
20
-8.443000
30
71.683998
70
192
0
VERTEX
8
OBJECT__51
10
74.044998
20
-8.312000
30
68.899002
70
192
0
VERTEX
8
OBJECT__51
10
75.086998
20
-8.273000
30
69.419998
70
192
0
VERTEX
8
OBJECT__51
10
75.510002
20
-8.257000
30
69.632004
70
192
0
VERTEX
8
OBJECT__51
10
72.411003
20
-8.344000
30
68.647003
70
192
0
VERTEX
8
OBJECT__51
10
70.790001
20
-8.306000
30
68.956001
70
192
0
VERTEX
8
OBJECT__51
10
68.883003
20
-8.251000
30
70.100998
70
192
0
VERTEX
8
OBJECT__51
10
69.939003
20
-8.281000
30
69.467003
70
192
0
VERTEX
8
OBJECT__51
10
67.528999
20
-8.406000
30
71.691002
70
192
0
VERTEX
8
OBJECT__51
10
67.581001
20
-8.380000
30
71.587997
70
192
0
VERTEX
8
OBJECT__51
10
80.000000
20
-11.733000
30
77.469002
70
192
0
VERTEX
8
OBJECT__51
10
80.000000
20
-8.398000
30
71.693001
70
192
0
VERTEX
8
OBJECT__51
10
78.497002
20
-9.465000
30
74.712997
70
192
0
VERTEX
8
OBJECT__51
10
78.287003
20
-10.461000
30
76.182999
70
192
0
VERTEX
8
OBJECT__51
10
77.612000
20
-11.577000
30
77.334999
70
192
0
VERTEX
8
OBJECT__51
10
78.078003
20
-8.671000
30
72.834000
70
192
0
VERTEX
8
OBJECT__51
10
78.263000
20
-9.021000
30
73.663002
70
192
0
VERTEX
8
OBJECT__51
10
67.788002
20
-12.051000
30
77.723999
70
192
0
VERTEX
8
OBJECT__51
10
69.190002
20
-13.256000
30
78.517998
70
192
0
VERTEX
8
OBJECT__51
10
67.813004
20
-12.071000
30
77.737999
70
192
0
VERTEX
8
OBJECT__51
10
70.739998
20
-14.040000
30
78.910004
70
192
0
VERTEX
8
OBJECT__51
10
72.500000
20
-14.344000
30
79.039001
70
192
0
VERTEX
8
OBJECT__51
10
74.632004
20
-13.897000
30
78.845001
70
192
0
VERTEX
8
OBJECT__51
10
72.994003
20
-14.320000
30
79.028999
70
192
0
VERTEX
8
OBJECT__51
10
77.452003
20
-11.741000
30
77.458000
70
192
0
VERTEX
8
OBJECT__51
10
77.139999
20
-12.062000
30
77.697998
70
192
0
VERTEX
8
OBJECT__51
10
76.427002
20
-12.794000
30
78.244003
70
192
0
VERTEX
8
OBJECT__51
10
0
20
0
30
0
70
128
71
1
72
2
73
3
0
VERTEX
8
OBJECT__51
10
0
20
0
30
0
70
128
71
3
72
4
73
1
0
VERTEX
8
OBJECT__51
10
0
20
0
30
0
70
128
71
5
72
6
73
2
0
VERTEX
8
OBJECT__51
10
0
20
0
30
0
70
128
71
2
72
1
73
5
0
VERTEX
8
OBJECT__51
10
0
20
0
30
0
70
128
71
5
72
7
73
6
0
VERTEX
8
OBJECT__51
10
0
20
0
30
0
70
128
71
8
72
9
73
10
0
VERTEX
8
OBJECT__51
10
0
20
0
30
0
70
128
71
8
72
11
73
12
0
VERTEX
8
OBJECT__51
10
0
20
0
30
0
70
128
71
12
72
13
73
8
0
VERTEX
8
OBJECT__51
10
0
20
0
30
0
70
128
71
13
72
9
73
8
0
VERTEX
8
OBJECT__51
10
0
20
0
30
0
70
128
71
8
72
14
73
11
0
VERTEX
8
OBJECT__51
10
0
20
0
30
0
70
128
71
15
72
16
73
14
0
VERTEX
8
OBJECT__51
10
0
20
0
30
0
70
128
71
14
72
8
73
15
0
VERTEX
8
OBJECT__51
10
0
20
0
30
0
70
128
71
15
72
17
73
18
0
VERTEX
8
OBJECT__51
10
0
20
0
30
0
70
128
71
15
72
1
73
19
0
VERTEX
8
OBJECT__51
10
0
20
0
30
0
70
128
71
19
72
20
73
15
0
VERTEX
8
OBJECT__51
10
0
20
0
30
0
70
128
71
20
72
17
73
15
0
VERTEX
8
OBJECT__51
10
0
20
0
30
0
70
128
71
18
72
16
73
15
0
VERTEX
8
OBJECT__51
10
0
20
0
30
0
70
128
71
21
72
22
73
23
0
VERTEX
8
OBJECT__51
10
0
20
0
30
0
70
128
71
23
72
24
73
21
0
VERTEX
8
OBJECT__51
10
0
20
0
30
0
70
128
71
24
72
25
73
21
0
VERTEX
8
OBJECT__51
10
0
20
0
30
0
70
128
71
22
72
26
73
27
0
VERTEX
8
OBJECT__51
10
0
20
0
30
0
70
128
71
27
72
23
73
22
0
VERTEX
8
OBJECT__51
10
0
20
0
30
0
70
128
71
22
72
10
73
26
0
VERTEX
8
OBJECT__51
10
0
20
0
30
0
70
128
71
28
72
29
73
7
0
VERTEX
8
OBJECT__51
10
0
20
0
30
0
70
128
71
28
72
30
73
31
0
VERTEX
8
OBJECT__51
10
0
20
0
30
0
70
128
71
28
72
32
73
30
0
VERTEX
8
OBJECT__51
10
0
20
0
30
0
70
128
71
31
72
29
73
28
0
VERTEX
8
OBJECT__51
10
0
20
0
30
0
70
128
71
28
72
33
73
34
0
VERTEX
8
OBJECT__51
10
0
20
0
30
0
70
128
71
33
72
35
73
36
0
VERTEX
8
OBJECT__51
10
0
20
0
30
0
70
128
71
36
72
34
73
33
0
VERTEX
8
OBJECT__51
10
0
20
0
30
0
70
128
71
34
72
32
73
28
0
VERTEX
8
OBJECT__51
10
0
20
0
30
0
70
128
71
33
72
21
73
37
0
VERTEX
8
OBJECT__51
10
0
20
0
30
0
70
128
71
37
72
38
73
33
0
VERTEX
8
OBJECT__51
10
0
20
0
30
0
70
128
71
38
72
39
73
33
0
VERTEX
8
OBJECT__51
10
0
20
0
30
0
70
128
71
39
72
35
73
33
0
VERTEX
8
OBJECT__51
10
0
20
0
30
0
70
128
71
40
72
41
73
42
0
VERTEX
8
OBJECT__51
10
0
20
0
30
0
70
128
71
42
72
43
73
40
0
VERTEX
8
OBJECT__51
10
0
20
0
30
0
70
128
71
44
72
45
73
42
0
VERTEX
8
OBJECT__51
10
0
20
0
30
0
70
128
71
44
72
46
73
47
0
VERTEX
8
OBJECT__51
10
0
20
0
30
0
70
128
71
47
72
45
73
44
0
VERTEX
8
OBJECT__51
10
0
20
0
30
0
70
128
71
42
72
41
73
44
0
VERTEX
8
OBJECT__51
10
0
20
0
30
0
70
128
71
43
72
48
73
40
0
VERTEX
8
OBJECT__51
10
0
20
0
30
0
70
128
71
49
72
33
73
50
0
VERTEX
8
OBJECT__51
10
0
20
0
30
0
70
128
71
33
72
51
73
50
0
VERTEX
8
OBJECT__51
10
0
20
0
30
0
70
128
71
33
72
52
73
53
0
VERTEX
8
OBJECT__51
10
0
20
0
30
0
70
128
71
53
72
51
73
33
0
VERTEX
8
OBJECT__51
10
0
20
0
30
0
70
128
71
28
72
54
73
55
0
VERTEX
8
OBJECT__51
10
0
20
0
30
0
70
128
71
28
72
56
73
57
0
VERTEX
8
OBJECT__51
10
0
20
0
30
0
70
128
71
28
72
58
73
56
0
VERTEX
8
OBJECT__51
10
0
20
0
30
0
70
128
71
28
72
40
73
59
0
VERTEX
8
OBJECT__51
10
0
20
0
30
0
70
128
71
59
72
58
73
28
0
VERTEX
8
OBJECT__51
10
0
20
0
30
0
70
128
71
57
72
54
73
28
0
VERTEX
8
OBJECT__51
10
0
20
0
30
0
70
128
71
55
72
33
73
28
0
VERTEX
8
OBJECT__51
10
0
20
0
30
0
70
128
71
55
72
52
73
33
0
VERTEX
8
OBJECT__51
10
0
20
0
30
0
70
128
71
60
72
61
73
62
0
VERTEX
8
OBJECT__51
10
0
20
0
30
0
70
128
71
60
72
49
73
63
0
VERTEX
8
OBJECT__51
10
0
20
0
30
0
70
128
71
49
72
64
73
63
0
VERTEX
8
OBJECT__51
10
0
20
0
30
0
70
128
71
49
72
65
73
64
0
VERTEX
8
OBJECT__51
10
0
20
0
30
0
70
128
71
63
72
61
73
60
0
VERTEX
8
OBJECT__51
10
0
20
0
30
0
70
128
71
62
72
66
73
60
0
VERTEX
8
OBJECT__51
10
0
20
0
30
0
70
128
71
67
72
68
73
46
0
VERTEX
8
OBJECT__51
10
0
20
0
30
0
70
128
71
67
72
69
73
68
0
VERTEX
8
OBJECT__51
10
0
20
0
30
0
70
128
71
67
72
70
73
69
0
VERTEX
8
OBJECT__51
10
0
20
0
30
0
70
128
71
71
72
72
73
73
0
VERTEX
8
OBJECT__51
10
0
20
0
30
0
70
128
71
73
72
67
73
71
0
VERTEX
8
OBJECT__51
10
0
20
0
30
0
70
128
71
71
72
74
73
72
0
VERTEX
8
OBJECT__51
10
0
20
0
30
0
70
128
71
71
72
75
73
76
0
VERTEX
8
OBJECT__51
10
0
20
0
30
0
70
128
71
76
72
77
73
71
0
VERTEX
8
OBJECT__51
10
0
20
0
30
0
70
128
71
66
72
78
73
75
0
VERTEX
8
OBJECT__51
10
0
20
0
30
0
70
128
71
75
72
71
73
66
0
VERTEX
8
OBJECT__51
10
0
20
0
30
0
70
128
71
77
72
74
73
71
0
VERTEX
8
OBJECT__51
10
0
20
0
30
0
70
128
71
73
72
70
73
67
0
VERTEX
8
OBJECT__51
10
0
20
0
30
0
70
128
71
79
72
80
73
81
0
VERTEX
8
OBJECT__51
10
0
20
0
30
0
70
128
71
81
72
82
73
79
0
VERTEX
8
OBJECT__51
10
0
20
0
30
0
70
128
71
83
72
84
73
80
0
VERTEX
8
OBJECT__51
10
0
20
0
30
0
70
128
71
80
72
79
73
83
0
VERTEX
8
OBJECT__51
10
0
20
0
30
0
70
128
71
83
72
85
73
84
0
VERTEX
8
OBJECT__51
10
0
20
0
30
0
70
128
71
71
72
86
73
87
0
VERTEX
8
OBJECT__51
10
0
20
0
30
0
70
128
71
71
72
88
73
89
0
VERTEX
8
OBJECT__51
10
0
20
0
30
0
70
128
71
89
72
90
73
71
0
VERTEX
8
OBJECT__51
10
0
20
0
30
0
70
128
71
90
72
86
73
71
0
VERTEX
8
OBJECT__51
10
0
20
0
30
0
70
128
71
71
72
91
73
88
0
VERTEX
8
OBJECT__51
10
0
20
0
30
0
70
128
71
67
72
92
73
91
0
VERTEX
8
OBJECT__51
10
0
20
0
30
0
70
128
71
91
72
71
73
67
0
VERTEX
8
OBJECT__51
10
0
20
0
30
0
70
128
71
67
72
93
73
94
0
VERTEX
8
OBJECT__51
10
0
20
0
30
0
70
128
71
67
72
79
73
95
0
VERTEX
8
OBJECT__51
10
0
20
0
30
0
70
128
71
95
72
96
73
67
0
VERTEX
8
OBJECT__51
10
0
20
0
30
0
70
128
71
96
72
93
73
67
0
VERTEX
8
OBJECT__51
10
0
20
0
30
0
70
128
71
94
72
92
73
67
0
VERTEX
8
OBJECT__51
10
0
20
0
30
0
70
128
71
97
72
98
73
99
0
VERTEX
8
OBJECT__51
10
0
20
0
30
0
70
128
71
99
72
100
73
97
0
VERTEX
8
OBJECT__51
10
0
20
0
30
0
70
128
71
100
72
101
73
97
0
VERTEX
8
OBJECT__51
10
0
20
0
30
0
70
128
71
98
72
102
73
103
0
VERTEX
8
OBJECT__51
10
0
20
0
30
0
70
128
71
103
72
99
73
98
0
VERTEX
8
OBJECT__51
10
0
20
0
30
0
70
128
71
98
72
87
73
102
0
VERTEX
8
OBJECT__51
10
0
20
0
30
0
70
128
71
15
72
104
73
85
0
VERTEX
8
OBJECT__51
10
0
20
0
30
0
70
128
71
15
72
105
73
106
0
VERTEX
8
OBJECT__51
10
0
20
0
30
0
70
128
71
15
72
107
73
105
0
VERTEX
8
OBJECT__51
10
0
20
0
30
0
70
128
71
106
72
104
73
15
0
VERTEX
8
OBJECT__51
10
0
20
0
30
0
70
128
71
15
72
8
73
108
0
VERTEX
8
OBJECT__51
10
0
20
0
30
0
70
128
71
8
72
109
73
110
0
VERTEX
8
OBJECT__51
10
0
20
0
30
0
70
128
71
110
72
108
73
8
0
VERTEX
8
OBJECT__51
10
0
20
0
30
0
70
128
71
108
72
107
73
15
0
VERTEX
8
OBJECT__51
10
0
20
0
30
0
70
128
71
8
72
97
73
111
0
VERTEX
8
OBJECT__51
10
0
20
0
30
0
70
128
71
111
72
112
73
8
0
VERTEX
8
OBJECT__51
10
0
20
0
30
0
70
128
71
112
72
113
73
8
0
VERTEX
8
OBJECT__51
10
0
20
0
30
0
70
128
71
113
72
109
73
8
0
VERTEX
8
OBJECT__51
10
0
20
0
30
0
70
128
71
85
72
83
73
15
0
VERTEX
8
OBJECT__51
10
0
20
0
30
0
70
128
71
101
72
111
73
97
0
VERTEX
8
OBJECT__51
10
0
20
0
30
0
70
128
71
87
72
98
73
71
0
VERTEX
8
OBJECT__51
10
0
20
0
30
0
70
128
71
82
72
95
73
79
0
VERTEX
8
OBJECT__51
10
0
20
0
30
0
70
128
71
46
72
44
73
67
0
VERTEX
8
OBJECT__51
10
0
20
0
30
0
70
128
71
62
72
78
73
66
0
VERTEX
8
OBJECT__51
10
0
20
0
30
0
70
128
71
50
72
65
73
49
0
VERTEX
8
OBJECT__51
10
0
20
0
30
0
70
128
71
48
72
59
73
40
0
VERTEX
8
OBJECT__51
10
0
20
0
30
0
70
128
71
7
72
5
73
28
0
VERTEX
8
OBJECT__51
10
0
20
0
30
0
70
128
71
25
72
37
73
21
0
VERTEX
8
OBJECT__51
10
0
20
0
30
0
70
128
71
10
72
22
73
8
0
VERTEX
8
OBJECT__51
10
0
20
0
30
0
70
128
71
4
72
19
73
1
0
SEQEND
8
OBJECT__51
0
POLYLINE
8
OBJECT__52
66
1
70
64
71
10
72
8
62
253
0
VERTEX
8
OBJECT__52
10
80.000000
20
-18.000000
30
79.750000
70
192
0
VERTEX
8
OBJECT__52
10
80.000000
20
-14.665000
30
60.838001
70
192
0
VERTEX
8
OBJECT__52
10
80.000000
20
-9.556000
30
65.125000
70
192
0
VERTEX
8
OBJECT__52
10
80.000000
20
-26.444000
30
65.125000
70
192
0
VERTEX
8
OBJECT__52
10
80.000000
20
-24.267000
30
77.469002
70
192
0
VERTEX
8
OBJECT__52
10
80.000000
20
-8.398000
30
71.693001
70
192
0
VERTEX
8
OBJECT__52
10
80.000000
20
-27.601999
30
71.693001
70
192
0
VERTEX
8
OBJECT__52
10
80.000000
20
-18.000000
30
60.250000
70
192
0
VERTEX
8
OBJECT__52
10
80.000000
20
-21.334999
30
60.838001
70
192
0
VERTEX
8
OBJECT__52
10
80.000000
20
-11.733000
30
77.469002
70
192
0
VERTEX
8
OBJECT__52
10
0
20
0
30
0
70
128
71
1
72
2
73
3
0
VERTEX
8
OBJECT__52
10
0
20
0
30
0
70
128
71
4
72
1
73
5
0
VERTEX
8
OBJECT__52
10
0
20
0
30
0
70
128
71
3
72
6
73
1
0
VERTEX
8
OBJECT__52
10
0
20
0
30
0
70
128
71
5
72
7
73
4
0
VERTEX
8
OBJECT__52
10
0
20
0
30
0
70
128
71
1
72
8
73
2
0
VERTEX
8
OBJECT__52
10
0
20
0
30
0
70
128
71
4
72
9
73
1
0
VERTEX
8
OBJECT__52
10
0
20
0
30
0
70
128
71
9
72
8
73
1
0
VERTEX
8
OBJECT__52
10
0
20
0
30
0
70
128
71
6
72
10
73
1
0
SEQEND
8
OBJECT__52
0
POLYLINE
8
OBJECT__53
66
1
70
64
71
39
72
39
62
253
0
VERTEX
8
OBJECT__53
10
72.500000
20
-53.476002
30
83.554001
70
192
0
VERTEX
8
OBJECT__53
10
76.427002
20
-27.742001
30
70.386002
70
192
0
VERTEX
8
OBJECT__53
10
77.139999
20
-27.635000
30
71.293999
70
192
0
VERTEX
8
OBJECT__53
10
72.994003
20
-27.659000
30
68.671997
70
192
0
VERTEX
8
OBJECT__53
10
74.632004
20
-27.711000
30
69.130997
70
192
0
VERTEX
8
OBJECT__53
10
72.500000
20
-27.656000
30
68.646004
70
192
0
VERTEX
8
OBJECT__53
10
77.191002
20
-52.346001
30
85.510002
70
192
0
VERTEX
8
OBJECT__53
10
78.287003
20
-27.124001
30
73.438004
70
192
0
VERTEX
8
OBJECT__53
10
78.497002
20
-26.349001
30
75.035004
70
192
0
VERTEX
8
OBJECT__53
10
78.349998
20
-49.807999
30
89.905998
70
192
0
VERTEX
8
OBJECT__53
10
78.500000
20
-50.476002
30
88.750000
70
192
0
VERTEX
8
OBJECT__53
10
77.452003
20
-27.587999
30
71.691002
70
192
0
VERTEX
8
OBJECT__53
10
77.612000
20
-27.563999
30
71.894997
70
192
0
VERTEX
8
OBJECT__53
10
75.102997
20
-47.772999
30
93.431999
70
192
0
VERTEX
8
OBJECT__53
10
76.944000
20
-23.673000
30
77.930000
70
192
0
VERTEX
8
OBJECT__53
10
75.510002
20
-22.552999
30
78.622002
70
192
0
VERTEX
8
OBJECT__53
10
78.078003
20
-25.118999
30
76.662003
70
192
0
VERTEX
8
OBJECT__53
10
77.387001
20
-24.237000
30
77.434998
70
192
0
VERTEX
8
OBJECT__53
10
78.263000
20
-25.662001
30
75.944000
70
192
0
VERTEX
8
OBJECT__53
10
69.897003
20
-47.772999
30
93.431999
70
192
0
VERTEX
8
OBJECT__53
10
74.044998
20
-21.889999
30
78.940002
70
192
0
VERTEX
8
OBJECT__53
10
72.411003
20
-21.656000
30
79.038002
70
192
0
VERTEX
8
OBJECT__53
10
70.790001
20
-21.943001
30
78.917000
70
192
0
VERTEX
8
OBJECT__53
10
75.086998
20
-22.361000
30
78.713997
70
192
0
VERTEX
8
OBJECT__53
10
66.811996
20
-25.325001
30
76.433998
70
192
0
VERTEX
8
OBJECT__53
10
66.707001
20
-25.673000
30
75.959999
70
192
0
VERTEX
8
OBJECT__53
10
67.581001
20
-24.184999
30
77.537003
70
192
0
VERTEX
8
OBJECT__53
10
67.528999
20
-24.261999
30
77.462997
70
192
0
VERTEX
8
OBJECT__53
10
69.939003
20
-22.396999
30
78.682999
70
192
0
VERTEX
8
OBJECT__53
10
68.883003
20
-22.962000
30
78.392998
70
192
0
VERTEX
8
OBJECT__53
10
67.808998
20
-52.346001
30
85.510002
70
192
0
VERTEX
8
OBJECT__53
10
66.776001
20
-27.198000
30
73.234001
70
192
0
VERTEX
8
OBJECT__53
10
67.582001
20
-27.569000
30
71.684998
70
192
0
VERTEX
8
OBJECT__53
10
67.788002
20
-27.664000
30
71.290001
70
192
0
VERTEX
8
OBJECT__53
10
66.650002
20
-49.807999
30
89.905998
70
192
0
VERTEX
8
OBJECT__53
10
66.502998
20
-26.346001
30
75.041000
70
192
0
VERTEX
8
OBJECT__53
10
69.190002
20
-27.749001
30
69.849998
70
192
0
VERTEX
8
OBJECT__53
10
70.739998
20
-27.695999
30
68.973999
70
192
0
VERTEX
8
OBJECT__53
10
67.813004
20
-27.666000
30
71.264999
70
192
0
VERTEX
8
OBJECT__53
10
0
20
0
30
0
70
128
71
1
72
2
73
3
0
VERTEX
8
OBJECT__53
10
0
20
0
30
0
70
128
71
1
72
4
73
5
0
VERTEX
8
OBJECT__53
10
0
20
0
30
0
70
128
71
1
72
6
73
4
0
VERTEX
8
OBJECT__53
10
0
20
0
30
0
70
128
71
5
72
2
73
1
0
VERTEX
8
OBJECT__53
10
0
20
0
30
0
70
128
71
7
72
8
73
9
0
VERTEX
8
OBJECT__53
10
0
20
0
30
0
70
128
71
9
72
10
73
11
0
VERTEX
8
OBJECT__53
10
0
20
0
30
0
70
128
71
7
72
3
73
12
0
VERTEX
8
OBJECT__53
10
0
20
0
30
0
70
128
71
12
72
13
73
7
0
VERTEX
8
OBJECT__53
10
0
20
0
30
0
70
128
71
13
72
8
73
7
0
VERTEX
8
OBJECT__53
10
0
20
0
30
0
70
128
71
9
72
11
73
7
0
VERTEX
8
OBJECT__53
10
0
20
0
30
0
70
128
71
14
72
15
73
16
0
VERTEX
8
OBJECT__53
10
0
20
0
30
0
70
128
71
14
72
17
73
18
0
VERTEX
8
OBJECT__53
10
0
20
0
30
0
70
128
71
18
72
15
73
14
0
VERTEX
8
OBJECT__53
10
0
20
0
30
0
70
128
71
14
72
10
73
19
0
VERTEX
8
OBJECT__53
10
0
20
0
30
0
70
128
71
19
72
17
73
14
0
VERTEX
8
OBJECT__53
10
0
20
0
30
0
70
128
71
20
72
21
73
22
0
VERTEX
8
OBJECT__53
10
0
20
0
30
0
70
128
71
22
72
23
73
20
0
VERTEX
8
OBJECT__53
10
0
20
0
30
0
70
128
71
20
72
14
73
24
0
VERTEX
8
OBJECT__53
10
0
20
0
30
0
70
128
71
24
72
21
73
20
0
VERTEX
8
OBJECT__53
10
0
20
0
30
0
70
128
71
20
72
25
73
26
0
VERTEX
8
OBJECT__53
10
0
20
0
30
0
70
128
71
20
72
27
73
28
0
VERTEX
8
OBJECT__53
10
0
20
0
30
0
70
128
71
20
72
29
73
30
0
VERTEX
8
OBJECT__53
10
0
20
0
30
0
70
128
71
30
72
27
73
20
0
VERTEX
8
OBJECT__53
10
0
20
0
30
0
70
128
71
28
72
25
73
20
0
VERTEX
8
OBJECT__53
10
0
20
0
30
0
70
128
71
31
72
32
73
33
0
VERTEX
8
OBJECT__53
10
0
20
0
30
0
70
128
71
33
72
34
73
31
0
VERTEX
8
OBJECT__53
10
0
20
0
30
0
70
128
71
31
72
35
73
36
0
VERTEX
8
OBJECT__53
10
0
20
0
30
0
70
128
71
36
72
32
73
31
0
VERTEX
8
OBJECT__53
10
0
20
0
30
0
70
128
71
35
72
26
73
36
0
VERTEX
8
OBJECT__53
10
0
20
0
30
0
70
128
71
1
72
37
73
38
0
VERTEX
8
OBJECT__53
10
0
20
0
30
0
70
128
71
1
72
31
73
39
0
VERTEX
8
OBJECT__53
10
0
20
0
30
0
70
128
71
39
72
37
73
1
0
VERTEX
8
OBJECT__53
10
0
20
0
30
0
70
128
71
38
72
6
73
1
0
VERTEX
8
OBJECT__53
10
0
20
0
30
0
70
128
71
34
72
39
73
31
0
VERTEX
8
OBJECT__53
10
0
20
0
30
0
70
128
71
26
72
35
73
20
0
VERTEX
8
OBJECT__53
10
0
20
0
30
0
70
128
71
23
72
29
73
20
0
VERTEX
8
OBJECT__53
10
0
20
0
30
0
70
128
71
16
72
24
73
14
0
VERTEX
8
OBJECT__53
10
0
20
0
30
0
70
128
71
9
72
19
73
10
0
VERTEX
8
OBJECT__53
10
0
20
0
30
0
70
128
71
3
72
7
73
1
0
SEQEND
8
OBJECT__53
0
POLYLINE
8
OBJECT__54
66
1
70
64
71
8
72
6
62
253
0
VERTEX
8
OBJECT__54
10
66.650002
20
-49.807999
30
89.905998
70
192
0
VERTEX
8
OBJECT__54
10
78.349998
20
-49.807999
30
89.905998
70
192
0
VERTEX
8
OBJECT__54
10
75.102997
20
-47.772999
30
93.431999
70
192
0
VERTEX
8
OBJECT__54
10
67.808998
20
-52.346001
30
85.510002
70
192
0
VERTEX
8
OBJECT__54
10
72.500000
20
-53.476002
30
83.554001
70
192
0
VERTEX
8
OBJECT__54
10
78.500000
20
-50.476002
30
88.750000
70
192
0
VERTEX
8
OBJECT__54
10
77.191002
20
-52.346001
30
85.510002
70
192
0
VERTEX
8
OBJECT__54
10
69.897003
20
-47.772999
30
93.431999
70
192
0
VERTEX
8
OBJECT__54
10
0
20
0
30
0
70
128
71
1
72
2
73
3
0
VERTEX
8
OBJECT__54
10
0
20
0
30
0
70
128
71
1
72
4
73
5
0
VERTEX
8
OBJECT__54
10
0
20
0
30
0
70
128
71
1
72
6
73
2
0
VERTEX
8
OBJECT__54
10
0
20
0
30
0
70
128
71
5
72
7
73
1
0
VERTEX
8
OBJECT__54
10
0
20
0
30
0
70
128
71
7
72
6
73
1
0
VERTEX
8
OBJECT__54
10
0
20
0
30
0
70
128
71
3
72
8
73
1
0
SEQEND
8
OBJECT__54
0
POLYLINE
8
OBJECT__55
66
1
70
64
71
39
72
39
62
253
0
VERTEX
8
OBJECT__55
10
72.500000
20
-12.000000
30
32.500000
70
192
0
VERTEX
8
OBJECT__55
10
75.809998
20
-12.995000
30
61.632000
70
192
0
VERTEX
8
OBJECT__55
10
77.186996
20
-14.263000
30
60.997002
70
192
0
VERTEX
8
OBJECT__55
10
72.500000
20
-12.000000
30
62.314999
70
192
0
VERTEX
8
OBJECT__55
10
74.260002
20
-12.264000
30
62.116001
70
192
0
VERTEX
8
OBJECT__55
10
77.191002
20
-14.259000
30
32.500000
70
192
0
VERTEX
8
OBJECT__55
10
78.223999
20
-16.202000
30
60.417000
70
192
0
VERTEX
8
OBJECT__55
10
78.497002
20
-18.191999
30
60.251999
70
192
0
VERTEX
8
OBJECT__55
10
77.211998
20
-14.285000
30
60.985001
70
192
0
VERTEX
8
OBJECT__55
10
77.417999
20
-14.675000
30
60.869999
70
192
0
VERTEX
8
OBJECT__55
10
78.349998
20
-19.334999
30
32.500000
70
192
0
VERTEX
8
OBJECT__55
10
75.102997
20
-23.406000
30
32.500000
70
192
0
VERTEX
8
OBJECT__55
10
77.418999
20
-21.434999
30
60.875000
70
192
0
VERTEX
8
OBJECT__55
10
76.116997
20
-22.787001
30
61.506001
70
192
0
VERTEX
8
OBJECT__55
10
78.188004
20
-19.910000
30
60.438999
70
192
0
VERTEX
8
OBJECT__55
10
77.471001
20
-21.332001
30
60.846001
70
192
0
VERTEX
8
OBJECT__55
10
78.292999
20
-19.325001
30
60.375000
70
192
0
VERTEX
8
OBJECT__55
10
72.500000
20
-24.000000
30
32.500000
70
192
0
VERTEX
8
OBJECT__55
10
75.060997
20
-23.320999
30
61.849998
70
192
0
VERTEX
8
OBJECT__55
10
74.209999
20
-23.750999
30
62.126999
70
192
0
VERTEX
8
OBJECT__55
10
70.955002
20
-23.798000
30
62.160999
70
192
0
VERTEX
8
OBJECT__55
10
69.913002
20
-23.365999
30
61.866001
70
192
0
VERTEX
8
OBJECT__55
10
72.588997
20
-23.999001
30
62.313999
70
192
0
VERTEX
8
OBJECT__55
10
69.897003
20
-23.406000
30
32.500000
70
192
0
VERTEX
8
OBJECT__55
10
66.921997
20
-20.209999
30
60.504002
70
192
0
VERTEX
8
OBJECT__55
10
66.737000
20
-19.316999
30
60.393002
70
192
0
VERTEX
8
OBJECT__55
10
68.056000
20
-22.031000
30
61.122002
70
192
0
VERTEX
8
OBJECT__55
10
67.612999
20
-21.320000
30
60.881001
70
192
0
VERTEX
8
OBJECT__55
10
69.489998
20
-23.190001
30
61.745998
70
192
0
VERTEX
8
OBJECT__55
10
67.808998
20
-14.259000
30
32.500000
70
192
0
VERTEX
8
OBJECT__55
10
67.388000
20
-14.859000
30
60.770000
70
192
0
VERTEX
8
OBJECT__55
10
67.547997
20
-14.671000
30
60.851002
70
192
0
VERTEX
8
OBJECT__55
10
66.712997
20
-16.415001
30
60.380001
70
192
0
VERTEX
8
OBJECT__55
10
66.650002
20
-19.334999
30
32.500000
70
192
0
VERTEX
8
OBJECT__55
10
66.502998
20
-18.186001
30
60.251999
70
192
0
VERTEX
8
OBJECT__55
10
68.572998
20
-13.463000
30
61.369999
70
192
0
VERTEX
8
OBJECT__55
10
70.367996
20
-12.391000
30
62.025002
70
192
0
VERTEX
8
OBJECT__55
10
72.005997
20
-12.020000
30
62.299000
70
192
0
VERTEX
8
OBJECT__55
10
67.860001
20
-14.303000
30
61.008999
70
192
0
VERTEX
8
OBJECT__55
10
0
20
0
30
0
70
128
71
1
72
2
73
3
0
VERTEX
8
OBJECT__55
10
0
20
0
30
0
70
128
71
1
72
4
73
5
0
VERTEX
8
OBJECT__55
10
0
20
0
30
0
70
128
71
5
72
2
73
1
0
VERTEX
8
OBJECT__55
10
0
20
0
30
0
70
128
71
6
72
7
73
8
0
VERTEX
8
OBJECT__55
10
0
20
0
30
0
70
128
71
6
72
3
73
9
0
VERTEX
8
OBJECT__55
10
0
20
0
30
0
70
128
71
9
72
10
73
6
0
VERTEX
8
OBJECT__55
10
0
20
0
30
0
70
128
71
10
72
7
73
6
0
VERTEX
8
OBJECT__55
10
0
20
0
30
0
70
128
71
8
72
11
73
6
0
VERTEX
8
OBJECT__55
10
0
20
0
30
0
70
128
71
12
72
13
73
14
0
VERTEX
8
OBJECT__55
10
0
20
0
30
0
70
128
71
12
72
15
73
16
0
VERTEX
8
OBJECT__55
10
0
20
0
30
0
70
128
71
16
72
13
73
12
0
VERTEX
8
OBJECT__55
10
0
20
0
30
0
70
128
71
12
72
11
73
17
0
VERTEX
8
OBJECT__55
10
0
20
0
30
0
70
128
71
17
72
15
73
12
0
VERTEX
8
OBJECT__55
10
0
20
0
30
0
70
128
71
18
72
12
73
19
0
VERTEX
8
OBJECT__55
10
0
20
0
30
0
70
128
71
19
72
20
73
18
0
VERTEX
8
OBJECT__55
10
0
20
0
30
0
70
128
71
18
72
21
73
22
0
VERTEX
8
OBJECT__55
10
0
20
0
30
0
70
128
71
18
72
23
73
21
0
VERTEX
8
OBJECT__55
10
0
20
0
30
0
70
128
71
22
72
24
73
18
0
VERTEX
8
OBJECT__55
10
0
20
0
30
0
70
128
71
24
72
25
73
26
0
VERTEX
8
OBJECT__55
10
0
20
0
30
0
70
128
71
24
72
27
73
28
0
VERTEX
8
OBJECT__55
10
0
20
0
30
0
70
128
71
24
72
22
73
29
0
VERTEX
8
OBJECT__55
10
0
20
0
30
0
70
128
71
29
72
27
73
24
0
VERTEX
8
OBJECT__55
10
0
20
0
30
0
70
128
71
28
72
25
73
24
0
VERTEX
8
OBJECT__55
10
0
20
0
30
0
70
128
71
30
72
31
73
32
0
VERTEX
8
OBJECT__55
10
0
20
0
30
0
70
128
71
30
72
33
73
31
0
VERTEX
8
OBJECT__55
10
0
20
0
30
0
70
128
71
30
72
34
73
35
0
VERTEX
8
OBJECT__55
10
0
20
0
30
0
70
128
71
35
72
33
73
30
0
VERTEX
8
OBJECT__55
10
0
20
0
30
0
70
128
71
34
72
26
73
35
0
VERTEX
8
OBJECT__55
10
0
20
0
30
0
70
128
71
1
72
36
73
37
0
VERTEX
8
OBJECT__55
10
0
20
0
30
0
70
128
71
37
72
38
73
1
0
VERTEX
8
OBJECT__55
10
0
20
0
30
0
70
128
71
1
72
30
73
39
0
VERTEX
8
OBJECT__55
10
0
20
0
30
0
70
128
71
39
72
36
73
1
0
VERTEX
8
OBJECT__55
10
0
20
0
30
0
70
128
71
38
72
4
73
1
0
VERTEX
8
OBJECT__55
10
0
20
0
30
0
70
128
71
32
72
39
73
30
0
VERTEX
8
OBJECT__55
10
0
20
0
30
0
70
128
71
26
72
34
73
24
0
VERTEX
8
OBJECT__55
10
0
20
0
30
0
70
128
71
20
72
23
73
18
0
VERTEX
8
OBJECT__55
10
0
20
0
30
0
70
128
71
14
72
19
73
12
0
VERTEX
8
OBJECT__55
10
0
20
0
30
0
70
128
71
8
72
17
73
11
0
VERTEX
8
OBJECT__55
10
0
20
0
30
0
70
128
71
3
72
6
73
1
0
SEQEND
8
OBJECT__55
0
POLYLINE
8
OBJECT__56
66
1
70
64
71
8
72
6
62
253
0
VERTEX
8
OBJECT__56
10
72.500000
20
-12.000000
30
32.500000
70
192
0
VERTEX
8
OBJECT__56
10
69.897003
20
-23.406000
30
32.500000
70
192
0
VERTEX
8
OBJECT__56
10
66.650002
20
-19.334999
30
32.500000
70
192
0
VERTEX
8
OBJECT__56
10
77.191002
20
-14.259000
30
32.500000
70
192
0
VERTEX
8
OBJECT__56
10
78.349998
20
-19.334999
30
32.500000
70
192
0
VERTEX
8
OBJECT__56
10
72.500000
20
-24.000000
30
32.500000
70
192
0
VERTEX
8
OBJECT__56
10
75.102997
20
-23.406000
30
32.500000
70
192
0
VERTEX
8
OBJECT__56
10
67.808998
20
-14.259000
30
32.500000
70
192
0
VERTEX
8
OBJECT__56
10
0
20
0
30
0
70
128
71
1
72
2
73
3
0
VERTEX
8
OBJECT__56
10
0
20
0
30
0
70
128
71
1
72
4
73
5
0
VERTEX
8
OBJECT__56
10
0
20
0
30
0
70
128
71
1
72
6
73
2
0
VERTEX
8
OBJECT__56
10
0
20
0
30
0
70
128
71
5
72
7
73
1
0
VERTEX
8
OBJECT__56
10
0
20
0
30
0
70
128
71
7
72
6
73
1
0
VERTEX
8
OBJECT__56
10
0
20
0
30
0
70
128
71
3
72
8
73
1
0
SEQEND
8
OBJECT__56
0
POLYLINE
8
OBJECT__57
66
1
70
64
71
21
72
21
62
253
0
VERTEX
8
OBJECT__57
10
57.000000
20
-13.816000
30
55.751999
70
192
0
VERTEX
8
OBJECT__57
10
57.000000
20
-6.777000
30
60.275002
70
192
0
VERTEX
8
OBJECT__57
10
57.000000
20
-13.592000
30
63.931999
70
192
0
VERTEX
8
OBJECT__57
10
57.000000
20
-3.301000
30
67.887001
70
192
0
VERTEX
8
OBJECT__57
10
57.000000
20
-10.867000
30
67.681999
70
192
0
VERTEX
8
OBJECT__57
10
57.000000
20
-26.028999
30
82.492996
70
192
0
VERTEX
8
OBJECT__57
10
57.000000
20
-22.408001
30
76.068001
70
192
0
VERTEX
8
OBJECT__57
10
57.000000
20
-18.000000
30
77.500000
70
192
0
VERTEX
8
OBJECT__57
10
57.000000
20
-31.507999
30
76.168999
70
192
0
VERTEX
8
OBJECT__57
10
57.000000
20
-25.132999
30
72.318001
70
192
0
VERTEX
8
OBJECT__57
10
57.000000
20
-4.492000
30
76.168999
70
192
0
VERTEX
8
OBJECT__57
10
57.000000
20
-10.867000
30
72.318001
70
192
0
VERTEX
8
OBJECT__57
10
57.000000
20
-9.971000
30
82.492996
70
192
0
VERTEX
8
OBJECT__57
10
57.000000
20
-13.592000
30
76.068001
70
192
0
VERTEX
8
OBJECT__57
10
57.000000
20
-18.000000
30
84.849998
70
192
0
VERTEX
8
OBJECT__57
10
57.000000
20
-32.699001
30
67.887001
70
192
0
VERTEX
8
OBJECT__57
10
57.000000
20
-25.132999
30
67.681999
70
192
0
VERTEX
8
OBJECT__57
10
57.000000
20
-29.223000
30
60.275002
70
192
0
VERTEX
8
OBJECT__57
10
57.000000
20
-22.408001
30
63.931999
70
192
0
VERTEX
8
OBJECT__57
10
57.000000
20
-22.184000
30
55.751999
70
192
0
VERTEX
8
OBJECT__57
10
57.000000
20
-18.000000
30
62.500000
70
192
0
VERTEX
8
OBJECT__57
10
0
20
0
30
0
70
128
71
1
72
2
73
3
0
VERTEX
8
OBJECT__57
10
0
20
0
30
0
70
128
71
2
72
4
73
5
0
VERTEX
8
OBJECT__57
10
0
20
0
30
0
70
128
71
6
72
7
73
8
0
VERTEX
8
OBJECT__57
10
0
20
0
30
0
70
128
71
9
72
10
73
7
0
VERTEX
8
OBJECT__57
10
0
20
0
30
0
70
128
71
5
72
3
73
2
0
VERTEX
8
OBJECT__57
10
0
20
0
30
0
70
128
71
4
72
11
73
12
0
VERTEX
8
OBJECT__57
10
0
20
0
30
0
70
128
71
11
72
13
73
14
0
VERTEX
8
OBJECT__57
10
0
20
0
30
0
70
128
71
13
72
15
73
8
0
VERTEX
8
OBJECT__57
10
0
20
0
30
0
70
128
71
7
72
6
73
9
0
VERTEX
8
OBJECT__57
10
0
20
0
30
0
70
128
71
16
72
17
73
10
0
VERTEX
8
OBJECT__57
10
0
20
0
30
0
70
128
71
18
72
19
73
17
0
VERTEX
8
OBJECT__57
10
0
20
0
30
0
70
128
71
20
72
21
73
19
0
VERTEX
8
OBJECT__57
10
0
20
0
30
0
70
128
71
12
72
5
73
4
0
VERTEX
8
OBJECT__57
10
0
20
0
30
0
70
128
71
8
72
14
73
13
0
VERTEX
8
OBJECT__57
10
0
20
0
30
0
70
128
71
10
72
9
73
16
0
VERTEX
8
OBJECT__57
10
0
20
0
30
0
70
128
71
19
72
18
73
20
0
VERTEX
8
OBJECT__57
10
0
20
0
30
0
70
128
71
14
72
12
73
11
0
VERTEX
8
OBJECT__57
10
0
20
0
30
0
70
128
71
17
72
16
73
18
0
VERTEX
8
OBJECT__57
10
0
20
0
30
0
70
128
71
8
72
15
73
6
0
VERTEX
8
OBJECT__57
10
0
20
0
30
0
70
128
71
3
72
21
73
1
0
VERTEX
8
OBJECT__57
10
0
20
0
30
0
70
128
71
21
72
20
73
1
0
SEQEND
8
OBJECT__57
0
POLYLINE
8
OBJECT__58
66
1
70
64
71
23
72
23
62
253
0
VERTEX
8
OBJECT__58
10
57.000000
20
-9.971000
30
82.492996
70
192
0
VERTEX
8
OBJECT__58
10
35.000000
20
-9.971000
30
82.492996
70
192
0
VERTEX
8
OBJECT__58
10
35.000000
20
-18.000000
30
84.849998
70
192
0
VERTEX
8
OBJECT__58
10
57.000000
20
-4.492000
30
76.168999
70
192
0
VERTEX
8
OBJECT__58
10
35.000000
20
-4.492000
30
76.168999
70
192
0
VERTEX
8
OBJECT__58
10
57.000000
20
-3.301000
30
67.887001
70
192
0
VERTEX
8
OBJECT__58
10
35.000000
20
-3.301000
30
67.887001
70
192
0
VERTEX
8
OBJECT__58
10
57.000000
20
-6.777000
30
60.275002
70
192
0
VERTEX
8
OBJECT__58
10
35.000000
20
-6.777000
30
60.275002
70
192
0
VERTEX
8
OBJECT__58
10
57.000000
20
-13.816000
30
55.751999
70
192
0
VERTEX
8
OBJECT__58
10
35.000000
20
-13.816000
30
55.751999
70
192
0
VERTEX
8
OBJECT__58
10
57.000000
20
-22.184000
30
55.751999
70
192
0
VERTEX
8
OBJECT__58
10
35.000000
20
-22.184000
30
55.751999
70
192
0
VERTEX
8
OBJECT__58
10
35.000000
20
-18.000000
30
55.150002
70
192
0
VERTEX
8
OBJECT__58
10
57.000000
20
-29.223000
30
60.275002
70
192
0
VERTEX
8
OBJECT__58
10
35.000000
20
-29.223000
30
60.275002
70
192
0
VERTEX
8
OBJECT__58
10
57.000000
20
-32.699001
30
67.887001
70
192
0
VERTEX
8
OBJECT__58
10
35.000000
20
-32.699001
30
67.887001
70
192
0
VERTEX
8
OBJECT__58
10
57.000000
20
-31.507999
30
76.168999
70
192
0
VERTEX
8
OBJECT__58
10
35.000000
20
-31.507999
30
76.168999
70
192
0
VERTEX
8
OBJECT__58
10
57.000000
20
-26.028999
30
82.492996
70
192
0
VERTEX
8
OBJECT__58
10
35.000000
20
-26.028999
30
82.492996
70
192
0
VERTEX
8
OBJECT__58
10
57.000000
20
-18.000000
30
84.849998
70
192
0
VERTEX
8
OBJECT__58
10
0
20
0
30
0
70
128
71
1
72
2
73
3
0
VERTEX
8
OBJECT__58
10
0
20
0
30
0
70
128
71
4
72
5
73
2
0
VERTEX
8
OBJECT__58
10
0
20
0
30
0
70
128
71
6
72
7
73
5
0
VERTEX
8
OBJECT__58
10
0
20
0
30
0
70
128
71
8
72
9
73
7
0
VERTEX
8
OBJECT__58
10
0
20
0
30
0
70
128
71
10
72
11
73
9
0
VERTEX
8
OBJECT__58
10
0
20
0
30
0
70
128
71
12
72
13
73
14
0
VERTEX
8
OBJECT__58
10
0
20
0
30
0
70
128
71
14
72
10
73
12
0
VERTEX
8
OBJECT__58
10
0
20
0
30
0
70
128
71
15
72
16
73
13
0
VERTEX
8
OBJECT__58
10
0
20
0
30
0
70
128
71
17
72
18
73
16
0
VERTEX
8
OBJECT__58
10
0
20
0
30
0
70
128
71
19
72
20
73
18
0
VERTEX
8
OBJECT__58
10
0
20
0
30
0
70
128
71
21
72
22
73
20
0
VERTEX
8
OBJECT__58
10
0
20
0
30
0
70
128
71
23
72
3
73
22
0
VERTEX
8
OBJECT__58
10
0
20
0
30
0
70
128
71
22
72
21
73
23
0
VERTEX
8
OBJECT__58
10
0
20
0
30
0
70
128
71
20
72
19
73
21
0
VERTEX
8
OBJECT__58
10
0
20
0
30
0
70
128
71
18
72
17
73
19
0
VERTEX
8
OBJECT__58
10
0
20
0
30
0
70
128
71
16
72
15
73
17
0
VERTEX
8
OBJECT__58
10
0
20
0
30
0
70
128
71
13
72
12
73
15
0
VERTEX
8
OBJECT__58
10
0
20
0
30
0
70
128
71
14
72
11
73
10
0
VERTEX
8
OBJECT__58
10
0
20
0
30
0
70
128
71
9
72
8
73
10
0
VERTEX
8
OBJECT__58
10
0
20
0
30
0
70
128
71
7
72
6
73
8
0
VERTEX
8
OBJECT__58
10
0
20
0
30
0
70
128
71
5
72
4
73
6
0
VERTEX
8
OBJECT__58
10
0
20
0
30
0
70
128
71
2
72
1
73
4
0
VERTEX
8
OBJECT__58
10
0
20
0
30
0
70
128
71
3
72
23
73
1
0
SEQEND
8
OBJECT__58
0
ENDSEC
0
EOF
