  0
SECTION
  2
HEADER
  9
$ACADVER
  1
AC1009
  9
$DWGCODEPAGE
  3
ansi_1252
  9
$INSBASE
 10
0.0
 20
0.0
 30
0.0
  9
$EXTMIN
 10
1.000000000000000E+20
 20
1.000000000000000E+20
 30
1.000000000000000E+20
  9
$EXTMAX
 10
-1.000000000000000E+20
 20
-1.000000000000000E+20
 30
-1.000000000000000E+20
  9
$LIMMIN
 10
0.0
 20
0.0
  9
$LIMMAX
 10
12.0
 20
9.0
  9
$ORTHOMODE
 70
     0
  9
$REGENMODE
 70
     1
  9
$FILLMODE
 70
     1
  9
$QTEXTMODE
 70
     0
  9
$MIRRTEXT
 70
     1
  9
$DRAGMODE
 70
     2
  9
$LTSCALE
 40
1.0
  9
$OSMODE
 70
    37
  9
$ATTMODE
 70
     1
  9
$TEXTSIZE
 40
0.2
  9
$TRACEWID
 40
0.05
  9
$TEXTSTYLE
  7
STANDARD
  9
$CLAYER
  8
0
  9
$CELTYPE
  6
BYLAYER
  9
$CECOLOR
 62
   256
  9
$DIMSCALE
 40
1.0
  9
$DIMASZ
 40
0.18
  9
$DIMEXO
 40
0.0625
  9
$DIMDLI
 40
0.38
  9
$DIMRND
 40
0.0
  9
$DIMDLE
 40
0.0
  9
$DIMEXE
 40
0.18
  9
$DIMTP
 40
0.0
  9
$DIMTM
 40
0.0
  9
$DIMTXT
 40
0.18
  9
$DIMCEN
 40
0.09
  9
$DIMTSZ
 40
0.0
  9
$DIMTOL
 70
     0
  9
$DIMLIM
 70
     0
  9
$DIMTIH
 70
     1
  9
$DIMTOH
 70
     1
  9
$DIMSE1
 70
     0
  9
$DIMSE2
 70
     0
  9
$DIMTAD
 70
     0
  9
$DIMZIN
 70
     0
  9
$DIMBLK
  1

  9
$DIMASO
 70
     1
  9
$DIMSHO
 70
     1
  9
$DIMPOST
  1

  9
$DIMAPOST
  1

  9
$DIMALT
 70
     0
  9
$DIMALTD
 70
     2
  9
$DIMALTF
 40
25.4
  9
$DIMLFAC
 40
1.0
  9
$DIMTOFL
 70
     0
  9
$DIMTVP
 40
0.0
  9
$DIMTIX
 70
     0
  9
$DIMSOXD
 70
     0
  9
$DIMSAH
 70
     0
  9
$DIMBLK1
  1

  9
$DIMBLK2
  1

  9
$DIMSTYLE
  2
STANDARD
  9
$DIMCLRD
 70
     0
  9
$DIMCLRE
 70
     0
  9
$DIMCLRT
 70
     0
  9
$DIMTFAC
 40
1.0
  9
$DIMGAP
 40
0.09
  9
$LUNITS
 70
     2
  9
$LUPREC
 70
     4
  9
$SKETCHINC
 40
0.1
  9
$FILLETRAD
 40
0.5
  9
$AUNITS
 70
     0
  9
$AUPREC
 70
     0
  9
$MENU
  1
.
  9
$ELEVATION
 40
0.0
  9
$PELEVATION
 40
0.0
  9
$THICKNESS
 40
0.0
  9
$LIMCHECK
 70
     0
  9
$CHAMFERA
 40
0.5
  9
$CHAMFERB
 40
0.5
  9
$SKPOLY
 70
     0
  9
$TDCREATE
 40
2455981.517208959
  9
$TDUPDATE
 40
2455981.517208959
  9
$TDINDWG
 40
0.0000000116
  9
$TDUSRTIMER
 40
0.0000000116
  9
$USRTIMER
 70
     1
  9
$ANGBASE
 50
0.0
  9
$ANGDIR
 70
     0
  9
$PDMODE
 70
     0
  9
$PDSIZE
 40
0.0
  9
$PLINEWID
 40
0.0
  9
$COORDS
 70
     1
  9
$SPLFRAME
 70
     0
  9
$SPLINETYPE
 70
     6
  9
$SPLINESEGS
 70
     8
  9
$ATTDIA
 70
     0
  9
$ATTREQ
 70
     1
  9
$HANDLING
 70
     1
  9
$HANDSEED
  5
986
  9
$SURFTAB1
 70
     6
  9
$SURFTAB2
 70
     6
  9
$SURFTYPE
 70
     6
  9
$SURFU
 70
     6
  9
$SURFV
 70
     6
  9
$UCSNAME
  2

  9
$UCSORG
 10
0.0
 20
0.0
 30
0.0
  9
$UCSXDIR
 10
1.0
 20
0.0
 30
0.0
  9
$UCSYDIR
 10
0.0
 20
1.0
 30
0.0
  9
$PUCSNAME
  2

  9
$PUCSORG
 10
0.0
 20
0.0
 30
0.0
  9
$PUCSXDIR
 10
1.0
 20
0.0
 30
0.0
  9
$PUCSYDIR
 10
0.0
 20
1.0
 30
0.0
  9
$USERI1
 70
     0
  9
$USERI2
 70
     0
  9
$USERI3
 70
     0
  9
$USERI4
 70
     0
  9
$USERI5
 70
     0
  9
$USERR1
 40
0.0
  9
$USERR2
 40
0.0
  9
$USERR3
 40
0.0
  9
$USERR4
 40
0.0
  9
$USERR5
 40
0.0
  9
$WORLDVIEW
 70
     1
  9
$SHADEDGE
 70
     3
  9
$SHADEDIF
 70
    70
  9
$TILEMODE
 70
     1
  9
$MAXACTVP
 70
    64
  9
$PLIMCHECK
 70
     0
  9
$PEXTMIN
 10
1.000000000000000E+20
 20
1.000000000000000E+20
 30
1.000000000000000E+20
  9
$PEXTMAX
 10
-1.000000000000000E+20
 20
-1.000000000000000E+20
 30
-1.000000000000000E+20
  9
$PLIMMIN
 10
0.0
 20
0.0
  9
$PLIMMAX
 10
12.0
 20
9.0
  9
$UNITMODE
 70
     0
  9
$VISRETAIN
 70
     1
  9
$PLINEGEN
 70
     0
  9
$PSLTSCALE
 70
     1
  0
ENDSEC
  0
SECTION
  2
TABLES
  0
TABLE
  2
VPORT
 70
     1
  0
VPORT
  2
*ACTIVE
 70
     0
 10
0.0
 20
0.0
 11
1.0
 21
1.0
 12
0.0
 22
0.0
 13
0.0
 23
0.0
 14
0.5
 24
0.5
 15
0.5
 25
0.5
 16
533.1604614257812
 26
-533.1604614257812
 36
533.8643798828125
 17
187.9708862304688
 27
-90.98016357421875
 37
257.7364501953125
 40
341.2181421779424
 41
1.972972972850329
 42
50.0
 43
0.0
 44
0.0
 50
0.0
 51
0.0
 71
     0
 72
   100
 73
     1
 74
     3
 75
     0
 76
     0
 77
     0
 78
     0
  0
ENDTAB
  0
TABLE
  2
LTYPE
 70
     1
  0
LTYPE
  2
CONTINUOUS
 70
     0
  3
Solid line
 72
    65
 73
     0
 40
0.0
  0
ENDTAB
  0
TABLE
  2
LAYER
 70
     2
  0
LAYER
  2
0
 70
     0
 62
     7
  6
CONTINUOUS
  0
LAYER
  2
LAYER_1
 70
     0
 62
     7
  6
CONTINUOUS
  0
ENDTAB
  0
TABLE
  2
STYLE
 70
     1
  0
STYLE
  2
STANDARD
 70
     0
 40
0.0
 41
1.0
 50
0.0
 71
     0
 42
0.2
  3
txt
  4

  0
ENDTAB
  0
TABLE
  2
VIEW
 70
     0
  0
ENDTAB
  0
TABLE
  2
UCS
 70
     0
  0
ENDTAB
  0
TABLE
  2
APPID
 70
     1
  0
APPID
  2
ACAD
 70
     0
  0
ENDTAB
  0
TABLE
  2
DIMSTYLE
 70
     1
  0
DIMSTYLE
  2
STANDARD
 70
     0
  3

  4

  5

  6

  7

 40
1.0
 41
0.18
 42
0.0625
 43
0.38
 44
0.18
 45
0.0
 46
0.0
 47
0.0
 48
0.0
140
0.18
141
0.09
142
0.0
143
25.4
144
1.0
145
0.0
146
1.0
147
0.09
 71
     0
 72
     0
 73
     1
 74
     1
 75
     0
 76
     0
 77
     0
 78
     0
170
     0
171
     2
172
     0
173
     0
174
     0
175
     0
176
     0
177
     0
178
     0
  0
ENDTAB
  0
ENDSEC
  0
SECTION
  2
BLOCKS
  0
BLOCK
  8
0
  2
$MODEL_SPACE
 70
     0
 10
0.0
 20
0.0
 30
0.0
  3
$MODEL_SPACE
  1

  0
ENDBLK
  5
21
  8
0
  0
BLOCK
 67
     1
  8
0
  2
$PAPER_SPACE
 70
     0
 10
0.0
 20
0.0
 30
0.0
  3
$PAPER_SPACE
  1

  0
ENDBLK
  5
1D
 67
     1
  8
0
  0
BLOCK
  8
0
  2
54
 70
     0
 10
0.0
 20
0.0
 30
0.0
  3
54
  1

  0
POLYLINE
  5
3C
  8
0
 62
   253
 66
     1
 10
0.0
 20
0.0
 30
0.0
 70
    64
 71
    96
 72
   188
  0
VERTEX
  5
3D
  8
0
 10
4.373849391937256
 20
23.85736083984375
 30
3.928693771362305
 70
   192
  0
VERTEX
  5
3E
  8
0
 10
0.0000000000000005
 20
21.5
 30
4.249919891357422
 70
   192
  0
VERTEX
  5
3F
  8
0
 10
5.624290466308594
 20
20.74490547180176
 30
4.249919891357422
 70
   192
  0
VERTEX
  5
40
  8
0
 10
22.94390487670898
 20
-7.866481304168701
 30
3.928693771362305
 70
   192
  0
VERTEX
  5
41
  8
0
 10
19.40398788452148
 20
-14.55299091339111
 30
3.928693771362305
 70
   192
  0
VERTEX
  5
42
  8
0
 10
21.60000038146973
 20
-16.20000076293945
 30
3.531185388565063
 70
   192
  0
VERTEX
  5
43
  8
0
 10
16.20000076293945
 20
-21.60000038146973
 30
3.531185388565063
 70
   192
  0
VERTEX
  5
44
  8
0
 10
14.55299091339111
 20
-19.40398788452148
 30
3.928693771362305
 70
   192
  0
VERTEX
  5
45
  8
0
 10
25.54054069519043
 20
-8.756756782531738
 30
3.531185388565063
 70
   192
  0
VERTEX
  5
46
  8
0
 10
10.38461494445801
 20
-24.92307662963867
 30
3.531185388565063
 70
   192
  0
VERTEX
  5
47
  8
0
 10
9.328840255737305
 20
-22.38921546936035
 30
3.928693771362305
 70
   192
  0
VERTEX
  5
48
  8
0
 10
4.868852615356445
 20
-26.55737686157227
 30
3.531185388565063
 70
   192
  0
VERTEX
  5
49
  8
0
 10
0.0000000000000034
 20
-24.25498390197754
 30
3.928693771362305
 70
   192
  0
VERTEX
  5
4A
  8
0
 10
0.0000000000000037
 20
-27.0
 30
3.531185388565063
 70
   192
  0
VERTEX
  5
4B
  8
0
 10
4.373849391937256
 20
-23.85736083984375
 30
3.928693771362305
 70
   192
  0
VERTEX
  5
4C
  8
0
 10
24.25498390197754
 20
0.0000000000000021
 30
3.928693771362305
 70
   192
  0
VERTEX
  5
4D
  8
0
 10
0.0000000000000031
 20
-21.5
 30
4.249919891357422
 70
   192
  0
VERTEX
  5
4E
  8
0
 10
5.624290466308594
 20
-20.74490547180176
 30
4.249919891357422
 70
   192
  0
VERTEX
  5
4F
  8
0
 10
27.0
 20
0.0000000000000044
 30
3.531185388565063
 70
   192
  0
VERTEX
  5
50
  8
0
 10
25.54054069519043
 20
8.756756782531738
 30
3.531185388565063
 70
   192
  0
VERTEX
  5
51
  8
0
 10
22.94390487670898
 20
7.866481304168701
 30
3.928693771362305
 70
   192
  0
VERTEX
  5
52
  8
0
 10
19.40398788452148
 20
14.55299091339111
 30
3.928693771362305
 70
   192
  0
VERTEX
  5
53
  8
0
 10
21.60000038146973
 20
16.20000076293945
 30
3.531185388565063
 70
   192
  0
VERTEX
  5
54
  8
0
 10
16.20000076293945
 20
21.60000038146973
 30
3.531185388565063
 70
   192
  0
VERTEX
  5
55
  8
0
 10
14.55299091339111
 20
19.40398788452148
 30
3.928693771362305
 70
   192
  0
VERTEX
  5
56
  8
0
 10
10.38461494445801
 20
24.92307662963867
 30
3.531185388565063
 70
   192
  0
VERTEX
  5
57
  8
0
 10
9.328840255737305
 20
22.38921546936035
 30
3.928693771362305
 70
   192
  0
VERTEX
  5
58
  8
0
 10
4.868852615356445
 20
26.55737686157227
 30
3.531185388565063
 70
   192
  0
VERTEX
  5
59
  8
0
 10
-0.0000000000000055
 20
24.25498390197754
 30
3.928693771362305
 70
   192
  0
VERTEX
  5
5A
  8
0
 10
0.0000000000000004
 20
27.0
 30
3.531185388565063
 70
   192
  0
VERTEX
  5
5B
  8
0
 10
10.80988788604736
 20
18.56701469421387
 30
4.249919891357422
 70
   192
  0
VERTEX
  5
5C
  8
0
 10
15.20279598236084
 20
15.20279598236084
 30
4.249919891357422
 70
   192
  0
VERTEX
  5
5D
  8
0
 10
18.64583587646484
 20
10.6918888092041
 30
4.249919891357422
 70
   192
  0
VERTEX
  5
5E
  8
0
 10
20.77260780334473
 20
5.485117435455322
 30
4.249919891357422
 70
   192
  0
VERTEX
  5
5F
  8
0
 10
21.5
 20
-0.0000000000000018
 30
4.249919891357422
 70
   192
  0
VERTEX
  5
60
  8
0
 10
20.74490547180176
 20
-5.624290466308594
 30
4.249919891357422
 70
   192
  0
VERTEX
  5
61
  8
0
 10
18.56701469421387
 20
-10.80988788604736
 30
4.249919891357422
 70
   192
  0
VERTEX
  5
62
  8
0
 10
15.20279598236084
 20
-15.20279598236084
 30
4.249919891357422
 70
   192
  0
VERTEX
  5
63
  8
0
 10
10.6918888092041
 20
-18.64583587646484
 30
4.249919891357422
 70
   192
  0
VERTEX
  5
64
  8
0
 10
-26.98453712463379
 20
-0.082298681139946
 30
0.0000000000000029
 70
   192
  0
VERTEX
  5
65
  8
0
 10
-27.0
 20
-0.0000000000000062
 30
3.531185388565063
 70
   192
  0
VERTEX
  5
66
  8
0
 10
-25.54054069519043
 20
8.756756782531738
 30
3.531185388565063
 70
   192
  0
VERTEX
  5
67
  8
0
 10
-21.60000038146973
 20
16.20000076293945
 30
3.531185388565063
 70
   192
  0
VERTEX
  5
68
  8
0
 10
-26.0865306854248
 20
6.967829704284668
 30
0.0000000000000046
 70
   192
  0
VERTEX
  5
69
  8
0
 10
-16.20000076293945
 20
21.60000038146973
 30
3.531185388565063
 70
   192
  0
VERTEX
  5
6A
  8
0
 10
-23.39250755310059
 20
13.48301696777344
 30
0.0000000000000059
 70
   192
  0
VERTEX
  5
6B
  8
0
 10
-19.12078285217285
 20
19.0390682220459
 30
0.0000000000000068
 70
   192
  0
VERTEX
  5
6C
  8
0
 10
-10.38461494445801
 20
24.92307662963867
 30
3.531185388565063
 70
   192
  0
VERTEX
  5
6D
  8
0
 10
-4.868852615356445
 20
26.55737686157227
 30
3.531185388565063
 70
   192
  0
VERTEX
  5
6E
  8
0
 10
-13.54593849182129
 20
23.35054206848145
 30
0.0000000000000073
 70
   192
  0
VERTEX
  5
6F
  8
0
 10
-7.0381760597229
 20
26.06204795837402
 30
0.0000000000000073
 70
   192
  0
VERTEX
  5
70
  8
0
 10
0.0
 20
27.0
 30
0.0000000000000069
 70
   192
  0
VERTEX
  5
71
  8
0
 10
-26.05534362792969
 20
-7.051942825317383
 30
0.0000000000000011
 70
   192
  0
VERTEX
  5
72
  8
0
 10
-23.39250755310059
 20
-13.48301696777344
 30
-0.0000000000000008
 70
   192
  0
VERTEX
  5
73
  8
0
 10
-25.54054069519043
 20
-8.756756782531738
 30
3.531185388565063
 70
   192
  0
VERTEX
  5
74
  8
0
 10
-21.60000038146973
 20
-16.20000076293945
 30
3.531185388565063
 70
   192
  0
VERTEX
  5
75
  8
0
 10
-19.04433822631836
 20
-19.13145637512207
 30
-0.0000000000000027
 70
   192
  0
VERTEX
  5
76
  8
0
 10
-13.4332447052002
 20
-23.41312408447266
 30
-0.0000000000000044
 70
   192
  0
VERTEX
  5
77
  8
0
 10
-16.20000076293945
 20
-21.60000038146973
 30
3.531185388565063
 70
   192
  0
VERTEX
  5
78
  8
0
 10
-7.0381760597229
 20
-26.06204795837402
 30
-0.0000000000000058
 70
   192
  0
VERTEX
  5
79
  8
0
 10
-10.38461494445801
 20
-24.92307662963867
 30
3.531185388565063
 70
   192
  0
VERTEX
  5
7A
  8
0
 10
-4.868852615356445
 20
-26.55737686157227
 30
3.531185388565063
 70
   192
  0
VERTEX
  5
7B
  8
0
 10
0.0000000000000033
 20
-27.0
 30
-0.0000000000000069
 70
   192
  0
VERTEX
  5
7C
  8
0
 10
21.60000038146973
 20
-16.20000076293945
 30
-0.0000000000000066
 70
   192
  0
VERTEX
  5
7D
  8
0
 10
16.20000076293945
 20
-21.60000038146973
 30
-0.0000000000000074
 70
   192
  0
VERTEX
  5
7E
  8
0
 10
25.54054069519043
 20
-8.756756782531738
 30
-0.0000000000000052
 70
   192
  0
VERTEX
  5
7F
  8
0
 10
4.868852615356445
 20
26.55737686157227
 30
0.0000000000000063
 70
   192
  0
VERTEX
  5
80
  8
0
 10
10.38461494445801
 20
24.92307662963867
 30
0.0000000000000052
 70
   192
  0
VERTEX
  5
81
  8
0
 10
10.38461494445801
 20
-24.92307662963867
 30
-0.0000000000000076
 70
   192
  0
VERTEX
  5
82
  8
0
 10
4.868852615356445
 20
-26.55737686157227
 30
-0.0000000000000074
 70
   192
  0
VERTEX
  5
83
  8
0
 10
27.0
 20
0.0000000000000018
 30
-0.0000000000000031
 70
   192
  0
VERTEX
  5
84
  8
0
 10
25.54054069519043
 20
8.756756782531738
 30
-0.0000000000000007
 70
   192
  0
VERTEX
  5
85
  8
0
 10
21.60000038146973
 20
16.20000076293945
 30
0.0000000000000017
 70
   192
  0
VERTEX
  5
86
  8
0
 10
16.20000076293945
 20
21.60000038146973
 30
0.0000000000000037
 70
   192
  0
VERTEX
  5
87
  8
0
 10
-9.328840255737305
 20
-22.38921546936035
 30
3.928693771362305
 70
   192
  0
VERTEX
  5
88
  8
0
 10
-14.55299091339111
 20
-19.40398788452148
 30
3.928693771362305
 70
   192
  0
VERTEX
  5
89
  8
0
 10
-19.40398788452148
 20
-14.55299091339111
 30
3.928693771362305
 70
   192
  0
VERTEX
  5
8A
  8
0
 10
-4.373849391937256
 20
-23.85736083984375
 30
3.928693771362305
 70
   192
  0
VERTEX
  5
8B
  8
0
 10
-5.624290466308594
 20
-20.74490547180176
 30
4.249919891357422
 70
   192
  0
VERTEX
  5
8C
  8
0
 10
-22.94390487670898
 20
7.866481304168701
 30
3.928693771362305
 70
   192
  0
VERTEX
  5
8D
  8
0
 10
-24.25498390197754
 20
-0.0000000000000088
 30
3.928693771362305
 70
   192
  0
VERTEX
  5
8E
  8
0
 10
-22.94390487670898
 20
-7.866481304168701
 30
3.928693771362305
 70
   192
  0
VERTEX
  5
8F
  8
0
 10
-14.55299091339111
 20
19.40398788452148
 30
3.928693771362305
 70
   192
  0
VERTEX
  5
90
  8
0
 10
-19.40398788452148
 20
14.55299091339111
 30
3.928693771362305
 70
   192
  0
VERTEX
  5
91
  8
0
 10
-4.373849391937256
 20
23.85736083984375
 30
3.928693771362305
 70
   192
  0
VERTEX
  5
92
  8
0
 10
-9.328840255737305
 20
22.38921546936035
 30
3.928693771362305
 70
   192
  0
VERTEX
  5
93
  8
0
 10
-5.624290466308594
 20
20.74490547180176
 30
4.249919891357422
 70
   192
  0
VERTEX
  5
94
  8
0
 10
-10.80988788604736
 20
-18.56701469421387
 30
4.249919891357422
 70
   192
  0
VERTEX
  5
95
  8
0
 10
-15.20279598236084
 20
-15.20279598236084
 30
4.249919891357422
 70
   192
  0
VERTEX
  5
96
  8
0
 10
-18.64583587646484
 20
-10.6918888092041
 30
4.249919891357422
 70
   192
  0
VERTEX
  5
97
  8
0
 10
-20.77260780334473
 20
-5.485117435455322
 30
4.249919891357422
 70
   192
  0
VERTEX
  5
98
  8
0
 10
-21.5
 20
-0.0000000000000036
 30
4.249919891357422
 70
   192
  0
VERTEX
  5
99
  8
0
 10
-20.74490547180176
 20
5.624290466308594
 30
4.249919891357422
 70
   192
  0
VERTEX
  5
9A
  8
0
 10
-18.56701469421387
 20
10.80988788604736
 30
4.249919891357422
 70
   192
  0
VERTEX
  5
9B
  8
0
 10
-15.20279598236084
 20
15.20279598236084
 30
4.249919891357422
 70
   192
  0
VERTEX
  5
9C
  8
0
 10
-10.6918888092041
 20
18.64583587646484
 30
4.249919891357422
 70
   192
  0
VERTEX
  5
9D
  8
0
 62
   253
 10
0.0
 20
0.0
 30
0.0
 70
   128
 71
     3
 72
     2
 73
     1
  0
VERTEX
  5
9E
  8
0
 62
   253
 10
0.0
 20
0.0
 30
0.0
 70
   128
 71
     6
 72
     5
 73
     4
  0
VERTEX
  5
9F
  8
0
 62
   253
 10
0.0
 20
0.0
 30
0.0
 70
   128
 71
     6
 72
     7
 73
     5
  0
VERTEX
  5
A0
  8
0
 62
   253
 10
0.0
 20
0.0
 30
0.0
 70
   128
 71
     8
 72
     5
 73
     7
  0
VERTEX
  5
A1
  8
0
 62
   253
 10
0.0
 20
0.0
 30
0.0
 70
   128
 71
     6
 72
     4
 73
     9
  0
VERTEX
  5
A2
  8
0
 62
   253
 10
0.0
 20
0.0
 30
0.0
 70
   128
 71
     7
 72
    10
 73
     8
  0
VERTEX
  5
A3
  8
0
 62
   253
 10
0.0
 20
0.0
 30
0.0
 70
   128
 71
     8
 72
    10
 73
    11
  0
VERTEX
  5
A4
  8
0
 62
   253
 10
0.0
 20
0.0
 30
0.0
 70
   128
 71
    10
 72
    12
 73
    11
  0
VERTEX
  5
A5
  8
0
 62
   253
 10
0.0
 20
0.0
 30
0.0
 70
   128
 71
    15
 72
    14
 73
    13
  0
VERTEX
  5
A6
  8
0
 62
   253
 10
0.0
 20
0.0
 30
0.0
 70
   128
 71
     9
 72
     4
 73
    16
  0
VERTEX
  5
A7
  8
0
 62
   253
 10
0.0
 20
0.0
 30
0.0
 70
   128
 71
    12
 72
    15
 73
    11
  0
VERTEX
  5
A8
  8
0
 62
   253
 10
0.0
 20
0.0
 30
0.0
 70
   128
 71
    14
 72
    15
 73
    12
  0
VERTEX
  5
A9
  8
0
 62
   253
 10
0.0
 20
0.0
 30
0.0
 70
   128
 71
    18
 72
    13
 73
    17
  0
VERTEX
  5
AA
  8
0
 62
   253
 10
0.0
 20
0.0
 30
0.0
 70
   128
 71
    19
 72
     9
 73
    16
  0
VERTEX
  5
AB
  8
0
 62
   253
 10
0.0
 20
0.0
 30
0.0
 70
   128
 71
    21
 72
    20
 73
    19
  0
VERTEX
  5
AC
  8
0
 62
   253
 10
0.0
 20
0.0
 30
0.0
 70
   128
 71
    21
 72
    19
 73
    16
  0
VERTEX
  5
AD
  8
0
 62
   253
 10
0.0
 20
0.0
 30
0.0
 70
   128
 71
    23
 72
    20
 73
    22
  0
VERTEX
  5
AE
  8
0
 62
   253
 10
0.0
 20
0.0
 30
0.0
 70
   128
 71
    20
 72
    21
 73
    22
  0
VERTEX
  5
AF
  8
0
 62
   253
 10
0.0
 20
0.0
 30
0.0
 70
   128
 71
    23
 72
    25
 73
    24
  0
VERTEX
  5
B0
  8
0
 62
   253
 10
0.0
 20
0.0
 30
0.0
 70
   128
 71
    22
 72
    25
 73
    23
  0
VERTEX
  5
B1
  8
0
 62
   253
 10
0.0
 20
0.0
 30
0.0
 70
   128
 71
    27
 72
    26
 73
    24
  0
VERTEX
  5
B2
  8
0
 62
   253
 10
0.0
 20
0.0
 30
0.0
 70
   128
 71
    27
 72
    24
 73
    25
  0
VERTEX
  5
B3
  8
0
 62
   253
 10
0.0
 20
0.0
 30
0.0
 70
   128
 71
    28
 72
    26
 73
     1
  0
VERTEX
  5
B4
  8
0
 62
   253
 10
0.0
 20
0.0
 30
0.0
 70
   128
 71
    26
 72
    27
 73
     1
  0
VERTEX
  5
B5
  8
0
 62
   253
 10
0.0
 20
0.0
 30
0.0
 70
   128
 71
     1
 72
    29
 73
    28
  0
VERTEX
  5
B6
  8
0
 62
   253
 10
0.0
 20
0.0
 30
0.0
 70
   128
 71
    29
 72
    30
 73
    28
  0
VERTEX
  5
B7
  8
0
 62
   253
 10
0.0
 20
0.0
 30
0.0
 70
   128
 71
    31
 72
     3
 73
    27
  0
VERTEX
  5
B8
  8
0
 62
   253
 10
0.0
 20
0.0
 30
0.0
 70
   128
 71
    29
 72
     1
 73
     2
  0
VERTEX
  5
B9
  8
0
 62
   253
 10
0.0
 20
0.0
 30
0.0
 70
   128
 71
    32
 72
    31
 73
    25
  0
VERTEX
  5
BA
  8
0
 62
   253
 10
0.0
 20
0.0
 30
0.0
 70
   128
 71
     1
 72
    27
 73
     3
  0
VERTEX
  5
BB
  8
0
 62
   253
 10
0.0
 20
0.0
 30
0.0
 70
   128
 71
    33
 72
    32
 73
    22
  0
VERTEX
  5
BC
  8
0
 62
   253
 10
0.0
 20
0.0
 30
0.0
 70
   128
 71
    27
 72
    25
 73
    31
  0
VERTEX
  5
BD
  8
0
 62
   253
 10
0.0
 20
0.0
 30
0.0
 70
   128
 71
    34
 72
    33
 73
    21
  0
VERTEX
  5
BE
  8
0
 62
   253
 10
0.0
 20
0.0
 30
0.0
 70
   128
 71
    25
 72
    22
 73
    32
  0
VERTEX
  5
BF
  8
0
 62
   253
 10
0.0
 20
0.0
 30
0.0
 70
   128
 71
    35
 72
    34
 73
    16
  0
VERTEX
  5
C0
  8
0
 62
   253
 10
0.0
 20
0.0
 30
0.0
 70
   128
 71
    22
 72
    21
 73
    33
  0
VERTEX
  5
C1
  8
0
 62
   253
 10
0.0
 20
0.0
 30
0.0
 70
   128
 71
    36
 72
    35
 73
     4
  0
VERTEX
  5
C2
  8
0
 62
   253
 10
0.0
 20
0.0
 30
0.0
 70
   128
 71
    21
 72
    16
 73
    34
  0
VERTEX
  5
C3
  8
0
 62
   253
 10
0.0
 20
0.0
 30
0.0
 70
   128
 71
    37
 72
    36
 73
     5
  0
VERTEX
  5
C4
  8
0
 62
   253
 10
0.0
 20
0.0
 30
0.0
 70
   128
 71
    16
 72
     4
 73
    35
  0
VERTEX
  5
C5
  8
0
 62
   253
 10
0.0
 20
0.0
 30
0.0
 70
   128
 71
    38
 72
    37
 73
     8
  0
VERTEX
  5
C6
  8
0
 62
   253
 10
0.0
 20
0.0
 30
0.0
 70
   128
 71
     4
 72
     5
 73
    36
  0
VERTEX
  5
C7
  8
0
 62
   253
 10
0.0
 20
0.0
 30
0.0
 70
   128
 71
    39
 72
    38
 73
    11
  0
VERTEX
  5
C8
  8
0
 62
   253
 10
0.0
 20
0.0
 30
0.0
 70
   128
 71
     5
 72
     8
 73
    37
  0
VERTEX
  5
C9
  8
0
 62
   253
 10
0.0
 20
0.0
 30
0.0
 70
   128
 71
    18
 72
    39
 73
    15
  0
VERTEX
  5
CA
  8
0
 62
   253
 10
0.0
 20
0.0
 30
0.0
 70
   128
 71
     8
 72
    11
 73
    38
  0
VERTEX
  5
CB
  8
0
 62
   253
 10
0.0
 20
0.0
 30
0.0
 70
   128
 71
    15
 72
    13
 73
    18
  0
VERTEX
  5
CC
  8
0
 62
   253
 10
0.0
 20
0.0
 30
0.0
 70
   128
 71
    11
 72
    15
 73
    39
  0
VERTEX
  5
CD
  8
0
 62
   253
 10
0.0
 20
0.0
 30
0.0
 70
   128
 71
    42
 72
    41
 73
    40
  0
VERTEX
  5
CE
  8
0
 62
   253
 10
0.0
 20
0.0
 30
0.0
 70
   128
 71
    42
 72
    44
 73
    43
  0
VERTEX
  5
CF
  8
0
 62
   253
 10
0.0
 20
0.0
 30
0.0
 70
   128
 71
    44
 72
    42
 73
    40
  0
VERTEX
  5
D0
  8
0
 62
   253
 10
0.0
 20
0.0
 30
0.0
 70
   128
 71
    46
 72
    45
 73
    43
  0
VERTEX
  5
D1
  8
0
 62
   253
 10
0.0
 20
0.0
 30
0.0
 70
   128
 71
    43
 72
    44
 73
    46
  0
VERTEX
  5
D2
  8
0
 62
   253
 10
0.0
 20
0.0
 30
0.0
 70
   128
 71
    48
 72
    45
 73
    47
  0
VERTEX
  5
D3
  8
0
 62
   253
 10
0.0
 20
0.0
 30
0.0
 70
   128
 71
    46
 72
    47
 73
    45
  0
VERTEX
  5
D4
  8
0
 62
   253
 10
0.0
 20
0.0
 30
0.0
 70
   128
 71
    48
 72
    50
 73
    49
  0
VERTEX
  5
D5
  8
0
 62
   253
 10
0.0
 20
0.0
 30
0.0
 70
   128
 71
    50
 72
    48
 73
    47
  0
VERTEX
  5
D6
  8
0
 62
   253
 10
0.0
 20
0.0
 30
0.0
 70
   128
 71
    51
 72
    30
 73
    49
  0
VERTEX
  5
D7
  8
0
 62
   253
 10
0.0
 20
0.0
 30
0.0
 70
   128
 71
    49
 72
    50
 73
    51
  0
VERTEX
  5
D8
  8
0
 62
   253
 10
0.0
 20
0.0
 30
0.0
 70
   128
 71
    51
 72
    52
 73
    30
  0
VERTEX
  5
D9
  8
0
 62
   253
 10
0.0
 20
0.0
 30
0.0
 70
   128
 71
    40
 72
    41
 73
    53
  0
VERTEX
  5
DA
  8
0
 62
   253
 10
0.0
 20
0.0
 30
0.0
 70
   128
 71
    55
 72
    54
 73
    53
  0
VERTEX
  5
DB
  8
0
 62
   253
 10
0.0
 20
0.0
 30
0.0
 70
   128
 71
    53
 72
    41
 73
    55
  0
VERTEX
  5
DC
  8
0
 62
   253
 10
0.0
 20
0.0
 30
0.0
 70
   128
 71
    57
 72
    54
 73
    56
  0
VERTEX
  5
DD
  8
0
 62
   253
 10
0.0
 20
0.0
 30
0.0
 70
   128
 71
    55
 72
    56
 73
    54
  0
VERTEX
  5
DE
  8
0
 62
   253
 10
0.0
 20
0.0
 30
0.0
 70
   128
 71
    57
 72
    59
 73
    58
  0
VERTEX
  5
DF
  8
0
 62
   253
 10
0.0
 20
0.0
 30
0.0
 70
   128
 71
    59
 72
    57
 73
    56
  0
VERTEX
  5
E0
  8
0
 62
   253
 10
0.0
 20
0.0
 30
0.0
 70
   128
 71
    61
 72
    60
 73
    58
  0
VERTEX
  5
E1
  8
0
 62
   253
 10
0.0
 20
0.0
 30
0.0
 70
   128
 71
    58
 72
    59
 73
    61
  0
VERTEX
  5
E2
  8
0
 62
   253
 10
0.0
 20
0.0
 30
0.0
 70
   128
 71
    63
 72
    60
 73
    62
  0
VERTEX
  5
E3
  8
0
 62
   253
 10
0.0
 20
0.0
 30
0.0
 70
   128
 71
    61
 72
    62
 73
    60
  0
VERTEX
  5
E4
  8
0
 62
   253
 10
0.0
 20
0.0
 30
0.0
 70
   128
 71
    14
 72
    63
 73
    62
  0
VERTEX
  5
E5
  8
0
 62
   253
 10
0.0
 20
0.0
 30
0.0
 70
   128
 71
    66
 72
    65
 73
    64
  0
VERTEX
  5
E6
  8
0
 62
   253
 10
0.0
 20
0.0
 30
0.0
 70
   128
 71
    68
 72
    67
 73
    57
  0
VERTEX
  5
E7
  8
0
 62
   253
 10
0.0
 20
0.0
 30
0.0
 70
   128
 71
    70
 72
    69
 73
    65
  0
VERTEX
  5
E8
  8
0
 62
   253
 10
0.0
 20
0.0
 30
0.0
 70
   128
 71
    65
 72
    66
 73
    71
  0
VERTEX
  5
E9
  8
0
 62
   253
 10
0.0
 20
0.0
 30
0.0
 70
   128
 71
    71
 72
    70
 73
    65
  0
VERTEX
  5
EA
  8
0
 62
   253
 10
0.0
 20
0.0
 30
0.0
 70
   128
 71
    70
 72
    72
 73
    63
  0
VERTEX
  5
EB
  8
0
 62
   253
 10
0.0
 20
0.0
 30
0.0
 70
   128
 71
    72
 72
    70
 73
    71
  0
VERTEX
  5
EC
  8
0
 62
   253
 10
0.0
 20
0.0
 30
0.0
 70
   128
 71
    73
 72
    60
 73
    63
  0
VERTEX
  5
ED
  8
0
 62
   253
 10
0.0
 20
0.0
 30
0.0
 70
   128
 71
    63
 72
    72
 73
    73
  0
VERTEX
  5
EE
  8
0
 62
   253
 10
0.0
 20
0.0
 30
0.0
 70
   128
 71
    74
 72
    60
 73
    73
  0
VERTEX
  5
EF
  8
0
 62
   253
 10
0.0
 20
0.0
 30
0.0
 70
   128
 71
    58
 72
    60
 73
    74
  0
VERTEX
  5
F0
  8
0
 62
   253
 10
0.0
 20
0.0
 30
0.0
 70
   128
 71
    68
 72
    57
 73
    58
  0
VERTEX
  5
F1
  8
0
 62
   253
 10
0.0
 20
0.0
 30
0.0
 70
   128
 71
    58
 72
    74
 73
    68
  0
VERTEX
  5
F2
  8
0
 62
   253
 10
0.0
 20
0.0
 30
0.0
 70
   128
 71
    57
 72
    67
 73
    54
  0
VERTEX
  5
F3
  8
0
 62
   253
 10
0.0
 20
0.0
 30
0.0
 70
   128
 71
    53
 72
    54
 73
    52
  0
VERTEX
  5
F4
  8
0
 62
   253
 10
0.0
 20
0.0
 30
0.0
 70
   128
 71
    67
 72
    52
 73
    54
  0
VERTEX
  5
F5
  8
0
 62
   253
 10
0.0
 20
0.0
 30
0.0
 70
   128
 71
    53
 72
    51
 73
    40
  0
VERTEX
  5
F6
  8
0
 62
   253
 10
0.0
 20
0.0
 30
0.0
 70
   128
 71
    40
 72
    47
 73
    44
  0
VERTEX
  5
F7
  8
0
 62
   253
 10
0.0
 20
0.0
 30
0.0
 70
   128
 71
    47
 72
    46
 73
    44
  0
VERTEX
  5
F8
  8
0
 62
   253
 10
0.0
 20
0.0
 30
0.0
 70
   128
 71
    40
 72
    51
 73
    47
  0
VERTEX
  5
F9
  8
0
 62
   253
 10
0.0
 20
0.0
 30
0.0
 70
   128
 71
    47
 72
    51
 73
    50
  0
VERTEX
  5
FA
  8
0
 62
   253
 10
0.0
 20
0.0
 30
0.0
 70
   128
 71
    53
 72
    52
 73
    51
  0
VERTEX
  5
FB
  8
0
 62
   253
 10
0.0
 20
0.0
 30
0.0
 70
   128
 71
    30
 72
    52
 73
    28
  0
VERTEX
  5
FC
  8
0
 62
   253
 10
0.0
 20
0.0
 30
0.0
 70
   128
 71
    24
 72
    74
 73
    23
  0
VERTEX
  5
FD
  8
0
 62
   253
 10
0.0
 20
0.0
 30
0.0
 70
   128
 71
    67
 72
    68
 73
    26
  0
VERTEX
  5
FE
  8
0
 62
   253
 10
0.0
 20
0.0
 30
0.0
 70
   128
 71
     9
 72
    19
 73
    71
  0
VERTEX
  5
FF
  8
0
 62
   253
 10
0.0
 20
0.0
 30
0.0
 70
   128
 71
    72
 72
    20
 73
    73
  0
VERTEX
  5
100
  8
0
 62
   253
 10
0.0
 20
0.0
 30
0.0
 70
   128
 71
    65
 72
    10
 73
     7
  0
VERTEX
  5
101
  8
0
 62
   253
 10
0.0
 20
0.0
 30
0.0
 70
   128
 71
    66
 72
    64
 73
     6
  0
VERTEX
  5
102
  8
0
 62
   253
 10
0.0
 20
0.0
 30
0.0
 70
   128
 71
    12
 72
    10
 73
    69
  0
VERTEX
  5
103
  8
0
 62
   253
 10
0.0
 20
0.0
 30
0.0
 70
   128
 71
    65
 72
    69
 73
    10
  0
VERTEX
  5
104
  8
0
 62
   253
 10
0.0
 20
0.0
 30
0.0
 70
   128
 71
    12
 72
    70
 73
    14
  0
VERTEX
  5
105
  8
0
 62
   253
 10
0.0
 20
0.0
 30
0.0
 70
   128
 71
    70
 72
    12
 73
    69
  0
VERTEX
  5
106
  8
0
 62
   253
 10
0.0
 20
0.0
 30
0.0
 70
   128
 71
    14
 72
    70
 73
    63
  0
VERTEX
  5
107
  8
0
 62
   253
 10
0.0
 20
0.0
 30
0.0
 70
   128
 71
    64
 72
     7
 73
     6
  0
VERTEX
  5
108
  8
0
 62
   253
 10
0.0
 20
0.0
 30
0.0
 70
   128
 71
    64
 72
    65
 73
     7
  0
VERTEX
  5
109
  8
0
 62
   253
 10
0.0
 20
0.0
 30
0.0
 70
   128
 71
    66
 72
     9
 73
    71
  0
VERTEX
  5
10A
  8
0
 62
   253
 10
0.0
 20
0.0
 30
0.0
 70
   128
 71
    66
 72
     6
 73
     9
  0
VERTEX
  5
10B
  8
0
 62
   253
 10
0.0
 20
0.0
 30
0.0
 70
   128
 71
    19
 72
    20
 73
    72
  0
VERTEX
  5
10C
  8
0
 62
   253
 10
0.0
 20
0.0
 30
0.0
 70
   128
 71
    71
 72
    19
 73
    72
  0
VERTEX
  5
10D
  8
0
 62
   253
 10
0.0
 20
0.0
 30
0.0
 70
   128
 71
    23
 72
    74
 73
    73
  0
VERTEX
  5
10E
  8
0
 62
   253
 10
0.0
 20
0.0
 30
0.0
 70
   128
 71
    20
 72
    23
 73
    73
  0
VERTEX
  5
10F
  8
0
 62
   253
 10
0.0
 20
0.0
 30
0.0
 70
   128
 71
    26
 72
    68
 73
    24
  0
VERTEX
  5
110
  8
0
 62
   253
 10
0.0
 20
0.0
 30
0.0
 70
   128
 71
    24
 72
    68
 73
    74
  0
VERTEX
  5
111
  8
0
 62
   253
 10
0.0
 20
0.0
 30
0.0
 70
   128
 71
    52
 72
    67
 73
    28
  0
VERTEX
  5
112
  8
0
 62
   253
 10
0.0
 20
0.0
 30
0.0
 70
   128
 71
    28
 72
    67
 73
    26
  0
VERTEX
  5
113
  8
0
 62
   253
 10
0.0
 20
0.0
 30
0.0
 70
   128
 71
    59
 72
    75
 73
    61
  0
VERTEX
  5
114
  8
0
 62
   253
 10
0.0
 20
0.0
 30
0.0
 70
   128
 71
    77
 72
    76
 73
    56
  0
VERTEX
  5
115
  8
0
 62
   253
 10
0.0
 20
0.0
 30
0.0
 70
   128
 71
    75
 72
    78
 73
    61
  0
VERTEX
  5
116
  8
0
 62
   253
 10
0.0
 20
0.0
 30
0.0
 70
   128
 71
    78
 72
    79
 73
    17
  0
VERTEX
  5
117
  8
0
 62
   253
 10
0.0
 20
0.0
 30
0.0
 70
   128
 71
    81
 72
    42
 73
    80
  0
VERTEX
  5
118
  8
0
 62
   253
 10
0.0
 20
0.0
 30
0.0
 70
   128
 71
    82
 72
    55
 73
    41
  0
VERTEX
  5
119
  8
0
 62
   253
 10
0.0
 20
0.0
 30
0.0
 70
   128
 71
    45
 72
    48
 73
    83
  0
VERTEX
  5
11A
  8
0
 62
   253
 10
0.0
 20
0.0
 30
0.0
 70
   128
 71
    84
 72
    43
 73
    45
  0
VERTEX
  5
11B
  8
0
 62
   253
 10
0.0
 20
0.0
 30
0.0
 70
   128
 71
    86
 72
    49
 73
    85
  0
VERTEX
  5
11C
  8
0
 62
   253
 10
0.0
 20
0.0
 30
0.0
 70
   128
 71
    86
 72
    48
 73
    49
  0
VERTEX
  5
11D
  8
0
 62
   253
 10
0.0
 20
0.0
 30
0.0
 70
   128
 71
    30
 72
    85
 73
    49
  0
VERTEX
  5
11E
  8
0
 62
   253
 10
0.0
 20
0.0
 30
0.0
 70
   128
 71
    29
 72
    85
 73
    30
  0
VERTEX
  5
11F
  8
0
 62
   253
 10
0.0
 20
0.0
 30
0.0
 70
   128
 71
    83
 72
    48
 73
    86
  0
VERTEX
  5
120
  8
0
 62
   253
 10
0.0
 20
0.0
 30
0.0
 70
   128
 71
     2
 72
    87
 73
    29
  0
VERTEX
  5
121
  8
0
 62
   253
 10
0.0
 20
0.0
 30
0.0
 70
   128
 71
    80
 72
    43
 73
    84
  0
VERTEX
  5
122
  8
0
 62
   253
 10
0.0
 20
0.0
 30
0.0
 70
   128
 71
    84
 72
    45
 73
    83
  0
VERTEX
  5
123
  8
0
 62
   253
 10
0.0
 20
0.0
 30
0.0
 70
   128
 71
    42
 72
    81
 73
    41
  0
VERTEX
  5
124
  8
0
 62
   253
 10
0.0
 20
0.0
 30
0.0
 70
   128
 71
    43
 72
    80
 73
    42
  0
VERTEX
  5
125
  8
0
 62
   253
 10
0.0
 20
0.0
 30
0.0
 70
   128
 71
    77
 72
    55
 73
    82
  0
VERTEX
  5
126
  8
0
 62
   253
 10
0.0
 20
0.0
 30
0.0
 70
   128
 71
    41
 72
    81
 73
    82
  0
VERTEX
  5
127
  8
0
 62
   253
 10
0.0
 20
0.0
 30
0.0
 70
   128
 71
    76
 72
    59
 73
    56
  0
VERTEX
  5
128
  8
0
 62
   253
 10
0.0
 20
0.0
 30
0.0
 70
   128
 71
    77
 72
    56
 73
    55
  0
VERTEX
  5
129
  8
0
 62
   253
 10
0.0
 20
0.0
 30
0.0
 70
   128
 71
    76
 72
    75
 73
    59
  0
VERTEX
  5
12A
  8
0
 62
   253
 10
0.0
 20
0.0
 30
0.0
 70
   128
 71
    62
 72
    13
 73
    14
  0
VERTEX
  5
12B
  8
0
 62
   253
 10
0.0
 20
0.0
 30
0.0
 70
   128
 71
    75
 72
    88
 73
    79
  0
VERTEX
  5
12C
  8
0
 62
   253
 10
0.0
 20
0.0
 30
0.0
 70
   128
 71
    17
 72
    13
 73
    78
  0
VERTEX
  5
12D
  8
0
 62
   253
 10
0.0
 20
0.0
 30
0.0
 70
   128
 71
    78
 72
    13
 73
    62
  0
VERTEX
  5
12E
  8
0
 62
   253
 10
0.0
 20
0.0
 30
0.0
 70
   128
 71
    78
 72
    62
 73
    61
  0
VERTEX
  5
12F
  8
0
 62
   253
 10
0.0
 20
0.0
 30
0.0
 70
   128
 71
    89
 72
    88
 73
    76
  0
VERTEX
  5
130
  8
0
 62
   253
 10
0.0
 20
0.0
 30
0.0
 70
   128
 71
    78
 72
    75
 73
    79
  0
VERTEX
  5
131
  8
0
 62
   253
 10
0.0
 20
0.0
 30
0.0
 70
   128
 71
    90
 72
    89
 73
    77
  0
VERTEX
  5
132
  8
0
 62
   253
 10
0.0
 20
0.0
 30
0.0
 70
   128
 71
    75
 72
    76
 73
    88
  0
VERTEX
  5
133
  8
0
 62
   253
 10
0.0
 20
0.0
 30
0.0
 70
   128
 71
    91
 72
    90
 73
    82
  0
VERTEX
  5
134
  8
0
 62
   253
 10
0.0
 20
0.0
 30
0.0
 70
   128
 71
    76
 72
    77
 73
    89
  0
VERTEX
  5
135
  8
0
 62
   253
 10
0.0
 20
0.0
 30
0.0
 70
   128
 71
    92
 72
    91
 73
    81
  0
VERTEX
  5
136
  8
0
 62
   253
 10
0.0
 20
0.0
 30
0.0
 70
   128
 71
    77
 72
    82
 73
    90
  0
VERTEX
  5
137
  8
0
 62
   253
 10
0.0
 20
0.0
 30
0.0
 70
   128
 71
    93
 72
    92
 73
    80
  0
VERTEX
  5
138
  8
0
 62
   253
 10
0.0
 20
0.0
 30
0.0
 70
   128
 71
    82
 72
    81
 73
    91
  0
VERTEX
  5
139
  8
0
 62
   253
 10
0.0
 20
0.0
 30
0.0
 70
   128
 71
    94
 72
    93
 73
    84
  0
VERTEX
  5
13A
  8
0
 62
   253
 10
0.0
 20
0.0
 30
0.0
 70
   128
 71
    81
 72
    80
 73
    92
  0
VERTEX
  5
13B
  8
0
 62
   253
 10
0.0
 20
0.0
 30
0.0
 70
   128
 71
    95
 72
    94
 73
    83
  0
VERTEX
  5
13C
  8
0
 62
   253
 10
0.0
 20
0.0
 30
0.0
 70
   128
 71
    80
 72
    84
 73
    93
  0
VERTEX
  5
13D
  8
0
 62
   253
 10
0.0
 20
0.0
 30
0.0
 70
   128
 71
    96
 72
    95
 73
    86
  0
VERTEX
  5
13E
  8
0
 62
   253
 10
0.0
 20
0.0
 30
0.0
 70
   128
 71
    84
 72
    83
 73
    94
  0
VERTEX
  5
13F
  8
0
 62
   253
 10
0.0
 20
0.0
 30
0.0
 70
   128
 71
    87
 72
    96
 73
    85
  0
VERTEX
  5
140
  8
0
 62
   253
 10
0.0
 20
0.0
 30
0.0
 70
   128
 71
    83
 72
    86
 73
    95
  0
VERTEX
  5
141
  8
0
 62
   253
 10
0.0
 20
0.0
 30
0.0
 70
   128
 71
    85
 72
    29
 73
    87
  0
VERTEX
  5
142
  8
0
 62
   253
 10
0.0
 20
0.0
 30
0.0
 70
   128
 71
    86
 72
    85
 73
    96
  0
VERTEX
  5
143
  8
0
 62
   253
 10
0.0
 20
0.0
 30
0.0
 70
   128
 71
    33
 72
    88
 73
    32
  0
VERTEX
  5
144
  8
0
 62
   253
 10
0.0
 20
0.0
 30
0.0
 70
   128
 71
    39
 72
    18
 73
    37
  0
VERTEX
  5
145
  8
0
 62
   253
 10
0.0
 20
0.0
 30
0.0
 70
   128
 71
    37
 72
    38
 73
    39
  0
VERTEX
  5
146
  8
0
 62
   253
 10
0.0
 20
0.0
 30
0.0
 70
   128
 71
    36
 72
    34
 73
    35
  0
VERTEX
  5
147
  8
0
 62
   253
 10
0.0
 20
0.0
 30
0.0
 70
   128
 71
    36
 72
    37
 73
    34
  0
VERTEX
  5
148
  8
0
 62
   253
 10
0.0
 20
0.0
 30
0.0
 70
   128
 71
    17
 72
    34
 73
    18
  0
VERTEX
  5
149
  8
0
 62
   253
 10
0.0
 20
0.0
 30
0.0
 70
   128
 71
    18
 72
    34
 73
    37
  0
VERTEX
  5
14A
  8
0
 62
   253
 10
0.0
 20
0.0
 30
0.0
 70
   128
 71
    31
 72
    90
 73
    91
  0
VERTEX
  5
14B
  8
0
 62
   253
 10
0.0
 20
0.0
 30
0.0
 70
   128
 71
    31
 72
    89
 73
    90
  0
VERTEX
  5
14C
  8
0
 62
   253
 10
0.0
 20
0.0
 30
0.0
 70
   128
 71
    94
 72
    96
 73
    87
  0
VERTEX
  5
14D
  8
0
 62
   253
 10
0.0
 20
0.0
 30
0.0
 70
   128
 71
    94
 72
    91
 73
    93
  0
VERTEX
  5
14E
  8
0
 62
   253
 10
0.0
 20
0.0
 30
0.0
 70
   128
 71
    91
 72
    92
 73
    93
  0
VERTEX
  5
14F
  8
0
 62
   253
 10
0.0
 20
0.0
 30
0.0
 70
   128
 71
    95
 72
    96
 73
    94
  0
VERTEX
  5
150
  8
0
 62
   253
 10
0.0
 20
0.0
 30
0.0
 70
   128
 71
    87
 72
    91
 73
    94
  0
VERTEX
  5
151
  8
0
 62
   253
 10
0.0
 20
0.0
 30
0.0
 70
   128
 71
     2
 72
     3
 73
    91
  0
VERTEX
  5
152
  8
0
 62
   253
 10
0.0
 20
0.0
 30
0.0
 70
   128
 71
     2
 72
    91
 73
    87
  0
VERTEX
  5
153
  8
0
 62
   253
 10
0.0
 20
0.0
 30
0.0
 70
   128
 71
    31
 72
    88
 73
    89
  0
VERTEX
  5
154
  8
0
 62
   253
 10
0.0
 20
0.0
 30
0.0
 70
   128
 71
     3
 72
    31
 73
    91
  0
VERTEX
  5
155
  8
0
 62
   253
 10
0.0
 20
0.0
 30
0.0
 70
   128
 71
    33
 72
    34
 73
    88
  0
VERTEX
  5
156
  8
0
 62
   253
 10
0.0
 20
0.0
 30
0.0
 70
   128
 71
    88
 72
    31
 73
    32
  0
VERTEX
  5
157
  8
0
 62
   253
 10
0.0
 20
0.0
 30
0.0
 70
   128
 71
    79
 72
    34
 73
    17
  0
VERTEX
  5
158
  8
0
 62
   253
 10
0.0
 20
0.0
 30
0.0
 70
   128
 71
    34
 72
    79
 73
    88
  0
SEQEND
  5
159
  8
0
 62
   253
  0
ENDBLK
  5
15D
  8
0
  0
BLOCK
  8
0
  2
____MSBR
 70
     0
 10
0.0
 20
0.0
 30
0.0
  3
____MSBR
  1

  0
POLYLINE
  5
15F
  8
0
 66
     1
 10
0.0
 20
0.0
 30
0.0
 70
    64
 71
    89
 72
   174
  0
VERTEX
  5
160
  8
0
 10
-2.215474128723145
 20
-82.3403091430664
 30
60.59158325195312
 70
   192
  0
VERTEX
  5
161
  8
0
 10
-6.656486511230469
 20
-92.67542266845703
 30
61.40916442871094
 70
   192
  0
VERTEX
  5
162
  8
0
 10
-4.031975269317627
 20
-80.68939208984375
 30
60.8253173828125
 70
   192
  0
VERTEX
  5
163
  8
0
 10
-17.79912376403809
 20
-92.67542266845703
 30
68.61869049072266
 70
   192
  0
VERTEX
  5
164
  8
0
 10
-19.62008285522461
 20
-64.33771514892578
 30
70.5158920288086
 70
   192
  0
VERTEX
  5
165
  8
0
 10
-15.05180263519287
 20
-64.33771514892578
 30
65.54476165771484
 70
   192
  0
VERTEX
  5
166
  8
0
 10
-22.78007316589355
 20
-64.33771514892578
 30
77.19474792480469
 70
   192
  0
VERTEX
  5
167
  8
0
 10
-21.39858245849609
 20
-92.67542266845703
 30
74.23722076416016
 70
   192
  0
VERTEX
  5
168
  8
0
 10
-23.25934410095215
 20
-92.67542266845703
 30
80.61603546142578
 70
   192
  0
VERTEX
  5
169
  8
0
 10
-0.0000000000000254
 20
-92.67542266845703
 30
60.44451904296875
 70
   192
  0
VERTEX
  5
16A
  8
0
 10
-0.0000000000000225
 20
-83.20003509521484
 30
60.3618278503418
 70
   192
  0
VERTEX
  5
16B
  8
0
 10
-23.7102108001709
 20
-64.33771514892578
 30
84.8447494506836
 70
   192
  0
VERTEX
  5
16C
  8
0
 10
-5.145507335662842
 20
-78.09636688232422
 30
60.88425445556641
 70
   192
  0
VERTEX
  5
16D
  8
0
 10
-10.00570011138916
 20
-64.33771514892578
 30
62.39502716064453
 70
   192
  0
VERTEX
  5
16E
  8
0
 10
-4.774827480316162
 20
-64.33705139160156
 30
60.82619857788086
 70
   192
  0
VERTEX
  5
16F
  8
0
 10
-21.3698616027832
 20
-92.67542266845703
 30
93.74008178710938
 70
   192
  0
VERTEX
  5
170
  8
0
 10
-17.71112442016602
 20
-92.67542266845703
 30
99.38750457763672
 70
   192
  0
VERTEX
  5
171
  8
0
 10
-18.63656044006348
 20
-64.33771514892578
 30
98.58065795898438
 70
   192
  0
VERTEX
  5
172
  8
0
 10
-23.25934410095215
 20
-92.67542266845703
 30
87.3311767578125
 70
   192
  0
VERTEX
  5
173
  8
0
 10
-22.17366409301758
 20
-64.33771514892578
 30
92.31639862060547
 70
   192
  0
VERTEX
  5
174
  8
0
 10
-12.64668083190918
 20
-92.67542266845703
 30
103.7533721923828
 70
   192
  0
VERTEX
  5
175
  8
0
 10
-8.950613975524902
 20
-64.33771514892578
 30
105.9208526611328
 70
   192
  0
VERTEX
  5
176
  8
0
 10
-13.95211505889893
 20
-64.33771514892578
 30
103.1147766113281
 70
   192
  0
VERTEX
  5
177
  8
0
 10
-4.209085464477539
 20
-64.33771514892578
 30
107.3354873657227
 70
   192
  0
VERTEX
  5
178
  8
0
 10
-6.656486511230469
 20
-92.67542266845703
 30
106.4906768798828
 70
   192
  0
VERTEX
  5
179
  8
0
 10
-0.0000000000000237
 20
-92.67542266845703
 30
107.455322265625
 70
   192
  0
VERTEX
  5
17A
  8
0
 10
-0.0000000000000127
 20
-64.33771514892578
 30
107.7026214599609
 70
   192
  0
VERTEX
  5
17B
  8
0
 10
-12.73749160766602
 20
-92.67542266845703
 30
64.19689178466797
 70
   192
  0
VERTEX
  5
17C
  8
0
 10
-11.9406623840332
 20
-36.0
 30
63.13825225830078
 70
   192
  0
VERTEX
  5
17D
  8
0
 10
-5.151579856872559
 20
-49.89398956298828
 30
60.63349151611328
 70
   192
  0
VERTEX
  5
17E
  8
0
 10
-4.776541709899902
 20
-57.11519241333008
 30
60.76210021972656
 70
   192
  0
VERTEX
  5
17F
  8
0
 10
-16.92830085754395
 20
-36.0
 30
66.94418334960938
 70
   192
  0
VERTEX
  5
180
  8
0
 10
-6.256156921386719
 20
-36.0
 30
60.78365325927734
 70
   192
  0
VERTEX
  5
181
  8
0
 10
-4.038435935974121
 20
-47.30192565917969
 30
60.53035354614258
 70
   192
  0
VERTEX
  5
182
  8
0
 10
-2.220147132873535
 20
-45.65596771240234
 30
60.27033996582031
 70
   192
  0
VERTEX
  5
183
  8
0
 10
-0.000000000000009
 20
-36.0
 30
59.94992065429688
 70
   192
  0
VERTEX
  5
184
  8
0
 10
-0.0000000000000124
 20
-44.79996871948242
 30
60.02671432495117
 70
   192
  0
VERTEX
  5
185
  8
0
 10
-20.7933406829834
 20
-36.0
 30
71.96501922607422
 70
   192
  0
VERTEX
  5
186
  8
0
 10
-23.16030502319336
 20
-36.0
 30
77.68152618408203
 70
   192
  0
VERTEX
  5
187
  8
0
 10
-20.7933406829834
 20
-36.0
 30
95.93482208251953
 70
   192
  0
VERTEX
  5
188
  8
0
 10
-23.18802642822266
 20
-36.0
 30
90.14354705810547
 70
   192
  0
VERTEX
  5
189
  8
0
 10
-23.98625564575195
 20
-36.0
 30
83.87676239013672
 70
   192
  0
VERTEX
  5
18A
  8
0
 10
-12.04083442687988
 20
-36.0
 30
104.7059555053711
 70
   192
  0
VERTEX
  5
18B
  8
0
 10
-16.99625015258789
 20
-36.0
 30
100.87353515625
 70
   192
  0
VERTEX
  5
18C
  8
0
 10
-6.256156921386719
 20
-36.0
 30
107.1161880493164
 70
   192
  0
VERTEX
  5
18D
  8
0
 10
-0.0000000000000067
 20
-36.0
 30
107.9499206542969
 70
   192
  0
VERTEX
  5
18E
  8
0
 10
20.7933406829834
 20
-36.0
 30
71.96501922607422
 70
   192
  0
VERTEX
  5
18F
  8
0
 10
15.05180263519287
 20
-64.33771514892578
 30
65.54476165771484
 70
   192
  0
VERTEX
  5
190
  8
0
 10
16.99625015258789
 20
-36.0
 30
67.02630615234375
 70
   192
  0
VERTEX
  5
191
  8
0
 10
19.62008285522461
 20
-64.33771514892578
 30
70.5158920288086
 70
   192
  0
VERTEX
  5
192
  8
0
 10
10.00570011138916
 20
-64.33771514892578
 30
62.39502716064453
 70
   192
  0
VERTEX
  5
193
  8
0
 10
4.774827480316162
 20
-64.33705139160156
 30
60.82619857788086
 70
   192
  0
VERTEX
  5
194
  8
0
 10
12.04083442687988
 20
-36.0
 30
63.19388198852539
 70
   192
  0
VERTEX
  5
195
  8
0
 10
4.776541709899902
 20
-57.11519241333008
 30
60.76210021972656
 70
   192
  0
VERTEX
  5
196
  8
0
 10
5.151579856872559
 20
-49.89398956298828
 30
60.63349151611328
 70
   192
  0
VERTEX
  5
197
  8
0
 10
6.256156921386719
 20
-36.0
 30
60.78365325927734
 70
   192
  0
VERTEX
  5
198
  8
0
 10
2.220287799835205
 20
-45.65604019165039
 30
60.27035522460938
 70
   192
  0
VERTEX
  5
199
  8
0
 10
4.038405418395996
 20
-47.30187606811523
 30
60.53034591674805
 70
   192
  0
VERTEX
  5
19A
  8
0
 10
23.18802642822266
 20
-36.0
 30
77.75629425048828
 70
   192
  0
VERTEX
  5
19B
  8
0
 10
22.78007316589355
 20
-64.33771514892578
 30
77.19474792480469
 70
   192
  0
VERTEX
  5
19C
  8
0
 10
23.98625564575195
 20
-36.0
 30
84.0230712890625
 70
   192
  0
VERTEX
  5
19D
  8
0
 10
23.7102108001709
 20
-64.33771514892578
 30
84.8447494506836
 70
   192
  0
VERTEX
  5
19E
  8
0
 10
23.16030502319336
 20
-36.0
 30
90.21831512451172
 70
   192
  0
VERTEX
  5
19F
  8
0
 10
22.17366409301758
 20
-64.33771514892578
 30
92.31639862060547
 70
   192
  0
VERTEX
  5
1A0
  8
0
 10
20.7933406829834
 20
-36.0
 30
95.93482208251953
 70
   192
  0
VERTEX
  5
1A1
  8
0
 10
18.63656044006348
 20
-64.33771514892578
 30
98.58065795898438
 70
   192
  0
VERTEX
  5
1A2
  8
0
 10
13.95211505889893
 20
-64.33771514892578
 30
103.1147766113281
 70
   192
  0
VERTEX
  5
1A3
  8
0
 10
16.92830085754395
 20
-36.0
 30
100.9556579589844
 70
   192
  0
VERTEX
  5
1A4
  8
0
 10
11.9406623840332
 20
-36.0
 30
104.761589050293
 70
   192
  0
VERTEX
  5
1A5
  8
0
 10
8.950613975524902
 20
-64.33771514892578
 30
105.9208526611328
 70
   192
  0
VERTEX
  5
1A6
  8
0
 10
6.256156921386719
 20
-36.0
 30
107.1161880493164
 70
   192
  0
VERTEX
  5
1A7
  8
0
 10
4.209085464477539
 20
-64.33771514892578
 30
107.3354873657227
 70
   192
  0
VERTEX
  5
1A8
  8
0
 10
9.955228805541992
 20
-92.67542266845703
 30
62.65679168701172
 70
   192
  0
VERTEX
  5
1A9
  8
0
 10
15.45560646057129
 20
-92.67542266845703
 30
66.24037170410156
 70
   192
  0
VERTEX
  5
1AA
  8
0
 10
4.654534816741943
 20
-92.67542266845703
 30
60.90997314453125
 70
   192
  0
VERTEX
  5
1AB
  8
0
 10
23.12006568908691
 20
-92.67542266845703
 30
79.71124267578125
 70
   192
  0
VERTEX
  5
1AC
  8
0
 10
9.955228805541992
 20
-92.67542266845703
 30
105.243049621582
 70
   192
  0
VERTEX
  5
1AD
  8
0
 10
4.654534816741943
 20
-92.67542266845703
 30
106.9898681640625
 70
   192
  0
VERTEX
  5
1AE
  8
0
 10
20.25080680847168
 20
-92.67542266845703
 30
72.01641082763672
 70
   192
  0
VERTEX
  5
1AF
  8
0
 10
23.12006568908691
 20
-92.67542266845703
 30
88.1885986328125
 70
   192
  0
VERTEX
  5
1B0
  8
0
 10
20.25080680847168
 20
-92.67542266845703
 30
95.88343048095703
 70
   192
  0
VERTEX
  5
1B1
  8
0
 10
15.45560646057129
 20
-92.67542266845703
 30
101.6594696044922
 70
   192
  0
VERTEX
  5
1B2
  8
0
 10
2.215444564819336
 20
-82.34032440185547
 30
60.59157943725586
 70
   192
  0
VERTEX
  5
1B3
  8
0
 10
5.145507335662842
 20
-78.09636688232422
 30
60.88425445556641
 70
   192
  0
VERTEX
  5
1B4
  8
0
 10
4.031893253326416
 20
-80.68951416015625
 30
60.8253059387207
 70
   192
  0
VERTEX
  5
1B5
  8
0
 10
0.0000000009314379
 20
-78.08375549316406
 30
62.31725692749023
 70
   192
  0
VERTEX
  5
1B6
  8
0
 10
-0.0000054463703236
 20
-49.88134002685547
 30
62.07113647460938
 70
   192
  0
VERTEX
  5
1B7
  8
0
 10
0.000000000519115
 20
-80.64391326904297
 30
61.85622406005859
 70
   192
  0
VERTEX
  5
1B8
  8
0
 10
-0.0000051538677326
 20
-47.32962036132812
 30
61.56549453735352
 70
   192
  0
VERTEX
  5
1B9
  8
0
 62
     7
 10
0.0
 20
0.0
 30
0.0
 70
   128
 71
     3
 72
     2
 73
     1
  0
VERTEX
  5
1BA
  8
0
 62
     7
 10
0.0
 20
0.0
 30
0.0
 70
   128
 71
     6
 72
     5
 73
     4
  0
VERTEX
  5
1BB
  8
0
 62
     7
 10
0.0
 20
0.0
 30
0.0
 70
   128
 71
     9
 72
     8
 73
     7
  0
VERTEX
  5
1BC
  8
0
 62
     7
 10
0.0
 20
0.0
 30
0.0
 70
   128
 71
    11
 72
     1
 73
    10
  0
VERTEX
  5
1BD
  8
0
 62
     7
 10
0.0
 20
0.0
 30
0.0
 70
   128
 71
     8
 72
     4
 73
     5
  0
VERTEX
  5
1BE
  8
0
 62
     7
 10
0.0
 20
0.0
 30
0.0
 70
   128
 71
     7
 72
    12
 73
     9
  0
VERTEX
  5
1BF
  8
0
 62
     7
 10
0.0
 20
0.0
 30
0.0
 70
   128
 71
    15
 72
    14
 73
    13
  0
VERTEX
  5
1C0
  8
0
 62
     7
 10
0.0
 20
0.0
 30
0.0
 70
   128
 71
    18
 72
    17
 73
    16
  0
VERTEX
  5
1C1
  8
0
 62
     7
 10
0.0
 20
0.0
 30
0.0
 70
   128
 71
    20
 72
    19
 73
    12
  0
VERTEX
  5
1C2
  8
0
 62
     7
 10
0.0
 20
0.0
 30
0.0
 70
   128
 71
    23
 72
    22
 73
    21
  0
VERTEX
  5
1C3
  8
0
 62
     7
 10
0.0
 20
0.0
 30
0.0
 70
   128
 71
    21
 72
    17
 73
    23
  0
VERTEX
  5
1C4
  8
0
 62
     7
 10
0.0
 20
0.0
 30
0.0
 70
   128
 71
    25
 72
    22
 73
    24
  0
VERTEX
  5
1C5
  8
0
 62
     7
 10
0.0
 20
0.0
 30
0.0
 70
   128
 71
    22
 72
    25
 73
    21
  0
VERTEX
  5
1C6
  8
0
 62
     7
 10
0.0
 20
0.0
 30
0.0
 70
   128
 71
    27
 72
    26
 73
    24
  0
VERTEX
  5
1C7
  8
0
 62
     7
 10
0.0
 20
0.0
 30
0.0
 70
   128
 71
    25
 72
    24
 73
    26
  0
VERTEX
  5
1C8
  8
0
 62
     7
 10
0.0
 20
0.0
 30
0.0
 70
   128
 71
    23
 72
    17
 73
    18
  0
VERTEX
  5
1C9
  8
0
 62
     7
 10
0.0
 20
0.0
 30
0.0
 70
   128
 71
     2
 72
     3
 73
    13
  0
VERTEX
  5
1CA
  8
0
 62
     7
 10
0.0
 20
0.0
 30
0.0
 70
   128
 71
    18
 72
    16
 73
    20
  0
VERTEX
  5
1CB
  8
0
 62
     7
 10
0.0
 20
0.0
 30
0.0
 70
   128
 71
    20
 72
    16
 73
    19
  0
VERTEX
  5
1CC
  8
0
 62
     7
 10
0.0
 20
0.0
 30
0.0
 70
   128
 71
     8
 72
     5
 73
     7
  0
VERTEX
  5
1CD
  8
0
 62
     7
 10
0.0
 20
0.0
 30
0.0
 70
   128
 71
    12
 72
    19
 73
     9
  0
VERTEX
  5
1CE
  8
0
 62
     7
 10
0.0
 20
0.0
 30
0.0
 70
   128
 71
     6
 72
    28
 73
    14
  0
VERTEX
  5
1CF
  8
0
 62
     7
 10
0.0
 20
0.0
 30
0.0
 70
   128
 71
     6
 72
     4
 73
    28
  0
VERTEX
  5
1D0
  8
0
 62
     7
 10
0.0
 20
0.0
 30
0.0
 70
   128
 71
     2
 72
    13
 73
    28
  0
VERTEX
  5
1D1
  8
0
 62
     7
 10
0.0
 20
0.0
 30
0.0
 70
   128
 71
    13
 72
    14
 73
    28
  0
VERTEX
  5
1D2
  8
0
 62
     7
 10
0.0
 20
0.0
 30
0.0
 70
   128
 71
     2
 72
    10
 73
     1
  0
VERTEX
  5
1D3
  8
0
 62
     7
 10
0.0
 20
0.0
 30
0.0
 70
   128
 71
    31
 72
    30
 73
    29
  0
VERTEX
  5
1D4
  8
0
 62
     7
 10
0.0
 20
0.0
 30
0.0
 70
   128
 71
     6
 72
    14
 73
    32
  0
VERTEX
  5
1D5
  8
0
 62
     7
 10
0.0
 20
0.0
 30
0.0
 70
   128
 71
    34
 72
    33
 73
    30
  0
VERTEX
  5
1D6
  8
0
 62
     7
 10
0.0
 20
0.0
 30
0.0
 70
   128
 71
    15
 72
    31
 73
    29
  0
VERTEX
  5
1D7
  8
0
 62
     7
 10
0.0
 20
0.0
 30
0.0
 70
   128
 71
    37
 72
    36
 73
    35
  0
VERTEX
  5
1D8
  8
0
 62
     7
 10
0.0
 20
0.0
 30
0.0
 70
   128
 71
    33
 72
    35
 73
    36
  0
VERTEX
  5
1D9
  8
0
 62
     7
 10
0.0
 20
0.0
 30
0.0
 70
   128
 71
    34
 72
    35
 73
    33
  0
VERTEX
  5
1DA
  8
0
 62
     7
 10
0.0
 20
0.0
 30
0.0
 70
   128
 71
    33
 72
    29
 73
    30
  0
VERTEX
  5
1DB
  8
0
 62
     7
 10
0.0
 20
0.0
 30
0.0
 70
   128
 71
    39
 72
     5
 73
    38
  0
VERTEX
  5
1DC
  8
0
 62
     7
 10
0.0
 20
0.0
 30
0.0
 70
   128
 71
    41
 72
    40
 73
    20
  0
VERTEX
  5
1DD
  8
0
 62
     7
 10
0.0
 20
0.0
 30
0.0
 70
   128
 71
    42
 72
    12
 73
     7
  0
VERTEX
  5
1DE
  8
0
 62
     7
 10
0.0
 20
0.0
 30
0.0
 70
   128
 71
    43
 72
    22
 73
    23
  0
VERTEX
  5
1DF
  8
0
 62
     7
 10
0.0
 20
0.0
 30
0.0
 70
   128
 71
    23
 72
    18
 73
    44
  0
VERTEX
  5
1E0
  8
0
 62
     7
 10
0.0
 20
0.0
 30
0.0
 70
   128
 71
    22
 72
    45
 73
    24
  0
VERTEX
  5
1E1
  8
0
 62
     7
 10
0.0
 20
0.0
 30
0.0
 70
   128
 71
    45
 72
    22
 73
    43
  0
VERTEX
  5
1E2
  8
0
 62
     7
 10
0.0
 20
0.0
 30
0.0
 70
   128
 71
    27
 72
    24
 73
    46
  0
VERTEX
  5
1E3
  8
0
 62
     7
 10
0.0
 20
0.0
 30
0.0
 70
   128
 71
    45
 72
    46
 73
    24
  0
VERTEX
  5
1E4
  8
0
 62
     7
 10
0.0
 20
0.0
 30
0.0
 70
   128
 71
    43
 72
    23
 73
    44
  0
VERTEX
  5
1E5
  8
0
 62
     7
 10
0.0
 20
0.0
 30
0.0
 70
   128
 71
    40
 72
    18
 73
    20
  0
VERTEX
  5
1E6
  8
0
 62
     7
 10
0.0
 20
0.0
 30
0.0
 70
   128
 71
    44
 72
    18
 73
    40
  0
VERTEX
  5
1E7
  8
0
 62
     7
 10
0.0
 20
0.0
 30
0.0
 70
   128
 71
     7
 72
    39
 73
    42
  0
VERTEX
  5
1E8
  8
0
 62
     7
 10
0.0
 20
0.0
 30
0.0
 70
   128
 71
    42
 72
    41
 73
    12
  0
VERTEX
  5
1E9
  8
0
 62
     7
 10
0.0
 20
0.0
 30
0.0
 70
   128
 71
    41
 72
    20
 73
    12
  0
VERTEX
  5
1EA
  8
0
 62
     7
 10
0.0
 20
0.0
 30
0.0
 70
   128
 71
     5
 72
    39
 73
     7
  0
VERTEX
  5
1EB
  8
0
 62
     7
 10
0.0
 20
0.0
 30
0.0
 70
   128
 71
    38
 72
     5
 73
     6
  0
VERTEX
  5
1EC
  8
0
 62
     7
 10
0.0
 20
0.0
 30
0.0
 70
   128
 71
    14
 72
    29
 73
    32
  0
VERTEX
  5
1ED
  8
0
 62
     7
 10
0.0
 20
0.0
 30
0.0
 70
   128
 71
     6
 72
    32
 73
    38
  0
VERTEX
  5
1EE
  8
0
 62
     7
 10
0.0
 20
0.0
 30
0.0
 70
   128
 71
    29
 72
    14
 73
    15
  0
VERTEX
  5
1EF
  8
0
 62
     7
 10
0.0
 20
0.0
 30
0.0
 70
   128
 71
    49
 72
    48
 73
    47
  0
VERTEX
  5
1F0
  8
0
 62
     7
 10
0.0
 20
0.0
 30
0.0
 70
   128
 71
    50
 72
    47
 73
    48
  0
VERTEX
  5
1F1
  8
0
 62
     7
 10
0.0
 20
0.0
 30
0.0
 70
   128
 71
    53
 72
    52
 73
    51
  0
VERTEX
  5
1F2
  8
0
 62
     7
 10
0.0
 20
0.0
 30
0.0
 70
   128
 71
    53
 72
    51
 73
    49
  0
VERTEX
  5
1F3
  8
0
 62
     7
 10
0.0
 20
0.0
 30
0.0
 70
   128
 71
    54
 72
    52
 73
    53
  0
VERTEX
  5
1F4
  8
0
 62
     7
 10
0.0
 20
0.0
 30
0.0
 70
   128
 71
    54
 72
    53
 73
    55
  0
VERTEX
  5
1F5
  8
0
 62
     7
 10
0.0
 20
0.0
 30
0.0
 70
   128
 71
    48
 72
    49
 73
    51
  0
VERTEX
  5
1F6
  8
0
 62
     7
 10
0.0
 20
0.0
 30
0.0
 70
   128
 71
    55
 72
    53
 73
    56
  0
VERTEX
  5
1F7
  8
0
 62
     7
 10
0.0
 20
0.0
 30
0.0
 70
   128
 71
    36
 72
    57
 73
    56
  0
VERTEX
  5
1F8
  8
0
 62
     7
 10
0.0
 20
0.0
 30
0.0
 70
   128
 71
    56
 72
    57
 73
    58
  0
VERTEX
  5
1F9
  8
0
 62
     7
 10
0.0
 20
0.0
 30
0.0
 70
   128
 71
    56
 72
    58
 73
    55
  0
VERTEX
  5
1FA
  8
0
 62
     7
 10
0.0
 20
0.0
 30
0.0
 70
   128
 71
    37
 72
    57
 73
    36
  0
VERTEX
  5
1FB
  8
0
 62
     7
 10
0.0
 20
0.0
 30
0.0
 70
   128
 71
    47
 72
    50
 73
    59
  0
VERTEX
  5
1FC
  8
0
 62
     7
 10
0.0
 20
0.0
 30
0.0
 70
   128
 71
    60
 72
    59
 73
    50
  0
VERTEX
  5
1FD
  8
0
 62
     7
 10
0.0
 20
0.0
 30
0.0
 70
   128
 71
    60
 72
    62
 73
    61
  0
VERTEX
  5
1FE
  8
0
 62
     7
 10
0.0
 20
0.0
 30
0.0
 70
   128
 71
    60
 72
    61
 73
    59
  0
VERTEX
  5
1FF
  8
0
 62
     7
 10
0.0
 20
0.0
 30
0.0
 70
   128
 71
    62
 72
    63
 73
    61
  0
VERTEX
  5
200
  8
0
 62
     7
 10
0.0
 20
0.0
 30
0.0
 70
   128
 71
    63
 72
    62
 73
    64
  0
VERTEX
  5
201
  8
0
 62
     7
 10
0.0
 20
0.0
 30
0.0
 70
   128
 71
    64
 72
    66
 73
    65
  0
VERTEX
  5
202
  8
0
 62
     7
 10
0.0
 20
0.0
 30
0.0
 70
   128
 71
    65
 72
    63
 73
    64
  0
VERTEX
  5
203
  8
0
 62
     7
 10
0.0
 20
0.0
 30
0.0
 70
   128
 71
    68
 72
    66
 73
    67
  0
VERTEX
  5
204
  8
0
 62
     7
 10
0.0
 20
0.0
 30
0.0
 70
   128
 71
    66
 72
    68
 73
    65
  0
VERTEX
  5
205
  8
0
 62
     7
 10
0.0
 20
0.0
 30
0.0
 70
   128
 71
    70
 72
    69
 73
    67
  0
VERTEX
  5
206
  8
0
 62
     7
 10
0.0
 20
0.0
 30
0.0
 70
   128
 71
    68
 72
    67
 73
    69
  0
VERTEX
  5
207
  8
0
 62
     7
 10
0.0
 20
0.0
 30
0.0
 70
   128
 71
    70
 72
    72
 73
    71
  0
VERTEX
  5
208
  8
0
 62
     7
 10
0.0
 20
0.0
 30
0.0
 70
   128
 71
    71
 72
    69
 73
    70
  0
VERTEX
  5
209
  8
0
 62
     7
 10
0.0
 20
0.0
 30
0.0
 70
   128
 71
    72
 72
    46
 73
    71
  0
VERTEX
  5
20A
  8
0
 62
     7
 10
0.0
 20
0.0
 30
0.0
 70
   128
 71
    72
 72
    27
 73
    46
  0
VERTEX
  5
20B
  8
0
 62
     9
 10
0.0
 20
0.0
 30
0.0
 70
   128
 71
     9
 72
    19
 73
     2
  0
VERTEX
  5
20C
  8
0
 62
     9
 10
0.0
 20
0.0
 30
0.0
 70
   128
 71
    25
 72
    74
 73
    73
  0
VERTEX
  5
20D
  8
0
 62
     9
 10
0.0
 20
0.0
 30
0.0
 70
   128
 71
     4
 72
     9
 73
     2
  0
VERTEX
  5
20E
  8
0
 62
     9
 10
0.0
 20
0.0
 30
0.0
 70
   128
 71
    28
 72
     4
 73
     2
  0
VERTEX
  5
20F
  8
0
 62
     9
 10
0.0
 20
0.0
 30
0.0
 70
   128
 71
     9
 72
     4
 73
     8
  0
VERTEX
  5
210
  8
0
 62
     9
 10
0.0
 20
0.0
 30
0.0
 70
   128
 71
    16
 72
    10
 73
     2
  0
VERTEX
  5
211
  8
0
 62
     9
 10
0.0
 20
0.0
 30
0.0
 70
   128
 71
    16
 72
     2
 73
    19
  0
VERTEX
  5
212
  8
0
 62
     9
 10
0.0
 20
0.0
 30
0.0
 70
   128
 71
    75
 72
    10
 73
    17
  0
VERTEX
  5
213
  8
0
 62
     9
 10
0.0
 20
0.0
 30
0.0
 70
   128
 71
    16
 72
    17
 73
    10
  0
VERTEX
  5
214
  8
0
 62
     9
 10
0.0
 20
0.0
 30
0.0
 70
   128
 71
    73
 72
    75
 73
    17
  0
VERTEX
  5
215
  8
0
 62
     9
 10
0.0
 20
0.0
 30
0.0
 70
   128
 71
    25
 72
    73
 73
    21
  0
VERTEX
  5
216
  8
0
 62
     9
 10
0.0
 20
0.0
 30
0.0
 70
   128
 71
    73
 72
    17
 73
    21
  0
VERTEX
  5
217
  8
0
 62
     9
 10
0.0
 20
0.0
 30
0.0
 70
   128
 71
    25
 72
    26
 73
    74
  0
VERTEX
  5
218
  8
0
 62
     9
 10
0.0
 20
0.0
 30
0.0
 70
   128
 71
    78
 72
    77
 73
    76
  0
VERTEX
  5
219
  8
0
 62
     9
 10
0.0
 20
0.0
 30
0.0
 70
   128
 71
    26
 72
    79
 73
    74
  0
VERTEX
  5
21A
  8
0
 62
     9
 10
0.0
 20
0.0
 30
0.0
 70
   128
 71
    81
 72
    80
 73
    77
  0
VERTEX
  5
21B
  8
0
 62
     9
 10
0.0
 20
0.0
 30
0.0
 70
   128
 71
    80
 72
    76
 73
    77
  0
VERTEX
  5
21C
  8
0
 62
     9
 10
0.0
 20
0.0
 30
0.0
 70
   128
 71
    77
 72
    82
 73
    81
  0
VERTEX
  5
21D
  8
0
 62
     9
 10
0.0
 20
0.0
 30
0.0
 70
   128
 71
    78
 72
    79
 73
    26
  0
VERTEX
  5
21E
  8
0
 62
     9
 10
0.0
 20
0.0
 30
0.0
 70
   128
 71
    78
 72
    76
 73
    79
  0
VERTEX
  5
21F
  8
0
 62
     7
 10
0.0
 20
0.0
 30
0.0
 70
   128
 71
    79
 72
    50
 73
    74
  0
VERTEX
  5
220
  8
0
 62
     7
 10
0.0
 20
0.0
 30
0.0
 70
   128
 71
    83
 72
    10
 73
    75
  0
VERTEX
  5
221
  8
0
 62
     7
 10
0.0
 20
0.0
 30
0.0
 70
   128
 71
    60
 72
    50
 73
    79
  0
VERTEX
  5
222
  8
0
 62
     7
 10
0.0
 20
0.0
 30
0.0
 70
   128
 71
    73
 72
    48
 73
    51
  0
VERTEX
  5
223
  8
0
 62
     7
 10
0.0
 20
0.0
 30
0.0
 70
   128
 71
    74
 72
    48
 73
    73
  0
VERTEX
  5
224
  8
0
 62
     7
 10
0.0
 20
0.0
 30
0.0
 70
   128
 71
    73
 72
    51
 73
    84
  0
VERTEX
  5
225
  8
0
 62
     7
 10
0.0
 20
0.0
 30
0.0
 70
   128
 71
    85
 72
    83
 73
    75
  0
VERTEX
  5
226
  8
0
 62
     7
 10
0.0
 20
0.0
 30
0.0
 70
   128
 71
    51
 72
    52
 73
    84
  0
VERTEX
  5
227
  8
0
 62
     7
 10
0.0
 20
0.0
 30
0.0
 70
   128
 71
    75
 72
    84
 73
    85
  0
VERTEX
  5
228
  8
0
 62
     7
 10
0.0
 20
0.0
 30
0.0
 70
   128
 71
    75
 72
    73
 73
    84
  0
VERTEX
  5
229
  8
0
 62
     7
 10
0.0
 20
0.0
 30
0.0
 70
   128
 71
    48
 72
    74
 73
    50
  0
VERTEX
  5
22A
  8
0
 62
     7
 10
0.0
 20
0.0
 30
0.0
 70
   128
 71
    79
 72
    76
 73
    60
  0
VERTEX
  5
22B
  8
0
 62
     7
 10
0.0
 20
0.0
 30
0.0
 70
   128
 71
    62
 72
    60
 73
    76
  0
VERTEX
  5
22C
  8
0
 62
     7
 10
0.0
 20
0.0
 30
0.0
 70
   128
 71
    80
 72
    62
 73
    76
  0
VERTEX
  5
22D
  8
0
 62
     7
 10
0.0
 20
0.0
 30
0.0
 70
   128
 71
    11
 72
    10
 73
    83
  0
VERTEX
  5
22E
  8
0
 62
     7
 10
0.0
 20
0.0
 30
0.0
 70
   128
 71
    80
 72
    64
 73
    62
  0
VERTEX
  5
22F
  8
0
 62
     7
 10
0.0
 20
0.0
 30
0.0
 70
   128
 71
    81
 72
    66
 73
    64
  0
VERTEX
  5
230
  8
0
 62
     7
 10
0.0
 20
0.0
 30
0.0
 70
   128
 71
    64
 72
    80
 73
    81
  0
VERTEX
  5
231
  8
0
 62
     7
 10
0.0
 20
0.0
 30
0.0
 70
   128
 71
    66
 72
    82
 73
    67
  0
VERTEX
  5
232
  8
0
 62
     7
 10
0.0
 20
0.0
 30
0.0
 70
   128
 71
    82
 72
    66
 73
    81
  0
VERTEX
  5
233
  8
0
 62
     7
 10
0.0
 20
0.0
 30
0.0
 70
   128
 71
    70
 72
    67
 73
    77
  0
VERTEX
  5
234
  8
0
 62
     7
 10
0.0
 20
0.0
 30
0.0
 70
   128
 71
    82
 72
    77
 73
    67
  0
VERTEX
  5
235
  8
0
 62
     7
 10
0.0
 20
0.0
 30
0.0
 70
   128
 71
    78
 72
    72
 73
    70
  0
VERTEX
  5
236
  8
0
 62
     7
 10
0.0
 20
0.0
 30
0.0
 70
   128
 71
    70
 72
    77
 73
    78
  0
VERTEX
  5
237
  8
0
 62
     7
 10
0.0
 20
0.0
 30
0.0
 70
   128
 71
    26
 72
    72
 73
    78
  0
VERTEX
  5
238
  8
0
 62
     7
 10
0.0
 20
0.0
 30
0.0
 70
   128
 71
    26
 72
    27
 73
    72
  0
VERTEX
  5
239
  8
0
 62
     7
 10
0.0
 20
0.0
 30
0.0
 70
   128
 71
    63
 72
    65
 73
    68
  0
VERTEX
  5
23A
  8
0
 62
     7
 10
0.0
 20
0.0
 30
0.0
 70
   128
 71
    56
 72
    44
 73
    36
  0
VERTEX
  5
23B
  8
0
 62
     7
 10
0.0
 20
0.0
 30
0.0
 70
   128
 71
    69
 72
    61
 73
    68
  0
VERTEX
  5
23C
  8
0
 62
     7
 10
0.0
 20
0.0
 30
0.0
 70
   128
 71
    63
 72
    68
 73
    61
  0
VERTEX
  5
23D
  8
0
 62
     7
 10
0.0
 20
0.0
 30
0.0
 70
   128
 71
    61
 72
    69
 73
    71
  0
VERTEX
  5
23E
  8
0
 62
     7
 10
0.0
 20
0.0
 30
0.0
 70
   128
 71
    71
 72
    47
 73
    59
  0
VERTEX
  5
23F
  8
0
 62
     7
 10
0.0
 20
0.0
 30
0.0
 70
   128
 71
    61
 72
    71
 73
    59
  0
VERTEX
  5
240
  8
0
 62
     7
 10
0.0
 20
0.0
 30
0.0
 70
   128
 71
    49
 72
    47
 73
    46
  0
VERTEX
  5
241
  8
0
 62
     7
 10
0.0
 20
0.0
 30
0.0
 70
   128
 71
    71
 72
    46
 73
    47
  0
VERTEX
  5
242
  8
0
 62
     7
 10
0.0
 20
0.0
 30
0.0
 70
   128
 71
    36
 72
    44
 73
    40
  0
VERTEX
  5
243
  8
0
 62
     7
 10
0.0
 20
0.0
 30
0.0
 70
   128
 71
    53
 72
    43
 73
    44
  0
VERTEX
  5
244
  8
0
 62
     7
 10
0.0
 20
0.0
 30
0.0
 70
   128
 71
    42
 72
    33
 73
    41
  0
VERTEX
  5
245
  8
0
 62
     7
 10
0.0
 20
0.0
 30
0.0
 70
   128
 71
    38
 72
    32
 73
    39
  0
VERTEX
  5
246
  8
0
 62
     7
 10
0.0
 20
0.0
 30
0.0
 70
   128
 71
    32
 72
    29
 73
    42
  0
VERTEX
  5
247
  8
0
 62
     7
 10
0.0
 20
0.0
 30
0.0
 70
   128
 71
    42
 72
    29
 73
    33
  0
VERTEX
  5
248
  8
0
 62
     7
 10
0.0
 20
0.0
 30
0.0
 70
   128
 71
    42
 72
    39
 73
    32
  0
VERTEX
  5
249
  8
0
 62
     7
 10
0.0
 20
0.0
 30
0.0
 70
   128
 71
    33
 72
    36
 73
    40
  0
VERTEX
  5
24A
  8
0
 62
     7
 10
0.0
 20
0.0
 30
0.0
 70
   128
 71
    33
 72
    40
 73
    41
  0
VERTEX
  5
24B
  8
0
 62
     7
 10
0.0
 20
0.0
 30
0.0
 70
   128
 71
    44
 72
    56
 73
    53
  0
VERTEX
  5
24C
  8
0
 62
     7
 10
0.0
 20
0.0
 30
0.0
 70
   128
 71
    49
 72
    43
 73
    53
  0
VERTEX
  5
24D
  8
0
 62
     7
 10
0.0
 20
0.0
 30
0.0
 70
   128
 71
    45
 72
    49
 73
    46
  0
VERTEX
  5
24E
  8
0
 62
     7
 10
0.0
 20
0.0
 30
0.0
 70
   128
 71
    49
 72
    45
 73
    43
  0
VERTEX
  5
24F
  8
0
 62
     7
 10
0.0
 20
0.0
 30
0.0
 70
   128
 71
    84
 72
    52
 73
    86
  0
VERTEX
  5
250
  8
0
 62
     7
 10
0.0
 20
0.0
 30
0.0
 70
   128
 71
    54
 72
    87
 73
    52
  0
VERTEX
  5
251
  8
0
 62
     7
 10
0.0
 20
0.0
 30
0.0
 70
   128
 71
    54
 72
    55
 73
    87
  0
VERTEX
  5
252
  8
0
 62
     7
 10
0.0
 20
0.0
 30
0.0
 70
   128
 71
    87
 72
    86
 73
    52
  0
VERTEX
  5
253
  8
0
 62
     7
 10
0.0
 20
0.0
 30
0.0
 70
   128
 71
    31
 72
    87
 73
    30
  0
VERTEX
  5
254
  8
0
 62
     7
 10
0.0
 20
0.0
 30
0.0
 70
   128
 71
    15
 72
    86
 73
    87
  0
VERTEX
  5
255
  8
0
 62
     7
 10
0.0
 20
0.0
 30
0.0
 70
   128
 71
    87
 72
    31
 73
    15
  0
VERTEX
  5
256
  8
0
 62
     7
 10
0.0
 20
0.0
 30
0.0
 70
   128
 71
    15
 72
    13
 73
    86
  0
VERTEX
  5
257
  8
0
 62
     7
 10
0.0
 20
0.0
 30
0.0
 70
   128
 71
     1
 72
    88
 73
     3
  0
VERTEX
  5
258
  8
0
 62
     7
 10
0.0
 20
0.0
 30
0.0
 70
   128
 71
    11
 72
    83
 73
    88
  0
VERTEX
  5
259
  8
0
 62
     7
 10
0.0
 20
0.0
 30
0.0
 70
   128
 71
    86
 72
    85
 73
    84
  0
VERTEX
  5
25A
  8
0
 62
     7
 10
0.0
 20
0.0
 30
0.0
 70
   128
 71
    88
 72
    83
 73
    85
  0
VERTEX
  5
25B
  8
0
 62
     7
 10
0.0
 20
0.0
 30
0.0
 70
   128
 71
    88
 72
     1
 73
    11
  0
VERTEX
  5
25C
  8
0
 62
     7
 10
0.0
 20
0.0
 30
0.0
 70
   128
 71
     3
 72
    88
 73
    13
  0
VERTEX
  5
25D
  8
0
 62
     7
 10
0.0
 20
0.0
 30
0.0
 70
   128
 71
    86
 72
    88
 73
    85
  0
VERTEX
  5
25E
  8
0
 62
     7
 10
0.0
 20
0.0
 30
0.0
 70
   128
 71
    88
 72
    86
 73
    13
  0
VERTEX
  5
25F
  8
0
 62
     7
 10
0.0
 20
0.0
 30
0.0
 70
   128
 71
    89
 72
    37
 73
    35
  0
VERTEX
  5
260
  8
0
 62
     7
 10
0.0
 20
0.0
 30
0.0
 70
   128
 71
    57
 72
    37
 73
    89
  0
VERTEX
  5
261
  8
0
 62
     7
 10
0.0
 20
0.0
 30
0.0
 70
   128
 71
    89
 72
    35
 73
    34
  0
VERTEX
  5
262
  8
0
 62
     7
 10
0.0
 20
0.0
 30
0.0
 70
   128
 71
    55
 72
    58
 73
    87
  0
VERTEX
  5
263
  8
0
 62
     7
 10
0.0
 20
0.0
 30
0.0
 70
   128
 71
    57
 72
    89
 73
    58
  0
VERTEX
  5
264
  8
0
 62
     7
 10
0.0
 20
0.0
 30
0.0
 70
   128
 71
    30
 72
    87
 73
    89
  0
VERTEX
  5
265
  8
0
 62
     7
 10
0.0
 20
0.0
 30
0.0
 70
   128
 71
    89
 72
    34
 73
    30
  0
VERTEX
  5
266
  8
0
 62
     7
 10
0.0
 20
0.0
 30
0.0
 70
   128
 71
    58
 72
    89
 73
    87
  0
SEQEND
  5
267
  8
0
  0
ENDBLK
  5
26A
  8
0
  0
BLOCK
  8
0
  2
01_5817
 70
     0
 10
0.0
 20
0.0
 30
0.0
  3
01_5817
  1

  0
POLYLINE
  5
26C
  8
0
 66
     1
 10
0.0
 20
0.0
 30
0.0
 70
    64
 71
    96
 72
   166
  0
VERTEX
  5
26D
  8
0
 10
223.2449188232422
 20
1.308440089225769
 30
251.3499145507812
 70
   192
  0
VERTEX
  5
26E
  8
0
 10
224.2680206298828
 20
2.510523557662964
 30
252.2099151611328
 70
   192
  0
VERTEX
  5
26F
  8
0
 10
223.2447967529297
 20
1.308184385299683
 30
252.2099151611328
 70
   192
  0
VERTEX
  5
270
  8
0
 10
225.7553253173828
 20
3.040169954299927
 30
252.2099151611328
 70
   192
  0
VERTEX
  5
271
  8
0
 10
224.2677764892578
 20
2.510362863540649
 30
251.3499145507812
 70
   192
  0
VERTEX
  5
272
  8
0
 10
225.7553253173828
 20
3.040169954299927
 30
251.3499145507812
 70
   192
  0
VERTEX
  5
273
  8
0
 10
223.4894714355469
 20
-1.731985092163086
 30
252.2099151611328
 70
   192
  0
VERTEX
  5
274
  8
0
 10
224.6918182373047
 20
-2.755204677581787
 30
252.2099151611328
 70
   192
  0
VERTEX
  5
275
  8
0
 10
224.6915588378906
 20
-2.755083322525024
 30
251.3499145507812
 70
   192
  0
VERTEX
  5
276
  8
0
 10
223.4896392822266
 20
-1.732218027114868
 30
251.3499145507812
 70
   192
  0
VERTEX
  5
277
  8
0
 10
222.9598236083984
 20
-0.2446815222501755
 30
251.3499145507812
 70
   192
  0
VERTEX
  5
278
  8
0
 10
222.9598236083984
 20
-0.2446815222501755
 30
252.2099151611328
 70
   192
  0
VERTEX
  5
279
  8
0
 10
226.2446746826172
 20
-3.04016900062561
 30
252.2099151611328
 70
   192
  0
VERTEX
  5
27A
  8
0
 10
226.2446746826172
 20
-3.04016900062561
 30
251.3499145507812
 70
   192
  0
VERTEX
  5
27B
  8
0
 10
229.4887237548828
 20
0.2807829678058624
 30
251.3499145507812
 70
   192
  0
VERTEX
  5
27C
  8
0
 10
229.4887237548828
 20
0.2807829678058624
 30
254.0499267578125
 70
   192
  0
VERTEX
  5
27D
  8
0
 10
229.1615753173828
 20
-1.501487731933594
 30
254.0499267578125
 70
   192
  0
VERTEX
  5
27E
  8
0
 10
227.98779296875
 20
-2.880743265151978
 30
254.0499267578125
 70
   192
  0
VERTEX
  5
27F
  8
0
 10
229.1617126464844
 20
-1.501194357872009
 30
251.3499145507812
 70
   192
  0
VERTEX
  5
280
  8
0
 10
226.2807769775391
 20
-3.488718748092651
 30
254.0499267578125
 70
   192
  0
VERTEX
  5
281
  8
0
 10
227.9875183105469
 20
-2.880927801132202
 30
251.3499145507812
 70
   192
  0
VERTEX
  5
282
  8
0
 10
226.2807769775391
 20
-3.488718748092651
 30
251.3499145507812
 70
   192
  0
VERTEX
  5
283
  8
0
 10
228.8809356689453
 20
1.987524747848511
 30
251.3499145507812
 70
   192
  0
VERTEX
  5
284
  8
0
 10
227.5011901855469
 20
3.161710977554321
 30
251.3499145507812
 70
   192
  0
VERTEX
  5
285
  8
0
 10
228.8807373046875
 20
1.987792134284973
 30
254.0499267578125
 70
   192
  0
VERTEX
  5
286
  8
0
 10
227.5014953613281
 20
3.161571741104126
 30
254.0499267578125
 70
   192
  0
VERTEX
  5
287
  8
0
 10
225.7192230224609
 20
3.488719463348389
 30
251.3499145507812
 70
   192
  0
VERTEX
  5
288
  8
0
 10
225.7192230224609
 20
3.488719463348389
 30
254.0499267578125
 70
   192
  0
VERTEX
  5
289
  8
0
 10
239.96240234375
 20
1.02541172504425
 30
272.9499206542969
 70
   192
  0
VERTEX
  5
28A
  8
0
 10
239.9578247070312
 20
1.047137141227722
 30
254.0499267578125
 70
   192
  0
VERTEX
  5
28B
  8
0
 10
239.2131042480469
 20
4.622050762176514
 30
254.0499267578125
 70
   192
  0
VERTEX
  5
28C
  8
0
 10
237.5653228759766
 20
7.883285045623779
 30
254.0499267578125
 70
   192
  0
VERTEX
  5
28D
  8
0
 10
239.2899475097656
 20
4.401959419250488
 30
272.9499206542969
 70
   192
  0
VERTEX
  5
28E
  8
0
 10
235.1326751708984
 20
10.60787296295166
 30
254.0499267578125
 70
   192
  0
VERTEX
  5
28F
  8
0
 10
237.6773834228516
 20
7.722620010375977
 30
272.9499206542969
 70
   192
  0
VERTEX
  5
290
  8
0
 10
235.1478271484375
 20
10.59798145294189
 30
272.9499206542969
 70
   192
  0
VERTEX
  5
291
  8
0
 10
232.0815124511719
 20
12.60722255706787
 30
254.0499267578125
 70
   192
  0
VERTEX
  5
292
  8
0
 10
228.6266479492188
 20
13.75134944915771
 30
254.0499267578125
 70
   192
  0
VERTEX
  5
293
  8
0
 10
231.9337615966797
 20
12.68031597137451
 30
272.9499206542969
 70
   192
  0
VERTEX
  5
294
  8
0
 10
224.9745941162109
 20
13.96239757537842
 30
254.0499267578125
 70
   192
  0
VERTEX
  5
295
  8
0
 10
228.4131469726562
 20
13.7904577255249
 30
272.9499206542969
 70
   192
  0
VERTEX
  5
296
  8
0
 10
224.9745941162109
 20
13.96239757537842
 30
272.9499206542969
 70
   192
  0
VERTEX
  5
297
  8
0
 10
239.7904510498047
 20
-2.413148641586304
 30
272.9499206542969
 70
   192
  0
VERTEX
  5
298
  8
0
 10
238.6803131103516
 20
-5.933767795562744
 30
272.9499206542969
 70
   192
  0
VERTEX
  5
299
  8
0
 10
239.7541656494141
 20
-2.607140302658081
 30
254.0499267578125
 70
   192
  0
VERTEX
  5
29A
  8
0
 10
238.611328125
 20
-6.075047492980957
 30
254.0499267578125
 70
   192
  0
VERTEX
  5
29B
  8
0
 10
236.5979766845703
 20
-9.14783000946045
 30
272.9499206542969
 70
   192
  0
VERTEX
  5
29C
  8
0
 10
233.7226257324219
 20
-11.67737674713135
 30
272.9499206542969
 70
   192
  0
VERTEX
  5
29D
  8
0
 10
236.6045074462891
 20
-9.13982105255127
 30
254.0499267578125
 70
   192
  0
VERTEX
  5
29E
  8
0
 10
230.4019622802734
 20
-13.28994941711426
 30
272.9499206542969
 70
   192
  0
VERTEX
  5
29F
  8
0
 10
233.8785247802734
 20
-11.57214069366455
 30
254.0499267578125
 70
   192
  0
VERTEX
  5
2A0
  8
0
 10
230.6074523925781
 20
-13.22006893157959
 30
254.0499267578125
 70
   192
  0
VERTEX
  5
2A1
  8
0
 10
227.0254058837891
 20
-13.9623966217041
 30
272.9499206542969
 70
   192
  0
VERTEX
  5
2A2
  8
0
 10
227.0254058837891
 20
-13.9623966217041
 30
254.0499267578125
 70
   192
  0
VERTEX
  5
2A3
  8
0
 10
228.771484375
 20
-1.273342847824097
 30
252.2099151611328
 70
   192
  0
VERTEX
  5
2A4
  8
0
 10
227.7001953125
 20
-2.532159566879272
 30
252.2099151611328
 70
   192
  0
VERTEX
  5
2A5
  8
0
 10
229.0401763916016
 20
0.2446823567152023
 30
252.2099151611328
 70
   192
  0
VERTEX
  5
2A6
  8
0
 10
227.2733459472656
 20
2.771479606628418
 30
252.2099151611328
 70
   192
  0
VERTEX
  5
2A7
  8
0
 10
228.5321655273438
 20
1.700196385383606
 30
252.2099151611328
 70
   192
  0
VERTEX
  5
2A8
  8
0
 10
229.0401763916016
 20
0.2446823567152023
 30
251.3499145507812
 70
   192
  0
VERTEX
  5
2A9
  8
0
 10
228.5321655273438
 20
1.700196385383606
 30
251.3499145507812
 70
   192
  0
VERTEX
  5
2AA
  8
0
 10
228.771484375
 20
-1.273342847824097
 30
251.3499145507812
 70
   192
  0
VERTEX
  5
2AB
  8
0
 10
227.7001953125
 20
-2.532159566879272
 30
251.3499145507812
 70
   192
  0
VERTEX
  5
2AC
  8
0
 10
223.09423828125
 20
-1.951044201850891
 30
251.3499145507812
 70
   192
  0
VERTEX
  5
2AD
  8
0
 10
224.5387878417969
 20
-3.180385589599609
 30
251.3499145507812
 70
   192
  0
VERTEX
  5
2AE
  8
0
 10
227.2733459472656
 20
2.771479606628418
 30
251.3499145507812
 70
   192
  0
VERTEX
  5
2AF
  8
0
 10
224.0489501953125
 20
2.905757665634155
 30
251.3499145507812
 70
   192
  0
VERTEX
  5
2B0
  8
0
 10
222.8196105957031
 20
1.461213946342468
 30
251.3499145507812
 70
   192
  0
VERTEX
  5
2B1
  8
0
 10
222.5112762451172
 20
-0.2807821333408356
 30
251.3499145507812
 70
   192
  0
VERTEX
  5
2B2
  8
0
 10
221.5980377197266
 20
13.28994941711426
 30
254.0499267578125
 70
   192
  0
VERTEX
  5
2B3
  8
0
 10
218.2773742675781
 20
11.67737770080566
 30
254.0499267578125
 70
   192
  0
VERTEX
  5
2B4
  8
0
 10
224.0489501953125
 20
2.905757665634155
 30
254.0499267578125
 70
   192
  0
VERTEX
  5
2B5
  8
0
 10
215.4020233154297
 20
9.147830963134766
 30
254.0499267578125
 70
   192
  0
VERTEX
  5
2B6
  8
0
 10
222.8196105957031
 20
1.461213946342468
 30
254.0499267578125
 70
   192
  0
VERTEX
  5
2B7
  8
0
 10
213.3196868896484
 20
5.933768749237061
 30
254.0499267578125
 70
   192
  0
VERTEX
  5
2B8
  8
0
 10
212.7100524902344
 20
-4.40195894241333
 30
254.0499267578125
 70
   192
  0
VERTEX
  5
2B9
  8
0
 10
212.03759765625
 20
-1.025410890579224
 30
254.0499267578125
 70
   192
  0
VERTEX
  5
2BA
  8
0
 10
222.5112762451172
 20
-0.2807821333408356
 30
254.0499267578125
 70
   192
  0
VERTEX
  5
2BB
  8
0
 10
223.09423828125
 20
-1.951044201850891
 30
254.0499267578125
 70
   192
  0
VERTEX
  5
2BC
  8
0
 10
214.3226165771484
 20
-7.722619533538818
 30
254.0499267578125
 70
   192
  0
VERTEX
  5
2BD
  8
0
 10
216.8521728515625
 20
-10.59798049926758
 30
254.0499267578125
 70
   192
  0
VERTEX
  5
2BE
  8
0
 10
224.5387878417969
 20
-3.180385589599609
 30
254.0499267578125
 70
   192
  0
VERTEX
  5
2BF
  8
0
 10
220.0662384033203
 20
-12.6803150177002
 30
254.0499267578125
 70
   192
  0
VERTEX
  5
2C0
  8
0
 10
223.5868530273438
 20
-13.79045677185059
 30
254.0499267578125
 70
   192
  0
VERTEX
  5
2C1
  8
0
 10
212.2095489501953
 20
2.41314959526062
 30
254.0499267578125
 70
   192
  0
VERTEX
  5
2C2
  8
0
 10
215.4020233154297
 20
9.147830963134766
 30
272.9499206542969
 70
   192
  0
VERTEX
  5
2C3
  8
0
 10
218.2773742675781
 20
11.67737770080566
 30
272.9499206542969
 70
   192
  0
VERTEX
  5
2C4
  8
0
 10
221.5980377197266
 20
13.28994941711426
 30
272.9499206542969
 70
   192
  0
VERTEX
  5
2C5
  8
0
 10
212.03759765625
 20
-1.025410890579224
 30
272.9499206542969
 70
   192
  0
VERTEX
  5
2C6
  8
0
 10
213.3196868896484
 20
5.933768749237061
 30
272.9499206542969
 70
   192
  0
VERTEX
  5
2C7
  8
0
 10
212.2095489501953
 20
2.41314959526062
 30
272.9499206542969
 70
   192
  0
VERTEX
  5
2C8
  8
0
 10
216.8521728515625
 20
-10.59798049926758
 30
272.9499206542969
 70
   192
  0
VERTEX
  5
2C9
  8
0
 10
214.3226165771484
 20
-7.722619533538818
 30
272.9499206542969
 70
   192
  0
VERTEX
  5
2CA
  8
0
 10
212.7100524902344
 20
-4.40195894241333
 30
272.9499206542969
 70
   192
  0
VERTEX
  5
2CB
  8
0
 10
220.0662384033203
 20
-12.6803150177002
 30
272.9499206542969
 70
   192
  0
VERTEX
  5
2CC
  8
0
 10
223.5868530273438
 20
-13.79045677185059
 30
272.9499206542969
 70
   192
  0
VERTEX
  5
2CD
  8
0
 62
     7
 10
0.0
 20
0.0
 30
0.0
 70
   128
 71
     3
 72
     2
 73
     1
  0
VERTEX
  5
2CE
  8
0
 62
     7
 10
0.0
 20
0.0
 30
0.0
 70
   128
 71
     6
 72
     5
 73
     4
  0
VERTEX
  5
2CF
  8
0
 62
     7
 10
0.0
 20
0.0
 30
0.0
 70
   128
 71
     9
 72
     8
 73
     7
  0
VERTEX
  5
2D0
  8
0
 62
     7
 10
0.0
 20
0.0
 30
0.0
 70
   128
 71
    12
 72
    11
 73
    10
  0
VERTEX
  5
2D1
  8
0
 62
     7
 10
0.0
 20
0.0
 30
0.0
 70
   128
 71
     8
 72
    14
 73
    13
  0
VERTEX
  5
2D2
  8
0
 62
     7
 10
0.0
 20
0.0
 30
0.0
 70
   128
 71
    14
 72
     8
 73
     9
  0
VERTEX
  5
2D3
  8
0
 62
     7
 10
0.0
 20
0.0
 30
0.0
 70
   128
 71
    10
 72
     7
 73
    12
  0
VERTEX
  5
2D4
  8
0
 62
     7
 10
0.0
 20
0.0
 30
0.0
 70
   128
 71
    10
 72
     9
 73
     7
  0
VERTEX
  5
2D5
  8
0
 62
     7
 10
0.0
 20
0.0
 30
0.0
 70
   128
 71
     3
 72
     1
 73
    11
  0
VERTEX
  5
2D6
  8
0
 62
     7
 10
0.0
 20
0.0
 30
0.0
 70
   128
 71
     3
 72
    11
 73
    12
  0
VERTEX
  5
2D7
  8
0
 62
     7
 10
0.0
 20
0.0
 30
0.0
 70
   128
 71
     2
 72
     4
 73
     5
  0
VERTEX
  5
2D8
  8
0
 62
     7
 10
0.0
 20
0.0
 30
0.0
 70
   128
 71
     2
 72
     5
 73
     1
  0
VERTEX
  5
2D9
  8
0
 62
     7
 10
0.0
 20
0.0
 30
0.0
 70
   128
 71
    17
 72
    16
 73
    15
  0
VERTEX
  5
2DA
  8
0
 62
     7
 10
0.0
 20
0.0
 30
0.0
 70
   128
 71
    17
 72
    19
 73
    18
  0
VERTEX
  5
2DB
  8
0
 62
     7
 10
0.0
 20
0.0
 30
0.0
 70
   128
 71
    19
 72
    17
 73
    15
  0
VERTEX
  5
2DC
  8
0
 62
     7
 10
0.0
 20
0.0
 30
0.0
 70
   128
 71
    21
 72
    20
 73
    18
  0
VERTEX
  5
2DD
  8
0
 62
     7
 10
0.0
 20
0.0
 30
0.0
 70
   128
 71
    18
 72
    19
 73
    21
  0
VERTEX
  5
2DE
  8
0
 62
     7
 10
0.0
 20
0.0
 30
0.0
 70
   128
 71
    21
 72
    22
 73
    20
  0
VERTEX
  5
2DF
  8
0
 62
     7
 10
0.0
 20
0.0
 30
0.0
 70
   128
 71
    15
 72
    16
 73
    23
  0
VERTEX
  5
2E0
  8
0
 62
     7
 10
0.0
 20
0.0
 30
0.0
 70
   128
 71
    25
 72
    24
 73
    23
  0
VERTEX
  5
2E1
  8
0
 62
     7
 10
0.0
 20
0.0
 30
0.0
 70
   128
 71
    23
 72
    16
 73
    25
  0
VERTEX
  5
2E2
  8
0
 62
     7
 10
0.0
 20
0.0
 30
0.0
 70
   128
 71
    27
 72
    24
 73
    26
  0
VERTEX
  5
2E3
  8
0
 62
     7
 10
0.0
 20
0.0
 30
0.0
 70
   128
 71
    25
 72
    26
 73
    24
  0
VERTEX
  5
2E4
  8
0
 62
     7
 10
0.0
 20
0.0
 30
0.0
 70
   128
 71
    28
 72
    27
 73
    26
  0
VERTEX
  5
2E5
  8
0
 62
     9
 10
0.0
 20
0.0
 30
0.0
 70
   128
 71
    31
 72
    30
 73
    29
  0
VERTEX
  5
2E6
  8
0
 62
     9
 10
0.0
 20
0.0
 30
0.0
 70
   128
 71
    31
 72
    33
 73
    32
  0
VERTEX
  5
2E7
  8
0
 62
     9
 10
0.0
 20
0.0
 30
0.0
 70
   128
 71
    33
 72
    31
 73
    29
  0
VERTEX
  5
2E8
  8
0
 62
     9
 10
0.0
 20
0.0
 30
0.0
 70
   128
 71
    35
 72
    34
 73
    32
  0
VERTEX
  5
2E9
  8
0
 62
     9
 10
0.0
 20
0.0
 30
0.0
 70
   128
 71
    32
 72
    33
 73
    35
  0
VERTEX
  5
2EA
  8
0
 62
     9
 10
0.0
 20
0.0
 30
0.0
 70
   128
 71
    37
 72
    34
 73
    36
  0
VERTEX
  5
2EB
  8
0
 62
     9
 10
0.0
 20
0.0
 30
0.0
 70
   128
 71
    35
 72
    36
 73
    34
  0
VERTEX
  5
2EC
  8
0
 62
     9
 10
0.0
 20
0.0
 30
0.0
 70
   128
 71
    37
 72
    39
 73
    38
  0
VERTEX
  5
2ED
  8
0
 62
     9
 10
0.0
 20
0.0
 30
0.0
 70
   128
 71
    39
 72
    37
 73
    36
  0
VERTEX
  5
2EE
  8
0
 62
     9
 10
0.0
 20
0.0
 30
0.0
 70
   128
 71
    41
 72
    40
 73
    38
  0
VERTEX
  5
2EF
  8
0
 62
     9
 10
0.0
 20
0.0
 30
0.0
 70
   128
 71
    38
 72
    39
 73
    41
  0
VERTEX
  5
2F0
  8
0
 62
     9
 10
0.0
 20
0.0
 30
0.0
 70
   128
 71
    41
 72
    42
 73
    40
  0
VERTEX
  5
2F1
  8
0
 62
     9
 10
0.0
 20
0.0
 30
0.0
 70
   128
 71
    29
 72
    30
 73
    43
  0
VERTEX
  5
2F2
  8
0
 62
     9
 10
0.0
 20
0.0
 30
0.0
 70
   128
 71
    45
 72
    44
 73
    43
  0
VERTEX
  5
2F3
  8
0
 62
     9
 10
0.0
 20
0.0
 30
0.0
 70
   128
 71
    43
 72
    30
 73
    45
  0
VERTEX
  5
2F4
  8
0
 62
     9
 10
0.0
 20
0.0
 30
0.0
 70
   128
 71
    47
 72
    44
 73
    46
  0
VERTEX
  5
2F5
  8
0
 62
     9
 10
0.0
 20
0.0
 30
0.0
 70
   128
 71
    45
 72
    46
 73
    44
  0
VERTEX
  5
2F6
  8
0
 62
     9
 10
0.0
 20
0.0
 30
0.0
 70
   128
 71
    47
 72
    49
 73
    48
  0
VERTEX
  5
2F7
  8
0
 62
     9
 10
0.0
 20
0.0
 30
0.0
 70
   128
 71
    49
 72
    47
 73
    46
  0
VERTEX
  5
2F8
  8
0
 62
     9
 10
0.0
 20
0.0
 30
0.0
 70
   128
 71
    51
 72
    50
 73
    48
  0
VERTEX
  5
2F9
  8
0
 62
     9
 10
0.0
 20
0.0
 30
0.0
 70
   128
 71
    48
 72
    49
 73
    51
  0
VERTEX
  5
2FA
  8
0
 62
     9
 10
0.0
 20
0.0
 30
0.0
 70
   128
 71
    53
 72
    50
 73
    52
  0
VERTEX
  5
2FB
  8
0
 62
     9
 10
0.0
 20
0.0
 30
0.0
 70
   128
 71
    51
 72
    52
 73
    50
  0
VERTEX
  5
2FC
  8
0
 62
     9
 10
0.0
 20
0.0
 30
0.0
 70
   128
 71
    54
 72
    53
 73
    52
  0
VERTEX
  5
2FD
  8
0
 62
     7
 10
0.0
 20
0.0
 30
0.0
 70
   128
 71
     7
 72
     8
 73
    13
  0
VERTEX
  5
2FE
  8
0
 62
     7
 10
0.0
 20
0.0
 30
0.0
 70
   128
 71
     3
 72
    56
 73
    55
  0
VERTEX
  5
2FF
  8
0
 62
     7
 10
0.0
 20
0.0
 30
0.0
 70
   128
 71
     7
 72
    13
 73
    12
  0
VERTEX
  5
300
  8
0
 62
     7
 10
0.0
 20
0.0
 30
0.0
 70
   128
 71
    55
 72
    57
 73
     2
  0
VERTEX
  5
301
  8
0
 62
     7
 10
0.0
 20
0.0
 30
0.0
 70
   128
 71
    12
 72
    56
 73
     3
  0
VERTEX
  5
302
  8
0
 62
     7
 10
0.0
 20
0.0
 30
0.0
 70
   128
 71
     4
 72
    59
 73
    58
  0
VERTEX
  5
303
  8
0
 62
     7
 10
0.0
 20
0.0
 30
0.0
 70
   128
 71
     2
 72
    57
 73
     4
  0
VERTEX
  5
304
  8
0
 62
     7
 10
0.0
 20
0.0
 30
0.0
 70
   128
 71
    59
 72
     4
 73
    57
  0
VERTEX
  5
305
  8
0
 62
     7
 10
0.0
 20
0.0
 30
0.0
 70
   128
 71
    55
 72
     2
 73
     3
  0
VERTEX
  5
306
  8
0
 62
     7
 10
0.0
 20
0.0
 30
0.0
 70
   128
 71
    12
 72
    13
 73
    56
  0
VERTEX
  5
307
  8
0
 62
     7
 10
0.0
 20
0.0
 30
0.0
 70
   128
 71
    19
 72
    15
 73
    60
  0
VERTEX
  5
308
  8
0
 62
     7
 10
0.0
 20
0.0
 30
0.0
 70
   128
 71
    61
 72
    15
 73
    23
  0
VERTEX
  5
309
  8
0
 62
     7
 10
0.0
 20
0.0
 30
0.0
 70
   128
 71
    63
 72
    19
 73
    62
  0
VERTEX
  5
30A
  8
0
 62
     7
 10
0.0
 20
0.0
 30
0.0
 70
   128
 71
    10
 72
    64
 73
     9
  0
VERTEX
  5
30B
  8
0
 62
     7
 10
0.0
 20
0.0
 30
0.0
 70
   128
 71
    22
 72
     9
 73
    65
  0
VERTEX
  5
30C
  8
0
 62
     7
 10
0.0
 20
0.0
 30
0.0
 70
   128
 71
    63
 72
    14
 73
    21
  0
VERTEX
  5
30D
  8
0
 62
     7
 10
0.0
 20
0.0
 30
0.0
 70
   128
 71
    23
 72
    24
 73
    66
  0
VERTEX
  5
30E
  8
0
 62
     7
 10
0.0
 20
0.0
 30
0.0
 70
   128
 71
    67
 72
     6
 73
    27
  0
VERTEX
  5
30F
  8
0
 62
     7
 10
0.0
 20
0.0
 30
0.0
 70
   128
 71
    14
 72
    22
 73
    21
  0
VERTEX
  5
310
  8
0
 62
     7
 10
0.0
 20
0.0
 30
0.0
 70
   128
 71
    63
 72
    21
 73
    19
  0
VERTEX
  5
311
  8
0
 62
     7
 10
0.0
 20
0.0
 30
0.0
 70
   128
 71
    60
 72
    62
 73
    19
  0
VERTEX
  5
312
  8
0
 62
     7
 10
0.0
 20
0.0
 30
0.0
 70
   128
 71
    61
 72
    60
 73
    15
  0
VERTEX
  5
313
  8
0
 62
     7
 10
0.0
 20
0.0
 30
0.0
 70
   128
 71
    66
 72
    61
 73
    23
  0
VERTEX
  5
314
  8
0
 62
     7
 10
0.0
 20
0.0
 30
0.0
 70
   128
 71
    66
 72
    24
 73
    27
  0
VERTEX
  5
315
  8
0
 62
     7
 10
0.0
 20
0.0
 30
0.0
 70
   128
 71
     6
 72
    66
 73
    27
  0
VERTEX
  5
316
  8
0
 62
     7
 10
0.0
 20
0.0
 30
0.0
 70
   128
 71
     5
 72
    67
 73
    68
  0
VERTEX
  5
317
  8
0
 62
     7
 10
0.0
 20
0.0
 30
0.0
 70
   128
 71
     5
 72
     6
 73
    67
  0
VERTEX
  5
318
  8
0
 62
     7
 10
0.0
 20
0.0
 30
0.0
 70
   128
 71
    11
 72
     1
 73
    68
  0
VERTEX
  5
319
  8
0
 62
     7
 10
0.0
 20
0.0
 30
0.0
 70
   128
 71
     1
 72
     5
 73
    68
  0
VERTEX
  5
31A
  8
0
 62
     7
 10
0.0
 20
0.0
 30
0.0
 70
   128
 71
    10
 72
    11
 73
    69
  0
VERTEX
  5
31B
  8
0
 62
     7
 10
0.0
 20
0.0
 30
0.0
 70
   128
 71
    69
 72
    11
 73
    68
  0
VERTEX
  5
31C
  8
0
 62
     7
 10
0.0
 20
0.0
 30
0.0
 70
   128
 71
    64
 72
    10
 73
    69
  0
VERTEX
  5
31D
  8
0
 62
     7
 10
0.0
 20
0.0
 30
0.0
 70
   128
 71
    14
 72
     9
 73
    22
  0
VERTEX
  5
31E
  8
0
 62
     7
 10
0.0
 20
0.0
 30
0.0
 70
   128
 71
    65
 72
     9
 73
    64
  0
VERTEX
  5
31F
  8
0
 62
     9
 10
0.0
 20
0.0
 30
0.0
 70
   128
 71
    31
 72
    16
 73
    30
  0
VERTEX
  5
320
  8
0
 62
     9
 10
0.0
 20
0.0
 30
0.0
 70
   128
 71
    28
 72
    40
 73
    70
  0
VERTEX
  5
321
  8
0
 62
     9
 10
0.0
 20
0.0
 30
0.0
 70
   128
 71
    73
 72
    72
 73
    71
  0
VERTEX
  5
322
  8
0
 62
     9
 10
0.0
 20
0.0
 30
0.0
 70
   128
 71
    37
 72
    38
 73
    26
  0
VERTEX
  5
323
  8
0
 62
     9
 10
0.0
 20
0.0
 30
0.0
 70
   128
 71
    72
 72
    28
 73
    70
  0
VERTEX
  5
324
  8
0
 62
     9
 10
0.0
 20
0.0
 30
0.0
 70
   128
 71
    71
 72
    72
 73
    70
  0
VERTEX
  5
325
  8
0
 62
     9
 10
0.0
 20
0.0
 30
0.0
 70
   128
 71
    38
 72
    40
 73
    28
  0
VERTEX
  5
326
  8
0
 62
     9
 10
0.0
 20
0.0
 30
0.0
 70
   128
 71
    75
 72
    74
 73
    73
  0
VERTEX
  5
327
  8
0
 62
     9
 10
0.0
 20
0.0
 30
0.0
 70
   128
 71
    74
 72
    72
 73
    73
  0
VERTEX
  5
328
  8
0
 62
     9
 10
0.0
 20
0.0
 30
0.0
 70
   128
 71
    31
 72
    32
 73
    25
  0
VERTEX
  5
329
  8
0
 62
     9
 10
0.0
 20
0.0
 30
0.0
 70
   128
 71
    26
 72
    25
 73
    34
  0
VERTEX
  5
32A
  8
0
 62
     9
 10
0.0
 20
0.0
 30
0.0
 70
   128
 71
    78
 72
    77
 73
    76
  0
VERTEX
  5
32B
  8
0
 62
     9
 10
0.0
 20
0.0
 30
0.0
 70
   128
 71
    76
 72
    80
 73
    79
  0
VERTEX
  5
32C
  8
0
 62
     9
 10
0.0
 20
0.0
 30
0.0
 70
   128
 71
    45
 72
    16
 73
    17
  0
VERTEX
  5
32D
  8
0
 62
     9
 10
0.0
 20
0.0
 30
0.0
 70
   128
 71
    17
 72
    49
 73
    46
  0
VERTEX
  5
32E
  8
0
 62
     9
 10
0.0
 20
0.0
 30
0.0
 70
   128
 71
    79
 72
    80
 73
    81
  0
VERTEX
  5
32F
  8
0
 62
     9
 10
0.0
 20
0.0
 30
0.0
 70
   128
 71
    52
 72
    51
 73
    18
  0
VERTEX
  5
330
  8
0
 62
     9
 10
0.0
 20
0.0
 30
0.0
 70
   128
 71
    83
 72
    82
 73
    81
  0
VERTEX
  5
331
  8
0
 62
     9
 10
0.0
 20
0.0
 30
0.0
 70
   128
 71
    84
 72
    54
 73
    20
  0
VERTEX
  5
332
  8
0
 62
     9
 10
0.0
 20
0.0
 30
0.0
 70
   128
 71
    20
 72
    54
 73
    52
  0
VERTEX
  5
333
  8
0
 62
     9
 10
0.0
 20
0.0
 30
0.0
 70
   128
 71
    84
 72
    82
 73
    83
  0
VERTEX
  5
334
  8
0
 62
     9
 10
0.0
 20
0.0
 30
0.0
 70
   128
 71
    78
 72
    85
 73
    77
  0
VERTEX
  5
335
  8
0
 62
     9
 10
0.0
 20
0.0
 30
0.0
 70
   128
 71
    74
 72
    75
 73
    85
  0
VERTEX
  5
336
  8
0
 62
     9
 10
0.0
 20
0.0
 30
0.0
 70
   128
 71
    46
 72
    45
 73
    17
  0
VERTEX
  5
337
  8
0
 62
     9
 10
0.0
 20
0.0
 30
0.0
 70
   128
 71
    85
 72
    78
 73
    74
  0
VERTEX
  5
338
  8
0
 62
     9
 10
0.0
 20
0.0
 30
0.0
 70
   128
 71
    76
 72
    79
 73
    78
  0
VERTEX
  5
339
  8
0
 62
     9
 10
0.0
 20
0.0
 30
0.0
 70
   128
 71
    81
 72
    82
 73
    79
  0
VERTEX
  5
33A
  8
0
 62
     9
 10
0.0
 20
0.0
 30
0.0
 70
   128
 71
    84
 72
    20
 73
    82
  0
VERTEX
  5
33B
  8
0
 62
     9
 10
0.0
 20
0.0
 30
0.0
 70
   128
 71
    52
 72
    18
 73
    20
  0
VERTEX
  5
33C
  8
0
 62
     9
 10
0.0
 20
0.0
 30
0.0
 70
   128
 71
    49
 72
    17
 73
    18
  0
VERTEX
  5
33D
  8
0
 62
     9
 10
0.0
 20
0.0
 30
0.0
 70
   128
 71
    51
 72
    49
 73
    18
  0
VERTEX
  5
33E
  8
0
 62
     9
 10
0.0
 20
0.0
 30
0.0
 70
   128
 71
    45
 72
    30
 73
    16
  0
VERTEX
  5
33F
  8
0
 62
     9
 10
0.0
 20
0.0
 30
0.0
 70
   128
 71
    31
 72
    25
 73
    16
  0
VERTEX
  5
340
  8
0
 62
     9
 10
0.0
 20
0.0
 30
0.0
 70
   128
 71
    34
 72
    25
 73
    32
  0
VERTEX
  5
341
  8
0
 62
     9
 10
0.0
 20
0.0
 30
0.0
 70
   128
 71
    37
 72
    26
 73
    34
  0
VERTEX
  5
342
  8
0
 62
     9
 10
0.0
 20
0.0
 30
0.0
 70
   128
 71
    28
 72
    26
 73
    38
  0
VERTEX
  5
343
  8
0
 62
     9
 10
0.0
 20
0.0
 30
0.0
 70
   128
 71
    40
 72
    42
 73
    70
  0
VERTEX
  5
344
  8
0
 62
     9
 10
0.0
 20
0.0
 30
0.0
 70
   128
 71
    73
 72
    86
 73
    75
  0
VERTEX
  5
345
  8
0
 62
     9
 10
0.0
 20
0.0
 30
0.0
 70
   128
 71
    88
 72
    87
 73
    71
  0
VERTEX
  5
346
  8
0
 62
     9
 10
0.0
 20
0.0
 30
0.0
 70
   128
 71
    76
 72
    77
 73
    89
  0
VERTEX
  5
347
  8
0
 62
     9
 10
0.0
 20
0.0
 30
0.0
 70
   128
 71
    91
 72
    85
 73
    90
  0
VERTEX
  5
348
  8
0
 62
     9
 10
0.0
 20
0.0
 30
0.0
 70
   128
 71
    92
 72
    83
 73
    81
  0
VERTEX
  5
349
  8
0
 62
     9
 10
0.0
 20
0.0
 30
0.0
 70
   128
 71
    94
 72
    93
 73
    80
  0
VERTEX
  5
34A
  8
0
 62
     9
 10
0.0
 20
0.0
 30
0.0
 70
   128
 71
    84
 72
    83
 73
    95
  0
VERTEX
  5
34B
  8
0
 62
     9
 10
0.0
 20
0.0
 30
0.0
 70
   128
 71
    92
 72
    95
 73
    83
  0
VERTEX
  5
34C
  8
0
 62
     9
 10
0.0
 20
0.0
 30
0.0
 70
   128
 71
    84
 72
    96
 73
    54
  0
VERTEX
  5
34D
  8
0
 62
     9
 10
0.0
 20
0.0
 30
0.0
 70
   128
 71
    96
 72
    84
 73
    95
  0
VERTEX
  5
34E
  8
0
 62
     9
 10
0.0
 20
0.0
 30
0.0
 70
   128
 71
    54
 72
    96
 73
    53
  0
VERTEX
  5
34F
  8
0
 62
     9
 10
0.0
 20
0.0
 30
0.0
 70
   128
 71
    93
 72
    81
 73
    80
  0
VERTEX
  5
350
  8
0
 62
     9
 10
0.0
 20
0.0
 30
0.0
 70
   128
 71
    93
 72
    92
 73
    81
  0
VERTEX
  5
351
  8
0
 62
     9
 10
0.0
 20
0.0
 30
0.0
 70
   128
 71
    94
 72
    76
 73
    89
  0
VERTEX
  5
352
  8
0
 62
     9
 10
0.0
 20
0.0
 30
0.0
 70
   128
 71
    94
 72
    80
 73
    76
  0
VERTEX
  5
353
  8
0
 62
     9
 10
0.0
 20
0.0
 30
0.0
 70
   128
 71
    77
 72
    85
 73
    91
  0
VERTEX
  5
354
  8
0
 62
     9
 10
0.0
 20
0.0
 30
0.0
 70
   128
 71
    89
 72
    77
 73
    91
  0
VERTEX
  5
355
  8
0
 62
     9
 10
0.0
 20
0.0
 30
0.0
 70
   128
 71
    75
 72
    86
 73
    90
  0
VERTEX
  5
356
  8
0
 62
     9
 10
0.0
 20
0.0
 30
0.0
 70
   128
 71
    85
 72
    75
 73
    90
  0
VERTEX
  5
357
  8
0
 62
     9
 10
0.0
 20
0.0
 30
0.0
 70
   128
 71
    71
 72
    87
 73
    73
  0
VERTEX
  5
358
  8
0
 62
     9
 10
0.0
 20
0.0
 30
0.0
 70
   128
 71
    73
 72
    87
 73
    86
  0
VERTEX
  5
359
  8
0
 62
     9
 10
0.0
 20
0.0
 30
0.0
 70
   128
 71
    42
 72
    88
 73
    70
  0
VERTEX
  5
35A
  8
0
 62
     9
 10
0.0
 20
0.0
 30
0.0
 70
   128
 71
    70
 72
    88
 73
    71
  0
VERTEX
  5
35B
  8
0
 62
     7
 10
0.0
 20
0.0
 30
0.0
 70
   128
 71
    20
 72
    22
 73
    82
  0
VERTEX
  5
35C
  8
0
 62
     7
 10
0.0
 20
0.0
 30
0.0
 70
   128
 71
    78
 72
    69
 73
    74
  0
VERTEX
  5
35D
  8
0
 62
     7
 10
0.0
 20
0.0
 30
0.0
 70
   128
 71
    65
 72
    64
 73
    79
  0
VERTEX
  5
35E
  8
0
 62
     7
 10
0.0
 20
0.0
 30
0.0
 70
   128
 71
    72
 72
    67
 73
    28
  0
VERTEX
  5
35F
  8
0
 62
     7
 10
0.0
 20
0.0
 30
0.0
 70
   128
 71
    67
 72
    72
 73
    68
  0
VERTEX
  5
360
  8
0
 62
     7
 10
0.0
 20
0.0
 30
0.0
 70
   128
 71
    28
 72
    67
 73
    27
  0
VERTEX
  5
361
  8
0
 62
     7
 10
0.0
 20
0.0
 30
0.0
 70
   128
 71
    74
 72
    69
 73
    68
  0
VERTEX
  5
362
  8
0
 62
     7
 10
0.0
 20
0.0
 30
0.0
 70
   128
 71
    72
 72
    74
 73
    68
  0
VERTEX
  5
363
  8
0
 62
     7
 10
0.0
 20
0.0
 30
0.0
 70
   128
 71
    79
 72
    64
 73
    78
  0
VERTEX
  5
364
  8
0
 62
     7
 10
0.0
 20
0.0
 30
0.0
 70
   128
 71
    78
 72
    64
 73
    69
  0
VERTEX
  5
365
  8
0
 62
     7
 10
0.0
 20
0.0
 30
0.0
 70
   128
 71
    22
 72
    65
 73
    82
  0
VERTEX
  5
366
  8
0
 62
     7
 10
0.0
 20
0.0
 30
0.0
 70
   128
 71
    82
 72
    65
 73
    79
  0
VERTEX
  5
367
  8
0
 62
     7
 10
0.0
 20
0.0
 30
0.0
 70
   128
 71
    61
 72
    57
 73
    60
  0
VERTEX
  5
368
  8
0
 62
     7
 10
0.0
 20
0.0
 30
0.0
 70
   128
 71
    61
 72
    66
 73
    59
  0
VERTEX
  5
369
  8
0
 62
     7
 10
0.0
 20
0.0
 30
0.0
 70
   128
 71
    59
 72
    57
 73
    61
  0
VERTEX
  5
36A
  8
0
 62
     7
 10
0.0
 20
0.0
 30
0.0
 70
   128
 71
    58
 72
    66
 73
     6
  0
VERTEX
  5
36B
  8
0
 62
     7
 10
0.0
 20
0.0
 30
0.0
 70
   128
 71
    66
 72
    58
 73
    59
  0
VERTEX
  5
36C
  8
0
 62
     7
 10
0.0
 20
0.0
 30
0.0
 70
   128
 71
    58
 72
     6
 73
     4
  0
VERTEX
  5
36D
  8
0
 62
     7
 10
0.0
 20
0.0
 30
0.0
 70
   128
 71
    60
 72
    57
 73
    55
  0
VERTEX
  5
36E
  8
0
 62
     7
 10
0.0
 20
0.0
 30
0.0
 70
   128
 71
    56
 72
    62
 73
    55
  0
VERTEX
  5
36F
  8
0
 62
     7
 10
0.0
 20
0.0
 30
0.0
 70
   128
 71
    60
 72
    55
 73
    62
  0
VERTEX
  5
370
  8
0
 62
     7
 10
0.0
 20
0.0
 30
0.0
 70
   128
 71
    56
 72
    13
 73
    63
  0
VERTEX
  5
371
  8
0
 62
     7
 10
0.0
 20
0.0
 30
0.0
 70
   128
 71
    63
 72
    62
 73
    56
  0
VERTEX
  5
372
  8
0
 62
     7
 10
0.0
 20
0.0
 30
0.0
 70
   128
 71
    13
 72
    14
 73
    63
  0
SEQEND
  5
373
  8
0
  0
ENDBLK
  5
376
  8
0
  0
BLOCK
  8
0
  2
41
 70
     0
 10
0.0
 20
0.0
 30
0.0
  3
41
  1

  0
POLYLINE
  5
378
  8
0
 62
     9
 66
     1
 10
0.0
 20
0.0
 30
0.0
 70
    64
 71
    63
 72
   109
  0
VERTEX
  5
379
  8
0
 10
21.0
 20
0.0000004136001337
 30
146.4499206542969
 70
   192
  0
VERTEX
  5
37A
  8
0
 10
21.0
 20
0.0000004136001337
 30
149.1999206542969
 70
   192
  0
VERTEX
  5
37B
  8
0
 10
20.28411102294922
 20
-5.415600776672363
 30
149.1999206542969
 70
   192
  0
VERTEX
  5
37C
  8
0
 10
18.20571899414062
 20
-10.45891761779785
 30
149.1999206542969
 70
   192
  0
VERTEX
  5
37D
  8
0
 10
20.28411102294922
 20
-5.415600776672363
 30
146.4499206542969
 70
   192
  0
VERTEX
  5
37E
  8
0
 10
14.8774881362915
 20
-14.80859756469727
 30
149.1999206542969
 70
   192
  0
VERTEX
  5
37F
  8
0
 10
18.20571899414062
 20
-10.45891761779785
 30
146.4499206542969
 70
   192
  0
VERTEX
  5
380
  8
0
 10
14.8774881362915
 20
-14.80859756469727
 30
146.4499206542969
 70
   192
  0
VERTEX
  5
381
  8
0
 10
10.51276969909668
 20
-18.18003082275391
 30
149.1999206542969
 70
   192
  0
VERTEX
  5
382
  8
0
 10
5.462136745452881
 20
-20.27545356750488
 30
149.1999206542969
 70
   192
  0
VERTEX
  5
383
  8
0
 10
10.51276969909668
 20
-18.18003082275391
 30
146.4499206542969
 70
   192
  0
VERTEX
  5
384
  8
0
 10
0.0000000007358448
 20
-21.0
 30
149.1999206542969
 70
   192
  0
VERTEX
  5
385
  8
0
 10
5.462136745452881
 20
-20.27545356750488
 30
146.4499206542969
 70
   192
  0
VERTEX
  5
386
  8
0
 10
0.0000000007358444
 20
-21.0
 30
146.4499206542969
 70
   192
  0
VERTEX
  5
387
  8
0
 10
20.27545356750488
 20
5.462136745452881
 30
146.4499206542969
 70
   192
  0
VERTEX
  5
388
  8
0
 10
18.18003082275391
 20
10.51276969909668
 30
146.4499206542969
 70
   192
  0
VERTEX
  5
389
  8
0
 10
20.27545356750488
 20
5.462136745452881
 30
149.1999206542969
 70
   192
  0
VERTEX
  5
38A
  8
0
 10
18.18003082275391
 20
10.51276969909668
 30
149.1999206542969
 70
   192
  0
VERTEX
  5
38B
  8
0
 10
14.80859851837158
 20
14.8774881362915
 30
146.4499206542969
 70
   192
  0
VERTEX
  5
38C
  8
0
 10
10.45891857147217
 20
18.20571899414062
 30
146.4499206542969
 70
   192
  0
VERTEX
  5
38D
  8
0
 10
14.80859851837158
 20
14.8774881362915
 30
149.1999206542969
 70
   192
  0
VERTEX
  5
38E
  8
0
 10
5.462136745452881
 20
20.27545356750488
 30
146.4499206542969
 70
   192
  0
VERTEX
  5
38F
  8
0
 10
10.45891857147217
 20
18.20571899414062
 30
149.1999206542969
 70
   192
  0
VERTEX
  5
390
  8
0
 10
5.462136745452881
 20
20.27545356750488
 30
149.1999206542969
 70
   192
  0
VERTEX
  5
391
  8
0
 10
0.0000000007358435
 20
21.0
 30
146.4499206542969
 70
   192
  0
VERTEX
  5
392
  8
0
 10
0.0000000007358438
 20
21.0
 30
149.1999206542969
 70
   192
  0
VERTEX
  5
393
  8
0
 10
-3.786885261535645
 20
20.65573883056641
 30
149.1999206542969
 70
   192
  0
VERTEX
  5
394
  8
0
 10
-8.076923370361328
 20
19.38461494445801
 30
149.1999206542969
 70
   192
  0
VERTEX
  5
395
  8
0
 10
-5.589064598083496
 20
12.56283569335938
 30
149.1999206542969
 70
   192
  0
VERTEX
  5
396
  8
0
 10
13.07761383056641
 20
4.247138023376465
 30
149.1999206542969
 70
   192
  0
VERTEX
  5
397
  8
0
 10
10.2169361114502
 20
9.201977729797363
 30
149.1999206542969
 70
   192
  0
VERTEX
  5
398
  8
0
 10
13.67426681518555
 20
-1.441145420074463
 30
149.1999206542969
 70
   192
  0
VERTEX
  5
399
  8
0
 10
11.90784931182861
 20
-6.874999523162842
 30
149.1999206542969
 70
   192
  0
VERTEX
  5
39A
  8
0
 10
5.589064598083496
 20
12.56283569335938
 30
149.1999206542969
 70
   192
  0
VERTEX
  5
39B
  8
0
 10
-2.860678195953369
 20
-13.44911479949951
 30
149.1999206542969
 70
   192
  0
VERTEX
  5
39C
  8
0
 10
-8.08520221710205
 20
-11.12168884277344
 30
149.1999206542969
 70
   192
  0
VERTEX
  5
39D
  8
0
 10
-8.076923370361328
 20
-19.38461494445801
 30
149.1999206542969
 70
   192
  0
VERTEX
  5
39E
  8
0
 10
-10.2169361114502
 20
9.201977729797363
 30
149.1999206542969
 70
   192
  0
VERTEX
  5
39F
  8
0
 10
-11.90784931182861
 20
-6.874999523162842
 30
149.1999206542969
 70
   192
  0
VERTEX
  5
3A0
  8
0
 10
-12.60000038146973
 20
-16.79999923706055
 30
149.1999206542969
 70
   192
  0
VERTEX
  5
3A1
  8
0
 10
-16.79999923706055
 20
-12.59999942779541
 30
149.1999206542969
 70
   192
  0
VERTEX
  5
3A2
  8
0
 10
-13.07761383056641
 20
4.247138023376465
 30
149.1999206542969
 70
   192
  0
VERTEX
  5
3A3
  8
0
 10
-21.0
 20
0.0000004136001337
 30
149.1999206542969
 70
   192
  0
VERTEX
  5
3A4
  8
0
 10
-13.67426681518555
 20
-1.441145420074463
 30
149.1999206542969
 70
   192
  0
VERTEX
  5
3A5
  8
0
 10
-19.86486434936523
 20
-6.810810565948486
 30
149.1999206542969
 70
   192
  0
VERTEX
  5
3A6
  8
0
 10
-19.86486434936523
 20
6.810811042785645
 30
149.1999206542969
 70
   192
  0
VERTEX
  5
3A7
  8
0
 10
-16.79999923706055
 20
12.60000038146973
 30
149.1999206542969
 70
   192
  0
VERTEX
  5
3A8
  8
0
 10
2.860678195953369
 20
-13.44911479949951
 30
149.1999206542969
 70
   192
  0
VERTEX
  5
3A9
  8
0
 10
-3.786885261535645
 20
-20.65573692321777
 30
149.1999206542969
 70
   192
  0
VERTEX
  5
3AA
  8
0
 10
0.0000000007358432
 20
13.75
 30
149.1999206542969
 70
   192
  0
VERTEX
  5
3AB
  8
0
 10
8.08520221710205
 20
-11.12168884277344
 30
149.1999206542969
 70
   192
  0
VERTEX
  5
3AC
  8
0
 10
-12.60000038146973
 20
16.80000114440918
 30
149.1999206542969
 70
   192
  0
VERTEX
  5
3AD
  8
0
 10
-14.80859851837158
 20
-14.8774881362915
 30
146.4499206542969
 70
   192
  0
VERTEX
  5
3AE
  8
0
 10
-10.45891857147217
 20
-18.20571708679199
 30
146.4499206542969
 70
   192
  0
VERTEX
  5
3AF
  8
0
 10
-5.462136745452881
 20
-20.27545356750488
 30
146.4499206542969
 70
   192
  0
VERTEX
  5
3B0
  8
0
 10
-21.0
 20
0.0000004136001337
 30
146.4499206542969
 70
   192
  0
VERTEX
  5
3B1
  8
0
 10
-18.18003082275391
 20
-10.51276874542236
 30
146.4499206542969
 70
   192
  0
VERTEX
  5
3B2
  8
0
 10
-20.27545356750488
 20
-5.462136268615723
 30
146.4499206542969
 70
   192
  0
VERTEX
  5
3B3
  8
0
 10
-14.8774881362915
 20
14.80859851837158
 30
146.4499206542969
 70
   192
  0
VERTEX
  5
3B4
  8
0
 10
-18.20571899414062
 20
10.45891857147217
 30
146.4499206542969
 70
   192
  0
VERTEX
  5
3B5
  8
0
 10
-20.28411102294922
 20
5.41560173034668
 30
146.4499206542969
 70
   192
  0
VERTEX
  5
3B6
  8
0
 10
-10.51276969909668
 20
18.18003273010254
 30
146.4499206542969
 70
   192
  0
VERTEX
  5
3B7
  8
0
 10
-5.462136745452881
 20
20.27545356750488
 30
146.4499206542969
 70
   192
  0
VERTEX
  5
3B8
  8
0
 62
     9
 10
0.0
 20
0.0
 30
0.0
 70
   128
 71
     3
 72
     2
 73
     1
  0
VERTEX
  5
3B9
  8
0
 62
     9
 10
0.0
 20
0.0
 30
0.0
 70
   128
 71
     3
 72
     5
 73
     4
  0
VERTEX
  5
3BA
  8
0
 62
     9
 10
0.0
 20
0.0
 30
0.0
 70
   128
 71
     5
 72
     3
 73
     1
  0
VERTEX
  5
3BB
  8
0
 62
     9
 10
0.0
 20
0.0
 30
0.0
 70
   128
 71
     7
 72
     6
 73
     4
  0
VERTEX
  5
3BC
  8
0
 62
     9
 10
0.0
 20
0.0
 30
0.0
 70
   128
 71
     4
 72
     5
 73
     7
  0
VERTEX
  5
3BD
  8
0
 62
     9
 10
0.0
 20
0.0
 30
0.0
 70
   128
 71
     9
 72
     6
 73
     8
  0
VERTEX
  5
3BE
  8
0
 62
     9
 10
0.0
 20
0.0
 30
0.0
 70
   128
 71
     7
 72
     8
 73
     6
  0
VERTEX
  5
3BF
  8
0
 62
     9
 10
0.0
 20
0.0
 30
0.0
 70
   128
 71
     9
 72
    11
 73
    10
  0
VERTEX
  5
3C0
  8
0
 62
     9
 10
0.0
 20
0.0
 30
0.0
 70
   128
 71
    11
 72
     9
 73
     8
  0
VERTEX
  5
3C1
  8
0
 62
     9
 10
0.0
 20
0.0
 30
0.0
 70
   128
 71
    13
 72
    12
 73
    10
  0
VERTEX
  5
3C2
  8
0
 62
     9
 10
0.0
 20
0.0
 30
0.0
 70
   128
 71
    10
 72
    11
 73
    13
  0
VERTEX
  5
3C3
  8
0
 62
     9
 10
0.0
 20
0.0
 30
0.0
 70
   128
 71
    13
 72
    14
 73
    12
  0
VERTEX
  5
3C4
  8
0
 62
     9
 10
0.0
 20
0.0
 30
0.0
 70
   128
 71
     1
 72
     2
 73
    15
  0
VERTEX
  5
3C5
  8
0
 62
     9
 10
0.0
 20
0.0
 30
0.0
 70
   128
 71
    17
 72
    16
 73
    15
  0
VERTEX
  5
3C6
  8
0
 62
     9
 10
0.0
 20
0.0
 30
0.0
 70
   128
 71
    15
 72
     2
 73
    17
  0
VERTEX
  5
3C7
  8
0
 62
     9
 10
0.0
 20
0.0
 30
0.0
 70
   128
 71
    19
 72
    16
 73
    18
  0
VERTEX
  5
3C8
  8
0
 62
     9
 10
0.0
 20
0.0
 30
0.0
 70
   128
 71
    17
 72
    18
 73
    16
  0
VERTEX
  5
3C9
  8
0
 62
     9
 10
0.0
 20
0.0
 30
0.0
 70
   128
 71
    19
 72
    21
 73
    20
  0
VERTEX
  5
3CA
  8
0
 62
     9
 10
0.0
 20
0.0
 30
0.0
 70
   128
 71
    21
 72
    19
 73
    18
  0
VERTEX
  5
3CB
  8
0
 62
     9
 10
0.0
 20
0.0
 30
0.0
 70
   128
 71
    23
 72
    22
 73
    20
  0
VERTEX
  5
3CC
  8
0
 62
     9
 10
0.0
 20
0.0
 30
0.0
 70
   128
 71
    20
 72
    21
 73
    23
  0
VERTEX
  5
3CD
  8
0
 62
     9
 10
0.0
 20
0.0
 30
0.0
 70
   128
 71
    25
 72
    22
 73
    24
  0
VERTEX
  5
3CE
  8
0
 62
     9
 10
0.0
 20
0.0
 30
0.0
 70
   128
 71
    23
 72
    24
 73
    22
  0
VERTEX
  5
3CF
  8
0
 62
     9
 10
0.0
 20
0.0
 30
0.0
 70
   128
 71
    26
 72
    25
 73
    24
  0
VERTEX
  5
3D0
  8
0
 62
     9
 10
0.0
 20
0.0
 30
0.0
 70
   128
 71
    29
 72
    28
 73
    27
  0
VERTEX
  5
3D1
  8
0
 62
     9
 10
0.0
 20
0.0
 30
0.0
 70
   128
 71
    30
 72
    18
 73
    17
  0
VERTEX
  5
3D2
  8
0
 62
     9
 10
0.0
 20
0.0
 30
0.0
 70
   128
 71
    21
 72
    18
 73
    31
  0
VERTEX
  5
3D3
  8
0
 62
     9
 10
0.0
 20
0.0
 30
0.0
 70
   128
 71
    33
 72
    32
 73
     3
  0
VERTEX
  5
3D4
  8
0
 62
     9
 10
0.0
 20
0.0
 30
0.0
 70
   128
 71
    32
 72
    30
 73
     2
  0
VERTEX
  5
3D5
  8
0
 62
     9
 10
0.0
 20
0.0
 30
0.0
 70
   128
 71
     4
 72
    33
 73
     3
  0
VERTEX
  5
3D6
  8
0
 62
     9
 10
0.0
 20
0.0
 30
0.0
 70
   128
 71
    23
 72
    34
 73
    24
  0
VERTEX
  5
3D7
  8
0
 62
     9
 10
0.0
 20
0.0
 30
0.0
 70
   128
 71
    37
 72
    36
 73
    35
  0
VERTEX
  5
3D8
  8
0
 62
     9
 10
0.0
 20
0.0
 30
0.0
 70
   128
 71
    38
 72
    28
 73
    29
  0
VERTEX
  5
3D9
  8
0
 62
     9
 10
0.0
 20
0.0
 30
0.0
 70
   128
 71
    36
 72
    40
 73
    39
  0
VERTEX
  5
3DA
  8
0
 62
     9
 10
0.0
 20
0.0
 30
0.0
 70
   128
 71
    41
 72
    39
 73
    40
  0
VERTEX
  5
3DB
  8
0
 62
     9
 10
0.0
 20
0.0
 30
0.0
 70
   128
 71
    44
 72
    43
 73
    42
  0
VERTEX
  5
3DC
  8
0
 62
     9
 10
0.0
 20
0.0
 30
0.0
 70
   128
 71
    45
 72
    44
 73
    39
  0
VERTEX
  5
3DD
  8
0
 62
     9
 10
0.0
 20
0.0
 30
0.0
 70
   128
 71
    43
 72
    46
 73
    42
  0
VERTEX
  5
3DE
  8
0
 62
     9
 10
0.0
 20
0.0
 30
0.0
 70
   128
 71
    17
 72
     2
 73
    30
  0
VERTEX
  5
3DF
  8
0
 62
     9
 10
0.0
 20
0.0
 30
0.0
 70
   128
 71
    47
 72
    38
 73
    42
  0
VERTEX
  5
3E0
  8
0
 62
     9
 10
0.0
 20
0.0
 30
0.0
 70
   128
 71
    48
 72
    12
 73
    35
  0
VERTEX
  5
3E1
  8
0
 62
     9
 10
0.0
 20
0.0
 30
0.0
 70
   128
 71
    49
 72
    37
 73
    35
  0
VERTEX
  5
3E2
  8
0
 62
     9
 10
0.0
 20
0.0
 30
0.0
 70
   128
 71
    27
 72
    50
 73
    29
  0
VERTEX
  5
3E3
  8
0
 62
     9
 10
0.0
 20
0.0
 30
0.0
 70
   128
 71
     9
 72
    10
 73
    48
  0
VERTEX
  5
3E4
  8
0
 62
     9
 10
0.0
 20
0.0
 30
0.0
 70
   128
 71
    24
 72
    50
 73
    26
  0
VERTEX
  5
3E5
  8
0
 62
     9
 10
0.0
 20
0.0
 30
0.0
 70
   128
 71
    51
 72
     9
 73
    48
  0
VERTEX
  5
3E6
  8
0
 62
     9
 10
0.0
 20
0.0
 30
0.0
 70
   128
 71
    50
 72
    27
 73
    26
  0
VERTEX
  5
3E7
  8
0
 62
     9
 10
0.0
 20
0.0
 30
0.0
 70
   128
 71
    51
 72
    33
 73
     6
  0
VERTEX
  5
3E8
  8
0
 62
     9
 10
0.0
 20
0.0
 30
0.0
 70
   128
 71
    38
 72
    47
 73
    52
  0
VERTEX
  5
3E9
  8
0
 62
     9
 10
0.0
 20
0.0
 30
0.0
 70
   128
 71
    52
 72
    28
 73
    38
  0
VERTEX
  5
3EA
  8
0
 62
     9
 10
0.0
 20
0.0
 30
0.0
 70
   128
 71
    42
 72
    46
 73
    47
  0
VERTEX
  5
3EB
  8
0
 62
     9
 10
0.0
 20
0.0
 30
0.0
 70
   128
 71
    44
 72
    45
 73
    43
  0
VERTEX
  5
3EC
  8
0
 62
     9
 10
0.0
 20
0.0
 30
0.0
 70
   128
 71
    39
 72
    41
 73
    45
  0
VERTEX
  5
3ED
  8
0
 62
     9
 10
0.0
 20
0.0
 30
0.0
 70
   128
 71
    36
 72
    37
 73
    40
  0
VERTEX
  5
3EE
  8
0
 62
     9
 10
0.0
 20
0.0
 30
0.0
 70
   128
 71
    35
 72
    12
 73
    49
  0
VERTEX
  5
3EF
  8
0
 62
     9
 10
0.0
 20
0.0
 30
0.0
 70
   128
 71
    48
 72
    10
 73
    12
  0
VERTEX
  5
3F0
  8
0
 62
     9
 10
0.0
 20
0.0
 30
0.0
 70
   128
 71
    51
 72
     6
 73
     9
  0
VERTEX
  5
3F1
  8
0
 62
     9
 10
0.0
 20
0.0
 30
0.0
 70
   128
 71
    33
 72
     4
 73
     6
  0
VERTEX
  5
3F2
  8
0
 62
     9
 10
0.0
 20
0.0
 30
0.0
 70
   128
 71
    32
 72
     2
 73
     3
  0
VERTEX
  5
3F3
  8
0
 62
     9
 10
0.0
 20
0.0
 30
0.0
 70
   128
 71
    31
 72
    18
 73
    30
  0
VERTEX
  5
3F4
  8
0
 62
     9
 10
0.0
 20
0.0
 30
0.0
 70
   128
 71
    31
 72
    23
 73
    21
  0
VERTEX
  5
3F5
  8
0
 62
     9
 10
0.0
 20
0.0
 30
0.0
 70
   128
 71
    34
 72
    50
 73
    24
  0
VERTEX
  5
3F6
  8
0
 62
     9
 10
0.0
 20
0.0
 30
0.0
 70
   128
 71
    31
 72
    34
 73
    23
  0
VERTEX
  5
3F7
  8
0
 62
     9
 10
0.0
 20
0.0
 30
0.0
 70
   128
 71
    12
 72
    14
 73
    49
  0
VERTEX
  5
3F8
  8
0
 62
     9
 10
0.0
 20
0.0
 30
0.0
 70
   128
 71
    40
 72
    53
 73
    41
  0
VERTEX
  5
3F9
  8
0
 62
     9
 10
0.0
 20
0.0
 30
0.0
 70
   128
 71
    55
 72
    54
 73
    37
  0
VERTEX
  5
3FA
  8
0
 62
     9
 10
0.0
 20
0.0
 30
0.0
 70
   128
 71
    46
 72
    43
 73
    56
  0
VERTEX
  5
3FB
  8
0
 62
     9
 10
0.0
 20
0.0
 30
0.0
 70
   128
 71
    58
 72
    45
 73
    57
  0
VERTEX
  5
3FC
  8
0
 62
     9
 10
0.0
 20
0.0
 30
0.0
 70
   128
 71
    59
 72
    28
 73
    52
  0
VERTEX
  5
3FD
  8
0
 62
     9
 10
0.0
 20
0.0
 30
0.0
 70
   128
 71
    61
 72
    60
 73
    47
  0
VERTEX
  5
3FE
  8
0
 62
     9
 10
0.0
 20
0.0
 30
0.0
 70
   128
 71
    27
 72
    28
 73
    62
  0
VERTEX
  5
3FF
  8
0
 62
     9
 10
0.0
 20
0.0
 30
0.0
 70
   128
 71
    59
 72
    62
 73
    28
  0
VERTEX
  5
400
  8
0
 62
     9
 10
0.0
 20
0.0
 30
0.0
 70
   128
 71
    27
 72
    63
 73
    26
  0
VERTEX
  5
401
  8
0
 62
     9
 10
0.0
 20
0.0
 30
0.0
 70
   128
 71
    63
 72
    27
 73
    62
  0
VERTEX
  5
402
  8
0
 62
     9
 10
0.0
 20
0.0
 30
0.0
 70
   128
 71
    26
 72
    63
 73
    25
  0
VERTEX
  5
403
  8
0
 62
     9
 10
0.0
 20
0.0
 30
0.0
 70
   128
 71
    60
 72
    52
 73
    47
  0
VERTEX
  5
404
  8
0
 62
     9
 10
0.0
 20
0.0
 30
0.0
 70
   128
 71
    60
 72
    59
 73
    52
  0
VERTEX
  5
405
  8
0
 62
     9
 10
0.0
 20
0.0
 30
0.0
 70
   128
 71
    61
 72
    46
 73
    56
  0
VERTEX
  5
406
  8
0
 62
     9
 10
0.0
 20
0.0
 30
0.0
 70
   128
 71
    61
 72
    47
 73
    46
  0
VERTEX
  5
407
  8
0
 62
     9
 10
0.0
 20
0.0
 30
0.0
 70
   128
 71
    43
 72
    45
 73
    58
  0
VERTEX
  5
408
  8
0
 62
     9
 10
0.0
 20
0.0
 30
0.0
 70
   128
 71
    56
 72
    43
 73
    58
  0
VERTEX
  5
409
  8
0
 62
     9
 10
0.0
 20
0.0
 30
0.0
 70
   128
 71
    41
 72
    53
 73
    57
  0
VERTEX
  5
40A
  8
0
 62
     9
 10
0.0
 20
0.0
 30
0.0
 70
   128
 71
    45
 72
    41
 73
    57
  0
VERTEX
  5
40B
  8
0
 62
     9
 10
0.0
 20
0.0
 30
0.0
 70
   128
 71
    37
 72
    54
 73
    40
  0
VERTEX
  5
40C
  8
0
 62
     9
 10
0.0
 20
0.0
 30
0.0
 70
   128
 71
    40
 72
    54
 73
    53
  0
VERTEX
  5
40D
  8
0
 62
     9
 10
0.0
 20
0.0
 30
0.0
 70
   128
 71
    14
 72
    55
 73
    49
  0
VERTEX
  5
40E
  8
0
 62
     9
 10
0.0
 20
0.0
 30
0.0
 70
   128
 71
    49
 72
    55
 73
    37
  0
VERTEX
  5
40F
  8
0
 62
     9
 10
0.0
 20
0.0
 30
0.0
 70
   128
 71
    62
 72
    59
 73
     7
  0
VERTEX
  5
410
  8
0
 62
     9
 10
0.0
 20
0.0
 30
0.0
 70
   128
 71
    22
 72
    15
 73
    19
  0
VERTEX
  5
411
  8
0
 62
     9
 10
0.0
 20
0.0
 30
0.0
 70
   128
 71
    19
 72
    20
 73
    22
  0
VERTEX
  5
412
  8
0
 62
     9
 10
0.0
 20
0.0
 30
0.0
 70
   128
 71
    15
 72
    22
 73
     1
  0
VERTEX
  5
413
  8
0
 62
     9
 10
0.0
 20
0.0
 30
0.0
 70
   128
 71
    19
 72
    15
 73
    16
  0
VERTEX
  5
414
  8
0
 62
     9
 10
0.0
 20
0.0
 30
0.0
 70
   128
 71
     5
 72
     1
 73
    25
  0
VERTEX
  5
415
  8
0
 62
     9
 10
0.0
 20
0.0
 30
0.0
 70
   128
 71
    22
 72
    25
 73
     1
  0
VERTEX
  5
416
  8
0
 62
     9
 10
0.0
 20
0.0
 30
0.0
 70
   128
 71
    61
 72
    14
 73
    13
  0
VERTEX
  5
417
  8
0
 62
     9
 10
0.0
 20
0.0
 30
0.0
 70
   128
 71
    59
 72
    60
 73
     8
  0
VERTEX
  5
418
  8
0
 62
     9
 10
0.0
 20
0.0
 30
0.0
 70
   128
 71
    56
 72
    55
 73
    14
  0
VERTEX
  5
419
  8
0
 62
     9
 10
0.0
 20
0.0
 30
0.0
 70
   128
 71
    55
 72
    53
 73
    54
  0
VERTEX
  5
41A
  8
0
 62
     9
 10
0.0
 20
0.0
 30
0.0
 70
   128
 71
    57
 72
    53
 73
    58
  0
VERTEX
  5
41B
  8
0
 62
     9
 10
0.0
 20
0.0
 30
0.0
 70
   128
 71
    55
 72
    58
 73
    53
  0
VERTEX
  5
41C
  8
0
 62
     9
 10
0.0
 20
0.0
 30
0.0
 70
   128
 71
    58
 72
    55
 73
    56
  0
VERTEX
  5
41D
  8
0
 62
     9
 10
0.0
 20
0.0
 30
0.0
 70
   128
 71
    60
 72
    61
 73
    13
  0
VERTEX
  5
41E
  8
0
 62
     9
 10
0.0
 20
0.0
 30
0.0
 70
   128
 71
    14
 72
    61
 73
    56
  0
VERTEX
  5
41F
  8
0
 62
     9
 10
0.0
 20
0.0
 30
0.0
 70
   128
 71
     8
 72
    60
 73
    11
  0
VERTEX
  5
420
  8
0
 62
     9
 10
0.0
 20
0.0
 30
0.0
 70
   128
 71
    60
 72
    13
 73
    11
  0
VERTEX
  5
421
  8
0
 62
     9
 10
0.0
 20
0.0
 30
0.0
 70
   128
 71
    62
 72
     7
 73
    63
  0
VERTEX
  5
422
  8
0
 62
     9
 10
0.0
 20
0.0
 30
0.0
 70
   128
 71
    59
 72
     8
 73
     7
  0
VERTEX
  5
423
  8
0
 62
     9
 10
0.0
 20
0.0
 30
0.0
 70
   128
 71
    63
 72
     5
 73
    25
  0
VERTEX
  5
424
  8
0
 62
     9
 10
0.0
 20
0.0
 30
0.0
 70
   128
 71
     7
 72
     5
 73
    63
  0
SEQEND
  5
425
  8
0
 62
     9
  0
ENDBLK
  5
428
  8
0
  0
BLOCK
  8
0
  2
42
 70
     0
 10
0.0
 20
0.0
 30
0.0
  3
42
  1

  0
POLYLINE
  5
42A
  8
0
 62
     9
 66
     1
 10
0.0
 20
0.0
 30
0.0
 70
    64
 71
   192
 72
   370
  0
VERTEX
  5
42B
  8
0
 10
0.0000000197337027
 20
15.0
 30
291.1999206542969
 70
   192
  0
VERTEX
  5
42C
  8
0
 10
0.0000000007358394
 20
15.0
 30
149.1999206542969
 70
   192
  0
VERTEX
  5
42D
  8
0
 10
-9.0
 20
12.0
 30
149.1999206542969
 70
   192
  0
VERTEX
  5
42E
  8
0
 10
-13.84615421295166
 20
5.76923131942749
 30
149.1999206542969
 70
   192
  0
VERTEX
  5
42F
  8
0
 10
-9.0
 20
12.0
 30
291.1999206542969
 70
   192
  0
VERTEX
  5
430
  8
0
 10
-15.0
 20
0.0000004136001337
 30
149.1999206542969
 70
   192
  0
VERTEX
  5
431
  8
0
 10
-13.84615421295166
 20
5.76923131942749
 30
291.1999206542969
 70
   192
  0
VERTEX
  5
432
  8
0
 10
-15.0
 20
0.0000004136001053
 30
291.1999206542969
 70
   192
  0
VERTEX
  5
433
  8
0
 10
9.0
 20
12.0
 30
291.1999206542969
 70
   192
  0
VERTEX
  5
434
  8
0
 10
13.84615421295166
 20
5.76923131942749
 30
291.1999206542969
 70
   192
  0
VERTEX
  5
435
  8
0
 10
9.0
 20
12.0
 30
149.1999206542969
 70
   192
  0
VERTEX
  5
436
  8
0
 10
13.84615421295166
 20
5.76923131942749
 30
149.1999206542969
 70
   192
  0
VERTEX
  5
437
  8
0
 10
15.0
 20
0.0000004136001053
 30
291.1999206542969
 70
   192
  0
VERTEX
  5
438
  8
0
 10
15.0
 20
0.0000004136001337
 30
149.1999206542969
 70
   192
  0
VERTEX
  5
439
  8
0
 10
34.81601715087891
 20
12.0
 30
348.2126159667969
 70
   192
  0
VERTEX
  5
43A
  8
0
 10
37.13221740722656
 20
15.0
 30
339.5157470703125
 70
   192
  0
VERTEX
  5
43B
  8
0
 10
24.93443870544434
 20
15.0
 30
334.4632568359375
 70
   192
  0
VERTEX
  5
43C
  8
0
 10
31.87567138671875
 20
5.76923131942749
 30
322.482666015625
 70
   192
  0
VERTEX
  5
43D
  8
0
 10
40.69560241699219
 20
5.76923131942749
 30
326.135986328125
 70
   192
  0
VERTEX
  5
43E
  8
0
 10
32.59457397460938
 20
0.0000004136000769
 30
321.5536804199219
 70
   192
  0
VERTEX
  5
43F
  8
0
 10
50.0
 20
9.0
 30
353.1999206542969
 70
   192
  0
VERTEX
  5
440
  8
0
 10
33.56883239746094
 20
5.76923131942749
 30
352.8955383300781
 70
   192
  0
VERTEX
  5
441
  8
0
 10
50.0
 20
0.0000004136000769
 30
356.1999206542969
 70
   192
  0
VERTEX
  5
442
  8
0
 10
17.99320602416992
 20
5.76923131942749
 30
346.4438781738281
 70
   192
  0
VERTEX
  5
443
  8
0
 10
17.41477012634277
 20
0.0000004136000769
 30
347.4422912597656
 70
   192
  0
VERTEX
  5
444
  8
0
 10
33.27188491821289
 20
0.0000004136000769
 30
354.010498046875
 70
   192
  0
VERTEX
  5
445
  8
0
 10
4.853951454162598
 20
5.76923131942749
 30
336.3459777832031
 70
   192
  0
VERTEX
  5
446
  8
0
 10
20.42263793945312
 20
12.0
 30
342.2506713867188
 70
   192
  0
VERTEX
  5
447
  8
0
 10
4.038059234619141
 20
0.0000004136000769
 30
337.161865234375
 70
   192
  0
VERTEX
  5
448
  8
0
 10
39.44841766357422
 20
12.0
 30
330.8189086914062
 70
   192
  0
VERTEX
  5
449
  8
0
 10
29.44623947143555
 20
12.0
 30
326.6758728027344
 70
   192
  0
VERTEX
  5
44A
  8
0
 10
50.0
 20
0.0000004136000769
 30
326.1999206542969
 70
   192
  0
VERTEX
  5
44B
  8
0
 10
40.84415435791016
 20
0.0000004136000769
 30
324.9707641601562
 70
   192
  0
VERTEX
  5
44C
  8
0
 10
50.0
 20
9.0
 30
329.1999206542969
 70
   192
  0
VERTEX
  5
44D
  8
0
 10
50.0
 20
13.84615421295166
 30
335.4306945800781
 70
   192
  0
VERTEX
  5
44E
  8
0
 10
24.43536949157715
 20
5.76923131942749
 30
316.7645568847656
 70
   192
  0
VERTEX
  5
44F
  8
0
 10
25.25126266479492
 20
0.0000004136001053
 30
315.9486694335938
 70
   192
  0
VERTEX
  5
450
  8
0
 10
21.00862121582031
 20
12.0
 30
320.1912841796875
 70
   192
  0
VERTEX
  5
451
  8
0
 10
14.64466094970703
 20
15.0
 30
326.5552673339844
 70
   192
  0
VERTEX
  5
452
  8
0
 10
50.0
 20
15.0
 30
341.1999206542969
 70
   192
  0
VERTEX
  5
453
  8
0
 10
8.280699729919434
 20
12.0
 30
332.9192199707031
 70
   192
  0
VERTEX
  5
454
  8
0
 10
50.0
 20
13.84615421295166
 30
346.9691467285156
 70
   192
  0
VERTEX
  5
455
  8
0
 10
-1.050755500793457
 20
12.0
 30
320.7772827148438
 70
   192
  0
VERTEX
  5
456
  8
0
 10
6.736648082733154
 20
15.0
 30
316.2654724121094
 70
   192
  0
VERTEX
  5
457
  8
0
 10
1.684162020683289
 20
15.0
 30
304.0676879882812
 70
   192
  0
VERTEX
  5
458
  8
0
 10
15.06393241882324
 20
5.76923131942749
 30
300.5043029785156
 70
   192
  0
VERTEX
  5
459
  8
0
 10
18.7172679901123
 20
5.76923131942749
 30
309.3242492675781
 70
   192
  0
VERTEX
  5
45A
  8
0
 10
16.22916221618652
 20
0.0000004136001053
 30
300.3557739257812
 70
   192
  0
VERTEX
  5
45B
  8
0
 10
-5.243972778320312
 20
5.76923131942749
 30
323.2067260742188
 70
   192
  0
VERTEX
  5
45C
  8
0
 10
-11.69560813903809
 20
5.76923131942749
 30
307.6310729980469
 70
   192
  0
VERTEX
  5
45D
  8
0
 10
-12.81058979034424
 20
0.0000004136001053
 30
307.9280395507812
 70
   192
  0
VERTEX
  5
45E
  8
0
 10
-6.242357730865479
 20
0.0000004136000769
 30
323.78515625
 70
   192
  0
VERTEX
  5
45F
  8
0
 10
-7.012688636779785
 20
12.0
 30
306.3839111328125
 70
   192
  0
VERTEX
  5
460
  8
0
 10
14.52405166625977
 20
12.0
 30
311.7536926269531
 70
   192
  0
VERTEX
  5
461
  8
0
 10
10.38101291656494
 20
12.0
 30
301.7514953613281
 70
   192
  0
VERTEX
  5
462
  8
0
 10
19.64624977111816
 20
0.0000004136001053
 30
308.6053466796875
 70
   192
  0
VERTEX
  5
463
  8
0
 10
8.280699729919434
 20
-12.0
 30
332.9192199707031
 70
   192
  0
VERTEX
  5
464
  8
0
 10
-1.050755500793457
 20
-12.0
 30
320.7772827148438
 70
   192
  0
VERTEX
  5
465
  8
0
 10
6.736648082733154
 20
-15.0
 30
316.2654724121094
 70
   192
  0
VERTEX
  5
466
  8
0
 10
-11.69560813903809
 20
-5.769230365753174
 30
307.6310729980469
 70
   192
  0
VERTEX
  5
467
  8
0
 10
-13.84615421295166
 20
-5.769230365753174
 30
291.1999206542969
 70
   192
  0
VERTEX
  5
468
  8
0
 10
-9.0
 20
-12.0
 30
291.1999206542969
 70
   192
  0
VERTEX
  5
469
  8
0
 10
0.0000000387315069
 20
-15.0
 30
291.1999206542969
 70
   192
  0
VERTEX
  5
46A
  8
0
 10
-7.012688636779785
 20
-12.0
 30
306.3839111328125
 70
   192
  0
VERTEX
  5
46B
  8
0
 10
9.0
 20
-12.0
 30
291.1999206542969
 70
   192
  0
VERTEX
  5
46C
  8
0
 10
10.38101291656494
 20
-12.0
 30
301.7514953613281
 70
   192
  0
VERTEX
  5
46D
  8
0
 10
1.684162020683289
 20
-15.0
 30
304.0676879882812
 70
   192
  0
VERTEX
  5
46E
  8
0
 10
14.52405166625977
 20
-12.0
 30
311.7536926269531
 70
   192
  0
VERTEX
  5
46F
  8
0
 10
18.7172679901123
 20
-5.769230365753174
 30
309.3242492675781
 70
   192
  0
VERTEX
  5
470
  8
0
 10
21.00862121582031
 20
-12.0
 30
320.1912841796875
 70
   192
  0
VERTEX
  5
471
  8
0
 10
15.06393241882324
 20
-5.769230365753174
 30
300.5043029785156
 70
   192
  0
VERTEX
  5
472
  8
0
 10
24.43536949157715
 20
-5.769230365753174
 30
316.7645568847656
 70
   192
  0
VERTEX
  5
473
  8
0
 10
14.64466094970703
 20
-15.0
 30
326.5552673339844
 70
   192
  0
VERTEX
  5
474
  8
0
 10
4.853951454162598
 20
-5.769230365753174
 30
336.3459777832031
 70
   192
  0
VERTEX
  5
475
  8
0
 10
-5.243972778320312
 20
-5.769230365753174
 30
323.2067260742188
 70
   192
  0
VERTEX
  5
476
  8
0
 10
13.84615421295166
 20
-5.769230365753174
 30
291.1999206542969
 70
   192
  0
VERTEX
  5
477
  8
0
 10
176.0
 20
0.0000004136000484
 30
356.1999206542969
 70
   192
  0
VERTEX
  5
478
  8
0
 10
50.0
 20
-5.769230365753174
 30
355.0460815429688
 70
   192
  0
VERTEX
  5
479
  8
0
 10
176.0
 20
-5.769230365753174
 30
355.0460815429688
 70
   192
  0
VERTEX
  5
47A
  8
0
 10
50.0
 20
-12.0
 30
350.1999206542969
 70
   192
  0
VERTEX
  5
47B
  8
0
 10
176.0
 20
-12.0
 30
350.1999206542969
 70
   192
  0
VERTEX
  5
47C
  8
0
 10
50.0
 20
-15.0
 30
341.1999206542969
 70
   192
  0
VERTEX
  5
47D
  8
0
 10
176.0
 20
-15.0
 30
341.1999206542969
 70
   192
  0
VERTEX
  5
47E
  8
0
 10
176.0
 20
5.76923131942749
 30
355.0460815429688
 70
   192
  0
VERTEX
  5
47F
  8
0
 10
176.0
 20
12.0
 30
350.1999206542969
 70
   192
  0
VERTEX
  5
480
  8
0
 10
176.0
 20
15.0
 30
341.1999206542969
 70
   192
  0
VERTEX
  5
481
  8
0
 10
233.0126953125
 20
12.0
 30
306.3839111328125
 70
   192
  0
VERTEX
  5
482
  8
0
 10
224.3158416748047
 20
15.0
 30
304.0676879882812
 70
   192
  0
VERTEX
  5
483
  8
0
 10
219.2633514404297
 20
15.0
 30
316.2654724121094
 70
   192
  0
VERTEX
  5
484
  8
0
 10
207.2827301025391
 20
5.76923131942749
 30
309.3242492675781
 70
   192
  0
VERTEX
  5
485
  8
0
 10
210.9360656738281
 20
5.76923131942749
 30
300.5043029785156
 70
   192
  0
VERTEX
  5
486
  8
0
 10
206.3537445068359
 20
0.0000004136000769
 30
308.6053466796875
 70
   192
  0
VERTEX
  5
487
  8
0
 10
239.8461608886719
 20
5.76923131942749
 30
291.1999206542969
 70
   192
  0
VERTEX
  5
488
  8
0
 10
237.6956024169922
 20
5.76923131942749
 30
307.6310729980469
 70
   192
  0
VERTEX
  5
489
  8
0
 10
241.0
 20
0.0000004136001053
 30
291.1999206542969
 70
   192
  0
VERTEX
  5
48A
  8
0
 10
231.2439727783203
 20
5.76923131942749
 30
323.2067260742188
 70
   192
  0
VERTEX
  5
48B
  8
0
 10
232.2423553466797
 20
0.0000004136000769
 30
323.78515625
 70
   192
  0
VERTEX
  5
48C
  8
0
 10
238.8105926513672
 20
0.0000004136001053
 30
307.9280395507812
 70
   192
  0
VERTEX
  5
48D
  8
0
 10
221.1460418701172
 20
5.76923131942749
 30
336.3459777832031
 70
   192
  0
VERTEX
  5
48E
  8
0
 10
227.0507507324219
 20
12.0
 30
320.7772827148438
 70
   192
  0
VERTEX
  5
48F
  8
0
 10
221.9619445800781
 20
0.0000004136000769
 30
337.161865234375
 70
   192
  0
VERTEX
  5
490
  8
0
 10
215.6189880371094
 20
12.0
 30
301.7514953613281
 70
   192
  0
VERTEX
  5
491
  8
0
 10
211.4759521484375
 20
12.0
 30
311.7536926269531
 70
   192
  0
VERTEX
  5
492
  8
0
 10
211.0
 20
0.0000004136001053
 30
291.1999206542969
 70
   192
  0
VERTEX
  5
493
  8
0
 10
209.7708435058594
 20
0.0000004136000769
 30
300.3557739257812
 70
   192
  0
VERTEX
  5
494
  8
0
 10
212.1538391113281
 20
5.76923131942749
 30
291.1999206542969
 70
   192
  0
VERTEX
  5
495
  8
0
 10
217.0
 20
12.0
 30
291.1999206542969
 70
   192
  0
VERTEX
  5
496
  8
0
 10
201.5646362304688
 20
5.76923131942749
 30
316.7645568847656
 70
   192
  0
VERTEX
  5
497
  8
0
 10
200.7487335205078
 20
0.0000004136000769
 30
315.9486694335938
 70
   192
  0
VERTEX
  5
498
  8
0
 10
204.9913787841797
 20
12.0
 30
320.1912841796875
 70
   192
  0
VERTEX
  5
499
  8
0
 10
211.3553314208984
 20
15.0
 30
326.5552673339844
 70
   192
  0
VERTEX
  5
49A
  8
0
 10
226.0
 20
15.0
 30
291.1999206542969
 70
   192
  0
VERTEX
  5
49B
  8
0
 10
217.7192993164062
 20
12.0
 30
332.9192199707031
 70
   192
  0
VERTEX
  5
49C
  8
0
 10
235.0
 20
12.0
 30
291.1999206542969
 70
   192
  0
VERTEX
  5
49D
  8
0
 10
208.0067901611328
 20
5.76923131942749
 30
346.4438781738281
 70
   192
  0
VERTEX
  5
49E
  8
0
 10
185.3043975830078
 20
5.76923131942749
 30
326.135986328125
 70
   192
  0
VERTEX
  5
49F
  8
0
 10
194.1243286132812
 20
5.76923131942749
 30
322.482666015625
 70
   192
  0
VERTEX
  5
4A0
  8
0
 10
185.1558532714844
 20
0.0000004136000769
 30
324.9707641601562
 70
   192
  0
VERTEX
  5
4A1
  8
0
 10
205.5773620605469
 20
12.0
 30
342.2506713867188
 70
   192
  0
VERTEX
  5
4A2
  8
0
 10
201.0655670166016
 20
15.0
 30
334.4632568359375
 70
   192
  0
VERTEX
  5
4A3
  8
0
 10
188.8677825927734
 20
15.0
 30
339.5157470703125
 70
   192
  0
VERTEX
  5
4A4
  8
0
 10
192.7281188964844
 20
0.0000004136000484
 30
354.010498046875
 70
   192
  0
VERTEX
  5
4A5
  8
0
 10
208.5852355957031
 20
0.0000004136000484
 30
347.4422912597656
 70
   192
  0
VERTEX
  5
4A6
  8
0
 10
192.4311676025391
 20
5.76923131942749
 30
352.8955383300781
 70
   192
  0
VERTEX
  5
4A7
  8
0
 10
191.1839752197266
 20
12.0
 30
348.2126159667969
 70
   192
  0
VERTEX
  5
4A8
  8
0
 10
196.5537567138672
 20
12.0
 30
326.6758728027344
 70
   192
  0
VERTEX
  5
4A9
  8
0
 10
186.5515747070312
 20
12.0
 30
330.8189086914062
 70
   192
  0
VERTEX
  5
4AA
  8
0
 10
193.4054260253906
 20
0.0000004136000769
 30
321.5536804199219
 70
   192
  0
VERTEX
  5
4AB
  8
0
 10
176.0
 20
9.0
 30
329.1999206542969
 70
   192
  0
VERTEX
  5
4AC
  8
0
 10
176.0
 20
0.0000004136000769
 30
326.1999206542969
 70
   192
  0
VERTEX
  5
4AD
  8
0
 10
176.0
 20
13.84615421295166
 30
335.4306945800781
 70
   192
  0
VERTEX
  5
4AE
  8
0
 10
217.7192993164062
 20
-12.0
 30
332.9192199707031
 70
   192
  0
VERTEX
  5
4AF
  8
0
 10
205.5773620605469
 20
-12.0
 30
342.2506713867188
 70
   192
  0
VERTEX
  5
4B0
  8
0
 10
201.0655670166016
 20
-15.0
 30
334.4632568359375
 70
   192
  0
VERTEX
  5
4B1
  8
0
 10
192.4311676025391
 20
-5.769230365753174
 30
352.8955383300781
 70
   192
  0
VERTEX
  5
4B2
  8
0
 10
191.1839752197266
 20
-12.0
 30
348.2126159667969
 70
   192
  0
VERTEX
  5
4B3
  8
0
 10
176.0
 20
-13.84615325927734
 30
335.4306945800781
 70
   192
  0
VERTEX
  5
4B4
  8
0
 10
186.5515747070312
 20
-12.0
 30
330.8189086914062
 70
   192
  0
VERTEX
  5
4B5
  8
0
 10
188.8677825927734
 20
-15.0
 30
339.5157470703125
 70
   192
  0
VERTEX
  5
4B6
  8
0
 10
196.5537567138672
 20
-12.0
 30
326.6758728027344
 70
   192
  0
VERTEX
  5
4B7
  8
0
 10
194.1243286132812
 20
-5.769230365753174
 30
322.482666015625
 70
   192
  0
VERTEX
  5
4B8
  8
0
 10
204.9913787841797
 20
-12.0
 30
320.1912841796875
 70
   192
  0
VERTEX
  5
4B9
  8
0
 10
185.3043975830078
 20
-5.769230365753174
 30
326.135986328125
 70
   192
  0
VERTEX
  5
4BA
  8
0
 10
201.5646362304688
 20
-5.769230365753174
 30
316.7645568847656
 70
   192
  0
VERTEX
  5
4BB
  8
0
 10
211.3553314208984
 20
-15.0
 30
326.5552673339844
 70
   192
  0
VERTEX
  5
4BC
  8
0
 10
221.1460418701172
 20
-5.769230365753174
 30
336.3459777832031
 70
   192
  0
VERTEX
  5
4BD
  8
0
 10
208.0067901611328
 20
-5.769230365753174
 30
346.4438781738281
 70
   192
  0
VERTEX
  5
4BE
  8
0
 10
176.0
 20
-9.0
 30
329.1999206542969
 70
   192
  0
VERTEX
  5
4BF
  8
0
 10
226.2227630615234
 20
14.94596099853516
 30
261.6999206542969
 70
   192
  0
VERTEX
  5
4C0
  8
0
 10
233.65869140625
 20
12.81605339050293
 30
261.6999206542969
 70
   192
  0
VERTEX
  5
4C1
  8
0
 10
238.9423522949219
 20
7.570115566253662
 30
261.6999206542969
 70
   192
  0
VERTEX
  5
4C2
  8
0
 10
241.0
 20
0.0000004136001053
 30
261.6999206542969
 70
   192
  0
VERTEX
  5
4C3
  8
0
 10
218.6594543457031
 20
13.0506763458252
 30
261.6999206542969
 70
   192
  0
VERTEX
  5
4C4
  8
0
 10
213.0576477050781
 20
7.570115566253662
 30
261.6999206542969
 70
   192
  0
VERTEX
  5
4C5
  8
0
 10
211.0
 20
0.0000004136001053
 30
261.6999206542969
 70
   192
  0
VERTEX
  5
4C6
  8
0
 10
212.1538391113281
 20
-5.769230365753174
 30
261.6999206542969
 70
   192
  0
VERTEX
  5
4C7
  8
0
 10
217.0
 20
-12.0
 30
261.6999206542969
 70
   192
  0
VERTEX
  5
4C8
  8
0
 10
226.0
 20
-15.0
 30
261.6999206542969
 70
   192
  0
VERTEX
  5
4C9
  8
0
 10
239.8461608886719
 20
-5.769230365753174
 30
261.6999206542969
 70
   192
  0
VERTEX
  5
4CA
  8
0
 10
235.0
 20
-12.0
 30
261.6999206542969
 70
   192
  0
VERTEX
  5
4CB
  8
0
 10
239.8461608886719
 20
-5.769230365753174
 30
291.1999206542969
 70
   192
  0
VERTEX
  5
4CC
  8
0
 10
217.0
 20
-12.0
 30
291.1999206542969
 70
   192
  0
VERTEX
  5
4CD
  8
0
 10
226.0
 20
-15.0
 30
291.1999206542969
 70
   192
  0
VERTEX
  5
4CE
  8
0
 10
235.0
 20
-12.0
 30
291.1999206542969
 70
   192
  0
VERTEX
  5
4CF
  8
0
 10
212.1538391113281
 20
-5.769230365753174
 30
291.1999206542969
 70
   192
  0
VERTEX
  5
4D0
  8
0
 10
233.0126953125
 20
-12.0
 30
306.3839111328125
 70
   192
  0
VERTEX
  5
4D1
  8
0
 10
224.3158416748047
 20
-15.0
 30
304.0676879882812
 70
   192
  0
VERTEX
  5
4D2
  8
0
 10
231.2439727783203
 20
-5.769230365753174
 30
323.2067260742188
 70
   192
  0
VERTEX
  5
4D3
  8
0
 10
227.0507507324219
 20
-12.0
 30
320.7772827148438
 70
   192
  0
VERTEX
  5
4D4
  8
0
 10
211.4759521484375
 20
-12.0
 30
311.7536926269531
 70
   192
  0
VERTEX
  5
4D5
  8
0
 10
219.2633514404297
 20
-15.0
 30
316.2654724121094
 70
   192
  0
VERTEX
  5
4D6
  8
0
 10
215.6189880371094
 20
-12.0
 30
301.7514953613281
 70
   192
  0
VERTEX
  5
4D7
  8
0
 10
210.9360656738281
 20
-5.769230365753174
 30
300.5043029785156
 70
   192
  0
VERTEX
  5
4D8
  8
0
 10
207.2827301025391
 20
-5.769230365753174
 30
309.3242492675781
 70
   192
  0
VERTEX
  5
4D9
  8
0
 10
237.6956024169922
 20
-5.769230365753174
 30
307.6310729980469
 70
   192
  0
VERTEX
  5
4DA
  8
0
 10
50.0
 20
-12.0
 30
332.1999206542969
 70
   192
  0
VERTEX
  5
4DB
  8
0
 10
50.0
 20
-5.769230365753174
 30
327.353759765625
 70
   192
  0
VERTEX
  5
4DC
  8
0
 10
34.81601715087891
 20
-12.0
 30
348.2126159667969
 70
   192
  0
VERTEX
  5
4DD
  8
0
 10
37.13221740722656
 20
-15.0
 30
339.5157470703125
 70
   192
  0
VERTEX
  5
4DE
  8
0
 10
17.99320602416992
 20
-5.769230365753174
 30
346.4438781738281
 70
   192
  0
VERTEX
  5
4DF
  8
0
 10
20.42263793945312
 20
-12.0
 30
342.2506713867188
 70
   192
  0
VERTEX
  5
4E0
  8
0
 10
29.44623947143555
 20
-12.0
 30
326.6758728027344
 70
   192
  0
VERTEX
  5
4E1
  8
0
 10
24.93443870544434
 20
-15.0
 30
334.4632568359375
 70
   192
  0
VERTEX
  5
4E2
  8
0
 10
39.44841766357422
 20
-12.0
 30
330.8189086914062
 70
   192
  0
VERTEX
  5
4E3
  8
0
 10
40.69560241699219
 20
-5.769230365753174
 30
326.135986328125
 70
   192
  0
VERTEX
  5
4E4
  8
0
 10
31.87567138671875
 20
-5.769230365753174
 30
322.482666015625
 70
   192
  0
VERTEX
  5
4E5
  8
0
 10
33.56883239746094
 20
-5.769230365753174
 30
352.8955383300781
 70
   192
  0
VERTEX
  5
4E6
  8
0
 10
-13.84615421295166
 20
-5.769230365753174
 30
149.1999206542969
 70
   192
  0
VERTEX
  5
4E7
  8
0
 10
9.0
 20
-12.0
 30
149.1999206542969
 70
   192
  0
VERTEX
  5
4E8
  8
0
 10
0.0000000007358372
 20
-15.0
 30
149.1999206542969
 70
   192
  0
VERTEX
  5
4E9
  8
0
 10
-9.0
 20
-12.0
 30
149.1999206542969
 70
   192
  0
VERTEX
  5
4EA
  8
0
 10
13.84615421295166
 20
-5.769230365753174
 30
149.1999206542969
 70
   192
  0
VERTEX
  5
4EB
  8
0
 62
     9
 10
0.0
 20
0.0
 30
0.0
 70
   128
 71
     3
 72
     2
 73
     1
  0
VERTEX
  5
4EC
  8
0
 62
     9
 10
0.0
 20
0.0
 30
0.0
 70
   128
 71
     3
 72
     5
 73
     4
  0
VERTEX
  5
4ED
  8
0
 62
     9
 10
0.0
 20
0.0
 30
0.0
 70
   128
 71
     5
 72
     3
 73
     1
  0
VERTEX
  5
4EE
  8
0
 62
     9
 10
0.0
 20
0.0
 30
0.0
 70
   128
 71
     7
 72
     6
 73
     4
  0
VERTEX
  5
4EF
  8
0
 62
     9
 10
0.0
 20
0.0
 30
0.0
 70
   128
 71
     4
 72
     5
 73
     7
  0
VERTEX
  5
4F0
  8
0
 62
     9
 10
0.0
 20
0.0
 30
0.0
 70
   128
 71
     7
 72
     8
 73
     6
  0
VERTEX
  5
4F1
  8
0
 62
     9
 10
0.0
 20
0.0
 30
0.0
 70
   128
 71
     1
 72
     2
 73
     9
  0
VERTEX
  5
4F2
  8
0
 62
     9
 10
0.0
 20
0.0
 30
0.0
 70
   128
 71
    11
 72
    10
 73
     9
  0
VERTEX
  5
4F3
  8
0
 62
     9
 10
0.0
 20
0.0
 30
0.0
 70
   128
 71
     9
 72
     2
 73
    11
  0
VERTEX
  5
4F4
  8
0
 62
     9
 10
0.0
 20
0.0
 30
0.0
 70
   128
 71
    13
 72
    10
 73
    12
  0
VERTEX
  5
4F5
  8
0
 62
     9
 10
0.0
 20
0.0
 30
0.0
 70
   128
 71
    11
 72
    12
 73
    10
  0
VERTEX
  5
4F6
  8
0
 62
     9
 10
0.0
 20
0.0
 30
0.0
 70
   128
 71
    14
 72
    13
 73
    12
  0
VERTEX
  5
4F7
  8
0
 62
     9
 10
0.0
 20
0.0
 30
0.0
 70
   128
 71
    17
 72
    16
 73
    15
  0
VERTEX
  5
4F8
  8
0
 62
     9
 10
0.0
 20
0.0
 30
0.0
 70
   128
 71
    20
 72
    19
 73
    18
  0
VERTEX
  5
4F9
  8
0
 62
     9
 10
0.0
 20
0.0
 30
0.0
 70
   128
 71
    22
 72
    15
 73
    21
  0
VERTEX
  5
4FA
  8
0
 62
     9
 10
0.0
 20
0.0
 30
0.0
 70
   128
 71
    23
 72
    22
 73
    21
  0
VERTEX
  5
4FB
  8
0
 62
     9
 10
0.0
 20
0.0
 30
0.0
 70
   128
 71
    26
 72
    25
 73
    24
  0
VERTEX
  5
4FC
  8
0
 62
     9
 10
0.0
 20
0.0
 30
0.0
 70
   128
 71
    25
 72
    27
 73
    24
  0
VERTEX
  5
4FD
  8
0
 62
     9
 10
0.0
 20
0.0
 30
0.0
 70
   128
 71
    28
 72
    22
 73
    24
  0
VERTEX
  5
4FE
  8
0
 62
     9
 10
0.0
 20
0.0
 30
0.0
 70
   128
 71
    25
 72
    29
 73
    27
  0
VERTEX
  5
4FF
  8
0
 62
     9
 10
0.0
 20
0.0
 30
0.0
 70
   128
 71
    15
 72
    28
 73
    17
  0
VERTEX
  5
500
  8
0
 62
     9
 10
0.0
 20
0.0
 30
0.0
 70
   128
 71
    31
 72
    30
 73
    16
  0
VERTEX
  5
501
  8
0
 62
     9
 10
0.0
 20
0.0
 30
0.0
 70
   128
 71
    19
 72
    30
 73
    18
  0
VERTEX
  5
502
  8
0
 62
     9
 10
0.0
 20
0.0
 30
0.0
 70
   128
 71
    30
 72
    31
 73
    18
  0
VERTEX
  5
503
  8
0
 62
     9
 10
0.0
 20
0.0
 30
0.0
 70
   128
 71
    16
 72
    17
 73
    31
  0
VERTEX
  5
504
  8
0
 62
     9
 10
0.0
 20
0.0
 30
0.0
 70
   128
 71
    34
 72
    33
 73
    32
  0
VERTEX
  5
505
  8
0
 62
     9
 10
0.0
 20
0.0
 30
0.0
 70
   128
 71
    19
 72
    34
 73
    35
  0
VERTEX
  5
506
  8
0
 62
     9
 10
0.0
 20
0.0
 30
0.0
 70
   128
 71
    37
 72
    18
 73
    36
  0
VERTEX
  5
507
  8
0
 62
     9
 10
0.0
 20
0.0
 30
0.0
 70
   128
 71
    20
 72
    18
 73
    37
  0
VERTEX
  5
508
  8
0
 62
     9
 10
0.0
 20
0.0
 30
0.0
 70
   128
 71
    38
 72
    36
 73
    31
  0
VERTEX
  5
509
  8
0
 62
     9
 10
0.0
 20
0.0
 30
0.0
 70
   128
 71
    19
 72
    33
 73
    34
  0
VERTEX
  5
50A
  8
0
 62
     9
 10
0.0
 20
0.0
 30
0.0
 70
   128
 71
    33
 72
    19
 73
    20
  0
VERTEX
  5
50B
  8
0
 62
     9
 10
0.0
 20
0.0
 30
0.0
 70
   128
 71
    18
 72
    31
 73
    36
  0
VERTEX
  5
50C
  8
0
 62
     9
 10
0.0
 20
0.0
 30
0.0
 70
   128
 71
    39
 72
    38
 73
    17
  0
VERTEX
  5
50D
  8
0
 62
     9
 10
0.0
 20
0.0
 30
0.0
 70
   128
 71
    30
 72
    35
 73
    40
  0
VERTEX
  5
50E
  8
0
 62
     9
 10
0.0
 20
0.0
 30
0.0
 70
   128
 71
    35
 72
    30
 73
    19
  0
VERTEX
  5
50F
  8
0
 62
     9
 10
0.0
 20
0.0
 30
0.0
 70
   128
 71
    31
 72
    17
 73
    38
  0
VERTEX
  5
510
  8
0
 62
     9
 10
0.0
 20
0.0
 30
0.0
 70
   128
 71
    41
 72
    39
 73
    28
  0
VERTEX
  5
511
  8
0
 62
     9
 10
0.0
 20
0.0
 30
0.0
 70
   128
 71
    16
 72
    40
 73
    42
  0
VERTEX
  5
512
  8
0
 62
     9
 10
0.0
 20
0.0
 30
0.0
 70
   128
 71
    40
 72
    16
 73
    30
  0
VERTEX
  5
513
  8
0
 62
     9
 10
0.0
 20
0.0
 30
0.0
 70
   128
 71
    17
 72
    28
 73
    39
  0
VERTEX
  5
514
  8
0
 62
     9
 10
0.0
 20
0.0
 30
0.0
 70
   128
 71
    24
 72
    27
 73
    41
  0
VERTEX
  5
515
  8
0
 62
     9
 10
0.0
 20
0.0
 30
0.0
 70
   128
 71
    15
 72
    42
 73
    21
  0
VERTEX
  5
516
  8
0
 62
     9
 10
0.0
 20
0.0
 30
0.0
 70
   128
 71
    42
 72
    15
 73
    16
  0
VERTEX
  5
517
  8
0
 62
     9
 10
0.0
 20
0.0
 30
0.0
 70
   128
 71
    28
 72
    24
 73
    41
  0
VERTEX
  5
518
  8
0
 62
     9
 10
0.0
 20
0.0
 30
0.0
 70
   128
 71
    15
 72
    22
 73
    28
  0
VERTEX
  5
519
  8
0
 62
     9
 10
0.0
 20
0.0
 30
0.0
 70
   128
 71
    26
 72
    22
 73
    23
  0
VERTEX
  5
51A
  8
0
 62
     9
 10
0.0
 20
0.0
 30
0.0
 70
   128
 71
    22
 72
    26
 73
    24
  0
VERTEX
  5
51B
  8
0
 62
     9
 10
0.0
 20
0.0
 30
0.0
 70
   128
 71
    45
 72
    44
 73
    43
  0
VERTEX
  5
51C
  8
0
 62
     9
 10
0.0
 20
0.0
 30
0.0
 70
   128
 71
    48
 72
    47
 73
    46
  0
VERTEX
  5
51D
  8
0
 62
     9
 10
0.0
 20
0.0
 30
0.0
 70
   128
 71
    49
 72
    43
 73
    27
  0
VERTEX
  5
51E
  8
0
 62
     9
 10
0.0
 20
0.0
 30
0.0
 70
   128
 71
    29
 72
    49
 73
    27
  0
VERTEX
  5
51F
  8
0
 62
     9
 10
0.0
 20
0.0
 30
0.0
 70
   128
 71
    52
 72
    51
 73
    50
  0
VERTEX
  5
520
  8
0
 62
     9
 10
0.0
 20
0.0
 30
0.0
 70
   128
 71
    51
 72
     7
 73
    50
  0
VERTEX
  5
521
  8
0
 62
     9
 10
0.0
 20
0.0
 30
0.0
 70
   128
 71
    53
 72
    49
 73
    50
  0
VERTEX
  5
522
  8
0
 62
     9
 10
0.0
 20
0.0
 30
0.0
 70
   128
 71
    51
 72
     8
 73
     7
  0
VERTEX
  5
523
  8
0
 62
     9
 10
0.0
 20
0.0
 30
0.0
 70
   128
 71
    43
 72
    53
 73
    45
  0
VERTEX
  5
524
  8
0
 62
     9
 10
0.0
 20
0.0
 30
0.0
 70
   128
 71
    55
 72
    54
 73
    44
  0
VERTEX
  5
525
  8
0
 62
     9
 10
0.0
 20
0.0
 30
0.0
 70
   128
 71
    45
 72
    55
 73
    44
  0
VERTEX
  5
526
  8
0
 62
     9
 10
0.0
 20
0.0
 30
0.0
 70
   128
 71
    47
 72
    54
 73
    46
  0
VERTEX
  5
527
  8
0
 62
     9
 10
0.0
 20
0.0
 30
0.0
 70
   128
 71
    54
 72
    55
 73
    46
  0
VERTEX
  5
528
  8
0
 62
     9
 10
0.0
 20
0.0
 30
0.0
 70
   128
 71
    36
 72
    56
 73
    37
  0
VERTEX
  5
529
  8
0
 62
     9
 10
0.0
 20
0.0
 30
0.0
 70
   128
 71
    47
 72
    36
 73
    38
  0
VERTEX
  5
52A
  8
0
 62
     9
 10
0.0
 20
0.0
 30
0.0
 70
   128
 71
    13
 72
    46
 73
    10
  0
VERTEX
  5
52B
  8
0
 62
     9
 10
0.0
 20
0.0
 30
0.0
 70
   128
 71
    48
 72
    46
 73
    13
  0
VERTEX
  5
52C
  8
0
 62
     9
 10
0.0
 20
0.0
 30
0.0
 70
   128
 71
     9
 72
    10
 73
    55
  0
VERTEX
  5
52D
  8
0
 62
     9
 10
0.0
 20
0.0
 30
0.0
 70
   128
 71
    47
 72
    56
 73
    36
  0
VERTEX
  5
52E
  8
0
 62
     9
 10
0.0
 20
0.0
 30
0.0
 70
   128
 71
    56
 72
    47
 73
    48
  0
VERTEX
  5
52F
  8
0
 62
     9
 10
0.0
 20
0.0
 30
0.0
 70
   128
 71
    46
 72
    55
 73
    10
  0
VERTEX
  5
530
  8
0
 62
     9
 10
0.0
 20
0.0
 30
0.0
 70
   128
 71
     1
 72
     9
 73
    45
  0
VERTEX
  5
531
  8
0
 62
     9
 10
0.0
 20
0.0
 30
0.0
 70
   128
 71
    54
 72
    38
 73
    39
  0
VERTEX
  5
532
  8
0
 62
     9
 10
0.0
 20
0.0
 30
0.0
 70
   128
 71
    38
 72
    54
 73
    47
  0
VERTEX
  5
533
  8
0
 62
     9
 10
0.0
 20
0.0
 30
0.0
 70
   128
 71
    55
 72
    45
 73
     9
  0
VERTEX
  5
534
  8
0
 62
     9
 10
0.0
 20
0.0
 30
0.0
 70
   128
 71
     5
 72
     1
 73
    53
  0
VERTEX
  5
535
  8
0
 62
     9
 10
0.0
 20
0.0
 30
0.0
 70
   128
 71
    44
 72
    39
 73
    41
  0
VERTEX
  5
536
  8
0
 62
     9
 10
0.0
 20
0.0
 30
0.0
 70
   128
 71
    39
 72
    44
 73
    54
  0
VERTEX
  5
537
  8
0
 62
     9
 10
0.0
 20
0.0
 30
0.0
 70
   128
 71
    45
 72
    53
 73
     1
  0
VERTEX
  5
538
  8
0
 62
     9
 10
0.0
 20
0.0
 30
0.0
 70
   128
 71
    50
 72
     7
 73
     5
  0
VERTEX
  5
539
  8
0
 62
     9
 10
0.0
 20
0.0
 30
0.0
 70
   128
 71
    43
 72
    41
 73
    27
  0
VERTEX
  5
53A
  8
0
 62
     9
 10
0.0
 20
0.0
 30
0.0
 70
   128
 71
    41
 72
    43
 73
    44
  0
VERTEX
  5
53B
  8
0
 62
     9
 10
0.0
 20
0.0
 30
0.0
 70
   128
 71
    53
 72
    50
 73
     5
  0
VERTEX
  5
53C
  8
0
 62
     9
 10
0.0
 20
0.0
 30
0.0
 70
   128
 71
    43
 72
    49
 73
    53
  0
VERTEX
  5
53D
  8
0
 62
     9
 10
0.0
 20
0.0
 30
0.0
 70
   128
 71
    52
 72
    49
 73
    29
  0
VERTEX
  5
53E
  8
0
 62
     9
 10
0.0
 20
0.0
 30
0.0
 70
   128
 71
    49
 72
    52
 73
    50
  0
VERTEX
  5
53F
  8
0
 62
     9
 10
0.0
 20
0.0
 30
0.0
 70
   128
 71
    59
 72
    58
 73
    57
  0
VERTEX
  5
540
  8
0
 62
     9
 10
0.0
 20
0.0
 30
0.0
 70
   128
 71
    61
 72
    51
 73
    60
  0
VERTEX
  5
541
  8
0
 62
     9
 10
0.0
 20
0.0
 30
0.0
 70
   128
 71
    64
 72
    63
 73
    62
  0
VERTEX
  5
542
  8
0
 62
     9
 10
0.0
 20
0.0
 30
0.0
 70
   128
 71
    67
 72
    66
 73
    65
  0
VERTEX
  5
543
  8
0
 62
     9
 10
0.0
 20
0.0
 30
0.0
 70
   128
 71
    61
 72
     8
 73
    51
  0
VERTEX
  5
544
  8
0
 62
     9
 10
0.0
 20
0.0
 30
0.0
 70
   128
 71
    70
 72
    69
 73
    68
  0
VERTEX
  5
545
  8
0
 62
     9
 10
0.0
 20
0.0
 30
0.0
 70
   128
 71
    68
 72
    69
 73
    71
  0
VERTEX
  5
546
  8
0
 62
     9
 10
0.0
 20
0.0
 30
0.0
 70
   128
 71
    13
 72
    71
 73
    48
  0
VERTEX
  5
547
  8
0
 62
     9
 10
0.0
 20
0.0
 30
0.0
 70
   128
 71
    37
 72
    56
 73
    72
  0
VERTEX
  5
548
  8
0
 62
     9
 10
0.0
 20
0.0
 30
0.0
 70
   128
 71
    70
 72
    72
 73
    69
  0
VERTEX
  5
549
  8
0
 62
     9
 10
0.0
 20
0.0
 30
0.0
 70
   128
 71
    68
 72
    59
 73
    73
  0
VERTEX
  5
54A
  8
0
 62
     9
 10
0.0
 20
0.0
 30
0.0
 70
   128
 71
    59
 72
    66
 73
    67
  0
VERTEX
  5
54B
  8
0
 62
     9
 10
0.0
 20
0.0
 30
0.0
 70
   128
 71
    58
 72
    75
 73
    74
  0
VERTEX
  5
54C
  8
0
 62
     9
 10
0.0
 20
0.0
 30
0.0
 70
   128
 71
    64
 72
    60
 73
    75
  0
VERTEX
  5
54D
  8
0
 62
     9
 10
0.0
 20
0.0
 30
0.0
 70
   128
 71
    29
 72
    75
 73
    52
  0
VERTEX
  5
54E
  8
0
 62
     9
 10
0.0
 20
0.0
 30
0.0
 70
   128
 71
    62
 72
    60
 73
    64
  0
VERTEX
  5
54F
  8
0
 62
     9
 10
0.0
 20
0.0
 30
0.0
 70
   128
 71
    52
 72
    60
 73
    51
  0
VERTEX
  5
550
  8
0
 62
     9
 10
0.0
 20
0.0
 30
0.0
 70
   128
 71
    60
 72
    62
 73
    61
  0
VERTEX
  5
551
  8
0
 62
     9
 10
0.0
 20
0.0
 30
0.0
 70
   128
 71
    74
 72
    75
 73
    29
  0
VERTEX
  5
552
  8
0
 62
     9
 10
0.0
 20
0.0
 30
0.0
 70
   128
 71
    75
 72
    60
 73
    52
  0
VERTEX
  5
553
  8
0
 62
     9
 10
0.0
 20
0.0
 30
0.0
 70
   128
 71
    67
 72
    65
 73
    63
  0
VERTEX
  5
554
  8
0
 62
     9
 10
0.0
 20
0.0
 30
0.0
 70
   128
 71
    58
 72
    67
 73
    64
  0
VERTEX
  5
555
  8
0
 62
     9
 10
0.0
 20
0.0
 30
0.0
 70
   128
 71
    57
 72
    58
 73
    74
  0
VERTEX
  5
556
  8
0
 62
     9
 10
0.0
 20
0.0
 30
0.0
 70
   128
 71
    58
 72
    64
 73
    75
  0
VERTEX
  5
557
  8
0
 62
     9
 10
0.0
 20
0.0
 30
0.0
 70
   128
 71
    64
 72
    67
 73
    63
  0
VERTEX
  5
558
  8
0
 62
     9
 10
0.0
 20
0.0
 30
0.0
 70
   128
 71
    76
 72
    65
 73
    66
  0
VERTEX
  5
559
  8
0
 62
     9
 10
0.0
 20
0.0
 30
0.0
 70
   128
 71
    73
 72
    59
 73
    57
  0
VERTEX
  5
55A
  8
0
 62
     9
 10
0.0
 20
0.0
 30
0.0
 70
   128
 71
    59
 72
    67
 73
    58
  0
VERTEX
  5
55B
  8
0
 62
     9
 10
0.0
 20
0.0
 30
0.0
 70
   128
 71
    13
 72
    76
 73
    71
  0
VERTEX
  5
55C
  8
0
 62
     9
 10
0.0
 20
0.0
 30
0.0
 70
   128
 71
    56
 72
    48
 73
    69
  0
VERTEX
  5
55D
  8
0
 62
     9
 10
0.0
 20
0.0
 30
0.0
 70
   128
 71
    70
 72
    68
 73
    73
  0
VERTEX
  5
55E
  8
0
 62
     9
 10
0.0
 20
0.0
 30
0.0
 70
   128
 71
    68
 72
    66
 73
    59
  0
VERTEX
  5
55F
  8
0
 62
     9
 10
0.0
 20
0.0
 30
0.0
 70
   128
 71
    71
 72
    76
 73
    66
  0
VERTEX
  5
560
  8
0
 62
     9
 10
0.0
 20
0.0
 30
0.0
 70
   128
 71
    71
 72
    66
 73
    68
  0
VERTEX
  5
561
  8
0
 62
     9
 10
0.0
 20
0.0
 30
0.0
 70
   128
 71
    69
 72
    72
 73
    56
  0
VERTEX
  5
562
  8
0
 62
     9
 10
0.0
 20
0.0
 30
0.0
 70
   128
 71
    71
 72
    69
 73
    48
  0
VERTEX
  5
563
  8
0
 62
     9
 10
0.0
 20
0.0
 30
0.0
 70
   128
 71
    78
 72
    23
 73
    77
  0
VERTEX
  5
564
  8
0
 62
     9
 10
0.0
 20
0.0
 30
0.0
 70
   128
 71
    79
 72
    78
 73
    77
  0
VERTEX
  5
565
  8
0
 62
     9
 10
0.0
 20
0.0
 30
0.0
 70
   128
 71
    79
 72
    81
 73
    80
  0
VERTEX
  5
566
  8
0
 62
     9
 10
0.0
 20
0.0
 30
0.0
 70
   128
 71
    80
 72
    78
 73
    79
  0
VERTEX
  5
567
  8
0
 62
     9
 10
0.0
 20
0.0
 30
0.0
 70
   128
 71
    80
 72
    81
 73
    82
  0
VERTEX
  5
568
  8
0
 62
     9
 10
0.0
 20
0.0
 30
0.0
 70
   128
 71
    81
 72
    83
 73
    82
  0
VERTEX
  5
569
  8
0
 62
     9
 10
0.0
 20
0.0
 30
0.0
 70
   128
 71
    77
 72
    23
 73
    84
  0
VERTEX
  5
56A
  8
0
 62
     9
 10
0.0
 20
0.0
 30
0.0
 70
   128
 71
    84
 72
    23
 73
    21
  0
VERTEX
  5
56B
  8
0
 62
     9
 10
0.0
 20
0.0
 30
0.0
 70
   128
 71
    42
 72
    85
 73
    21
  0
VERTEX
  5
56C
  8
0
 62
     9
 10
0.0
 20
0.0
 30
0.0
 70
   128
 71
    84
 72
    21
 73
    85
  0
VERTEX
  5
56D
  8
0
 62
     9
 10
0.0
 20
0.0
 30
0.0
 70
   128
 71
    42
 72
    86
 73
    85
  0
VERTEX
  5
56E
  8
0
 62
     9
 10
0.0
 20
0.0
 30
0.0
 70
   128
 71
    40
 72
    86
 73
    42
  0
VERTEX
  5
56F
  8
0
 62
     9
 10
0.0
 20
0.0
 30
0.0
 70
   128
 71
    89
 72
    88
 73
    87
  0
VERTEX
  5
570
  8
0
 62
     9
 10
0.0
 20
0.0
 30
0.0
 70
   128
 71
    92
 72
    91
 73
    90
  0
VERTEX
  5
571
  8
0
 62
     9
 10
0.0
 20
0.0
 30
0.0
 70
   128
 71
    94
 72
    87
 73
    93
  0
VERTEX
  5
572
  8
0
 62
     9
 10
0.0
 20
0.0
 30
0.0
 70
   128
 71
    95
 72
    94
 73
    93
  0
VERTEX
  5
573
  8
0
 62
     9
 10
0.0
 20
0.0
 30
0.0
 70
   128
 71
    98
 72
    97
 73
    96
  0
VERTEX
  5
574
  8
0
 62
     9
 10
0.0
 20
0.0
 30
0.0
 70
   128
 71
    97
 72
    99
 73
    96
  0
VERTEX
  5
575
  8
0
 62
     9
 10
0.0
 20
0.0
 30
0.0
 70
   128
 71
   100
 72
    94
 73
    96
  0
VERTEX
  5
576
  8
0
 62
     9
 10
0.0
 20
0.0
 30
0.0
 70
   128
 71
    97
 72
   101
 73
    99
  0
VERTEX
  5
577
  8
0
 62
     9
 10
0.0
 20
0.0
 30
0.0
 70
   128
 71
    87
 72
   100
 73
    89
  0
VERTEX
  5
578
  8
0
 62
     9
 10
0.0
 20
0.0
 30
0.0
 70
   128
 71
   103
 72
   102
 73
    88
  0
VERTEX
  5
579
  8
0
 62
     9
 10
0.0
 20
0.0
 30
0.0
 70
   128
 71
    89
 72
   103
 73
    88
  0
VERTEX
  5
57A
  8
0
 62
     9
 10
0.0
 20
0.0
 30
0.0
 70
   128
 71
    91
 72
   102
 73
    90
  0
VERTEX
  5
57B
  8
0
 62
     9
 10
0.0
 20
0.0
 30
0.0
 70
   128
 71
   102
 72
   103
 73
    90
  0
VERTEX
  5
57C
  8
0
 62
     9
 10
0.0
 20
0.0
 30
0.0
 70
   128
 71
   106
 72
   105
 73
   104
  0
VERTEX
  5
57D
  8
0
 62
     9
 10
0.0
 20
0.0
 30
0.0
 70
   128
 71
    91
 72
   106
 73
   107
  0
VERTEX
  5
57E
  8
0
 62
     9
 10
0.0
 20
0.0
 30
0.0
 70
   128
 71
   109
 72
    90
 73
   108
  0
VERTEX
  5
57F
  8
0
 62
     9
 10
0.0
 20
0.0
 30
0.0
 70
   128
 71
    92
 72
    90
 73
   109
  0
VERTEX
  5
580
  8
0
 62
     9
 10
0.0
 20
0.0
 30
0.0
 70
   128
 71
   110
 72
   108
 73
   103
  0
VERTEX
  5
581
  8
0
 62
     9
 10
0.0
 20
0.0
 30
0.0
 70
   128
 71
    91
 72
   105
 73
   106
  0
VERTEX
  5
582
  8
0
 62
     9
 10
0.0
 20
0.0
 30
0.0
 70
   128
 71
   105
 72
    91
 73
    92
  0
VERTEX
  5
583
  8
0
 62
     9
 10
0.0
 20
0.0
 30
0.0
 70
   128
 71
    90
 72
   103
 73
   108
  0
VERTEX
  5
584
  8
0
 62
     9
 10
0.0
 20
0.0
 30
0.0
 70
   128
 71
   111
 72
   110
 73
    89
  0
VERTEX
  5
585
  8
0
 62
     9
 10
0.0
 20
0.0
 30
0.0
 70
   128
 71
   102
 72
   107
 73
   112
  0
VERTEX
  5
586
  8
0
 62
     9
 10
0.0
 20
0.0
 30
0.0
 70
   128
 71
   107
 72
   102
 73
    91
  0
VERTEX
  5
587
  8
0
 62
     9
 10
0.0
 20
0.0
 30
0.0
 70
   128
 71
   103
 72
    89
 73
   110
  0
VERTEX
  5
588
  8
0
 62
     9
 10
0.0
 20
0.0
 30
0.0
 70
   128
 71
   113
 72
   111
 73
   100
  0
VERTEX
  5
589
  8
0
 62
     9
 10
0.0
 20
0.0
 30
0.0
 70
   128
 71
    88
 72
   112
 73
   114
  0
VERTEX
  5
58A
  8
0
 62
     9
 10
0.0
 20
0.0
 30
0.0
 70
   128
 71
   112
 72
    88
 73
   102
  0
VERTEX
  5
58B
  8
0
 62
     9
 10
0.0
 20
0.0
 30
0.0
 70
   128
 71
    89
 72
   100
 73
   111
  0
VERTEX
  5
58C
  8
0
 62
     9
 10
0.0
 20
0.0
 30
0.0
 70
   128
 71
    96
 72
    99
 73
   113
  0
VERTEX
  5
58D
  8
0
 62
     9
 10
0.0
 20
0.0
 30
0.0
 70
   128
 71
    87
 72
   114
 73
    93
  0
VERTEX
  5
58E
  8
0
 62
     9
 10
0.0
 20
0.0
 30
0.0
 70
   128
 71
   114
 72
    87
 73
    88
  0
VERTEX
  5
58F
  8
0
 62
     9
 10
0.0
 20
0.0
 30
0.0
 70
   128
 71
   100
 72
    96
 73
   113
  0
VERTEX
  5
590
  8
0
 62
     9
 10
0.0
 20
0.0
 30
0.0
 70
   128
 71
    87
 72
    94
 73
   100
  0
VERTEX
  5
591
  8
0
 62
     9
 10
0.0
 20
0.0
 30
0.0
 70
   128
 71
    98
 72
    94
 73
    95
  0
VERTEX
  5
592
  8
0
 62
     9
 10
0.0
 20
0.0
 30
0.0
 70
   128
 71
    94
 72
    98
 73
    96
  0
VERTEX
  5
593
  8
0
 62
     9
 10
0.0
 20
0.0
 30
0.0
 70
   128
 71
   101
 72
   115
 73
    99
  0
VERTEX
  5
594
  8
0
 62
     9
 10
0.0
 20
0.0
 30
0.0
 70
   128
 71
   118
 72
   117
 73
   116
  0
VERTEX
  5
595
  8
0
 62
     9
 10
0.0
 20
0.0
 30
0.0
 70
   128
 71
    99
 72
   115
 73
   119
  0
VERTEX
  5
596
  8
0
 62
     9
 10
0.0
 20
0.0
 30
0.0
 70
   128
 71
   119
 72
   121
 73
   120
  0
VERTEX
  5
597
  8
0
 62
     9
 10
0.0
 20
0.0
 30
0.0
 70
   128
 71
    77
 72
    84
 73
   122
  0
VERTEX
  5
598
  8
0
 62
     9
 10
0.0
 20
0.0
 30
0.0
 70
   128
 71
   122
 72
   124
 73
   123
  0
VERTEX
  5
599
  8
0
 62
     9
 10
0.0
 20
0.0
 30
0.0
 70
   128
 71
    84
 72
   124
 73
   122
  0
VERTEX
  5
59A
  8
0
 62
     9
 10
0.0
 20
0.0
 30
0.0
 70
   128
 71
   115
 72
   124
 73
   125
  0
VERTEX
  5
59B
  8
0
 62
     9
 10
0.0
 20
0.0
 30
0.0
 70
   128
 71
   119
 72
   125
 73
   121
  0
VERTEX
  5
59C
  8
0
 62
     9
 10
0.0
 20
0.0
 30
0.0
 70
   128
 71
   127
 72
   126
 73
   120
  0
VERTEX
  5
59D
  8
0
 62
     9
 10
0.0
 20
0.0
 30
0.0
 70
   128
 71
   121
 72
   127
 73
   120
  0
VERTEX
  5
59E
  8
0
 62
     9
 10
0.0
 20
0.0
 30
0.0
 70
   128
 71
   117
 72
   126
 73
   116
  0
VERTEX
  5
59F
  8
0
 62
     9
 10
0.0
 20
0.0
 30
0.0
 70
   128
 71
   126
 72
   127
 73
   116
  0
VERTEX
  5
5A0
  8
0
 62
     9
 10
0.0
 20
0.0
 30
0.0
 70
   128
 71
   108
 72
   128
 73
   109
  0
VERTEX
  5
5A1
  8
0
 62
     9
 10
0.0
 20
0.0
 30
0.0
 70
   128
 71
   117
 72
   108
 73
   110
  0
VERTEX
  5
5A2
  8
0
 62
     9
 10
0.0
 20
0.0
 30
0.0
 70
   128
 71
   130
 72
   116
 73
   129
  0
VERTEX
  5
5A3
  8
0
 62
     9
 10
0.0
 20
0.0
 30
0.0
 70
   128
 71
   118
 72
   116
 73
   130
  0
VERTEX
  5
5A4
  8
0
 62
     9
 10
0.0
 20
0.0
 30
0.0
 70
   128
 71
   131
 72
   129
 73
   127
  0
VERTEX
  5
5A5
  8
0
 62
     9
 10
0.0
 20
0.0
 30
0.0
 70
   128
 71
   117
 72
   128
 73
   108
  0
VERTEX
  5
5A6
  8
0
 62
     9
 10
0.0
 20
0.0
 30
0.0
 70
   128
 71
   128
 72
   117
 73
   118
  0
VERTEX
  5
5A7
  8
0
 62
     9
 10
0.0
 20
0.0
 30
0.0
 70
   128
 71
   116
 72
   127
 73
   129
  0
VERTEX
  5
5A8
  8
0
 62
     9
 10
0.0
 20
0.0
 30
0.0
 70
   128
 71
    86
 72
   131
 73
   121
  0
VERTEX
  5
5A9
  8
0
 62
     9
 10
0.0
 20
0.0
 30
0.0
 70
   128
 71
   126
 72
   110
 73
   111
  0
VERTEX
  5
5AA
  8
0
 62
     9
 10
0.0
 20
0.0
 30
0.0
 70
   128
 71
   110
 72
   126
 73
   117
  0
VERTEX
  5
5AB
  8
0
 62
     9
 10
0.0
 20
0.0
 30
0.0
 70
   128
 71
   127
 72
   121
 73
   131
  0
VERTEX
  5
5AC
  8
0
 62
     9
 10
0.0
 20
0.0
 30
0.0
 70
   128
 71
    85
 72
    86
 73
   125
  0
VERTEX
  5
5AD
  8
0
 62
     9
 10
0.0
 20
0.0
 30
0.0
 70
   128
 71
   120
 72
   111
 73
   113
  0
VERTEX
  5
5AE
  8
0
 62
     9
 10
0.0
 20
0.0
 30
0.0
 70
   128
 71
   111
 72
   120
 73
   126
  0
VERTEX
  5
5AF
  8
0
 62
     9
 10
0.0
 20
0.0
 30
0.0
 70
   128
 71
   121
 72
   125
 73
    86
  0
VERTEX
  5
5B0
  8
0
 62
     9
 10
0.0
 20
0.0
 30
0.0
 70
   128
 71
   124
 72
    84
 73
    85
  0
VERTEX
  5
5B1
  8
0
 62
     9
 10
0.0
 20
0.0
 30
0.0
 70
   128
 71
   119
 72
   113
 73
    99
  0
VERTEX
  5
5B2
  8
0
 62
     9
 10
0.0
 20
0.0
 30
0.0
 70
   128
 71
   113
 72
   119
 73
   120
  0
VERTEX
  5
5B3
  8
0
 62
     9
 10
0.0
 20
0.0
 30
0.0
 70
   128
 71
   125
 72
   124
 73
    85
  0
VERTEX
  5
5B4
  8
0
 62
     9
 10
0.0
 20
0.0
 30
0.0
 70
   128
 71
   119
 72
   115
 73
   125
  0
VERTEX
  5
5B5
  8
0
 62
     9
 10
0.0
 20
0.0
 30
0.0
 70
   128
 71
   123
 72
   115
 73
   101
  0
VERTEX
  5
5B6
  8
0
 62
     9
 10
0.0
 20
0.0
 30
0.0
 70
   128
 71
   115
 72
   123
 73
   124
  0
VERTEX
  5
5B7
  8
0
 62
     9
 10
0.0
 20
0.0
 30
0.0
 70
   128
 71
   134
 72
   133
 73
   132
  0
VERTEX
  5
5B8
  8
0
 62
     9
 10
0.0
 20
0.0
 30
0.0
 70
   128
 71
    79
 72
   122
 73
   135
  0
VERTEX
  5
5B9
  8
0
 62
     9
 10
0.0
 20
0.0
 30
0.0
 70
   128
 71
   136
 72
    83
 73
    81
  0
VERTEX
  5
5BA
  8
0
 62
     9
 10
0.0
 20
0.0
 30
0.0
 70
   128
 71
   139
 72
   138
 73
   137
  0
VERTEX
  5
5BB
  8
0
 62
     9
 10
0.0
 20
0.0
 30
0.0
 70
   128
 71
    79
 72
    77
 73
   122
  0
VERTEX
  5
5BC
  8
0
 62
     9
 10
0.0
 20
0.0
 30
0.0
 70
   128
 71
   142
 72
   141
 73
   140
  0
VERTEX
  5
5BD
  8
0
 62
     9
 10
0.0
 20
0.0
 30
0.0
 70
   128
 71
   140
 72
   141
 73
   143
  0
VERTEX
  5
5BE
  8
0
 62
     9
 10
0.0
 20
0.0
 30
0.0
 70
   128
 71
   130
 72
   143
 73
   118
  0
VERTEX
  5
5BF
  8
0
 62
     9
 10
0.0
 20
0.0
 30
0.0
 70
   128
 71
   109
 72
   128
 73
   144
  0
VERTEX
  5
5C0
  8
0
 62
     9
 10
0.0
 20
0.0
 30
0.0
 70
   128
 71
   142
 72
   144
 73
   141
  0
VERTEX
  5
5C1
  8
0
 62
     9
 10
0.0
 20
0.0
 30
0.0
 70
   128
 71
   140
 72
   134
 73
   145
  0
VERTEX
  5
5C2
  8
0
 62
     9
 10
0.0
 20
0.0
 30
0.0
 70
   128
 71
   134
 72
   138
 73
   139
  0
VERTEX
  5
5C3
  8
0
 62
     9
 10
0.0
 20
0.0
 30
0.0
 70
   128
 71
   133
 72
   147
 73
   146
  0
VERTEX
  5
5C4
  8
0
 62
     9
 10
0.0
 20
0.0
 30
0.0
 70
   128
 71
   136
 72
   135
 73
   147
  0
VERTEX
  5
5C5
  8
0
 62
     9
 10
0.0
 20
0.0
 30
0.0
 70
   128
 71
   101
 72
   147
 73
   123
  0
VERTEX
  5
5C6
  8
0
 62
     9
 10
0.0
 20
0.0
 30
0.0
 70
   128
 71
    81
 72
   135
 73
   136
  0
VERTEX
  5
5C7
  8
0
 62
     9
 10
0.0
 20
0.0
 30
0.0
 70
   128
 71
   123
 72
   135
 73
   122
  0
VERTEX
  5
5C8
  8
0
 62
     9
 10
0.0
 20
0.0
 30
0.0
 70
   128
 71
   135
 72
    81
 73
    79
  0
VERTEX
  5
5C9
  8
0
 62
     9
 10
0.0
 20
0.0
 30
0.0
 70
   128
 71
   146
 72
   147
 73
   101
  0
VERTEX
  5
5CA
  8
0
 62
     9
 10
0.0
 20
0.0
 30
0.0
 70
   128
 71
   147
 72
   135
 73
   123
  0
VERTEX
  5
5CB
  8
0
 62
     9
 10
0.0
 20
0.0
 30
0.0
 70
   128
 71
   139
 72
   137
 73
    83
  0
VERTEX
  5
5CC
  8
0
 62
     9
 10
0.0
 20
0.0
 30
0.0
 70
   128
 71
   133
 72
   139
 73
   136
  0
VERTEX
  5
5CD
  8
0
 62
     9
 10
0.0
 20
0.0
 30
0.0
 70
   128
 71
   132
 72
   133
 73
   146
  0
VERTEX
  5
5CE
  8
0
 62
     9
 10
0.0
 20
0.0
 30
0.0
 70
   128
 71
   133
 72
   136
 73
   147
  0
VERTEX
  5
5CF
  8
0
 62
     9
 10
0.0
 20
0.0
 30
0.0
 70
   128
 71
   136
 72
   139
 73
    83
  0
VERTEX
  5
5D0
  8
0
 62
     9
 10
0.0
 20
0.0
 30
0.0
 70
   128
 71
   148
 72
   137
 73
   138
  0
VERTEX
  5
5D1
  8
0
 62
     9
 10
0.0
 20
0.0
 30
0.0
 70
   128
 71
   145
 72
   134
 73
   132
  0
VERTEX
  5
5D2
  8
0
 62
     9
 10
0.0
 20
0.0
 30
0.0
 70
   128
 71
   134
 72
   139
 73
   133
  0
VERTEX
  5
5D3
  8
0
 62
     9
 10
0.0
 20
0.0
 30
0.0
 70
   128
 71
   130
 72
   148
 73
   143
  0
VERTEX
  5
5D4
  8
0
 62
     9
 10
0.0
 20
0.0
 30
0.0
 70
   128
 71
   128
 72
   118
 73
   141
  0
VERTEX
  5
5D5
  8
0
 62
     9
 10
0.0
 20
0.0
 30
0.0
 70
   128
 71
   142
 72
   140
 73
   145
  0
VERTEX
  5
5D6
  8
0
 62
     9
 10
0.0
 20
0.0
 30
0.0
 70
   128
 71
   140
 72
   138
 73
   134
  0
VERTEX
  5
5D7
  8
0
 62
     9
 10
0.0
 20
0.0
 30
0.0
 70
   128
 71
   143
 72
   148
 73
   138
  0
VERTEX
  5
5D8
  8
0
 62
     9
 10
0.0
 20
0.0
 30
0.0
 70
   128
 71
   143
 72
   138
 73
   140
  0
VERTEX
  5
5D9
  8
0
 62
     9
 10
0.0
 20
0.0
 30
0.0
 70
   128
 71
   141
 72
   144
 73
   128
  0
VERTEX
  5
5DA
  8
0
 62
     9
 10
0.0
 20
0.0
 30
0.0
 70
   128
 71
   143
 72
   141
 73
   118
  0
VERTEX
  5
5DB
  8
0
 62
     9
 10
0.0
 20
0.0
 30
0.0
 70
   128
 71
   114
 72
   112
 73
   149
  0
VERTEX
  5
5DC
  8
0
 62
     9
 10
0.0
 20
0.0
 30
0.0
 70
   128
 71
   114
 72
   150
 73
    93
  0
VERTEX
  5
5DD
  8
0
 62
     9
 10
0.0
 20
0.0
 30
0.0
 70
   128
 71
   150
 72
   114
 73
   149
  0
VERTEX
  5
5DE
  8
0
 62
     9
 10
0.0
 20
0.0
 30
0.0
 70
   128
 71
   151
 72
    95
 73
    93
  0
VERTEX
  5
5DF
  8
0
 62
     9
 10
0.0
 20
0.0
 30
0.0
 70
   128
 71
    93
 72
   150
 73
   151
  0
VERTEX
  5
5E0
  8
0
 62
     9
 10
0.0
 20
0.0
 30
0.0
 70
   128
 71
   151
 72
   152
 73
    95
  0
VERTEX
  5
5E1
  8
0
 62
     9
 10
0.0
 20
0.0
 30
0.0
 70
   128
 71
   149
 72
   112
 73
   153
  0
VERTEX
  5
5E2
  8
0
 62
     9
 10
0.0
 20
0.0
 30
0.0
 70
   128
 71
   107
 72
   154
 73
   153
  0
VERTEX
  5
5E3
  8
0
 62
     9
 10
0.0
 20
0.0
 30
0.0
 70
   128
 71
   153
 72
   112
 73
   107
  0
VERTEX
  5
5E4
  8
0
 62
     9
 10
0.0
 20
0.0
 30
0.0
 70
   128
 71
   155
 72
   154
 73
   106
  0
VERTEX
  5
5E5
  8
0
 62
     9
 10
0.0
 20
0.0
 30
0.0
 70
   128
 71
   107
 72
   106
 73
   154
  0
VERTEX
  5
5E6
  8
0
 62
     9
 10
0.0
 20
0.0
 30
0.0
 70
   128
 71
   104
 72
   155
 73
   106
  0
VERTEX
  5
5E7
  8
0
 62
     9
 10
0.0
 20
0.0
 30
0.0
 70
   128
 71
   155
 72
   156
 73
   150
  0
VERTEX
  5
5E8
  8
0
 62
     9
 10
0.0
 20
0.0
 30
0.0
 70
   128
 71
   157
 72
   152
 73
   151
  0
VERTEX
  5
5E9
  8
0
 62
     9
 10
0.0
 20
0.0
 30
0.0
 70
   128
 71
   154
 72
   149
 73
   153
  0
VERTEX
  5
5EA
  8
0
 62
     9
 10
0.0
 20
0.0
 30
0.0
 70
   128
 71
   150
 72
   149
 73
   155
  0
VERTEX
  5
5EB
  8
0
 62
     9
 10
0.0
 20
0.0
 30
0.0
 70
   128
 71
   154
 72
   155
 73
   149
  0
VERTEX
  5
5EC
  8
0
 62
     9
 10
0.0
 20
0.0
 30
0.0
 70
   128
 71
   157
 72
   151
 73
   150
  0
VERTEX
  5
5ED
  8
0
 62
     9
 10
0.0
 20
0.0
 30
0.0
 70
   128
 71
   156
 72
   157
 73
   150
  0
VERTEX
  5
5EE
  8
0
 62
     9
 10
0.0
 20
0.0
 30
0.0
 70
   128
 71
   158
 72
   152
 73
   157
  0
VERTEX
  5
5EF
  8
0
 62
     9
 10
0.0
 20
0.0
 30
0.0
 70
   128
 71
   160
 72
   159
 73
   158
  0
VERTEX
  5
5F0
  8
0
 62
     9
 10
0.0
 20
0.0
 30
0.0
 70
   128
 71
   159
 72
   152
 73
   158
  0
VERTEX
  5
5F1
  8
0
 62
     9
 10
0.0
 20
0.0
 30
0.0
 70
   128
 71
    95
 72
   152
 73
   161
  0
VERTEX
  5
5F2
  8
0
 62
     9
 10
0.0
 20
0.0
 30
0.0
 70
   128
 71
   163
 72
   158
 73
   162
  0
VERTEX
  5
5F3
  8
0
 62
     9
 10
0.0
 20
0.0
 30
0.0
 70
   128
 71
   159
 72
   160
 73
   164
  0
VERTEX
  5
5F4
  8
0
 62
     9
 10
0.0
 20
0.0
 30
0.0
 70
   128
 71
   165
 72
   156
 73
   104
  0
VERTEX
  5
5F5
  8
0
 62
     9
 10
0.0
 20
0.0
 30
0.0
 70
   128
 71
   156
 72
   165
 73
   157
  0
VERTEX
  5
5F6
  8
0
 62
     9
 10
0.0
 20
0.0
 30
0.0
 70
   128
 71
   104
 72
   156
 73
   155
  0
VERTEX
  5
5F7
  8
0
 62
     9
 10
0.0
 20
0.0
 30
0.0
 70
   128
 71
   162
 72
   158
 73
   157
  0
VERTEX
  5
5F8
  8
0
 62
     9
 10
0.0
 20
0.0
 30
0.0
 70
   128
 71
   165
 72
   162
 73
   157
  0
VERTEX
  5
5F9
  8
0
 62
     9
 10
0.0
 20
0.0
 30
0.0
 70
   128
 71
   164
 72
   160
 73
   163
  0
VERTEX
  5
5FA
  8
0
 62
     9
 10
0.0
 20
0.0
 30
0.0
 70
   128
 71
   163
 72
   160
 73
   158
  0
VERTEX
  5
5FB
  8
0
 62
     9
 10
0.0
 20
0.0
 30
0.0
 70
   128
 71
   152
 72
   159
 73
   161
  0
VERTEX
  5
5FC
  8
0
 62
     9
 10
0.0
 20
0.0
 30
0.0
 70
   128
 71
   161
 72
   159
 73
   164
  0
VERTEX
  5
5FD
  8
0
 62
     9
 10
0.0
 20
0.0
 30
0.0
 70
   128
 71
   167
 72
   166
 73
   164
  0
VERTEX
  5
5FE
  8
0
 62
     9
 10
0.0
 20
0.0
 30
0.0
 70
   128
 71
   146
 72
    97
 73
   168
  0
VERTEX
  5
5FF
  8
0
 62
     9
 10
0.0
 20
0.0
 30
0.0
 70
   128
 71
   169
 72
   145
 73
   132
  0
VERTEX
  5
600
  8
0
 62
     9
 10
0.0
 20
0.0
 30
0.0
 70
   128
 71
   171
 72
   170
 73
   142
  0
VERTEX
  5
601
  8
0
 62
     9
 10
0.0
 20
0.0
 30
0.0
 70
   128
 71
   146
 72
   101
 73
    97
  0
VERTEX
  5
602
  8
0
 62
     9
 10
0.0
 20
0.0
 30
0.0
 70
   128
 71
   162
 72
   173
 73
   172
  0
VERTEX
  5
603
  8
0
 62
     9
 10
0.0
 20
0.0
 30
0.0
 70
   128
 71
   172
 72
   173
 73
   174
  0
VERTEX
  5
604
  8
0
 62
     9
 10
0.0
 20
0.0
 30
0.0
 70
   128
 71
   109
 72
   174
 73
    92
  0
VERTEX
  5
605
  8
0
 62
     9
 10
0.0
 20
0.0
 30
0.0
 70
   128
 71
   104
 72
   105
 73
   165
  0
VERTEX
  5
606
  8
0
 62
     9
 10
0.0
 20
0.0
 30
0.0
 70
   128
 71
   162
 72
   165
 73
   173
  0
VERTEX
  5
607
  8
0
 62
     9
 10
0.0
 20
0.0
 30
0.0
 70
   128
 71
   172
 72
   167
 73
   163
  0
VERTEX
  5
608
  8
0
 62
     9
 10
0.0
 20
0.0
 30
0.0
 70
   128
 71
   167
 72
   170
 73
   171
  0
VERTEX
  5
609
  8
0
 62
     9
 10
0.0
 20
0.0
 30
0.0
 70
   128
 71
   166
 72
   175
 73
   161
  0
VERTEX
  5
60A
  8
0
 62
     9
 10
0.0
 20
0.0
 30
0.0
 70
   128
 71
   169
 72
   168
 73
   175
  0
VERTEX
  5
60B
  8
0
 62
     9
 10
0.0
 20
0.0
 30
0.0
 70
   128
 71
    95
 72
   175
 73
    98
  0
VERTEX
  5
60C
  8
0
 62
     9
 10
0.0
 20
0.0
 30
0.0
 70
   128
 71
   132
 72
   168
 73
   169
  0
VERTEX
  5
60D
  8
0
 62
     9
 10
0.0
 20
0.0
 30
0.0
 70
   128
 71
    98
 72
   168
 73
    97
  0
VERTEX
  5
60E
  8
0
 62
     9
 10
0.0
 20
0.0
 30
0.0
 70
   128
 71
   168
 72
   132
 73
   146
  0
VERTEX
  5
60F
  8
0
 62
     9
 10
0.0
 20
0.0
 30
0.0
 70
   128
 71
   161
 72
   175
 73
    95
  0
VERTEX
  5
610
  8
0
 62
     9
 10
0.0
 20
0.0
 30
0.0
 70
   128
 71
   175
 72
   168
 73
    98
  0
VERTEX
  5
611
  8
0
 62
     9
 10
0.0
 20
0.0
 30
0.0
 70
   128
 71
   171
 72
   142
 73
   145
  0
VERTEX
  5
612
  8
0
 62
     9
 10
0.0
 20
0.0
 30
0.0
 70
   128
 71
   166
 72
   171
 73
   169
  0
VERTEX
  5
613
  8
0
 62
     9
 10
0.0
 20
0.0
 30
0.0
 70
   128
 71
   164
 72
   166
 73
   161
  0
VERTEX
  5
614
  8
0
 62
     9
 10
0.0
 20
0.0
 30
0.0
 70
   128
 71
   166
 72
   169
 73
   175
  0
VERTEX
  5
615
  8
0
 62
     9
 10
0.0
 20
0.0
 30
0.0
 70
   128
 71
   169
 72
   171
 73
   145
  0
VERTEX
  5
616
  8
0
 62
     9
 10
0.0
 20
0.0
 30
0.0
 70
   128
 71
   144
 72
   142
 73
   170
  0
VERTEX
  5
617
  8
0
 62
     9
 10
0.0
 20
0.0
 30
0.0
 70
   128
 71
   163
 72
   167
 73
   164
  0
VERTEX
  5
618
  8
0
 62
     9
 10
0.0
 20
0.0
 30
0.0
 70
   128
 71
   167
 72
   171
 73
   166
  0
VERTEX
  5
619
  8
0
 62
     9
 10
0.0
 20
0.0
 30
0.0
 70
   128
 71
   109
 72
   144
 73
   174
  0
VERTEX
  5
61A
  8
0
 62
     9
 10
0.0
 20
0.0
 30
0.0
 70
   128
 71
   105
 72
    92
 73
   173
  0
VERTEX
  5
61B
  8
0
 62
     9
 10
0.0
 20
0.0
 30
0.0
 70
   128
 71
   162
 72
   172
 73
   163
  0
VERTEX
  5
61C
  8
0
 62
     9
 10
0.0
 20
0.0
 30
0.0
 70
   128
 71
   172
 72
   170
 73
   167
  0
VERTEX
  5
61D
  8
0
 62
     9
 10
0.0
 20
0.0
 30
0.0
 70
   128
 71
   174
 72
   144
 73
   170
  0
VERTEX
  5
61E
  8
0
 62
     9
 10
0.0
 20
0.0
 30
0.0
 70
   128
 71
   174
 72
   170
 73
   172
  0
VERTEX
  5
61F
  8
0
 62
     9
 10
0.0
 20
0.0
 30
0.0
 70
   128
 71
   173
 72
   165
 73
   105
  0
VERTEX
  5
620
  8
0
 62
     9
 10
0.0
 20
0.0
 30
0.0
 70
   128
 71
   174
 72
   173
 73
    92
  0
VERTEX
  5
621
  8
0
 62
     9
 10
0.0
 20
0.0
 30
0.0
 70
   128
 71
    82
 72
    83
 73
   176
  0
VERTEX
  5
622
  8
0
 62
     9
 10
0.0
 20
0.0
 30
0.0
 70
   128
 71
    32
 72
   130
 73
    34
  0
VERTEX
  5
623
  8
0
 62
     9
 10
0.0
 20
0.0
 30
0.0
 70
   128
 71
   137
 72
   148
 73
   177
  0
VERTEX
  5
624
  8
0
 62
     9
 10
0.0
 20
0.0
 30
0.0
 70
   128
 71
    35
 72
   131
 73
    40
  0
VERTEX
  5
625
  8
0
 62
     9
 10
0.0
 20
0.0
 30
0.0
 70
   128
 71
   131
 72
    35
 73
   129
  0
VERTEX
  5
626
  8
0
 62
     9
 10
0.0
 20
0.0
 30
0.0
 70
   128
 71
    40
 72
   131
 73
    86
  0
VERTEX
  5
627
  8
0
 62
     9
 10
0.0
 20
0.0
 30
0.0
 70
   128
 71
    34
 72
   130
 73
   129
  0
VERTEX
  5
628
  8
0
 62
     9
 10
0.0
 20
0.0
 30
0.0
 70
   128
 71
    35
 72
    34
 73
   129
  0
VERTEX
  5
629
  8
0
 62
     9
 10
0.0
 20
0.0
 30
0.0
 70
   128
 71
    32
 72
   148
 73
   130
  0
VERTEX
  5
62A
  8
0
 62
     9
 10
0.0
 20
0.0
 30
0.0
 70
   128
 71
   176
 72
   137
 73
   177
  0
VERTEX
  5
62B
  8
0
 62
     9
 10
0.0
 20
0.0
 30
0.0
 70
   128
 71
   177
 72
   148
 73
    32
  0
VERTEX
  5
62C
  8
0
 62
     9
 10
0.0
 20
0.0
 30
0.0
 70
   128
 71
   137
 72
   176
 73
    83
  0
VERTEX
  5
62D
  8
0
 62
     9
 10
0.0
 20
0.0
 30
0.0
 70
   128
 71
   179
 72
   178
 73
    80
  0
VERTEX
  5
62E
  8
0
 62
     9
 10
0.0
 20
0.0
 30
0.0
 70
   128
 71
    74
 72
    25
 73
   180
  0
VERTEX
  5
62F
  8
0
 62
     9
 10
0.0
 20
0.0
 30
0.0
 70
   128
 71
   181
 72
    73
 73
    57
  0
VERTEX
  5
630
  8
0
 62
     9
 10
0.0
 20
0.0
 30
0.0
 70
   128
 71
   183
 72
   182
 73
    70
  0
VERTEX
  5
631
  8
0
 62
     9
 10
0.0
 20
0.0
 30
0.0
 70
   128
 71
    74
 72
    29
 73
    25
  0
VERTEX
  5
632
  8
0
 62
     9
 10
0.0
 20
0.0
 30
0.0
 70
   128
 71
   176
 72
   185
 73
   184
  0
VERTEX
  5
633
  8
0
 62
     9
 10
0.0
 20
0.0
 30
0.0
 70
   128
 71
   184
 72
   185
 73
   186
  0
VERTEX
  5
634
  8
0
 62
     9
 10
0.0
 20
0.0
 30
0.0
 70
   128
 71
    37
 72
   186
 73
    20
  0
VERTEX
  5
635
  8
0
 62
     9
 10
0.0
 20
0.0
 30
0.0
 70
   128
 71
    32
 72
    33
 73
   177
  0
VERTEX
  5
636
  8
0
 62
     9
 10
0.0
 20
0.0
 30
0.0
 70
   128
 71
   176
 72
   177
 73
   185
  0
VERTEX
  5
637
  8
0
 62
     9
 10
0.0
 20
0.0
 30
0.0
 70
   128
 71
   184
 72
   179
 73
    82
  0
VERTEX
  5
638
  8
0
 62
     9
 10
0.0
 20
0.0
 30
0.0
 70
   128
 71
   179
 72
   182
 73
   183
  0
VERTEX
  5
639
  8
0
 62
     9
 10
0.0
 20
0.0
 30
0.0
 70
   128
 71
   187
 72
   181
 73
   180
  0
VERTEX
  5
63A
  8
0
 62
     9
 10
0.0
 20
0.0
 30
0.0
 70
   128
 71
   180
 72
   181
 73
    57
  0
VERTEX
  5
63B
  8
0
 62
     9
 10
0.0
 20
0.0
 30
0.0
 70
   128
 71
   187
 72
    78
 73
   178
  0
VERTEX
  5
63C
  8
0
 62
     9
 10
0.0
 20
0.0
 30
0.0
 70
   128
 71
    23
 72
   187
 73
    26
  0
VERTEX
  5
63D
  8
0
 62
     9
 10
0.0
 20
0.0
 30
0.0
 70
   128
 71
    26
 72
   180
 73
    25
  0
VERTEX
  5
63E
  8
0
 62
     9
 10
0.0
 20
0.0
 30
0.0
 70
   128
 71
   180
 72
    57
 73
    74
  0
VERTEX
  5
63F
  8
0
 62
     9
 10
0.0
 20
0.0
 30
0.0
 70
   128
 71
    78
 72
   187
 73
    23
  0
VERTEX
  5
640
  8
0
 62
     9
 10
0.0
 20
0.0
 30
0.0
 70
   128
 71
   187
 72
   180
 73
    26
  0
VERTEX
  5
641
  8
0
 62
     9
 10
0.0
 20
0.0
 30
0.0
 70
   128
 71
   183
 72
    70
 73
    73
  0
VERTEX
  5
642
  8
0
 62
     9
 10
0.0
 20
0.0
 30
0.0
 70
   128
 71
   178
 72
   183
 73
   181
  0
VERTEX
  5
643
  8
0
 62
     9
 10
0.0
 20
0.0
 30
0.0
 70
   128
 71
    80
 72
   178
 73
    78
  0
VERTEX
  5
644
  8
0
 62
     9
 10
0.0
 20
0.0
 30
0.0
 70
   128
 71
   178
 72
   181
 73
   187
  0
VERTEX
  5
645
  8
0
 62
     9
 10
0.0
 20
0.0
 30
0.0
 70
   128
 71
   181
 72
   183
 73
    73
  0
VERTEX
  5
646
  8
0
 62
     9
 10
0.0
 20
0.0
 30
0.0
 70
   128
 71
    72
 72
    70
 73
   182
  0
VERTEX
  5
647
  8
0
 62
     9
 10
0.0
 20
0.0
 30
0.0
 70
   128
 71
    82
 72
   179
 73
    80
  0
VERTEX
  5
648
  8
0
 62
     9
 10
0.0
 20
0.0
 30
0.0
 70
   128
 71
   179
 72
   183
 73
   178
  0
VERTEX
  5
649
  8
0
 62
     9
 10
0.0
 20
0.0
 30
0.0
 70
   128
 71
    37
 72
    72
 73
   186
  0
VERTEX
  5
64A
  8
0
 62
     9
 10
0.0
 20
0.0
 30
0.0
 70
   128
 71
    33
 72
    20
 73
   185
  0
VERTEX
  5
64B
  8
0
 62
     9
 10
0.0
 20
0.0
 30
0.0
 70
   128
 71
   176
 72
   184
 73
    82
  0
VERTEX
  5
64C
  8
0
 62
     9
 10
0.0
 20
0.0
 30
0.0
 70
   128
 71
   184
 72
   182
 73
   179
  0
VERTEX
  5
64D
  8
0
 62
     9
 10
0.0
 20
0.0
 30
0.0
 70
   128
 71
   186
 72
    72
 73
   182
  0
VERTEX
  5
64E
  8
0
 62
     9
 10
0.0
 20
0.0
 30
0.0
 70
   128
 71
   186
 72
   182
 73
   184
  0
VERTEX
  5
64F
  8
0
 62
     9
 10
0.0
 20
0.0
 30
0.0
 70
   128
 71
   185
 72
   177
 73
    33
  0
VERTEX
  5
650
  8
0
 62
     9
 10
0.0
 20
0.0
 30
0.0
 70
   128
 71
   186
 72
   185
 73
    20
  0
VERTEX
  5
651
  8
0
 62
     9
 10
0.0
 20
0.0
 30
0.0
 70
   128
 71
     6
 72
     8
 73
   188
  0
VERTEX
  5
652
  8
0
 62
     9
 10
0.0
 20
0.0
 30
0.0
 70
   128
 71
   190
 72
    63
 73
   189
  0
VERTEX
  5
653
  8
0
 62
     9
 10
0.0
 20
0.0
 30
0.0
 70
   128
 71
    61
 72
    62
 73
   191
  0
VERTEX
  5
654
  8
0
 62
     9
 10
0.0
 20
0.0
 30
0.0
 70
   128
 71
   192
 72
    76
 73
    14
  0
VERTEX
  5
655
  8
0
 62
     9
 10
0.0
 20
0.0
 30
0.0
 70
   128
 71
    76
 72
   192
 73
    65
  0
VERTEX
  5
656
  8
0
 62
     9
 10
0.0
 20
0.0
 30
0.0
 70
   128
 71
    14
 72
    76
 73
    13
  0
VERTEX
  5
657
  8
0
 62
     9
 10
0.0
 20
0.0
 30
0.0
 70
   128
 71
   189
 72
    63
 73
    65
  0
VERTEX
  5
658
  8
0
 62
     9
 10
0.0
 20
0.0
 30
0.0
 70
   128
 71
   192
 72
   189
 73
    65
  0
VERTEX
  5
659
  8
0
 62
     9
 10
0.0
 20
0.0
 30
0.0
 70
   128
 71
   191
 72
    62
 73
   190
  0
VERTEX
  5
65A
  8
0
 62
     9
 10
0.0
 20
0.0
 30
0.0
 70
   128
 71
   190
 72
    62
 73
    63
  0
VERTEX
  5
65B
  8
0
 62
     9
 10
0.0
 20
0.0
 30
0.0
 70
   128
 71
     8
 72
    61
 73
   188
  0
VERTEX
  5
65C
  8
0
 62
     9
 10
0.0
 20
0.0
 30
0.0
 70
   128
 71
   188
 72
    61
 73
   191
  0
SEQEND
  5
65D
  8
0
 62
     9
  0
ENDBLK
  5
660
  8
0
  0
BLOCK
  8
0
  2
EXTRUDE_
 70
     0
 10
0.0
 20
0.0
 30
0.0
  3
EXTRUDE_
  1

  0
POLYLINE
  5
662
  8
0
 66
     1
 10
0.0
 20
0.0
 30
0.0
 70
    64
 71
    62
 72
   120
  0
VERTEX
  5
663
  8
0
 10
18.46231269836426
 20
100.4634246826172
 30
100.5012588500977
 70
   192
  0
VERTEX
  5
664
  8
0
 10
12.23878288269043
 20
100.3566589355469
 30
105.7388076782227
 70
   192
  0
VERTEX
  5
665
  8
0
 10
12.46643161773682
 20
68.37151336669922
 30
104.697135925293
 70
   192
  0
VERTEX
  5
666
  8
0
 10
8.147890090942383
 20
81.84164428710938
 30
107.1238098144531
 70
   192
  0
VERTEX
  5
667
  8
0
 10
8.13663101196289
 20
79.33460998535156
 30
107.0591049194336
 70
   192
  0
VERTEX
  5
668
  8
0
 10
8.15923023223877
 20
84.33541107177734
 30
107.188117980957
 70
   192
  0
VERTEX
  5
669
  8
0
 10
8.170620918273926
 20
86.84042358398438
 30
107.2527160644531
 70
   192
  0
VERTEX
  5
66A
  8
0
 10
7.069339275360107
 20
92.15479278564453
 30
107.7594146728516
 70
   192
  0
VERTEX
  5
66B
  8
0
 10
8.180696487426758
 20
89.05680084228516
 30
107.3098754882812
 70
   192
  0
VERTEX
  5
66C
  8
0
 10
4.351000308990479
 20
100.3180770874023
 30
108.6255645751953
 70
   192
  0
VERTEX
  5
66D
  8
0
 10
4.319181442260742
 20
93.32052612304688
 30
108.4451065063477
 70
   192
  0
VERTEX
  5
66E
  8
0
 10
19.05397605895996
 20
68.49337768554688
 30
98.80996704101562
 70
   192
  0
VERTEX
  5
66F
  8
0
 10
22.69910049438477
 20
100.630241394043
 30
93.28532409667969
 70
   192
  0
VERTEX
  5
670
  8
0
 10
6.998775005340576
 20
76.5020980834961
 30
107.3555755615234
 70
   192
  0
VERTEX
  5
671
  8
0
 10
4.205541610717773
 20
68.32904052734375
 30
107.8006286621094
 70
   192
  0
VERTEX
  5
672
  8
0
 10
24.18119049072266
 20
100.8357162475586
 30
85.05621337890625
 70
   192
  0
VERTEX
  5
673
  8
0
 10
23.06435775756836
 20
68.67811584472656
 30
90.93901062011719
 70
   192
  0
VERTEX
  5
674
  8
0
 10
23.95493507385254
 20
68.90040588378906
 30
82.16214752197266
 70
   192
  0
VERTEX
  5
675
  8
0
 10
22.73366737365723
 20
101.0540008544922
 30
76.84690856933594
 70
   192
  0
VERTEX
  5
676
  8
0
 10
4.237362384796143
 20
75.32698822021484
 30
107.981086730957
 70
   192
  0
VERTEX
  5
677
  8
0
 10
22.4759464263916
 20
73.25950622558594
 30
75.73545837402344
 70
   192
  0
VERTEX
  5
678
  8
0
 10
18.63549613952637
 20
101.2572555541992
 30
69.68795013427734
 70
   192
  0
VERTEX
  5
679
  8
0
 10
19.40268135070801
 20
77.2419662475586
 30
70.1677017211914
 70
   192
  0
VERTEX
  5
67A
  8
0
 10
14.73513793945312
 20
80.8477783203125
 30
65.45887756347656
 70
   192
  0
VERTEX
  5
67B
  8
0
 10
12.2968282699585
 20
101.4247055053711
 30
64.31210327148438
 70
   192
  0
VERTEX
  5
67C
  8
0
 10
9.07830810546875
 20
83.55259704589844
 30
62.30675506591797
 70
   192
  0
VERTEX
  5
67D
  8
0
 10
2.647601127624512
 20
85.31924438476562
 30
60.73037719726562
 70
   192
  0
VERTEX
  5
67E
  8
0
 10
4.418160915374756
 20
101.5359954833984
 30
61.38585662841797
 70
   192
  0
VERTEX
  5
67F
  8
0
 10
-4.052375316619873
 20
85.93464660644531
 30
60.9676513671875
 70
   192
  0
VERTEX
  5
680
  8
0
 10
-3.981258392333984
 20
101.5745697021484
 30
61.37097549438477
 70
   192
  0
VERTEX
  5
681
  8
0
 10
1.42935574054718
 20
76.50139617919922
 30
108.3376922607422
 70
   192
  0
VERTEX
  5
682
  8
0
 10
12.8972225189209
 20
74.77296447753906
 30
173.3813323974609
 70
   192
  0
VERTEX
  5
683
  8
0
 10
15.67744731903076
 20
73.60186004638672
 30
172.8599548339844
 70
   192
  0
VERTEX
  5
684
  8
0
 10
11.75619029998779
 20
77.60043334960938
 30
173.6576995849609
 70
   192
  0
VERTEX
  5
685
  8
0
 10
0.2580180764198303
 20
79.33434295654297
 30
108.4483337402344
 70
   192
  0
VERTEX
  5
686
  8
0
 10
19.63480567932129
 20
77.60070037841797
 30
172.2684936523438
 70
   192
  0
VERTEX
  5
687
  8
0
 10
18.46824645996094
 20
74.77314758300781
 30
172.3990173339844
 70
   192
  0
VERTEX
  5
688
  8
0
 10
17.71787071228027
 20
91.06463623046875
 30
172.9645080566406
 70
   192
  0
VERTEX
  5
689
  8
0
 10
19.68030738830566
 20
87.59654998779297
 30
172.5262603759766
 70
   192
  0
VERTEX
  5
68A
  8
0
 10
13.76988220214844
 20
91.04962921142578
 30
173.6602478027344
 70
   192
  0
VERTEX
  5
68B
  8
0
 10
11.80148887634277
 20
87.56658935546875
 30
173.9147186279297
 70
   192
  0
VERTEX
  5
68C
  8
0
 10
1.489122271537781
 20
92.14364624023438
 30
108.7417221069336
 70
   192
  0
VERTEX
  5
68D
  8
0
 10
0.303315669298172
 20
89.30049896240234
 30
108.7053375244141
 70
   192
  0
VERTEX
  5
68E
  8
0
 10
19.65740203857422
 20
82.60222625732422
 30
172.3975067138672
 70
   192
  0
VERTEX
  5
68F
  8
0
 10
-1.595131278038025
 20
100.3374099731445
 30
108.924430847168
 70
   192
  0
VERTEX
  5
690
  8
0
 10
-21.95953178405762
 20
100.8084182739258
 30
94.25065612792969
 70
   192
  0
VERTEX
  5
691
  8
0
 10
-9.671012878417969
 20
101.5552444458008
 30
63.12382888793945
 70
   192
  0
VERTEX
  5
692
  8
0
 10
-16.2237663269043
 20
100.5693740844727
 30
102.5086898803711
 70
   192
  0
VERTEX
  5
693
  8
0
 10
-8.764472007751465
 20
100.4129104614258
 30
107.2609100341797
 70
   192
  0
VERTEX
  5
694
  8
0
 10
-23.78856468200684
 20
101.0842361450195
 30
83.87770080566406
 70
   192
  0
VERTEX
  5
695
  8
0
 10
-15.83903121948242
 20
101.4797439575195
 30
67.13909149169922
 70
   192
  0
VERTEX
  5
696
  8
0
 10
-21.22311973571777
 20
101.3232727050781
 30
74.15593719482422
 70
   192
  0
VERTEX
  5
697
  8
0
 10
-10.42944622039795
 20
85.31924438476562
 30
63.03621292114258
 70
   192
  0
VERTEX
  5
698
  8
0
 10
-23.92995834350586
 20
73.25950622558594
 30
83.9180679321289
 70
   192
  0
VERTEX
  5
699
  8
0
 10
-22.88034629821777
 20
77.34683990478516
 30
77.46244812011719
 70
   192
  0
VERTEX
  5
69A
  8
0
 10
-15.80224514007568
 20
83.62361907958984
 30
66.58490753173828
 70
   192
  0
VERTEX
  5
69B
  8
0
 10
-20.17077255249023
 20
80.8477783203125
 30
71.61373138427734
 70
   192
  0
VERTEX
  5
69C
  8
0
 10
-23.1216926574707
 20
68.90040588378906
 30
90.46302795410156
 70
   192
  0
VERTEX
  5
69D
  8
0
 10
-0.8201850652694702
 20
68.34288787841797
 30
108.1500701904297
 70
   192
  0
VERTEX
  5
69E
  8
0
 10
-19.23152732849121
 20
68.67609405517578
 30
98.47550201416016
 70
   192
  0
VERTEX
  5
69F
  8
0
 10
-6.800641059875488
 20
68.39532470703125
 30
107.1711196899414
 70
   192
  0
VERTEX
  5
6A0
  8
0
 10
-13.28968906402588
 20
68.50334930419922
 30
104.1265106201172
 70
   192
  0
VERTEX
  5
6A1
  8
0
 62
     9
 10
0.0
 20
0.0
 30
0.0
 70
   128
 71
     3
 72
     2
 73
     1
  0
VERTEX
  5
6A2
  8
0
 62
     9
 10
0.0
 20
0.0
 30
0.0
 70
   128
 71
     2
 72
     5
 73
     4
  0
VERTEX
  5
6A3
  8
0
 62
     9
 10
0.0
 20
0.0
 30
0.0
 70
   128
 71
     3
 72
     5
 73
     2
  0
VERTEX
  5
6A4
  8
0
 62
     9
 10
0.0
 20
0.0
 30
0.0
 70
   128
 71
     7
 72
     2
 73
     6
  0
VERTEX
  5
6A5
  8
0
 62
     9
 10
0.0
 20
0.0
 30
0.0
 70
   128
 71
     2
 72
     4
 73
     6
  0
VERTEX
  5
6A6
  8
0
 62
     9
 10
0.0
 20
0.0
 30
0.0
 70
   128
 71
     9
 72
     8
 73
     2
  0
VERTEX
  5
6A7
  8
0
 62
     9
 10
0.0
 20
0.0
 30
0.0
 70
   128
 71
     9
 72
     2
 73
     7
  0
VERTEX
  5
6A8
  8
0
 62
     9
 10
0.0
 20
0.0
 30
0.0
 70
   128
 71
     2
 72
     8
 73
    10
  0
VERTEX
  5
6A9
  8
0
 62
     9
 10
0.0
 20
0.0
 30
0.0
 70
   128
 71
     8
 72
    11
 73
    10
  0
VERTEX
  5
6AA
  8
0
 62
     9
 10
0.0
 20
0.0
 30
0.0
 70
   128
 71
    12
 72
     3
 73
     1
  0
VERTEX
  5
6AB
  8
0
 62
     9
 10
0.0
 20
0.0
 30
0.0
 70
   128
 71
    12
 72
     1
 73
    13
  0
VERTEX
  5
6AC
  8
0
 62
     9
 10
0.0
 20
0.0
 30
0.0
 70
   128
 71
     5
 72
     3
 73
    14
  0
VERTEX
  5
6AD
  8
0
 62
     9
 10
0.0
 20
0.0
 30
0.0
 70
   128
 71
    15
 72
    14
 73
     3
  0
VERTEX
  5
6AE
  8
0
 62
     9
 10
0.0
 20
0.0
 30
0.0
 70
   128
 71
    17
 72
    13
 73
    16
  0
VERTEX
  5
6AF
  8
0
 62
     9
 10
0.0
 20
0.0
 30
0.0
 70
   128
 71
    13
 72
    17
 73
    12
  0
VERTEX
  5
6B0
  8
0
 62
     9
 10
0.0
 20
0.0
 30
0.0
 70
   128
 71
    18
 72
    17
 73
    16
  0
VERTEX
  5
6B1
  8
0
 62
     9
 10
0.0
 20
0.0
 30
0.0
 70
   128
 71
    18
 72
    16
 73
    19
  0
VERTEX
  5
6B2
  8
0
 62
     9
 10
0.0
 20
0.0
 30
0.0
 70
   128
 71
    14
 72
    15
 73
    20
  0
VERTEX
  5
6B3
  8
0
 62
     9
 10
0.0
 20
0.0
 30
0.0
 70
   128
 71
    18
 72
    19
 73
    21
  0
VERTEX
  5
6B4
  8
0
 62
     9
 10
0.0
 20
0.0
 30
0.0
 70
   128
 71
    23
 72
    19
 73
    22
  0
VERTEX
  5
6B5
  8
0
 62
     9
 10
0.0
 20
0.0
 30
0.0
 70
   128
 71
    19
 72
    23
 73
    21
  0
VERTEX
  5
6B6
  8
0
 62
     9
 10
0.0
 20
0.0
 30
0.0
 70
   128
 71
    22
 72
    25
 73
    24
  0
VERTEX
  5
6B7
  8
0
 62
     9
 10
0.0
 20
0.0
 30
0.0
 70
   128
 71
    24
 72
    23
 73
    22
  0
VERTEX
  5
6B8
  8
0
 62
     9
 10
0.0
 20
0.0
 30
0.0
 70
   128
 71
    25
 72
    27
 73
    26
  0
VERTEX
  5
6B9
  8
0
 62
     9
 10
0.0
 20
0.0
 30
0.0
 70
   128
 71
    24
 72
    25
 73
    26
  0
VERTEX
  5
6BA
  8
0
 62
     9
 10
0.0
 20
0.0
 30
0.0
 70
   128
 71
    29
 72
    27
 73
    28
  0
VERTEX
  5
6BB
  8
0
 62
     9
 10
0.0
 20
0.0
 30
0.0
 70
   128
 71
    25
 72
    28
 73
    27
  0
VERTEX
  5
6BC
  8
0
 62
     9
 10
0.0
 20
0.0
 30
0.0
 70
   128
 71
    30
 72
    29
 73
    28
  0
VERTEX
  5
6BD
  8
0
 62
     9
 10
0.0
 20
0.0
 30
0.0
 70
   128
 71
    32
 72
    20
 73
    31
  0
VERTEX
  5
6BE
  8
0
 62
     9
 10
0.0
 20
0.0
 30
0.0
 70
   128
 71
    32
 72
    33
 73
    20
  0
VERTEX
  5
6BF
  8
0
 62
     9
 10
0.0
 20
0.0
 30
0.0
 70
   128
 71
    32
 72
    31
 73
    34
  0
VERTEX
  5
6C0
  8
0
 62
     9
 10
0.0
 20
0.0
 30
0.0
 70
   128
 71
    35
 72
    34
 73
    31
  0
VERTEX
  5
6C1
  8
0
 62
     9
 10
0.0
 20
0.0
 30
0.0
 70
   128
 71
    20
 72
    33
 73
    14
  0
VERTEX
  5
6C2
  8
0
 62
     9
 10
0.0
 20
0.0
 30
0.0
 70
   128
 71
    37
 72
    36
 73
     5
  0
VERTEX
  5
6C3
  8
0
 62
     9
 10
0.0
 20
0.0
 30
0.0
 70
   128
 71
    14
 72
    33
 73
    37
  0
VERTEX
  5
6C4
  8
0
 62
     9
 10
0.0
 20
0.0
 30
0.0
 70
   128
 71
    14
 72
    37
 73
     5
  0
VERTEX
  5
6C5
  8
0
 62
     9
 10
0.0
 20
0.0
 30
0.0
 70
   128
 71
    38
 72
    11
 73
     8
  0
VERTEX
  5
6C6
  8
0
 62
     9
 10
0.0
 20
0.0
 30
0.0
 70
   128
 71
     8
 72
     9
 73
    39
  0
VERTEX
  5
6C7
  8
0
 62
     9
 10
0.0
 20
0.0
 30
0.0
 70
   128
 71
    39
 72
    38
 73
     8
  0
VERTEX
  5
6C8
  8
0
 62
     9
 10
0.0
 20
0.0
 30
0.0
 70
   128
 71
    40
 72
    11
 73
    38
  0
VERTEX
  5
6C9
  8
0
 62
     9
 10
0.0
 20
0.0
 30
0.0
 70
   128
 71
    42
 72
    40
 73
    41
  0
VERTEX
  5
6CA
  8
0
 62
     9
 10
0.0
 20
0.0
 30
0.0
 70
   128
 71
    40
 72
    42
 73
    11
  0
VERTEX
  5
6CB
  8
0
 62
     9
 10
0.0
 20
0.0
 30
0.0
 70
   128
 71
    43
 72
    42
 73
    41
  0
VERTEX
  5
6CC
  8
0
 62
     9
 10
0.0
 20
0.0
 30
0.0
 70
   128
 71
    44
 72
     6
 73
     4
  0
VERTEX
  5
6CD
  8
0
 62
     9
 10
0.0
 20
0.0
 30
0.0
 70
   128
 71
    39
 72
     7
 73
    44
  0
VERTEX
  5
6CE
  8
0
 62
     9
 10
0.0
 20
0.0
 30
0.0
 70
   128
 71
     6
 72
    44
 73
     7
  0
VERTEX
  5
6CF
  8
0
 62
     9
 10
0.0
 20
0.0
 30
0.0
 70
   128
 71
    39
 72
     9
 73
     7
  0
VERTEX
  5
6D0
  8
0
 62
     9
 10
0.0
 20
0.0
 30
0.0
 70
   128
 71
     4
 72
    36
 73
    44
  0
VERTEX
  5
6D1
  8
0
 62
     9
 10
0.0
 20
0.0
 30
0.0
 70
   128
 71
     5
 72
    36
 73
     4
  0
VERTEX
  5
6D2
  8
0
 62
     9
 10
0.0
 20
0.0
 30
0.0
 70
   128
 71
    43
 72
    41
 73
    35
  0
VERTEX
  5
6D3
  8
0
 62
     9
 10
0.0
 20
0.0
 30
0.0
 70
   128
 71
    34
 72
    35
 73
    41
  0
VERTEX
  5
6D4
  8
0
 62
     9
 10
0.0
 20
0.0
 30
0.0
 70
   128
 71
    32
 72
    34
 73
    33
  0
VERTEX
  5
6D5
  8
0
 62
     9
 10
0.0
 20
0.0
 30
0.0
 70
   128
 71
    37
 72
    33
 73
    44
  0
VERTEX
  5
6D6
  8
0
 62
     9
 10
0.0
 20
0.0
 30
0.0
 70
   128
 71
    33
 72
    34
 73
    40
  0
VERTEX
  5
6D7
  8
0
 62
     9
 10
0.0
 20
0.0
 30
0.0
 70
   128
 71
    44
 72
    36
 73
    37
  0
VERTEX
  5
6D8
  8
0
 62
     9
 10
0.0
 20
0.0
 30
0.0
 70
   128
 71
    38
 72
    44
 73
    40
  0
VERTEX
  5
6D9
  8
0
 62
     9
 10
0.0
 20
0.0
 30
0.0
 70
   128
 71
    44
 72
    38
 73
    39
  0
VERTEX
  5
6DA
  8
0
 62
     9
 10
0.0
 20
0.0
 30
0.0
 70
   128
 71
    41
 72
    40
 73
    34
  0
VERTEX
  5
6DB
  8
0
 62
     9
 10
0.0
 20
0.0
 30
0.0
 70
   128
 71
    40
 72
    44
 73
    33
  0
VERTEX
  5
6DC
  8
0
 62
     9
 10
0.0
 20
0.0
 30
0.0
 70
   128
 71
    45
 72
    25
 73
    22
  0
VERTEX
  5
6DD
  8
0
 62
     9
 10
0.0
 20
0.0
 30
0.0
 70
   128
 71
    16
 72
    13
 73
     1
  0
VERTEX
  5
6DE
  8
0
 62
     9
 10
0.0
 20
0.0
 30
0.0
 70
   128
 71
    19
 72
     1
 73
     2
  0
VERTEX
  5
6DF
  8
0
 62
     9
 10
0.0
 20
0.0
 30
0.0
 70
   128
 71
     2
 72
    10
 73
    19
  0
VERTEX
  5
6E0
  8
0
 62
     9
 10
0.0
 20
0.0
 30
0.0
 70
   128
 71
    16
 72
     1
 73
    19
  0
VERTEX
  5
6E1
  8
0
 62
     9
 10
0.0
 20
0.0
 30
0.0
 70
   128
 71
    10
 72
    22
 73
    19
  0
VERTEX
  5
6E2
  8
0
 62
     9
 10
0.0
 20
0.0
 30
0.0
 70
   128
 71
    47
 72
    30
 73
    46
  0
VERTEX
  5
6E3
  8
0
 62
     9
 10
0.0
 20
0.0
 30
0.0
 70
   128
 71
    28
 72
    49
 73
    48
  0
VERTEX
  5
6E4
  8
0
 62
     9
 10
0.0
 20
0.0
 30
0.0
 70
   128
 71
    51
 72
    46
 73
    50
  0
VERTEX
  5
6E5
  8
0
 62
     9
 10
0.0
 20
0.0
 30
0.0
 70
   128
 71
    47
 72
    46
 73
    51
  0
VERTEX
  5
6E6
  8
0
 62
     9
 10
0.0
 20
0.0
 30
0.0
 70
   128
 71
    51
 72
    50
 73
    52
  0
VERTEX
  5
6E7
  8
0
 62
     9
 10
0.0
 20
0.0
 30
0.0
 70
   128
 71
    28
 72
    48
 73
    30
  0
VERTEX
  5
6E8
  8
0
 62
     9
 10
0.0
 20
0.0
 30
0.0
 70
   128
 71
    30
 72
    48
 73
    46
  0
VERTEX
  5
6E9
  8
0
 62
     9
 10
0.0
 20
0.0
 30
0.0
 70
   128
 71
    45
 72
    49
 73
    25
  0
VERTEX
  5
6EA
  8
0
 62
     9
 10
0.0
 20
0.0
 30
0.0
 70
   128
 71
    49
 72
    28
 73
    25
  0
VERTEX
  5
6EB
  8
0
 62
     9
 10
0.0
 20
0.0
 30
0.0
 70
   128
 71
    22
 72
    10
 73
    45
  0
VERTEX
  5
6EC
  8
0
 62
     9
 10
0.0
 20
0.0
 30
0.0
 70
   128
 71
    27
 72
    29
 73
    53
  0
VERTEX
  5
6ED
  8
0
 62
     9
 10
0.0
 20
0.0
 30
0.0
 70
   128
 71
    23
 72
    55
 73
    54
  0
VERTEX
  5
6EE
  8
0
 62
     9
 10
0.0
 20
0.0
 30
0.0
 70
   128
 71
    26
 72
    27
 73
    56
  0
VERTEX
  5
6EF
  8
0
 62
     9
 10
0.0
 20
0.0
 30
0.0
 70
   128
 71
    53
 72
    56
 73
    27
  0
VERTEX
  5
6F0
  8
0
 62
     9
 10
0.0
 20
0.0
 30
0.0
 70
   128
 71
    57
 72
    24
 73
    26
  0
VERTEX
  5
6F1
  8
0
 62
     9
 10
0.0
 20
0.0
 30
0.0
 70
   128
 71
    26
 72
    56
 73
    57
  0
VERTEX
  5
6F2
  8
0
 62
     9
 10
0.0
 20
0.0
 30
0.0
 70
   128
 71
    23
 72
    24
 73
    55
  0
VERTEX
  5
6F3
  8
0
 62
     9
 10
0.0
 20
0.0
 30
0.0
 70
   128
 71
    57
 72
    55
 73
    24
  0
VERTEX
  5
6F4
  8
0
 62
     9
 10
0.0
 20
0.0
 30
0.0
 70
   128
 71
    23
 72
    54
 73
    21
  0
VERTEX
  5
6F5
  8
0
 62
     9
 10
0.0
 20
0.0
 30
0.0
 70
   128
 71
    58
 72
    18
 73
    21
  0
VERTEX
  5
6F6
  8
0
 62
     9
 10
0.0
 20
0.0
 30
0.0
 70
   128
 71
    21
 72
    54
 73
    58
  0
VERTEX
  5
6F7
  8
0
 62
     9
 10
0.0
 20
0.0
 30
0.0
 70
   128
 71
    59
 72
    15
 73
     3
  0
VERTEX
  5
6F8
  8
0
 62
     9
 10
0.0
 20
0.0
 30
0.0
 70
   128
 71
    18
 72
    60
 73
    17
  0
VERTEX
  5
6F9
  8
0
 62
     9
 10
0.0
 20
0.0
 30
0.0
 70
   128
 71
     3
 72
    12
 73
    61
  0
VERTEX
  5
6FA
  8
0
 62
     9
 10
0.0
 20
0.0
 30
0.0
 70
   128
 71
    61
 72
    59
 73
     3
  0
VERTEX
  5
6FB
  8
0
 62
     9
 10
0.0
 20
0.0
 30
0.0
 70
   128
 71
    12
 72
    62
 73
    61
  0
VERTEX
  5
6FC
  8
0
 62
     9
 10
0.0
 20
0.0
 30
0.0
 70
   128
 71
    17
 72
    60
 73
    62
  0
VERTEX
  5
6FD
  8
0
 62
     9
 10
0.0
 20
0.0
 30
0.0
 70
   128
 71
    62
 72
    12
 73
    17
  0
VERTEX
  5
6FE
  8
0
 62
     9
 10
0.0
 20
0.0
 30
0.0
 70
   128
 71
    58
 72
    60
 73
    18
  0
VERTEX
  5
6FF
  8
0
 62
     9
 10
0.0
 20
0.0
 30
0.0
 70
   128
 71
    59
 72
    35
 73
    31
  0
VERTEX
  5
700
  8
0
 62
     9
 10
0.0
 20
0.0
 30
0.0
 70
   128
 71
    54
 72
    50
 73
    58
  0
VERTEX
  5
701
  8
0
 62
     9
 10
0.0
 20
0.0
 30
0.0
 70
   128
 71
    48
 72
    62
 73
    60
  0
VERTEX
  5
702
  8
0
 62
     9
 10
0.0
 20
0.0
 30
0.0
 70
   128
 71
    56
 72
    51
 73
    57
  0
VERTEX
  5
703
  8
0
 62
     9
 10
0.0
 20
0.0
 30
0.0
 70
   128
 71
    55
 72
    57
 73
    52
  0
VERTEX
  5
704
  8
0
 62
     9
 10
0.0
 20
0.0
 30
0.0
 70
   128
 71
    51
 72
    53
 73
    47
  0
VERTEX
  5
705
  8
0
 62
     9
 10
0.0
 20
0.0
 30
0.0
 70
   128
 71
    53
 72
    51
 73
    56
  0
VERTEX
  5
706
  8
0
 62
     9
 10
0.0
 20
0.0
 30
0.0
 70
   128
 71
    29
 72
    30
 73
    47
  0
VERTEX
  5
707
  8
0
 62
     9
 10
0.0
 20
0.0
 30
0.0
 70
   128
 71
    47
 72
    53
 73
    29
  0
VERTEX
  5
708
  8
0
 62
     9
 10
0.0
 20
0.0
 30
0.0
 70
   128
 71
    57
 72
    51
 73
    52
  0
VERTEX
  5
709
  8
0
 62
     9
 10
0.0
 20
0.0
 30
0.0
 70
   128
 71
    52
 72
    50
 73
    55
  0
VERTEX
  5
70A
  8
0
 62
     9
 10
0.0
 20
0.0
 30
0.0
 70
   128
 71
    46
 72
    58
 73
    50
  0
VERTEX
  5
70B
  8
0
 62
     9
 10
0.0
 20
0.0
 30
0.0
 70
   128
 71
    54
 72
    55
 73
    50
  0
VERTEX
  5
70C
  8
0
 62
     9
 10
0.0
 20
0.0
 30
0.0
 70
   128
 71
    46
 72
    48
 73
    60
  0
VERTEX
  5
70D
  8
0
 62
     9
 10
0.0
 20
0.0
 30
0.0
 70
   128
 71
    60
 72
    58
 73
    46
  0
VERTEX
  5
70E
  8
0
 62
     9
 10
0.0
 20
0.0
 30
0.0
 70
   128
 71
    49
 72
    61
 73
    62
  0
VERTEX
  5
70F
  8
0
 62
     9
 10
0.0
 20
0.0
 30
0.0
 70
   128
 71
    49
 72
    62
 73
    48
  0
VERTEX
  5
710
  8
0
 62
     9
 10
0.0
 20
0.0
 30
0.0
 70
   128
 71
    59
 72
    61
 73
    45
  0
VERTEX
  5
711
  8
0
 62
     9
 10
0.0
 20
0.0
 30
0.0
 70
   128
 71
    49
 72
    45
 73
    61
  0
VERTEX
  5
712
  8
0
 62
     9
 10
0.0
 20
0.0
 30
0.0
 70
   128
 71
    31
 72
    15
 73
    59
  0
VERTEX
  5
713
  8
0
 62
     9
 10
0.0
 20
0.0
 30
0.0
 70
   128
 71
    31
 72
    20
 73
    15
  0
VERTEX
  5
714
  8
0
 62
     9
 10
0.0
 20
0.0
 30
0.0
 70
   128
 71
    10
 72
    11
 73
    42
  0
VERTEX
  5
715
  8
0
 62
     9
 10
0.0
 20
0.0
 30
0.0
 70
   128
 71
    43
 72
    35
 73
    59
  0
VERTEX
  5
716
  8
0
 62
     9
 10
0.0
 20
0.0
 30
0.0
 70
   128
 71
    42
 72
    43
 73
    45
  0
VERTEX
  5
717
  8
0
 62
     9
 10
0.0
 20
0.0
 30
0.0
 70
   128
 71
    59
 72
    45
 73
    43
  0
VERTEX
  5
718
  8
0
 62
     9
 10
0.0
 20
0.0
 30
0.0
 70
   128
 71
    10
 72
    42
 73
    45
  0
SEQEND
  5
719
  8
0
  0
ENDBLK
  5
71C
  8
0
  0
BLOCK
  8
0
  2
44
 70
     0
 10
0.0
 20
0.0
 30
0.0
  3
44
  1

  0
POLYLINE
  5
71E
  8
0
 62
     9
 66
     1
 10
0.0
 20
0.0
 30
0.0
 70
    64
 71
   112
 72
   168
  0
VERTEX
  5
71F
  8
0
 10
-0.0000000000000183
 20
74.76152038574219
 30
101.0383834838867
 70
   192
  0
VERTEX
  5
720
  8
0
 10
-4.052133083343506
 20
70.9829330444336
 30
102.9541320800781
 70
   192
  0
VERTEX
  5
721
  8
0
 10
-0.0000000000000183
 20
70.9829330444336
 30
103.3813323974609
 70
   192
  0
VERTEX
  5
722
  8
0
 10
-18.99821662902832
 20
66.8499984741211
 30
92.75547790527344
 70
   192
  0
VERTEX
  5
723
  8
0
 10
-15.26461696624756
 20
70.9829330444336
 30
95.97369384765625
 70
   192
  0
VERTEX
  5
724
  8
0
 10
-17.62979316711426
 20
70.9829330444336
 30
92.1212158203125
 70
   192
  0
VERTEX
  5
725
  8
0
 10
-20.47931289672852
 20
66.8499984741211
 30
88.31658172607422
 70
   192
  0
VERTEX
  5
726
  8
0
 10
-19.43141174316406
 20
70.9829330444336
 30
83.94992065429688
 70
   192
  0
VERTEX
  5
727
  8
0
 10
-16.71277236938477
 20
74.76152038574219
 30
87.51346588134766
 70
   192
  0
VERTEX
  5
728
  8
0
 10
-17.08846473693848
 20
74.76152038574219
 30
83.94992065429688
 70
   192
  0
VERTEX
  5
729
  8
0
 10
-19.00420951843262
 20
70.9829330444336
 30
88.0020523071289
 70
   192
  0
VERTEX
  5
72A
  8
0
 10
-20.93967437744141
 20
66.8499984741211
 30
83.94992065429688
 70
   192
  0
VERTEX
  5
72B
  8
0
 10
-14.05702686309814
 20
77.94999694824219
 30
83.94992065429688
 70
   192
  0
VERTEX
  5
72C
  8
0
 10
-13.75058364868164
 20
77.94999694824219
 30
86.8896713256836
 70
   192
  0
VERTEX
  5
72D
  8
0
 10
-16.44945526123047
 20
66.8499984741211
 30
96.906982421875
 70
   192
  0
VERTEX
  5
72E
  8
0
 10
-12.02377700805664
 20
70.9829330444336
 30
99.21453857421875
 70
   192
  0
VERTEX
  5
72F
  8
0
 10
-12.95706081390381
 20
66.8499984741211
 30
100.3993759155273
 70
   192
  0
VERTEX
  5
730
  8
0
 10
-8.17129898071289
 20
70.9829330444336
 30
101.5797119140625
 70
   192
  0
VERTEX
  5
731
  8
0
 10
-8.805554389953613
 20
66.8499984741211
 30
102.9481353759766
 70
   192
  0
VERTEX
  5
732
  8
0
 10
-3.563546180725098
 20
74.76152038574219
 30
100.6626968383789
 70
   192
  0
VERTEX
  5
733
  8
0
 10
-7.186043262481689
 20
74.76152038574219
 30
99.45399475097656
 70
   192
  0
VERTEX
  5
734
  8
0
 10
-4.366659164428711
 20
66.8499984741211
 30
104.4292297363281
 70
   192
  0
VERTEX
  5
735
  8
0
 10
0.0000000000000039
 20
66.8499984741211
 30
104.8895950317383
 70
   192
  0
VERTEX
  5
736
  8
0
 10
-2.939749479293823
 20
77.94999694824219
 30
97.70050048828125
 70
   192
  0
VERTEX
  5
737
  8
0
 10
0.0000000000000042
 20
77.94999694824219
 30
98.00694274902344
 70
   192
  0
VERTEX
  5
738
  8
0
 10
-5.889178276062012
 20
77.94999694824219
 30
96.69938659667969
 70
   192
  0
VERTEX
  5
739
  8
0
 10
-10.57400798797607
 20
74.76152038574219
 30
97.3740005493164
 70
   192
  0
VERTEX
  5
73A
  8
0
 10
-13.42408275604248
 20
74.76152038574219
 30
94.52392578125
 70
   192
  0
VERTEX
  5
73B
  8
0
 10
-15.50407791137695
 20
74.76152038574219
 30
91.1359634399414
 70
   192
  0
VERTEX
  5
73C
  8
0
 10
-8.672442436218262
 20
77.94999694824219
 30
95.00114440917969
 70
   192
  0
VERTEX
  5
73D
  8
0
 10
-11.02585220336914
 20
77.94999694824219
 30
92.6670913696289
 70
   192
  0
VERTEX
  5
73E
  8
0
 10
-12.75002288818359
 20
77.94999694824219
 30
89.87905883789062
 70
   192
  0
VERTEX
  5
73F
  8
0
 10
17.08846473693848
 20
74.76152038574219
 30
83.94992065429688
 70
   192
  0
VERTEX
  5
740
  8
0
 10
19.00420951843262
 20
70.9829330444336
 30
88.0020523071289
 70
   192
  0
VERTEX
  5
741
  8
0
 10
19.43141174316406
 20
70.9829330444336
 30
83.94992065429688
 70
   192
  0
VERTEX
  5
742
  8
0
 10
8.805554389953613
 20
66.8499984741211
 30
102.9481353759766
 70
   192
  0
VERTEX
  5
743
  8
0
 10
12.02377700805664
 20
70.9829330444336
 30
99.21453857421875
 70
   192
  0
VERTEX
  5
744
  8
0
 10
8.17129898071289
 20
70.9829330444336
 30
101.5797119140625
 70
   192
  0
VERTEX
  5
745
  8
0
 10
4.366659164428711
 20
66.8499984741211
 30
104.4292297363281
 70
   192
  0
VERTEX
  5
746
  8
0
 10
3.563546180725098
 20
74.76152038574219
 30
100.6626968383789
 70
   192
  0
VERTEX
  5
747
  8
0
 10
4.052133083343506
 20
70.9829330444336
 30
102.9541320800781
 70
   192
  0
VERTEX
  5
748
  8
0
 10
2.939749479293823
 20
77.94999694824219
 30
97.70050048828125
 70
   192
  0
VERTEX
  5
749
  8
0
 10
12.95706081390381
 20
66.8499984741211
 30
100.3993759155273
 70
   192
  0
VERTEX
  5
74A
  8
0
 10
15.26461696624756
 20
70.9829330444336
 30
95.97369384765625
 70
   192
  0
VERTEX
  5
74B
  8
0
 10
16.44945526123047
 20
66.8499984741211
 30
96.906982421875
 70
   192
  0
VERTEX
  5
74C
  8
0
 10
17.62979316711426
 20
70.9829330444336
 30
92.1212158203125
 70
   192
  0
VERTEX
  5
74D
  8
0
 10
18.99821662902832
 20
66.8499984741211
 30
92.75547790527344
 70
   192
  0
VERTEX
  5
74E
  8
0
 10
16.71277236938477
 20
74.76152038574219
 30
87.51346588134766
 70
   192
  0
VERTEX
  5
74F
  8
0
 10
15.50407791137695
 20
74.76152038574219
 30
91.1359634399414
 70
   192
  0
VERTEX
  5
750
  8
0
 10
20.47931289672852
 20
66.8499984741211
 30
88.31658172607422
 70
   192
  0
VERTEX
  5
751
  8
0
 10
20.93967437744141
 20
66.8499984741211
 30
83.94992065429688
 70
   192
  0
VERTEX
  5
752
  8
0
 10
13.75058364868164
 20
77.94999694824219
 30
86.8896713256836
 70
   192
  0
VERTEX
  5
753
  8
0
 10
14.05702686309814
 20
77.94999694824219
 30
83.94992065429688
 70
   192
  0
VERTEX
  5
754
  8
0
 10
12.74946594238281
 20
77.94999694824219
 30
89.83909606933594
 70
   192
  0
VERTEX
  5
755
  8
0
 10
13.42408275604248
 20
74.76152038574219
 30
94.52392578125
 70
   192
  0
VERTEX
  5
756
  8
0
 10
10.57400798797607
 20
74.76152038574219
 30
97.3740005493164
 70
   192
  0
VERTEX
  5
757
  8
0
 10
7.186043262481689
 20
74.76152038574219
 30
99.45399475097656
 70
   192
  0
VERTEX
  5
758
  8
0
 10
11.05122470855713
 20
77.94999694824219
 30
92.62236022949219
 70
   192
  0
VERTEX
  5
759
  8
0
 10
8.71717357635498
 20
77.94999694824219
 30
94.97576904296875
 70
   192
  0
VERTEX
  5
75A
  8
0
 10
5.929142475128174
 20
77.94999694824219
 30
96.69994354248047
 70
   192
  0
VERTEX
  5
75B
  8
0
 10
-0.0000000000000183
 20
74.76152038574219
 30
66.86145782470703
 70
   192
  0
VERTEX
  5
75C
  8
0
 10
4.052133083343506
 20
70.9829330444336
 30
64.94570922851562
 70
   192
  0
VERTEX
  5
75D
  8
0
 10
-0.0000000000000183
 20
70.9829330444336
 30
64.51850891113281
 70
   192
  0
VERTEX
  5
75E
  8
0
 10
18.99821662902832
 20
66.8499984741211
 30
75.14436340332031
 70
   192
  0
VERTEX
  5
75F
  8
0
 10
15.26461696624756
 20
70.9829330444336
 30
71.92613983154297
 70
   192
  0
VERTEX
  5
760
  8
0
 10
17.62979316711426
 20
70.9829330444336
 30
75.77861785888672
 70
   192
  0
VERTEX
  5
761
  8
0
 10
20.47931289672852
 20
66.8499984741211
 30
79.58325958251953
 70
   192
  0
VERTEX
  5
762
  8
0
 10
16.71277236938477
 20
74.76152038574219
 30
80.3863754272461
 70
   192
  0
VERTEX
  5
763
  8
0
 10
19.00420951843262
 20
70.9829330444336
 30
79.89778900146484
 70
   192
  0
VERTEX
  5
764
  8
0
 10
13.75058364868164
 20
77.94999694824219
 30
81.01016998291016
 70
   192
  0
VERTEX
  5
765
  8
0
 10
16.44945526123047
 20
66.8499984741211
 30
70.99285888671875
 70
   192
  0
VERTEX
  5
766
  8
0
 10
12.02377700805664
 20
70.9829330444336
 30
68.685302734375
 70
   192
  0
VERTEX
  5
767
  8
0
 10
12.95706081390381
 20
66.8499984741211
 30
67.5004653930664
 70
   192
  0
VERTEX
  5
768
  8
0
 10
8.17129898071289
 20
70.9829330444336
 30
66.32012939453125
 70
   192
  0
VERTEX
  5
769
  8
0
 10
8.805554389953613
 20
66.8499984741211
 30
64.95170593261719
 70
   192
  0
VERTEX
  5
76A
  8
0
 10
3.563546180725098
 20
74.76152038574219
 30
67.23714447021484
 70
   192
  0
VERTEX
  5
76B
  8
0
 10
7.186043262481689
 20
74.76152038574219
 30
68.44583892822266
 70
   192
  0
VERTEX
  5
76C
  8
0
 10
4.366659164428711
 20
66.8499984741211
 30
63.47060775756836
 70
   192
  0
VERTEX
  5
76D
  8
0
 10
0.0000000000000088
 20
66.8499984741211
 30
63.01024627685547
 70
   192
  0
VERTEX
  5
76E
  8
0
 10
2.939749479293823
 20
77.94999694824219
 30
70.19933319091797
 70
   192
  0
VERTEX
  5
76F
  8
0
 10
0.0000000000000075
 20
77.94999694824219
 30
69.89289093017578
 70
   192
  0
VERTEX
  5
770
  8
0
 10
5.889178276062012
 20
77.94999694824219
 30
71.20045471191406
 70
   192
  0
VERTEX
  5
771
  8
0
 10
10.57400798797607
 20
74.76152038574219
 30
70.52583312988281
 70
   192
  0
VERTEX
  5
772
  8
0
 10
13.42408275604248
 20
74.76152038574219
 30
73.37591552734375
 70
   192
  0
VERTEX
  5
773
  8
0
 10
15.50407791137695
 20
74.76152038574219
 30
76.76387786865234
 70
   192
  0
VERTEX
  5
774
  8
0
 10
8.672442436218262
 20
77.94999694824219
 30
72.89869689941406
 70
   192
  0
VERTEX
  5
775
  8
0
 10
11.02585220336914
 20
77.94999694824219
 30
75.23274993896484
 70
   192
  0
VERTEX
  5
776
  8
0
 10
12.75002288818359
 20
77.94999694824219
 30
78.0207748413086
 70
   192
  0
VERTEX
  5
777
  8
0
 10
-16.44945526123047
 20
66.8499984741211
 30
70.99285888671875
 70
   192
  0
VERTEX
  5
778
  8
0
 10
-18.99821662902832
 20
66.8499984741211
 30
75.14436340332031
 70
   192
  0
VERTEX
  5
779
  8
0
 10
-17.62979316711426
 20
70.9829330444336
 30
75.77861785888672
 70
   192
  0
VERTEX
  5
77A
  8
0
 10
-12.02377700805664
 20
70.9829330444336
 30
68.685302734375
 70
   192
  0
VERTEX
  5
77B
  8
0
 10
-8.17129898071289
 20
70.9829330444336
 30
66.32012939453125
 70
   192
  0
VERTEX
  5
77C
  8
0
 10
-8.805554389953613
 20
66.8499984741211
 30
64.95170593261719
 70
   192
  0
VERTEX
  5
77D
  8
0
 10
-16.71277236938477
 20
74.76152038574219
 30
80.3863754272461
 70
   192
  0
VERTEX
  5
77E
  8
0
 10
-15.50407791137695
 20
74.76152038574219
 30
76.76387786865234
 70
   192
  0
VERTEX
  5
77F
  8
0
 10
-15.26461696624756
 20
70.9829330444336
 30
71.92613983154297
 70
   192
  0
VERTEX
  5
780
  8
0
 10
-13.75058364868164
 20
77.94999694824219
 30
81.01016998291016
 70
   192
  0
VERTEX
  5
781
  8
0
 10
-3.563546180725098
 20
74.76152038574219
 30
67.23714447021484
 70
   192
  0
VERTEX
  5
782
  8
0
 10
-12.95706081390381
 20
66.8499984741211
 30
67.5004653930664
 70
   192
  0
VERTEX
  5
783
  8
0
 10
-2.939749479293823
 20
77.94999694824219
 30
70.19933319091797
 70
   192
  0
VERTEX
  5
784
  8
0
 10
-4.052133083343506
 20
70.9829330444336
 30
64.94570922851562
 70
   192
  0
VERTEX
  5
785
  8
0
 10
-4.366659164428711
 20
66.8499984741211
 30
63.47060775756836
 70
   192
  0
VERTEX
  5
786
  8
0
 10
-19.00420951843262
 20
70.9829330444336
 30
79.89778900146484
 70
   192
  0
VERTEX
  5
787
  8
0
 10
-20.47931289672852
 20
66.8499984741211
 30
79.58325958251953
 70
   192
  0
VERTEX
  5
788
  8
0
 10
-12.74946594238281
 20
77.94999694824219
 30
78.06074523925781
 70
   192
  0
VERTEX
  5
789
  8
0
 10
-13.42408275604248
 20
74.76152038574219
 30
73.37591552734375
 70
   192
  0
VERTEX
  5
78A
  8
0
 10
-10.57400798797607
 20
74.76152038574219
 30
70.52583312988281
 70
   192
  0
VERTEX
  5
78B
  8
0
 10
-7.186043262481689
 20
74.76152038574219
 30
68.44583892822266
 70
   192
  0
VERTEX
  5
78C
  8
0
 10
-11.05122470855713
 20
77.94999694824219
 30
75.27747344970703
 70
   192
  0
VERTEX
  5
78D
  8
0
 10
-8.71717357635498
 20
77.94999694824219
 30
72.92406463623047
 70
   192
  0
VERTEX
  5
78E
  8
0
 10
-5.929142475128174
 20
77.94999694824219
 30
71.19989776611328
 70
   192
  0
VERTEX
  5
78F
  8
0
 62
     9
 10
0.0
 20
0.0
 30
0.0
 70
   128
 71
     3
 72
     2
 73
     1
  0
VERTEX
  5
790
  8
0
 62
     9
 10
0.0
 20
0.0
 30
0.0
 70
   128
 71
     6
 72
     5
 73
     4
  0
VERTEX
  5
791
  8
0
 62
     9
 10
0.0
 20
0.0
 30
0.0
 70
   128
 71
     4
 72
     7
 73
     6
  0
VERTEX
  5
792
  8
0
 62
     9
 10
0.0
 20
0.0
 30
0.0
 70
   128
 71
    10
 72
     9
 73
     8
  0
VERTEX
  5
793
  8
0
 62
     9
 10
0.0
 20
0.0
 30
0.0
 70
   128
 71
     7
 72
    12
 73
    11
  0
VERTEX
  5
794
  8
0
 62
     9
 10
0.0
 20
0.0
 30
0.0
 70
   128
 71
     7
 72
    11
 73
     6
  0
VERTEX
  5
795
  8
0
 62
     9
 10
0.0
 20
0.0
 30
0.0
 70
   128
 71
    11
 72
    12
 73
     8
  0
VERTEX
  5
796
  8
0
 62
     9
 10
0.0
 20
0.0
 30
0.0
 70
   128
 71
    14
 72
    10
 73
    13
  0
VERTEX
  5
797
  8
0
 62
     9
 10
0.0
 20
0.0
 30
0.0
 70
   128
 71
    15
 72
     4
 73
     5
  0
VERTEX
  5
798
  8
0
 62
     9
 10
0.0
 20
0.0
 30
0.0
 70
   128
 71
    16
 72
    15
 73
     5
  0
VERTEX
  5
799
  8
0
 62
     9
 10
0.0
 20
0.0
 30
0.0
 70
   128
 71
    16
 72
    17
 73
    15
  0
VERTEX
  5
79A
  8
0
 62
     9
 10
0.0
 20
0.0
 30
0.0
 70
   128
 71
    16
 72
    18
 73
    17
  0
VERTEX
  5
79B
  8
0
 62
     9
 10
0.0
 20
0.0
 30
0.0
 70
   128
 71
    19
 72
    17
 73
    18
  0
VERTEX
  5
79C
  8
0
 62
     9
 10
0.0
 20
0.0
 30
0.0
 70
   128
 71
     2
 72
    19
 73
    18
  0
VERTEX
  5
79D
  8
0
 62
     9
 10
0.0
 20
0.0
 30
0.0
 70
   128
 71
    18
 72
    21
 73
    20
  0
VERTEX
  5
79E
  8
0
 62
     9
 10
0.0
 20
0.0
 30
0.0
 70
   128
 71
    22
 72
     2
 73
     3
  0
VERTEX
  5
79F
  8
0
 62
     9
 10
0.0
 20
0.0
 30
0.0
 70
   128
 71
     3
 72
    23
 73
    22
  0
VERTEX
  5
7A0
  8
0
 62
     9
 10
0.0
 20
0.0
 30
0.0
 70
   128
 71
    25
 72
    20
 73
    24
  0
VERTEX
  5
7A1
  8
0
 62
     9
 10
0.0
 20
0.0
 30
0.0
 70
   128
 71
    25
 72
     1
 73
    20
  0
VERTEX
  5
7A2
  8
0
 62
     9
 10
0.0
 20
0.0
 30
0.0
 70
   128
 71
    19
 72
     2
 73
    22
  0
VERTEX
  5
7A3
  8
0
 62
     9
 10
0.0
 20
0.0
 30
0.0
 70
   128
 71
    26
 72
    24
 73
    21
  0
VERTEX
  5
7A4
  8
0
 62
     9
 10
0.0
 20
0.0
 30
0.0
 70
   128
 71
    16
 72
    27
 73
    21
  0
VERTEX
  5
7A5
  8
0
 62
     9
 10
0.0
 20
0.0
 30
0.0
 70
   128
 71
    18
 72
    16
 73
    21
  0
VERTEX
  5
7A6
  8
0
 62
     9
 10
0.0
 20
0.0
 30
0.0
 70
   128
 71
     5
 72
    28
 73
    27
  0
VERTEX
  5
7A7
  8
0
 62
     9
 10
0.0
 20
0.0
 30
0.0
 70
   128
 71
    16
 72
     5
 73
    27
  0
VERTEX
  5
7A8
  8
0
 62
     9
 10
0.0
 20
0.0
 30
0.0
 70
   128
 71
     6
 72
    29
 73
    28
  0
VERTEX
  5
7A9
  8
0
 62
     9
 10
0.0
 20
0.0
 30
0.0
 70
   128
 71
     5
 72
     6
 73
    28
  0
VERTEX
  5
7AA
  8
0
 62
     9
 10
0.0
 20
0.0
 30
0.0
 70
   128
 71
    29
 72
    11
 73
     9
  0
VERTEX
  5
7AB
  8
0
 62
     9
 10
0.0
 20
0.0
 30
0.0
 70
   128
 71
    29
 72
     6
 73
    11
  0
VERTEX
  5
7AC
  8
0
 62
     9
 10
0.0
 20
0.0
 30
0.0
 70
   128
 71
     9
 72
    11
 73
     8
  0
VERTEX
  5
7AD
  8
0
 62
     9
 10
0.0
 20
0.0
 30
0.0
 70
   128
 71
    20
 72
     1
 73
     2
  0
VERTEX
  5
7AE
  8
0
 62
     9
 10
0.0
 20
0.0
 30
0.0
 70
   128
 71
    20
 72
     2
 73
    18
  0
VERTEX
  5
7AF
  8
0
 62
     9
 10
0.0
 20
0.0
 30
0.0
 70
   128
 71
    30
 72
    26
 73
    27
  0
VERTEX
  5
7B0
  8
0
 62
     9
 10
0.0
 20
0.0
 30
0.0
 70
   128
 71
    20
 72
    21
 73
    24
  0
VERTEX
  5
7B1
  8
0
 62
     9
 10
0.0
 20
0.0
 30
0.0
 70
   128
 71
    31
 72
    30
 73
    28
  0
VERTEX
  5
7B2
  8
0
 62
     9
 10
0.0
 20
0.0
 30
0.0
 70
   128
 71
    21
 72
    27
 73
    26
  0
VERTEX
  5
7B3
  8
0
 62
     9
 10
0.0
 20
0.0
 30
0.0
 70
   128
 71
    32
 72
    31
 73
    29
  0
VERTEX
  5
7B4
  8
0
 62
     9
 10
0.0
 20
0.0
 30
0.0
 70
   128
 71
    27
 72
    28
 73
    30
  0
VERTEX
  5
7B5
  8
0
 62
     9
 10
0.0
 20
0.0
 30
0.0
 70
   128
 71
    14
 72
    32
 73
     9
  0
VERTEX
  5
7B6
  8
0
 62
     9
 10
0.0
 20
0.0
 30
0.0
 70
   128
 71
    28
 72
    29
 73
    31
  0
VERTEX
  5
7B7
  8
0
 62
     9
 10
0.0
 20
0.0
 30
0.0
 70
   128
 71
     9
 72
    10
 73
    14
  0
VERTEX
  5
7B8
  8
0
 62
     9
 10
0.0
 20
0.0
 30
0.0
 70
   128
 71
    29
 72
     9
 73
    32
  0
VERTEX
  5
7B9
  8
0
 62
     9
 10
0.0
 20
0.0
 30
0.0
 70
   128
 71
    35
 72
    34
 73
    33
  0
VERTEX
  5
7BA
  8
0
 62
     9
 10
0.0
 20
0.0
 30
0.0
 70
   128
 71
    38
 72
    37
 73
    36
  0
VERTEX
  5
7BB
  8
0
 62
     9
 10
0.0
 20
0.0
 30
0.0
 70
   128
 71
    36
 72
    39
 73
    38
  0
VERTEX
  5
7BC
  8
0
 62
     9
 10
0.0
 20
0.0
 30
0.0
 70
   128
 71
     1
 72
    40
 73
     3
  0
VERTEX
  5
7BD
  8
0
 62
     9
 10
0.0
 20
0.0
 30
0.0
 70
   128
 71
    39
 72
    23
 73
    41
  0
VERTEX
  5
7BE
  8
0
 62
     9
 10
0.0
 20
0.0
 30
0.0
 70
   128
 71
    39
 72
    41
 73
    38
  0
VERTEX
  5
7BF
  8
0
 62
     9
 10
0.0
 20
0.0
 30
0.0
 70
   128
 71
    41
 72
    23
 73
     3
  0
VERTEX
  5
7C0
  8
0
 62
     9
 10
0.0
 20
0.0
 30
0.0
 70
   128
 71
    42
 72
     1
 73
    25
  0
VERTEX
  5
7C1
  8
0
 62
     9
 10
0.0
 20
0.0
 30
0.0
 70
   128
 71
    43
 72
    36
 73
    37
  0
VERTEX
  5
7C2
  8
0
 62
     9
 10
0.0
 20
0.0
 30
0.0
 70
   128
 71
    44
 72
    43
 73
    37
  0
VERTEX
  5
7C3
  8
0
 62
     9
 10
0.0
 20
0.0
 30
0.0
 70
   128
 71
    44
 72
    45
 73
    43
  0
VERTEX
  5
7C4
  8
0
 62
     9
 10
0.0
 20
0.0
 30
0.0
 70
   128
 71
    44
 72
    46
 73
    45
  0
VERTEX
  5
7C5
  8
0
 62
     9
 10
0.0
 20
0.0
 30
0.0
 70
   128
 71
    47
 72
    45
 73
    46
  0
VERTEX
  5
7C6
  8
0
 62
     9
 10
0.0
 20
0.0
 30
0.0
 70
   128
 71
    34
 72
    47
 73
    46
  0
VERTEX
  5
7C7
  8
0
 62
     9
 10
0.0
 20
0.0
 30
0.0
 70
   128
 71
    46
 72
    49
 73
    48
  0
VERTEX
  5
7C8
  8
0
 62
     9
 10
0.0
 20
0.0
 30
0.0
 70
   128
 71
    50
 72
    34
 73
    35
  0
VERTEX
  5
7C9
  8
0
 62
     9
 10
0.0
 20
0.0
 30
0.0
 70
   128
 71
    35
 72
    51
 73
    50
  0
VERTEX
  5
7CA
  8
0
 62
     9
 10
0.0
 20
0.0
 30
0.0
 70
   128
 71
    53
 72
    48
 73
    52
  0
VERTEX
  5
7CB
  8
0
 62
     9
 10
0.0
 20
0.0
 30
0.0
 70
   128
 71
    53
 72
    33
 73
    48
  0
VERTEX
  5
7CC
  8
0
 62
     9
 10
0.0
 20
0.0
 30
0.0
 70
   128
 71
    47
 72
    34
 73
    50
  0
VERTEX
  5
7CD
  8
0
 62
     9
 10
0.0
 20
0.0
 30
0.0
 70
   128
 71
    54
 72
    52
 73
    49
  0
VERTEX
  5
7CE
  8
0
 62
     9
 10
0.0
 20
0.0
 30
0.0
 70
   128
 71
    44
 72
    55
 73
    49
  0
VERTEX
  5
7CF
  8
0
 62
     9
 10
0.0
 20
0.0
 30
0.0
 70
   128
 71
    46
 72
    44
 73
    49
  0
VERTEX
  5
7D0
  8
0
 62
     9
 10
0.0
 20
0.0
 30
0.0
 70
   128
 71
    37
 72
    56
 73
    55
  0
VERTEX
  5
7D1
  8
0
 62
     9
 10
0.0
 20
0.0
 30
0.0
 70
   128
 71
    44
 72
    37
 73
    55
  0
VERTEX
  5
7D2
  8
0
 62
     9
 10
0.0
 20
0.0
 30
0.0
 70
   128
 71
    38
 72
    57
 73
    56
  0
VERTEX
  5
7D3
  8
0
 62
     9
 10
0.0
 20
0.0
 30
0.0
 70
   128
 71
    37
 72
    38
 73
    56
  0
VERTEX
  5
7D4
  8
0
 62
     9
 10
0.0
 20
0.0
 30
0.0
 70
   128
 71
    57
 72
    41
 73
    40
  0
VERTEX
  5
7D5
  8
0
 62
     9
 10
0.0
 20
0.0
 30
0.0
 70
   128
 71
    57
 72
    38
 73
    41
  0
VERTEX
  5
7D6
  8
0
 62
     9
 10
0.0
 20
0.0
 30
0.0
 70
   128
 71
    40
 72
    41
 73
     3
  0
VERTEX
  5
7D7
  8
0
 62
     9
 10
0.0
 20
0.0
 30
0.0
 70
   128
 71
    48
 72
    33
 73
    34
  0
VERTEX
  5
7D8
  8
0
 62
     9
 10
0.0
 20
0.0
 30
0.0
 70
   128
 71
    48
 72
    34
 73
    46
  0
VERTEX
  5
7D9
  8
0
 62
     9
 10
0.0
 20
0.0
 30
0.0
 70
   128
 71
    58
 72
    54
 73
    55
  0
VERTEX
  5
7DA
  8
0
 62
     9
 10
0.0
 20
0.0
 30
0.0
 70
   128
 71
    48
 72
    49
 73
    52
  0
VERTEX
  5
7DB
  8
0
 62
     9
 10
0.0
 20
0.0
 30
0.0
 70
   128
 71
    59
 72
    58
 73
    56
  0
VERTEX
  5
7DC
  8
0
 62
     9
 10
0.0
 20
0.0
 30
0.0
 70
   128
 71
    49
 72
    55
 73
    54
  0
VERTEX
  5
7DD
  8
0
 62
     9
 10
0.0
 20
0.0
 30
0.0
 70
   128
 71
    60
 72
    59
 73
    57
  0
VERTEX
  5
7DE
  8
0
 62
     9
 10
0.0
 20
0.0
 30
0.0
 70
   128
 71
    55
 72
    56
 73
    58
  0
VERTEX
  5
7DF
  8
0
 62
     9
 10
0.0
 20
0.0
 30
0.0
 70
   128
 71
    42
 72
    60
 73
    40
  0
VERTEX
  5
7E0
  8
0
 62
     9
 10
0.0
 20
0.0
 30
0.0
 70
   128
 71
    56
 72
    57
 73
    59
  0
VERTEX
  5
7E1
  8
0
 62
     9
 10
0.0
 20
0.0
 30
0.0
 70
   128
 71
    40
 72
     1
 73
    42
  0
VERTEX
  5
7E2
  8
0
 62
     9
 10
0.0
 20
0.0
 30
0.0
 70
   128
 71
    57
 72
    40
 73
    60
  0
VERTEX
  5
7E3
  8
0
 62
     9
 10
0.0
 20
0.0
 30
0.0
 70
   128
 71
    63
 72
    62
 73
    61
  0
VERTEX
  5
7E4
  8
0
 62
     9
 10
0.0
 20
0.0
 30
0.0
 70
   128
 71
    66
 72
    65
 73
    64
  0
VERTEX
  5
7E5
  8
0
 62
     9
 10
0.0
 20
0.0
 30
0.0
 70
   128
 71
    64
 72
    67
 73
    66
  0
VERTEX
  5
7E6
  8
0
 62
     9
 10
0.0
 20
0.0
 30
0.0
 70
   128
 71
    33
 72
    68
 73
    35
  0
VERTEX
  5
7E7
  8
0
 62
     9
 10
0.0
 20
0.0
 30
0.0
 70
   128
 71
    67
 72
    51
 73
    69
  0
VERTEX
  5
7E8
  8
0
 62
     9
 10
0.0
 20
0.0
 30
0.0
 70
   128
 71
    67
 72
    69
 73
    66
  0
VERTEX
  5
7E9
  8
0
 62
     9
 10
0.0
 20
0.0
 30
0.0
 70
   128
 71
    69
 72
    51
 73
    35
  0
VERTEX
  5
7EA
  8
0
 62
     9
 10
0.0
 20
0.0
 30
0.0
 70
   128
 71
    70
 72
    33
 73
    53
  0
VERTEX
  5
7EB
  8
0
 62
     9
 10
0.0
 20
0.0
 30
0.0
 70
   128
 71
    71
 72
    64
 73
    65
  0
VERTEX
  5
7EC
  8
0
 62
     9
 10
0.0
 20
0.0
 30
0.0
 70
   128
 71
    72
 72
    71
 73
    65
  0
VERTEX
  5
7ED
  8
0
 62
     9
 10
0.0
 20
0.0
 30
0.0
 70
   128
 71
    72
 72
    73
 73
    71
  0
VERTEX
  5
7EE
  8
0
 62
     9
 10
0.0
 20
0.0
 30
0.0
 70
   128
 71
    72
 72
    74
 73
    73
  0
VERTEX
  5
7EF
  8
0
 62
     9
 10
0.0
 20
0.0
 30
0.0
 70
   128
 71
    75
 72
    73
 73
    74
  0
VERTEX
  5
7F0
  8
0
 62
     9
 10
0.0
 20
0.0
 30
0.0
 70
   128
 71
    62
 72
    75
 73
    74
  0
VERTEX
  5
7F1
  8
0
 62
     9
 10
0.0
 20
0.0
 30
0.0
 70
   128
 71
    74
 72
    77
 73
    76
  0
VERTEX
  5
7F2
  8
0
 62
     9
 10
0.0
 20
0.0
 30
0.0
 70
   128
 71
    78
 72
    62
 73
    63
  0
VERTEX
  5
7F3
  8
0
 62
     9
 10
0.0
 20
0.0
 30
0.0
 70
   128
 71
    63
 72
    79
 73
    78
  0
VERTEX
  5
7F4
  8
0
 62
     9
 10
0.0
 20
0.0
 30
0.0
 70
   128
 71
    81
 72
    76
 73
    80
  0
VERTEX
  5
7F5
  8
0
 62
     9
 10
0.0
 20
0.0
 30
0.0
 70
   128
 71
    81
 72
    61
 73
    76
  0
VERTEX
  5
7F6
  8
0
 62
     9
 10
0.0
 20
0.0
 30
0.0
 70
   128
 71
    75
 72
    62
 73
    78
  0
VERTEX
  5
7F7
  8
0
 62
     9
 10
0.0
 20
0.0
 30
0.0
 70
   128
 71
    82
 72
    80
 73
    77
  0
VERTEX
  5
7F8
  8
0
 62
     9
 10
0.0
 20
0.0
 30
0.0
 70
   128
 71
    72
 72
    83
 73
    77
  0
VERTEX
  5
7F9
  8
0
 62
     9
 10
0.0
 20
0.0
 30
0.0
 70
   128
 71
    74
 72
    72
 73
    77
  0
VERTEX
  5
7FA
  8
0
 62
     9
 10
0.0
 20
0.0
 30
0.0
 70
   128
 71
    65
 72
    84
 73
    83
  0
VERTEX
  5
7FB
  8
0
 62
     9
 10
0.0
 20
0.0
 30
0.0
 70
   128
 71
    72
 72
    65
 73
    83
  0
VERTEX
  5
7FC
  8
0
 62
     9
 10
0.0
 20
0.0
 30
0.0
 70
   128
 71
    66
 72
    85
 73
    84
  0
VERTEX
  5
7FD
  8
0
 62
     9
 10
0.0
 20
0.0
 30
0.0
 70
   128
 71
    65
 72
    66
 73
    84
  0
VERTEX
  5
7FE
  8
0
 62
     9
 10
0.0
 20
0.0
 30
0.0
 70
   128
 71
    85
 72
    69
 73
    68
  0
VERTEX
  5
7FF
  8
0
 62
     9
 10
0.0
 20
0.0
 30
0.0
 70
   128
 71
    85
 72
    66
 73
    69
  0
VERTEX
  5
800
  8
0
 62
     9
 10
0.0
 20
0.0
 30
0.0
 70
   128
 71
    68
 72
    69
 73
    35
  0
VERTEX
  5
801
  8
0
 62
     9
 10
0.0
 20
0.0
 30
0.0
 70
   128
 71
    76
 72
    61
 73
    62
  0
VERTEX
  5
802
  8
0
 62
     9
 10
0.0
 20
0.0
 30
0.0
 70
   128
 71
    76
 72
    62
 73
    74
  0
VERTEX
  5
803
  8
0
 62
     9
 10
0.0
 20
0.0
 30
0.0
 70
   128
 71
    86
 72
    82
 73
    83
  0
VERTEX
  5
804
  8
0
 62
     9
 10
0.0
 20
0.0
 30
0.0
 70
   128
 71
    76
 72
    77
 73
    80
  0
VERTEX
  5
805
  8
0
 62
     9
 10
0.0
 20
0.0
 30
0.0
 70
   128
 71
    87
 72
    86
 73
    84
  0
VERTEX
  5
806
  8
0
 62
     9
 10
0.0
 20
0.0
 30
0.0
 70
   128
 71
    77
 72
    83
 73
    82
  0
VERTEX
  5
807
  8
0
 62
     9
 10
0.0
 20
0.0
 30
0.0
 70
   128
 71
    88
 72
    87
 73
    85
  0
VERTEX
  5
808
  8
0
 62
     9
 10
0.0
 20
0.0
 30
0.0
 70
   128
 71
    83
 72
    84
 73
    86
  0
VERTEX
  5
809
  8
0
 62
     9
 10
0.0
 20
0.0
 30
0.0
 70
   128
 71
    70
 72
    88
 73
    68
  0
VERTEX
  5
80A
  8
0
 62
     9
 10
0.0
 20
0.0
 30
0.0
 70
   128
 71
    84
 72
    85
 73
    87
  0
VERTEX
  5
80B
  8
0
 62
     9
 10
0.0
 20
0.0
 30
0.0
 70
   128
 71
    68
 72
    33
 73
    70
  0
VERTEX
  5
80C
  8
0
 62
     9
 10
0.0
 20
0.0
 30
0.0
 70
   128
 71
    85
 72
    68
 73
    88
  0
VERTEX
  5
80D
  8
0
 62
     9
 10
0.0
 20
0.0
 30
0.0
 70
   128
 71
    91
 72
    90
 73
    89
  0
VERTEX
  5
80E
  8
0
 62
     9
 10
0.0
 20
0.0
 30
0.0
 70
   128
 71
    94
 72
    93
 73
    92
  0
VERTEX
  5
80F
  8
0
 62
     9
 10
0.0
 20
0.0
 30
0.0
 70
   128
 71
    91
 72
    96
 73
    95
  0
VERTEX
  5
810
  8
0
 62
     9
 10
0.0
 20
0.0
 30
0.0
 70
   128
 71
    89
 72
    97
 73
    91
  0
VERTEX
  5
811
  8
0
 62
     9
 10
0.0
 20
0.0
 30
0.0
 70
   128
 71
    95
 72
    98
 73
    13
  0
VERTEX
  5
812
  8
0
 62
     9
 10
0.0
 20
0.0
 30
0.0
 70
   128
 71
    63
 72
    61
 73
    99
  0
VERTEX
  5
813
  8
0
 62
     9
 10
0.0
 20
0.0
 30
0.0
 70
   128
 71
    92
 72
   100
 73
    94
  0
VERTEX
  5
814
  8
0
 62
     9
 10
0.0
 20
0.0
 30
0.0
 70
   128
 71
   101
 72
    61
 73
    81
  0
VERTEX
  5
815
  8
0
 62
     9
 10
0.0
 20
0.0
 30
0.0
 70
   128
 71
   102
 72
    79
 73
    63
  0
VERTEX
  5
816
  8
0
 62
     9
 10
0.0
 20
0.0
 30
0.0
 70
   128
 71
   102
 72
   103
 73
    79
  0
VERTEX
  5
817
  8
0
 62
     9
 10
0.0
 20
0.0
 30
0.0
 70
   128
 71
   103
 72
   102
 73
    93
  0
VERTEX
  5
818
  8
0
 62
     9
 10
0.0
 20
0.0
 30
0.0
 70
   128
 71
   100
 72
    92
 73
    97
  0
VERTEX
  5
819
  8
0
 62
     9
 10
0.0
 20
0.0
 30
0.0
 70
   128
 71
    93
 72
    94
 73
   103
  0
VERTEX
  5
81A
  8
0
 62
     9
 10
0.0
 20
0.0
 30
0.0
 70
   128
 71
    91
 72
   104
 73
    90
  0
VERTEX
  5
81B
  8
0
 62
     9
 10
0.0
 20
0.0
 30
0.0
 70
   128
 71
    97
 72
    89
 73
   100
  0
VERTEX
  5
81C
  8
0
 62
     9
 10
0.0
 20
0.0
 30
0.0
 70
   128
 71
   105
 72
   104
 73
     8
  0
VERTEX
  5
81D
  8
0
 62
     9
 10
0.0
 20
0.0
 30
0.0
 70
   128
 71
   105
 72
    90
 73
   104
  0
VERTEX
  5
81E
  8
0
 62
     9
 10
0.0
 20
0.0
 30
0.0
 70
   128
 71
   105
 72
     8
 73
    12
  0
VERTEX
  5
81F
  8
0
 62
     9
 10
0.0
 20
0.0
 30
0.0
 70
   128
 71
   104
 72
    10
 73
     8
  0
VERTEX
  5
820
  8
0
 62
     9
 10
0.0
 20
0.0
 30
0.0
 70
   128
 71
    13
 72
    10
 73
    95
  0
VERTEX
  5
821
  8
0
 62
     9
 10
0.0
 20
0.0
 30
0.0
 70
   128
 71
   106
 72
    98
 73
    96
  0
VERTEX
  5
822
  8
0
 62
     9
 10
0.0
 20
0.0
 30
0.0
 70
   128
 71
    97
 72
   107
 73
    96
  0
VERTEX
  5
823
  8
0
 62
     9
 10
0.0
 20
0.0
 30
0.0
 70
   128
 71
    91
 72
    97
 73
    96
  0
VERTEX
  5
824
  8
0
 62
     9
 10
0.0
 20
0.0
 30
0.0
 70
   128
 71
    92
 72
   108
 73
   107
  0
VERTEX
  5
825
  8
0
 62
     9
 10
0.0
 20
0.0
 30
0.0
 70
   128
 71
    97
 72
    92
 73
   107
  0
VERTEX
  5
826
  8
0
 62
     9
 10
0.0
 20
0.0
 30
0.0
 70
   128
 71
    93
 72
   109
 73
   108
  0
VERTEX
  5
827
  8
0
 62
     9
 10
0.0
 20
0.0
 30
0.0
 70
   128
 71
    92
 72
    93
 73
   108
  0
VERTEX
  5
828
  8
0
 62
     9
 10
0.0
 20
0.0
 30
0.0
 70
   128
 71
   109
 72
   102
 73
    99
  0
VERTEX
  5
829
  8
0
 62
     9
 10
0.0
 20
0.0
 30
0.0
 70
   128
 71
   109
 72
    93
 73
   102
  0
VERTEX
  5
82A
  8
0
 62
     9
 10
0.0
 20
0.0
 30
0.0
 70
   128
 71
    99
 72
   102
 73
    63
  0
VERTEX
  5
82B
  8
0
 62
     9
 10
0.0
 20
0.0
 30
0.0
 70
   128
 71
    95
 72
    10
 73
   104
  0
VERTEX
  5
82C
  8
0
 62
     9
 10
0.0
 20
0.0
 30
0.0
 70
   128
 71
    95
 72
   104
 73
    91
  0
VERTEX
  5
82D
  8
0
 62
     9
 10
0.0
 20
0.0
 30
0.0
 70
   128
 71
   110
 72
   106
 73
   107
  0
VERTEX
  5
82E
  8
0
 62
     9
 10
0.0
 20
0.0
 30
0.0
 70
   128
 71
    95
 72
    96
 73
    98
  0
VERTEX
  5
82F
  8
0
 62
     9
 10
0.0
 20
0.0
 30
0.0
 70
   128
 71
   111
 72
   110
 73
   108
  0
VERTEX
  5
830
  8
0
 62
     9
 10
0.0
 20
0.0
 30
0.0
 70
   128
 71
    96
 72
   107
 73
   106
  0
VERTEX
  5
831
  8
0
 62
     9
 10
0.0
 20
0.0
 30
0.0
 70
   128
 71
   112
 72
   111
 73
   109
  0
VERTEX
  5
832
  8
0
 62
     9
 10
0.0
 20
0.0
 30
0.0
 70
   128
 71
   107
 72
   108
 73
   110
  0
VERTEX
  5
833
  8
0
 62
     9
 10
0.0
 20
0.0
 30
0.0
 70
   128
 71
   101
 72
   112
 73
    99
  0
VERTEX
  5
834
  8
0
 62
     9
 10
0.0
 20
0.0
 30
0.0
 70
   128
 71
   108
 72
   109
 73
   111
  0
VERTEX
  5
835
  8
0
 62
     9
 10
0.0
 20
0.0
 30
0.0
 70
   128
 71
    99
 72
    61
 73
   101
  0
VERTEX
  5
836
  8
0
 62
     9
 10
0.0
 20
0.0
 30
0.0
 70
   128
 71
   109
 72
    99
 73
   112
  0
SEQEND
  5
837
  8
0
 62
     9
  0
ENDBLK
  5
83A
  8
0
  0
BLOCK
  8
0
  2
45
 70
     0
 10
0.0
 20
0.0
 30
0.0
  3
45
  1

  0
POLYLINE
  5
83C
  8
0
 62
     9
 66
     1
 10
0.0
 20
0.0
 30
0.0
 70
    64
 71
   124
 72
   196
  0
VERTEX
  5
83D
  8
0
 10
0.0000000000000053
 20
21.0
 30
107.9499206542969
 70
   192
  0
VERTEX
  5
83E
  8
0
 10
4.225430488586426
 20
67.0
 30
107.5716094970703
 70
   192
  0
VERTEX
  5
83F
  8
0
 10
-4.113371849060059
 20
67.0
 30
107.5716094970703
 70
   192
  0
VERTEX
  5
840
  8
0
 10
10.17071056365967
 20
18.34338760375977
 30
105.6436996459961
 70
   192
  0
VERTEX
  5
841
  8
0
 10
5.371575355529785
 20
20.28613662719727
 30
107.3220672607422
 70
   192
  0
VERTEX
  5
842
  8
0
 10
12.07484436035156
 20
67.0
 30
104.6830673217773
 70
   192
  0
VERTEX
  5
843
  8
0
 10
17.28459739685059
 20
11.93896961212158
 30
100.5611419677734
 70
   192
  0
VERTEX
  5
844
  8
0
 10
18.44762802124023
 20
67.0
 30
99.25761413574219
 70
   192
  0
VERTEX
  5
845
  8
0
 10
14.15259075164795
 20
15.51665019989014
 30
103.2836456298828
 70
   192
  0
VERTEX
  5
846
  8
0
 10
20.79122734069824
 20
-2.693898677825928
 30
96.05310821533203
 70
   192
  0
VERTEX
  5
847
  8
0
 10
20.83528327941895
 20
2.597413539886475
 30
95.83767700195312
 70
   192
  0
VERTEX
  5
848
  8
0
 10
19.56536293029785
 20
7.658335208892822
 30
97.80414581298828
 70
   192
  0
VERTEX
  5
849
  8
0
 10
24.0
 20
-36.0
 30
83.94992065429688
 70
   192
  0
VERTEX
  5
84A
  8
0
 10
22.52629852294922
 20
67.0
 30
92.21914672851562
 70
   192
  0
VERTEX
  5
84B
  8
0
 10
23.26153755187988
 20
-36.0
 30
89.85761260986328
 70
   192
  0
VERTEX
  5
84C
  8
0
 10
24.0
 20
67.0
 30
83.94992065429688
 70
   192
  0
VERTEX
  5
84D
  8
0
 10
-5.371203899383545
 20
20.28620147705078
 30
107.3221206665039
 70
   192
  0
VERTEX
  5
84E
  8
0
 10
-5.413615703582764
 20
-20.27299118041992
 30
107.3106079101562
 70
   192
  0
VERTEX
  5
84F
  8
0
 10
-10.21444416046143
 20
-18.31920433044434
 30
105.6231231689453
 70
   192
  0
VERTEX
  5
850
  8
0
 10
-5.268292903900146
 20
-36.0
 30
107.3645553588867
 70
   192
  0
VERTEX
  5
851
  8
0
 10
0.0000000000000027
 20
-21.0
 30
107.9499206542969
 70
   192
  0
VERTEX
  5
852
  8
0
 10
-14.39999961853027
 20
-36.0
 30
103.1499176025391
 70
   192
  0
VERTEX
  5
853
  8
0
 10
-14.18897724151611
 20
-15.48450756072998
 30
103.2570495605469
 70
   192
  0
VERTEX
  5
854
  8
0
 10
-17.31415176391602
 20
-11.89578819274902
 30
100.529899597168
 70
   192
  0
VERTEX
  5
855
  8
0
 10
-18.27493095397949
 20
67.0
 30
99.46997833251953
 70
   192
  0
VERTEX
  5
856
  8
0
 10
-19.5289192199707
 20
7.699946880340576
 30
97.93926239013672
 70
   192
  0
VERTEX
  5
857
  8
0
 10
-17.26327896118164
 20
11.95507526397705
 30
100.633674621582
 70
   192
  0
VERTEX
  5
858
  8
0
 10
-20.77876853942871
 20
2.77284574508667
 30
96.07275390625
 70
   192
  0
VERTEX
  5
859
  8
0
 10
-20.84379577636719
 20
-2.522978544235229
 30
95.8250732421875
 70
   192
  0
VERTEX
  5
85A
  8
0
 10
-20.37735939025879
 20
-36.0
 30
96.62916564941406
 70
   192
  0
VERTEX
  5
85B
  8
0
 10
-19.58906173706055
 20
-7.597074508666992
 30
97.77022552490234
 70
   192
  0
VERTEX
  5
85C
  8
0
 10
-22.52629852294922
 20
67.0
 30
92.21914672851562
 70
   192
  0
VERTEX
  5
85D
  8
0
 10
-24.0
 20
67.0
 30
83.94992065429688
 70
   192
  0
VERTEX
  5
85E
  8
0
 10
-23.26153755187988
 20
-36.0
 30
89.85761260986328
 70
   192
  0
VERTEX
  5
85F
  8
0
 10
-24.0
 20
-36.0
 30
83.94992065429688
 70
   192
  0
VERTEX
  5
860
  8
0
 10
14.17207431793213
 20
-15.5173807144165
 30
103.3532485961914
 70
   192
  0
VERTEX
  5
861
  8
0
 10
10.12649345397949
 20
-18.41591453552246
 30
105.7366256713867
 70
   192
  0
VERTEX
  5
862
  8
0
 10
14.39999961853027
 20
-36.0
 30
103.1499176025391
 70
   192
  0
VERTEX
  5
863
  8
0
 10
5.372856140136719
 20
-20.28621673583984
 30
107.3220901489258
 70
   192
  0
VERTEX
  5
864
  8
0
 10
5.268292903900146
 20
-36.0
 30
107.3645553588867
 70
   192
  0
VERTEX
  5
865
  8
0
 10
17.28443336486816
 20
-11.92398357391357
 30
100.6117553710938
 70
   192
  0
VERTEX
  5
866
  8
0
 10
20.37735939025879
 20
-36.0
 30
96.62916564941406
 70
   192
  0
VERTEX
  5
867
  8
0
 10
19.55251121520996
 20
-7.63724946975708
 30
97.90624237060547
 70
   192
  0
VERTEX
  5
868
  8
0
 10
-14.15364646911621
 20
15.53408241271973
 30
103.3664245605469
 70
   192
  0
VERTEX
  5
869
  8
0
 10
-10.11751174926758
 20
18.42176246643066
 30
105.7414627075195
 70
   192
  0
VERTEX
  5
86A
  8
0
 10
-11.87787342071533
 20
67.0
 30
104.7788467407227
 70
   192
  0
VERTEX
  5
86B
  8
0
 10
-16.79999923706055
 20
12.60000038146973
 30
146.4499206542969
 70
   192
  0
VERTEX
  5
86C
  8
0
 10
-20.4878044128418
 20
4.609756469726562
 30
146.4499206542969
 70
   192
  0
VERTEX
  5
86D
  8
0
 10
-11.09433937072754
 20
17.8301887512207
 30
146.4499206542969
 70
   192
  0
VERTEX
  5
86E
  8
0
 10
-5.169230937957764
 20
20.35384750366211
 30
146.4499206542969
 70
   192
  0
VERTEX
  5
86F
  8
0
 10
0.0000000000000087
 20
21.0
 30
146.4499206542969
 70
   192
  0
VERTEX
  5
870
  8
0
 10
-20.4878044128418
 20
-4.609755516052246
 30
146.4499206542969
 70
   192
  0
VERTEX
  5
871
  8
0
 10
-16.79999923706055
 20
-12.59999942779541
 30
146.4499206542969
 70
   192
  0
VERTEX
  5
872
  8
0
 10
-11.09433937072754
 20
-17.8301887512207
 30
146.4499206542969
 70
   192
  0
VERTEX
  5
873
  8
0
 10
-5.169230937957764
 20
-20.35384559631348
 30
146.4499206542969
 70
   192
  0
VERTEX
  5
874
  8
0
 10
0.0000000000000113
 20
-21.0
 30
146.4499206542969
 70
   192
  0
VERTEX
  5
875
  8
0
 10
4.609755992889404
 20
-20.4878044128418
 30
4.249919891357422
 70
   192
  0
VERTEX
  5
876
  8
0
 10
7.813991069793701
 20
-19.50864028930664
 30
61.23302459716797
 70
   192
  0
VERTEX
  5
877
  8
0
 10
2.685154914855957
 20
-20.80289459228516
 30
60.12496948242188
 70
   192
  0
VERTEX
  5
878
  8
0
 10
-7.883964061737061
 20
-19.42447662353516
 30
61.33678436279297
 70
   192
  0
VERTEX
  5
879
  8
0
 10
-4.609755992889404
 20
-20.4878044128418
 30
4.249919891357422
 70
   192
  0
VERTEX
  5
87A
  8
0
 10
-2.746242523193359
 20
-20.80917549133301
 30
60.1194953918457
 70
   192
  0
VERTEX
  5
87B
  8
0
 10
-12.60000038146973
 20
-16.79999923706055
 30
4.249919891357422
 70
   192
  0
VERTEX
  5
87C
  8
0
 10
-12.29906463623047
 20
-17.00548553466797
 30
63.40056228637695
 70
   192
  0
VERTEX
  5
87D
  8
0
 10
-15.87838268280029
 20
-13.74149990081787
 30
65.96867370605469
 70
   192
  0
VERTEX
  5
87E
  8
0
 10
-20.35384559631348
 20
-5.169230461120605
 30
4.249919891357422
 70
   192
  0
VERTEX
  5
87F
  8
0
 10
-17.8301887512207
 20
-11.09433937072754
 30
4.249919891357422
 70
   192
  0
VERTEX
  5
880
  8
0
 10
-18.60122299194336
 20
-9.799470901489258
 30
68.90814208984375
 70
   192
  0
VERTEX
  5
881
  8
0
 10
-21.0
 20
0.0000004136001621
 30
72.33097076416016
 70
   192
  0
VERTEX
  5
882
  8
0
 10
-20.31228446960449
 20
-5.21801233291626
 30
71.05773162841797
 70
   192
  0
VERTEX
  5
883
  8
0
 10
-21.0
 20
0.0000004136001905
 30
4.249919891357422
 70
   192
  0
VERTEX
  5
884
  8
0
 10
12.60000038146973
 20
-16.79999923706055
 30
4.249919891357422
 70
   192
  0
VERTEX
  5
885
  8
0
 10
15.8862361907959
 20
-13.74370384216309
 30
65.94103240966797
 70
   192
  0
VERTEX
  5
886
  8
0
 10
12.30322551727295
 20
-17.03750228881836
 30
63.31214141845703
 70
   192
  0
VERTEX
  5
887
  8
0
 10
17.8301887512207
 20
-11.09433937072754
 30
4.249919891357422
 70
   192
  0
VERTEX
  5
888
  8
0
 10
18.57586288452148
 20
-9.79400634765625
 30
68.67013549804688
 70
   192
  0
VERTEX
  5
889
  8
0
 10
20.35384559631348
 20
-5.169230461120605
 30
4.249919891357422
 70
   192
  0
VERTEX
  5
88A
  8
0
 10
20.31425666809082
 20
-5.210598468780518
 30
71.06129455566406
 70
   192
  0
VERTEX
  5
88B
  8
0
 10
21.0
 20
0.0000004136001905
 30
4.249919891357422
 70
   192
  0
VERTEX
  5
88C
  8
0
 10
21.0
 20
0.0000004136001621
 30
72.33097076416016
 70
   192
  0
VERTEX
  5
88D
  8
0
 10
-20.31357765197754
 20
5.213062286376953
 30
71.06009674072266
 70
   192
  0
VERTEX
  5
88E
  8
0
 10
-15.88331890106201
 20
13.74782848358154
 30
65.93795776367188
 70
   192
  0
VERTEX
  5
88F
  8
0
 10
-12.60000038146973
 20
16.80000114440918
 30
4.249919891357422
 70
   192
  0
VERTEX
  5
890
  8
0
 10
-17.8301887512207
 20
11.09434032440186
 30
4.249919891357422
 70
   192
  0
VERTEX
  5
891
  8
0
 10
-18.57238388061523
 20
9.798954010009766
 30
68.66675567626953
 70
   192
  0
VERTEX
  5
892
  8
0
 10
-20.35384559631348
 20
5.169231414794922
 30
4.249919891357422
 70
   192
  0
VERTEX
  5
893
  8
0
 10
-4.609755992889404
 20
20.4878044128418
 30
4.249919891357422
 70
   192
  0
VERTEX
  5
894
  8
0
 10
-2.682209491729736
 20
20.80468940734863
 30
60.12339782714844
 70
   192
  0
VERTEX
  5
895
  8
0
 10
2.733586072921753
 20
20.81169509887695
 30
60.11729049682617
 70
   192
  0
VERTEX
  5
896
  8
0
 10
-7.807400703430176
 20
19.50875473022461
 30
61.23290252685547
 70
   192
  0
VERTEX
  5
897
  8
0
 10
12.60000038146973
 20
16.80000114440918
 30
4.249919891357422
 70
   192
  0
VERTEX
  5
898
  8
0
 10
7.87557315826416
 20
19.42712593078613
 30
61.33445739746094
 70
   192
  0
VERTEX
  5
899
  8
0
 10
12.29297351837158
 20
17.01033973693848
 30
63.3966064453125
 70
   192
  0
VERTEX
  5
89A
  8
0
 10
4.609755992889404
 20
20.4878044128418
 30
4.249919891357422
 70
   192
  0
VERTEX
  5
89B
  8
0
 10
17.8301887512207
 20
11.09434032440186
 30
4.249919891357422
 70
   192
  0
VERTEX
  5
89C
  8
0
 10
15.87220859527588
 20
13.74877452850342
 30
65.96314239501953
 70
   192
  0
VERTEX
  5
89D
  8
0
 10
18.59798431396484
 20
9.805801391601562
 30
68.90432739257812
 70
   192
  0
VERTEX
  5
89E
  8
0
 10
20.35384559631348
 20
5.169231414794922
 30
4.249919891357422
 70
   192
  0
VERTEX
  5
89F
  8
0
 10
20.31119728088379
 20
5.221872806549072
 30
71.05583953857422
 70
   192
  0
VERTEX
  5
8A0
  8
0
 10
-12.3060245513916
 20
17.03646469116211
 30
63.31307983398438
 70
   192
  0
VERTEX
  5
8A1
  8
0
 10
5.169230937957764
 20
20.35384750366211
 30
146.4499206542969
 70
   192
  0
VERTEX
  5
8A2
  8
0
 10
20.4878044128418
 20
4.609756469726562
 30
146.4499206542969
 70
   192
  0
VERTEX
  5
8A3
  8
0
 10
16.79999923706055
 20
12.60000038146973
 30
146.4499206542969
 70
   192
  0
VERTEX
  5
8A4
  8
0
 10
11.09433937072754
 20
17.8301887512207
 30
146.4499206542969
 70
   192
  0
VERTEX
  5
8A5
  8
0
 10
16.79999923706055
 20
-12.59999942779541
 30
146.4499206542969
 70
   192
  0
VERTEX
  5
8A6
  8
0
 10
11.09433937072754
 20
-17.8301887512207
 30
146.4499206542969
 70
   192
  0
VERTEX
  5
8A7
  8
0
 10
20.4878044128418
 20
-4.609755516052246
 30
146.4499206542969
 70
   192
  0
VERTEX
  5
8A8
  8
0
 10
5.169230937957764
 20
-20.35384559631348
 30
146.4499206542969
 70
   192
  0
VERTEX
  5
8A9
  8
0
 10
23.26153755187988
 20
-36.0
 30
78.04222869873047
 70
   192
  0
VERTEX
  5
8AA
  8
0
 10
5.268292903900146
 20
-36.0
 30
60.53528594970703
 70
   192
  0
VERTEX
  5
8AB
  8
0
 10
20.37735939025879
 20
-36.0
 30
71.27067565917969
 70
   192
  0
VERTEX
  5
8AC
  8
0
 10
-20.37735939025879
 20
-36.0
 30
71.27067565917969
 70
   192
  0
VERTEX
  5
8AD
  8
0
 10
-4.205111980438232
 20
67.0
 30
60.3226318359375
 70
   192
  0
VERTEX
  5
8AE
  8
0
 10
4.100742816925049
 20
67.0
 30
60.3226318359375
 70
   192
  0
VERTEX
  5
8AF
  8
0
 10
-18.45058631896973
 20
67.0
 30
68.64042663574219
 70
   192
  0
VERTEX
  5
8B0
  8
0
 10
-22.52062225341797
 20
67.0
 30
75.67039489746094
 70
   192
  0
VERTEX
  5
8B1
  8
0
 10
-23.26153755187988
 20
-36.0
 30
78.04222869873047
 70
   192
  0
VERTEX
  5
8B2
  8
0
 10
-12.08338165283203
 20
67.0
 30
63.22700881958008
 70
   192
  0
VERTEX
  5
8B3
  8
0
 10
-5.268292903900146
 20
-36.0
 30
60.53528594970703
 70
   192
  0
VERTEX
  5
8B4
  8
0
 10
-14.39999961853027
 20
-36.0
 30
64.74991607666016
 70
   192
  0
VERTEX
  5
8B5
  8
0
 10
14.39999961853027
 20
-36.0
 30
64.74991607666016
 70
   192
  0
VERTEX
  5
8B6
  8
0
 10
11.87170600891113
 20
67.0
 30
63.1252555847168
 70
   192
  0
VERTEX
  5
8B7
  8
0
 10
22.52062225341797
 20
67.0
 30
75.67039489746094
 70
   192
  0
VERTEX
  5
8B8
  8
0
 10
18.28753662109375
 20
67.0
 30
68.43653869628906
 70
   192
  0
VERTEX
  5
8B9
  8
0
 62
     9
 10
0.0
 20
0.0
 30
0.0
 70
   128
 71
     3
 72
     2
 73
     1
  0
VERTEX
  5
8BA
  8
0
 62
     9
 10
0.0
 20
0.0
 30
0.0
 70
   128
 71
     5
 72
     2
 73
     4
  0
VERTEX
  5
8BB
  8
0
 62
     9
 10
0.0
 20
0.0
 30
0.0
 70
   128
 71
     5
 72
     1
 73
     2
  0
VERTEX
  5
8BC
  8
0
 62
     9
 10
0.0
 20
0.0
 30
0.0
 70
   128
 71
     8
 72
     7
 73
     6
  0
VERTEX
  5
8BD
  8
0
 62
     9
 10
0.0
 20
0.0
 30
0.0
 70
   128
 71
     9
 72
     6
 73
     7
  0
VERTEX
  5
8BE
  8
0
 62
     9
 10
0.0
 20
0.0
 30
0.0
 70
   128
 71
    11
 72
    10
 73
     8
  0
VERTEX
  5
8BF
  8
0
 62
     9
 10
0.0
 20
0.0
 30
0.0
 70
   128
 71
     8
 72
    11
 73
    12
  0
VERTEX
  5
8C0
  8
0
 62
     9
 10
0.0
 20
0.0
 30
0.0
 70
   128
 71
    15
 72
    14
 73
    13
  0
VERTEX
  5
8C1
  8
0
 62
     9
 10
0.0
 20
0.0
 30
0.0
 70
   128
 71
    14
 72
    16
 73
    13
  0
VERTEX
  5
8C2
  8
0
 62
     9
 10
0.0
 20
0.0
 30
0.0
 70
   128
 71
    17
 72
     3
 73
     1
  0
VERTEX
  5
8C3
  8
0
 62
     9
 10
0.0
 20
0.0
 30
0.0
 70
   128
 71
    20
 72
    19
 73
    18
  0
VERTEX
  5
8C4
  8
0
 62
     9
 10
0.0
 20
0.0
 30
0.0
 70
   128
 71
    21
 72
    20
 73
    18
  0
VERTEX
  5
8C5
  8
0
 62
     9
 10
0.0
 20
0.0
 30
0.0
 70
   128
 71
    24
 72
    23
 73
    22
  0
VERTEX
  5
8C6
  8
0
 62
     9
 10
0.0
 20
0.0
 30
0.0
 70
   128
 71
    27
 72
    26
 73
    25
  0
VERTEX
  5
8C7
  8
0
 62
     9
 10
0.0
 20
0.0
 30
0.0
 70
   128
 71
    30
 72
    29
 73
    28
  0
VERTEX
  5
8C8
  8
0
 62
     9
 10
0.0
 20
0.0
 30
0.0
 70
   128
 71
    29
 72
    31
 73
    30
  0
VERTEX
  5
8C9
  8
0
 62
     9
 10
0.0
 20
0.0
 30
0.0
 70
   128
 71
    34
 72
    33
 73
    32
  0
VERTEX
  5
8CA
  8
0
 62
     9
 10
0.0
 20
0.0
 30
0.0
 70
   128
 71
    35
 72
    33
 73
    34
  0
VERTEX
  5
8CB
  8
0
 62
     9
 10
0.0
 20
0.0
 30
0.0
 70
   128
 71
    38
 72
    37
 73
    36
  0
VERTEX
  5
8CC
  8
0
 62
     9
 10
0.0
 20
0.0
 30
0.0
 70
   128
 71
     6
 72
     4
 73
     2
  0
VERTEX
  5
8CD
  8
0
 62
     9
 10
0.0
 20
0.0
 30
0.0
 70
   128
 71
    40
 72
    39
 73
    37
  0
VERTEX
  5
8CE
  8
0
 62
     9
 10
0.0
 20
0.0
 30
0.0
 70
   128
 71
    38
 72
    36
 73
    41
  0
VERTEX
  5
8CF
  8
0
 62
     9
 10
0.0
 20
0.0
 30
0.0
 70
   128
 71
     9
 72
     4
 73
     6
  0
VERTEX
  5
8D0
  8
0
 62
     9
 10
0.0
 20
0.0
 30
0.0
 70
   128
 71
    41
 72
    43
 73
    42
  0
VERTEX
  5
8D1
  8
0
 62
     9
 10
0.0
 20
0.0
 30
0.0
 70
   128
 71
    12
 72
     7
 73
     8
  0
VERTEX
  5
8D2
  8
0
 62
     9
 10
0.0
 20
0.0
 30
0.0
 70
   128
 71
    43
 72
    10
 73
    42
  0
VERTEX
  5
8D3
  8
0
 62
     9
 10
0.0
 20
0.0
 30
0.0
 70
   128
 71
    10
 72
    14
 73
    15
  0
VERTEX
  5
8D4
  8
0
 62
     9
 10
0.0
 20
0.0
 30
0.0
 70
   128
 71
     8
 72
    14
 73
    10
  0
VERTEX
  5
8D5
  8
0
 62
     9
 10
0.0
 20
0.0
 30
0.0
 70
   128
 71
    10
 72
    15
 73
    42
  0
VERTEX
  5
8D6
  8
0
 62
     9
 10
0.0
 20
0.0
 30
0.0
 70
   128
 71
    41
 72
    42
 73
    38
  0
VERTEX
  5
8D7
  8
0
 62
     9
 10
0.0
 20
0.0
 30
0.0
 70
   128
 71
    37
 72
    38
 73
    40
  0
VERTEX
  5
8D8
  8
0
 62
     9
 10
0.0
 20
0.0
 30
0.0
 70
   128
 71
    21
 72
    40
 73
    20
  0
VERTEX
  5
8D9
  8
0
 62
     9
 10
0.0
 20
0.0
 30
0.0
 70
   128
 71
    40
 72
    21
 73
    39
  0
VERTEX
  5
8DA
  8
0
 62
     9
 10
0.0
 20
0.0
 30
0.0
 70
   128
 71
    46
 72
    45
 73
    44
  0
VERTEX
  5
8DB
  8
0
 62
     9
 10
0.0
 20
0.0
 30
0.0
 70
   128
 71
    22
 72
    19
 73
    20
  0
VERTEX
  5
8DC
  8
0
 62
     9
 10
0.0
 20
0.0
 30
0.0
 70
   128
 71
     3
 72
    17
 73
    45
  0
VERTEX
  5
8DD
  8
0
 62
     9
 10
0.0
 20
0.0
 30
0.0
 70
   128
 71
    46
 72
    44
 73
    27
  0
VERTEX
  5
8DE
  8
0
 62
     9
 10
0.0
 20
0.0
 30
0.0
 70
   128
 71
    23
 72
    19
 73
    22
  0
VERTEX
  5
8DF
  8
0
 62
     9
 10
0.0
 20
0.0
 30
0.0
 70
   128
 71
    24
 72
    30
 73
    31
  0
VERTEX
  5
8E0
  8
0
 62
     9
 10
0.0
 20
0.0
 30
0.0
 70
   128
 71
    24
 72
    22
 73
    30
  0
VERTEX
  5
8E1
  8
0
 62
     9
 10
0.0
 20
0.0
 30
0.0
 70
   128
 71
    25
 72
    26
 73
    28
  0
VERTEX
  5
8E2
  8
0
 62
     9
 10
0.0
 20
0.0
 30
0.0
 70
   128
 71
    28
 72
    34
 73
    32
  0
VERTEX
  5
8E3
  8
0
 62
     9
 10
0.0
 20
0.0
 30
0.0
 70
   128
 71
    30
 72
    34
 73
    28
  0
VERTEX
  5
8E4
  8
0
 62
     9
 10
0.0
 20
0.0
 30
0.0
 70
   128
 71
    28
 72
    32
 73
    25
  0
VERTEX
  5
8E5
  8
0
 62
     9
 10
0.0
 20
0.0
 30
0.0
 70
   128
 71
    27
 72
    25
 73
    46
  0
VERTEX
  5
8E6
  8
0
 62
     9
 10
0.0
 20
0.0
 30
0.0
 70
   128
 71
    45
 72
    46
 73
     3
  0
VERTEX
  5
8E7
  8
0
 62
     9
 10
0.0
 20
0.0
 30
0.0
 70
   128
 71
    48
 72
    26
 73
    47
  0
VERTEX
  5
8E8
  8
0
 62
     9
 10
0.0
 20
0.0
 30
0.0
 70
   128
 71
    44
 72
    47
 73
    27
  0
VERTEX
  5
8E9
  8
0
 62
     9
 10
0.0
 20
0.0
 30
0.0
 70
   128
 71
    47
 72
    26
 73
    27
  0
VERTEX
  5
8EA
  8
0
 62
     9
 10
0.0
 20
0.0
 30
0.0
 70
   128
 71
    49
 72
    44
 73
    45
  0
VERTEX
  5
8EB
  8
0
 62
     9
 10
0.0
 20
0.0
 30
0.0
 70
   128
 71
    44
 72
    49
 73
    47
  0
VERTEX
  5
8EC
  8
0
 62
     9
 10
0.0
 20
0.0
 30
0.0
 70
   128
 71
    45
 72
    17
 73
    50
  0
VERTEX
  5
8ED
  8
0
 62
     9
 10
0.0
 20
0.0
 30
0.0
 70
   128
 71
    50
 72
    49
 73
    45
  0
VERTEX
  5
8EE
  8
0
 62
     9
 10
0.0
 20
0.0
 30
0.0
 70
   128
 71
    17
 72
     1
 73
    50
  0
VERTEX
  5
8EF
  8
0
 62
     9
 10
0.0
 20
0.0
 30
0.0
 70
   128
 71
     1
 72
    51
 73
    50
  0
VERTEX
  5
8F0
  8
0
 62
     9
 10
0.0
 20
0.0
 30
0.0
 70
   128
 71
    48
 72
    28
 73
    26
  0
VERTEX
  5
8F1
  8
0
 62
     9
 10
0.0
 20
0.0
 30
0.0
 70
   128
 71
    52
 72
    29
 73
    48
  0
VERTEX
  5
8F2
  8
0
 62
     9
 10
0.0
 20
0.0
 30
0.0
 70
   128
 71
    28
 72
    48
 73
    29
  0
VERTEX
  5
8F3
  8
0
 62
     9
 10
0.0
 20
0.0
 30
0.0
 70
   128
 71
    31
 72
    52
 73
    53
  0
VERTEX
  5
8F4
  8
0
 62
     9
 10
0.0
 20
0.0
 30
0.0
 70
   128
 71
    52
 72
    31
 73
    29
  0
VERTEX
  5
8F5
  8
0
 62
     9
 10
0.0
 20
0.0
 30
0.0
 70
   128
 71
    24
 72
    53
 73
    23
  0
VERTEX
  5
8F6
  8
0
 62
     9
 10
0.0
 20
0.0
 30
0.0
 70
   128
 71
    24
 72
    31
 73
    53
  0
VERTEX
  5
8F7
  8
0
 62
     9
 10
0.0
 20
0.0
 30
0.0
 70
   128
 71
    54
 72
    19
 73
    23
  0
VERTEX
  5
8F8
  8
0
 62
     9
 10
0.0
 20
0.0
 30
0.0
 70
   128
 71
    23
 72
    53
 73
    54
  0
VERTEX
  5
8F9
  8
0
 62
     9
 10
0.0
 20
0.0
 30
0.0
 70
   128
 71
    18
 72
    19
 73
    55
  0
VERTEX
  5
8FA
  8
0
 62
     9
 10
0.0
 20
0.0
 30
0.0
 70
   128
 71
    54
 72
    55
 73
    19
  0
VERTEX
  5
8FB
  8
0
 62
     9
 10
0.0
 20
0.0
 30
0.0
 70
   128
 71
    55
 72
    21
 73
    18
  0
VERTEX
  5
8FC
  8
0
 62
     9
 10
0.0
 20
0.0
 30
0.0
 70
   128
 71
    56
 72
    21
 73
    55
  0
VERTEX
  5
8FD
  8
0
 62
     9
 10
0.0
 20
0.0
 30
0.0
 70
   128
 71
    59
 72
    58
 73
    57
  0
VERTEX
  5
8FE
  8
0
 62
     9
 10
0.0
 20
0.0
 30
0.0
 70
   128
 71
    62
 72
    61
 73
    60
  0
VERTEX
  5
8FF
  8
0
 62
     9
 10
0.0
 20
0.0
 30
0.0
 70
   128
 71
    57
 72
    62
 73
    59
  0
VERTEX
  5
900
  8
0
 62
     9
 10
0.0
 20
0.0
 30
0.0
 70
   128
 71
    57
 72
    61
 73
    62
  0
VERTEX
  5
901
  8
0
 62
     9
 10
0.0
 20
0.0
 30
0.0
 70
   128
 71
    60
 72
    61
 73
    63
  0
VERTEX
  5
902
  8
0
 62
     9
 10
0.0
 20
0.0
 30
0.0
 70
   128
 71
    65
 72
    64
 73
    63
  0
VERTEX
  5
903
  8
0
 62
     9
 10
0.0
 20
0.0
 30
0.0
 70
   128
 71
    63
 72
    64
 73
    60
  0
VERTEX
  5
904
  8
0
 62
     9
 10
0.0
 20
0.0
 30
0.0
 70
   128
 71
    68
 72
    67
 73
    66
  0
VERTEX
  5
905
  8
0
 62
     9
 10
0.0
 20
0.0
 30
0.0
 70
   128
 71
    67
 72
    65
 73
    63
  0
VERTEX
  5
906
  8
0
 62
     9
 10
0.0
 20
0.0
 30
0.0
 70
   128
 71
    70
 72
    66
 73
    69
  0
VERTEX
  5
907
  8
0
 62
     9
 10
0.0
 20
0.0
 30
0.0
 70
   128
 71
    66
 72
    71
 73
    69
  0
VERTEX
  5
908
  8
0
 62
     9
 10
0.0
 20
0.0
 30
0.0
 70
   128
 71
    68
 72
    66
 73
    70
  0
VERTEX
  5
909
  8
0
 62
     9
 10
0.0
 20
0.0
 30
0.0
 70
   128
 71
    68
 72
    65
 73
    67
  0
VERTEX
  5
90A
  8
0
 62
     9
 10
0.0
 20
0.0
 30
0.0
 70
   128
 71
    57
 72
    58
 73
    72
  0
VERTEX
  5
90B
  8
0
 62
     9
 10
0.0
 20
0.0
 30
0.0
 70
   128
 71
    72
 72
    74
 73
    73
  0
VERTEX
  5
90C
  8
0
 62
     9
 10
0.0
 20
0.0
 30
0.0
 70
   128
 71
    58
 72
    74
 73
    72
  0
VERTEX
  5
90D
  8
0
 62
     9
 10
0.0
 20
0.0
 30
0.0
 70
   128
 71
    73
 72
    76
 73
    75
  0
VERTEX
  5
90E
  8
0
 62
     9
 10
0.0
 20
0.0
 30
0.0
 70
   128
 71
    75
 72
    72
 73
    73
  0
VERTEX
  5
90F
  8
0
 62
     9
 10
0.0
 20
0.0
 30
0.0
 70
   128
 71
    78
 72
    77
 73
    76
  0
VERTEX
  5
910
  8
0
 62
     9
 10
0.0
 20
0.0
 30
0.0
 70
   128
 71
    75
 72
    76
 73
    77
  0
VERTEX
  5
911
  8
0
 62
     9
 10
0.0
 20
0.0
 30
0.0
 70
   128
 71
    78
 72
    79
 73
    77
  0
VERTEX
  5
912
  8
0
 62
     9
 10
0.0
 20
0.0
 30
0.0
 70
   128
 71
    80
 72
    79
 73
    78
  0
VERTEX
  5
913
  8
0
 62
     9
 10
0.0
 20
0.0
 30
0.0
 70
   128
 71
    69
 72
    71
 73
    81
  0
VERTEX
  5
914
  8
0
 62
     9
 10
0.0
 20
0.0
 30
0.0
 70
   128
 71
    84
 72
    83
 73
    82
  0
VERTEX
  5
915
  8
0
 62
     9
 10
0.0
 20
0.0
 30
0.0
 70
   128
 71
    86
 72
    84
 73
    85
  0
VERTEX
  5
916
  8
0
 62
     9
 10
0.0
 20
0.0
 30
0.0
 70
   128
 71
    89
 72
    88
 73
    87
  0
VERTEX
  5
917
  8
0
 62
     9
 10
0.0
 20
0.0
 30
0.0
 70
   128
 71
    87
 72
    90
 73
    83
  0
VERTEX
  5
918
  8
0
 62
     9
 10
0.0
 20
0.0
 30
0.0
 70
   128
 71
    93
 72
    92
 73
    91
  0
VERTEX
  5
919
  8
0
 62
     9
 10
0.0
 20
0.0
 30
0.0
 70
   128
 71
    94
 72
    92
 73
    89
  0
VERTEX
  5
91A
  8
0
 62
     9
 10
0.0
 20
0.0
 30
0.0
 70
   128
 71
    97
 72
    96
 73
    95
  0
VERTEX
  5
91B
  8
0
 62
     9
 10
0.0
 20
0.0
 30
0.0
 70
   128
 71
    91
 72
    95
 73
    96
  0
VERTEX
  5
91C
  8
0
 62
     9
 10
0.0
 20
0.0
 30
0.0
 70
   128
 71
    80
 72
    99
 73
    98
  0
VERTEX
  5
91D
  8
0
 62
     9
 10
0.0
 20
0.0
 30
0.0
 70
   128
 71
    98
 72
    97
 73
    95
  0
VERTEX
  5
91E
  8
0
 62
     9
 10
0.0
 20
0.0
 30
0.0
 70
   128
 71
    97
 72
    98
 73
    99
  0
VERTEX
  5
91F
  8
0
 62
     9
 10
0.0
 20
0.0
 30
0.0
 70
   128
 71
    80
 72
    98
 73
    79
  0
VERTEX
  5
920
  8
0
 62
     9
 10
0.0
 20
0.0
 30
0.0
 70
   128
 71
    92
 72
    94
 73
    91
  0
VERTEX
  5
921
  8
0
 62
     9
 10
0.0
 20
0.0
 30
0.0
 70
   128
 71
    91
 72
    96
 73
    93
  0
VERTEX
  5
922
  8
0
 62
     9
 10
0.0
 20
0.0
 30
0.0
 70
   128
 71
    87
 72
    88
 73
    90
  0
VERTEX
  5
923
  8
0
 62
     9
 10
0.0
 20
0.0
 30
0.0
 70
   128
 71
    94
 72
    89
 73
    87
  0
VERTEX
  5
924
  8
0
 62
     9
 10
0.0
 20
0.0
 30
0.0
 70
   128
 71
    82
 72
    83
 73
   100
  0
VERTEX
  5
925
  8
0
 62
     9
 10
0.0
 20
0.0
 30
0.0
 70
   128
 71
    90
 72
   100
 73
    83
  0
VERTEX
  5
926
  8
0
 62
     9
 10
0.0
 20
0.0
 30
0.0
 70
   128
 71
    85
 72
    81
 73
    86
  0
VERTEX
  5
927
  8
0
 62
     9
 10
0.0
 20
0.0
 30
0.0
 70
   128
 71
    85
 72
    84
 73
    82
  0
VERTEX
  5
928
  8
0
 62
     9
 10
0.0
 20
0.0
 30
0.0
 70
   128
 71
    86
 72
    81
 73
    71
  0
VERTEX
  5
929
  8
0
 62
     9
 10
0.0
 20
0.0
 30
0.0
 70
   128
 71
    51
 72
     1
 73
   101
  0
VERTEX
  5
92A
  8
0
 62
     9
 10
0.0
 20
0.0
 30
0.0
 70
   128
 71
   102
 72
    12
 73
    11
  0
VERTEX
  5
92B
  8
0
 62
     9
 10
0.0
 20
0.0
 30
0.0
 70
   128
 71
   104
 72
     9
 73
   103
  0
VERTEX
  5
92C
  8
0
 62
     9
 10
0.0
 20
0.0
 30
0.0
 70
   128
 71
   106
 72
   105
 73
    36
  0
VERTEX
  5
92D
  8
0
 62
     9
 10
0.0
 20
0.0
 30
0.0
 70
   128
 71
    43
 72
   105
 73
   107
  0
VERTEX
  5
92E
  8
0
 62
     9
 10
0.0
 20
0.0
 30
0.0
 70
   128
 71
   108
 72
    37
 73
    39
  0
VERTEX
  5
92F
  8
0
 62
     9
 10
0.0
 20
0.0
 30
0.0
 70
   128
 71
    37
 72
   108
 73
   106
  0
VERTEX
  5
930
  8
0
 62
     9
 10
0.0
 20
0.0
 30
0.0
 70
   128
 71
    21
 72
    56
 73
   108
  0
VERTEX
  5
931
  8
0
 62
     9
 10
0.0
 20
0.0
 30
0.0
 70
   128
 71
   108
 72
    39
 73
    21
  0
VERTEX
  5
932
  8
0
 62
     9
 10
0.0
 20
0.0
 30
0.0
 70
   128
 71
   106
 72
    36
 73
    37
  0
VERTEX
  5
933
  8
0
 62
     9
 10
0.0
 20
0.0
 30
0.0
 70
   128
 71
   105
 72
    41
 73
    36
  0
VERTEX
  5
934
  8
0
 62
     9
 10
0.0
 20
0.0
 30
0.0
 70
   128
 71
    10
 72
    43
 73
   107
  0
VERTEX
  5
935
  8
0
 62
     9
 10
0.0
 20
0.0
 30
0.0
 70
   128
 71
    43
 72
    41
 73
   105
  0
VERTEX
  5
936
  8
0
 62
     9
 10
0.0
 20
0.0
 30
0.0
 70
   128
 71
   107
 72
   102
 73
    11
  0
VERTEX
  5
937
  8
0
 62
     9
 10
0.0
 20
0.0
 30
0.0
 70
   128
 71
    11
 72
    10
 73
   107
  0
VERTEX
  5
938
  8
0
 62
     9
 10
0.0
 20
0.0
 30
0.0
 70
   128
 71
   103
 72
    12
 73
   102
  0
VERTEX
  5
939
  8
0
 62
     9
 10
0.0
 20
0.0
 30
0.0
 70
   128
 71
     9
 72
     7
 73
   103
  0
VERTEX
  5
93A
  8
0
 62
     9
 10
0.0
 20
0.0
 30
0.0
 70
   128
 71
   103
 72
     7
 73
    12
  0
VERTEX
  5
93B
  8
0
 62
     9
 10
0.0
 20
0.0
 30
0.0
 70
   128
 71
   104
 72
     4
 73
     9
  0
VERTEX
  5
93C
  8
0
 62
     9
 10
0.0
 20
0.0
 30
0.0
 70
   128
 71
     4
 72
   101
 73
     5
  0
VERTEX
  5
93D
  8
0
 62
     9
 10
0.0
 20
0.0
 30
0.0
 70
   128
 71
   101
 72
     4
 73
   104
  0
VERTEX
  5
93E
  8
0
 62
     9
 10
0.0
 20
0.0
 30
0.0
 70
   128
 71
     5
 72
   101
 73
     1
  0
VERTEX
  5
93F
  8
0
 62
     9
 10
0.0
 20
0.0
 30
0.0
 70
   128
 71
    13
 72
    16
 73
   109
  0
VERTEX
  5
940
  8
0
 62
     9
 10
0.0
 20
0.0
 30
0.0
 70
   128
 71
    59
 72
   110
 73
    58
  0
VERTEX
  5
941
  8
0
 62
     9
 10
0.0
 20
0.0
 30
0.0
 70
   128
 71
   111
 72
    80
 73
    78
  0
VERTEX
  5
942
  8
0
 62
     9
 10
0.0
 20
0.0
 30
0.0
 70
   128
 71
    68
 72
    70
 73
   112
  0
VERTEX
  5
943
  8
0
 62
     9
 10
0.0
 20
0.0
 30
0.0
 70
   128
 71
    89
 72
   114
 73
   113
  0
VERTEX
  5
944
  8
0
 62
     9
 10
0.0
 20
0.0
 30
0.0
 70
   128
 71
   116
 72
    69
 73
   115
  0
VERTEX
  5
945
  8
0
 62
     9
 10
0.0
 20
0.0
 30
0.0
 70
   128
 71
    69
 72
   116
 73
   117
  0
VERTEX
  5
946
  8
0
 62
     9
 10
0.0
 20
0.0
 30
0.0
 70
   128
 71
   116
 72
    33
 73
    35
  0
VERTEX
  5
947
  8
0
 62
     9
 10
0.0
 20
0.0
 30
0.0
 70
   128
 71
    35
 72
   117
 73
   116
  0
VERTEX
  5
948
  8
0
 62
     9
 10
0.0
 20
0.0
 30
0.0
 70
   128
 71
   113
 72
   118
 73
    90
  0
VERTEX
  5
949
  8
0
 62
     9
 10
0.0
 20
0.0
 30
0.0
 70
   128
 71
    70
 72
    69
 73
   112
  0
VERTEX
  5
94A
  8
0
 62
     9
 10
0.0
 20
0.0
 30
0.0
 70
   128
 71
    62
 72
    60
 73
   119
  0
VERTEX
  5
94B
  8
0
 62
     9
 10
0.0
 20
0.0
 30
0.0
 70
   128
 71
    64
 72
    65
 73
   120
  0
VERTEX
  5
94C
  8
0
 62
     9
 10
0.0
 20
0.0
 30
0.0
 70
   128
 71
    74
 72
   121
 73
    73
  0
VERTEX
  5
94D
  8
0
 62
     9
 10
0.0
 20
0.0
 30
0.0
 70
   128
 71
    96
 72
   122
 73
    93
  0
VERTEX
  5
94E
  8
0
 62
     9
 10
0.0
 20
0.0
 30
0.0
 70
   128
 71
   111
 72
   109
 73
    80
  0
VERTEX
  5
94F
  8
0
 62
     9
 10
0.0
 20
0.0
 30
0.0
 70
   128
 71
    73
 72
   121
 73
    76
  0
VERTEX
  5
950
  8
0
 62
     9
 10
0.0
 20
0.0
 30
0.0
 70
   128
 71
   123
 72
   109
 73
    16
  0
VERTEX
  5
951
  8
0
 62
     9
 10
0.0
 20
0.0
 30
0.0
 70
   128
 71
    81
 72
   115
 73
    69
  0
VERTEX
  5
952
  8
0
 62
     9
 10
0.0
 20
0.0
 30
0.0
 70
   128
 71
    69
 72
   117
 73
   112
  0
VERTEX
  5
953
  8
0
 62
     9
 10
0.0
 20
0.0
 30
0.0
 70
   128
 71
    82
 72
   118
 73
    85
  0
VERTEX
  5
954
  8
0
 62
     9
 10
0.0
 20
0.0
 30
0.0
 70
   128
 71
   120
 72
    68
 73
   112
  0
VERTEX
  5
955
  8
0
 62
     9
 10
0.0
 20
0.0
 30
0.0
 70
   128
 71
   115
 72
    81
 73
    85
  0
VERTEX
  5
956
  8
0
 62
     9
 10
0.0
 20
0.0
 30
0.0
 70
   128
 71
   118
 72
    82
 73
   100
  0
VERTEX
  5
957
  8
0
 62
     9
 10
0.0
 20
0.0
 30
0.0
 70
   128
 71
    65
 72
    68
 73
   120
  0
VERTEX
  5
958
  8
0
 62
     9
 10
0.0
 20
0.0
 30
0.0
 70
   128
 71
    60
 72
   120
 73
   119
  0
VERTEX
  5
959
  8
0
 62
     9
 10
0.0
 20
0.0
 30
0.0
 70
   128
 71
    60
 72
    64
 73
   120
  0
VERTEX
  5
95A
  8
0
 62
     9
 10
0.0
 20
0.0
 30
0.0
 70
   128
 71
    90
 72
    88
 73
   113
  0
VERTEX
  5
95B
  8
0
 62
     9
 10
0.0
 20
0.0
 30
0.0
 70
   128
 71
    62
 72
   110
 73
    59
  0
VERTEX
  5
95C
  8
0
 62
     9
 10
0.0
 20
0.0
 30
0.0
 70
   128
 71
    62
 72
   119
 73
   110
  0
VERTEX
  5
95D
  8
0
 62
     9
 10
0.0
 20
0.0
 30
0.0
 70
   128
 71
    89
 72
    92
 73
   114
  0
VERTEX
  5
95E
  8
0
 62
     9
 10
0.0
 20
0.0
 30
0.0
 70
   128
 71
    58
 72
   121
 73
    74
  0
VERTEX
  5
95F
  8
0
 62
     9
 10
0.0
 20
0.0
 30
0.0
 70
   128
 71
    58
 72
   110
 73
   121
  0
VERTEX
  5
960
  8
0
 62
     9
 10
0.0
 20
0.0
 30
0.0
 70
   128
 71
   122
 72
   114
 73
    92
  0
VERTEX
  5
961
  8
0
 62
     9
 10
0.0
 20
0.0
 30
0.0
 70
   128
 71
   124
 72
    97
 73
    99
  0
VERTEX
  5
962
  8
0
 62
     9
 10
0.0
 20
0.0
 30
0.0
 70
   128
 71
   111
 72
    76
 73
   121
  0
VERTEX
  5
963
  8
0
 62
     9
 10
0.0
 20
0.0
 30
0.0
 70
   128
 71
   122
 72
    96
 73
    97
  0
VERTEX
  5
964
  8
0
 62
     9
 10
0.0
 20
0.0
 30
0.0
 70
   128
 71
   124
 72
    99
 73
    80
  0
VERTEX
  5
965
  8
0
 62
     9
 10
0.0
 20
0.0
 30
0.0
 70
   128
 71
    78
 72
    76
 73
   111
  0
VERTEX
  5
966
  8
0
 62
     9
 10
0.0
 20
0.0
 30
0.0
 70
   128
 71
    80
 72
   123
 73
   124
  0
VERTEX
  5
967
  8
0
 62
     9
 10
0.0
 20
0.0
 30
0.0
 70
   128
 71
   123
 72
    80
 73
   109
  0
VERTEX
  5
968
  8
0
 62
     9
 10
0.0
 20
0.0
 30
0.0
 70
   128
 71
    97
 72
   124
 73
   122
  0
VERTEX
  5
969
  8
0
 62
     9
 10
0.0
 20
0.0
 30
0.0
 70
   128
 71
    92
 72
    93
 73
   122
  0
VERTEX
  5
96A
  8
0
 62
     9
 10
0.0
 20
0.0
 30
0.0
 70
   128
 71
    88
 72
    89
 73
   113
  0
VERTEX
  5
96B
  8
0
 62
     9
 10
0.0
 20
0.0
 30
0.0
 70
   128
 71
   100
 72
    90
 73
   118
  0
VERTEX
  5
96C
  8
0
 62
     9
 10
0.0
 20
0.0
 30
0.0
 70
   128
 71
   115
 72
    85
 73
   118
  0
VERTEX
  5
96D
  8
0
 62
     9
 10
0.0
 20
0.0
 30
0.0
 70
   128
 71
    25
 72
   123
 73
    46
  0
VERTEX
  5
96E
  8
0
 62
     9
 10
0.0
 20
0.0
 30
0.0
 70
   128
 71
     6
 72
     2
 73
     8
  0
VERTEX
  5
96F
  8
0
 62
     9
 10
0.0
 20
0.0
 30
0.0
 70
   128
 71
     8
 72
     3
 73
    14
  0
VERTEX
  5
970
  8
0
 62
     9
 10
0.0
 20
0.0
 30
0.0
 70
   128
 71
    16
 72
    14
 73
     3
  0
VERTEX
  5
971
  8
0
 62
     9
 10
0.0
 20
0.0
 30
0.0
 70
   128
 71
     8
 72
     2
 73
     3
  0
VERTEX
  5
972
  8
0
 62
     9
 10
0.0
 20
0.0
 30
0.0
 70
   128
 71
    46
 72
    16
 73
     3
  0
VERTEX
  5
973
  8
0
 62
     9
 10
0.0
 20
0.0
 30
0.0
 70
   128
 71
   116
 72
   114
 73
   122
  0
VERTEX
  5
974
  8
0
 62
     9
 10
0.0
 20
0.0
 30
0.0
 70
   128
 71
   124
 72
    32
 73
   122
  0
VERTEX
  5
975
  8
0
 62
     9
 10
0.0
 20
0.0
 30
0.0
 70
   128
 71
   114
 72
   118
 73
   113
  0
VERTEX
  5
976
  8
0
 62
     9
 10
0.0
 20
0.0
 30
0.0
 70
   128
 71
   114
 72
   116
 73
   115
  0
VERTEX
  5
977
  8
0
 62
     9
 10
0.0
 20
0.0
 30
0.0
 70
   128
 71
   114
 72
   115
 73
   118
  0
VERTEX
  5
978
  8
0
 62
     9
 10
0.0
 20
0.0
 30
0.0
 70
   128
 71
   122
 72
    32
 73
    33
  0
VERTEX
  5
979
  8
0
 62
     9
 10
0.0
 20
0.0
 30
0.0
 70
   128
 71
   122
 72
    33
 73
   116
  0
VERTEX
  5
97A
  8
0
 62
     9
 10
0.0
 20
0.0
 30
0.0
 70
   128
 71
   124
 72
   123
 73
    25
  0
VERTEX
  5
97B
  8
0
 62
     9
 10
0.0
 20
0.0
 30
0.0
 70
   128
 71
    32
 72
   124
 73
    25
  0
VERTEX
  5
97C
  8
0
 62
     9
 10
0.0
 20
0.0
 30
0.0
 70
   128
 71
    16
 72
    46
 73
   123
  0
SEQEND
  5
97D
  8
0
 62
     9
  0
ENDBLK
  5
980
  8
0
  0
ENDSEC
  0
SECTION
  2
ENTITIES
  0
INSERT
  5
15A
  8
LAYER_1
  2
54
 10
0.0
 20
0.0
 30
0.0
  0
INSERT
  5
268
  8
LAYER_1
  2
____MSBR
 10
0.0
 20
0.0
 30
0.0
  0
INSERT
  5
374
  8
LAYER_1
  2
01_5817
 10
0.0
 20
0.0
 30
0.0
  0
INSERT
  5
426
  8
LAYER_1
  2
41
 10
0.0
 20
0.0
 30
0.0
  0
INSERT
  5
65E
  8
LAYER_1
  2
42
 10
0.0
 20
0.0
 30
0.0
  0
INSERT
  5
71A
  8
LAYER_1
  2
EXTRUDE_
 10
0.0
 20
0.0
 30
0.0
  0
INSERT
  5
838
  8
LAYER_1
  2
44
 10
0.0
 20
0.0
 30
0.0
  0
INSERT
  5
97E
  8
LAYER_1
  2
45
 10
0.0
 20
0.0
 30
0.0
  0
ENDSEC
  0
EOF
