  0
SECTION
  2
HEADER
  9
$ACADVER
  1
AC1015
  9
$ACADMAINTVER
 70
     6
  9
$DWGCODEPAGE
  3
ANSI_1252
  9
$INSBASE
 10
0.0
 20
0.0
 30
0.0
  9
$EXTMIN
 10
0.0
 20
0.0
 30
0.0
  9
$EXTMAX
 10
3000.0
 20
4500.0
 30
0.0
  9
$LIMMIN
 10
0.0
 20
0.0
  9
$LIMMAX
 10
3000.0
 20
4500.0
  9
$ORTHOMODE
 70
     0
  9
$REGENMODE
 70
     1
  9
$FILLMODE
 70
     1
  9
$QTEXTMODE
 70
     0
  9
$MIRRTEXT
 70
     1
  9
$LTSCALE
 40
1.0
  9
$ATTMODE
 70
     1
  9
$TEXTSIZE
 40
2.5
  9
$TRACEWID
 40
1.0
  9
$TEXTSTYLE
  7
Standard
  9
$CLAYER
  8
0
  9
$CELTYPE
  6
ByLayer
  9
$CECOLOR
 62
   256
  9
$CELTSCALE
 40
1.0
  9
$DISPSILH
 70
     0
  9
$DIMSCALE
 40
1.0
  9
$DIMASZ
 40
2.5
  9
$DIMEXO
 40
0.625
  9
$DIMDLI
 40
3.75
  9
$DIMRND
 40
0.0
  9
$DIMDLE
 40
0.0
  9
$DIMEXE
 40
1.25
  9
$DIMTP
 40
0.0
  9
$DIMTM
 40
0.0
  9
$DIMTXT
 40
2.5
  9
$DIMCEN
 40
2.5
  9
$DIMTSZ
 40
0.0
  9
$DIMTOL
 70
     0
  9
$DIMLIM
 70
     0
  9
$DIMTIH
 70
     0
  9
$DIMTOH
 70
     0
  9
$DIMSE1
 70
     0
  9
$DIMSE2
 70
     0
  9
$DIMTAD
 70
     1
  9
$DIMZIN
 70
     8
  9
$DIMBLK
  1

  9
$DIMASO
 70
     1
  9
$DIMSHO
 70
     1
  9
$DIMPOST
  1

  9
$DIMAPOST
  1

  9
$DIMALT
 70
     0
  9
$DIMALTD
 70
     3
  9
$DIMALTF
 40
0.0393700787
  9
$DIMLFAC
 40
1.0
  9
$DIMTOFL
 70
     1
  9
$DIMTVP
 40
0.0
  9
$DIMTIX
 70
     0
  9
$DIMSOXD
 70
     0
  9
$DIMSAH
 70
     0
  9
$DIMBLK1
  1

  9
$DIMBLK2
  1

  9
$DIMSTYLE
  2
ISO-25
  9
$DIMCLRD
 70
     0
  9
$DIMCLRE
 70
     0
  9
$DIMCLRT
 70
     0
  9
$DIMTFAC
 40
1.0
  9
$DIMGAP
 40
0.625
  9
$DIMJUST
 70
     0
  9
$DIMSD1
 70
     0
  9
$DIMSD2
 70
     0
  9
$DIMTOLJ
 70
     0
  9
$DIMTZIN
 70
     8
  9
$DIMALTZ
 70
     0
  9
$DIMALTTZ
 70
     0
  9
$DIMUPT
 70
     0
  9
$DIMDEC
 70
     2
  9
$DIMTDEC
 70
     2
  9
$DIMALTU
 70
     2
  9
$DIMALTTD
 70
     3
  9
$DIMTXSTY
  7
Standard
  9
$DIMAUNIT
 70
     0
  9
$DIMADEC
 70
     0
  9
$DIMALTRND
 40
0.0
  9
$DIMAZIN
 70
     0
  9
$DIMDSEP
 70
    44
  9
$DIMATFIT
 70
     3
  9
$DIMFRAC
 70
     0
  9
$DIMLDRBLK
  1

  9
$DIMLUNIT
 70
     2
  9
$DIMLWD
 70
    -2
  9
$DIMLWE
 70
    -2
  9
$DIMTMOVE
 70
     0
  9
$LUNITS
 70
     2
  9
$LUPREC
 70
     4
  9
$SKETCHINC
 40
1.0
  9
$FILLETRAD
 40
10.0
  9
$AUNITS
 70
     0
  9
$AUPREC
 70
     0
  9
$MENU
  1
.
  9
$ELEVATION
 40
0.0
  9
$PELEVATION
 40
0.0
  9
$THICKNESS
 40
0.0
  9
$LIMCHECK
 70
     0
  9
$CHAMFERA
 40
10.0
  9
$CHAMFERB
 40
10.0
  9
$CHAMFERC
 40
20.0
  9
$CHAMFERD
 40
0.0
  9
$SKPOLY
 70
     0
  9
$TDCREATE
 40
2456601.499708229
  9
$TDUCREATE
 40
2456601.458041563
  9
$TDUPDATE
 40
2456601.499708241
  9
$TDUUPDATE
 40
2456601.458041574
  9
$TDINDWG
 40
0.0000000116
  9
$TDUSRTIMER
 40
0.0000000116
  9
$USRTIMER
 70
     1
  9
$ANGBASE
 50
0.0
  9
$ANGDIR
 70
     0
  9
$PDMODE
 70
     0
  9
$PDSIZE
 40
0.0
  9
$PLINEWID
 40
0.0
  9
$SPLFRAME
 70
     0
  9
$SPLINETYPE
 70
     6
  9
$SPLINESEGS
 70
     8
  9
$HANDSEED
  5
2D7
  9
$SURFTAB1
 70
     6
  9
$SURFTAB2
 70
     6
  9
$SURFTYPE
 70
     6
  9
$SURFU
 70
     6
  9
$SURFV
 70
     6
  9
$UCSBASE
  2

  9
$UCSNAME
  2

  9
$UCSORG
 10
0.0
 20
0.0
 30
0.0
  9
$UCSXDIR
 10
1.0
 20
0.0
 30
0.0
  9
$UCSYDIR
 10
0.0
 20
1.0
 30
0.0
  9
$UCSORTHOREF
  2

  9
$UCSORTHOVIEW
 70
     0
  9
$UCSORGTOP
 10
0.0
 20
0.0
 30
0.0
  9
$UCSORGBOTTOM
 10
0.0
 20
0.0
 30
0.0
  9
$UCSORGLEFT
 10
0.0
 20
0.0
 30
0.0
  9
$UCSORGRIGHT
 10
0.0
 20
0.0
 30
0.0
  9
$UCSORGFRONT
 10
0.0
 20
0.0
 30
0.0
  9
$UCSORGBACK
 10
0.0
 20
0.0
 30
0.0
  9
$PUCSBASE
  2

  9
$PUCSNAME
  2

  9
$PUCSORG
 10
0.0
 20
0.0
 30
0.0
  9
$PUCSXDIR
 10
1.0
 20
0.0
 30
0.0
  9
$PUCSYDIR
 10
0.0
 20
1.0
 30
0.0
  9
$PUCSORTHOREF
  2

  9
$PUCSORTHOVIEW
 70
     0
  9
$PUCSORGTOP
 10
0.0
 20
0.0
 30
0.0
  9
$PUCSORGBOTTOM
 10
0.0
 20
0.0
 30
0.0
  9
$PUCSORGLEFT
 10
0.0
 20
0.0
 30
0.0
  9
$PUCSORGRIGHT
 10
0.0
 20
0.0
 30
0.0
  9
$PUCSORGFRONT
 10
0.0
 20
0.0
 30
0.0
  9
$PUCSORGBACK
 10
0.0
 20
0.0
 30
0.0
  9
$USERI1
 70
     0
  9
$USERI2
 70
     0
  9
$USERI3
 70
     0
  9
$USERI4
 70
     0
  9
$USERI5
 70
     0
  9
$USERR1
 40
0.0
  9
$USERR2
 40
0.0
  9
$USERR3
 40
0.0
  9
$USERR4
 40
0.0
  9
$USERR5
 40
0.0
  9
$WORLDVIEW
 70
     1
  9
$SHADEDGE
 70
     3
  9
$SHADEDIF
 70
    70
  9
$TILEMODE
 70
     1
  9
$MAXACTVP
 70
    64
  9
$PINSBASE
 10
0.0
 20
0.0
 30
0.0
  9
$PLIMCHECK
 70
     0
  9
$PEXTMIN
 10
0.0
 20
0.0
 30
0.0
  9
$PEXTMAX
 10
3000.0
 20
4500.0
 30
0.0
  9
$PLIMMIN
 10
0.0
 20
0.0
  9
$PLIMMAX
 10
3000.0
 20
4500.0
  9
$UNITMODE
 70
     0
  9
$VISRETAIN
 70
     1
  9
$PLINEGEN
 70
     0
  9
$PSLTSCALE
 70
     1
  9
$TREEDEPTH
 70
  3020
  9
$CMLSTYLE
  2
Standard
  9
$CMLJUST
 70
     0
  9
$CMLSCALE
 40
20.0
  9
$PROXYGRAPHICS
 70
     1
  9
$MEASUREMENT
 70
     1
  9
$CELWEIGHT
370
    -1
  9
$ENDCAPS
280
     0
  9
$JOINSTYLE
280
     0
  9
$LWDISPLAY
290
     0
  9
$INSUNITS
 70
     4
  9
$HYPERLINKBASE
  1

  9
$STYLESHEET
  1

  9
$XEDIT
290
     1
  9
$CEPSNTYPE
380
     0
  9
$PSTYLEMODE
290
     1
  9
$FINGERPRINTGUID
  2
{77120D15-1F28-490D-9CEF-11E601B2974F}
  9
$VERSIONGUID
  2
{FAEB1C32-E019-11D5-929B-00C0DF256EC4}
  9
$EXTNAMES
290
     1
  9
$PSVPSCALE
 40
0.0
  9
$OLESTARTUP
290
     0
  0
ENDSEC
  0
SECTION
  2
CLASSES
  0
CLASS
  1
ACDBDICTIONARYWDFLT
  2
AcDbDictionaryWithDefault
  3
ObjectDBX Classes
 90
        0
280
     0
281
     0
  0
CLASS
  1
VISUALSTYLE
  2
AcDbVisualStyle
  3
ObjectDBX Classes
 90
     4095
280
     0
281
     0
  0
CLASS
  1
SCALE
  2
AcDbScale
  3
ObjectDBX Classes
 90
     1153
280
     0
281
     0
  0
CLASS
  1
DICTIONARYVAR
  2
AcDbDictionaryVar
  3
ObjectDBX Classes
 90
        0
280
     0
281
     0
  0
CLASS
  1
ACDBPLACEHOLDER
  2
AcDbPlaceHolder
  3
ObjectDBX Classes
 90
        0
280
     0
281
     0
  0
CLASS
  1
LAYOUT
  2
AcDbLayout
  3
ObjectDBX Classes
 90
        0
280
     0
281
     0
  0
ENDSEC
  0
SECTION
  2
TABLES
  0
TABLE
  2
VPORT
  5
8
330
0
100
AcDbSymbolTable
 70
     1
  0
VPORT
  5
29
330
8
100
AcDbSymbolTableRecord
100
AcDbViewportTableRecord
  2
*Active
 70
     0
 10
0.0
 20
0.0
 11
1.0
 21
1.0
 12
344.1869158879
 22
148.5
 13
0.0
 23
0.0
 14
10.0
 24
10.0
 15
10.0
 25
10.0
 16
0.0
 26
0.0
 36
1.0
 17
0.0
 27
0.0
 37
0.0
 40
297.0
 41
1.9729729729
 42
50.0
 43
0.0
 44
0.0
 50
0.0
 51
0.0
 71
     0
 72
   100
 73
     1
 74
     3
 75
     0
 76
     0
 77
     0
 78
     0
281
     0
 65
     1
110
0.0
120
0.0
130
0.0
111
1.0
121
0.0
131
0.0
112
0.0
122
1.0
132
0.0
 79
     0
146
0.0
  0
ENDTAB
  0
TABLE
  2
LTYPE
  5
5
330
0
100
AcDbSymbolTable
 70
     2
  0
LTYPE
  5
14
330
5
100
AcDbSymbolTableRecord
100
AcDbLinetypeTableRecord
  2
ByBlock
 70
     0
  3

 72
    65
 73
     0
 40
0.0
  0
LTYPE
  5
15
330
5
100
AcDbSymbolTableRecord
100
AcDbLinetypeTableRecord
  2
ByLayer
 70
     0
  3

 72
    65
 73
     0
 40
0.0
  0
LTYPE
  5
16
330
5
100
AcDbSymbolTableRecord
100
AcDbLinetypeTableRecord
  2
Continuous
 70
     0
  3
Solid line
 72
    65
 73
     0
 40
0.0
  0
LTYPE
  5
60
330
5
100
AcDbSymbolTableRecord
100
AcDbLinetypeTableRecord
  2
CENTER2
 70
     0
  3
Center (.5x) ___ _ ___ _ ___ _ ___ _ ___ _ ___
 72
    65
 73
     4
 40
28.575
 49
19.05
 74
     4
 75
     0
340
0
 46
0.0
 50
0.0
 44
0.0
 45
0.0
 49
-3.175
 74
     4
 75
     0
340
0
 46
0.0
 50
0.0
 44
0.0
 45
0.0
 49
3.175
 74
     4
 75
     0
340
0
 46
0.0
 50
0.0
 44
0.0
 45
0.0
 49
-3.175
 74
     4
 75
     0
340
0
 46
0.0
 50
0.0
 44
0.0
 45
0.0
  0
ENDTAB
  0
TABLE
  2
LAYER
  5
2
330
0
100
AcDbSymbolTable
 70
    13
  0
LAYER
  5
10
330
2
100
AcDbSymbolTableRecord
100
AcDbLayerTableRecord
  2
0
 70
     0
 62
     7
  6
Continuous
370
    -3
390
F
  0
LAYER
  5
5D
330
2
100
AcDbSymbolTableRecord
100
AcDbLayerTableRecord
  2
Default
 70
     0
 62
     7
  6
Continuous
370
    -3
390
F
  0
LAYER
  5
6B
330
2
100
AcDbSymbolTableRecord
100
AcDbLayerTableRecord
  2
$DDT_AUDIT_GENERATED_(6B)
 70
     0
 62
     7
  6
Continuous
370
    -3
390
F
  0
LAYER
  5
7D
330
2
100
AcDbSymbolTableRecord
100
AcDbLayerTableRecord
  2
$DDT_AUDIT_GENERATED_(7D)
 70
     0
 62
     7
  6
Continuous
370
    -3
390
F
  0
LAYER
  5
80
330
2
100
AcDbSymbolTableRecord
100
AcDbLayerTableRecord
  2
$DDT_AUDIT_GENERATED_(80)
 70
     0
 62
     7
  6
Continuous
370
    -3
390
F
  0
LAYER
  5
A3
330
2
100
AcDbSymbolTableRecord
100
AcDbLayerTableRecord
  2
$DDT_AUDIT_GENERATED_(A3)
 70
     0
 62
     7
  6
Continuous
370
    -3
390
F
  0
LAYER
  5
AA
330
2
100
AcDbSymbolTableRecord
100
AcDbLayerTableRecord
  2
$DDT_AUDIT_GENERATED_(AA)
 70
     0
 62
     7
  6
Continuous
370
    -3
390
F
  0
LAYER
  5
247
330
2
100
AcDbSymbolTableRecord
100
AcDbLayerTableRecord
  2
$DDT_AUDIT_GENERATED_(247)
 70
     0
 62
     7
  6
Continuous
370
    -3
390
F
  0
LAYER
  5
24E
330
2
100
AcDbSymbolTableRecord
100
AcDbLayerTableRecord
  2
DV1_Default
 70
     0
 62
     7
  6
Continuous
370
    -3
390
F
  0
LAYER
  5
280
330
2
100
AcDbSymbolTableRecord
100
AcDbLayerTableRecord
  2
$DDT_AUDIT_GENERATED_(280)
 70
     0
 62
     7
  6
Continuous
370
    -3
390
F
  0
LAYER
  5
293
330
2
100
AcDbSymbolTableRecord
100
AcDbLayerTableRecord
  2
$DDT_AUDIT_GENERATED_(293)
 70
     0
 62
     7
  6
Continuous
370
    -3
390
F
  0
LAYER
  5
29B
330
2
100
AcDbSymbolTableRecord
100
AcDbLayerTableRecord
  2
DV2_Default
 70
     0
 62
     7
  6
Continuous
370
    -3
390
F
  0
LAYER
  5
2BA
330
2
100
AcDbSymbolTableRecord
100
AcDbLayerTableRecord
  2
$DDT_AUDIT_GENERATED_(2BA)
 70
     0
 62
     7
  6
Continuous
370
    -3
390
F
  0
ENDTAB
  0
TABLE
  2
STYLE
  5
3
330
0
100
AcDbSymbolTable
 70
     2
  0
STYLE
  5
11
330
3
100
AcDbSymbolTableRecord
100
AcDbTextStyleTableRecord
  2
Standard
 70
     0
 40
0.0
 41
1.0
 50
0.0
 71
     0
 42
2.5
  3
txt
  4

  0
STYLE
  5
2C6
330
3
100
AcDbSymbolTableRecord
100
AcDbTextStyleTableRecord
  2
SEACAD_seiso_ttf
 70
     0
 40
0.0
 41
1.0
 50
0.0
 71
     0
 42
0.2
  3
seiso.ttf
  4

  0
ENDTAB
  0
TABLE
  2
VIEW
  5
6
330
0
100
AcDbSymbolTable
 70
     0
  0
ENDTAB
  0
TABLE
  2
UCS
  5
7
330
0
100
AcDbSymbolTable
 70
     0
  0
ENDTAB
  0
TABLE
  2
APPID
  5
9
330
0
100
AcDbSymbolTable
 70
     1
  0
APPID
  5
12
330
9
100
AcDbSymbolTableRecord
100
AcDbRegAppTableRecord
  2
ACAD
 70
     0
  0
ENDTAB
  0
TABLE
  2
DIMSTYLE
  5
A
330
0
100
AcDbSymbolTable
 70
     1
100
AcDbDimStyleTable
  0
DIMSTYLE
105
27
330
A
100
AcDbSymbolTableRecord
100
AcDbDimStyleTableRecord
  2
ISO-25
 70
     0
 41
2.5
 42
0.625
 43
3.75
 44
1.25
 73
     0
 74
     0
 77
     1
 78
     8
140
2.5
141
2.5
143
0.0393700787
147
0.625
171
     3
172
     1
271
     2
272
     2
274
     3
278
    44
283
     0
284
     8
340
11
  0
ENDTAB
  0
TABLE
  2
BLOCK_RECORD
  5
1
330
0
100
AcDbSymbolTable
 70
     5
  0
BLOCK_RECORD
  5
1F
330
1
100
AcDbSymbolTableRecord
100
AcDbBlockTableRecord
  2
*Model_Space
340
22
  0
BLOCK_RECORD
  5
1B
330
1
100
AcDbSymbolTableRecord
100
AcDbBlockTableRecord
  2
*Paper_Space
340
1E
  0
BLOCK_RECORD
  5
5E
330
1
100
AcDbSymbolTableRecord
100
AcDbBlockTableRecord
  2
SEANNOT_GROUP
340
0
102
{BLKREFS
331
5F
102
}
  0
BLOCK_RECORD
  5
69
330
1
100
AcDbSymbolTableRecord
100
AcDbBlockTableRecord
  2
SE
340
0
102
{BLKREFS
331
6A
102
}
  0
BLOCK_RECORD
  5
253
330
1
100
AcDbSymbolTableRecord
100
AcDbBlockTableRecord
  2
SE1
340
0
102
{BLKREFS
331
254
102
}
  0
BLOCK_RECORD
  5
2A0
330
1
100
AcDbSymbolTableRecord
100
AcDbBlockTableRecord
  2
SE2
340
0
102
{BLKREFS
331
2A1
102
}
  0
ENDTAB
  0
ENDSEC
  0
SECTION
  2
BLOCKS
  0
BLOCK
  5
20
330
1F
100
AcDbEntity
  8
0
100
AcDbBlockBegin
  2
*Model_Space
 70
     0
 10
0.0
 20
0.0
 30
0.0
  3
*Model_Space
  1

  0
ENDBLK
  5
21
330
1F
100
AcDbEntity
  8
0
100
AcDbBlockEnd
  0
BLOCK
  5
1C
330
1B
100
AcDbEntity
 67
     1
  8
0
100
AcDbBlockBegin
  2
*Paper_Space
 70
     0
 10
0.0
 20
0.0
 30
0.0
  3
*Paper_Space
  1

  0
ENDBLK
  5
1D
330
1B
100
AcDbEntity
 67
     1
  8
0
100
AcDbBlockEnd
  0
BLOCK
  5
67
330
5E
100
AcDbEntity
  8
0
100
AcDbBlockBegin
  2
SEANNOT_GROUP
 70
     0
 10
0.0
 20
0.0
 30
0.0
  3
SEANNOT_GROUP
  1

  0
LINE
  5
61
330
5E
100
AcDbEntity
  8
Default
  6
CENTER2
 62
     7
100
AcDbLine
 10
52.1610140654
 20
253.35
 30
0.0
 11
12.1610149595
 21
253.35
 31
0.0
  0
LINE
  5
62
330
5E
100
AcDbEntity
  8
Default
  6
CENTER2
 62
     7
100
AcDbLine
 10
32.1610145125
 20
273.349999553
 30
0.0
 11
32.1610145125
 21
233.350000447
 31
0.0
  0
LINE
  5
63
330
5E
100
AcDbEntity
  8
Default
  6
CENTER2
 62
     7
100
AcDbLine
 10
57.1610139537
 20
253.35
 30
0.0
 11
55.6610145125
 21
253.35
 31
0.0
  0
LINE
  5
64
330
5E
100
AcDbEntity
  8
Default
  6
CENTER2
 62
     7
100
AcDbLine
 10
32.1610145125
 20
278.3499994412
 30
0.0
 11
32.1610145125
 21
276.85
 31
0.0
  0
LINE
  5
65
330
5E
100
AcDbEntity
  8
Default
  6
CENTER2
 62
     7
100
AcDbLine
 10
7.1610150713
 20
253.35
 30
0.0
 11
8.6610145125
 21
253.35
 31
0.0
  0
LINE
  5
66
330
5E
100
AcDbEntity
  8
Default
  6
CENTER2
 62
     7
100
AcDbLine
 10
32.1610145125
 20
228.3500005588
 30
0.0
 11
32.1610145125
 21
229.85
 31
0.0
  0
ENDBLK
  5
68
330
5E
100
AcDbEntity
  8
0
100
AcDbBlockEnd
  0
BLOCK
  5
251
330
69
100
AcDbEntity
  8
0
100
AcDbBlockBegin
  2
SE
 70
     0
 10
0.0
 20
0.0
 30
0.0
  3
SE
  1

  0
LINE
  5
6C
330
69
100
AcDbEntity
  8
$DDT_AUDIT_GENERATED_(6B)
  6
Continuous
 62
     7
100
AcDbLine
 10
18.1610145125
 20
474.5177303936
 30
0.0
 11
18.1610145125
 21
495.1177303936
 31
0.0
  0
LINE
  5
6D
330
69
100
AcDbEntity
  8
$DDT_AUDIT_GENERATED_(6B)
  6
Continuous
 62
     7
100
AcDbLine
 10
46.1610145125
 20
495.1177303936
 30
0.0
 11
46.1610145125
 21
474.5177303936
 31
0.0
  0
LINE
  5
6E
330
69
100
AcDbEntity
  8
$DDT_AUDIT_GENERATED_(6B)
  6
Continuous
 62
     7
100
AcDbLine
 10
18.8610145125
 20
495.8177303936
 30
0.0
 11
26.1610145125
 21
495.8177303936
 31
0.0
  0
LINE
  5
6F
330
69
100
AcDbEntity
  8
$DDT_AUDIT_GENERATED_(6B)
  6
Continuous
 62
     7
100
AcDbLine
 10
26.1610145125
 20
495.8177303936
 30
0.0
 11
38.1610145125
 21
495.8177303936
 31
0.0
  0
LINE
  5
70
330
69
100
AcDbEntity
  8
$DDT_AUDIT_GENERATED_(6B)
  6
Continuous
 62
     7
100
AcDbLine
 10
38.1610145125
 20
495.8177303936
 30
0.0
 11
45.4610145125
 21
495.8177303936
 31
0.0
  0
ARC
  5
71
330
69
100
AcDbEntity
  8
$DDT_AUDIT_GENERATED_(6B)
  6
Continuous
 62
     7
100
AcDbCircle
 10
45.4610145125
 20
495.1177303936
 30
0.0
 40
0.6999999999999923
100
AcDbArc
 50
0.0
 51
90.0
  0
ARC
  5
72
330
69
100
AcDbEntity
  8
$DDT_AUDIT_GENERATED_(6B)
  6
Continuous
 62
     7
100
AcDbCircle
 10
18.8610145125
 20
474.5177303936
 30
0.0
 40
0.6999999999999923
100
AcDbArc
 50
180.0
 51
270.0
  0
LINE
  5
73
330
69
100
AcDbEntity
  8
$DDT_AUDIT_GENERATED_(6B)
  6
Continuous
 62
     7
100
AcDbLine
 10
12.4610145125
 20
515.8177303936
 30
0.0
 11
51.8610145125
 21
515.8177303936
 31
0.0
  0
ARC
  5
74
330
69
100
AcDbEntity
  8
$DDT_AUDIT_GENERATED_(6B)
  6
Continuous
 62
     7
100
AcDbCircle
 10
18.8610145125
 20
495.1177303936
 30
0.0
 40
0.6999999999999923
100
AcDbArc
 50
90.0
 51
180.0
  0
ARC
  5
75
330
69
100
AcDbEntity
  8
$DDT_AUDIT_GENERATED_(6B)
  6
Continuous
 62
     7
100
AcDbCircle
 10
45.4610145125
 20
474.5177303936
 30
0.0
 40
0.6999999999999923
100
AcDbArc
 50
270.0
 51
0.0
  0
LINE
  5
76
330
69
100
AcDbEntity
  8
$DDT_AUDIT_GENERATED_(6B)
  6
Continuous
 62
     7
100
AcDbLine
 10
45.4610145125
 20
473.8177303936
 30
0.0
 11
38.1610145125
 21
473.8177303936
 31
0.0
  0
LINE
  5
77
330
69
100
AcDbEntity
  8
$DDT_AUDIT_GENERATED_(6B)
  6
Continuous
 62
     7
100
AcDbLine
 10
38.1610145125
 20
473.8177303936
 30
0.0
 11
26.1610145125
 21
473.8177303936
 31
0.0
  0
LINE
  5
78
330
69
100
AcDbEntity
  8
$DDT_AUDIT_GENERATED_(6B)
  6
Continuous
 62
     7
100
AcDbLine
 10
26.1610145125
 20
473.8177303936
 30
0.0
 11
18.8610145125
 21
473.8177303936
 31
0.0
  0
LINE
  5
79
330
69
100
AcDbEntity
  8
$DDT_AUDIT_GENERATED_(6B)
  6
Continuous
 62
     7
100
AcDbLine
 10
52.1610145125
 20
377.3180332786
 30
0.0
 11
52.1610145125
 21
515.5177303936
 31
0.0
  0
LINE
  5
7A
330
69
100
AcDbEntity
  8
$DDT_AUDIT_GENERATED_(6B)
  6
Continuous
 62
     7
100
AcDbLine
 10
12.1610145125
 20
515.5177303936
 30
0.0
 11
12.1610145125
 21
377.3180332786
 31
0.0
  0
ARC
  5
7B
330
69
100
AcDbEntity
  8
$DDT_AUDIT_GENERATED_(6B)
  6
Continuous
 62
     7
100
AcDbCircle
 10
51.8610145125
 20
515.5177303936
 30
0.0
 40
0.3000000000000017
100
AcDbArc
 50
0.0
 51
90.0
  0
ARC
  5
7C
330
69
100
AcDbEntity
  8
$DDT_AUDIT_GENERATED_(6B)
  6
Continuous
 62
     7
100
AcDbCircle
 10
12.4610145125
 20
515.5177303936
 30
0.0
 40
0.2999999999999947
100
AcDbArc
 50
90.0
 51
180.0
  0
ARC
  5
7E
330
69
100
AcDbEntity
  8
$DDT_AUDIT_GENERATED_(7D)
  6
Continuous
 62
     7
100
AcDbCircle
 10
32.1610145125
 20
507.4177303936
 30
0.0
 40
19.99999999999999
100
AcDbArc
 50
151.1171239137
 51
155.1654125103
  0
ARC
  5
7F
330
69
100
AcDbEntity
  8
$DDT_AUDIT_GENERATED_(7D)
  6
Continuous
 62
     7
100
AcDbCircle
 10
32.1610145125
 20
507.4177303936
 30
0.0
 40
19.99999999999999
100
AcDbArc
 50
24.8345874897
 51
28.8828760863
  0
ELLIPSE
  5
81
330
69
100
AcDbEntity
  8
$DDT_AUDIT_GENERATED_(80)
  6
Continuous
 62
     7
100
AcDbEllipse
 10
32.1610145125
 20
518.7623813253
 30
0.0
 11
20.00000000000001
 21
5.551115123125783E-14
 31
0.0
210
0.0
220
0.0
230
1.0
 40
0.5064289213
 41
-0.058938363964478
 42
0.0000000000000171
  0
ELLIPSE
  5
82
330
69
100
AcDbEntity
  8
$DDT_AUDIT_GENERATED_(80)
  6
Continuous
 62
     7
100
AcDbEllipse
 10
32.1610145125
 20
518.7623813253
 30
0.0
 11
20.00000000000001
 21
5.551115123125783E-14
 31
0.0
210
0.0
220
0.0
230
1.0
 40
0.5064289213
 41
3.141592653589788
 42
3.202054645376359
  0
ELLIPSE
  5
83
330
69
100
AcDbEntity
  8
$DDT_AUDIT_GENERATED_(80)
  6
Continuous
 62
     7
100
AcDbEllipse
 10
32.1610145125
 20
517.3143379109
 30
0.0
 11
19.70000000000001
 21
2.775557561562891E-14
 31
0.0
210
0.0
220
0.0
230
1.0
 40
0.0261769483
 41
3.330413920245015
 42
6.053565145168919
  0
ELLIPSE
  5
84
330
69
100
AcDbEntity
  8
$DDT_AUDIT_GENERATED_(80)
  6
Continuous
 62
     7
100
AcDbEllipse
 10
36.1610145125
 20
535.2918593907
 30
0.0
 11
2.3
 21
2.775557561562891E-14
 31
0.0
210
0.0
220
0.0
230
1.0
 40
0.0261769483
 41
4.712388980384686
 42
5.769406681440238
  0
ELLIPSE
  5
85
330
69
100
AcDbEntity
  8
$DDT_AUDIT_GENERATED_(80)
  6
Continuous
 62
     7
100
AcDbEllipse
 10
28.1610145125
 20
535.2918593907
 30
0.0
 11
2.299999999999996
 21
0.0
 31
0.0
210
0.0
220
0.0
230
1.0
 40
0.0261769483
 41
3.64142332997969
 42
4.712388980384685
  0
LINE
  5
86
330
69
100
AcDbEntity
  8
$DDT_AUDIT_GENERATED_(80)
  6
Continuous
 62
     7
100
AcDbLine
 10
25.1610145125
 20
535.9916195181
 30
0.0
 11
25.1610145125
 21
544.5390180696
 31
0.0
  0
ARC
  5
87
330
69
100
AcDbEntity
  8
$DDT_AUDIT_GENERATED_(80)
  6
Continuous
 62
     7
100
AcDbCircle
 10
18.0029923006
 20
612.7840289793
 30
0.0
 40
66.14983418764068
100
AcDbArc
 50
266.661348021
 51
273.293728671
  0
ARC
  5
88
330
69
100
AcDbEntity
  8
$DDT_AUDIT_GENERATED_(80)
  6
Continuous
 62
     7
100
AcDbCircle
 10
23.0123451215
 20
516.1910777985
 30
0.0
 40
30.57629003645601
100
AcDbArc
 50
86.0780926299
 51
92.2655856594
  0
ARC
  5
89
330
69
100
AcDbEntity
  8
$DDT_AUDIT_GENERATED_(80)
  6
Continuous
 62
     7
100
AcDbCircle
 10
27.3109906382
 20
568.5529699071
 30
0.0
 40
23.36001181545866
100
AcDbArc
 50
266.9174624775
 51
272.0681388769
  0
ARC
  5
8A
330
69
100
AcDbEntity
  8
$DDT_AUDIT_GENERATED_(80)
  6
Continuous
 62
     7
100
AcDbCircle
 10
32.1610145125
 20
144.8410367141
 30
0.0
 40
400.3871889455683
100
AcDbArc
 50
89.426583869
 51
90.573416131
  0
ARC
  5
8B
330
69
100
AcDbEntity
  8
$DDT_AUDIT_GENERATED_(80)
  6
Continuous
 62
     7
100
AcDbCircle
 10
37.0107080506
 20
568.5779104254
 30
0.0
 40
23.38492419909238
100
AcDbArc
 50
267.934875193
 51
273.0516123169
  0
SPLINE
  5
8C
330
69
100
AcDbEntity
  8
$DDT_AUDIT_GENERATED_(80)
  6
Continuous
 62
     7
100
AcDbSpline
210
0.0
220
0.0
230
1.0
 70
     8
 71
     3
 72
    10
 73
     6
 74
     0
 42
0.0000000017718012
 43
0.0000000001
 40
0.4167285442068344
 40
0.4167285442068344
 40
0.4167285442068344
 40
0.4167285442068344
 40
0.4999999999999999
 40
0.4999999999999999
 40
1.0
 40
1.0
 40
1.0
 40
1.0
 10
39.22702333219951
 20
546.7154969260388
 30
0.0
 10
39.32615488996173
 20
546.7195656798687
 30
0.0
 10
39.43435780210611
 20
546.7233172035687
 30
0.0
 10
40.25158097046255
 20
546.7470545599973
 30
0.0
 10
41.27471300656851
 20
546.7550317160532
 30
0.0
 10
42.51841435516314
 20
546.7434669536801
 30
0.0
  0
ARC
  5
8D
330
69
100
AcDbEntity
  8
$DDT_AUDIT_GENERATED_(80)
  6
Continuous
 62
     7
100
AcDbCircle
 10
46.3190829467
 20
612.7795925945
 30
0.0
 40
66.14540778765038
100
AcDbArc
 50
266.7060105675
 51
274.4878667094
  0
LINE
  5
8E
330
69
100
AcDbEntity
  8
$DDT_AUDIT_GENERATED_(80)
  6
Continuous
 62
     7
100
AcDbLine
 10
39.1610145125
 20
544.5390180696
 30
0.0
 11
39.1610145125
 21
535.9916195181
 31
0.0
  0
LINE
  5
8F
330
69
100
AcDbEntity
  8
$DDT_AUDIT_GENERATED_(80)
  6
Continuous
 62
     7
100
AcDbLine
 10
39.1610145125
 20
545.9357367668
 30
0.0
 11
39.1610145125
 21
544.5390180696
 31
0.0
  0
LINE
  5
90
330
69
100
AcDbEntity
  8
$DDT_AUDIT_GENERATED_(80)
  6
Continuous
 62
     7
100
AcDbLine
 10
25.1610145125
 20
544.5390180696
 30
0.0
 11
25.1610145125
 21
545.9357367668
 31
0.0
  0
ELLIPSE
  5
91
330
69
100
AcDbEntity
  8
$DDT_AUDIT_GENERATED_(80)
  6
Continuous
 62
     7
100
AcDbEllipse
 10
32.1610145125
 20
546.8369914995
 30
0.0
 11
19.33381303966939
 21
2.775557561562891E-14
 31
0.0
210
0.0
220
0.0
230
1.0
 40
0.0261769483
 41
0.2623803837005826
 42
0.5721846656057477
  0
ELLIPSE
  5
92
330
69
100
AcDbEntity
  8
$DDT_AUDIT_GENERATED_(80)
  6
Continuous
 62
     7
100
AcDbEllipse
 10
32.1610145125
 20
546.8369914995
 30
0.0
 11
19.33381303966939
 21
2.775557561562891E-14
 31
0.0
210
0.0
220
0.0
230
1.0
 40
0.0261769483
 41
-3.713777319195541
 42
-3.371871890855716
  0
SPLINE
  5
93
330
69
100
AcDbEntity
  8
$DDT_AUDIT_GENERATED_(80)
  6
Continuous
 62
     7
100
AcDbSpline
210
0.0
220
0.0
230
1.0
 70
     8
 71
     3
 72
    14
 73
    10
 74
     0
 42
0.0000000138040527
 43
0.0000000001
 40
0.0
 40
0.0
 40
0.0
 40
0.0
 40
0.0349589470128843
 40
0.1582733872643892
 40
0.2789908998991631
 40
0.4071032542980503
 40
0.5595714886464596
 40
0.7551546245912998
 40
1.0
 40
1.0
 40
1.0
 40
1.0
 10
51.68441347585875
 20
517.2438816676386
 30
0.0
 10
51.69616876832811
 20
517.244766518059
 30
0.0
 10
51.7415382049443
 20
517.2483396526237
 30
0.0
 10
51.82008609401733
 20
517.2881239099502
 30
0.0
 10
51.89741260865497
 20
517.3505962058605
 30
0.0
 10
51.95675441101971
 20
517.4281812342605
 30
0.0
 10
52.00269262436442
 20
517.5177875362566
 30
0.0
 10
52.04344023073995
 20
517.6343899545051
 30
0.0
 10
52.06219220886207
 20
517.727555880076
 30
0.0
 10
52.07381962287084
 20
517.7892132172655
 30
0.0
  0
ARC
  5
94
330
69
100
AcDbEntity
  8
$DDT_AUDIT_GENERATED_(80)
  6
Continuous
 62
     7
100
AcDbCircle
 10
15.5535575786
 20
518.4214535433
 30
0.0
 40
3.366158964153255
100
AcDbArc
 50
185.2105114616
 51
190.8497083769
  0
ARC
  5
95
330
69
100
AcDbEntity
  8
$DDT_AUDIT_GENERATED_(80)
  6
Continuous
 62
     7
100
AcDbCircle
 10
49.0390149912
 20
518.3789270873
 30
0.0
 40
3.092460232621411
100
AcDbArc
 50
348.9805958823
 51
355.4218953664
  0
ARC
  5
96
330
69
100
AcDbEntity
  8
$DDT_AUDIT_GENERATED_(80)
  6
Continuous
 62
     7
100
AcDbCircle
 10
50.8938381129
 20
521.9585500488
 30
0.0
 40
4.783884662306529
100
AcDbArc
 50
275.7596222263
 51
279.5218696422
  0
ARC
  5
97
330
69
100
AcDbEntity
  8
$DDT_AUDIT_GENERATED_(80)
  6
Continuous
 62
     7
100
AcDbCircle
 10
13.0723126529
 20
519.7245525267
 30
0.0
 40
2.521863604237204
100
AcDbArc
 50
260.05595571
 51
263.2152726799
  0
SPLINE
  5
98
330
69
100
AcDbEntity
  8
$DDT_AUDIT_GENERATED_(80)
  6
Continuous
 62
     7
100
AcDbSpline
210
0.0
220
0.0
230
1.0
 70
     8
 71
     3
 72
    14
 73
    10
 74
     0
 42
0.0000000137752839
 43
0.0000000001
 40
0.0
 40
0.0
 40
0.0
 40
0.0
 40
0.1735948833345353
 40
0.4408979281639074
 40
0.5986752420880277
 40
0.733838793884435
 40
0.8572339400552517
 40
0.9756871721506878
 40
1.0
 40
1.0
 40
1.0
 40
1.0
 10
12.24871525915801
 20
517.7908566596126
 30
0.0
 10
12.25647896670436
 20
517.7458275642219
 30
0.0
 10
12.27424343544269
 20
517.6490142309581
 30
0.0
 10
12.31309355267964
 20
517.5290498477287
 30
0.0
 10
12.36793695618281
 20
517.423944076523
 30
0.0
 10
12.42980239476547
 20
517.3450503264622
 30
0.0
 10
12.51049931777206
 20
517.2832754796106
 30
0.0
 10
12.58791041790865
 20
517.2457632341417
 30
0.0
 10
12.62894216196343
 20
517.2438279913321
 30
0.0
 10
12.63711302740642
 20
517.2434605860996
 30
0.0
  0
ARC
  5
99
330
69
100
AcDbEntity
  8
$DDT_AUDIT_GENERATED_(80)
  6
Continuous
 62
     7
100
AcDbCircle
 10
40.0142338984
 20
523.1434982262
 30
0.0
 40
13.65958370365084
100
AcDbArc
 50
93.3837757115
 51
93.5854703175
  0
SPLINE
  5
9A
330
69
100
AcDbEntity
  8
$DDT_AUDIT_GENERATED_(80)
  6
Continuous
 62
     7
100
AcDbSpline
210
0.0
220
0.0
230
1.0
 70
     8
 71
     3
 72
    20
 73
    16
 74
     0
 42
0.0000000072983117
 43
0.0000000001
 40
0.0
 40
0.0
 40
0.0
 40
0.0
 40
0.0165835986847921
 40
0.1703468110206822
 40
0.3335110817594281
 40
0.4386338427877084
 40
0.5033420688353077
 40
0.5506343631998185
 40
0.6009609693710639
 40
0.6596544467350985
 40
0.7245147208692921
 40
0.7943675428684164
 40
0.8680139233826701
 40
0.9437173530083061
 40
1.0
 40
1.0
 40
1.0
 40
1.0
 10
38.19730408806193
 20
535.2629210649651
 30
0.0
 10
38.20400127871495
 20
535.2631958399243
 30
0.0
 10
38.26310485329645
 20
535.2656285978916
 30
0.0
 10
38.36076241371661
 20
535.2715947320214
 30
0.0
 10
38.4629063148432
 20
535.2798584264223
 30
0.0
 10
38.54130030220602
 20
535.2897976729332
 30
0.0
 10
38.61448358386224
 20
535.3041951681503
 30
0.0
 10
38.69096345547106
 20
535.3267033359539
 30
0.0
 10
38.77621042754922
 20
535.3623775411133
 30
0.0
 10
38.8710472867235
 20
535.419053442288
 30
0.0
 10
38.96671295649774
 20
535.5008749461718
 30
0.0
 10
39.0524798842951
 20
535.6079764062658
 30
0.0
 10
39.11825160675559
 20
535.7358530652567
 30
0.0
 10
39.15516369590356
 20
535.870158332358
 30
0.0
 10
39.15940447258301
 20
535.9509848328947
 30
0.0
 10
39.16101451248281
 20
535.9916195181434
 30
0.0
  0
LINE
  5
9B
330
69
100
AcDbEntity
  8
$DDT_AUDIT_GENERATED_(80)
  6
Continuous
 62
     7
100
AcDbLine
 10
28.1610145125
 20
535.231412537
 30
0.0
 11
36.1610145125
 21
535.231412537
 31
0.0
  0
SPLINE
  5
9C
330
69
100
AcDbEntity
  8
$DDT_AUDIT_GENERATED_(80)
  6
Continuous
 62
     7
100
AcDbSpline
210
0.0
220
0.0
230
1.0
 70
     8
 71
     3
 72
    21
 73
    17
 74
     0
 42
0.0000000073835996
 43
0.0000000001
 40
0.0
 40
0.0
 40
0.0
 40
0.0
 40
0.0819209883932976
 40
0.1564680018029107
 40
0.2251048785773381
 40
0.2886670261471373
 40
0.3473647673672863
 40
0.4008924441028667
 40
0.4487156663146951
 40
0.4927316121828063
 40
0.5394506025062559
 40
0.5950984773213006
 40
0.6731604141676776
 40
0.8085987715443371
 40
0.9638501255265192
 40
1.0
 40
1.0
 40
1.0
 40
1.0
 10
25.1610145124828
 20
535.9916195181436
 30
0.0
 10
25.16431966756476
 20
535.9334835028164
 30
0.0
 10
25.17116775288347
 20
535.8394038521335
 30
0.0
 10
25.22032016169435
 20
535.6982885882337
 30
0.0
 10
25.28740820394002
 20
535.58311369788
 30
0.0
 10
25.36774774470683
 20
535.489529846787
 30
0.0
 10
25.45403541646741
 20
535.4177074832324
 30
0.0
 10
25.53955043094562
 20
535.3660231176318
 30
0.0
 10
25.61781831149909
 20
535.3317238069477
 30
0.0
 10
25.68475313018354
 20
535.3104146349376
 30
0.0
 10
25.74052103442358
 20
535.2974221412923
 30
0.0
 10
25.79258951957031
 20
535.288432515739
 30
0.0
 10
25.85618984032261
 20
535.2803656202944
 30
0.0
 10
25.94236725392296
 20
535.2729646359248
 30
0.0
 10
26.03278989198252
 20
535.2670788710714
 30
0.0
 10
26.09541011567764
 20
535.2643373517087
 30
0.0
 10
26.10924783622493
 20
535.2637359767383
 30
0.0
  0
SPLINE
  5
9D
330
69
100
AcDbEntity
  8
$DDT_AUDIT_GENERATED_(80)
  6
Continuous
 62
     7
100
AcDbSpline
210
0.0
220
0.0
230
1.0
 70
     8
 71
     3
 72
     9
 73
     5
 74
     0
 42
0.0000000065400576
 43
0.0000000001
 40
0.0
 40
0.0
 40
0.0
 40
0.0
 40
0.006793465028859
 40
0.0318100889191663
 40
0.0318100889191663
 40
0.0318100889191663
 40
0.0318100889191663
 10
25.1167713477518
 20
536.7791841144638
 30
0.0
 10
25.12082426135909
 20
536.7789553291321
 30
0.0
 10
25.13716997470242
 20
536.7780321428227
 30
0.0
 10
25.15307403193096
 20
536.7770859601721
 30
0.0
 10
25.16532633727194
 20
536.7763309729534
 30
0.0
  0
ARC
  5
9E
330
69
100
AcDbEntity
  8
$DDT_AUDIT_GENERATED_(80)
  6
Continuous
 62
     7
100
AcDbCircle
 10
32.1610145125
 20
147.1912133385
 30
0.0
 40
400.2500000001538
100
AcDbArc
 50
87.6725537625
 51
92.3274462375
  0
LINE
  5
9F
330
69
100
AcDbEntity
  8
$DDT_AUDIT_GENERATED_(80)
  6
Continuous
 62
     7
100
AcDbLine
 10
52.1610145125
 20
518.7623813253
 30
0.0
 11
52.1610145125
 21
546.1380482273
 31
0.0
  0
LINE
  5
A0
330
69
100
AcDbEntity
  8
$DDT_AUDIT_GENERATED_(80)
  6
Continuous
 62
     7
100
AcDbLine
 10
12.1610145125
 20
546.1380482273
 30
0.0
 11
12.1610145125
 21
518.7623813253
 31
0.0
  0
SPLINE
  5
A1
330
69
100
AcDbEntity
  8
$DDT_AUDIT_GENERATED_(80)
  6
Continuous
 62
     7
100
AcDbSpline
210
0.0
220
0.0
230
1.0
 70
     8
 71
     3
 72
    18
 73
    14
 74
     0
 42
0.0000000070638163
 43
0.0000000001
 40
0.0
 40
0.0
 40
0.0
 40
0.0
 40
0.103811805456998
 40
0.2906732802512911
 40
0.4926545592551593
 40
0.6256230531314603
 40
0.6957516289682721
 40
0.7491768012871016
 40
0.794826504727632
 40
0.8357264674763427
 40
0.8745270701925979
 40
0.9128643214193289
 40
0.9391483580371354
 40
0.9391483580371354
 40
0.9391483580371354
 40
0.9391483580371354
 10
13.30455623774464
 20
546.9497533596937
 30
0.0
 10
13.25856374886769
 20
546.9447761038189
 30
0.0
 10
13.1497215772541
 20
546.9328483710276
 30
0.0
 10
12.9840838995322
 20
546.9089706235009
 30
0.0
 10
12.83452379448971
 20
546.8808143798148
 30
0.0
 10
12.71597195132457
 20
546.8490532917696
 30
0.0
 10
12.62322793599858
 20
546.8144685391077
 30
0.0
 10
12.54716250838933
 20
546.7779940506357
 30
0.0
 10
12.46980067794962
 20
546.7305221536595
 30
0.0
 10
12.38867284164852
 20
546.6655134223108
 30
0.0
 10
12.30758426351684
 20
546.5778222391551
 30
0.0
 10
12.24249289473502
 20
546.4761944239439
 30
0.0
 10
12.21098995950527
 20
546.4026677246551
 30
0.0
 10
12.20012549358083
 20
546.3711756248659
 30
0.0
  0
SPLINE
  5
A2
330
69
100
AcDbEntity
  8
$DDT_AUDIT_GENERATED_(80)
  6
Continuous
 62
     7
100
AcDbSpline
210
0.0
220
0.0
230
1.0
 70
     8
 71
     3
 72
    20
 73
    16
 74
     0
 42
0.0000000065012391
 43
0.0000000001
 40
0.0650677987792935
 40
0.0650677987792935
 40
0.0650677987792935
 40
0.0650677987792935
 40
0.0689304200178011
 40
0.1020110482623729
 40
0.1347433762355905
 40
0.168247455459801
 40
0.2042446560591834
 40
0.2452497380077472
 40
0.2947981726130747
 40
0.358305243419352
 40
0.4457122845304541
 40
0.581930742659418
 40
0.7514207361069388
 40
0.9105539367000737
 40
1.0
 40
1.0
 40
1.0
 40
1.0
 10
52.10573739802114
 20
546.4135261415184
 30
0.0
 10
52.10362916412219
 20
546.418546321565
 30
0.0
 10
52.08302433002748
 20
546.4661210044424
 30
0.0
 10
52.03699470034534
 20
546.546774952876
 30
0.0
 10
51.96114886592136
 20
546.6381337800932
 30
0.0
 10
51.88437914466593
 20
546.7065438572223
 30
0.0
 10
51.81046096715657
 20
546.7573912285261
 30
0.0
 10
51.73953352947444
 20
546.7958545046414
 30
0.0
 10
51.66891936011123
 20
546.8263063731506
 30
0.0
 10
51.59290064848256
 20
546.8523057306285
 30
0.0
 10
51.49788309888292
 20
546.8777115732477
 30
0.0
 10
51.37176694785533
 20
546.9031905760232
 30
0.0
 10
51.20578670498936
 20
546.9282969559378
 30
0.0
 10
51.02946493768136
 20
546.9498595634892
 30
0.0
 10
50.91344213137589
 20
546.960958530169
 30
0.0
 10
50.86402330597268
 20
546.9656425184181
 30
0.0
  0
ELLIPSE
  5
A4
330
69
100
AcDbEntity
  8
$DDT_AUDIT_GENERATED_(A3)
  6
Continuous
 62
     7
100
AcDbEllipse
 10
32.1610145125
 20
463.8247622717
 30
0.0
 11
10.075
 21
0.0
 31
0.0
210
0.0
220
0.0
230
1.0
 40
0.4226182617
 41
0.0
 42
3.794328462202814
  0
ELLIPSE
  5
A5
330
69
100
AcDbEntity
  8
$DDT_AUDIT_GENERATED_(A3)
  6
Continuous
 62
     7
100
AcDbEllipse
 10
32.1610145125
 20
463.8247622717
 30
0.0
 11
10.075
 21
0.0
 31
0.0
210
0.0
220
0.0
230
1.0
 40
0.4226182617
 41
5.630449498566558
 42
6.283185307179586
  0
LINE
  5
A6
330
69
100
AcDbEntity
  8
$DDT_AUDIT_GENERATED_(A3)
  6
Continuous
 62
     7
100
AcDbLine
 10
43.7360145125
 20
464.7310700587
 30
0.0
 11
43.7360145125
 21
473.8177303936
 31
0.0
  0
LINE
  5
A7
330
69
100
AcDbEntity
  8
$DDT_AUDIT_GENERATED_(A3)
  6
Continuous
 62
     7
100
AcDbLine
 10
20.5860145125
 20
473.8177303936
 30
0.0
 11
20.5860145125
 21
464.7310700587
 31
0.0
  0
SPLINE
  5
A8
330
69
100
AcDbEntity
  8
$DDT_AUDIT_GENERATED_(A3)
  6
Continuous
 62
     7
100
AcDbSpline
210
0.0
220
0.0
230
1.0
 70
     8
 71
     3
 72
    24
 73
    20
 74
     0
 42
0.0000000004216974
 43
0.0000000001
 40
0.0
 40
0.0
 40
0.0
 40
0.0
 40
0.0102468024970188
 40
0.02598787960749
 40
0.0417727233487868
 40
0.0577349840998248
 40
0.0739951208122058
 40
0.0906495980622
 40
0.1077585480627834
 40
0.1253338470678652
 40
0.14333413325572
 40
0.1616734181763312
 40
0.1802431862611371
 40
0.19893834024326
 40
0.2176725180169849
 40
0.2363788157617093
 40
0.255030970932189
 40
0.2736176379680713
 40
0.2906106114931191
 40
0.2906106114931191
 40
0.2906106114931191
 40
0.2906106114931191
 10
20.5860145124831
 20
464.7310700586993
 30
0.0
 10
20.58742374453189
 20
464.6540256296209
 30
0.0
 10
20.5914529283324
 20
464.4885478036485
 30
0.0
 10
20.62940455290777
 20
464.1980753408975
 30
0.0
 10
20.70568447853012
 20
463.8832935819571
 30
0.0
 10
20.81716091366427
 20
463.5710690290198
 30
0.0
 10
20.96314794993866
 20
463.2647766239381
 30
0.0
 10
21.14421243453697
 20
462.9635901699222
 30
0.0
 10
21.36088802729723
 20
462.6680707663204
 30
0.0
 10
21.61363233641402
 20
462.3788628344167
 30
0.0
 10
21.90237669003968
 20
462.0971444986455
 30
0.0
 10
22.22630420345331
 20
461.8243865402484
 30
0.0
 10
22.58384422030273
 20
461.5621338771226
 30
0.0
 10
22.97288906339522
 20
461.3117560573154
 30
0.0
 10
23.39105373447752
 20
461.0743320632586
 30
0.0
 10
23.8360393222164
 20
460.8505579292882
 30
0.0
 10
24.30577845771445
 20
460.6408320788398
 30
0.0
 10
24.78503115306933
 20
460.4506971762833
 30
0.0
 10
25.11364259001116
 20
460.3343596302972
 30
0.0
 10
25.27364497693133
 20
460.2807509276649
 30
0.0
  0
SPLINE
  5
A9
330
69
100
AcDbEntity
  8
$DDT_AUDIT_GENERATED_(A3)
  6
Continuous
 62
     7
100
AcDbSpline
210
0.0
220
0.0
230
1.0
 70
     8
 71
     3
 72
    25
 73
    21
 74
     0
 42
0.0000000004217818
 43
0.0000000001
 40
0.7096272940982353
 40
0.7096272940982353
 40
0.7096272940982353
 40
0.7096272940982353
 40
0.711569221156343
 40
0.7300365259209407
 40
0.7485736054685435
 40
0.7671868808689273
 40
0.7858800680822596
 40
0.8046513744287834
 40
0.8234889836619477
 40
0.8423635190665324
 40
0.8611979677767467
 40
0.8798968639179027
 40
0.8983383455728043
 40
0.9163967915995556
 40
0.933977426904724
 40
0.951044933588532
 40
0.9676305626697311
 40
0.9838192656105541
 40
0.9997295872952856
 40
1.0
 40
1.0
 40
1.0
 40
1.0
 10
39.05760857589593
 20
460.2838449221155
 30
0.0
 10
39.07587996414095
 20
460.2899798240415
 30
0.0
 10
39.26748833004456
 20
460.3547244715656
 30
0.0
 10
39.62464563817097
 20
460.4836399494554
 30
0.0
 10
40.11134913637224
 20
460.6813474801251
 30
0.0
 10
40.57523515372113
 20
460.8933450177219
 30
0.0
 10
41.01489779744759
 20
461.1196838654637
 30
0.0
 10
41.42885626851767
 20
461.3604602011011
 30
0.0
 10
41.8154697772171
 20
461.6157643450342
 30
0.0
 10
42.17270587552075
 20
461.8854718327811
 30
0.0
 10
42.49822172360125
 20
462.1691118768054
 30
0.0
 10
42.78944790309517
 20
462.4656546688739
 30
0.0
 10
43.04395114616388
 20
462.7735078070186
 30
0.0
 10
43.2596775725128
 20
463.0904355042039
 30
0.0
 10
43.43550475168027
 20
463.4139911123452
 30
0.0
 10
43.57068457166908
 20
463.7411707822436
 30
0.0
 10
43.6672124365521
 20
464.0711882596368
 30
0.0
 10
43.72054454736668
 20
464.3966953526642
 30
0.0
 10
43.74163456724546
 20
464.6261316276023
 30
0.0
 10
43.7358225008757
 20
464.730916744641
 30
0.0
 10
43.73570967223918
 20
464.7329459644253
 30
0.0
  0
ELLIPSE
  5
AB
330
69
100
AcDbEntity
  8
$DDT_AUDIT_GENERATED_(AA)
  6
Continuous
 62
     7
100
AcDbEllipse
 10
32.1610145125
 20
462.6918775379
 30
0.0
 11
-7.999999999999996
 21
0.0
 31
0.0
210
0.0
220
0.0
230
1.0
 40
0.4226182617
 41
0.2161054345749661
 42
2.925487219014823
  0
ELLIPSE
  5
AC
330
69
100
AcDbEntity
  8
$DDT_AUDIT_GENERATED_(AA)
  6
Continuous
 62
     7
100
AcDbEllipse
 10
32.1610145125
 20
462.2840390337
 30
0.0
 11
7.875000000000002
 21
0.0
 31
0.0
210
0.0
220
0.0
230
1.0
 40
0.4226182617
 41
0.0
 42
6.283185307179586
  0
LINE
  5
AD
330
69
100
AcDbEntity
  8
$DDT_AUDIT_GENERATED_(AA)
  6
Continuous
 62
     7
100
AcDbLine
 10
32.1053539156
 20
463.1077854647
 30
0.0
 11
32.1052232586
 21
463.301466677
 31
0.0
  0
SPLINE
  5
AE
330
69
100
AcDbEntity
  8
$DDT_AUDIT_GENERATED_(AA)
  6
Continuous
 62
     7
100
AcDbSpline
210
0.0
220
0.0
230
1.0
 70
     8
 71
     3
 72
    20
 73
    16
 74
     0
 42
0.0000000633306887
 43
0.0000000001
 40
0.0
 40
0.0
 40
0.0
 40
0.0
 40
0.1662420688397998
 40
0.1662420688397998
 40
0.1662420688397998
 40
0.3310650875766937
 40
0.3310650875766937
 40
0.3310650875766937
 40
0.5632461486775306
 40
0.5632461486775306
 40
0.5632461486775306
 40
0.8533054901458613
 40
0.8533054901458613
 40
0.8533054901458613
 40
1.0
 40
1.0
 40
1.0
 40
1.0
 10
32.02741905386866
 20
462.9880662232928
 30
0.0
 10
32.03621154145586
 20
462.9889855177611
 30
0.0
 10
32.04483373704828
 20
462.9915922797035
 30
0.0
 10
32.05251184103844
 20
462.9955006838322
 30
0.0
 10
32.06015271742462
 20
462.9993901379023
 30
0.0
 10
32.06708490655441
 20
463.0046314800258
 30
0.0
 10
32.07304448443386
 20
463.0106544668357
 30
0.0
 10
32.08140559076151
 20
463.0191045339623
 30
0.0
 10
32.08812605994682
 20
463.0293107530958
 30
0.0
 10
32.09316689602438
 20
463.040200012817
 30
0.0
 10
32.09944999696489
 20
463.0537728243394
 30
0.0
 10
32.10334601790959
 20
463.0688422529252
 30
0.0
 10
32.10486439042973
 20
463.0841165615286
 30
0.0
 10
32.10564013083889
 20
463.0919202449123
 30
0.0
 10
32.1058067992378
 20
463.0998625618558
 30
0.0
 10
32.10535391556207
 20
463.1077854646791
 30
0.0
  0
SPLINE
  5
AF
330
69
100
AcDbEntity
  8
$DDT_AUDIT_GENERATED_(AA)
  6
Continuous
 62
     7
100
AcDbSpline
210
0.0
220
0.0
230
1.0
 70
    12
 71
     2
 72
     6
 73
     3
 74
     0
 42
0.0000004797849054
 43
0.0000000001
 40
0.0
 40
0.0
 40
0.0
 40
1.0
 40
1.0
 40
1.0
 10
32.00670951480922
 20
462.9857210704934
 30
0.0
 41
1.0
 10
32.01701080655263
 20
462.9869779938131
 30
0.0
 41
1.0
 10
32.02741905386867
 20
462.9880662232928
 30
0.0
 41
1.0
  0
SPLINE
  5
B0
330
69
100
AcDbEntity
  8
$DDT_AUDIT_GENERATED_(AA)
  6
Continuous
 62
     7
100
AcDbSpline
210
0.0
220
0.0
230
1.0
 70
     8
 71
     3
 72
    10
 73
     6
 74
     0
 42
0.0000000598217728
 43
0.0000000001
 40
0.2912202842084681
 40
0.2912202842084681
 40
0.2912202842084681
 40
0.2912202842084681
 40
0.5
 40
0.5
 40
1.0
 40
1.0
 40
1.0
 40
1.0
 10
31.91122213876753
 20
463.0401243836212
 30
0.0
 10
31.91729065314266
 20
463.0305716339872
 30
0.0
 10
31.92448787377099
 20
463.0217665494234
 30
0.0
 10
31.95240485980113
 20
462.9953622345495
 30
0.0
 10
31.98001791410042
 20
462.9824642657921
 30
0.0
 10
32.00670951480921
 20
462.9857210704934
 30
0.0
  0
LINE
  5
B1
330
69
100
AcDbEntity
  8
$DDT_AUDIT_GENERATED_(AA)
  6
Continuous
 62
     7
100
AcDbLine
 10
31.6740248104
 20
463.0127922422
 30
0.0
 11
31.6185748227
 21
463.1967438283
 31
0.0
  0
SPLINE
  5
B2
330
69
100
AcDbEntity
  8
$DDT_AUDIT_GENERATED_(AA)
  6
Continuous
 62
     7
100
AcDbSpline
210
0.0
220
0.0
230
1.0
 70
     8
 71
     3
 72
    20
 73
    16
 74
     0
 42
0.0000000710010245
 43
0.0000000001
 40
0.0
 40
0.0
 40
0.0
 40
0.0
 40
0.1662420688398022
 40
0.1662420688398022
 40
0.1662420688398022
 40
0.331065087576697
 40
0.331065087576697
 40
0.331065087576697
 40
0.5632461486775368
 40
0.5632461486775368
 40
0.5632461486775368
 40
0.8533054901458693
 40
0.8533054901458693
 40
0.8533054901458693
 40
1.0
 40
1.0
 40
1.0
 40
1.0
 10
31.6847076845295
 20
462.8813002568521
 30
0.0
 10
31.68938678798088
 20
462.8845778101242
 30
0.0
 10
31.69307437415076
 20
462.8893394512586
 30
0.0
 10
31.69554461214828
 20
462.8950243654348
 30
0.0
 10
31.69800287309495
 20
462.9006817160702
 30
0.0
 10
31.69935956348494
 20
462.9073740614972
 30
0.0
 10
31.69980338153854
 20
462.9145179897602
 30
0.0
 10
31.70042604475587
 20
462.9245407036187
 30
0.0
 10
31.69930850340185
 20
462.9357277388893
 30
0.0
 10
31.69706082168886
 20
462.9471059520573
 30
0.0
 10
31.69425922075054
 20
462.9612882148319
 30
0.0
 10
31.68962607646528
 20
462.9762286068695
 30
0.0
 10
31.68383874136328
 20
462.9907556155762
 30
0.0
 10
31.68088197703807
 20
462.9981775015289
 30
0.0
 10
31.6775898849706
 20
463.0055726998834
 30
0.0
 10
31.67402481038549
 20
463.0127922421744
 30
0.0
  0
SPLINE
  5
B3
330
69
100
AcDbEntity
  8
$DDT_AUDIT_GENERATED_(AA)
  6
Continuous
 62
     7
100
AcDbSpline
210
0.0
220
0.0
230
1.0
 70
    12
 71
     2
 72
     6
 73
     3
 74
     0
 42
0.0000007525504799
 43
0.0000000001
 40
0.0
 40
0.0
 40
0.0
 40
1.0
 40
1.0
 40
1.0
 10
31.67398763828172
 20
462.8734532226463
 30
0.0
 41
1.0
 10
31.67916872124505
 20
462.8774204009277
 30
0.0
 41
1.0
 10
31.68470768452949
 20
462.8813002568521
 30
0.0
 41
1.0
  0
SPLINE
  5
B4
330
69
100
AcDbEntity
  8
$DDT_AUDIT_GENERATED_(AA)
  6
Continuous
 62
     7
100
AcDbSpline
210
0.0
220
0.0
230
1.0
 70
     8
 71
     3
 72
     8
 73
     4
 74
     0
 42
0.0000000877416409
 43
0.0000000001
 40
0.6898905430285177
 40
0.6898905430285177
 40
0.6898905430285177
 40
0.6898905430285177
 40
1.0
 40
1.0
 40
1.0
 40
1.0
 10
31.64120061245344
 20
462.8692984970597
 30
0.0
 10
31.65381072703863
 20
462.8662376197967
 30
0.0
 10
31.66566140671641
 20
462.867077790083
 30
0.0
 10
31.67398763828173
 20
462.8734532226463
 30
0.0
  0
LINE
  5
B5
330
69
100
AcDbEntity
  8
$DDT_AUDIT_GENERATED_(AA)
  6
Continuous
 62
     7
100
AcDbLine
 10
31.527967668
 20
462.8167251229
 30
0.0
 11
31.4836570752
 21
462.9075906882
 31
0.0
  0
SPLINE
  5
B6
330
69
100
AcDbEntity
  8
$DDT_AUDIT_GENERATED_(AA)
  6
Continuous
 62
     7
100
AcDbSpline
210
0.0
220
0.0
230
1.0
 70
     8
 71
     3
 72
    20
 73
    16
 74
     0
 42
0.0000000681538378
 43
0.0000000001
 40
0.0
 40
0.0
 40
0.0
 40
0.0
 40
0.166242068839801
 40
0.166242068839801
 40
0.166242068839801
 40
0.3310650875766957
 40
0.3310650875766957
 40
0.3310650875766957
 40
0.5632461486775338
 40
0.5632461486775338
 40
0.5632461486775338
 40
0.8533054901458648
 40
0.8533054901458648
 40
0.8533054901458648
 40
1.0
 40
1.0
 40
1.0
 40
1.0
 10
31.62101039515464
 20
462.7033907413986
 30
0.0
 10
31.61883515912814
 20
462.707106607219
 30
0.0
 10
31.61542799790958
 20
462.7119173379233
 30
0.0
 10
31.6112433379978
 20
462.7173021353159
 30
0.0
 10
31.60707896758225
 20
462.7226608242963
 30
0.0
 10
31.60206542840193
 20
462.7287130229263
 30
0.0
 10
31.59673350403311
 20
462.7350012675718
 30
0.0
 10
31.58925297647219
 20
462.7438234833662
 30
0.0
 10
31.58095206514753
 20
462.75336177879
 30
0.0
 10
31.57273252710756
 20
462.7629076610132
 30
0.0
 10
31.5624873641237
 20
462.7748060327619
 30
0.0
 10
31.55203908769436
 20
462.7871063585243
 30
0.0
 10
31.54233618738298
 20
462.7989217362194
 30
0.0
 10
31.53737895076437
 20
462.8049582429435
 30
0.0
 10
31.53255656111506
 20
462.8109329670652
 30
0.0
 10
31.52796766796165
 20
462.8167251229288
 30
0.0
  0
SPLINE
  5
B7
330
69
100
AcDbEntity
  8
$DDT_AUDIT_GENERATED_(AA)
  6
Continuous
 62
     7
100
AcDbSpline
210
0.0
220
0.0
230
1.0
 70
    12
 71
     2
 72
     6
 73
     3
 74
     0
 42
0.0000009643750071
 43
0.0000000001
 40
0.0
 40
0.0
 40
0.0
 40
1.0
 40
1.0
 40
1.0
 10
31.62655949942123
 20
462.6946385119998
 30
0.0
 41
1.0
 10
31.62358536547233
 20
462.69899202601
 30
0.0
 41
1.0
 10
31.62101039515463
 20
462.7033907413986
 30
0.0
 41
1.0
  0
SPLINE
  5
B8
330
69
100
AcDbEntity
  8
$DDT_AUDIT_GENERATED_(AA)
  6
Continuous
 62
     7
100
AcDbSpline
210
0.0
220
0.0
230
1.0
 70
     8
 71
     3
 72
     8
 73
     4
 74
     0
 42
0.0000002223912315
 43
0.0000000001
 40
0.7188642185599083
 40
0.7188642185599083
 40
0.7188642185599083
 40
0.7188642185599083
 40
1.0
 40
1.0
 40
1.0
 40
1.0
 10
31.62948505265517
 20
462.6851168187524
 30
0.0
 10
31.63142037756161
 20
462.6853293462445
 30
0.0
 10
31.63089250827379
 20
462.6882958875365
 30
0.0
 10
31.62655949942124
 20
462.6946385119998
 30
0.0
  0
ELLIPSE
  5
B9
330
69
100
AcDbEntity
  8
$DDT_AUDIT_GENERATED_(AA)
  6
Continuous
 62
     7
100
AcDbEllipse
 10
32.1610145125
 20
462.3468071483
 30
0.0
 11
8.422375322854238
 21
0.0
 31
0.0
210
0.0
220
0.0
230
1.0
 40
0.4226182617
 41
5.818896968946586
 42
6.283185307179586
  0
ELLIPSE
  5
BA
330
69
100
AcDbEntity
  8
$DDT_AUDIT_GENERATED_(AA)
  6
Continuous
 62
     7
100
AcDbEllipse
 10
32.1610145125
 20
462.3468071483
 30
0.0
 11
8.422375322854238
 21
0.0
 31
0.0
210
0.0
220
0.0
230
1.0
 40
0.4226182617
 41
3.123764741426142
 42
3.572401660715631
  0
ELLIPSE
  5
BB
330
69
100
AcDbEntity
  8
$DDT_AUDIT_GENERATED_(AA)
  6
Continuous
 62
     7
100
AcDbEllipse
 10
32.1610145125
 20
462.3468071483
 30
0.0
 11
8.422375322854238
 21
0.0
 31
0.0
210
0.0
220
0.0
230
1.0
 40
0.4226182617
 41
0.0
 42
0.0352007617406551
  0
ELLIPSE
  5
BC
330
69
100
AcDbEntity
  8
$DDT_AUDIT_GENERATED_(AA)
  6
Continuous
 62
     7
100
AcDbEllipse
 10
32.1610145125
 20
462.2840390337
 30
0.0
 11
8.327218268566529
 21
0.0
 31
0.0
210
0.0
220
0.0
230
1.0
 40
0.4226182617
 41
0.0
 42
0.872286631907002
  0
ELLIPSE
  5
BD
330
69
100
AcDbEntity
  8
$DDT_AUDIT_GENERATED_(AA)
  6
Continuous
 62
     7
100
AcDbEllipse
 10
32.1610145125
 20
462.2840390337
 30
0.0
 11
8.327218268566529
 21
0.0
 31
0.0
210
0.0
220
0.0
230
1.0
 40
0.4226182617
 41
0.872286631907002
 42
1.511580868443812
  0
ELLIPSE
  5
BE
330
69
100
AcDbEntity
  8
$DDT_AUDIT_GENERATED_(AA)
  6
Continuous
 62
     7
100
AcDbEllipse
 10
32.1610145125
 20
462.2840390337
 30
0.0
 11
8.327218268566529
 21
0.0
 31
0.0
210
0.0
220
0.0
230
1.0
 40
0.4226182617
 41
1.578910737220347
 42
2.34021475893633
  0
ELLIPSE
  5
BF
330
69
100
AcDbEntity
  8
$DDT_AUDIT_GENERATED_(AA)
  6
Continuous
 62
     7
100
AcDbEllipse
 10
32.1610145125
 20
462.2840390337
 30
0.0
 11
8.327218268566529
 21
0.0
 31
0.0
210
0.0
220
0.0
230
1.0
 40
0.4226182617
 41
2.34021475893633
 42
6.283185307179586
  0
ELLIPSE
  5
C0
330
69
100
AcDbEntity
  8
$DDT_AUDIT_GENERATED_(AA)
  6
Continuous
 62
     7
100
AcDbEllipse
 10
32.1610145125
 20
462.358216023
 30
0.0
 11
-6.390109892686961
 21
0.0
 31
0.0
210
0.0
220
0.0
230
1.0
 40
0.4226182617
 41
6.195482481879882
 42
6.283185307179586
  0
ELLIPSE
  5
C1
330
69
100
AcDbEntity
  8
$DDT_AUDIT_GENERATED_(AA)
  6
Continuous
 62
     7
100
AcDbEllipse
 10
32.1610145125
 20
462.358216023
 30
0.0
 11
-6.390109892686961
 21
0.0
 31
0.0
210
0.0
220
0.0
230
1.0
 40
0.4226182617
 41
2.823479580390814
 42
3.232158997998793
  0
ELLIPSE
  5
C2
330
69
100
AcDbEntity
  8
$DDT_AUDIT_GENERATED_(AA)
  6
Continuous
 62
     7
100
AcDbEllipse
 10
32.1610145125
 20
462.358216023
 30
0.0
 11
-6.390109892686961
 21
0.0
 31
0.0
210
0.0
220
0.0
230
1.0
 40
0.4226182617
 41
0.0
 42
0.3405687272237096
  0
ELLIPSE
  5
C3
330
69
100
AcDbEntity
  8
$DDT_AUDIT_GENERATED_(AA)
  6
Continuous
 62
     7
100
AcDbEllipse
 10
32.1610145125
 20
462.2840390337
 30
0.0
 11
-6.291771674648238
 21
0.0
 31
0.0
210
0.0
220
0.0
230
1.0
 40
0.4226182617
 41
4.054714841101031
 42
4.631951959795549
  0
ELLIPSE
  5
C4
330
69
100
AcDbEntity
  8
$DDT_AUDIT_GENERATED_(AA)
  6
Continuous
 62
     7
100
AcDbEllipse
 10
32.1610145125
 20
462.2840390337
 30
0.0
 11
-6.291771674648238
 21
0.0
 31
0.0
210
0.0
220
0.0
230
1.0
 40
0.4226182617
 41
4.725820096893335
 42
5.430437745132696
  0
ELLIPSE
  5
C5
330
69
100
AcDbEntity
  8
$DDT_AUDIT_GENERATED_(AA)
  6
Continuous
 62
     7
100
AcDbEllipse
 10
32.1610145125
 20
462.2840390337
 30
0.0
 11
6.275000000000001
 21
0.0
 31
0.0
210
0.0
220
0.0
230
1.0
 40
0.4226182617
 41
1.635271760109551
 42
2.334647190666242
  0
ELLIPSE
  5
C6
330
69
100
AcDbEntity
  8
$DDT_AUDIT_GENERATED_(AA)
  6
Continuous
 62
     7
100
AcDbEllipse
 10
32.1610145125
 20
462.2840390337
 30
0.0
 11
6.275000000000001
 21
0.0
 31
0.0
210
0.0
220
0.0
230
1.0
 40
0.4226182617
 41
0.8344813698473155
 42
1.561624810878521
  0
ELLIPSE
  5
C7
330
69
100
AcDbEntity
  8
$DDT_AUDIT_GENERATED_(AA)
  6
Continuous
 62
     7
100
AcDbEllipse
 10
32.1610145125
 20
462.3746698124
 30
0.0
 11
-6.175000000000001
 21
1.387778780781446E-14
 31
0.0
210
0.0
220
0.0
230
1.0
 40
0.4226182617
 41
0.0000000000000053
 42
0.203277986142041
  0
ELLIPSE
  5
C8
330
69
100
AcDbEntity
  8
$DDT_AUDIT_GENERATED_(AA)
  6
Continuous
 62
     7
100
AcDbEllipse
 10
32.1610145125
 20
462.3746698124
 30
0.0
 11
-6.175000000000001
 21
1.387778780781446E-14
 31
0.0
210
0.0
220
0.0
230
1.0
 40
0.4226182617
 41
2.936967318453325
 42
3.306917385620014
  0
ELLIPSE
  5
C9
330
69
100
AcDbEntity
  8
$DDT_AUDIT_GENERATED_(AA)
  6
Continuous
 62
     7
100
AcDbEllipse
 10
32.1610145125
 20
462.3746698124
 30
0.0
 11
-6.175000000000001
 21
1.387778780781446E-14
 31
0.0
210
0.0
220
0.0
230
1.0
 40
0.4226182617
 41
6.107466759200977
 42
6.283185307179586
  0
ELLIPSE
  5
CA
330
69
100
AcDbEntity
  8
$DDT_AUDIT_GENERATED_(AA)
  6
Continuous
 62
     7
100
AcDbEllipse
 10
32.1610145125
 20
462.3608887514
 30
0.0
 11
4.650545274088402
 21
0.0
 31
0.0
210
0.0
220
0.0
230
1.0
 40
0.4226182617
 41
5.976269864710852
 42
6.283185307179586
  0
ELLIPSE
  5
CB
330
69
100
AcDbEntity
  8
$DDT_AUDIT_GENERATED_(AA)
  6
Continuous
 62
     7
100
AcDbEllipse
 10
32.1610145125
 20
462.3608887514
 30
0.0
 11
4.650545274088402
 21
0.0
 31
0.0
210
0.0
220
0.0
230
1.0
 40
0.4226182617
 41
3.020871600802006
 42
3.456701981873482
  0
ELLIPSE
  5
CC
330
69
100
AcDbEntity
  8
$DDT_AUDIT_GENERATED_(AA)
  6
Continuous
 62
     7
100
AcDbEllipse
 10
32.1610145125
 20
462.3608887514
 30
0.0
 11
4.650545274088402
 21
0.0
 31
0.0
210
0.0
220
0.0
230
1.0
 40
0.4226182617
 41
0.0
 42
0.1167286744533647
  0
ELLIPSE
  5
CD
330
69
100
AcDbEntity
  8
$DDT_AUDIT_GENERATED_(AA)
  6
Continuous
 62
     7
100
AcDbEllipse
 10
32.1610145125
 20
462.2840390337
 30
0.0
 11
-4.551708104323339
 21
0.0
 31
0.0
210
0.0
220
0.0
230
1.0
 40
0.4226182617
 41
3.944759705111066
 42
4.680565544922546
  0
ELLIPSE
  5
CE
330
69
100
AcDbEntity
  8
$DDT_AUDIT_GENERATED_(AA)
  6
Continuous
 62
     7
100
AcDbEllipse
 10
32.1610145125
 20
462.2840390337
 30
0.0
 11
-4.551708104323339
 21
0.0
 31
0.0
210
0.0
220
0.0
230
1.0
 40
0.4226182617
 41
4.72371356049781
 42
5.404070997425612
  0
ELLIPSE
  5
CF
330
69
100
AcDbEntity
  8
$DDT_AUDIT_GENERATED_(AA)
  6
Continuous
 62
     7
100
AcDbEllipse
 10
32.1610145125
 20
462.2840390337
 30
0.0
 11
-4.537499999999997
 21
0.0
 31
0.0
210
0.0
220
0.0
230
1.0
 40
0.4226182617
 41
4.749122433089363
 42
5.475782623039848
  0
ELLIPSE
  5
D0
330
69
100
AcDbEntity
  8
$DDT_AUDIT_GENERATED_(AA)
  6
Continuous
 62
     7
100
AcDbEllipse
 10
32.1610145125
 20
462.2840390337
 30
0.0
 11
-4.537499999999997
 21
0.0
 31
0.0
210
0.0
220
0.0
230
1.0
 40
0.4226182617
 41
4.022002106302628
 42
4.701517719188958
  0
ELLIPSE
  5
D1
330
69
100
AcDbEntity
  8
$DDT_AUDIT_GENERATED_(AA)
  6
Continuous
 62
     7
100
AcDbEllipse
 10
32.1610145125
 20
462.3746698124
 30
0.0
 11
4.437499999999999
 21
0.0
 31
0.0
210
0.0
220
0.0
230
1.0
 40
0.4226182617
 41
0.0
 42
0.0235907385363217
  0
ELLIPSE
  5
D2
330
69
100
AcDbEntity
  8
$DDT_AUDIT_GENERATED_(AA)
  6
Continuous
 62
     7
100
AcDbEllipse
 10
32.1610145125
 20
462.3746698124
 30
0.0
 11
4.437499999999999
 21
0.0
 31
0.0
210
0.0
220
0.0
230
1.0
 40
0.4226182617
 41
3.110780362636067
 42
3.141592653589793
  0
ELLIPSE
  5
D3
330
69
100
AcDbEntity
  8
$DDT_AUDIT_GENERATED_(AA)
  6
Continuous
 62
     7
100
AcDbEllipse
 10
32.1610145125
 20
462.358216023
 30
0.0
 11
-2.877609892686964
 21
0.0
 31
0.0
210
0.0
220
0.0
230
1.0
 40
0.4226182617
 41
-3.234884708356462
 42
-3.22778691093004
  0
ELLIPSE
  5
D4
330
69
100
AcDbEntity
  8
$DDT_AUDIT_GENERATED_(AA)
  6
Continuous
 62
     7
100
AcDbEllipse
 10
32.1610145125
 20
462.358216023
 30
0.0
 11
-2.877609892686964
 21
0.0
 31
0.0
210
0.0
220
0.0
230
1.0
 40
0.4226182617
 41
0.0861942573402317
 42
0.1164685513059581
  0
ELLIPSE
  5
D5
330
69
100
AcDbEntity
  8
$DDT_AUDIT_GENERATED_(AA)
  6
Continuous
 62
     7
100
AcDbEllipse
 10
32.1610145125
 20
462.2840390337
 30
0.0
 11
-2.779271674648244
 21
0.0
 31
0.0
210
0.0
220
0.0
230
1.0
 40
0.4226182617
 41
4.036490365241837
 42
4.657983011208504
  0
ELLIPSE
  5
D6
330
69
100
AcDbEntity
  8
$DDT_AUDIT_GENERATED_(AA)
  6
Continuous
 62
     7
100
AcDbEllipse
 10
32.1610145125
 20
462.2840390337
 30
0.0
 11
-2.779271674648244
 21
0.0
 31
0.0
210
0.0
220
0.0
230
1.0
 40
0.4226182617
 41
4.71238898038469
 42
5.357008221188794
  0
ELLIPSE
  5
D7
330
69
100
AcDbEntity
  8
$DDT_AUDIT_GENERATED_(AA)
  6
Continuous
 62
     7
100
AcDbEllipse
 10
32.1610145125
 20
462.2840390337
 30
0.0
 11
2.762500000000001
 21
0.0
 31
0.0
210
0.0
220
0.0
230
1.0
 40
0.4226182617
 41
0.9161803861828444
 42
2.258248878966326
  0
ELLIPSE
  5
D8
330
69
100
AcDbEntity
  8
$DDT_AUDIT_GENERATED_(AA)
  6
Continuous
 62
     7
100
AcDbEllipse
 10
32.1610145125
 20
462.3746698124
 30
0.0
 11
-2.662500000000001
 21
0.0
 31
0.0
210
0.0
220
0.0
230
1.0
 40
0.4226182617
 41
3.116703334235005
 42
3.141592653589793
  0
ELLIPSE
  5
D9
330
69
100
AcDbEntity
  8
$DDT_AUDIT_GENERATED_(AA)
  6
Continuous
 62
     7
100
AcDbEllipse
 10
32.1610145125
 20
462.3746698124
 30
0.0
 11
-2.662500000000001
 21
0.0
 31
0.0
210
0.0
220
0.0
230
1.0
 40
0.4226182617
 41
6.264097694280151
 42
6.283185307179586
  0
ELLIPSE
  5
DA
330
69
100
AcDbEntity
  8
$DDT_AUDIT_GENERATED_(AA)
  6
Continuous
 62
     7
100
AcDbEllipse
 10
32.1610145125
 20
463.7567891876
 30
0.0
 11
-4.437499999999865
 21
-6.938893903907228E-14
 31
0.0
210
0.0
220
0.0
230
1.0
 40
0.4226182617
 41
-3.614465452590717
 42
-3.525130364764599
  0
SPLINE
  5
DB
330
69
100
AcDbEntity
  8
$DDT_AUDIT_GENERATED_(AA)
  6
Continuous
 62
     7
100
AcDbSpline
210
0.0
220
0.0
230
1.0
 70
    12
 71
     2
 72
     6
 73
     3
 74
     0
 42
0.0000000104055989
 43
0.0000000001
 40
0.0
 40
0.0
 40
0.0
 40
1.0
 40
1.0
 40
1.0
 10
36.05785989286993
 20
461.9431418861245
 30
0.0
 41
1.0
 10
36.08535543232374
 20
462.4227466873436
 30
0.0
 41
1.0
 10
36.1115590580184
 20
462.9026606336644
 30
0.0
 41
1.0
  0
SPLINE
  5
DC
330
69
100
AcDbEntity
  8
$DDT_AUDIT_GENERATED_(AA)
  6
Continuous
 62
     7
100
AcDbSpline
210
0.0
220
0.0
230
1.0
 70
     8
 71
     3
 72
    20
 73
    16
 74
     0
 42
0.0000000768307746
 43
0.0000000001
 40
0.0
 40
0.0
 40
0.0
 40
0.0
 40
0.2315617251741046
 40
0.2315617251741046
 40
0.2315617251741046
 40
0.4631201961537088
 40
0.4631201961537088
 40
0.4631201961537088
 40
0.6947246952950202
 40
0.6947246952950202
 40
0.6947246952950202
 40
0.9263410357509406
 40
0.9263410357509406
 40
0.9263410357509406
 40
1.0
 40
1.0
 40
1.0
 40
1.0
 10
36.05785989287001
 20
461.9431418861244
 30
0.0
 10
36.05725524672602
 20
461.9325949077203
 30
0.0
 10
36.05572406441163
 20
461.921387579876
 30
0.0
 10
36.05338366863409
 20
461.9104504283869
 30
0.0
 10
36.05104329228201
 20
461.8995133676769
 30
0.0
 10
36.04782852686218
 20
461.8885450033313
 30
0.0
 10
36.04398852295773
 20
461.8784571563283
 30
0.0
 10
36.04014777456503
 20
461.8683673535244
 30
0.0
 10
36.03557473755016
 20
461.8588803150103
 30
0.0
 10
36.03063102332426
 20
461.8507856055641
 30
0.0
 10
36.02568708602034
 20
461.8426905308558
 30
0.0
 10
36.02023535007712
 20
461.8357647863016
 30
0.0
 10
36.01471795555894
 20
461.8305846140375
 30
0.0
 10
36.01294063501398
 20
461.8289159230346
 30
0.0
 10
36.01114644915184
 20
461.827414194645
 30
0.0
 10
36.00935105101225
 20
461.8260926069352
 30
0.0
  0
LINE
  5
DD
330
69
100
AcDbEntity
  8
$DDT_AUDIT_GENERATED_(AA)
  6
Continuous
 62
     7
100
AcDbLine
 10
35.9986310048
 20
461.8182455727
 30
0.0
 11
36.009351051
 21
461.8260926069
 31
0.0
  0
SPLINE
  5
DE
330
69
100
AcDbEntity
  8
$DDT_AUDIT_GENERATED_(AA)
  6
Continuous
 62
     7
100
AcDbSpline
210
0.0
220
0.0
230
1.0
 70
     8
 71
     3
 72
    11
 73
     7
 74
     0
 42
0.0000001307305188
 43
0.0000000001
 40
0.0
 40
0.0
 40
0.0
 40
0.0
 40
0.2315601448090014
 40
0.2315601448090014
 40
0.2315601448090014
 40
0.3389676295923085
 40
0.3389676295923085
 40
0.3389676295923085
 40
0.3389676295923085
 10
35.99863100476445
 20
461.8182455727294
 30
0.0
 10
35.9930119873604
 20
461.8141553242745
 30
0.0
 10
35.98727686080206
 20
461.8117691335897
 30
0.0
 10
35.98190651917143
 20
461.8112829583053
 30
0.0
 10
35.97941551241037
 20
461.8110574482719
 30
0.0
 10
35.97697123833594
 20
461.8112378023242
 30
0.0
 10
35.97461777389003
 20
461.8118120635407
 30
0.0
  0
SPLINE
  5
DF
330
69
100
AcDbEntity
  8
$DDT_AUDIT_GENERATED_(AA)
  6
Continuous
 62
     7
100
AcDbSpline
210
0.0
220
0.0
230
1.0
 70
    12
 71
     2
 72
     6
 73
     3
 74
     0
 42
0.0000000106734338
 43
0.0000000001
 40
0.7960126759965264
 40
0.7960126759965264
 40
0.7960126759965264
 40
1.0
 40
1.0
 40
1.0
 10
33.4379771213496
 20
461.2311701930053
 30
0.0
 41
1.0
 10
33.42674673185754
 20
461.1362623796198
 30
0.0
 41
1.0
 10
33.41550025204184
 20
461.0413796571927
 30
0.0
 41
1.0
  0
ARC
  5
E0
330
69
100
AcDbEntity
  8
$DDT_AUDIT_GENERATED_(AA)
  6
Continuous
 62
     7
100
AcDbCircle
 10
33.3077259982
 20
461.0579184577
 30
0.0
 40
0.1090358737034702
100
AcDbArc
 50
276.397532078
 51
351.2755752464
  0
LINE
  5
E1
330
69
100
AcDbEntity
  8
$DDT_AUDIT_GENERATED_(AA)
  6
Continuous
 62
     7
100
AcDbLine
 10
33.3198754433
 20
460.949561581
 30
0.0
 11
33.2991659042
 21
460.9472164282
 31
0.0
  0
ARC
  5
E2
330
69
100
AcDbEntity
  8
$DDT_AUDIT_GENERATED_(AA)
  6
Continuous
 62
     7
100
AcDbCircle
 10
33.2855672265
 20
461.0297641142
 30
0.0
 40
0.0836602922406951
100
AcDbArc
 50
212.3841147117
 51
279.3547283152
  0
ELLIPSE
  5
E3
330
69
100
AcDbEntity
  8
$DDT_AUDIT_GENERATED_(AA)
  6
Continuous
 62
     7
100
AcDbEllipse
 10
-145.2905757113
 20
505.2658711206
 30
0.0
 11
96.62959467952253
 21
-183.7024805531924
 31
0.0
210
0.0
220
0.0
230
0.9999999999999997
 40
0.8275836342
 41
0.9441838599793034
 42
0.9468295874837721
  0
SPLINE
  5
E4
330
69
100
AcDbEntity
  8
$DDT_AUDIT_GENERATED_(AA)
  6
Continuous
 62
     7
100
AcDbSpline
210
0.0
220
0.0
230
1.0
 70
     8
 71
     3
 72
    20
 73
    16
 74
     0
 42
0.000000076906868
 43
0.0000000001
 40
0.0
 40
0.0
 40
0.0
 40
0.0
 40
0.231503175539851
 40
0.231503175539851
 40
0.231503175539851
 40
0.4629973077722656
 40
0.4629973077722656
 40
0.4629973077722656
 40
0.6946193131207108
 40
0.6946193131207108
 40
0.6946193131207108
 40
0.926274237691373
 40
0.926274237691373
 40
0.926274237691373
 40
1.0
 40
1.0
 40
1.0
 40
1.0
 10
34.51987583920314
 20
462.3184080995616
 30
0.0
 10
34.51928942371785
 20
462.307858553472
 30
0.0
 10
34.5178048231969
 20
462.2966422747318
 30
0.0
 10
34.51552930281795
 20
462.2856922735075
 30
0.0
 10
34.51325383492423
 20
462.2747425248465
 30
0.0
 10
34.51012369857416
 20
462.2637573566723
 30
0.0
 10
34.50636957329263
 20
462.2536516447048
 30
0.0
 10
34.50261342538344
 20
462.2435404880354
 30
0.0
 10
34.4981275476259
 20
462.2340311636135
 30
0.0
 10
34.49325476265648
 20
462.2259174967848
 30
0.0
 10
34.48838136644461
 20
462.2178028121773
 30
0.0
 10
34.48298527631916
 20
462.2108605498153
 30
0.0
 10
34.47749793509971
 20
462.2056705954832
 30
0.0
 10
34.47572896942704
 20
462.2039974990437
 30
0.0
 10
34.47394061860958
 20
462.2024922584534
 30
0.0
 10
34.47214848332094
 20
462.2011681383585
 30
0.0
  0
SPLINE
  5
E5
330
69
100
AcDbEntity
  8
$DDT_AUDIT_GENERATED_(AA)
  6
Continuous
 62
     7
100
AcDbSpline
210
0.0
220
0.0
230
1.0
 70
    12
 71
     2
 72
     6
 73
     3
 74
     0
 42
0.0000007527124799
 43
0.0000000001
 40
0.0
 40
0.0
 40
0.0
 40
1.0
 40
1.0
 40
1.0
 10
34.47214848332095
 20
462.2011681383585
 30
0.0
 41
1.0
 10
34.46682584007278
 20
462.197235500612
 30
0.0
 41
1.0
 10
34.46142843707313
 20
462.1933211041527
 30
0.0
 41
1.0
  0
SPLINE
  5
E6
330
69
100
AcDbEntity
  8
$DDT_AUDIT_GENERATED_(AA)
  6
Continuous
 62
     7
100
AcDbSpline
210
0.0
220
0.0
230
1.0
 70
     8
 71
     3
 72
    11
 73
     7
 74
     0
 42
0.0000001297293514
 43
0.0000000001
 40
0.0
 40
0.0
 40
0.0
 40
0.0
 40
0.2314987849631123
 40
0.2314987849631123
 40
0.2314987849631123
 40
0.3389603824158069
 40
0.3389603824158069
 40
0.3389603824158069
 40
0.3389603824158069
 10
34.46142843707313
 20
462.1933211041527
 30
0.0
 10
34.45579485871179
 20
462.1892354245783
 30
0.0
 10
34.45001931486808
 20
462.186859610385
 30
0.0
 10
34.44459004188384
 20
462.1863874508456
 30
0.0
 10
34.44206974023921
 20
462.1861682715067
 30
0.0
 10
34.43959198328496
 20
462.1863564097412
 30
0.0
 10
34.43720256275389
 20
462.1869394604894
 30
0.0
  0
ELLIPSE
  5
E7
330
69
100
AcDbEntity
  8
$DDT_AUDIT_GENERATED_(AA)
  6
Continuous
 62
     7
100
AcDbEllipse
 10
-20.8713908269
 20
545.6131091572
 30
0.0
 11
1.373495492635025
 21
-207.5621619425209
 31
0.0
210
0.0
220
0.0
230
1.0
 40
0.2807871032
 41
1.153097602112762
 42
1.15709826623828
  0
ARC
  5
E8
330
69
100
AcDbEntity
  8
$DDT_AUDIT_GENERATED_(AA)
  6
Continuous
 62
     7
100
AcDbCircle
 10
32.847923037
 20
461.7825813621
 30
0.0
 40
0.1091529518681776
100
AcDbArc
 50
276.6003369845
 51
351.4420293405
  0
LINE
  5
E9
330
69
100
AcDbEntity
  8
$DDT_AUDIT_GENERATED_(AA)
  6
Continuous
 62
     7
100
AcDbLine
 10
32.860469404
 20
461.6741518662
 30
0.0
 11
32.8397598649
 21
461.6718067134
 31
0.0
  0
ARC
  5
EA
330
69
100
AcDbEntity
  8
$DDT_AUDIT_GENERATED_(AA)
  6
Continuous
 62
     7
100
AcDbCircle
 10
32.8263745076
 20
461.7548571956
 30
0.0
 40
0.0841222347586703
100
AcDbArc
 50
212.360518828
 51
279.1557024134
  0
SPLINE
  5
EB
330
69
100
AcDbEntity
  8
$DDT_AUDIT_GENERATED_(AA)
  6
Continuous
 62
     7
100
AcDbSpline
210
0.0
220
0.0
230
1.0
 70
    12
 71
     2
 72
     6
 73
     3
 74
     0
 42
0.000000009947353
 43
0.0000000001
 40
0.8850846989053348
 40
0.8850846989053348
 40
0.8850846989053348
 40
1.0
 40
1.0
 40
1.0
 10
31.50500901716736
 20
464.1815231541713
 30
0.0
 41
1.0
 10
31.5013400862083
 20
464.1238806834043
 30
0.0
 41
1.0
 10
31.49767757982245
 20
464.0662325283901
 30
0.0
 41
1.0
  0
ARC
  5
EC
330
69
100
AcDbEntity
  8
$DDT_AUDIT_GENERATED_(AA)
  6
Continuous
 62
     7
100
AcDbCircle
 10
31.3926516071
 20
464.0736126627
 30
0.0
 40
0.1052849529896163
100
AcDbArc
 50
276.9652604691
 51
355.9804550514
  0
LINE
  5
ED
330
69
100
AcDbEntity
  8
$DDT_AUDIT_GENERATED_(AA)
  6
Continuous
 62
     7
100
AcDbLine
 10
31.4054192524
 20
463.9691047273
 30
0.0
 11
31.3847097133
 21
463.9667595745
 31
0.0
  0
ARC
  5
EE
330
69
100
AcDbEntity
  8
$DDT_AUDIT_GENERATED_(AA)
  6
Continuous
 62
     7
100
AcDbCircle
 10
31.3731923492
 20
464.055137606
 30
0.0
 40
0.0891253394066468
100
AcDbArc
 50
212.7087088334
 51
277.4249024894
  0
SPLINE
  5
EF
330
69
100
AcDbEntity
  8
$DDT_AUDIT_GENERATED_(AA)
  6
Continuous
 62
     7
100
AcDbSpline
210
0.0
220
0.0
230
1.0
 70
    12
 71
     2
 72
     6
 73
     3
 74
     0
 42
0.0000000099815815
 43
0.0000000001
 40
0.6394130613709441
 40
0.6394130613709441
 40
0.6394130613709441
 40
1.0
 40
1.0
 40
1.0
 10
29.60463057523496
 20
463.8683679939739
 30
0.0
 41
1.0
 10
29.62256576484967
 20
463.6886494830081
 30
0.0
 41
1.0
 10
29.64070016143102
 20
463.5089209497953
 30
0.0
 41
1.0
  0
SPLINE
  5
F0
330
69
100
AcDbEntity
  8
$DDT_AUDIT_GENERATED_(AA)
  6
Continuous
 62
     7
100
AcDbSpline
210
0.0
220
0.0
230
1.0
 70
     8
 71
     3
 72
    20
 73
    16
 74
     0
 42
0.000000076671423
 43
0.0000000001
 40
0.0
 40
0.0
 40
0.0
 40
0.0
 40
0.2348909763293502
 40
0.2348909763293502
 40
0.2348909763293502
 40
0.4699467598501541
 40
0.4699467598501541
 40
0.4699467598501541
 40
0.702546017013065
 40
0.702546017013065
 40
0.702546017013065
 40
0.9322077561171234
 40
0.9322077561171234
 40
0.9322077561171234
 40
1.0
 40
1.0
 40
1.0
 40
1.0
 10
29.64070016141552
 20
463.5089209497871
 30
0.0
 10
29.641812213442
 20
463.4979038102226
 30
0.0
 10
29.64187500281956
 20
463.4862289232386
 30
0.0
 10
29.64088389463631
 20
463.4748532742825
 30
0.0
 10
29.6398923776956
 20
463.4634729337281
 30
0.0
 10
29.63781763089899
 20
463.4520757978387
 30
0.0
 10
29.63484697618781
 20
463.4416305569852
 30
0.0
 10
29.63190718272953
 20
463.4312938286487
 30
0.0
 10
29.62800823973121
 20
463.4216001829744
 30
0.0
 10
29.62349854793056
 20
463.4133811027531
 30
0.0
 10
29.61904480474383
 20
463.4052639909515
 30
0.0
 10
29.6138722514223
 20
463.3983587602369
 30
0.0
 10
29.60842699177715
 20
463.3932507744538
 30
0.0
 10
29.60679820560669
 20
463.3917228736476
 30
0.0
 10
29.60513685360216
 20
463.390343460554
 30
0.0
 10
29.60345578511471
 20
463.3891231545012
 30
0.0
  0
SPLINE
  5
F1
330
69
100
AcDbEntity
  8
$DDT_AUDIT_GENERATED_(AA)
  6
Continuous
 62
     7
100
AcDbSpline
210
0.0
220
0.0
230
1.0
 70
    12
 71
     2
 72
     6
 73
     3
 74
     0
 42
0.0000007527138888
 43
0.0000000001
 40
0.0
 40
0.0
 40
0.0
 40
1.0
 40
1.0
 40
1.0
 10
29.60345578511468
 20
463.3891231545012
 30
0.0
 41
1.0
 10
29.59806213254246
 20
463.3852078429423
 30
0.0
 41
1.0
 10
29.59273573886689
 20
463.3812761202955
 30
0.0
 41
1.0
  0
SPLINE
  5
F2
330
69
100
AcDbEntity
  8
$DDT_AUDIT_GENERATED_(AA)
  6
Continuous
 62
     7
100
AcDbSpline
210
0.0
220
0.0
230
1.0
 70
     8
 71
     3
 72
    11
 73
     7
 74
     0
 42
0.0000001247156735
 43
0.0000000001
 40
0.0
 40
0.0
 40
0.0
 40
0.0
 40
0.2280395246268691
 40
0.2280395246268691
 40
0.2280395246268691
 40
0.3372698643068726
 40
0.3372698643068726
 40
0.3372698643068726
 40
0.3372698643068726
 10
29.59273573886691
 20
463.3812761202955
 30
0.0
 10
29.58722593045648
 20
463.3772090085072
 30
0.0
 10
29.58139311270653
 20
463.3748658983925
 30
0.0
 10
29.57571317560312
 20
463.3744377329951
 30
0.0
 10
29.57299220582588
 20
463.3742326206699
 30
0.0
 10
29.57027038383795
 20
463.374464061623
 30
0.0
 10
29.56759647034828
 20
463.3751173044907
 30
0.0
  0
LINE
  5
F3
330
69
100
AcDbEntity
  8
$DDT_AUDIT_GENERATED_(AA)
  6
Continuous
 62
     7
100
AcDbLine
 10
32.1717345587
 20
460.1501867882
 30
0.0
 11
32.1502944662
 21
460.1501867882
 31
0.0
  0
SPLINE
  5
F4
330
69
100
AcDbEntity
  8
$DDT_AUDIT_GENERATED_(AA)
  6
Continuous
 62
     7
100
AcDbSpline
210
0.0
220
0.0
230
1.0
 70
    12
 71
     2
 72
     6
 73
     3
 74
     0
 42
0.0000000103720745
 43
0.0000000001
 40
0.4437423270147819
 40
0.4437423270147819
 40
0.4437423270147819
 40
1.0
 40
1.0
 40
1.0
 10
38.16827383661177
 20
462.7459505830706
 30
0.0
 41
1.0
 10
38.1608717212747
 20
462.4778880453975
 30
0.0
 41
1.0
 10
38.15314960340712
 20
462.2098607805083
 30
0.0
 41
1.0
  0
ARC
  5
F5
330
69
100
AcDbEntity
  8
$DDT_AUDIT_GENERATED_(AA)
  6
Continuous
 62
     7
100
AcDbCircle
 10
37.854177222
 20
462.2079816465
 30
0.0
 40
0.2989782863875766
100
AcDbArc
 50
336.5066246064
 51
0.3601168853
  0
LINE
  5
F6
330
69
100
AcDbEntity
  8
$DDT_AUDIT_GENERATED_(AA)
  6
Continuous
 62
     7
100
AcDbLine
 10
38.1283720538
 20
462.0887960351
 30
0.0
 11
38.1228229495
 21
462.0800438057
 31
0.0
  0
SPLINE
  5
F7
330
69
100
AcDbEntity
  8
$DDT_AUDIT_GENERATED_(AA)
  6
Continuous
 62
     7
100
AcDbSpline
210
0.0
220
0.0
230
1.0
 70
     8
 71
     3
 72
    11
 73
     7
 74
     0
 42
0.0000002010774556
 43
0.0000000001
 40
0.0
 40
0.0
 40
0.0
 40
0.0
 40
0.2315768354864387
 40
0.2315768354864387
 40
0.2315768354864387
 40
0.308341331729345
 40
0.308341331729345
 40
0.308341331729345
 40
0.308341331729345
 10
38.12282294953159
 20
462.0800438057203
 30
0.0
 10
38.11990753788027
 20
462.075477248473
 30
0.0
 10
38.11692093155448
 20
462.0726024036325
 30
0.0
 10
38.11411522282911
 20
462.0716566997279
 30
0.0
 10
38.11318516695832
 20
462.0713432112105
 30
0.0
 10
38.11226653307724
 20
462.0712388281128
 30
0.0
 10
38.11136791233611
 20
462.0713406094376
 30
0.0
  0
SPLINE
  5
F8
330
69
100
AcDbEntity
  8
$DDT_AUDIT_GENERATED_(AA)
  6
Continuous
 62
     7
100
AcDbSpline
210
0.0
220
0.0
230
1.0
 70
    12
 71
     2
 72
     6
 73
     3
 74
     0
 42
0.0000000104085307
 43
0.0000000001
 40
0.0
 40
0.0
 40
0.0
 40
0.5775033425898056
 40
0.5775033425898056
 40
0.5775033425898056
 10
37.56291186137608
 20
461.5759110617868
 30
0.0
 41
1.0
 10
37.57899119122565
 20
461.8528346499281
 30
0.0
 41
1.0
 10
37.59476124684675
 20
462.1298326549173
 30
0.0
 41
1.0
  0
SPLINE
  5
F9
330
69
100
AcDbEntity
  8
$DDT_AUDIT_GENERATED_(AA)
  6
Continuous
 62
     7
100
AcDbSpline
210
0.0
220
0.0
230
1.0
 70
     8
 71
     3
 72
    20
 73
    16
 74
     0
 42
0.0000000767977885
 43
0.0000000001
 40
0.0
 40
0.0
 40
0.0
 40
0.0
 40
0.2315776519147192
 40
0.2315776519147192
 40
0.2315776519147192
 40
0.463153623065604
 40
0.463153623065604
 40
0.463153623065604
 40
0.694753363203157
 40
0.694753363203157
 40
0.694753363203157
 40
0.9263592170776642
 40
0.9263592170776642
 40
0.9263592170776642
 40
1.0
 40
1.0
 40
1.0
 40
1.0
 10
37.56291186137616
 20
461.5759110617868
 30
0.0
 10
37.56229954162223
 20
461.565365443537
 30
0.0
 10
37.56074877516573
 20
461.5541622373141
 30
0.0
 10
37.55838114899068
 20
461.5432309195538
 30
0.0
 10
37.55601353296291
 20
461.5322996486435
 30
0.0
 10
37.55276329600588
 20
461.5213388933382
 30
0.0
 10
37.54888734488298
 20
461.5112589772391
 30
0.0
 10
37.54501100573715
 20
461.5011780520357
 30
0.0
 10
37.54040128618153
 20
461.4917002412487
 30
0.0
 10
37.53542767566138
 20
461.4836132754338
 30
0.0
 10
37.53045394926708
 20
461.4755261212104
 30
0.0
 10
37.52497862153486
 20
461.4686069324536
 30
0.0
 10
37.51944838477304
 20
461.4634305596053
 30
0.0
 10
37.51766729132996
 20
461.4617634331989
 30
0.0
 10
37.51587038362327
 20
461.4602629372042
 30
0.0
 10
37.5140733454182
 20
461.4589422221512
 30
0.0
  0
LINE
  5
FA
330
69
100
AcDbEntity
  8
$DDT_AUDIT_GENERATED_(AA)
  6
Continuous
 62
     7
100
AcDbLine
 10
37.5033532992
 20
461.4510951879
 30
0.0
 11
37.5140733454
 21
461.4589422222
 31
0.0
  0
SPLINE
  5
FB
330
69
100
AcDbEntity
  8
$DDT_AUDIT_GENERATED_(AA)
  6
Continuous
 62
     7
100
AcDbSpline
210
0.0
220
0.0
230
1.0
 70
     8
 71
     3
 72
    11
 73
     7
 74
     0
 42
0.0000001311567601
 43
0.0000000001
 40
0.0
 40
0.0
 40
0.0
 40
0.0
 40
0.2315768355022701
 40
0.2315768355022701
 40
0.2315768355022701
 40
0.3389695972259136
 40
0.3389695972259136
 40
0.3389695972259136
 40
0.3389695972259136
 10
37.50335329917041
 20
461.4510951879455
 30
0.0
 10
37.49774058574937
 20
461.4470031249144
 30
0.0
 10
37.4920227017706
 20
461.444612587031
 30
0.0
 10
37.4866774310034
 20
461.4441203934341
 30
0.0
 10
37.48419857801102
 20
461.4438921401568
 30
0.0
 10
37.48176823716091
 20
461.4440691994099
 30
0.0
 10
37.479429768472
 20
461.4446397972562
 30
0.0
  0
SPLINE
  5
FC
330
69
100
AcDbEntity
  8
$DDT_AUDIT_GENERATED_(AA)
  6
Continuous
 62
     7
100
AcDbSpline
210
0.0
220
0.0
230
1.0
 70
    12
 71
     2
 72
     6
 73
     3
 74
     0
 42
0.0000000104711629
 43
0.0000000001
 40
0.351247585545349
 40
0.351247585545349
 40
0.351247585545349
 40
1.0
 40
1.0
 40
1.0
 10
36.6560031937669
 20
461.6455439924337
 30
0.0
 41
1.0
 10
36.63043282823075
 20
461.3367672343351
 30
0.0
 41
1.0
 10
36.60454374177332
 20
461.0281238367953
 30
0.0
 41
1.0
  0
ARC
  5
FD
330
69
100
AcDbEntity
  8
$DDT_AUDIT_GENERATED_(AA)
  6
Continuous
 62
     7
100
AcDbCircle
 10
36.4685031529
 20
461.0367529385
 30
0.0
 40
0.1363139870198456
100
AcDbArc
 50
299.1842441187
 51
356.370571096
  0
LINE
  5
FE
330
69
100
AcDbEntity
  8
$DDT_AUDIT_GENERATED_(AA)
  6
Continuous
 62
     7
100
AcDbLine
 10
36.5349725239
 20
460.9177431668
 30
0.0
 11
36.5198120891
 21
460.9113360902
 31
0.0
  0
SPLINE
  5
FF
330
69
100
AcDbEntity
  8
$DDT_AUDIT_GENERATED_(AA)
  6
Continuous
 62
     7
100
AcDbSpline
210
0.0
220
0.0
230
1.0
 70
     8
 71
     3
 72
    11
 73
     7
 74
     0
 42
0.0000000986852804
 43
0.0000000001
 40
0.0
 40
0.0
 40
0.0
 40
0.0
 40
0.2315768354864399
 40
0.2315768354864399
 40
0.2315768354864399
 40
0.4007001667520518
 40
0.4007001667520518
 40
0.4007001667520518
 40
0.4007001667520518
 10
36.51981208912876
 20
460.9113360901737
 30
0.0
 10
36.51188457108219
 20
460.9079973886918
 30
0.0
 10
36.50382507379434
 20
460.906373407076
 30
0.0
 10
36.49630451235463
 20
460.9065970522968
 30
0.0
 10
36.4908121416814
 20
460.9067603835136
 30
0.0
 10
36.48549675454898
 20
460.9079123610504
 30
0.0
 10
36.48059363088167
 20
460.9099844879721
 30
0.0
  0
SPLINE
  5
100
330
69
100
AcDbEntity
  8
$DDT_AUDIT_GENERATED_(AA)
  6
Continuous
 62
     7
100
AcDbSpline
210
0.0
220
0.0
230
1.0
 70
    12
 71
     2
 72
     6
 73
     3
 74
     0
 42
0.0000000105616513
 43
0.0000000001
 40
0.6787194071804705
 40
0.6787194071804705
 40
0.6787194071804705
 40
1.0
 40
1.0
 40
1.0
 10
35.37494701569062
 20
460.9063805320681
 30
0.0
 41
1.0
 10
35.35917937524786
 20
460.7550851499941
 30
0.0
 41
1.0
 10
35.34335644862981
 20
460.6038298998975
 30
0.0
 41
1.0
  0
ARC
  5
101
330
69
100
AcDbEntity
  8
$DDT_AUDIT_GENERATED_(AA)
  6
Continuous
 62
     7
100
AcDbCircle
 10
35.2237403128
 20
460.6175670367
 30
0.0
 40
0.120402362387555
100
AcDbArc
 50
286.4291705208
 51
353.4486529838
  0
LINE
  5
102
330
69
100
AcDbEntity
  8
$DDT_AUDIT_GENERATED_(AA)
  6
Continuous
 62
     7
100
AcDbLine
 10
35.2577936923
 20
460.5020806902
 30
0.0
 11
35.2392260275
 21
460.4975502029
 31
0.0
  0
ARC
  5
103
330
69
100
AcDbEntity
  8
$DDT_AUDIT_GENERATED_(AA)
  6
Continuous
 62
     7
100
AcDbCircle
 10
35.2198539954
 20
460.5620317227
 30
0.0
 40
0.0673286121474048
100
AcDbArc
 50
233.7552448753
 51
286.7217215012
  0
SPLINE
  5
104
330
69
100
AcDbEntity
  8
$DDT_AUDIT_GENERATED_(AA)
  6
Continuous
 62
     7
100
AcDbSpline
210
0.0
220
0.0
230
1.0
 70
    12
 71
     2
 72
     6
 73
     3
 74
     0
 42
0.0000000106773859
 43
0.0000000001
 40
0.82511351731997
 40
0.82511351731997
 40
0.82511351731997
 40
1.0
 40
1.0
 40
1.0
 10
33.88460969282254
 20
460.4945931885356
 30
0.0
 41
1.0
 10
33.87495799505376
 20
460.4132620475731
 30
0.0
 41
1.0
 10
33.86529781160681
 20
460.3319441816318
 30
0.0
 41
1.0
  0
ARC
  5
105
330
69
100
AcDbEntity
  8
$DDT_AUDIT_GENERATED_(AA)
  6
Continuous
 62
     7
100
AcDbCircle
 10
33.7575922532
 20
460.3486078184
 30
0.0
 40
0.1089869910044056
100
AcDbArc
 50
276.3119595596
 51
351.2052288569
  0
LINE
  5
106
330
69
100
AcDbEntity
  8
$DDT_AUDIT_GENERATED_(AA)
  6
Continuous
 62
     7
100
AcDbLine
 10
33.7695744772
 20
460.2402815034
 30
0.0
 11
33.7488649381
 21
460.2379363506
 31
0.0
  0
ARC
  5
107
330
69
100
AcDbEntity
  8
$DDT_AUDIT_GENERATED_(AA)
  6
Continuous
 62
     7
100
AcDbCircle
 10
33.7351767178
 20
460.3202722
 30
0.0
 40
0.0834659179862251
100
AcDbArc
 50
212.3941818351
 51
279.4390149466
  0
SPLINE
  5
108
330
69
100
AcDbEntity
  8
$DDT_AUDIT_GENERATED_(AA)
  6
Continuous
 62
     7
100
AcDbSpline
210
0.0
220
0.0
230
1.0
 70
    12
 71
     2
 72
     6
 73
     3
 74
     0
 42
0.0000000108150331
 43
0.0000000001
 40
0.8666122255836199
 40
0.8666122255836199
 40
0.8666122255836199
 40
1.0
 40
1.0
 40
1.0
 10
32.28642397380798
 20
460.3533744739419
 30
0.0
 41
1.0
 10
32.27875953230458
 20
460.2921808604319
 30
0.0
 41
1.0
 10
32.27109508420984
 20
460.2309952443855
 30
0.0
 41
1.0
  0
ARC
  5
109
330
69
100
AcDbEntity
  8
$DDT_AUDIT_GENERATED_(AA)
  6
Continuous
 62
     7
100
AcDbCircle
 10
32.1753770328
 20
460.2471981971
 30
0.0
 40
0.0970797665157497
100
AcDbArc
 50
267.8497333259
 51
350.3921695303
  0
LINE
  5
10A
330
69
100
AcDbEntity
  8
$DDT_AUDIT_GENERATED_(AA)
  6
Continuous
 62
     7
100
AcDbLine
 10
32.1717345587
 20
465.4949997506
 30
0.0
 11
32.1502944662
 21
465.4949997506
 31
0.0
  0
ARC
  5
10B
330
69
100
AcDbEntity
  8
$DDT_AUDIT_GENERATED_(AA)
  6
Continuous
 62
     7
100
AcDbCircle
 10
32.1493527605
 20
465.594172942
 30
0.0
 40
0.0991776622803302
100
AcDbArc
 50
187.0922467163
 51
270.5440396201
  0
SPLINE
  5
10C
330
69
100
AcDbEntity
  8
$DDT_AUDIT_GENERATED_(AA)
  6
Continuous
 62
     7
100
AcDbSpline
210
0.0
220
0.0
230
1.0
 70
    12
 71
     2
 72
     6
 73
     3
 74
     0
 42
0.0000000099892415
 43
0.0000000001
 40
0.0
 40
0.0
 40
0.0
 40
0.0300513027440916
 40
0.0300513027440916
 40
0.0300513027440916
 10
32.05093394072258
 20
465.5819277544505
 30
0.0
 41
1.0
 10
32.04920747587312
 20
465.5968702846096
 30
0.0
 41
1.0
 10
32.04748099453056
 20
465.6118126045345
 30
0.0
 41
1.0
  0
SPLINE
  5
10D
330
69
100
AcDbEntity
  8
$DDT_AUDIT_GENERATED_(AA)
  6
Continuous
 62
     7
100
AcDbSpline
210
0.0
220
0.0
230
1.0
 70
    12
 71
     2
 72
     6
 73
     3
 74
     0
 42
0.0000000099368849
 43
0.0000000001
 40
0.955387216590599
 40
0.955387216590599
 40
0.955387216590599
 40
1.0
 40
1.0
 40
1.0
 10
30.59110905301329
 20
465.5453556567825
 30
0.0
 41
1.0
 10
30.5896993994385
 20
465.522952089156
 30
0.0
 41
1.0
 10
30.58829024227085
 20
465.5005480878365
 30
0.0
 41
1.0
  0
ARC
  5
10E
330
69
100
AcDbEntity
  8
$DDT_AUDIT_GENERATED_(AA)
  6
Continuous
 62
     7
100
AcDbCircle
 10
30.483056801
 20
465.507607769
 30
0.0
 40
0.1054699766895493
100
AcDbArc
 50
277.2213196946
 51
356.1620112239
  0
LINE
  5
10F
330
69
100
AcDbEntity
  8
$DDT_AUDIT_GENERATED_(AA)
  6
Continuous
 62
     7
100
AcDbLine
 10
30.4963146291
 20
465.4029743805
 30
0.0
 11
30.4756050901
 21
465.4006292277
 31
0.0
  0
ARC
  5
110
330
69
100
AcDbEntity
  8
$DDT_AUDIT_GENERATED_(AA)
  6
Continuous
 62
     7
100
AcDbCircle
 10
30.4643664455
 20
465.4896288703
 30
0.0
 40
0.0897064296070749
100
AcDbArc
 50
212.679289368
 51
277.1970693159
  0
SPLINE
  5
111
330
69
100
AcDbEntity
  8
$DDT_AUDIT_GENERATED_(AA)
  6
Continuous
 62
     7
100
AcDbSpline
210
0.0
220
0.0
230
1.0
 70
    12
 71
     2
 72
     6
 73
     3
 74
     0
 42
0.0000000099177186
 43
0.0000000001
 40
0.9039258608535472
 40
0.9039258608535472
 40
0.9039258608535472
 40
1.0
 40
1.0
 40
1.0
 10
29.01335414201826
 20
465.334742137892
 30
0.0
 41
1.0
 10
29.01300691174448
 20
465.2863085852941
 30
0.0
 41
1.0
 10
29.01266396029708
 20
465.2378733875527
 30
0.0
 41
1.0
  0
ARC
  5
112
330
69
100
AcDbEntity
  8
$DDT_AUDIT_GENERATED_(AA)
  6
Continuous
 62
     7
100
AcDbCircle
 10
28.9017746254
 20
465.2368289787
 30
0.0
 40
0.1108942536512653
100
AcDbArc
 50
287.0779665548
 51
0.5396231386
  0
LINE
  5
113
330
69
100
AcDbEntity
  8
$DDT_AUDIT_GENERATED_(AA)
  6
Continuous
 62
     7
100
AcDbLine
 10
28.9343412456
 20
465.1308244942
 30
0.0
 11
28.9157735808
 21
465.1262940069
 31
0.0
  0
SPLINE
  5
114
330
69
100
AcDbEntity
  8
$DDT_AUDIT_GENERATED_(AA)
  6
Continuous
 62
     7
100
AcDbSpline
210
0.0
220
0.0
230
1.0
 70
     8
 71
     3
 72
    14
 73
    10
 74
     0
 42
0.0000000791359673
 43
0.0000000001
 40
0.0
 40
0.0
 40
0.0
 40
0.0
 40
0.2274863332652766
 40
0.2274863332652766
 40
0.2274863332652766
 40
0.4548919040074019
 40
0.4548919040074019
 40
0.4548919040074019
 40
0.5124571998580721
 40
0.5124571998580721
 40
0.5124571998580721
 40
0.5124571998580721
 10
28.91577358079595
 20
465.1262940068781
 30
0.0
 10
28.90619515232526
 20
465.1239479334245
 30
0.0
 10
28.89632455624306
 20
465.1234011604201
 30
0.0
 10
28.88697956077666
 20
465.1246930520779
 30
0.0
 10
28.87763640410228
 20
465.1259846895334
 30
0.0
 10
28.86856240603644
 20
465.1291480530211
 30
0.0
 10
28.86048754481573
 20
465.1339077593416
 30
0.0
 10
28.85844328615066
 20
465.13511274239
 30
0.0
 10
28.85644903968516
 20
465.1364281333588
 30
0.0
 10
28.85451387948991
 20
465.1378452435789
 30
0.0
  0
SPLINE
  5
115
330
69
100
AcDbEntity
  8
$DDT_AUDIT_GENERATED_(AA)
  6
Continuous
 62
     7
100
AcDbSpline
210
0.0
220
0.0
230
1.0
 70
    12
 71
     2
 72
     6
 73
     3
 74
     0
 42
0.0000000099293045
 43
0.0000000001
 40
0.8033421262574348
 40
0.8033421262574348
 40
0.8033421262574348
 40
1.0
 40
1.0
 40
1.0
 10
27.64190644806512
 20
465.0096255598083
 30
0.0
 41
1.0
 10
27.64673701253672
 20
464.9107172826986
 30
0.0
 41
1.0
 10
27.65159256555929
 20
464.8118045003361
 30
0.0
 41
1.0
  0
SPLINE
  5
116
330
69
100
AcDbEntity
  8
$DDT_AUDIT_GENERATED_(AA)
  6
Continuous
 62
     7
100
AcDbSpline
210
0.0
220
0.0
230
1.0
 70
     8
 71
     3
 72
    20
 73
    16
 74
     0
 42
0.0000000729725139
 43
0.0000000001
 40
0.0
 40
0.0
 40
0.0
 40
0.0
 40
0.2354503915139823
 40
0.2354503915139823
 40
0.2354503915139823
 40
0.4710570797773893
 40
0.4710570797773893
 40
0.4710570797773893
 40
0.7042698230198452
 40
0.7042698230198452
 40
0.7042698230198452
 40
0.9340165525562255
 40
0.9340165525562255
 40
0.9340165525562255
 40
1.0
 40
1.0
 40
1.0
 40
1.0
 10
27.65159256723422
 20
464.8118045008001
 30
0.0
 10
27.65213983868157
 20
464.8006577366124
 30
0.0
 10
27.6512656365555
 20
464.7889843673058
 30
0.0
 10
27.64903245427773
 20
464.7777434010985
 30
0.0
 10
27.646798414562
 20
464.7664981188837
 30
0.0
 10
27.64314017039969
 20
464.7553727177807
 30
0.0
 10
27.63835781180664
 20
464.7453147989057
 30
0.0
 10
27.63362400479007
 20
464.7353589902779
 30
0.0
 10
27.62765485032174
 20
464.7261701516635
 30
0.0
 10
27.62095632078125
 20
464.718544968705
 30
0.0
 10
27.61435578447811
 20
464.7110313350587
 30
0.0
 10
27.6068625474367
 20
464.7048261395772
 30
0.0
 10
27.59911123913023
 20
464.7004626322157
 30
0.0
 10
27.59685501534767
 20
464.6991925177144
 30
0.0
 10
27.59456576525721
 20
464.6980677606087
 30
0.0
 10
27.59226031278232
 20
464.6970966566921
 30
0.0
  0
LINE
  5
117
330
69
100
AcDbEntity
  8
$DDT_AUDIT_GENERATED_(AA)
  6
Continuous
 62
     7
100
AcDbLine
 10
27.5922603128
 20
464.6970966567
 30
0.0
 11
27.577099878
 21
464.6906895801
 31
0.0
  0
SPLINE
  5
118
330
69
100
AcDbEntity
  8
$DDT_AUDIT_GENERATED_(AA)
  6
Continuous
 62
     7
100
AcDbSpline
210
0.0
220
0.0
230
1.0
 70
     8
 71
     3
 72
    11
 73
     7
 74
     0
 42
0.0000000940717846
 43
0.0000000001
 40
0.0
 40
0.0
 40
0.0
 40
0.0
 40
0.227486333265265
 40
0.227486333265265
 40
0.227486333265265
 40
0.3985734629576219
 40
0.3985734629576219
 40
0.3985734629576219
 40
0.3985734629576219
 10
27.57709987798941
 20
464.6906895800927
 30
0.0
 10
27.56928460424703
 20
464.6873757427956
 30
0.0
 10
27.56113541330454
 20
464.6858263713715
 30
0.0
 10
27.55332652065741
 20
464.6861638421425
 30
0.0
 10
27.54745270611961
 20
464.6864176861649
 30
0.0
 10
27.54165021898115
 20
464.687743411373
 30
0.0
 10
27.53618133225669
 20
464.6900556361294
 30
0.0
  0
SPLINE
  5
119
330
69
100
AcDbEntity
  8
$DDT_AUDIT_GENERATED_(AA)
  6
Continuous
 62
     7
100
AcDbSpline
210
0.0
220
0.0
230
1.0
 70
    12
 71
     2
 72
     6
 73
     3
 74
     0
 42
0.0000000099730937
 43
0.0000000001
 40
0.6270259384589674
 40
0.6270259384589674
 40
0.6270259384589674
 40
1.0
 40
1.0
 40
1.0
 10
26.55969688814497
 20
464.623408309932
 30
0.0
 41
1.0
 10
26.57870927956692
 20
464.4373953788678
 30
0.0
 41
1.0
 10
26.59783082433239
 20
464.2513773167385
 30
0.0
 41
1.0
  0
SPLINE
  5
11A
330
69
100
AcDbEntity
  8
$DDT_AUDIT_GENERATED_(AA)
  6
Continuous
 62
     7
100
AcDbSpline
210
0.0
220
0.0
230
1.0
 70
     8
 71
     3
 72
    20
 73
    16
 74
     0
 42
0.0000000767154302
 43
0.0000000001
 40
0.0
 40
0.0
 40
0.0
 40
0.0
 40
0.2354503911773445
 40
0.2354503911773445
 40
0.2354503911773445
 40
0.471057079544484
 40
0.471057079544484
 40
0.471057079544484
 40
0.7042698228896171
 40
0.7042698228896171
 40
0.7042698228896171
 40
0.9340165525271574
 40
0.9340165525271574
 40
0.9340165525271574
 40
1.0
 40
1.0
 40
1.0
 40
1.0
 10
26.59783082570798
 20
464.2513773174621
 30
0.0
 10
26.59896712218336
 20
464.2403242247987
 30
0.0
 10
26.59908235275107
 20
464.2286086272635
 30
0.0
 10
26.59816263515332
 20
464.2171922376492
 30
0.0
 10
26.59724256442684
 20
464.2057714646731
 30
0.0
 10
26.59525982459509
 20
464.1943322062737
 30
0.0
 10
26.59237934921013
 20
464.1838479368972
 30
0.0
 10
26.58952811705697
 20
464.1734701061736
 30
0.0
 10
26.58571666986363
 20
464.1637370871116
 30
0.0
 10
26.58127142979752
 20
464.1554918787455
 30
0.0
 10
26.5768912194461
 20
464.1473672900848
 30
0.0
 10
26.57177334613553
 20
464.140460428191
 30
0.0
 10
26.56635315142422
 20
464.1353640748702
 30
0.0
 10
26.5647754600552
 20
464.1338806461234
 30
0.0
 10
26.56316460302944
 20
464.1325388919342
 30
0.0
 10
26.56153242849432
 20
464.131348703374
 30
0.0
  0
LINE
  5
11B
330
69
100
AcDbEntity
  8
$DDT_AUDIT_GENERATED_(AA)
  6
Continuous
 62
     7
100
AcDbLine
 10
26.5615324285
 20
464.1313487034
 30
0.0
 11
26.5508123822
 21
464.1235016692
 31
0.0
  0
SPLINE
  5
11C
330
69
100
AcDbEntity
  8
$DDT_AUDIT_GENERATED_(AA)
  6
Continuous
 62
     7
100
AcDbSpline
210
0.0
220
0.0
230
1.0
 70
     8
 71
     3
 72
    11
 73
     7
 74
     0
 42
0.0000001235406551
 43
0.0000000001
 40
0.0
 40
0.0
 40
0.0
 40
0.0
 40
0.2274863332652442
 40
0.2274863332652442
 40
0.2274863332652442
 40
0.3371257817631641
 40
0.3371257817631641
 40
0.3371257817631641
 40
0.3371257817631641
 10
26.55081238224653
 20
464.1235016691683
 30
0.0
 10
26.54529286122263
 20
464.1194459005631
 30
0.0
 10
26.53942042931541
 20
464.1171163835752
 30
0.0
 10
26.53367980261664
 20
464.1166999760309
 30
0.0
 10
26.53091260875287
 20
464.1164992522315
 30
0.0
 10
26.5281394373201
 20
464.1167400211962
 30
0.0
 10
26.52541182291709
 20
464.1174065201591
 30
0.0
  0
SPLINE
  5
11D
330
69
100
AcDbEntity
  8
$DDT_AUDIT_GENERATED_(AA)
  6
Continuous
 62
     7
100
AcDbSpline
210
0.0
220
0.0
230
1.0
 70
    12
 71
     2
 72
     6
 73
     3
 74
     0
 42
0.000000010053948
 43
0.0000000001
 40
0.3242939946467814
 40
0.3242939946467814
 40
0.3242939946467814
 40
1.0
 40
1.0
 40
1.0
 10
25.82310864168994
 20
464.2593705704448
 30
0.0
 41
1.0
 10
25.872951203616
 20
463.9270647039066
 30
0.0
 41
1.0
 10
25.92319085785696
 20
463.5947840231722
 30
0.0
 41
1.0
  0
SPLINE
  5
11E
330
69
100
AcDbEntity
  8
$DDT_AUDIT_GENERATED_(AA)
  6
Continuous
 62
     7
100
AcDbSpline
210
0.0
220
0.0
230
1.0
 70
     8
 71
     3
 72
    20
 73
    16
 74
     0
 42
0.000000079961288
 43
0.0000000001
 40
0.0
 40
0.0
 40
0.0
 40
0.0
 40
0.235450391868861
 40
0.235450391868861
 40
0.235450391868861
 40
0.4710570800229125
 40
0.4710570800229125
 40
0.4710570800229125
 40
0.7042698231571185
 40
0.7042698231571185
 40
0.7042698231571185
 40
0.9340165525868732
 40
0.9340165525868732
 40
0.9340165525868732
 40
1.0
 40
1.0
 40
1.0
 40
1.0
 10
25.9231908583659
 20
463.5947840237721
 30
0.0
 10
25.92483874361617
 20
463.5838858397274
 30
0.0
 10
25.9259355541049
 20
463.5722376786412
 30
0.0
 10
25.92639197842153
 20
463.560795511968
 30
0.0
 10
25.92684857798383
 20
463.5493489520358
 30
0.0
 10
25.92667646292556
 20
463.5377898002045
 30
0.0
 10
25.92589417038594
 20
463.5271017390003
 30
0.0
 10
25.92511981985556
 20
463.5165221853893
 30
0.0
 10
25.92372582376472
 20
463.5064995419714
 30
0.0
 10
25.92183680893739
 20
463.4979019035828
 30
0.0
 10
25.9199754286345
 20
463.4894300406221
 30
0.0
 10
25.91758169366321
 20
463.4821052422355
 30
0.0
 10
25.91486198985934
 20
463.4765559951387
 30
0.0
 10
25.91407034796339
 20
463.4749407396515
 30
0.0
 10
25.91324766124657
 20
463.4734635861311
 30
0.0
 10
25.9123999946485
 20
463.4721354223109
 30
0.0
  0
LINE
  5
11F
330
69
100
AcDbEntity
  8
$DDT_AUDIT_GENERATED_(AA)
  6
Continuous
 62
     7
100
AcDbLine
 10
25.9123999946
 20
463.4721354223
 30
0.0
 11
25.9068508904
 21
463.4633831929
 31
0.0
  0
SPLINE
  5
120
330
69
100
AcDbEntity
  8
$DDT_AUDIT_GENERATED_(AA)
  6
Continuous
 62
     7
100
AcDbSpline
210
0.0
220
0.0
230
1.0
 70
     8
 71
     3
 72
    11
 73
     7
 74
     0
 42
0.0000001852251216
 43
0.0000000001
 40
0.0
 40
0.0
 40
0.0
 40
0.0
 40
0.2274863332737972
 40
0.2274863332737972
 40
0.2274863332737972
 40
0.3066043207213051
 40
0.3066043207213051
 40
0.3066043207213051
 40
0.3066043207213051
 10
25.90685089038188
 20
463.4633831929121
 30
0.0
 10
25.90400326831281
 20
463.4588618869267
 30
0.0
 10
25.90080779197069
 20
463.4560278428616
 30
0.0
 10
25.89752664544298
 20
463.4551094751351
 30
0.0
 10
25.89638530739868
 20
463.4547900233775
 30
0.0
 10
25.89522270242922
 20
463.4546991159059
 30
0.0
 10
25.89405030395707
 20
463.4548325453316
 30
0.0
  0
SPLINE
  5
121
330
69
100
AcDbEntity
  8
$DDT_AUDIT_GENERATED_(AA)
  6
Continuous
 62
     7
100
AcDbSpline
210
0.0
220
0.0
230
1.0
 70
    12
 71
     2
 72
     6
 73
     3
 74
     0
 42
0.0000000101784481
 43
0.0000000001
 40
0.3719386478948348
 40
0.3719386478948348
 40
0.3719386478948348
 40
1.0
 40
1.0
 40
1.0
 10
25.55797593798457
 20
463.492881529605
 30
0.0
 41
1.0
 10
25.61563548163135
 20
463.1897956980855
 30
0.0
 41
1.0
 10
25.67364826495374
 20
462.8867703675222
 30
0.0
 41
1.0
  0
ARC
  5
122
330
69
100
AcDbEntity
  8
$DDT_AUDIT_GENERATED_(AA)
  6
Continuous
 62
     7
100
AcDbCircle
 10
24.8406102071
 20
462.7194264904
 30
0.0
 40
0.8496801628060586
100
AcDbArc
 50
3.0328036613
 51
11.3586163343
  0
LINE
  5
123
330
69
100
AcDbEntity
  8
$DDT_AUDIT_GENERATED_(AA)
  6
Continuous
 62
     7
100
AcDbLine
 10
25.6891003139
 20
462.7643811092
 30
0.0
 11
25.6891003139
 21
462.7553201346
 31
0.0
  0
SPLINE
  5
124
330
69
100
AcDbEntity
  8
$DDT_AUDIT_GENERATED_(AA)
  6
Continuous
 62
     7
100
AcDbSpline
210
0.0
220
0.0
230
1.0
 70
     8
 71
     3
 72
    11
 73
     7
 74
     0
 42
0.0000002999381999
 43
0.0000000001
 40
0.0
 40
0.0
 40
0.0
 40
0.0
 40
0.2274863332706406
 40
0.2274863332706406
 40
0.2274863332706406
 40
0.2973529375950412
 40
0.2973529375950412
 40
0.2973529375950412
 40
0.2973529375950412
 10
25.68910031386937
 20
462.7553201345836
 30
0.0
 10
25.68911865149321
 20
462.7506414107492
 30
0.0
 10
25.68881789714813
 20
462.7476128407801
 30
0.0
 10
25.68821983550499
 20
462.7464786387611
 30
0.0
 10
25.68803612710152
 20
462.7461302424971
 30
0.0
 10
25.68782280789631
 20
462.7459574971265
 30
0.0
 10
25.6875818058054
 20
462.7459580521961
 30
0.0
  0
LINE
  5
125
330
69
100
AcDbEntity
  8
$DDT_AUDIT_GENERATED_(AA)
  6
Continuous
 62
     7
100
AcDbLine
 10
32.1717345587
 20
464.7538722159
 30
0.0
 11
32.1502944662
 21
464.7538722159
 31
0.0
  0
ARC
  5
126
330
69
100
AcDbEntity
  8
$DDT_AUDIT_GENERATED_(AA)
  6
Continuous
 62
     7
100
AcDbCircle
 10
32.1487288968
 20
464.8525170646
 30
0.0
 40
0.0986572712627394
100
AcDbArc
 50
187.5809380664
 51
270.9092516568
  0
SPLINE
  5
127
330
69
100
AcDbEntity
  8
$DDT_AUDIT_GENERATED_(AA)
  6
Continuous
 62
     7
100
AcDbSpline
210
0.0
220
0.0
230
1.0
 70
    12
 71
     2
 72
     6
 73
     3
 74
     0
 42
0.0000000101248072
 43
0.0000000001
 40
0.0
 40
0.0
 40
0.0
 40
0.0869856008320585
 40
0.0869856008320585
 40
0.0869856008320585
 10
32.05093394075631
 20
464.8395015450266
 30
0.0
 41
1.0
 10
32.04593666907264
 20
464.8821678787281
 30
0.0
 41
1.0
 10
32.04093924149787
 20
464.9248315404276
 30
0.0
 41
1.0
  0
SPLINE
  5
128
330
69
100
AcDbEntity
  8
$DDT_AUDIT_GENERATED_(AA)
  6
Continuous
 62
     7
100
AcDbSpline
210
0.0
220
0.0
230
1.0
 70
    12
 71
     2
 72
     6
 73
     3
 74
     0
 42
0.0000000100613987
 43
0.0000000001
 40
0.8883072378667831
 40
0.8883072378667831
 40
0.8883072378667831
 40
1.0
 40
1.0
 40
1.0
 10
31.0509454721142
 20
464.8941434121079
 30
0.0
 41
1.0
 10
31.04695335624793
 20
464.8387835037685
 30
0.0
 41
1.0
 10
31.04296544204025
 20
464.7834194380364
 30
0.0
 41
1.0
  0
ARC
  5
129
330
69
100
AcDbEntity
  8
$DDT_AUDIT_GENERATED_(AA)
  6
Continuous
 62
     7
100
AcDbCircle
 10
30.9374765746
 20
464.7921858608
 30
0.0
 40
0.1058524978617025
100
AcDbArc
 50
276.90062047
 51
355.2494746747
  0
LINE
  5
12A
330
69
100
AcDbEntity
  8
$DDT_AUDIT_GENERATED_(AA)
  6
Continuous
 62
     7
100
AcDbLine
 10
30.9501944971
 20
464.6871001541
 30
0.0
 11
30.929484958
 21
464.6847550013
 31
0.0
  0
ARC
  5
12B
330
69
100
AcDbEntity
  8
$DDT_AUDIT_GENERATED_(AA)
  6
Continuous
 62
     7
100
AcDbCircle
 10
30.9176568414
 20
464.7722606943
 30
0.0
 40
0.0883014758954784
100
AcDbArc
 50
212.7185005414
 51
277.6979955962
  0
SPLINE
  5
12C
330
69
100
AcDbEntity
  8
$DDT_AUDIT_GENERATED_(AA)
  6
Continuous
 62
     7
100
AcDbSpline
210
0.0
220
0.0
230
1.0
 70
    12
 71
     2
 72
     6
 73
     3
 74
     0
 42
0.0000000100316728
 43
0.0000000001
 40
0.8373720719737666
 40
0.8373720719737666
 40
0.8373720719737666
 40
1.0
 40
1.0
 40
1.0
 10
29.89479457110587
 20
464.7569841560235
 30
0.0
 41
1.0
 10
29.89290345209597
 20
464.6759524884023
 30
0.0
 41
1.0
 10
29.89102899635775
 20
464.594913429753
 30
0.0
 41
1.0
  0
ARC
  5
12D
330
69
100
AcDbEntity
  8
$DDT_AUDIT_GENERATED_(AA)
  6
Continuous
 62
     7
100
AcDbCircle
 10
29.7787941136
 20
464.5964642778
 30
0.0
 40
0.1122455966387981
100
AcDbArc
 50
286.7643629164
 51
359.2083441925
  0
LINE
  5
12E
330
69
100
AcDbEntity
  8
$DDT_AUDIT_GENERATED_(AA)
  6
Continuous
 62
     7
100
AcDbLine
 10
29.8111698186
 20
464.4889892217
 30
0.0
 11
29.7926021538
 21
464.4844587344
 31
0.0
  0
SPLINE
  5
12F
330
69
100
AcDbEntity
  8
$DDT_AUDIT_GENERATED_(AA)
  6
Continuous
 62
     7
100
AcDbSpline
210
0.0
220
0.0
230
1.0
 70
     8
 71
     3
 72
    14
 73
    10
 74
     0
 42
0.0000000799797153
 43
0.0000000001
 40
0.0
 40
0.0
 40
0.0
 40
0.0
 40
0.228937770474167
 40
0.228937770474167
 40
0.228937770474167
 40
0.4578289888418133
 40
0.4578289888418133
 40
0.4578289888418133
 40
0.5177809498760559
 40
0.5177809498760559
 40
0.5177809498760559
 40
0.5177809498760559
 10
29.79260215379101
 20
464.48445873436
 30
0.0
 10
29.78298931512392
 20
464.4821008903683
 30
0.0
 10
29.77311749818668
 20
464.4815305258247
 30
0.0
 10
29.76380246690018
 20
464.4827926851992
 30
0.0
 10
29.75448848020465
 20
464.4840547030346
 30
0.0
 10
29.74547500241329
 20
464.4871827450947
 30
0.0
 10
29.73749099398505
 20
464.4919120949637
 30
0.0
 10
29.73539965682654
 20
464.493150904417
 30
0.0
 10
29.73336399439234
 20
464.4945083329385
 30
0.0
 10
29.73139407992337
 20
464.4959748147123
 30
0.0
  0
SPLINE
  5
130
330
69
100
AcDbEntity
  8
$DDT_AUDIT_GENERATED_(AA)
  6
Continuous
 62
     7
100
AcDbSpline
210
0.0
220
0.0
230
1.0
 70
    12
 71
     2
 72
     6
 73
     3
 74
     0
 42
0.00000001003299
 43
0.0000000001
 40
0.7395322862860373
 40
0.7395322862860373
 40
0.7395322862860373
 40
1.0
 40
1.0
 40
1.0
 10
28.88684785148817
 20
464.5463483537533
 30
0.0
 41
1.0
 10
28.89028821889109
 20
464.416595752431
 30
0.0
 41
1.0
 10
28.89378831227082
 20
464.2868298931192
 30
0.0
 41
1.0
  0
ARC
  5
131
330
69
100
AcDbEntity
  8
$DDT_AUDIT_GENERATED_(AA)
  6
Continuous
 62
     7
100
AcDbCircle
 10
28.7719168341
 20
464.2791864077
 30
0.0
 40
0.1221109337808063
100
AcDbArc
 50
299.6273286996
 51
3.5887527179
  0
LINE
  5
132
330
69
100
AcDbEntity
  8
$DDT_AUDIT_GENERATED_(AA)
  6
Continuous
 62
     7
100
AcDbLine
 10
28.8322831726
 20
464.1730403512
 30
0.0
 11
28.8171227378
 21
464.1666332746
 31
0.0
  0
SPLINE
  5
133
330
69
100
AcDbEntity
  8
$DDT_AUDIT_GENERATED_(AA)
  6
Continuous
 62
     7
100
AcDbSpline
210
0.0
220
0.0
230
1.0
 70
     8
 71
     3
 72
    11
 73
     7
 74
     0
 42
0.0000000952938147
 43
0.0000000001
 40
0.0
 40
0.0
 40
0.0
 40
0.0
 40
0.2289377704749261
 40
0.2289377704749261
 40
0.2289377704749261
 40
0.4042557639381997
 40
0.4042557639381997
 40
0.4042557639381997
 40
0.4042557639381997
 10
28.81712273779528
 20
464.1666332745628
 30
0.0
 10
28.80928143484536
 20
464.1633043039546
 30
0.0
 10
28.80115350608625
 20
464.161732456066
 30
0.0
 10
28.79340892989786
 20
464.1620454402104
 30
0.0
 10
28.78747767876839
 20
464.1622851418435
 30
0.0
 10
28.78164626055937
 20
464.1636349497122
 30
0.0
 10
28.77618812112267
 20
464.1660093509175
 30
0.0
  0
SPLINE
  5
134
330
69
100
AcDbEntity
  8
$DDT_AUDIT_GENERATED_(AA)
  6
Continuous
 62
     7
100
AcDbSpline
210
0.0
220
0.0
230
1.0
 70
    12
 71
     2
 72
     6
 73
     3
 74
     0
 42
0.0000000100654103
 43
0.0000000001
 40
0.5749788691388241
 40
0.5749788691388241
 40
0.5749788691388241
 40
1.0
 40
1.0
 40
1.0
 10
28.0875326485838
 20
464.3012338907491
 30
0.0
 41
1.0
 10
28.10327146759409
 20
464.0907068974736
 30
0.0
 41
1.0
 10
28.11920369438189
 20
463.8801642120247
 30
0.0
 41
1.0
  0
SPLINE
  5
135
330
69
100
AcDbEntity
  8
$DDT_AUDIT_GENERATED_(AA)
  6
Continuous
 62
     7
100
AcDbSpline
210
0.0
220
0.0
230
1.0
 70
     8
 71
     3
 72
    20
 73
    16
 74
     0
 42
0.0000000767596757
 43
0.0000000001
 40
0.0
 40
0.0
 40
0.0
 40
0.0
 40
0.2340589629337394
 40
0.2340589629337394
 40
0.2340589629337394
 40
0.4682296683280305
 40
0.4682296683280305
 40
0.4682296683280305
 40
0.7007223724405026
 40
0.7007223724405026
 40
0.7007223724405026
 40
0.9310036384896277
 40
0.9310036384896277
 40
0.9310036384896277
 40
1.0
 40
1.0
 40
1.0
 40
1.0
 10
28.11920369415177
 20
463.8801642119037
 30
0.0
 10
28.12003183908984
 20
463.8692225174304
 30
0.0
 10
28.11983603493119
 20
463.857625806896
 30
0.0
 10
28.11863293958198
 20
463.8463275781523
 30
0.0
 10
28.11742950870951
 20
463.8350261985208
 30
0.0
 10
28.11518422824613
 20
463.8237099724915
 30
0.0
 10
28.1120924190107
 20
463.8133328355473
 30
0.0
 10
28.1090226860264
 20
463.8030297938217
 30
0.0
 10
28.105033032119
 20
463.7933653049542
 30
0.0
 10
28.10047011567108
 20
463.785161440532
 30
0.0
 10
28.09594988135927
 20
463.7770343161645
 30
0.0
 10
28.09074190124367
 20
463.7701146234537
 30
0.0
 10
28.08528954087654
 20
463.7649867541134
 30
0.0
 10
28.08363425716043
 20
463.7634299827253
 30
0.0
 10
28.08194797760804
 20
463.7620256739229
 30
0.0
 10
28.0802440664499
 20
463.7607849360102
 30
0.0
  0
LINE
  5
136
330
69
100
AcDbEntity
  8
$DDT_AUDIT_GENERATED_(AA)
  6
Continuous
 62
     7
100
AcDbLine
 10
28.0802440664
 20
463.760784936
 30
0.0
 11
28.0695240202
 21
463.7529379018
 31
0.0
  0
SPLINE
  5
137
330
69
100
AcDbEntity
  8
$DDT_AUDIT_GENERATED_(AA)
  6
Continuous
 62
     7
100
AcDbSpline
210
0.0
220
0.0
230
1.0
 70
     8
 71
     3
 72
    11
 73
     7
 74
     0
 42
0.00000012562425
 43
0.0000000001
 40
0.0
 40
0.0
 40
0.0
 40
0.0
 40
0.2289377704749244
 40
0.2289377704749244
 40
0.2289377704749244
 40
0.3411019929564146
 40
0.3411019929564146
 40
0.3411019929564146
 40
0.3411019929564146
 10
28.0695240202021
 20
463.7529379018046
 30
0.0
 10
28.063988624807
 20
463.7488646684256
 30
0.0
 10
28.05815848913892
 20
463.7465162112841
 30
0.0
 10
28.05251214811739
 20
463.7460841415379
 30
0.0
 10
28.0497455656569
 20
463.7458724369
 30
0.0
 10
28.04698576244263
 20
463.7461177641141
 30
0.0
 10
28.04428529366297
 20
463.7468046382533
 30
0.0
  0
SPLINE
  5
138
330
69
100
AcDbEntity
  8
$DDT_AUDIT_GENERATED_(AA)
  6
Continuous
 62
     7
100
AcDbSpline
210
0.0
220
0.0
230
1.0
 70
    12
 71
     2
 72
     6
 73
     3
 74
     0
 42
0.0000000101313981
 43
0.0000000001
 40
0.5294475482171284
 40
0.5294475482171284
 40
0.5294475482171284
 40
1.0
 40
1.0
 40
1.0
 10
27.56481929348397
 20
463.8637825529418
 30
0.0
 41
1.0
 10
27.59230902429661
 20
463.6332019710648
 30
0.0
 41
1.0
 10
27.62006180433815
 20
463.4026299805891
 30
0.0
 41
1.0
  0
ARC
  5
139
330
69
100
AcDbEntity
  8
$DDT_AUDIT_GENERATED_(AA)
  6
Continuous
 62
     7
100
AcDbCircle
 10
27.3943589621
 20
463.3660894448
 30
0.0
 40
0.228641605543822
100
AcDbArc
 50
337.967214774
 51
9.1962034343
  0
SPLINE
  5
13A
330
69
100
AcDbEntity
  8
$DDT_AUDIT_GENERATED_(AA)
  6
Continuous
 62
     7
100
AcDbSpline
210
0.0
220
0.0
230
1.0
 70
    12
 71
     2
 72
     6
 73
     3
 74
     0
 42
0.0000009649530116
 43
0.0000000001
 40
0.0
 40
0.0
 40
0.0
 40
1.0
 40
1.0
 40
1.0
 10
27.60630272241676
 20
463.2803175014735
 30
0.0
 41
1.0
 10
27.60350464388227
 20
463.275944050909
 30
0.0
 41
1.0
 10
27.60075361815014
 20
463.2715652720747
 30
0.0
 41
1.0
  0
SPLINE
  5
13B
330
69
100
AcDbEntity
  8
$DDT_AUDIT_GENERATED_(AA)
  6
Continuous
 62
     7
100
AcDbSpline
210
0.0
220
0.0
230
1.0
 70
     8
 71
     3
 72
    11
 73
     7
 74
     0
 42
0.0000001896063928
 43
0.0000000001
 40
0.0
 40
0.0
 40
0.0
 40
0.0
 40
0.2289377704741723
 40
0.2289377704741723
 40
0.2289377704741723
 40
0.3093595265584135
 40
0.3093595265584135
 40
0.3093595265584135
 40
0.3093595265584135
 10
27.60075361815014
 20
463.2715652720747
 30
0.0
 10
27.59790135835836
 20
463.2670253600484
 30
0.0
 10
27.59476632989234
 20
463.2641780923839
 30
0.0
 10
27.59160301284724
 20
463.2632558642777
 30
0.0
 10
27.59049169461852
 20
463.262931872439
 30
0.0
 10
27.58936610197003
 20
463.2628422353961
 30
0.0
 10
27.58823726417937
 20
463.2629829368607
 30
0.0
  0
SPLINE
  5
13C
330
69
100
AcDbEntity
  8
$DDT_AUDIT_GENERATED_(AA)
  6
Continuous
 62
     7
100
AcDbSpline
210
0.0
220
0.0
230
1.0
 70
    12
 71
     2
 72
     6
 73
     3
 74
     0
 42
0.0000000102357661
 43
0.0000000001
 40
0.584193899615703
 40
0.584193899615703
 40
0.584193899615703
 40
1.0
 40
1.0
 40
1.0
 10
27.36701059475071
 20
463.2880261021718
 30
0.0
 41
1.0
 10
27.39858861973767
 20
463.0873832772871
 30
0.0
 41
1.0
 10
27.43037833707536
 20
462.8867703675222
 30
0.0
 41
1.0
  0
ARC
  5
13D
330
69
100
AcDbEntity
  8
$DDT_AUDIT_GENERATED_(AA)
  6
Continuous
 62
     7
100
AcDbCircle
 10
26.4509483516
 20
462.725884756
 30
0.0
 40
0.9925559311512423
100
AcDbArc
 50
2.2227784502
 51
9.3283580673
  0
ARC
  5
13E
330
69
100
AcDbEntity
  8
$DDT_AUDIT_GENERATED_(AA)
  6
Continuous
 62
     7
100
AcDbCircle
 10
28.2854673998
 20
462.7598506219
 30
0.0
 40
0.8427221180054452
100
AcDbArc
 50
179.6919755078
 51
180.3080244922
  0
SPLINE
  5
13F
330
69
100
AcDbEntity
  8
$DDT_AUDIT_GENERATED_(AA)
  6
Continuous
 62
     7
100
AcDbSpline
210
0.0
220
0.0
230
1.0
 70
     8
 71
     3
 72
    11
 73
     7
 74
     0
 42
0.0000003070342552
 43
0.0000000001
 40
0.0
 40
0.0
 40
0.0
 40
0.0
 40
0.2289377704741594
 40
0.2289377704741594
 40
0.2289377704741594
 40
0.2996652748258428
 40
0.2996652748258428
 40
0.2996652748258428
 40
0.2996652748258428
 10
27.44275745985951
 20
462.7553201345836
 30
0.0
 10
27.44278271246229
 20
462.7506229314119
 30
0.0
 10
27.44255643820741
 20
462.7475886450666
 30
0.0
 10
27.44209171996775
 20
462.7464645576134
 30
0.0
 10
27.44194813789552
 20
462.7461172529627
 30
0.0
 10
27.44178053168786
 20
462.7459492579587
 30
0.0
 10
27.44159021754448
 20
462.7459583313212
 30
0.0
  0
LINE
  5
140
330
69
100
AcDbEntity
  8
$DDT_AUDIT_GENERATED_(AA)
  6
Continuous
 62
     7
100
AcDbLine
 10
32.1717345587
 20
459.3789075634
 30
0.0
 11
32.1502944662
 21
459.3789075634
 31
0.0
  0
SPLINE
  5
141
330
69
100
AcDbEntity
  8
$DDT_AUDIT_GENERATED_(AA)
  6
Continuous
 62
     7
100
AcDbSpline
210
0.0
220
0.0
230
1.0
 70
    12
 71
     2
 72
     6
 73
     3
 74
     0
 42
0.0000000103724652
 43
0.0000000001
 40
0.236547127823354
 40
0.236547127823354
 40
0.236547127823354
 40
1.0
 40
1.0
 40
1.0
 10
39.93725697955236
 20
462.7459508140068
 30
0.0
 41
1.0
 10
39.92695125867522
 20
462.3780570025619
 30
0.0
 41
1.0
 10
39.91618048471342
 20
462.010214772222
 30
0.0
 41
1.0
  0
ARC
  5
142
330
69
100
AcDbEntity
  8
$DDT_AUDIT_GENERATED_(AA)
  6
Continuous
 62
     7
100
AcDbCircle
 10
39.617630835
 20
462.008757273
 30
0.0
 40
0.2985532070211873
100
AcDbArc
 50
336.3879567984
 51
0.2797118254
  0
LINE
  5
143
330
69
100
AcDbEntity
  8
$DDT_AUDIT_GENERATED_(AA)
  6
Continuous
 62
     7
100
AcDbLine
 10
39.8911887372
 20
461.8891742827
 30
0.0
 11
39.8856396329
 21
461.8804220533
 31
0.0
  0
SPLINE
  5
144
330
69
100
AcDbEntity
  8
$DDT_AUDIT_GENERATED_(AA)
  6
Continuous
 62
     7
100
AcDbSpline
210
0.0
220
0.0
230
1.0
 70
     8
 71
     3
 72
    11
 73
     7
 74
     0
 42
0.0000002016268984
 43
0.0000000001
 40
0.0
 40
0.0
 40
0.0
 40
0.0
 40
0.23158404015018
 40
0.23158404015018
 40
0.23158404015018
 40
0.3083422968904121
 40
0.3083422968904121
 40
0.3083422968904121
 40
0.3083422968904121
 10
39.88563963293369
 20
461.8804220532522
 30
0.0
 10
39.88272843899345
 20
461.8758549114103
 30
0.0
 10
39.87975317410937
 20
461.8729787355827
 30
0.0
 10
39.87696390243076
 20
461.8720312276207
 30
0.0
 10
39.87603940014587
 20
461.8717171767226
 30
0.0
 10
39.87512691597224
 20
461.8716121291955
 30
0.0
 10
39.87423487198114
 20
461.8717131647433
 30
0.0
  0
SPLINE
  5
145
330
69
100
AcDbEntity
  8
$DDT_AUDIT_GENERATED_(AA)
  6
Continuous
 62
     7
100
AcDbSpline
210
0.0
220
0.0
230
1.0
 70
    12
 71
     2
 72
     6
 73
     3
 74
     0
 42
0.0000000104092941
 43
0.0000000001
 40
0.0
 40
0.0
 40
0.0
 40
0.7916383743947883
 40
0.7916383743947883
 40
0.7916383743947883
 10
39.14360210537445
 20
461.1902245902983
 30
0.0
 41
1.0
 10
39.16580374434669
 20
461.5697903202235
 30
0.0
 41
1.0
 10
39.18755703611011
 20
461.9494642764325
 30
0.0
 41
1.0
  0
SPLINE
  5
146
330
69
100
AcDbEntity
  8
$DDT_AUDIT_GENERATED_(AA)
  6
Continuous
 62
     7
100
AcDbSpline
210
0.0
220
0.0
230
1.0
 70
     8
 71
     3
 72
    20
 73
    16
 74
     0
 42
0.0000000767783337
 43
0.0000000001
 40
0.0
 40
0.0
 40
0.0
 40
0.0
 40
0.2315845255112957
 40
0.2315845255112957
 40
0.2315845255112957
 40
0.4631680510566566
 40
0.4631680510566566
 40
0.4631680510566566
 40
0.6947657377289194
 40
0.6947657377289194
 40
0.6947657377289194
 40
0.9263670665630646
 40
0.9263670665630646
 40
0.9263670665630646
 40
1.0
 40
1.0
 40
1.0
 40
1.0
 10
39.1436021053745
 20
461.1902245902983
 30
0.0
 10
39.14298532156525
 20
461.1796798410584
 30
0.0
 10
39.14142316506812
 20
461.1684791304453
 30
0.0
 10
39.13903971488435
 20
461.1575513238956
 30
0.0
 10
39.13665627078637
 20
461.1466235452485
 30
0.0
 10
39.13338543535841
 20
461.1356673644525
 30
0.0
 10
39.12948862281196
 20
461.1255921758687
 30
0.0
 10
39.12559157785217
 20
461.1155163863815
 30
0.0
 10
39.12096051302242
 20
461.1060439034858
 30
0.0
 10
39.11596949347382
 20
461.0979613792485
 30
0.0
 10
39.11097840465309
 20
461.089878742831
 30
0.0
 10
39.10548930070411
 20
461.0829632604856
 30
0.0
 10
39.0999515371288
 20
461.0777890115873
 30
0.0
 10
39.09816817694848
 20
461.0761227162818
 30
0.0
 10
39.09636961178375
 20
461.0746228700261
 30
0.0
 10
39.09457154568517
 20
461.0733026097552
 30
0.0
  0
LINE
  5
147
330
69
100
AcDbEntity
  8
$DDT_AUDIT_GENERATED_(AA)
  6
Continuous
 62
     7
100
AcDbLine
 10
39.0838514994
 20
461.0654555755
 30
0.0
 11
39.0945715457
 21
461.0733026098
 31
0.0
  0
SPLINE
  5
148
330
69
100
AcDbEntity
  8
$DDT_AUDIT_GENERATED_(AA)
  6
Continuous
 62
     7
100
AcDbSpline
210
0.0
220
0.0
230
1.0
 70
     8
 71
     3
 72
    11
 73
     7
 74
     0
 42
0.0000001314061222
 43
0.0000000001
 40
0.0
 40
0.0
 40
0.0
 40
0.0
 40
0.2315840401501853
 40
0.2315840401501853
 40
0.2315840401501853
 40
0.3389704460465721
 40
0.3389704460465721
 40
0.3389704460465721
 40
0.3389704460465721
 10
39.08385149943738
 20
461.0654555755494
 30
0.0
 10
39.07824250199609
 20
461.061362486503
 30
0.0
 10
39.072534713381
 20
461.0589694249155
 30
0.0
 10
39.0672041023987
 20
461.0584736970724
 30
0.0
 10
39.06473227372539
 20
461.0582438258061
 30
0.0
 10
39.06230999753969
 20
461.0584189625679
 30
0.0
 10
39.05998021790506
 20
461.0589874383871
 30
0.0
  0
SPLINE
  5
149
330
69
100
AcDbEntity
  8
$DDT_AUDIT_GENERATED_(AA)
  6
Continuous
 62
     7
100
AcDbSpline
210
0.0
220
0.0
230
1.0
 70
    12
 71
     2
 72
     6
 73
     3
 74
     0
 42
0.0000000104725752
 43
0.0000000001
 40
0.2425207072205859
 40
0.2425207072205859
 40
0.2425207072205859
 40
1.0
 40
1.0
 40
1.0
 10
37.95554285089614
 20
461.2034548703143
 30
0.0
 41
1.0
 10
37.92552498720615
 20
460.8429975459215
 30
0.0
 41
1.0
 10
37.89517192220223
 20
460.4826807986288
 30
0.0
 41
1.0
  0
ARC
  5
14A
330
69
100
AcDbEntity
  8
$DDT_AUDIT_GENERATED_(AA)
  6
Continuous
 62
     7
100
AcDbCircle
 10
37.7591123252
 20
460.4914877552
 30
0.0
 40
0.1363443286177121
100
AcDbArc
 50
299.1108237955
 51
356.2964867677
  0
LINE
  5
14B
330
69
100
AcDbEntity
  8
$DDT_AUDIT_GENERATED_(AA)
  6
Continuous
 62
     7
100
AcDbLine
 10
37.8254439006
 20
460.3723663967
 30
0.0
 11
37.8102834658
 21
460.3659593201
 31
0.0
  0
SPLINE
  5
14C
330
69
100
AcDbEntity
  8
$DDT_AUDIT_GENERATED_(AA)
  6
Continuous
 62
     7
100
AcDbSpline
210
0.0
220
0.0
230
1.0
 70
     8
 71
     3
 72
    11
 73
     7
 74
     0
 42
0.0000000988206096
 43
0.0000000001
 40
0.0
 40
0.0
 40
0.0
 40
0.0
 40
0.2315840404293915
 40
0.2315840404293915
 40
0.2315840404293915
 40
0.4007009494114512
 40
0.4007009494114512
 40
0.4007009494114512
 40
0.4007009494114512
 10
37.81028346580916
 20
460.3659593201348
 30
0.0
 10
37.80235890877317
 20
460.3626192211383
 30
0.0
 10
37.7943075727886
 20
460.3609917000404
 30
0.0
 10
37.78679889483181
 20
460.3612103341806
 30
0.0
 10
37.78131558762096
 20
460.3613699945316
 30
0.0
 10
37.77601135983242
 20
460.3625173281793
 30
0.0
 10
37.77112017000525
 20
460.3645844085567
 30
0.0
  0
SPLINE
  5
14D
330
69
100
AcDbEntity
  8
$DDT_AUDIT_GENERATED_(AA)
  6
Continuous
 62
     7
100
AcDbSpline
210
0.0
220
0.0
230
1.0
 70
    12
 71
     2
 72
     6
 73
     3
 74
     0
 42
0.0000000105634819
 43
0.0000000001
 40
0.6509285504233062
 40
0.6509285504233062
 40
0.6509285504233062
 40
1.0
 40
1.0
 40
1.0
 10
36.29038279824088
 20
460.2644555505857
 30
0.0
 41
1.0
 10
36.27320076548998
 20
460.1001101355181
 30
0.0
 41
1.0
 10
36.25596838700159
 20
459.9358013362669
 30
0.0
 41
1.0
  0
ARC
  5
14E
330
69
100
AcDbEntity
  8
$DDT_AUDIT_GENERATED_(AA)
  6
Continuous
 62
     7
100
AcDbCircle
 10
36.136354605
 20
459.9496657263
 30
0.0
 40
0.1204146085467988
100
AcDbArc
 50
286.3712899115
 51
353.3883707444
  0
LINE
  5
14F
330
69
100
AcDbEntity
  8
$DDT_AUDIT_GENERATED_(AA)
  6
Continuous
 62
     7
100
AcDbLine
 10
36.1702947536
 20
459.8341332882
 30
0.0
 11
36.1517270889
 21
459.8296028008
 31
0.0
  0
ARC
  5
150
330
69
100
AcDbEntity
  8
$DDT_AUDIT_GENERATED_(AA)
  6
Continuous
 62
     7
100
AcDbCircle
 10
36.1323312074
 20
459.8939315745
 30
0.0
 40
0.0671892203625724
100
AcDbArc
 50
233.7542128667
 51
286.7786764403
  0
SPLINE
  5
151
330
69
100
AcDbEntity
  8
$DDT_AUDIT_GENERATED_(AA)
  6
Continuous
 62
     7
100
AcDbSpline
210
0.0
220
0.0
230
1.0
 70
    12
 71
     2
 72
     6
 73
     3
 74
     0
 42
0.0000000106794504
 43
0.0000000001
 40
0.7887703715261872
 40
0.7887703715261872
 40
0.7887703715261872
 40
1.0
 40
1.0
 40
1.0
 10
34.36105181663734
 20
459.7832625928414
 30
0.0
 41
1.0
 10
34.34938093844357
 20
459.6850513817694
 30
0.0
 41
1.0
 10
34.33770051248391
 20
459.5868551351791
 30
0.0
 41
1.0
  0
ARC
  5
152
330
69
100
AcDbEntity
  8
$DDT_AUDIT_GENERATED_(AA)
  6
Continuous
 62
     7
100
AcDbCircle
 10
34.2300349066
 20
459.6035915166
 30
0.0
 40
0.1089586583097434
100
AcDbArc
 50
276.2621080634
 51
351.1642137015
  0
LINE
  5
153
330
69
100
AcDbEntity
  8
$DDT_AUDIT_GENERATED_(AA)
  6
Continuous
 62
     7
100
AcDbLine
 10
34.2419197839
 20
459.4952829809
 30
0.0
 11
34.2212102448
 21
459.4929378281
 31
0.0
  0
ARC
  5
154
330
69
100
AcDbEntity
  8
$DDT_AUDIT_GENERATED_(AA)
  6
Continuous
 62
     7
100
AcDbCircle
 10
34.2074699886
 20
459.5751503597
 30
0.0
 40
0.0833528343090827
100
AcDbArc
 50
212.4000808288
 51
279.4882012378
  0
SPLINE
  5
155
330
69
100
AcDbEntity
  8
$DDT_AUDIT_GENERATED_(AA)
  6
Continuous
 62
     7
100
AcDbSpline
210
0.0
220
0.0
230
1.0
 70
    12
 71
     2
 72
     6
 73
     3
 74
     0
 42
0.0000000108173398
 43
0.0000000001
 40
0.8272808726177872
 40
0.8272808726177872
 40
0.8272808726177872
 40
1.0
 40
1.0
 40
1.0
 10
32.29094389909778
 20
459.6180525358149
 30
0.0
 41
1.0
 10
32.28101949494388
 20
459.5388322386042
 30
0.0
 41
1.0
 10
32.27109508420982
 20
459.4596223023084
 30
0.0
 41
1.0
  0
ARC
  5
156
330
69
100
AcDbEntity
  8
$DDT_AUDIT_GENERATED_(AA)
  6
Continuous
 62
     7
100
AcDbCircle
 10
32.1754556571
 20
459.4758410528
 30
0.0
 40
0.0970048861954888
100
AcDbArc
 50
267.801599877
 51
350.3752185589
  0
ELLIPSE
  5
157
330
69
100
AcDbEntity
  8
$DDT_AUDIT_GENERATED_(AA)
  6
Continuous
 62
     7
100
AcDbEllipse
 10
32.1610145125
 20
463.6435007143
 30
0.0
 11
9.050000000000002
 21
0.0
 31
0.0
210
0.0
220
0.0
230
1.0
 40
0.4226182617
 41
5.940485784451242
 42
6.283185307179586
  0
ELLIPSE
  5
158
330
69
100
AcDbEntity
  8
$DDT_AUDIT_GENERATED_(AA)
  6
Continuous
 62
     7
100
AcDbEllipse
 10
32.1610145125
 20
463.6435007143
 30
0.0
 11
9.050000000000002
 21
0.0
 31
0.0
210
0.0
220
0.0
230
1.0
 40
0.4226182617
 41
1.827514631827051
 42
3.484292176318141
  0
ELLIPSE
  5
159
330
69
100
AcDbEntity
  8
$DDT_AUDIT_GENERATED_(AA)
  6
Continuous
 62
     7
100
AcDbEllipse
 10
32.1610145125
 20
463.6435007143
 30
0.0
 11
9.050000000000002
 21
0.0
 31
0.0
210
0.0
220
0.0
230
1.0
 40
0.4226182617
 41
1.174261050041933
 42
1.827514631827051
  0
ELLIPSE
  5
15A
330
69
100
AcDbEntity
  8
$DDT_AUDIT_GENERATED_(AA)
  6
Continuous
 62
     7
100
AcDbEllipse
 10
32.1610145125
 20
463.6435007143
 30
0.0
 11
9.050000000000002
 21
0.0
 31
0.0
210
0.0
220
0.0
230
1.0
 40
0.4226182617
 41
0.0
 42
1.174261050041933
  0
ELLIPSE
  5
15B
330
69
100
AcDbEntity
  8
$DDT_AUDIT_GENERATED_(AA)
  6
Continuous
 62
     7
100
AcDbEllipse
 10
32.1610145125
 20
463.734131493
 30
0.0
 11
-9.349999999983298
 21
-2.775557561562892E-14
 31
0.0
210
0.0
220
0.0
230
1.0
 40
0.4226182617
 41
3.007501337395698
 42
3.275683969783874
  0
ARC
  5
15C
330
69
100
AcDbEntity
  8
$DDT_AUDIT_GENERATED_(AA)
  6
Continuous
 62
     7
100
AcDbCircle
 10
41.3311983388
 20
463.2111236755
 30
0.0
 40
0.0960277442000294
100
AcDbArc
 50
266.9959774247
 51
356.8570106195
  0
LINE
  5
15D
330
69
100
AcDbEntity
  8
$DDT_AUDIT_GENERATED_(AA)
  6
Continuous
 62
     7
100
AcDbLine
 10
41.5029176901
 20
465.3177342848
 30
0.0
 11
41.5416851503
 21
465.3780552221
 31
0.0
  0
LINE
  5
15E
330
69
100
AcDbEntity
  8
$DDT_AUDIT_GENERATED_(AA)
  6
Continuous
 62
     7
100
AcDbLine
 10
41.1999926074
 20
463.1152278871
 30
0.0
 11
41.3261659024
 21
463.1152278871
 31
0.0
  0
LINE
  5
15F
330
69
100
AcDbEntity
  8
$DDT_AUDIT_GENERATED_(AA)
  6
Continuous
 62
     7
100
AcDbLine
 10
22.9958631226
 20
463.1152278871
 30
0.0
 11
23.1220364176
 21
463.1152278871
 31
0.0
  0
ARC
  5
160
330
69
100
AcDbEntity
  8
$DDT_AUDIT_GENERATED_(AA)
  6
Continuous
 62
     7
100
AcDbCircle
 10
22.9911507306
 20
463.2114800392
 30
0.0
 40
0.0963674396977815
100
AcDbArc
 50
183.3441161588
 51
272.8028957972
  0
ELLIPSE
  5
161
330
69
100
AcDbEntity
  8
$DDT_AUDIT_GENERATED_(AA)
  6
Continuous
 62
     7
100
AcDbEllipse
 10
32.1610145125
 20
463.734131493
 30
0.0
 11
9.349999999984735
 21
5.134781488891349E-13
 31
0.0
210
0.0
220
0.0
230
1.0
 40
0.4226182617
 41
3.007501337395686
 42
3.275683969783838
  0
ARC
  5
162
330
69
100
AcDbEntity
  8
$DDT_AUDIT_GENERATED_(AA)
  6
Continuous
 62
     7
100
AcDbCircle
 10
32.1469797296
 20
459.4763412874
 30
0.0
 40
0.0974900920294548
100
AcDbArc
 50
189.8747062121
 51
271.948475245
  0
SPLINE
  5
163
330
69
100
AcDbEntity
  8
$DDT_AUDIT_GENERATED_(AA)
  6
Continuous
 62
     7
100
AcDbSpline
210
0.0
220
0.0
230
1.0
 70
    12
 71
     2
 72
     6
 73
     3
 74
     0
 42
0.0000000108173449
 43
0.0000000001
 40
0.0
 40
0.0
 40
0.0
 40
0.1714468949955894
 40
0.1714468949955894
 40
0.1714468949955894
 10
32.05093394062202
 20
459.4596223022945
 30
0.0
 41
1.0
 10
32.04108263213718
 20
459.5382487858637
 30
0.0
 41
1.0
 10
32.03123133013603
 20
459.6168854782738
 30
0.0
 41
1.0
  0
ARC
  5
164
330
69
100
AcDbEntity
  8
$DDT_AUDIT_GENERATED_(AA)
  6
Continuous
 62
     7
100
AcDbCircle
 10
30.114861141
 20
459.5747343316
 30
0.0
 40
0.0829931074556458
100
AcDbArc
 50
260.2587424852
 51
327.8352896931
  0
LINE
  5
165
330
69
100
AcDbEntity
  8
$DDT_AUDIT_GENERATED_(AA)
  6
Continuous
 62
     7
100
AcDbLine
 10
30.1008187802
 20
459.4929378281
 30
0.0
 11
30.0801092411
 21
459.4952829809
 31
0.0
  0
ARC
  5
166
330
69
100
AcDbEntity
  8
$DDT_AUDIT_GENERATED_(AA)
  6
Continuous
 62
     7
100
AcDbCircle
 10
30.0922466676
 20
459.6038556728
 30
0.0
 40
0.1092490116485095
100
AcDbArc
 50
188.952334647
 51
263.6213435746
  0
SPLINE
  5
167
330
69
100
AcDbEntity
  8
$DDT_AUDIT_GENERATED_(AA)
  6
Continuous
 62
     7
100
AcDbSpline
210
0.0
220
0.0
230
1.0
 70
    12
 71
     2
 72
     6
 73
     3
 74
     0
 42
0.0000000106794465
 43
0.0000000001
 40
0.0
 40
0.0
 40
0.0
 40
0.2123280346048348
 40
0.2123280346048348
 40
0.2123280346048348
 10
29.98432851216936
 20
459.5868551351811
 30
0.0
 41
1.0
 10
29.97258734732869
 20
459.6855620078528
 30
0.0
 41
1.0
 10
29.96085582980949
 20
459.784284001047
 30
0.0
 41
1.0
  0
ARC
  5
168
330
69
100
AcDbEntity
  8
$DDT_AUDIT_GENERATED_(AA)
  6
Continuous
 62
     7
100
AcDbCircle
 10
28.1897307457
 20
459.8938838917
 30
0.0
 40
0.0671530883953235
100
AcDbArc
 50
253.1826805906
 51
306.353781262
  0
LINE
  5
169
330
69
100
AcDbEntity
  8
$DDT_AUDIT_GENERATED_(AA)
  6
Continuous
 62
     7
100
AcDbLine
 10
28.1703019361
 20
459.8296028008
 30
0.0
 11
28.1517342713
 21
459.8341332882
 31
0.0
  0
ARC
  5
16A
330
69
100
AcDbEntity
  8
$DDT_AUDIT_GENERATED_(AA)
  6
Continuous
 62
     7
100
AcDbCircle
 10
28.1853862607
 20
459.9494229006
 30
0.0
 40
0.1201005875140358
100
AcDbArc
 50
186.5123841689
 51
253.7279553366
  0
SPLINE
  5
16B
330
69
100
AcDbEntity
  8
$DDT_AUDIT_GENERATED_(AA)
  6
Continuous
 62
     7
100
AcDbSpline
210
0.0
220
0.0
230
1.0
 70
    12
 71
     2
 72
     6
 73
     3
 74
     0
 42
0.0000000105634849
 43
0.0000000001
 40
0.0
 40
0.0
 40
0.0
 40
0.3480167405934126
 40
0.3480167405934126
 40
0.3480167405934126
 10
28.06606063855273
 20
459.9358013361935
 30
0.0
 41
1.0
 10
28.04888032718168
 20
460.0996136813113
 30
0.0
 41
1.0
 10
28.03175005777199
 20
460.2634624213073
 30
0.0
 41
1.0
  0
SPLINE
  5
16C
330
69
100
AcDbEntity
  8
$DDT_AUDIT_GENERATED_(AA)
  6
Continuous
 62
     7
100
AcDbSpline
210
0.0
220
0.0
230
1.0
 70
     8
 71
     3
 72
    14
 73
    10
 74
     0
 42
0.0000000987990987
 43
0.0000000001
 40
0.6006671839895752
 40
0.6006671839895752
 40
0.6006671839895752
 40
0.6006671839895752
 40
0.6947657372336652
 40
0.6947657372336652
 40
0.6947657372336652
 40
0.9263670664435186
 40
0.9263670664435186
 40
0.9263670664435186
 40
1.0
 40
1.0
 40
1.0
 40
1.0
 10
26.55083076707264
 20
460.3645547766603
 30
0.0
 10
26.54810577483997
 20
460.3634031235978
 30
0.0
 10
26.54526381108327
 20
460.3625391336361
 30
0.0
 10
26.542342653778
 20
460.3619809443348
 30
0.0
 10
26.53515292936754
 20
460.3606070959503
 30
0.0
 10
26.52728544484702
 20
460.3610479796525
 30
0.0
 10
26.51939604506002
 20
460.3632689671126
 30
0.0
 10
26.51685537295741
 20
460.3639842054112
 30
0.0
 10
26.51429773956476
 20
460.3648836088767
 30
0.0
 10
26.51174555915698
 20
460.3659593201348
 30
0.0
  0
LINE
  5
16D
330
69
100
AcDbEntity
  8
$DDT_AUDIT_GENERATED_(AA)
  6
Continuous
 62
     7
100
AcDbLine
 10
26.5117455592
 20
460.3659593201
 30
0.0
 11
26.4965851244
 21
460.3723663967
 31
0.0
  0
ARC
  5
16E
330
69
100
AcDbEntity
  8
$DDT_AUDIT_GENERATED_(AA)
  6
Continuous
 62
     7
100
AcDbCircle
 10
26.5614952452
 20
460.4905892774
 30
0.0
 40
0.1348702090962823
100
AcDbArc
 50
183.3616210554
 51
241.2310691686
  0
SPLINE
  5
16F
330
69
100
AcDbEntity
  8
$DDT_AUDIT_GENERATED_(AA)
  6
Continuous
 62
     7
100
AcDbSpline
210
0.0
220
0.0
230
1.0
 70
    12
 71
     2
 72
     6
 73
     3
 74
     0
 42
0.0000000104725811
 43
0.0000000001
 40
0.0
 40
0.0
 40
0.0
 40
0.7547200747305115
 40
0.7547200747305115
 40
0.7547200747305115
 10
26.42685710328221
 20
460.4826807984851
 30
0.0
 41
1.0
 10
26.39661460331994
 20
460.841685044514
 30
0.0
 41
1.0
 10
26.36670486708002
 20
461.20082884548
 30
0.0
 41
1.0
  0
SPLINE
  5
170
330
69
100
AcDbEntity
  8
$DDT_AUDIT_GENERATED_(AA)
  6
Continuous
 62
     7
100
AcDbSpline
210
0.0
220
0.0
230
1.0
 70
     8
 71
     3
 72
    14
 73
    10
 74
     0
 42
0.0000001310217216
 43
0.0000000001
 40
0.6620435822836005
 40
0.6620435822836005
 40
0.6620435822836005
 40
0.6620435822836005
 40
0.6947657371476643
 40
0.6947657371476643
 40
0.6947657371476643
 40
0.9263670664230315
 40
0.9263670664230315
 40
0.9263670664230315
 40
1.0
 40
1.0
 40
1.0
 40
1.0
 10
25.262020850155
 20
461.0589728286089
 30
0.0
 10
25.26131351095466
 20
461.0588002464578
 30
0.0
 10
25.26059836945331
 20
461.0586649360254
 30
0.0
 10
25.25987656725592
 20
461.0585675081097
 30
0.0
 10
25.25476779491672
 20
461.0578779327073
 30
0.0
 10
25.24918480223826
 20
461.0590671841435
 30
0.0
 10
25.24359519917699
 20
461.0620381264691
 30
0.0
 10
25.2417951448071
 20
461.0629948773612
 30
0.0
 10
25.23998395752389
 20
461.0641373565469
 30
0.0
 10
25.23817752552877
 20
461.0654555755494
 30
0.0
  0
LINE
  5
171
330
69
100
AcDbEntity
  8
$DDT_AUDIT_GENERATED_(AA)
  6
Continuous
 62
     7
100
AcDbLine
 10
25.2381775255
 20
461.0654555755
 30
0.0
 11
25.2274574793
 21
461.0733026098
 31
0.0
  0
ARC
  5
172
330
69
100
AcDbEntity
  8
$DDT_AUDIT_GENERATED_(AA)
  6
Continuous
 62
     7
100
AcDbCircle
 10
25.3463780951
 20
461.1919126181
 30
0.0
 40
0.1679596587185438
100
AcDbArc
 50
180.5758435382
 51
224.9250770835
  0
SPLINE
  5
173
330
69
100
AcDbEntity
  8
$DDT_AUDIT_GENERATED_(AA)
  6
Continuous
 62
     7
100
AcDbSpline
210
0.0
220
0.0
230
1.0
 70
    12
 71
     2
 72
     6
 73
     3
 74
     0
 42
0.0000000104092941
 43
0.0000000001
 40
0.0
 40
0.0
 40
0.0
 40
0.791638374110913
 40
0.791638374110913
 40
0.791638374110913
 10
25.17842691912161
 20
461.1902245905449
 30
0.0
 41
1.0
 10
25.15622528015742
 20
461.5697903203331
 30
0.0
 41
1.0
 10
25.13447198840151
 20
461.9494642764065
 30
0.0
 41
1.0
  0
SPLINE
  5
174
330
69
100
AcDbEntity
  8
$DDT_AUDIT_GENERATED_(AA)
  6
Continuous
 62
     7
100
AcDbSpline
210
0.0
220
0.0
230
1.0
 70
     8
 71
     3
 72
    14
 73
    10
 74
     0
 42
0.0000001993360714
 43
0.0000000001
 40
0.691953886921184
 40
0.691953886921184
 40
0.691953886921184
 40
0.691953886921184
 40
0.6947657377772164
 40
0.6947657377772164
 40
0.6947657377772164
 40
0.9263670665746967
 40
0.9263670665746967
 40
0.9263670665746967
 40
1.0
 40
1.0
 40
1.0
 40
1.0
 10
24.44780915466303
 20
461.8717069072416
 30
0.0
 10
24.44777667001435
 20
461.87170322898
 30
0.0
 10
24.44774416067335
 20
461.8716998342117
 30
0.0
 10
24.44771162703142
 20
461.8716967232625
 30
0.0
 10
24.44503196115575
 20
461.8714404868244
 30
0.0
 10
24.44211393204406
 20
461.873102724484
 30
0.0
 10
24.43920504791989
 20
461.8765465120107
 30
0.0
 10
24.43826828201329
 20
461.8776555361613
 30
0.0
 10
24.43732697025972
 20
461.8789511609518
 30
0.0
 10
24.43638939203247
 20
461.8804220532522
 30
0.0
  0
LINE
  5
175
330
69
100
AcDbEntity
  8
$DDT_AUDIT_GENERATED_(AA)
  6
Continuous
 62
     7
100
AcDbLine
 10
24.436389392
 20
461.8804220533
 30
0.0
 11
24.4308402878
 21
461.8891742827
 31
0.0
  0
ARC
  5
176
330
69
100
AcDbEntity
  8
$DDT_AUDIT_GENERATED_(AA)
  6
Continuous
 62
     7
100
AcDbCircle
 10
24.6946080833
 20
462.0067358681
 30
0.0
 40
0.2887804985453343
100
AcDbArc
 50
179.3097479596
 51
204.0225835002
  0
SPLINE
  5
177
330
69
100
AcDbEntity
  8
$DDT_AUDIT_GENERATED_(AA)
  6
Continuous
 62
     7
100
AcDbSpline
210
0.0
220
0.0
230
1.0
 70
    12
 71
     2
 72
     6
 73
     3
 74
     0
 42
0.0000000103724652
 43
0.0000000001
 40
0.0
 40
0.0
 40
0.0
 40
0.7634528724549107
 40
0.7634528724549107
 40
0.7634528724549107
 10
24.40584854048518
 20
462.010214771948
 30
0.0
 41
1.0
 10
24.3950777665187
 20
462.3780570024478
 30
0.0
 41
1.0
 10
24.38477204563831
 20
462.7459508140132
 30
0.0
 41
1.0
  0
ARC
  5
178
330
69
100
AcDbEntity
  8
$DDT_AUDIT_GENERATED_(AA)
  6
Continuous
 62
     7
100
AcDbCircle
 10
658.8464248806
 20
428.0328918106
 30
0.0
 40
627.7327506063181
100
AcDbArc
 50
176.7664398369
 51
176.7791944449
  0
ARC
  5
179
330
69
100
AcDbEntity
  8
$DDT_AUDIT_GENERATED_(AA)
  6
Continuous
 62
     7
100
AcDbCircle
 10
-322.9973486951
 20
464.9159897375
 30
0.0
 40
355.4001021946254
100
AcDbArc
 50
359.7370787392
 51
359.7619428522
  0
ARC
  5
17A
330
69
100
AcDbEntity
  8
$DDT_AUDIT_GENERATED_(AA)
  6
Continuous
 62
     7
100
AcDbCircle
 10
-148.4872606123
 20
494.6626867881
 30
0.0
 40
184.0139323251943
100
AcDbArc
 50
350.1333120282
 51
350.1543311083
  0
SPLINE
  5
17B
330
69
100
AcDbEntity
  8
$DDT_AUDIT_GENERATED_(AA)
  6
Continuous
 62
     7
100
AcDbSpline
210
0.0
220
0.0
230
1.0
 70
     8
 71
     3
 72
    11
 73
     7
 74
     0
 42
0.0000002971639515
 43
0.0000000001
 40
0.7023115602287616
 40
0.7023115602287616
 40
0.7023115602287616
 40
0.7023115602287616
 40
0.9310036385209793
 40
0.9310036385209793
 40
0.9310036385209793
 40
1.0
 40
1.0
 40
1.0
 40
1.0
 10
36.88042814879021
 20
462.7459509212351
 30
0.0
 10
36.87981990370615
 20
462.7459509009105
 30
0.0
 10
36.87944208945662
 20
462.7478472947486
 30
0.0
 10
36.87931726736827
 20
462.751491981696
 30
0.0
 10
36.87927910926125
 20
462.7526061623386
 30
0.0
 10
36.87926385276454
 20
462.7538855720459
 30
0.0
 10
36.87927156510667
 20
462.7553201345836
 30
0.0
  0
ARC
  5
17C
330
69
100
AcDbEntity
  8
$DDT_AUDIT_GENERATED_(AA)
  6
Continuous
 62
     7
100
AcDbCircle
 10
36.0365616252
 20
462.7598506219
 30
0.0
 40
0.8427221180230314
100
AcDbArc
 50
359.6919755078
 51
0.3080244922
  0
ARC
  5
17D
330
69
100
AcDbEntity
  8
$DDT_AUDIT_GENERATED_(AA)
  6
Continuous
 62
     7
100
AcDbCircle
 10
37.8459335526
 20
462.7284282741
 30
0.0
 40
0.9673303492090221
100
AcDbArc
 50
170.5788703363
 51
177.8699931489
  0
SPLINE
  5
17E
330
69
100
AcDbEntity
  8
$DDT_AUDIT_GENERATED_(AA)
  6
Continuous
 62
     7
100
AcDbSpline
210
0.0
220
0.0
230
1.0
 70
    12
 71
     2
 72
     6
 73
     3
 74
     0
 42
0.0000000102357661
 43
0.0000000001
 40
0.5841938996164207
 40
0.5841938996164207
 40
0.5841938996164207
 40
1.0
 40
1.0
 40
1.0
 10
36.95501843021547
 20
463.2880261021717
 30
0.0
 41
1.0
 10
36.92344040522855
 20
463.0873832772872
 30
0.0
 41
1.0
 10
36.89165068789082
 20
462.8867703675222
 30
0.0
 41
1.0
  0
SPLINE
  5
17F
330
69
100
AcDbEntity
  8
$DDT_AUDIT_GENERATED_(AA)
  6
Continuous
 62
     7
100
AcDbSpline
210
0.0
220
0.0
230
1.0
 70
     8
 71
     3
 72
    14
 73
    10
 74
     0
 42
0.0000001876035064
 43
0.0000000001
 40
0.6933159970561518
 40
0.6933159970561518
 40
0.6933159970561518
 40
0.6933159970561518
 40
0.700722372282514
 40
0.700722372282514
 40
0.700722372282514
 40
0.931003638453205
 40
0.931003638453205
 40
0.931003638453205
 40
1.0
 40
1.0
 40
1.0
 40
1.0
 10
36.73370873567012
 20
463.2629650419807
 30
0.0
 10
36.73360536842701
 20
463.2629533320708
 30
0.0
 10
36.73350205914572
 20
463.2629436237322
 30
0.0
 10
36.7333988162577
 20
463.2629359235045
 30
0.0
 10
36.73018824588289
 20
463.2626964675654
 30
0.0
 10
36.72695187049622
 20
463.2643924725721
 30
0.0
 10
36.72395176932066
 20
463.2678885714673
 30
0.0
 10
36.72304096770664
 20
463.2689499531775
 30
0.0
 10
36.722146509235
 20
463.2701787474813
 30
0.0
 10
36.72127540681607
 20
463.2715652720747
 30
0.0
  0
SPLINE
  5
180
330
69
100
AcDbEntity
  8
$DDT_AUDIT_GENERATED_(AA)
  6
Continuous
 62
     7
100
AcDbSpline
210
0.0
220
0.0
230
1.0
 70
    12
 71
     2
 72
     6
 73
     3
 74
     0
 42
0.0000009649530116
 43
0.0000000001
 40
0.0
 40
0.0
 40
0.0
 40
1.0
 40
1.0
 40
1.0
 10
36.72127540681606
 20
463.2715652720747
 30
0.0
 41
1.0
 10
36.71852438108392
 20
463.275944050909
 30
0.0
 41
1.0
 10
36.71572630254945
 20
463.2803175014735
 30
0.0
 41
1.0
  0
ARC
  5
181
330
69
100
AcDbEntity
  8
$DDT_AUDIT_GENERATED_(AA)
  6
Continuous
 62
     7
100
AcDbCircle
 10
36.9206326743
 20
463.3652978001
 30
0.0
 40
0.2218293765740528
100
AcDbArc
 50
170.3114542174
 51
202.5251274832
  0
SPLINE
  5
182
330
69
100
AcDbEntity
  8
$DDT_AUDIT_GENERATED_(AA)
  6
Continuous
 62
     7
100
AcDbSpline
210
0.0
220
0.0
230
1.0
 70
    12
 71
     2
 72
     6
 73
     3
 74
     0
 42
0.0000000101313981
 43
0.0000000001
 40
0.0
 40
0.0
 40
0.0
 40
0.4705524517827945
 40
0.4705524517827945
 40
0.4705524517827945
 10
36.70196722062799
 20
463.402629980589
 30
0.0
 41
1.0
 10
36.72972000066952
 20
463.6332019710648
 30
0.0
 41
1.0
 10
36.75720973148215
 20
463.8637825529418
 30
0.0
 41
1.0
  0
SPLINE
  5
183
330
69
100
AcDbEntity
  8
$DDT_AUDIT_GENERATED_(AA)
  6
Continuous
 62
     7
100
AcDbSpline
210
0.0
220
0.0
230
1.0
 70
     8
 71
     3
 72
    14
 73
    10
 74
     0
 42
0.000000125254462
 43
0.0000000001
 40
0.6633908318467452
 40
0.6633908318467452
 40
0.6633908318467452
 40
0.6633908318467452
 40
0.7007223725147673
 40
0.7007223725147673
 40
0.7007223725147673
 40
0.931003638506747
 40
0.931003638506747
 40
0.931003638506747
 40
1.0
 40
1.0
 40
1.0
 40
1.0
 10
36.27746102604652
 20
463.7467273459779
 30
0.0
 10
36.27656403864156
 20
463.7465083448126
 30
0.0
 10
36.27566185944065
 20
463.7463392696532
 30
0.0
 10
36.27475633613469
 20
463.7462211208339
 30
0.0
 10
36.26916968594472
 20
463.7454921985418
 30
0.0
 10
36.26329969876329
 20
463.746681536921
 30
0.0
 10
36.25762963782989
 20
463.7496952388369
 30
0.0
 10
36.2559082623337
 20
463.7506101695038
 30
0.0
 10
36.25419555775385
 20
463.7516939045152
 30
0.0
 10
36.25250500476413
 20
463.7529379018045
 30
0.0
  0
LINE
  5
184
330
69
100
AcDbEntity
  8
$DDT_AUDIT_GENERATED_(AA)
  6
Continuous
 62
     7
100
AcDbLine
 10
36.2525050048
 20
463.7529379018
 30
0.0
 11
36.2417849585
 21
463.760784936
 31
0.0
  0
SPLINE
  5
185
330
69
100
AcDbEntity
  8
$DDT_AUDIT_GENERATED_(AA)
  6
Continuous
 62
     7
100
AcDbSpline
210
0.0
220
0.0
230
1.0
 70
     8
 71
     3
 72
    20
 73
    16
 74
     0
 42
0.0000000767468514
 43
0.0000000001
 40
0.0
 40
0.0
 40
0.0
 40
0.0
 40
0.2289377704741763
 40
0.2289377704741763
 40
0.2289377704741763
 40
0.4578289888418313
 40
0.4578289888418313
 40
0.4578289888418313
 40
0.6874672639018568
 40
0.6874672639018568
 40
0.6874672639018568
 40
0.9190278165294229
 40
0.9190278165294229
 40
0.9190278165294229
 40
1.0
 40
1.0
 40
1.0
 40
1.0
 10
36.24178495851633
 20
463.7607849360102
 30
0.0
 10
36.23620582433019
 20
463.7648474971781
 30
0.0
 10
36.23076760716801
 20
463.7707474326329
 30
0.0
 10
36.22592618174878
 20
463.7779923691327
 30
0.0
 10
36.22108529924873
 20
463.7852364931828
 30
0.0
 10
36.21670845082682
 20
463.7940235316313
 30
0.0
 10
36.21316498939027
 20
463.8036246007767
 30
0.0
 10
36.20960972698508
 20
463.8132576448478
 30
0.0
 10
36.20679668098217
 20
463.8239721496509
 30
0.0
 10
36.20496281221075
 20
463.8348911457915
 30
0.0
 10
36.2031136780899
 20
463.8459010330003
 30
0.0
 10
36.20220982041181
 20
463.8574181021314
 30
0.0
 10
36.2023271299237
 20
463.868508032284
 30
0.0
 10
36.20236865617003
 20
463.8724337426883
 30
0.0
 10
36.20253531170223
 20
463.8763323961539
 30
0.0
 10
36.20282533058446
 20
463.8801642120251
 30
0.0
  0
SPLINE
  5
186
330
69
100
AcDbEntity
  8
$DDT_AUDIT_GENERATED_(AA)
  6
Continuous
 62
     7
100
AcDbSpline
210
0.0
220
0.0
230
1.0
 70
    12
 71
     2
 72
     6
 73
     3
 74
     0
 42
0.0000000100654103
 43
0.0000000001
 40
0.0
 40
0.0
 40
0.0
 40
0.425021130876819
 40
0.425021130876819
 40
0.425021130876819
 10
36.20282533058446
 20
463.8801642120251
 30
0.0
 41
1.0
 10
36.21875755737273
 20
464.0907068974801
 30
0.0
 41
1.0
 10
36.23449637638355
 20
464.3012338907631
 30
0.0
 41
1.0
  0
SPLINE
  5
187
330
69
100
AcDbEntity
  8
$DDT_AUDIT_GENERATED_(AA)
  6
Continuous
 62
     7
100
AcDbSpline
210
0.0
220
0.0
230
1.0
 70
     8
 71
     3
 72
    14
 73
    10
 74
     0
 42
0.0000000952619597
 43
0.0000000001
 40
0.6020402084953028
 40
0.6020402084953028
 40
0.6020402084953028
 40
0.6020402084953028
 40
0.7007223724300249
 40
0.7007223724300249
 40
0.7007223724300249
 40
0.931003638487197
 40
0.931003638487197
 40
0.931003638487197
 40
1.0
 40
1.0
 40
1.0
 40
1.0
 10
35.54529815249327
 20
464.1657816430297
 30
0.0
 10
35.54220940500333
 20
464.1644755688172
 30
0.0
 10
35.5390177412416
 20
464.1634979432197
 30
0.0
 10
35.53576914900963
 20
464.1628717008928
 30
0.0
 10
35.52818713998256
 20
464.1614100908669
 30
0.0
 10
35.52008357093217
 20
464.1618219580487
 30
0.0
 10
35.51212995552334
 20
464.1640776556468
 30
0.0
 10
35.50971531504034
 20
464.1647624635559
 30
0.0
 10
35.507301082339
 20
464.165616580937
 30
0.0
 10
35.50490628717096
 20
464.1666332745627
 30
0.0
  0
LINE
  5
188
330
69
100
AcDbEntity
  8
$DDT_AUDIT_GENERATED_(AA)
  6
Continuous
 62
     7
100
AcDbLine
 10
35.5049062872
 20
464.1666332746
 30
0.0
 11
35.4897458524
 21
464.1730403512
 31
0.0
  0
ARC
  5
189
330
69
100
AcDbEntity
  8
$DDT_AUDIT_GENERATED_(AA)
  6
Continuous
 62
     7
100
AcDbCircle
 10
35.5486444667
 20
464.278393078
 30
0.0
 40
0.1206989802037957
100
AcDbArc
 50
175.9917771831
 51
240.7921411882
  0
SPLINE
  5
18A
330
69
100
AcDbEntity
  8
$DDT_AUDIT_GENERATED_(AA)
  6
Continuous
 62
     7
100
AcDbSpline
210
0.0
220
0.0
230
1.0
 70
    12
 71
     2
 72
     6
 73
     3
 74
     0
 42
0.00000001003299
 43
0.0000000001
 40
0.0
 40
0.0
 40
0.0
 40
0.260467713704808
 40
0.260467713704808
 40
0.260467713704808
 10
35.42824071269542
 20
464.2868298931197
 30
0.0
 41
1.0
 10
35.43174080607506
 20
464.4165957524276
 30
0.0
 41
1.0
 10
35.43518117347787
 20
464.5463483537455
 30
0.0
 41
1.0
  0
ARC
  5
18B
330
69
100
AcDbEntity
  8
$DDT_AUDIT_GENERATED_(AA)
  6
Continuous
 62
     7
100
AcDbCircle
 10
34.547320422
 20
464.5571473116
 30
0.0
 40
0.0748585895371301
100
AcDbArc
 50
256.1706221889
 51
304.9610491887
  0
LINE
  5
18C
330
69
100
AcDbEntity
  8
$DDT_AUDIT_GENERATED_(AA)
  6
Continuous
 62
     7
100
AcDbLine
 10
34.5294268712
 20
464.4844587344
 30
0.0
 11
34.5108592064
 21
464.4889892217
 31
0.0
  0
ARC
  5
18D
330
69
100
AcDbEntity
  8
$DDT_AUDIT_GENERATED_(AA)
  6
Continuous
 62
     7
100
AcDbCircle
 10
34.5427593848
 20
464.5961057656
 30
0.0
 40
0.1117657164231485
100
AcDbArc
 50
180.6112528085
 51
253.4160402833
  0
SPLINE
  5
18E
330
69
100
AcDbEntity
  8
$DDT_AUDIT_GENERATED_(AA)
  6
Continuous
 62
     7
100
AcDbSpline
210
0.0
220
0.0
230
1.0
 70
    12
 71
     2
 72
     6
 73
     3
 74
     0
 42
0.0000000100316728
 43
0.0000000001
 40
0.0
 40
0.0
 40
0.0
 40
0.1626279280381521
 40
0.1626279280381521
 40
0.1626279280381521
 10
34.43100002860849
 20
464.5949134297534
 30
0.0
 41
1.0
 10
34.42912557287003
 20
464.6759524884131
 30
0.0
 41
1.0
 10
34.42723445385993
 20
464.7569841560431
 30
0.0
 41
1.0
  0
ARC
  5
18F
330
69
100
AcDbEntity
  8
$DDT_AUDIT_GENERATED_(AA)
  6
Continuous
 62
     7
100
AcDbCircle
 10
33.4044236574
 20
464.7721922453
 30
0.0
 40
0.0882405592603683
100
AcDbArc
 50
262.2629295463
 51
327.4738851037
  0
LINE
  5
190
330
69
100
AcDbEntity
  8
$DDT_AUDIT_GENERATED_(AA)
  6
Continuous
 62
     7
100
AcDbLine
 10
33.3925440669
 20
464.6847550013
 30
0.0
 11
33.3718345279
 21
464.6871001541
 31
0.0
  0
ARC
  5
191
330
69
100
AcDbEntity
  8
$DDT_AUDIT_GENERATED_(AA)
  6
Continuous
 62
     7
100
AcDbCircle
 10
33.384570383
 20
464.792203133
 30
0.0
 40
0.1058718006259854
100
AcDbArc
 50
184.7590368343
 51
263.090868058
  0
SPLINE
  5
192
330
69
100
AcDbEntity
  8
$DDT_AUDIT_GENERATED_(AA)
  6
Continuous
 62
     7
100
AcDbSpline
210
0.0
220
0.0
230
1.0
 70
    12
 71
     2
 72
     6
 73
     3
 74
     0
 42
0.0000000100613987
 43
0.0000000001
 40
0.0
 40
0.0
 40
0.0
 40
0.1116927621392398
 40
0.1116927621392398
 40
0.1116927621392398
 10
33.27906358292601
 20
464.783419438037
 30
0.0
 41
1.0
 10
33.27507566871816
 20
464.8387835037713
 30
0.0
 41
1.0
 10
33.27108355285171
 20
464.8941434121131
 30
0.0
 41
1.0
  0
SPLINE
  5
193
330
69
100
AcDbEntity
  8
$DDT_AUDIT_GENERATED_(AA)
  6
Continuous
 62
     7
100
AcDbSpline
210
0.0
220
0.0
230
1.0
 70
    12
 71
     2
 72
     6
 73
     3
 74
     0
 42
0.0000000101248459
 43
0.0000000001
 40
0.9021652299769976
 40
0.9021652299769976
 40
0.9021652299769976
 40
1.0
 40
1.0
 40
1.0
 10
32.28233638157712
 20
464.935473841493
 30
0.0
 41
1.0
 10
32.27671563429212
 20
464.8874893833054
 30
0.0
 41
1.0
 10
32.27109508420991
 20
464.8395015450261
 30
0.0
 41
1.0
  0
ARC
  5
194
330
69
100
AcDbEntity
  8
$DDT_AUDIT_GENERATED_(AA)
  6
Continuous
 62
     7
100
AcDbCircle
 10
32.1734578083
 20
464.8523340996
 30
0.0
 40
0.0984769623962655
100
AcDbArc
 50
268.9973293062
 51
352.5124809395
  0
SPLINE
  5
195
330
69
100
AcDbEntity
  8
$DDT_AUDIT_GENERATED_(AA)
  6
Continuous
 62
     7
100
AcDbSpline
210
0.0
220
0.0
230
1.0
 70
     8
 71
     3
 72
    14
 73
    10
 74
     0
 42
0.0000002908203493
 43
0.0000000001
 40
0.7030085175747607
 40
0.7030085175747607
 40
0.7030085175747607
 40
0.7030085175747607
 40
0.7042698238197286
 40
0.7042698238197286
 40
0.7042698238197286
 40
0.9340165527348471
 40
0.9340165527348471
 40
0.9340165527348471
 40
1.0
 40
1.0
 40
1.0
 40
1.0
 10
38.63445012973735
 20
462.745950918329
 30
0.0
 10
38.63444580610727
 20
462.7459509181142
 30
0.0
 10
38.63444149189728
 20
462.7459509757495
 30
0.0
 10
38.63443718712094
 20
462.7459510912654
 30
0.0
 10
38.63365288738373
 20
462.7459721374417
 30
0.0
 10
38.6331593549333
 20
462.7479157689087
 30
0.0
 10
38.63299322451002
 20
462.7516303509614
 30
0.0
 10
38.63294486784594
 20
462.7527115785475
 30
0.0
 10
38.63292331951361
 20
462.7539445076728
 30
0.0
 10
38.63292871109682
 20
462.7553201345836
 30
0.0
  0
LINE
  5
196
330
69
100
AcDbEntity
  8
$DDT_AUDIT_GENERATED_(AA)
  6
Continuous
 62
     7
100
AcDbLine
 10
38.6329287111
 20
462.7643811092
 30
0.0
 11
38.6329287111
 21
462.7553201346
 31
0.0
  0
ARC
  5
197
330
69
100
AcDbEntity
  8
$DDT_AUDIT_GENERATED_(AA)
  6
Continuous
 62
     7
100
AcDbCircle
 10
39.4566911683
 20
462.7225484381
 30
0.0
 40
0.824823955886827
100
AcDbArc
 50
168.5157024444
 51
177.0928775677
  0
SPLINE
  5
198
330
69
100
AcDbEntity
  8
$DDT_AUDIT_GENERATED_(AA)
  6
Continuous
 62
     7
100
AcDbSpline
210
0.0
220
0.0
230
1.0
 70
    12
 71
     2
 72
     6
 73
     3
 74
     0
 42
0.0000000101784481
 43
0.0000000001
 40
0.3719386478990915
 40
0.3719386478990915
 40
0.3719386478990915
 40
1.0
 40
1.0
 40
1.0
 10
38.76405308698167
 20
463.4928815296048
 30
0.0
 41
1.0
 10
38.70639354333554
 20
463.1897956980887
 30
0.0
 41
1.0
 10
38.6483807600125
 20
462.8867703675222
 30
0.0
 41
1.0
  0
SPLINE
  5
199
330
69
100
AcDbEntity
  8
$DDT_AUDIT_GENERATED_(AA)
  6
Continuous
 62
     7
100
AcDbSpline
210
0.0
220
0.0
230
1.0
 70
     8
 71
     3
 72
    14
 73
    10
 74
     0
 42
0.0000001836295201
 43
0.0000000001
 40
0.6940033627975678
 40
0.6940033627975678
 40
0.6940033627975678
 40
0.6940033627975678
 40
0.7042698233327441
 40
0.7042698233327441
 40
0.7042698233327441
 40
0.934016552626026
 40
0.934016552626026
 40
0.934016552626026
 40
1.0
 40
1.0
 40
1.0
 40
1.0
 10
38.42798236422251
 20
463.4548251100738
 30
0.0
 10
38.42783104480793
 20
463.4548079594629
 30
0.0
 10
38.42767994874161
 20
463.4547946738974
 30
0.0
 10
38.42752910077331
 20
463.4547852716299
 30
0.0
 10
38.42415256972699
 20
463.4545748143838
 30
0.0
 10
38.42080540327572
 20
463.456304754166
 30
0.0
 10
38.41776476013909
 20
463.4598409153472
 30
0.0
 10
38.41687970034171
 20
463.4608702088086
 30
0.0
 10
38.41601538544349
 20
463.4620538496113
 30
0.0
 10
38.41517813458434
 20
463.463383192912
 30
0.0
  0
LINE
  5
19A
330
69
100
AcDbEntity
  8
$DDT_AUDIT_GENERATED_(AA)
  6
Continuous
 62
     7
100
AcDbLine
 10
38.4151781346
 20
463.4633831929
 30
0.0
 11
38.4096290303
 21
463.4721354223
 31
0.0
  0
ARC
  5
19B
330
69
100
AcDbEntity
  8
$DDT_AUDIT_GENERATED_(AA)
  6
Continuous
 62
     7
100
AcDbCircle
 10
38.6077162438
 20
463.5513625224
 30
0.0
 40
0.2133435668966731
100
AcDbArc
 50
168.2566264145
 51
201.7994681865
  0
SPLINE
  5
19C
330
69
100
AcDbEntity
  8
$DDT_AUDIT_GENERATED_(AA)
  6
Continuous
 62
     7
100
AcDbSpline
210
0.0
220
0.0
230
1.0
 70
    12
 71
     2
 72
     6
 73
     3
 74
     0
 42
0.000000010053948
 43
0.0000000001
 40
0.0
 40
0.0
 40
0.0
 40
0.6757060055642178
 40
0.6757060055642178
 40
0.6757060055642178
 10
38.3988381673572
 20
463.5947840228798
 30
0.0
 41
1.0
 10
38.44907782161653
 20
463.9270647037358
 30
0.0
 41
1.0
 10
38.49892038355714
 20
464.2593705703715
 30
0.0
 41
1.0
  0
SPLINE
  5
19D
330
69
100
AcDbEntity
  8
$DDT_AUDIT_GENERATED_(AA)
  6
Continuous
 62
     7
100
AcDbSpline
210
0.0
220
0.0
230
1.0
 70
     8
 71
     3
 72
    14
 73
    10
 74
     0
 42
0.000000123258531
 43
0.0000000001
 40
0.6640592017064342
 40
0.6640592017064342
 40
0.6640592017064342
 40
0.6640592017064342
 40
0.7042698237709537
 40
0.7042698237709537
 40
0.7042698237709537
 40
0.9340165527238322
 40
0.9340165527238322
 40
0.9340165527238322
 40
1.0
 40
1.0
 40
1.0
 40
1.0
 10
37.79657171481953
 20
464.1173889319527
 30
0.0
 10
37.7955744680221
 20
464.1171453600257
 30
0.0
 10
37.79457255222415
 20
464.1169601324576
 30
0.0
 10
37.79356840113871
 20
464.1168345640939
 30
0.0
 10
37.78782974379408
 20
464.1161169491626
 30
0.0
 10
37.78185704720418
 20
464.117328343418
 30
0.0
 10
37.77614910615906
 20
464.1203777443139
 30
0.0
 10
37.77448765859096
 20
464.1212653532893
 30
0.0
 10
37.77283947875879
 20
464.1223092020266
 30
0.0
 10
37.77121664271972
 20
464.1235016691683
 30
0.0
  0
LINE
  5
19E
330
69
100
AcDbEntity
  8
$DDT_AUDIT_GENERATED_(AA)
  6
Continuous
 62
     7
100
AcDbLine
 10
37.7712166427
 20
464.1235016692
 30
0.0
 11
37.7604965965
 21
464.1313487034
 31
0.0
  0
SPLINE
  5
19F
330
69
100
AcDbEntity
  8
$DDT_AUDIT_GENERATED_(AA)
  6
Continuous
 62
     7
100
AcDbSpline
210
0.0
220
0.0
230
1.0
 70
     8
 71
     3
 72
    20
 73
    16
 74
     0
 42
0.0000000767042907
 43
0.0000000001
 40
0.0
 40
0.0
 40
0.0
 40
0.0
 40
0.2274863332652359
 40
0.2274863332652359
 40
0.2274863332652359
 40
0.4548919040073475
 40
0.4548919040073475
 40
0.4548919040073475
 40
0.683581643359351
 40
0.683581643359351
 40
0.683581643359351
 40
0.9153618861464179
 40
0.9153618861464179
 40
0.9153618861464179
 40
1.0
 40
1.0
 40
1.0
 40
1.0
 10
37.76049659647192
 20
464.131348703374
 30
0.0
 10
37.75494531375183
 20
464.1353967221645
 30
0.0
 10
37.7495938036509
 20
464.1412830892152
 30
0.0
 10
37.74488905010412
 20
464.1485126613789
 30
0.0
 10
37.74018522230025
 20
464.1557408109972
 30
0.0
 10
37.73599902166127
 20
464.1645081766118
 30
0.0
 10
37.73267513833088
 20
464.1740852005406
 30
0.0
 10
37.72933216824623
 20
464.1837172186687
 30
0.0
 10
37.72677046144945
 20
464.1944279809399
 30
0.0
 10
37.72519520284367
 20
464.20534556429
 30
0.0
 10
37.72359881805104
 20
464.216409566079
 30
0.0
 10
37.72297193017901
 20
464.2279847313355
 30
0.0
 10
37.72336088855327
 20
464.2391397559622
 30
0.0
 10
37.72350463268405
 20
464.2432622261932
 30
0.0
 10
37.72378483445365
 20
464.2473563864949
 30
0.0
 10
37.72419819870611
 20
464.2513773177527
 30
0.0
  0
SPLINE
  5
1A0
330
69
100
AcDbEntity
  8
$DDT_AUDIT_GENERATED_(AA)
  6
Continuous
 62
     7
100
AcDbSpline
210
0.0
220
0.0
230
1.0
 70
    12
 71
     2
 72
     6
 73
     3
 74
     0
 42
0.0000000099730937
 43
0.0000000001
 40
0.0
 40
0.0
 40
0.0
 40
0.3729740607551437
 40
0.3729740607551437
 40
0.3729740607551437
 10
37.72419819870606
 20
464.2513773177527
 30
0.0
 41
1.0
 10
37.74331974343224
 20
464.4373953795001
 30
0.0
 41
1.0
 10
37.76233213481461
 20
464.6234083101748
 30
0.0
 41
1.0
  0
SPLINE
  5
1A1
330
69
100
AcDbEntity
  8
$DDT_AUDIT_GENERATED_(AA)
  6
Continuous
 62
     7
100
AcDbSpline
210
0.0
220
0.0
230
1.0
 70
     8
 71
     3
 72
    14
 73
    10
 74
     0
 42
0.0000000940549596
 43
0.0000000001
 40
0.6027057016960728
 40
0.6027057016960728
 40
0.6027057016960728
 40
0.6027057016960728
 40
0.7042698238255743
 40
0.7042698238255743
 40
0.7042698238255743
 40
0.9340165527359828
 40
0.9340165527359828
 40
0.9340165527359828
 40
1.0
 40
1.0
 40
1.0
 40
1.0
 10
36.78577344225707
 20
464.6900295259795
 30
0.0
 10
36.78252147731077
 20
464.6886540562855
 30
0.0
 10
36.77916588466724
 20
464.6876292650769
 30
0.0
 10
36.77575846222763
 20
464.6869814034642
 30
0.0
 10
36.76804875859916
 20
464.685515538543
 30
0.0
 10
36.75985756127289
 20
464.6859388714502
 30
0.0
 10
36.75187130906868
 20
464.6882263445558
 30
0.0
 10
36.74954669863594
 20
464.6888921742479
 30
0.0
 10
36.74722697460166
 20
464.6897152537752
 30
0.0
 10
36.74492914697687
 20
464.6906895800926
 30
0.0
  0
LINE
  5
1A2
330
69
100
AcDbEntity
  8
$DDT_AUDIT_GENERATED_(AA)
  6
Continuous
 62
     7
100
AcDbLine
 10
36.744929147
 20
464.6906895801
 30
0.0
 11
36.7297687122
 21
464.6970966567
 31
0.0
  0
ARC
  5
1A3
330
69
100
AcDbEntity
  8
$DDT_AUDIT_GENERATED_(AA)
  6
Continuous
 62
     7
100
AcDbCircle
 10
36.7881614807
 20
464.7999987487
 30
0.0
 40
0.1183154933086327
100
AcDbArc
 50
174.2733854441
 51
240.4268452474
  0
SPLINE
  5
1A4
330
69
100
AcDbEntity
  8
$DDT_AUDIT_GENERATED_(AA)
  6
Continuous
 62
     7
100
AcDbSpline
210
0.0
220
0.0
230
1.0
 70
    12
 71
     2
 72
     6
 73
     3
 74
     0
 42
0.0000000099293045
 43
0.0000000001
 40
0.0
 40
0.0
 40
0.0
 40
0.1966578741407241
 40
0.1966578741407241
 40
0.1966578741407241
 10
36.67043646124809
 20
464.8118044998267
 30
0.0
 41
1.0
 10
36.67529201428079
 20
464.9107172823955
 30
0.0
 41
1.0
 10
36.68012257876231
 20
465.0096255597092
 30
0.0
 41
1.0
  0
ARC
  5
1A5
330
69
100
AcDbEntity
  8
$DDT_AUDIT_GENERATED_(AA)
  6
Continuous
 62
     7
100
AcDbCircle
 10
35.4237098468
 20
465.2012478785
 30
0.0
 40
0.0769593337140597
100
AcDbArc
 50
256.8912331037
 51
304.7239997061
  0
LINE
  5
1A6
330
69
100
AcDbEntity
  8
$DDT_AUDIT_GENERATED_(AA)
  6
Continuous
 62
     7
100
AcDbLine
 10
35.4062554442
 20
465.1262940069
 30
0.0
 11
35.3876877794
 21
465.1308244942
 31
0.0
  0
ARC
  5
1A7
330
69
100
AcDbEntity
  8
$DDT_AUDIT_GENERATED_(AA)
  6
Continuous
 62
     7
100
AcDbCircle
 10
35.4196949576
 20
465.2364196617
 30
0.0
 40
0.1103394710202783
100
AcDbArc
 50
179.2451044806
 51
253.1373063004
  0
SPLINE
  5
1A8
330
69
100
AcDbEntity
  8
$DDT_AUDIT_GENERATED_(AA)
  6
Continuous
 62
     7
100
AcDbSpline
210
0.0
220
0.0
230
1.0
 70
    12
 71
     2
 72
     6
 73
     3
 74
     0
 42
0.0000000099177186
 43
0.0000000001
 40
0.0
 40
0.0
 40
0.0
 40
0.0960741390102981
 40
0.0960741390102981
 40
0.0960741390102981
 10
35.30936506341278
 20
465.2378733877101
 30
0.0
 41
1.0
 10
35.30902211196584
 20
465.2863085853857
 30
0.0
 41
1.0
 10
35.30867488169254
 20
465.3347421379174
 30
0.0
 41
1.0
  0
ARC
  5
1A9
330
69
100
AcDbEntity
  8
$DDT_AUDIT_GENERATED_(AA)
  6
Continuous
 62
     7
100
AcDbCircle
 10
33.8576543574
 20
465.4896397101
 30
0.0
 40
0.0897161544638546
100
AcDbArc
 50
262.8090074719
 51
327.4257524664
  0
LINE
  5
1AA
330
69
100
AcDbEntity
  8
$DDT_AUDIT_GENERATED_(AA)
  6
Continuous
 62
     7
100
AcDbLine
 10
33.8464239349
 20
465.4006292277
 30
0.0
 11
33.8257143958
 21
465.4029743805
 31
0.0
  0
ARC
  5
1AB
330
69
100
AcDbEntity
  8
$DDT_AUDIT_GENERATED_(AA)
  6
Continuous
 62
     7
100
AcDbCircle
 10
33.838914806
 20
465.5075536469
 30
0.0
 40
0.1054090782812741
100
AcDbArc
 50
183.8107253405
 51
262.8059446539
  0
SPLINE
  5
1AC
330
69
100
AcDbEntity
  8
$DDT_AUDIT_GENERATED_(AA)
  6
Continuous
 62
     7
100
AcDbSpline
210
0.0
220
0.0
230
1.0
 70
    12
 71
     2
 72
     6
 73
     3
 74
     0
 42
0.0000000099368849
 43
0.0000000001
 40
0.0
 40
0.0
 40
0.0
 40
0.0446127833841614
 40
0.0446127833841614
 40
0.0446127833841614
 10
33.73373878249363
 20
465.5005480878379
 30
0.0
 41
1.0
 10
33.73232962532673
 20
465.5229520891455
 30
0.0
 41
1.0
 10
33.73091997175271
 20
465.5453556567599
 30
0.0
 41
1.0
  0
SPLINE
  5
1AD
330
69
100
AcDbEntity
  8
$DDT_AUDIT_GENERATED_(AA)
  6
Continuous
 62
     7
100
AcDbSpline
210
0.0
220
0.0
230
1.0
 70
    12
 71
     2
 72
     6
 73
     3
 74
     0
 42
0.0000000099892415
 43
0.0000000001
 40
0.9699486972637175
 40
0.9699486972637175
 40
0.9699486972637175
 40
1.0
 40
1.0
 40
1.0
 10
32.27454803040096
 20
465.6118126045292
 30
0.0
 41
1.0
 10
32.2728215490589
 20
465.5968702846085
 30
0.0
 41
1.0
 10
32.27109508420993
 20
465.5819277544538
 30
0.0
 41
1.0
  0
ARC
  5
1AE
330
69
100
AcDbEntity
  8
$DDT_AUDIT_GENERATED_(AA)
  6
Continuous
 62
     7
100
AcDbCircle
 10
32.1727672765
 20
465.5940689132
 30
0.0
 40
0.0990745450648368
100
AcDbArc
 50
269.4027583734
 51
352.9609553792
  0
ARC
  5
1AF
330
69
100
AcDbEntity
  8
$DDT_AUDIT_GENERATED_(AA)
  6
Continuous
 62
     7
100
AcDbCircle
 10
32.1470541138
 20
460.2476926381
 30
0.0
 40
0.0975596773625127
100
AcDbArc
 50
189.8547219582
 51
271.9033751948
  0
SPLINE
  5
1B0
330
69
100
AcDbEntity
  8
$DDT_AUDIT_GENERATED_(AA)
  6
Continuous
 62
     7
100
AcDbSpline
210
0.0
220
0.0
230
1.0
 70
    12
 71
     2
 72
     6
 73
     3
 74
     0
 42
0.0000000108150335
 43
0.0000000001
 40
0.0
 40
0.0
 40
0.0
 40
0.1333167949450566
 40
0.1333167949450566
 40
0.1333167949450566
 10
32.05093394065399
 20
460.2309952443748
 30
0.0
 41
1.0
 10
32.04327357103275
 20
460.2921483017933
 30
0.0
 41
1.0
 10
32.03561320799579
 20
460.3533093481666
 30
0.0
 41
1.0
  0
ARC
  5
1B1
330
69
100
AcDbEntity
  8
$DDT_AUDIT_GENERATED_(AA)
  6
Continuous
 62
     7
100
AcDbCircle
 10
30.5871526279
 20
460.3198589253
 30
0.0
 40
0.0831082879086714
100
AcDbArc
 50
260.3100173625
 51
327.8400797536
  0
LINE
  5
1B2
330
69
100
AcDbEntity
  8
$DDT_AUDIT_GENERATED_(AA)
  6
Continuous
 62
     7
100
AcDbLine
 10
30.5731640869
 20
460.2379363506
 30
0.0
 11
30.5524545478
 21
460.2402815034
 31
0.0
  0
ARC
  5
1B3
330
69
100
AcDbEntity
  8
$DDT_AUDIT_GENERATED_(AA)
  6
Continuous
 62
     7
100
AcDbCircle
 10
30.564681263
 20
460.3488631396
 30
0.0
 40
0.1092678556967999
100
AcDbArc
 50
188.9074761454
 51
263.5753350005
  0
SPLINE
  5
1B4
330
69
100
AcDbEntity
  8
$DDT_AUDIT_GENERATED_(AA)
  6
Continuous
 62
     7
100
AcDbSpline
210
0.0
220
0.0
230
1.0
 70
    12
 71
     2
 72
     6
 73
     3
 74
     0
 42
0.0000000106773863
 43
0.0000000001
 40
0.0
 40
0.0
 40
0.0
 40
0.1748129164828691
 40
0.1748129164828691
 40
0.1748129164828691
 10
30.45673121363505
 20
460.33194418163
 30
0.0
 41
1.0
 10
30.44707509375538
 20
460.4132278411174
 30
0.0
 41
1.0
 10
30.43742745241631
 20
460.4945247644603
 30
0.0
 41
1.0
  0
ARC
  5
1B5
330
69
100
AcDbEntity
  8
$DDT_AUDIT_GENERATED_(AA)
  6
Continuous
 62
     7
100
AcDbCircle
 10
29.1022077217
 20
460.5619843801
 30
0.0
 40
0.0672926928465137
100
AcDbArc
 50
253.2400221314
 51
306.3527225772
  0
LINE
  5
1B6
330
69
100
AcDbEntity
  8
$DDT_AUDIT_GENERATED_(AA)
  6
Continuous
 62
     7
100
AcDbLine
 10
29.0828029975
 20
460.4975502029
 30
0.0
 11
29.0642353327
 21
460.5020806902
 31
0.0
  0
ARC
  5
1B7
330
69
100
AcDbEntity
  8
$DDT_AUDIT_GENERATED_(AA)
  6
Continuous
 62
     7
100
AcDbCircle
 10
29.0979865578
 20
460.6173129525
 30
0.0
 40
0.1200733920005148
100
AcDbArc
 50
186.44734628
 51
253.6748316898
  0
SPLINE
  5
1B8
330
69
100
AcDbEntity
  8
$DDT_AUDIT_GENERATED_(AA)
  6
Continuous
 62
     7
100
AcDbSpline
210
0.0
220
0.0
230
1.0
 70
    12
 71
     2
 72
     6
 73
     3
 74
     0
 42
0.0000000105616508
 43
0.0000000001
 40
0.0
 40
0.0
 40
0.0
 40
0.3214066403047934
 40
0.3214066403047934
 40
0.3214066403047934
 10
28.97867257383834
 20
460.6038299002102
 30
0.0
 41
1.0
 10
28.96284343943738
 20
460.7551444920314
 30
0.0
 41
1.0
 10
28.94706963460102
 20
460.9064992473249
 30
0.0
 41
1.0
  0
SPLINE
  5
1B9
330
69
100
AcDbEntity
  8
$DDT_AUDIT_GENERATED_(AA)
  6
Continuous
 62
     7
100
AcDbSpline
210
0.0
220
0.0
230
1.0
 70
     8
 71
     3
 72
    14
 73
    10
 74
     0
 42
0.0000000986642091
 43
0.0000000001
 40
0.6006679288641241
 40
0.6006679288641241
 40
0.6006679288641241
 40
0.6006679288641241
 40
0.6947533631508337
 40
0.6947533631508337
 40
0.6947533631508337
 40
0.9263592170652215
 40
0.9263592170652215
 40
0.9263592170652215
 40
1.0
 40
1.0
 40
1.0
 40
1.0
 10
27.8413571054013
 20
460.9099547720771
 30
0.0
 10
27.83862594296678
 20
460.9088005104988
 30
0.0
 10
27.83577811657408
 20
460.9079339449873
 30
0.0
 10
27.83285163182536
 20
460.9073733116745
 30
0.0
 10
27.82564765914677
 20
460.905993230309
 30
0.0
 10
27.81776869833898
 20
460.9064291408748
 30
0.0
 10
27.80987284839953
 20
460.9086474113957
 30
0.0
 10
27.80732987471497
 20
460.9093618377847
 30
0.0
 10
27.80477042172214
 20
460.9102606808138
 30
0.0
 10
27.80221693583739
 20
460.9113360901737
 30
0.0
  0
LINE
  5
1BA
330
69
100
AcDbEntity
  8
$DDT_AUDIT_GENERATED_(AA)
  6
Continuous
 62
     7
100
AcDbLine
 10
27.8022169358
 20
460.9113360902
 30
0.0
 11
27.787056501
 21
460.9177431668
 31
0.0
  0
ARC
  5
1BB
330
69
100
AcDbEntity
  8
$DDT_AUDIT_GENERATED_(AA)
  6
Continuous
 62
     7
100
AcDbCircle
 10
27.8520800077
 20
461.0358416338
 30
0.0
 40
0.1348158163667163
100
AcDbArc
 50
183.2818039516
 51
241.1633813936
  0
SPLINE
  5
1BC
330
69
100
AcDbEntity
  8
$DDT_AUDIT_GENERATED_(AA)
  6
Continuous
 62
     7
100
AcDbSpline
210
0.0
220
0.0
230
1.0
 70
    12
 71
     2
 72
     6
 73
     3
 74
     0
 42
0.0000000104711629
 43
0.0000000001
 40
0.0
 40
0.0
 40
0.0
 40
0.6487524143397986
 40
0.6487524143397986
 40
0.6487524143397986
 10
27.71748528287967
 20
461.0281238368821
 30
0.0
 41
1.0
 10
27.69159619642715
 20
461.3367672343633
 30
0.0
 41
1.0
 10
27.66602583089538
 20
461.6455439924085
 30
0.0
 41
1.0
  0
SPLINE
  5
1BD
330
69
100
AcDbEntity
  8
$DDT_AUDIT_GENERATED_(AA)
  6
Continuous
 62
     7
100
AcDbSpline
210
0.0
220
0.0
230
1.0
 70
     8
 71
     3
 72
    14
 73
    10
 74
     0
 42
0.0000001307757364
 43
0.0000000001
 40
0.6620444795355698
 40
0.6620444795355698
 40
0.6620444795355698
 40
0.6620444795355698
 40
0.6947533627760784
 40
0.6947533627760784
 40
0.6947533627760784
 40
0.9263592169747598
 40
0.9263592169747598
 40
0.9263592169747598
 40
1.0
 40
1.0
 40
1.0
 40
1.0
 10
26.84257115055562
 20
461.4446251513085
 30
0.0
 10
26.84186150338277
 20
461.4444520059938
 30
0.0
 10
26.84114412467233
 20
461.4443161177191
 30
0.0
 10
26.84042016727233
 20
461.4442180997282
 30
0.0
 10
26.83529396803726
 20
461.4435240537114
 30
0.0
 10
26.82969699467498
 20
461.4447097484053
 30
0.0
 10
26.82409959176162
 20
461.4476787666441
 30
0.0
 10
26.82229686647939
 20
461.4486349822901
 30
0.0
 10
26.82048360367273
 20
461.449777117759
 30
0.0
 10
26.81867572579575
 20
461.4510951879455
 30
0.0
  0
LINE
  5
1BE
330
69
100
AcDbEntity
  8
$DDT_AUDIT_GENERATED_(AA)
  6
Continuous
 62
     7
100
AcDbLine
 10
26.8186757258
 20
461.4510951879
 30
0.0
 11
26.8079556795
 21
461.4589422222
 31
0.0
  0
ARC
  5
1BF
330
69
100
AcDbEntity
  8
$DDT_AUDIT_GENERATED_(AA)
  6
Continuous
 62
     7
100
AcDbCircle
 10
26.9270384936
 20
461.5773436952
 30
0.0
 40
0.167927441001717
100
AcDbArc
 50
180.4888114377
 51
224.8356192051
  0
SPLINE
  5
1C0
330
69
100
AcDbEntity
  8
$DDT_AUDIT_GENERATED_(AA)
  6
Continuous
 62
     7
100
AcDbSpline
210
0.0
220
0.0
230
1.0
 70
    12
 71
     2
 72
     6
 73
     3
 74
     0
 42
0.0000000104085307
 43
0.0000000001
 40
0.0
 40
0.0
 40
0.0
 40
0.5775033427347299
 40
0.5775033427347299
 40
0.5775033427347299
 10
26.75911716382986
 20
461.5759110616602
 30
0.0
 41
1.0
 10
26.7430378339762
 20
461.8528346498719
 30
0.0
 41
1.0
 10
26.7272677783512
 20
462.1298326549305
 30
0.0
 41
1.0
  0
SPLINE
  5
1C1
330
69
100
AcDbEntity
  8
$DDT_AUDIT_GENERATED_(AA)
  6
Continuous
 62
     7
100
AcDbSpline
210
0.0
220
0.0
230
1.0
 70
     8
 71
     3
 72
    14
 73
    10
 74
     0
 42
0.0000001988099666
 43
0.0000000001
 40
0.6919547573912171
 40
0.6919547573912171
 40
0.6919547573912171
 40
0.6919547573912171
 40
0.6947533630793412
 40
0.6947533630793412
 40
0.6947533630793412
 40
0.9263592170477911
 40
0.9263592170477911
 40
0.9263592170477911
 40
1.0
 40
1.0
 40
1.0
 40
1.0
 10
26.21067618723584
 20
462.071334361036
 30
0.0
 10
26.21064362007939
 20
462.0713306734287
 30
0.0
 10
26.21061102908503
 20
462.0713272667201
 30
0.0
 10
26.21057841464753
 20
462.071324141232
 30
0.0
 10
26.20787933086241
 20
462.0710654841783
 30
0.0
 10
26.20494576943083
 20
462.0727258071623
 30
0.0
 10
26.20202826730198
 20
462.0761685840713
 30
0.0
 10
26.20108864317092
 20
462.0772773806098
 30
0.0
 10
26.20014514141415
 20
462.0785728990123
 30
0.0
 10
26.19920607543459
 20
462.0800438057203
 30
0.0
  0
LINE
  5
1C2
330
69
100
AcDbEntity
  8
$DDT_AUDIT_GENERATED_(AA)
  6
Continuous
 62
     7
100
AcDbLine
 10
26.1992060754
 20
462.0800438057
 30
0.0
 11
26.1936569712
 21
462.0887960351
 31
0.0
  0
ARC
  5
1C3
330
69
100
AcDbEntity
  8
$DDT_AUDIT_GENERATED_(AA)
  6
Continuous
 62
     7
100
AcDbCircle
 10
26.4578845008
 20
462.2059417026
 30
0.0
 40
0.289031650236005
100
AcDbArc
 50
179.2230834068
 51
203.9101751691
  0
SPLINE
  5
1C4
330
69
100
AcDbEntity
  8
$DDT_AUDIT_GENERATED_(AA)
  6
Continuous
 62
     7
100
AcDbSpline
210
0.0
220
0.0
230
1.0
 70
    12
 71
     2
 72
     6
 73
     3
 74
     0
 42
0.0000000103720745
 43
0.0000000001
 40
0.0
 40
0.0
 40
0.0
 40
0.5562576733616164
 40
0.5562576733616164
 40
0.5562576733616164
 10
26.16887942186016
 20
462.2098607801532
 30
0.0
 41
1.0
 10
26.16115730398732
 20
462.4778880452243
 30
0.0
 41
1.0
 10
26.15375518864546
 20
462.7459505830786
 30
0.0
 41
1.0
  0
SPLINE
  5
1C5
330
69
100
AcDbEntity
  8
$DDT_AUDIT_GENERATED_(AA)
  6
Continuous
 62
     7
100
AcDbSpline
210
0.0
220
0.0
230
1.0
 70
     8
 71
     3
 72
    14
 73
    10
 74
     0
 42
0.0000001860090152
 43
0.0000000001
 40
0.6938190133647844
 40
0.6938190133647844
 40
0.6938190133647844
 40
0.6938190133647844
 40
0.7025460169734848
 40
0.7025460169734848
 40
0.7025460169734848
 40
0.9322077561080959
 40
0.9322077561080959
 40
0.9322077561080959
 40
1.0
 40
1.0
 40
1.0
 40
1.0
 10
35.03490954840569
 20
463.0705927084662
 30
0.0
 10
35.03478461830962
 20
463.0705785515835
 30
0.0
 10
35.03465982247665
 20
463.0705671855381
 30
0.0
 10
35.03453517477449
 20
463.0705586213222
 30
0.0
 10
35.03125417837952
 20
463.0703331926859
 30
0.0
 10
35.02798322772838
 20
463.072042790881
 30
0.0
 10
35.0249827073393
 20
463.0755519562522
 30
0.0
 10
35.02408519162244
 20
463.0766016178659
 30
0.0
 10
35.02320656011898
 20
463.0778137264233
 30
0.0
 10
35.02235349120592
 20
463.0791789772921
 30
0.0
  0
SPLINE
  5
1C6
330
69
100
AcDbEntity
  8
$DDT_AUDIT_GENERATED_(AA)
  6
Continuous
 62
     7
100
AcDbSpline
210
0.0
220
0.0
230
1.0
 70
    12
 71
     2
 72
     6
 73
     3
 74
     0
 42
0.0000009649404459
 43
0.0000000001
 40
0.0
 40
0.0
 40
0.0
 40
1.0
 40
1.0
 40
1.0
 10
35.02235349120591
 20
463.0791789772921
 30
0.0
 41
1.0
 10
35.01961644784834
 20
463.0835593394937
 30
0.0
 41
1.0
 10
35.0168043869393
 20
463.0879312066909
 30
0.0
 41
1.0
  0
ARC
  5
1C7
330
69
100
AcDbEntity
  8
$DDT_AUDIT_GENERATED_(AA)
  6
Continuous
 62
     7
100
AcDbCircle
 10
35.2129637108
 20
463.1687328404
 30
0.0
 40
0.2121494386983636
100
AcDbArc
 50
168.6565856463
 51
202.3876637847
  0
SPLINE
  5
1C8
330
69
100
AcDbEntity
  8
$DDT_AUDIT_GENERATED_(AA)
  6
Continuous
 62
     7
100
AcDbSpline
210
0.0
220
0.0
230
1.0
 70
    12
 71
     2
 72
     6
 73
     3
 74
     0
 42
0.0000000100613934
 43
0.0000000001
 40
0.0
 40
0.0
 40
0.0
 40
0.5319200284967194
 40
0.5319200284967194
 40
0.5319200284967194
 10
35.00495841955955
 20
463.2104603273829
 30
0.0
 41
1.0
 10
35.04392676046636
 20
463.4719304357842
 30
0.0
 41
1.0
 10
35.08241457296985
 20
463.7334295898166
 30
0.0
 41
1.0
  0
ARC
  5
1C9
330
69
100
AcDbEntity
  8
$DDT_AUDIT_GENERATED_(AA)
  6
Continuous
 62
     7
100
AcDbCircle
 10
33.6676066957
 20
463.9148762396
 30
0.0
 40
0.0762160965922093
100
AcDbArc
 50
256.6435817913
 51
304.7126299873
  0
LINE
  5
1CA
330
69
100
AcDbEntity
  8
$DDT_AUDIT_GENERATED_(AA)
  6
Continuous
 62
     7
100
AcDbLine
 10
33.6500001754
 20
463.8407216456
 30
0.0
 11
33.6314325106
 21
463.8452521329
 31
0.0
  0
ARC
  5
1CB
330
69
100
AcDbEntity
  8
$DDT_AUDIT_GENERATED_(AA)
  6
Continuous
 62
     7
100
AcDbCircle
 10
33.6629270873
 20
463.9510299314
 30
0.0
 40
0.1103668928204913
100
AcDbArc
 50
179.547666121
 51
253.4194795145
  0
SPLINE
  5
1CC
330
69
100
AcDbEntity
  8
$DDT_AUDIT_GENERATED_(AA)
  6
Continuous
 62
     7
100
AcDbSpline
210
0.0
220
0.0
230
1.0
 70
    12
 71
     2
 72
     6
 73
     3
 74
     0
 42
0.0000000099275157
 43
0.0000000001
 40
0.0
 40
0.0
 40
0.0
 40
0.1564075251989177
 40
0.1564075251989177
 40
0.1564075251989177
 10
33.55256363389955
 20
463.9519012375901
 30
0.0
 41
1.0
 10
33.55191789804869
 20
464.030677572342
 30
0.0
 41
1.0
 10
33.55125002788488
 20
464.109445270706
 30
0.0
 41
1.0
  0
ARC
  5
1CD
330
69
100
AcDbEntity
  8
$DDT_AUDIT_GENERATED_(AA)
  6
Continuous
 62
     7
100
AcDbCircle
 10
30.8583224811
 20
461.8484458575
 30
0.0
 40
0.0681037884797379
100
AcDbArc
 50
253.569458682
 51
306.3467172915
  0
SPLINE
  5
1CE
330
69
100
AcDbEntity
  8
$DDT_AUDIT_GENERATED_(AA)
  6
Continuous
 62
     7
100
AcDbSpline
210
0.0
220
0.0
230
1.0
 70
    12
 71
     2
 72
     6
 73
     3
 74
     0
 42
0.0000005232195737
 43
0.0000000001
 40
0.0
 40
0.0
 40
0.0
 40
1.0
 40
1.0
 40
1.0
 10
30.83905913546034
 20
461.7831232004892
 30
0.0
 41
1.0
 10
30.82975372179871
 20
461.7853726467267
 30
0.0
 41
1.0
 10
30.82049147069968
 20
461.7876536878003
 30
0.0
 41
1.0
  0
ARC
  5
1CF
330
69
100
AcDbEntity
  8
$DDT_AUDIT_GENERATED_(AA)
  6
Continuous
 62
     7
100
AcDbCircle
 10
30.8548172557
 20
461.9025556115
 30
0.0
 40
0.1199196047010222
100
AcDbArc
 50
186.0711570559
 51
253.3670177255
  0
ELLIPSE
  5
1D0
330
69
100
AcDbEntity
  8
$DDT_AUDIT_GENERATED_(AA)
  6
Continuous
 62
     7
100
AcDbEllipse
 10
134.6124263886
 20
536.9621916201
 30
0.0
 11
-25.76088210572215
 21
-205.9619327231861
 31
0.0
210
0.0
220
0.0
230
1.0
 40
0.4979732978
 41
-1.139823515165514
 42
-1.136257518284832
  0
SPLINE
  5
1D1
330
69
100
AcDbEntity
  8
$DDT_AUDIT_GENERATED_(AA)
  6
Continuous
 62
     7
100
AcDbSpline
210
0.0
220
0.0
230
1.0
 70
     8
 71
     3
 72
    14
 73
    10
 74
     0
 42
0.0000001958036211
 43
0.0000000001
 40
0.691964202097137
 40
0.691964202097137
 40
0.691964202097137
 40
0.691964202097137
 40
0.6946193131175145
 40
0.6946193131175145
 40
0.6946193131175145
 40
0.9262742376905715
 40
0.9262742376905715
 40
0.9262742376905715
 40
1.0
 40
1.0
 40
1.0
 40
1.0
 10
29.60379378730132
 20
462.4555717487681
 30
0.0
 10
29.60376159817021
 20
462.4555681039431
 30
0.0
 10
29.6037293908169
 20
462.4555647123074
 30
0.0
 10
29.60369716562213
 20
462.4555615741414
 30
0.0
 10
29.6008856069071
 20
462.455287777877
 30
0.0
 10
29.59786185720383
 20
462.4569362001178
 30
0.0
 10
29.5948940939788
 20
462.4603729105493
 30
0.0
 10
29.59393736993708
 20
462.4614808100834
 30
0.0
 10
29.5929806279896
 20
462.4627763622194
 30
0.0
 10
29.59203239795426
 20
462.4642482114866
 30
0.0
  0
SPLINE
  5
1D2
330
69
100
AcDbEntity
  8
$DDT_AUDIT_GENERATED_(AA)
  6
Continuous
 62
     7
100
AcDbSpline
210
0.0
220
0.0
230
1.0
 70
    12
 71
     2
 72
     6
 73
     3
 74
     0
 42
0.0000009649355679
 43
0.0000000001
 40
0.0
 40
0.0
 40
0.0
 40
1.0
 40
1.0
 40
1.0
 10
29.59203239795425
 20
462.4642482114866
 30
0.0
 41
1.0
 10
29.58921615398695
 20
462.4686196049934
 30
0.0
 41
1.0
 10
29.58648329368764
 20
462.4730004408854
 30
0.0
 41
1.0
  0
ARC
  5
1D3
330
69
100
AcDbEntity
  8
$DDT_AUDIT_GENERATED_(AA)
  6
Continuous
 62
     7
100
AcDbCircle
 10
29.8533080269
 20
462.5877063306
 30
0.0
 40
0.2904356717058189
100
AcDbArc
 50
178.7177617326
 51
203.2624952277
  0
ARC
  5
1D4
330
69
100
AcDbEntity
  8
$DDT_AUDIT_GENERATED_(AA)
  6
Continuous
 62
     7
100
AcDbCircle
 10
239.6310179835
 20
488.7157242006
 30
0.0
 40
209.5719324455813
100
AcDbArc
 50
186.9325027484
 51
186.9941017617
  0
ARC
  5
1D5
330
69
100
AcDbEntity
  8
$DDT_AUDIT_GENERATED_(AA)
  6
Continuous
 62
     7
100
AcDbCircle
 10
29.9709179566
 20
461.1981706235
 30
0.0
 40
0.0675327456014657
100
AcDbArc
 50
253.3381796957
 51
306.3509206621
  0
LINE
  5
1D6
330
69
100
AcDbEntity
  8
$DDT_AUDIT_GENERATED_(AA)
  6
Continuous
 62
     7
100
AcDbLine
 10
29.9515548192
 20
461.1334733234
 30
0.0
 11
29.9329871544
 21
461.1380038107
 31
0.0
  0
ARC
  5
1D7
330
69
100
AcDbEntity
  8
$DDT_AUDIT_GENERATED_(AA)
  6
Continuous
 62
     7
100
AcDbCircle
 10
29.9669087855
 20
461.2531377994
 30
0.0
 40
0.1200271319189564
100
AcDbArc
 50
186.3357123844
 51
253.5835805338
  0
SPLINE
  5
1D8
330
69
100
AcDbEntity
  8
$DDT_AUDIT_GENERATED_(AA)
  6
Continuous
 62
     7
100
AcDbSpline
210
0.0
220
0.0
230
1.0
 70
    12
 71
     2
 72
     6
 73
     3
 74
     0
 42
0.0000000105578731
 43
0.0000000001
 40
0.0
 40
0.0
 40
0.0
 40
0.4172463456295232
 40
0.4172463456295232
 40
0.4172463456295232
 10
29.84761473547906
 20
461.2398923463251
 30
0.0
 41
1.0
 10
29.82714915858931
 20
461.4363890318748
 30
0.0
 41
1.0
 10
29.8068135087009
 20
461.6329797202895
 30
0.0
 41
1.0
  0
ELLIPSE
  5
1D9
330
69
100
AcDbEntity
  8
$DDT_AUDIT_GENERATED_(AA)
  6
Continuous
 62
     7
100
AcDbEllipse
 10
32.1610145125
 20
463.7567891876
 30
0.0
 11
-4.437499999999899
 21
6.938893903907228E-14
 31
0.0
210
0.0
220
0.0
230
1.0
 40
0.4226182617
 41
0.8098836536118555
 42
0.8636849298357101
  0
SPLINE
  5
1DA
330
69
100
AcDbEntity
  8
$DDT_AUDIT_GENERATED_(AA)
  6
Continuous
 62
     7
100
AcDbSpline
210
0.0
220
0.0
230
1.0
 70
     8
 71
     3
 72
    14
 73
    10
 74
     0
 42
0.0000001979112854
 43
0.0000000001
 40
0.6919567745065788
 40
0.6919567745065788
 40
0.6919567745065788
 40
0.6919567745065788
 40
0.6947246954686686
 40
0.6947246954686686
 40
0.6947246954686686
 40
0.926341035792804
 40
0.926341035792804
 40
0.926341035792804
 40
1.0
 40
1.0
 40
1.0
 40
1.0
 10
27.88906225965717
 20
462.2613951718611
 30
0.0
 10
27.88902964981266
 20
462.2613914794144
 30
0.0
 10
27.88899701769422
 20
462.2613880618565
 30
0.0
 10
27.88896436369846
 20
462.2613849195009
 30
0.0
 10
27.88623193250039
 20
462.2611219724858
 30
0.0
 10
27.8832716709936
 20
462.262778911028
 30
0.0
 10
27.88033932860871
 20
462.2662199270747
 30
0.0
 10
27.87939473196107
 20
462.2673283829764
 30
0.0
 10
27.87844740369874
 20
462.2686237960594
 30
0.0
 10
27.87750571792572
 20
462.270094829718
 30
0.0
  0
SPLINE
  5
1DB
330
69
100
AcDbEntity
  8
$DDT_AUDIT_GENERATED_(AA)
  6
Continuous
 62
     7
100
AcDbSpline
210
0.0
220
0.0
230
1.0
 70
    12
 71
     2
 72
     6
 73
     3
 74
     0
 42
0.0000009649519477
 43
0.0000000001
 40
0.0
 40
0.0
 40
0.0
 40
1.0
 40
1.0
 40
1.0
 10
27.87750571792572
 20
462.270094829718
 30
0.0
 41
1.0
 10
27.87470615082178
 20
462.2744681117166
 30
0.0
 41
1.0
 10
27.8719566136591
 20
462.2788470591167
 30
0.0
 41
1.0
  0
ARC
  5
1DC
330
69
100
AcDbEntity
  8
$DDT_AUDIT_GENERATED_(AA)
  6
Continuous
 62
     7
100
AcDbCircle
 10
28.1369663227
 20
462.3952748176
 30
0.0
 40
0.2894573696784493
100
AcDbArc
 50
179.0738629864
 51
203.7175138983
  0
SPLINE
  5
1DD
330
69
100
AcDbEntity
  8
$DDT_AUDIT_GENERATED_(AA)
  6
Continuous
 62
     7
100
AcDbSpline
210
0.0
220
0.0
230
1.0
 70
    12
 71
     2
 72
     6
 73
     3
 74
     0
 42
0.0000000103713604
 43
0.0000000001
 40
0.0
 40
0.0
 40
0.0
 40
0.3821280552847867
 40
0.3821280552847867
 40
0.3821280552847867
 10
27.84754676687076
 20
462.3999534433912
 30
0.0
 41
1.0
 10
27.84239000280456
 20
462.5840953954511
 30
0.0
 41
1.0
 10
27.83744361648677
 20
462.7682602881791
 30
0.0
 41
1.0
  0
LINE
  5
1DE
330
69
100
AcDbEntity
  8
$DDT_AUDIT_GENERATED_(AA)
  6
Continuous
 62
     7
100
AcDbLine
 10
36.1115590585
 20
462.9026606339
 30
0.0
 11
36.1100717838
 21
463.1923444801
 31
0.0
  0
LINE
  5
1DF
330
69
100
AcDbEntity
  8
$DDT_AUDIT_GENERATED_(AA)
  6
Continuous
 62
     7
100
AcDbLine
 10
35.3001921975
 20
463.1006331478
 30
0.0
 11
36.1115590585
 21
462.9026606339
 31
0.0
  0
LINE
  5
1E0
330
69
100
AcDbEntity
  8
$DDT_AUDIT_GENERATED_(AA)
  6
Continuous
 62
     7
100
AcDbLine
 10
29.0388892208
 20
463.5016825161
 30
0.0
 11
28.6105533128
 21
463.4531776628
 31
0.0
  0
SPLINE
  5
1E1
330
69
100
AcDbEntity
  8
$DDT_AUDIT_GENERATED_(AA)
  6
Continuous
 62
     7
100
AcDbSpline
210
0.0
220
0.0
230
1.0
 70
    12
 71
     2
 72
     6
 73
     3
 74
     0
 42
0.0000009643750071
 43
0.0000000001
 40
0.0
 40
0.0
 40
0.0
 40
1.0
 40
1.0
 40
1.0
 10
32.69546952554686
 20
462.8250627317897
 30
0.0
 41
1.0
 10
32.69844365949576
 20
462.8207092177794
 30
0.0
 41
1.0
 10
32.70101862981347
 20
462.8163105023909
 30
0.0
 41
1.0
  0
LINE
  5
1E2
330
69
100
AcDbEntity
  8
$DDT_AUDIT_GENERATED_(AA)
  6
Continuous
 62
     7
100
AcDbLine
 10
32.8049437243
 20
463.1307357459
 30
0.0
 11
32.7370794601
 21
462.9536452106
 31
0.0
  0
SPLINE
  5
1E3
330
69
100
AcDbEntity
  8
$DDT_AUDIT_GENERATED_(AA)
  6
Continuous
 62
     7
100
AcDbSpline
210
0.0
220
0.0
230
1.0
 70
    12
 71
     2
 72
     6
 73
     3
 74
     0
 42
0.0000005231932843
 43
0.0000000001
 40
0.0
 40
0.0
 40
0.0
 40
1.0
 40
1.0
 40
1.0
 10
32.42982116623303
 20
462.9656770728913
 30
0.0
 41
1.0
 10
32.43920830976323
 20
462.9634874526154
 30
0.0
 41
1.0
 10
32.44838883099371
 20
462.9611465855803
 30
0.0
 41
1.0
  0
LINE
  5
1E4
330
69
100
AcDbEntity
  8
$DDT_AUDIT_GENERATED_(AA)
  6
Continuous
 62
     7
100
AcDbLine
 10
32.3990115929
 20
463.2851206614
 30
0.0
 11
32.3786231004
 21
463.0925811089
 31
0.0
  0
SPLINE
  5
1E5
330
69
100
AcDbEntity
  8
$DDT_AUDIT_GENERATED_(AA)
  6
Continuous
 62
     7
100
AcDbSpline
210
0.0
220
0.0
230
1.0
 70
     8
 71
     3
 72
    14
 73
    10
 74
     0
 42
0.0000000639776888
 43
0.0000000001
 40
0.0
 40
0.0
 40
0.0
 40
0.0
 40
0.1662420688385241
 40
0.1662420688385241
 40
0.1662420688385241
 40
0.3310650875756706
 40
0.3310650875756706
 40
0.3310650875756706
 40
0.4856747327513105
 40
0.4856747327513105
 40
0.4856747327513105
 40
0.4856747327513105
 10
32.44838883099371
 20
462.9611465855803
 30
0.0
 10
32.45614418273414
 20
462.9591691110124
 30
0.0
 10
32.46465022250849
 20
462.9587775031459
 30
0.0
 10
32.47303846330716
 20
462.9598734258882
 30
0.0
 10
32.48138603337425
 20
462.9609640350038
 30
0.0
 10
32.48983293886853
 20
462.9635132017794
 30
0.0
 10
32.49781723667807
 20
462.9670952543665
 30
0.0
 10
32.50527647986354
 20
462.9704417479452
 30
0.0
 10
32.51247853391641
 20
462.9747393358952
 30
0.0
 10
32.51922697689678
 20
462.9797075534428
 30
0.0
  0
SPLINE
  5
1E6
330
69
100
AcDbEntity
  8
$DDT_AUDIT_GENERATED_(AA)
  6
Continuous
 62
     7
100
AcDbSpline
210
0.0
220
0.0
230
1.0
 70
     8
 71
     3
 72
    10
 73
     6
 74
     0
 42
0.0000000645098803
 43
0.0000000001
 40
0.0
 40
0.0
 40
0.0
 40
0.0
 40
0.5
 40
0.5
 40
1.0
 40
1.0
 40
1.0
 40
1.0
 10
32.37862310036473
 20
463.0925811089098
 30
0.0
 10
32.37305789206237
 20
463.0658455488178
 30
0.0
 10
32.37365153769027
 20
463.0388053587401
 30
0.0
 10
32.38903434626511
 20
462.99196440052
 30
0.0
 10
32.40549820818382
 20
462.9713505817628
 30
0.0
 10
32.42982116623304
 20
462.9656770728913
 30
0.0
  0
SPLINE
  5
1E7
330
69
100
AcDbEntity
  8
$DDT_AUDIT_GENERATED_(AA)
  6
Continuous
 62
     7
100
AcDbSpline
210
0.0
220
0.0
230
1.0
 70
     8
 71
     3
 72
    11
 73
     7
 74
     0
 42
0.0000001236241246
 43
0.0000000001
 40
0.0
 40
0.0
 40
0.0
 40
0.0
 40
0.1662420688385232
 40
0.1662420688385232
 40
0.1662420688385232
 40
0.2812963377851244
 40
0.2812963377851244
 40
0.2812963377851244
 40
0.2812963377851244
 10
32.70101862981345
 20
462.8163105023909
 30
0.0
 10
32.70319386583805
 20
462.8125946365702
 30
0.0
 10
32.70660102705661
 20
462.8101175726472
 30
0.0
 10
32.71078568696839
 20
462.8090125561163
 30
0.0
 10
32.71369261463816
 20
462.8082449422129
 30
0.0
 10
32.71701331684129
 20
462.8081071336621
 30
0.0
 10
32.72056725413565
 20
462.8085194071688
 30
0.0
  0
SPLINE
  5
1E8
330
69
100
AcDbEntity
  8
$DDT_AUDIT_GENERATED_(AA)
  6
Continuous
 62
     7
100
AcDbSpline
210
0.0
220
0.0
230
1.0
 70
     8
 71
     3
 72
    10
 73
     6
 74
     0
 42
0.0000000704843383
 43
0.0000000001
 40
0.0
 40
0.0
 40
0.0
 40
0.0
 40
0.5
 40
0.5
 40
1.0
 40
1.0
 40
1.0
 40
1.0
 10
32.73707946008719
 20
462.953645210618
 30
0.0
 10
32.72269497147881
 20
462.9304019290726
 30
0.0
 10
32.70972572422394
 20
462.9055281402318
 30
0.0
 10
32.69209290658969
 20
462.8590810555829
 30
0.0
 10
32.68776326910481
 20
462.836343089684
 30
0.0
 10
32.69546952554683
 20
462.8250627317897
 30
0.0
  0
ARC
  5
1E9
330
69
100
AcDbEntity
  8
$DDT_AUDIT_GENERATED_(AA)
  6
Continuous
 62
     7
100
AcDbCircle
 10
32.1645287442
 20
463.3836627153
 30
0.0
 40
0.8811147694494116
100
AcDbArc
 50
232.4799636623
 51
300.2495222497
  0
ARC
  5
1EA
330
69
100
AcDbEntity
  8
$DDT_AUDIT_GENERATED_(AA)
  6
Continuous
 62
     7
100
AcDbCircle
 10
32.4500241443
 20
463.0527124323
 30
0.0
 40
0.4271837479549955
100
AcDbArc
 50
320.4412449637
 51
326.5775861914
  0
SPLINE
  5
1EB
330
69
100
AcDbEntity
  8
$DDT_AUDIT_GENERATED_(AA)
  6
Continuous
 62
     7
100
AcDbSpline
210
0.0
220
0.0
230
1.0
 70
     8
 71
     3
 72
    42
 73
    38
 74
     0
 42
0.0000000006266025
 43
0.0000000001
 40
0.0
 40
0.0
 40
0.0
 40
0.0
 40
0.0271655163430762
 40
0.0565675916119197
 40
0.0859854162186974
 40
0.1153962878488276
 40
0.1447925834484235
 40
0.1741714005865116
 40
0.203532481607851
 40
0.2328769291261519
 40
0.2622064605361252
 40
0.2915229993165163
 40
0.3208284650232859
 40
0.3501246760342296
 40
0.3794133142247105
 40
0.4086959224898155
 40
0.4379739189024837
 40
0.4672486187325695
 40
0.4965212597764216
 40
0.5257930288143545
 40
0.5550650396250008
 40
0.5843381184328621
 40
0.6136134493335457
 40
0.6428922641827431
 40
0.6721758700816484
 40
0.7014656770415312
 40
0.7307632245675367
 40
0.7600702044801018
 40
0.7893884744939098
 40
0.8187200520868343
 40
0.8480670694294745
 40
0.8774316550219348
 40
0.9068156822804017
 40
0.9362202846222175
 40
0.9656449771187279
 40
0.9950861544755532
 40
1.0
 40
1.0
 40
1.0
 40
1.0
 10
24.52863985842672
 20
460.8311711301637
 30
0.0
 10
24.6104326855403
 20
460.7583474863389
 30
0.0
 10
24.75548720518245
 20
460.6306616335982
 30
0.0
 10
25.03607642163371
 20
460.4269338811533
 30
0.0
 10
25.34575956991792
 20
460.2316709569052
 30
0.0
 10
25.68692641952062
 20
460.0446249694039
 30
0.0
 10
26.05505444779067
 20
459.868220744063
 30
0.0
 10
26.4493154733517
 20
459.7026840313021
 30
0.0
 10
26.86779423419066
 20
459.5487663652356
 30
0.0
 10
27.30875832613882
 20
459.4070250909044
 30
0.0
 10
27.77031771999777
 20
459.2780164268116
 30
0.0
 10
28.25051889668135
 20
459.1622413126456
 30
0.0
 10
28.74732555077028
 20
459.060156226733
 30
0.0
 10
29.25863189706823
 20
458.9721663030899
 30
0.0
 10
29.78226887905925
 20
458.8986233669656
 30
0.0
 10
30.31601344591411
 20
458.8398230711277
 30
0.0
 10
30.85759783743725
 20
458.7960027953773
 30
0.0
 10
31.40471945245829
 20
458.7673399011715
 30
0.0
 10
31.95505096785348
 20
458.753950456748
 30
0.0
 10
32.50625035599167
 20
458.7558883951237
 30
0.0
 10
33.05596950650512
 20
458.7731450058448
 30
0.0
 10
33.60186683785466
 20
458.8056487602992
 30
0.0
 10
34.14161813591236
 20
458.8532658061643
 30
0.0
 10
34.67292866458249
 20
458.9158011883894
 30
0.0
 10
35.19354126815545
 20
458.9930001242892
 30
0.0
 10
35.70124646724942
 20
459.0845498560427
 30
0.0
 10
36.19389186876511
 20
459.1900819041911
 30
0.0
 10
36.66939256980068
 20
459.309175284375
 30
0.0
 10
37.12573568607008
 20
459.441358760032
 30
0.0
 10
37.56100384142368
 20
459.5861194860963
 30
0.0
 10
37.97332370284371
 20
459.7428906356765
 30
0.0
 10
38.36108865161724
 20
459.9111201554895
 30
0.0
 10
38.72214923060189
 20
460.0900382332138
 30
0.0
 10
39.05684814783042
 20
460.2795498205853
 30
0.0
 10
39.35667720840461
 20
460.4769189035221
 30
0.0
 10
39.56607384087538
 20
460.6301957906546
 30
0.0
 10
39.65399170994868
 20
460.7094244565625
 30
0.0
 10
39.66862192087002
 20
460.7226374454554
 30
0.0
  0
SPLINE
  5
1EC
330
69
100
AcDbEntity
  8
$DDT_AUDIT_GENERATED_(AA)
  6
Continuous
 62
     7
100
AcDbSpline
210
0.0
220
0.0
230
1.0
 70
     8
 71
     3
 72
    26
 73
    22
 74
     0
 42
0.0000000013873238
 43
0.0000000001
 40
0.0
 40
0.0
 40
0.0
 40
0.0
 40
0.0165800141642971
 40
0.0720227972998394
 40
0.1274634959881548
 40
0.1829055332411316
 40
0.2383519299580944
 40
0.2938066730841405
 40
0.3492739855295852
 40
0.4047584479176595
 40
0.4602651178935409
 40
0.5157996337425086
 40
0.5713682723726843
 40
0.6269778983516437
 40
0.6826356768453281
 40
0.7383483043283319
 40
0.7941202991085828
 40
0.8499505497970754
 40
0.905825873815242
 40
0.9616973953961258
 40
1.0
 40
1.0
 40
1.0
 40
1.0
 10
31.46038939975394
 20
459.6336971029261
 30
0.0
 10
31.51249690327003
 20
459.6307095677693
 30
0.0
 10
31.70597721926985
 20
459.6197655087979
 30
0.0
 10
32.08460387576263
 20
459.6138252291369
 30
0.0
 10
32.56047556112755
 20
459.6182989614471
 30
0.0
 10
33.03908425955702
 20
459.638937458919
 30
0.0
 10
33.51141922271284
 20
459.6745672305484
 30
0.0
 10
33.97653197298012
 20
459.7252825390916
 30
0.0
 10
34.43136928830221
 20
459.7907384028613
 30
0.0
 10
34.87351527167291
 20
459.870611430661
 30
0.0
 10
35.30047471617305
 20
459.9644808600071
 30
0.0
 10
35.70988370917819
 20
460.0718667194961
 30
0.0
 10
36.09946813432015
 20
460.1922262460109
 30
0.0
 10
36.46707562145087
 20
460.324967439911
 30
0.0
 10
36.81065466834388
 20
460.4694433786975
 30
0.0
 10
37.12835469082248
 20
460.6250130447653
 30
0.0
 10
37.41816873969475
 20
460.7908576032585
 30
0.0
 10
37.67924893306168
 20
460.9667013371042
 30
0.0
 10
37.90691159476266
 20
461.1501073753328
 30
0.0
 10
38.08982378409878
 20
461.325966857714
 30
0.0
 10
38.17259930289647
 20
461.4311654553495
 30
0.0
 10
38.21188099419066
 20
461.4817456349128
 30
0.0
  0
SPLINE
  5
1ED
330
69
100
AcDbEntity
  8
$DDT_AUDIT_GENERATED_(AA)
  6
Continuous
 62
     7
100
AcDbSpline
210
0.0
220
0.0
230
1.0
 70
     8
 71
     3
 72
    23
 73
    19
 74
     0
 42
0.0000000017446348
 43
0.0000000001
 40
0.0
 40
0.0
 40
0.0
 40
0.0
 40
0.0048775223048157
 40
0.0722227815700672
 40
0.13993167486187
 40
0.2078227304413401
 40
0.2757676469054738
 40
0.343682277415527
 40
0.4115420207022532
 40
0.4793403448404864
 40
0.5470796929651487
 40
0.6147663972747057
 40
0.6824080645746975
 40
0.7500123385991152
 40
0.8175863848744386
 40
0.8851367380199961
 40
0.9526693224140426
 40
1.0
 40
1.0
 40
1.0
 40
1.0
 10
26.15503079430065
 20
461.4225683552494
 30
0.0
 10
26.15900762846257
 20
461.4172521549566
 30
0.0
 10
26.20977109186152
 20
461.349483916247
 30
0.0
 10
26.3485111232016
 20
461.2124774186882
 30
0.0
 10
26.56192060509697
 20
461.0275636026225
 30
0.0
 10
26.81283560244377
 20
460.8489671891952
 30
0.0
 10
27.09265905887522
 20
460.6798517805727
 30
0.0
 10
27.40143763520764
 20
460.520609154356
 30
0.0
 10
27.73678370997222
 20
460.3722070367512
 30
0.0
 10
28.09688753346485
 20
460.2353307847831
 30
0.0
 10
28.47967888771213
 20
460.1106569576923
 30
0.0
 10
28.88299864757421
 20
459.9988007314022
 30
0.0
 10
29.30468070853311
 20
459.9003036975419
 30
0.0
 10
29.74205482241314
 20
459.815726960376
 30
0.0
 10
30.19388369338279
 20
459.7452668303699
 30
0.0
 10
30.65317043289852
 20
459.6901690985856
 30
0.0
 10
31.0861295350564
 20
459.6516897687629
 30
0.0
 10
31.33787029153027
 20
459.6394433572336
 30
0.0
 10
31.46038939975394
 20
459.6336971029261
 30
0.0
  0
LINE
  5
1EE
330
69
100
AcDbEntity
  8
$DDT_AUDIT_GENERATED_(AA)
  6
Continuous
 62
     7
100
AcDbLine
 10
31.7624421137
 20
464.9206345238
 30
0.0
 11
32.1610145125
 21
464.9265994048
 31
0.0
  0
SPLINE
  5
1EF
330
69
100
AcDbEntity
  8
$DDT_AUDIT_GENERATED_(AA)
  6
Continuous
 62
     7
100
AcDbSpline
210
0.0
220
0.0
230
1.0
 70
     8
 71
     3
 72
    16
 73
    12
 74
     0
 42
0.0000000043069811
 43
0.0000000001
 40
0.0
 40
0.0
 40
0.0
 40
0.0
 40
0.0520505375893908
 40
0.1747634315379279
 40
0.2961228091833602
 40
0.4166387546869952
 40
0.5367429275759986
 40
0.6567120993476755
 40
0.7766776342241448
 40
0.89671380443978
 40
1.0
 40
1.0
 40
1.0
 40
1.0
 10
26.07929247643627
 20
462.7995522312353
 30
0.0
 10
26.09029233434251
 20
462.8288027794621
 30
0.0
 10
26.12230279453347
 20
462.912455347252
 30
0.0
 10
26.21889834011516
 20
463.0672676471578
 30
0.0
 10
26.36295175282882
 20
463.2495914942387
 30
0.0
 10
26.54293410320612
 20
463.4287646930846
 30
0.0
 10
26.75443178394674
 20
463.6017445558738
 30
0.0
 10
26.99797315749019
 20
463.7685680173523
 30
0.0
 10
27.26986824376377
 20
463.9265075832603
 30
0.0
 10
27.56267881791083
 20
464.0732007946912
 30
0.0
 10
27.75442067109748
 20
464.1531000313555
 30
0.0
 10
27.85989206208492
 20
464.1966298238256
 30
0.0
  0
SPLINE
  5
1F0
330
69
100
AcDbEntity
  8
$DDT_AUDIT_GENERATED_(AA)
  6
Continuous
 62
     7
100
AcDbSpline
210
0.0
220
0.0
230
1.0
 70
     8
 71
     3
 72
    17
 73
    13
 74
     0
 42
0.0000000040256511
 43
0.0000000001
 40
0.0
 40
0.0
 40
0.0
 40
0.0
 40
0.0929121953070916
 40
0.2063368988270219
 40
0.3196361530940781
 40
0.4328096418302304
 40
0.5458789236501693
 40
0.6589078590697721
 40
0.7719791888586038
 40
0.8853049419820678
 40
0.9992356756477482
 40
1.0
 40
1.0
 40
1.0
 40
1.0
 10
36.33813525749975
 20
464.2451693175316
 30
0.0
 10
36.44165224894728
 20
464.2049368077534
 30
0.0
 10
36.63515316140919
 20
464.1290308996441
 30
0.0
 10
36.93459705785174
 20
463.9877855539493
 30
0.0
 10
37.2182682594009
 20
463.8331140794939
 30
0.0
 10
37.47389027461296
 20
463.6693053685033
 30
0.0
 10
37.69784999166026
 20
463.4990808867375
 30
0.0
 10
37.88917418613781
 20
463.3234722935347
 30
0.0
 10
38.04851590523923
 20
463.1430746842398
 30
0.0
 10
38.16922753120547
 20
462.9618679816411
 30
0.0
 10
38.23929205807106
 20
462.833963886867
 30
0.0
 10
38.25713200938876
 20
462.774981621973
 30
0.0
 10
38.25726966473403
 20
462.7745263700323
 30
0.0
  0
LINE
  5
1F1
330
69
100
AcDbEntity
  8
$DDT_AUDIT_GENERATED_(AA)
  6
Continuous
 62
     7
100
AcDbLine
 10
32.1610145125
 20
464.9265994048
 30
0.0
 11
32.2152191288
 21
464.9261424658
 31
0.0
  0
SPLINE
  5
1F2
330
69
100
AcDbEntity
  8
$DDT_AUDIT_GENERATED_(AA)
  6
Continuous
 62
     7
100
AcDbSpline
210
0.0
220
0.0
230
1.0
 70
     8
 71
     3
 72
    23
 73
    19
 74
     0
 42
0.0000000020089569
 43
0.0000000001
 40
0.0
 40
0.0
 40
0.0
 40
0.0
 40
0.0349364598221173
 40
0.1026550128469895
 40
0.1703776268607567
 40
0.2381118678250108
 40
0.3058672562508607
 40
0.3736541413794786
 40
0.4414840937436417
 40
0.5093702572644734
 40
0.5773275425745555
 40
0.6453723751787462
 40
0.7135213487709479
 40
0.7817873861071398
 40
0.8501706002476386
 40
0.918638932719379
 40
0.9870436921481445
 40
1.0
 40
1.0
 40
1.0
 40
1.0
 10
31.94584958446006
 20
460.3550884274528
 30
0.0
 10
32.02303841227988
 20
460.3531082543187
 30
0.0
 10
32.21591622237721
 20
460.3484560797319
 30
0.0
 10
32.56769468868405
 20
460.356412199939
 30
0.0
 10
32.97070000470589
 20
460.3787529474649
 30
0.0
 10
33.3710344425478
 20
460.4169313996351
 30
0.0
 10
33.76110699115812
 20
460.4698315561287
 30
0.0
 10
34.13915307597849
 20
460.5373067726848
 30
0.0
 10
34.5019706195155
 20
460.6188294348412
 30
0.0
 10
34.84689288160257
 20
460.7138633319454
 30
0.0
 10
35.17129694953982
 20
460.8217819976876
 30
0.0
 10
35.47271426011176
 20
460.941897486098
 30
0.0
 10
35.74896956236378
 20
461.0735199424857
 30
0.0
 10
35.99755153631327
 20
461.2157958461955
 30
0.0
 10
36.21795274648943
 20
461.3683941091848
 30
0.0
 10
36.40271120715531
 20
461.5289088644621
 30
0.0
 10
36.52534516965615
 20
461.6556124976285
 30
0.0
 10
36.56950401609122
 20
461.7221602711231
 30
0.0
 10
36.57766962656167
 20
461.7345247860366
 30
0.0
  0
SPLINE
  5
1F3
330
69
100
AcDbEntity
  8
$DDT_AUDIT_GENERATED_(AA)
  6
Continuous
 62
     7
100
AcDbSpline
210
0.0
220
0.0
230
1.0
 70
     8
 71
     3
 72
    22
 73
    18
 74
     0
 42
0.0000000022089129
 43
0.0000000001
 40
0.0
 40
0.0
 40
0.0
 40
0.0
 40
0.0070705891875655
 40
0.0798945004309191
 40
0.1534696302881496
 40
0.2274236180369283
 40
0.3014804818360758
 40
0.3754760125165054
 40
0.449371084104859
 40
0.5231616138137534
 40
0.5968580925462845
 40
0.6704756884488675
 40
0.7440299915953326
 40
0.8175354541444951
 40
0.8910050320935079
 40
0.9644503278068007
 40
1.0
 40
1.0
 40
1.0
 40
1.0
 10
27.75556102721001
 20
461.7179158514419
 30
0.0
 10
27.75973184393026
 20
461.7117050904096
 30
0.0
 10
27.80035766980921
 20
461.6513484919943
 30
0.0
 10
27.91709549794356
 20
461.5315300993056
 30
0.0
 10
28.09882316399681
 20
461.3724444068878
 30
0.0
 10
28.3176444698653
 20
461.220130762343
 30
0.0
 10
28.56525803461673
 20
461.0775896229904
 30
0.0
 10
28.84104871337767
 20
460.9454980554247
 30
0.0
 10
29.14220982690807
 20
460.8248840155854
 30
0.0
 10
29.4664791878901
 20
460.7164864156883
 30
0.0
 10
29.81129548098112
 20
460.6210141316179
 30
0.0
 10
30.17411631420793
 20
460.5390668482946
 30
0.0
 10
30.55185725768797
 20
460.471267903158
 30
0.0
 10
30.94282210321082
 20
460.4177885520481
 30
0.0
 10
31.33961589524645
 20
460.3800707554655
 30
0.0
 10
31.68412783204919
 20
460.3587875566609
 30
0.0
 10
31.87331595009781
 20
460.3560380751295
 30
0.0
 10
31.94584958446006
 20
460.3550884274528
 30
0.0
  0
LINE
  5
1F4
330
69
100
AcDbEntity
  8
$DDT_AUDIT_GENERATED_(AA)
  6
Continuous
 62
     7
100
AcDbLine
 10
31.9961681845
 20
464.190792481
 30
0.0
 11
32.1610145125
 21
464.1923001751
 31
0.0
  0
SPLINE
  5
1F5
330
69
100
AcDbEntity
  8
$DDT_AUDIT_GENERATED_(AA)
  6
Continuous
 62
     7
100
AcDbSpline
210
0.0
220
0.0
230
1.0
 70
     8
 71
     3
 72
    16
 73
    12
 74
     0
 42
0.0000000052265451
 43
0.0000000001
 40
0.0
 40
0.0
 40
0.0
 40
0.0
 40
0.0769058889589096
 40
0.1985183251804706
 40
0.3177141427652522
 40
0.4345436571104042
 40
0.5499886353260462
 40
0.6648576486045022
 40
0.7796065889033476
 40
0.894396578353646
 40
1.0
 40
1.0
 40
1.0
 40
1.0
 10
27.72956340968091
 20
462.426572210452
 30
0.0
 10
27.7317375220377
 20
462.4635088043164
 30
0.0
 10
27.73745648204617
 20
462.5444629294893
 30
0.0
 10
27.78709175521472
 20
462.6874973209022
 30
0.0
 10
27.87405604621513
 20
462.8444779627523
 30
0.0
 10
27.99674586650573
 20
462.9990587389856
 30
0.0
 10
28.1519005822646
 20
463.1484323325352
 30
0.0
 10
28.33949704497556
 20
463.2924717016987
 30
0.0
 10
28.55650278997381
 20
463.4286964496249
 30
0.0
 10
28.80129514529019
 20
463.557188943018
 30
0.0
 10
28.9669585615399
 20
463.6272248331173
 30
0.0
 10
29.06154118315724
 20
463.6667400588424
 30
0.0
  0
SPLINE
  5
1F6
330
69
100
AcDbEntity
  8
$DDT_AUDIT_GENERATED_(AA)
  6
Continuous
 62
     7
100
AcDbSpline
210
0.0
220
0.0
230
1.0
 70
     8
 71
     3
 72
    17
 73
    13
 74
     0
 42
0.0000000045757395
 43
0.0000000001
 40
0.0
 40
0.0
 40
0.0
 40
0.0
 40
0.0819875930930984
 40
0.1863190306374475
 40
0.2904662628608875
 40
0.3944199253930863
 40
0.4982072444185994
 40
0.6019322879983926
 40
0.7057560956438329
 40
0.8101096205141457
 40
0.9157260664340056
 40
1.0
 40
1.0
 40
1.0
 40
1.0
 10
35.01698908541471
 20
463.7573599783823
 30
0.0
 10
35.10460868001759
 20
463.7263862109109
 30
0.0
 10
35.27231619225199
 20
463.6664685830871
 30
0.0
 10
35.53102650369777
 20
463.5515512471569
 30
0.0
 10
35.77608223949955
 20
463.4228066647627
 30
0.0
 10
35.9928575222557
 20
463.2852576500796
 30
0.0
 10
36.1777689687344
 20
463.1417771602128
 30
0.0
 10
36.3300089893259
 20
462.9936926189823
 30
0.0
 10
36.44905682333015
 20
462.8423006203212
 30
0.0
 10
36.53350340023873
 20
462.6902231196935
 30
0.0
 10
36.58435199168353
 20
462.5443096082063
 30
0.0
 10
36.59139910089927
 20
462.4590846769847
 30
0.0
 10
36.59447805272094
 20
462.41441718819
 30
0.0
  0
LINE
  5
1F7
330
69
100
AcDbEntity
  8
$DDT_AUDIT_GENERATED_(AA)
  6
Continuous
 62
     7
100
AcDbLine
 10
32.1610145125
 20
464.1923001751
 30
0.0
 11
32.2064062191
 21
464.1918503067
 31
0.0
  0
SPLINE
  5
1F8
330
69
100
AcDbEntity
  8
$DDT_AUDIT_GENERATED_(AA)
  6
Continuous
 62
     7
100
AcDbSpline
210
0.0
220
0.0
230
1.0
 70
     8
 71
     3
 72
    34
 73
    30
 74
     0
 42
0.0000000015399023
 43
0.0000000001
 40
0.0
 40
0.0
 40
0.0
 40
0.0
 40
0.0194936695290242
 40
0.0559283897895515
 40
0.0933523715039551
 40
0.1317405956939932
 40
0.1706776423002525
 40
0.2097661583422955
 40
0.2487818406632976
 40
0.2876888973460376
 40
0.3264949699990683
 40
0.3652199658195889
 40
0.4038847822963246
 40
0.442508173623992
 40
0.4811065001351805
 40
0.5196943821170631
 40
0.5582850716426163
 40
0.5968883640451589
 40
0.6355188199532715
 40
0.6741927377722706
 40
0.7129291332226966
 40
0.7517504593338478
 40
0.7906821940650259
 40
0.8297487465798443
 40
0.8689589218069284
 40
0.9082596424484708
 40
0.9473586154885386
 40
0.985765238468765
 40
1.0
 40
1.0
 40
1.0
 40
1.0
 10
29.30848428480279
 20
462.2120886033226
 30
0.0
 10
29.31547539647636
 20
462.1834609777392
 30
0.0
 10
29.333173351988
 20
462.1137234652977
 30
0.0
 10
29.40265871046471
 20
461.992651539519
 30
0.0
 10
29.51100937193318
 20
461.8593160677755
 30
0.0
 10
29.65531192378925
 20
461.7311538663583
 30
0.0
 10
29.83168786180073
 20
461.6112821503294
 30
0.0
 10
30.03811066827594
 20
461.501285850042
 30
0.0
 10
30.2710559182319
 20
461.4027690552041
 30
0.0
 10
30.52723196136069
 20
461.3167695039988
 30
0.0
 10
30.80336430638208
 20
461.2441006457001
 30
0.0
 10
31.09605832085195
 20
461.1854481586151
 30
0.0
 10
31.40174319976814
 20
461.1413864564242
 30
0.0
 10
31.71668935794599
 20
461.1123600369082
 30
0.0
 10
32.03704297453737
 20
461.0986672686313
 30
0.0
 10
32.35887319972021
 20
461.1004477484705
 30
0.0
 10
32.67821599777752
 20
461.1176751276038
 30
0.0
 10
32.99114139455436
 20
461.1501552503141
 30
0.0
 10
33.29381181237783
 20
461.1975329578436
 30
0.0
 10
33.5825453351273
 20
461.2593091124056
 30
0.0
 10
33.85385290864892
 20
461.3348618504517
 30
0.0
 10
34.10448778996846
 20
461.4234838578661
 30
0.0
 10
34.33144082302294
 20
461.5244160852014
 30
0.0
 10
34.53203449017825
 20
461.6369505272751
 30
0.0
 10
34.70342599658473
 20
461.7602807010163
 30
0.0
 10
34.84381733031115
 20
461.8939911598121
 30
0.0
 10
34.9468156951249
 20
462.0351970699415
 30
0.0
 10
35.00727525063381
 20
462.1566698310763
 30
0.0
 10
35.01813759592443
 20
462.2231842229193
 30
0.0
 10
35.02143501718507
 20
462.2442803481179
 30
0.0
  0
LINE
  5
1F9
330
69
100
AcDbEntity
  8
$DDT_AUDIT_GENERATED_(AA)
  6
Continuous
 62
     7
100
AcDbLine
 10
32.0288394333
 20
463.4388671046
 30
0.0
 11
32.1610145125
 21
463.4421527605
 31
0.0
  0
SPLINE
  5
1FA
330
69
100
AcDbEntity
  8
$DDT_AUDIT_GENERATED_(AA)
  6
Continuous
 62
     7
100
AcDbSpline
210
0.0
220
0.0
230
1.0
 70
     8
 71
     3
 72
    15
 73
    11
 74
     0
 42
0.0000000077239916
 43
0.0000000001
 40
0.0
 40
0.0
 40
0.0
 40
0.0
 40
0.0480193137467795
 40
0.1949529401105352
 40
0.3359993413217889
 40
0.4710072398172422
 40
0.6035328736311458
 40
0.7355479126837446
 40
0.8676595563201084
 40
1.0
 40
1.0
 40
1.0
 40
1.0
 10
29.50264290531622
 20
462.3924101533981
 30
0.0
 10
29.5020915216877
 20
462.4066434946768
 30
0.0
 10
29.50063395814836
 20
462.4560889852976
 30
0.0
 10
29.53280677289272
 20
462.5506847795294
 30
0.0
 10
29.60261467755717
 20
462.6691634742176
 30
0.0
 10
29.70867479079417
 20
462.785129132132
 30
0.0
 10
29.84625051096984
 20
462.8957149980114
 30
0.0
 10
30.01348011528567
 20
462.999380094817
 30
0.0
 10
30.21385113573827
 20
463.0980848764576
 30
0.0
 10
30.35451934584842
 20
463.150751885389
 30
0.0
 10
30.43853741879449
 20
463.1817060498677
 30
0.0
  0
SPLINE
  5
1FB
330
69
100
AcDbEntity
  8
$DDT_AUDIT_GENERATED_(AA)
  6
Continuous
 62
     7
100
AcDbSpline
210
0.0
220
0.0
230
1.0
 70
     8
 71
     3
 72
    16
 73
    12
 74
     0
 42
0.0000000070877924
 43
0.0000000001
 40
0.0
 40
0.0
 40
0.0
 40
0.0
 40
0.0972566135660988
 40
0.2191984001025588
 40
0.3406800570881188
 40
0.4616737336423956
 40
0.5823222807565287
 40
0.7030224042989575
 40
0.8248596696781887
 40
0.9502477976725461
 40
1.0
 40
1.0
 40
1.0
 40
1.0
 10
33.81232479455781
 20
463.20410887644
 30
0.0
 10
33.88272120574289
 20
463.1808224633847
 30
0.0
 10
34.01627675073617
 20
463.1360315046974
 30
0.0
 10
34.21610322258349
 20
463.0473591616714
 30
0.0
 10
34.39785147818282
 20
462.9472418199572
 30
0.0
 10
34.54976699124727
 20
462.8400196208951
 30
0.0
 10
34.66857760747332
 20
462.7292661336162
 30
0.0
 10
34.75457613147263
 20
462.6168315250205
 30
0.0
 10
34.80594073264464
 20
462.5057287651424
 30
0.0
 10
34.82714258388192
 20
462.4158693729469
 30
0.0
 10
34.82097590683566
 20
462.3674234140485
 30
0.0
 10
34.81876943427756
 20
462.3513156351622
 30
0.0
  0
LINE
  5
1FC
330
69
100
AcDbEntity
  8
$DDT_AUDIT_GENERATED_(AA)
  6
Continuous
 62
     7
100
AcDbLine
 10
32.1610145125
 20
463.4421527605
 30
0.0
 11
32.1951591728
 21
463.4417193212
 31
0.0
  0
LINE
  5
1FD
330
69
100
AcDbEntity
  8
$DDT_AUDIT_GENERATED_(AA)
  6
Continuous
 62
     7
100
AcDbLine
 10
23.3378785001
 20
463.1885450418
 30
0.0
 11
23.834766555
 21
461.8105645185
 31
0.0
  0
LINE
  5
1FE
330
69
100
AcDbEntity
  8
$DDT_AUDIT_GENERATED_(AA)
  6
Continuous
 62
     7
100
AcDbLine
 10
40.48726247
 20
461.8105645185
 30
0.0
 11
40.9841505249
 21
463.1885450418
 31
0.0
  0
LINE
  5
1FF
330
69
100
AcDbEntity
  8
$DDT_AUDIT_GENERATED_(AA)
  6
Continuous
 62
     7
100
AcDbLine
 10
29.038366616
 20
463.5042385456
 30
0.0
 11
29.2940875327
 21
462.2535223071
 31
0.0
  0
LINE
  5
200
330
69
100
AcDbEntity
  8
$DDT_AUDIT_GENERATED_(AA)
  6
Continuous
 62
     7
100
AcDbLine
 10
35.0279414922
 20
462.2535223071
 30
0.0
 11
35.1987937354
 21
463.0891507634
 31
0.0
  0
LINE
  5
201
330
69
100
AcDbEntity
  8
$DDT_AUDIT_GENERATED_(AA)
  6
Continuous
 62
     7
100
AcDbLine
 10
25.6678173015
 20
462.7459509133
 30
0.0
 11
25.794627428
 21
462.1257299061
 31
0.0
  0
LINE
  5
202
330
69
100
AcDbEntity
  8
$DDT_AUDIT_GENERATED_(AA)
  6
Continuous
 62
     7
100
AcDbLine
 10
38.5274015969
 20
462.1257299061
 30
0.0
 11
38.6542117235
 21
462.7459509133
 31
0.0
  0
LINE
  5
203
330
69
100
AcDbEntity
  8
$DDT_AUDIT_GENERATED_(AA)
  6
Continuous
 62
     7
100
AcDbLine
 10
27.4329223261
 20
462.7459509133
 30
0.0
 11
27.5224518678
 21
462.219891279
 31
0.0
  0
LINE
  5
204
330
69
100
AcDbEntity
  8
$DDT_AUDIT_GENERATED_(AA)
  6
Continuous
 62
     7
100
AcDbLine
 10
36.7995771572
 20
462.219891279
 30
0.0
 11
36.8891066988
 21
462.7459509133
 31
0.0
  0
SPLINE
  5
205
330
69
100
AcDbEntity
  8
$DDT_AUDIT_GENERATED_(AA)
  6
Continuous
 62
     7
100
AcDbSpline
210
0.0
220
0.0
230
1.0
 70
     8
 71
     3
 72
    26
 73
    22
 74
     0
 42
0.0000000014596381
 43
0.0000000001
 40
0.0
 40
0.0
 40
0.0
 40
0.0
 40
0.0517052042129919
 40
0.1056473736389888
 40
0.1595679042969149
 40
0.2134629596112059
 40
0.2673284320824894
 40
0.3211600718995911
 40
0.3749537718133589
 40
0.4287061213565941
 40
0.4824154122285311
 40
0.5360833742942845
 40
0.5897180401632095
 40
0.6433382252074696
 40
0.6969668200610214
 40
0.7506550418477287
 40
0.804485860071477
 40
0.8585760854161236
 40
0.9130623855690256
 40
0.9680518715397965
 40
1.0
 40
1.0
 40
1.0
 40
1.0
 10
35.63376782410622
 20
467.1614311015597
 30
0.0
 10
35.81662786920271
 20
467.1278456998497
 30
0.0
 10
36.13118328146216
 20
467.0693731988878
 30
0.0
 10
36.63466530746941
 20
466.9557508462101
 30
0.0
 10
37.11484634729603
 20
466.8308905620567
 30
0.0
 10
37.57805545482477
 20
466.6926535394564
 30
0.0
 10
38.01826262161069
 20
466.5428091635553
 30
0.0
 10
38.43476546290213
 20
466.3817293417445
 30
0.0
 10
38.8255611323978
 20
466.2102389202915
 30
0.0
 10
39.18913561813372
 20
466.0291194786523
 30
0.0
 10
39.52400182174597
 20
465.8392400808543
 30
0.0
 10
39.8288435346493
 20
465.6415166395637
 30
0.0
 10
40.10250029502095
 20
465.4369127075072
 30
0.0
 10
40.34397889143774
 20
465.2264296465883
 30
0.0
 10
40.55248324570501
 20
465.0110908130848
 30
0.0
 10
40.72745035558285
 20
464.7918180417546
 30
0.0
 10
40.86848377683499
 20
464.5696069010824
 30
0.0
 10
40.97552695065098
 20
464.3444425243972
 30
0.0
 10
41.04780386625928
 20
464.1190288115097
 30
0.0
 10
41.08152656714721
 20
463.9180553499758
 30
0.0
 10
41.08493208916778
 20
463.8055140128418
 30
0.0
 10
41.08601451248309
 20
463.7567891876349
 30
0.0
  0
SPLINE
  5
206
330
69
100
AcDbEntity
  8
$DDT_AUDIT_GENERATED_(AA)
  6
Continuous
 62
     7
100
AcDbSpline
210
0.0
220
0.0
230
1.0
 70
     8
 71
     3
 72
    27
 73
    23
 74
     0
 42
0.0000000013155122
 43
0.0000000001
 40
0.0
 40
0.0
 40
0.0
 40
0.0
 40
0.0026786364881957
 40
0.0573143488451815
 40
0.1114482193173044
 40
0.1651252070766179
 40
0.2184721150362319
 40
0.2716180437779376
 40
0.3246622573438778
 40
0.3776706709175273
 40
0.4306774503903557
 40
0.4837036046131071
 40
0.5367621161193024
 40
0.5898578114825183
 40
0.6429908866114792
 40
0.6961590916743448
 40
0.7493590253250977
 40
0.8025868691209834
 40
0.8558387825735632
 40
0.9091110982050625
 40
0.9624004018198195
 40
1.0
 40
1.0
 40
1.0
 40
1.0
 10
23.30313166592038
 20
464.2008441952542
 30
0.0
 10
23.30406161370488
 20
464.2049832578176
 30
0.0
 10
23.32125405768732
 20
464.2813092995394
 30
0.0
 10
23.39103065093473
 20
464.4432587940499
 30
0.0
 10
23.51115426791956
 20
464.6683323681112
 30
0.0
 10
23.67033095401108
 20
464.8924360789954
 30
0.0
 10
23.86195357771762
 20
465.11143816434
 30
0.0
 10
24.08692091163919
 20
465.3255597037071
 30
0.0
 10
24.34411037554739
 20
465.5338184584298
 30
0.0
 10
24.63278589070317
 20
465.7354579475673
 30
0.0
 10
24.95189886985916
 20
465.9295981845542
 30
0.0
 10
25.30026729685346
 20
466.1153772492328
 30
0.0
 10
25.67655321902038
 20
466.2919543735758
 30
0.0
 10
26.07927860255832
 20
466.4585266766877
 30
0.0
 10
26.50683844730824
 20
466.614336895947
 30
0.0
 10
26.95747659612826
 20
466.7586720162809
 30
0.0
 10
27.42945244379996
 20
466.8909056555772
 30
0.0
 10
27.92048268272871
 20
467.010359694969
 30
0.0
 10
28.42988441944021
 20
467.1168329416278
 30
0.0
 10
28.95062376757501
 20
467.2086337631226
 30
0.0
 10
29.44518286612865
 20
467.2819450758903
 30
0.0
 10
29.73580548304756
 20
467.3146248391616
 30
0.0
 10
29.87791120902112
 20
467.3303847698594
 30
0.0
  0
LINE
  5
207
330
69
100
AcDbEntity
  8
$DDT_AUDIT_GENERATED_(AA)
  6
Continuous
 62
     7
100
AcDbLine
 10
41.5110145125
 20
463.734131493
 30
0.0
 11
41.5110145125
 21
465.4107425276
 31
0.0
  0
LINE
  5
208
330
69
100
AcDbEntity
  8
$DDT_AUDIT_GENERATED_(AA)
  6
Continuous
 62
     7
100
AcDbLine
 10
22.8110145125
 20
465.4107425276
 30
0.0
 11
22.8110145125
 21
463.734131493
 31
0.0
  0
ARC
  5
209
330
69
100
AcDbEntity
  8
$DDT_AUDIT_GENERATED_(AA)
  6
Continuous
 62
     7
100
AcDbCircle
 10
37.9749906102
 20
464.6000093372
 30
0.0
 40
3.611874801571202
100
AcDbArc
 50
316.8659696485
 51
335.7623354546
  0
ARC
  5
20A
330
69
100
AcDbEntity
  8
$DDT_AUDIT_GENERATED_(AA)
  6
Continuous
 62
     7
100
AcDbCircle
 10
26.3570419879
 20
464.6104339357
 30
0.0
 40
3.625366941891084
100
AcDbArc
 50
204.3175996725
 51
223.2387349393
  0
LINE
  5
20B
330
69
100
AcDbEntity
  8
$DDT_AUDIT_GENERATED_(AA)
  6
Continuous
 62
     7
100
AcDbLine
 10
36.8804329978
 20
462.7459509133
 30
0.0
 11
38.2732004711
 21
462.7459509133
 31
0.0
  0
LINE
  5
20C
330
69
100
AcDbEntity
  8
$DDT_AUDIT_GENERATED_(AA)
  6
Continuous
 62
     7
100
AcDbLine
 10
38.6344551301
 20
462.7459509133
 30
0.0
 11
39.9597982065
 21
462.7459509133
 31
0.0
  0
LINE
  5
20D
330
69
100
AcDbEntity
  8
$DDT_AUDIT_GENERATED_(AA)
  6
Continuous
 62
     7
100
AcDbLine
 10
32.6227107321
 20
462.6296630002
 30
0.0
 11
34.4371710373
 21
462.1869369226
 31
0.0
  0
LINE
  5
20E
330
69
100
AcDbEntity
  8
$DDT_AUDIT_GENERATED_(AA)
  6
Continuous
 62
     7
100
AcDbLine
 10
34.953331461
 20
462.0609944156
 30
0.0
 11
35.9745948161
 21
461.8118074159
 31
0.0
  0
LINE
  5
20F
330
69
100
AcDbEntity
  8
$DDT_AUDIT_GENERATED_(AA)
  6
Continuous
 62
     7
100
AcDbLine
 10
36.5319699151
 20
461.6758085789
 30
0.0
 11
37.4794104599
 21
461.444634254
 31
0.0
  0
LINE
  5
210
330
69
100
AcDbEntity
  8
$DDT_AUDIT_GENERATED_(AA)
  6
Continuous
 62
     7
100
AcDbLine
 10
38.0577822324
 20
461.3035122546
 30
0.0
 11
39.0599630446
 21
461.0589813719
 31
0.0
  0
LINE
  5
211
330
69
100
AcDbEntity
  8
$DDT_AUDIT_GENERATED_(AA)
  6
Continuous
 62
     7
100
AcDbLine
 10
32.2467989178
 20
462.5109220934
 30
0.0
 11
32.7548469021
 21
461.7096121359
 31
0.0
  0
LINE
  5
212
330
69
100
AcDbEntity
  8
$DDT_AUDIT_GENERATED_(AA)
  6
Continuous
 62
     7
100
AcDbLine
 10
33.0972748973
 20
461.1695234617
 30
0.0
 11
33.2144359315
 21
460.9847332328
 31
0.0
  0
LINE
  5
213
330
69
100
AcDbEntity
  8
$DDT_AUDIT_GENERATED_(AA)
  6
Continuous
 62
     7
100
AcDbLine
 10
33.5567582954
 20
460.4448111637
 30
0.0
 11
33.6642121732
 21
460.2753313804
 31
0.0
  0
LINE
  5
214
330
69
100
AcDbEntity
  8
$DDT_AUDIT_GENERATED_(AA)
  6
Continuous
 62
     7
100
AcDbLine
 10
34.0083385032
 20
459.7325640368
 30
0.0
 11
34.1366024582
 21
459.5302619168
 31
0.0
  0
LINE
  5
215
330
69
100
AcDbEntity
  8
$DDT_AUDIT_GENERATED_(AA)
  6
Continuous
 62
     7
100
AcDbLine
 10
30.8987014558
 20
461.7934837892
 30
0.0
 11
31.9170997884
 21
462.5389476021
 31
0.0
  0
LINE
  5
216
330
69
100
AcDbEntity
  8
$DDT_AUDIT_GENERATED_(AA)
  6
Continuous
 62
     7
100
AcDbLine
 10
30.0109666304
 20
461.1436651802
 30
0.0
 11
30.3385719039
 21
461.3834710288
 31
0.0
  0
LINE
  5
217
330
69
100
AcDbEntity
  8
$DDT_AUDIT_GENERATED_(AA)
  6
Continuous
 62
     7
100
AcDbLine
 10
29.142117547
 20
460.5076708646
 30
0.0
 11
29.4427424856
 21
460.7277272078
 31
0.0
  0
LINE
  5
218
330
69
100
AcDbEntity
  8
$DDT_AUDIT_GENERATED_(AA)
  6
Continuous
 62
     7
100
AcDbLine
 10
28.2295598241
 20
459.8396819864
 30
0.0
 11
28.5698070445
 21
460.0887416934
 31
0.0
  0
LINE
  5
219
330
69
100
AcDbEntity
  8
$DDT_AUDIT_GENERATED_(AA)
  6
Continuous
 62
     7
100
AcDbLine
 10
29.6037973105
 20
462.4555721265
 30
0.0
 11
31.6289462609
 21
462.6849004431
 31
0.0
  0
LINE
  5
21A
330
69
100
AcDbEntity
  8
$DDT_AUDIT_GENERATED_(AA)
  6
Continuous
 62
     7
100
AcDbLine
 10
27.8890655078
 20
462.2613955166
 30
0.0
 11
29.2607198016
 21
462.4167219533
 31
0.0
  0
LINE
  5
21B
330
69
100
AcDbEntity
  8
$DDT_AUDIT_GENERATED_(AA)
  6
Continuous
 62
     7
100
AcDbLine
 10
26.2106792906
 20
462.0713346889
 30
0.0
 11
27.5224537332
 21
462.2198803179
 31
0.0
  0
LINE
  5
21C
330
69
100
AcDbEntity
  8
$DDT_AUDIT_GENERATED_(AA)
  6
Continuous
 62
     7
100
AcDbLine
 10
24.4478121669
 20
461.8717072245
 30
0.0
 11
25.8191478813
 21
462.0269975852
 31
0.0
  0
LINE
  5
21D
330
69
100
AcDbEntity
  8
$DDT_AUDIT_GENERATED_(AA)
  6
Continuous
 62
     7
100
AcDbLine
 10
30.4083941792
 20
463.1699535092
 30
0.0
 11
31.640831076
 21
462.8692404258
 31
0.0
  0
LINE
  5
21E
330
69
100
AcDbEntity
  8
$DDT_AUDIT_GENERATED_(AA)
  6
Continuous
 62
     7
100
AcDbLine
 10
28.8142014784
 20
463.5589345629
 30
0.0
 11
29.5674231371
 21
463.3751494067
 31
0.0
  0
LINE
  5
21F
330
69
100
AcDbEntity
  8
$DDT_AUDIT_GENERATED_(AA)
  6
Continuous
 62
     7
100
AcDbLine
 10
27.2871915462
 20
463.9315231038
 30
0.0
 11
28.0445255718
 21
463.7467345352
 31
0.0
  0
LINE
  5
220
330
69
100
AcDbEntity
  8
$DDT_AUDIT_GENERATED_(AA)
  6
Continuous
 62
     7
100
AcDbLine
 10
25.8592790054
 20
464.2799320034
 30
0.0
 11
26.5252309987
 21
464.117440538
 31
0.0
  0
LINE
  5
221
330
69
100
AcDbEntity
  8
$DDT_AUDIT_GENERATED_(AA)
  6
Continuous
 62
     7
100
AcDbLine
 10
31.6625860651
 20
463.4323617815
 30
0.0
 11
31.9112186258
 21
463.0402103454
 31
0.0
  0
LINE
  5
222
330
69
100
AcDbEntity
  8
$DDT_AUDIT_GENERATED_(AA)
  6
Continuous
 62
     7
100
AcDbLine
 10
31.2022777961
 20
464.1583750931
 30
0.0
 11
31.2981880769
 21
464.0071022499
 31
0.0
  0
LINE
  5
223
330
69
100
AcDbEntity
  8
$DDT_AUDIT_GENERATED_(AA)
  6
Continuous
 62
     7
100
AcDbLine
 10
30.7521906593
 20
464.8682672993
 30
0.0
 11
30.8432404749
 21
464.7246605414
 31
0.0
  0
LINE
  5
224
330
69
100
AcDbEntity
  8
$DDT_AUDIT_GENERATED_(AA)
  6
Continuous
 62
     7
100
AcDbLine
 10
30.3378738826
 20
465.5217413196
 30
0.0
 11
30.3888610646
 21
465.4413226625
 31
0.0
  0
LINE
  5
225
330
69
100
AcDbEntity
  8
$DDT_AUDIT_GENERATED_(AA)
  6
Continuous
 62
     7
100
AcDbLine
 10
32.5192486736
 20
462.9797183591
 30
0.0
 11
33.0741423069
 21
463.3858984464
 31
0.0
  0
LINE
  5
226
330
69
100
AcDbEntity
  8
$DDT_AUDIT_GENERATED_(AA)
  6
Continuous
 62
     7
100
AcDbLine
 10
33.7110600118
 20
463.8521198507
 30
0.0
 11
33.971114339
 21
464.0424786564
 31
0.0
  0
LINE
  5
227
330
69
100
AcDbEntity
  8
$DDT_AUDIT_GENERATED_(AA)
  6
Continuous
 62
     7
100
AcDbLine
 10
34.5902620697
 20
464.4956925054
 30
0.0
 11
34.8439053667
 21
464.6813584607
 31
0.0
  0
LINE
  5
228
330
69
100
AcDbEntity
  8
$DDT_AUDIT_GENERATED_(AA)
  6
Continuous
 62
     7
100
AcDbLine
 10
35.4675943316
 20
465.1378964764
 30
0.0
 11
35.6460427952
 21
465.2685200918
 31
0.0
  0
LINE
  5
229
330
69
100
AcDbEntity
  8
$DDT_AUDIT_GENERATED_(AA)
  6
Continuous
 62
     7
100
AcDbLine
 10
32.7209675269
 20
462.8085611736
 30
0.0
 11
34.3148866861
 21
462.989056933
 31
0.0
  0
LINE
  5
22A
330
69
100
AcDbEntity
  8
$DDT_AUDIT_GENERATED_(AA)
  6
Continuous
 62
     7
100
AcDbLine
 10
35.0349472789
 20
463.0705967543
 30
0.0
 11
36.1066206471
 21
463.1919532844
 31
0.0
  0
LINE
  5
22B
330
69
100
AcDbEntity
  8
$DDT_AUDIT_GENERATED_(AA)
  6
Continuous
 62
     7
100
AcDbLine
 10
36.7337372628
 20
463.2629681091
 30
0.0
 11
37.8153754409
 21
463.3854530565
 31
0.0
  0
LINE
  5
22C
330
69
100
AcDbEntity
  8
$DDT_AUDIT_GENERATED_(AA)
  6
Continuous
 62
     7
100
AcDbLine
 10
38.4280281429
 20
463.4548299844
 30
0.0
 11
39.4264819875
 21
463.5678951194
 31
0.0
  0
LINE
  5
22D
330
69
100
AcDbEntity
  8
$DDT_AUDIT_GENERATED_(AA)
  6
Continuous
 62
     7
100
AcDbLine
 10
36.7995752917
 20
462.2198803179
 30
0.0
 11
38.1113402885
 21
462.0713357585
 31
0.0
  0
LINE
  5
22E
330
69
100
AcDbEntity
  8
$DDT_AUDIT_GENERATED_(AA)
  6
Continuous
 62
     7
100
AcDbLine
 10
38.5028811436
 20
462.0269975852
 30
0.0
 11
39.8742095691
 21
461.8717080499
 31
0.0
  0
LINE
  5
22F
330
69
100
AcDbEntity
  8
$DDT_AUDIT_GENERATED_(AA)
  6
Continuous
 62
     7
100
AcDbLine
 10
35.8909296507
 20
461.159180441
 30
0.0
 11
36.4806371363
 21
460.9099592885
 31
0.0
  0
LINE
  5
230
330
69
100
AcDbEntity
  8
$DDT_AUDIT_GENERATED_(AA)
  6
Continuous
 62
     7
100
AcDbLine
 10
37.1352191108
 20
460.6333209922
 30
0.0
 11
37.771164814
 21
460.3645587246
 31
0.0
  0
LINE
  5
231
330
69
100
AcDbEntity
  8
$DDT_AUDIT_GENERATED_(AA)
  6
Continuous
 62
     7
100
AcDbLine
 10
34.8790952857
 20
460.7278672047
 30
0.0
 11
35.1799134887
 21
460.5076693927
 31
0.0
  0
LINE
  5
232
330
69
100
AcDbEntity
  8
$DDT_AUDIT_GENERATED_(AA)
  6
Continuous
 62
     7
100
AcDbLine
 10
35.7528063559
 20
460.0883139328
 30
0.0
 11
36.0924707528
 21
459.8396808505
 31
0.0
  0
LINE
  5
233
330
69
100
AcDbEntity
  8
$DDT_AUDIT_GENERATED_(AA)
  6
Continuous
 62
     7
100
AcDbLine
 10
30.6578176846
 20
460.2753326941
 30
0.0
 11
30.7652654501
 21
460.4448028368
 31
0.0
  0
LINE
  5
234
330
69
100
AcDbEntity
  8
$DDT_AUDIT_GENERATED_(AA)
  6
Continuous
 62
     7
100
AcDbLine
 10
30.1854272091
 20
459.5302629299
 30
0.0
 11
30.3142695679
 21
459.7334773273
 31
0.0
  0
LINE
  5
235
330
69
100
AcDbEntity
  8
$DDT_AUDIT_GENERATED_(AA)
  6
Continuous
 62
     7
100
AcDbLine
 10
27.8413907074
 20
460.9099587892
 30
0.0
 11
28.43116421
 21
461.1592078417
 31
0.0
  0
LINE
  5
236
330
69
100
AcDbEntity
  8
$DDT_AUDIT_GENERATED_(AA)
  6
Continuous
 62
     7
100
AcDbLine
 10
26.5508632989
 20
460.3645583391
 30
0.0
 11
27.1890452396
 21
460.6342656816
 31
0.0
  0
LINE
  5
237
330
69
100
AcDbEntity
  8
$DDT_AUDIT_GENERATED_(AA)
  6
Continuous
 62
     7
100
AcDbLine
 10
26.8426122599
 20
461.4446327156
 30
0.0
 11
27.7900205827
 21
461.6757991784
 31
0.0
  0
LINE
  5
238
330
69
100
AcDbEntity
  8
$DDT_AUDIT_GENERATED_(AA)
  6
Continuous
 62
     7
100
AcDbLine
 10
25.2620611148
 20
461.0589801847
 30
0.0
 11
26.2654939758
 21
461.3038165657
 31
0.0
  0
LINE
  5
239
330
69
100
AcDbEntity
  8
$DDT_AUDIT_GENERATED_(AA)
  6
Continuous
 62
     7
100
AcDbLine
 10
26.0488285539
 20
462.7459509133
 30
0.0
 11
27.4416004218
 21
462.7459509133
 31
0.0
  0
LINE
  5
23A
330
69
100
AcDbEntity
  8
$DDT_AUDIT_GENERATED_(AA)
  6
Continuous
 62
     7
100
AcDbLine
 10
24.3622308184
 20
462.7459509133
 30
0.0
 11
25.6873970286
 21
462.7459509133
 31
0.0
  0
LINE
  5
23B
330
69
100
AcDbEntity
  8
$DDT_AUDIT_GENERATED_(AA)
  6
Continuous
 62
     7
100
AcDbLine
 10
26.5058628053
 20
463.3855426044
 30
0.0
 11
27.5883115577
 21
463.2629658675
 31
0.0
  0
LINE
  5
23C
330
69
100
AcDbEntity
  8
$DDT_AUDIT_GENERATED_(AA)
  6
Continuous
 62
     7
100
AcDbLine
 10
24.8955470374
 20
463.5678951194
 30
0.0
 11
25.8938491499
 21
463.4548471666
 31
0.0
  0
LINE
  5
23D
330
69
100
AcDbEntity
  8
$DDT_AUDIT_GENERATED_(AA)
  6
Continuous
 62
     7
100
AcDbLine
 10
28.290322875
 20
464.3713356647
 30
0.0
 11
28.7767125624
 21
464.1657785005
 31
0.0
  0
LINE
  5
23E
330
69
100
AcDbEntity
  8
$DDT_AUDIT_GENERATED_(AA)
  6
Continuous
 62
     7
100
AcDbLine
 10
27.1523619157
 20
464.8522587472
 30
0.0
 11
27.5361320026
 21
464.6900705002
 31
0.0
  0
LINE
  5
23F
330
69
100
AcDbEntity
  8
$DDT_AUDIT_GENERATED_(AA)
  6
Continuous
 62
     7
100
AcDbLine
 10
29.4781236583
 20
464.6813584607
 30
0.0
 11
29.7317925595
 21
464.4956737632
 31
0.0
  0
LINE
  5
240
330
69
100
AcDbEntity
  8
$DDT_AUDIT_GENERATED_(AA)
  6
Continuous
 62
     7
100
AcDbLine
 10
28.6759862297
 20
465.2685200918
 30
0.0
 11
28.8543971796
 21
465.1379239363
 31
0.0
  0
LINE
  5
241
330
69
100
AcDbEntity
  8
$DDT_AUDIT_GENERATED_(AA)
  6
Continuous
 62
     7
100
AcDbLine
 10
33.4788084124
 20
464.7246918689
 30
0.0
 11
33.5698383656
 21
464.8682672993
 31
0.0
  0
LINE
  5
242
330
69
100
AcDbEntity
  8
$DDT_AUDIT_GENERATED_(AA)
  6
Continuous
 62
     7
100
AcDbLine
 10
33.9331715999
 20
465.4413284028
 30
0.0
 11
33.9841551424
 21
465.5217413196
 31
0.0
  0
LINE
  5
243
330
69
100
AcDbEntity
  8
$DDT_AUDIT_GENERATED_(AA)
  6
Continuous
 62
     7
100
AcDbLine
 10
35.5454351119
 20
464.1658286438
 30
0.0
 11
36.0317061499
 21
464.3713356647
 31
0.0
  0
LINE
  5
244
330
69
100
AcDbEntity
  8
$DDT_AUDIT_GENERATED_(AA)
  6
Continuous
 62
     7
100
AcDbLine
 10
36.7859318393
 20
464.6900852145
 30
0.0
 11
37.1696671093
 21
464.8522587472
 31
0.0
  0
LINE
  5
245
330
69
100
AcDbEntity
  8
$DDT_AUDIT_GENERATED_(AA)
  6
Continuous
 62
     7
100
AcDbLine
 10
36.2775831317
 20
463.7467539767
 30
0.0
 11
37.0318485333
 21
463.9307938048
 31
0.0
  0
LINE
  5
246
330
69
100
AcDbEntity
  8
$DDT_AUDIT_GENERATED_(AA)
  6
Continuous
 62
     7
100
AcDbLine
 10
37.7967195265
 20
464.1174213842
 30
0.0
 11
38.4627500196
 21
464.2799320034
 31
0.0
  0
LINE
  5
248
330
69
100
AcDbEntity
  8
$DDT_AUDIT_GENERATED_(247)
  6
Continuous
 62
     7
100
AcDbLine
 10
56.9110145125
 20
372.3180332786
 30
0.0
 11
7.4110145125
 21
372.3180332786
 31
0.0
  0
LINE
  5
249
330
69
100
AcDbEntity
  8
$DDT_AUDIT_GENERATED_(247)
  6
Continuous
 62
     7
100
AcDbLine
 10
8.1110145125
 20
377.3180332786
 30
0.0
 11
56.2110145125
 21
377.3180332786
 31
0.0
  0
LINE
  5
24A
330
69
100
AcDbEntity
  8
$DDT_AUDIT_GENERATED_(247)
  6
Continuous
 62
     7
100
AcDbLine
 10
56.9110145125
 20
372.3180332786
 30
0.0
 11
56.9110145125
 21
376.6180332786
 31
0.0
  0
LINE
  5
24B
330
69
100
AcDbEntity
  8
$DDT_AUDIT_GENERATED_(247)
  6
Continuous
 62
     7
100
AcDbLine
 10
7.4110145125
 20
376.6180332786
 30
0.0
 11
7.4110145125
 21
372.3180332786
 31
0.0
  0
ARC
  5
24C
330
69
100
AcDbEntity
  8
$DDT_AUDIT_GENERATED_(247)
  6
Continuous
 62
     7
100
AcDbCircle
 10
56.2110145125
 20
376.6180332786
 30
0.0
 40
0.6999999999999993
100
AcDbArc
 50
0.0
 51
90.0
  0
ARC
  5
24D
330
69
100
AcDbEntity
  8
$DDT_AUDIT_GENERATED_(247)
  6
Continuous
 62
     7
100
AcDbCircle
 10
8.1110145125
 20
376.6180332786
 30
0.0
 40
0.7000000000000001
100
AcDbArc
 50
90.0
 51
180.0
  0
LINE
  5
24F
330
69
100
AcDbEntity
  8
DV1_Default
  6
CENTER2
 62
     7
100
AcDbLine
 10
52.1610140654
 20
372.3180332786
 30
0.0
 11
12.1610149595
 21
372.3180332786
 31
0.0
  0
LINE
  5
250
330
69
100
AcDbEntity
  8
DV1_Default
  6
CENTER2
 62
     7
100
AcDbLine
 10
32.1610145125
 20
392.3180328316
 30
0.0
 11
32.1610145125
 21
352.3180337256
 31
0.0
  0
ENDBLK
  5
252
330
69
100
AcDbEntity
  8
0
100
AcDbBlockEnd
  0
BLOCK
  5
29E
330
253
100
AcDbEntity
  8
0
100
AcDbBlockBegin
  2
SE1
 70
     0
 10
0.0
 20
0.0
 30
0.0
  3
SE1
  1

  0
LINE
  5
255
330
253
100
AcDbEntity
  8
$DDT_AUDIT_GENERATED_(6B)
  6
Continuous
 62
     7
100
AcDbLine
 10
179.8373026245
 20
495.8177303936
 30
0.0
 11
297.7659951188
 21
495.8177303936
 31
0.0
  0
LINE
  5
256
330
253
100
AcDbEntity
  8
$DDT_AUDIT_GENERATED_(6B)
  6
Continuous
 62
     7
100
AcDbLine
 10
297.7659951188
 20
495.8177303936
 30
0.0
 11
305.0659951188
 21
495.8177303936
 31
0.0
  0
LINE
  5
257
330
253
100
AcDbEntity
  8
$DDT_AUDIT_GENERATED_(6B)
  6
Continuous
 62
     7
100
AcDbLine
 10
175.2380704602
 20
495.8177303936
 30
0.0
 11
179.8373026245
 21
495.8177303936
 31
0.0
  0
ARC
  5
258
330
253
100
AcDbEntity
  8
$DDT_AUDIT_GENERATED_(6B)
  6
Continuous
 62
     7
100
AcDbCircle
 10
176.976288724
 20
455.5543774434
 30
0.0
 40
40.30085598998171
100
AcDbArc
 50
92.4719940132
 51
92.8464981882
  0
LINE
  5
259
330
253
100
AcDbEntity
  8
$DDT_AUDIT_GENERATED_(6B)
  6
Continuous
 62
     7
100
AcDbLine
 10
178.4659951188
 20
515.8177303936
 30
0.0
 11
139.0659951188
 21
515.8177303936
 31
0.0
  0
LINE
  5
25A
330
253
100
AcDbEntity
  8
$DDT_AUDIT_GENERATED_(6B)
  6
Continuous
 62
     7
100
AcDbLine
 10
305.7659951188
 20
495.1177303936
 30
0.0
 11
305.7659951188
 21
474.5177303936
 31
0.0
  0
ARC
  5
25B
330
253
100
AcDbEntity
  8
$DDT_AUDIT_GENERATED_(6B)
  6
Continuous
 62
     7
100
AcDbCircle
 10
305.0659951188
 20
495.1177303936
 30
0.0
 40
0.6999999999999923
100
AcDbArc
 50
0.0
 51
90.0
  0
ARC
  5
25C
330
253
100
AcDbEntity
  8
$DDT_AUDIT_GENERATED_(6B)
  6
Continuous
 62
     7
100
AcDbCircle
 10
305.0659951188
 20
474.5177303936
 30
0.0
 40
0.6999999999999923
100
AcDbArc
 50
270.0
 51
0.0
  0
LINE
  5
25D
330
253
100
AcDbEntity
  8
$DDT_AUDIT_GENERATED_(6B)
  6
Continuous
 62
     7
100
AcDbLine
 10
305.0659951188
 20
473.8177303936
 30
0.0
 11
297.7659951188
 21
473.8177303936
 31
0.0
  0
LINE
  5
25E
330
253
100
AcDbEntity
  8
$DDT_AUDIT_GENERATED_(6B)
  6
Continuous
 62
     7
100
AcDbLine
 10
297.7659951188
 20
473.8177303936
 30
0.0
 11
183.4055973883
 21
473.8177303936
 31
0.0
  0
ARC
  5
25F
330
253
100
AcDbEntity
  8
$DDT_AUDIT_GENERATED_(6B)
  6
Continuous
 62
     7
100
AcDbCircle
 10
-71.2072457948
 20
408.6725004032
 30
0.0
 40
210.1290403237111
100
AcDbArc
 50
357.7936239537
 51
2.2065020421
  0
LINE
  5
260
330
253
100
AcDbEntity
  8
$DDT_AUDIT_GENERATED_(6B)
  6
Continuous
 62
     7
100
AcDbLine
 10
178.7659951188
 20
497.3177303936
 30
0.0
 11
178.7659951188
 21
515.5177303936
 31
0.0
  0
LINE
  5
261
330
253
100
AcDbEntity
  8
$DDT_AUDIT_GENERATED_(6B)
  6
Continuous
 62
     7
100
AcDbLine
 10
178.7659951188
 20
377.3180332786
 30
0.0
 11
178.7659951188
 21
465.8177303936
 31
0.0
  0
LINE
  5
262
330
253
100
AcDbEntity
  8
$DDT_AUDIT_GENERATED_(6B)
  6
Continuous
 62
     7
100
AcDbLine
 10
138.7659951188
 20
400.5975302782
 30
0.0
 11
138.7659951188
 21
377.3180332786
 31
0.0
  0
LINE
  5
263
330
253
100
AcDbEntity
  8
$DDT_AUDIT_GENERATED_(6B)
  6
Continuous
 62
     7
100
AcDbLine
 10
138.7659951188
 20
515.5177303936
 30
0.0
 11
138.7659951188
 21
416.7627221313
 31
0.0
  0
ARC
  5
264
330
253
100
AcDbEntity
  8
$DDT_AUDIT_GENERATED_(6B)
  6
Continuous
 62
     7
100
AcDbCircle
 10
186.7659951188
 20
465.8177303936
 30
0.0
 40
8.0
100
AcDbArc
 50
90.0
 51
180.0
  0
ARC
  5
265
330
253
100
AcDbEntity
  8
$DDT_AUDIT_GENERATED_(6B)
  6
Continuous
 62
     7
100
AcDbCircle
 10
180.2659951188
 20
497.3177303936
 30
0.0
 40
1.500000000000001
100
AcDbArc
 50
180.0
 51
270.0
  0
ARC
  5
266
330
253
100
AcDbEntity
  8
$DDT_AUDIT_GENERATED_(6B)
  6
Continuous
 62
     7
100
AcDbCircle
 10
178.4659951188
 20
515.5177303936
 30
0.0
 40
0.3000000000000017
100
AcDbArc
 50
0.0
 51
90.0
  0
ARC
  5
267
330
253
100
AcDbEntity
  8
$DDT_AUDIT_GENERATED_(6B)
  6
Continuous
 62
     7
100
AcDbCircle
 10
139.0659951188
 20
515.5177303936
 30
0.0
 40
0.2999999999999947
100
AcDbArc
 50
90.0
 51
180.0
  0
LINE
  5
268
330
253
100
AcDbEntity
  8
$DDT_AUDIT_GENERATED_(7D)
  6
Continuous
 62
     7
100
AcDbLine
 10
149.3987158499
 20
523.4551086083
 30
0.0
 11
146.8159951188
 21
523.4551086083
 31
0.0
  0
ARC
  5
269
330
253
100
AcDbEntity
  8
$DDT_AUDIT_GENERATED_(7D)
  6
Continuous
 62
     7
100
AcDbCircle
 10
158.7659951188
 20
507.4177303936
 30
0.0
 40
19.99999999999999
100
AcDbArc
 50
126.691057378
 51
155.1654125103
  0
ARC
  5
26A
330
253
100
AcDbEntity
  8
$DDT_AUDIT_GENERATED_(7D)
  6
Continuous
 62
     7
100
AcDbCircle
 10
158.7659951188
 20
507.4177303936
 30
0.0
 40
19.99999999999999
100
AcDbArc
 50
24.8345874897
 51
28.1697503374
  0
ARC
  5
26B
330
253
100
AcDbEntity
  8
$DDT_AUDIT_GENERATED_(80)
  6
Continuous
 62
     7
100
AcDbCircle
 10
162.0808568628
 20
520.2353497071
 30
0.0
 40
3.000000000000001
100
AcDbArc
 50
242.5
 51
268.5
  0
LINE
  5
26C
330
253
100
AcDbEntity
  8
$DDT_AUDIT_GENERATED_(80)
  6
Continuous
 62
     7
100
AcDbLine
 10
139.4828081823
 20
528.6170034164
 30
0.0
 11
160.6956110231
 21
517.5743172076
 31
0.0
  0
LINE
  5
26D
330
253
100
AcDbEntity
  8
$DDT_AUDIT_GENERATED_(80)
  6
Continuous
 62
     7
100
AcDbLine
 10
178.7183962091
 20
516.7986520292
 30
0.0
 11
162.0023260179
 21
517.2363777322
 31
0.0
  0
ARC
  5
26E
330
253
100
AcDbEntity
  8
$DDT_AUDIT_GENERATED_(80)
  6
Continuous
 62
     7
100
AcDbCircle
 10
119.7857990311
 20
541.0608994086
 30
0.0
 40
20.11350318655673
100
AcDbArc
 50
358.8190007668
 51
7.8275209363
  0
LINE
  5
26F
330
253
100
AcDbEntity
  8
$DDT_AUDIT_GENERATED_(80)
  6
Continuous
 62
     7
100
AcDbLine
 10
238.8215117438
 20
535.2316524096
 30
0.0
 11
236.5222998963
 21
535.2918593907
 31
0.0
  0
LINE
  5
270
330
253
100
AcDbEntity
  8
$DDT_AUDIT_GENERATED_(80)
  6
Continuous
 62
     7
100
AcDbLine
 10
236.5222998963
 20
535.2918593907
 30
0.0
 11
183.1837647807
 21
536.6885780878
 31
0.0
  0
LINE
  5
271
330
253
100
AcDbEntity
  8
$DDT_AUDIT_GENERATED_(80)
  6
Continuous
 62
     7
100
AcDbLine
 10
183.1837647807
 20
536.6885780878
 30
0.0
 11
179.8877618153
 21
536.774886963
 31
0.0
  0
ARC
  5
272
330
253
100
AcDbEntity
  8
$DDT_AUDIT_GENERATED_(80)
  6
Continuous
 62
     7
100
AcDbCircle
 10
238.8398356076
 20
535.931412537
 30
0.0
 40
0.6999999999999889
100
AcDbArc
 50
268.5
 51
358.5
  0
ARC
  5
273
330
253
100
AcDbEntity
  8
$DDT_AUDIT_GENERATED_(80)
  6
Continuous
 62
     7
100
AcDbCircle
 10
181.2610059508
 20
550.6257314436
 30
0.0
 40
13.91875325888924
100
AcDbArc
 50
263.69482797
 51
264.3379049741
  0
LINE
  5
274
330
253
100
AcDbEntity
  8
$DDT_AUDIT_GENERATED_(80)
  6
Continuous
 62
     7
100
AcDbLine
 10
239.7641933488
 20
544.4901255023
 30
0.0
 11
239.5395957351
 21
535.9130886732
 31
0.0
  0
LINE
  5
275
330
253
100
AcDbEntity
  8
$DDT_AUDIT_GENERATED_(80)
  6
Continuous
 62
     7
100
AcDbLine
 10
239.7647174905
 20
544.510141668
 30
0.0
 11
239.7641933488
 21
544.4901255023
 31
0.0
  0
ARC
  5
276
330
253
100
AcDbEntity
  8
$DDT_AUDIT_GENERATED_(80)
  6
Continuous
 62
     7
100
AcDbCircle
 10
139.6213327663
 20
528.8831066663
 30
0.0
 40
0.2999999999999973
100
AcDbArc
 50
181.8283288314
 51
242.5
  0
ARC
  5
277
330
253
100
AcDbEntity
  8
$DDT_AUDIT_GENERATED_(80)
  6
Continuous
 62
     7
100
AcDbCircle
 10
178.7262492936
 20
517.0985492267
 30
0.0
 40
0.3000000000000151
100
AcDbArc
 50
268.5
 51
358.5
  0
ARC
  5
278
330
253
100
AcDbEntity
  8
$DDT_AUDIT_GENERATED_(80)
  6
Continuous
 62
     7
100
AcDbCircle
 10
181.0020529377
 20
535.2451940343
 30
0.0
 40
1.499999999999999
100
AcDbArc
 50
88.5
 51
178.5
  0
ARC
  5
279
330
253
100
AcDbEntity
  8
$DDT_AUDIT_GENERATED_(80)
  6
Continuous
 62
     7
100
AcDbCircle
 10
149.333131796
 20
147.1912133385
 30
0.0
 40
400.2500000001539
100
AcDbArc
 50
88.5
 51
91.268712374
  0
LINE
  5
27A
330
253
100
AcDbEntity
  8
$DDT_AUDIT_GENERATED_(80)
  6
Continuous
 62
     7
100
AcDbLine
 10
179.026146491
 20
517.0906961422
 30
0.0
 11
179.5025669502
 21
535.2844594567
 31
0.0
  0
LINE
  5
27B
330
253
100
AcDbEntity
  8
$DDT_AUDIT_GENERATED_(80)
  6
Continuous
 62
     7
100
AcDbLine
 10
139.5385481736
 20
537.1821556222
 30
0.0
 11
139.3214355688
 21
528.8909597508
 31
0.0
  0
LINE
  5
27C
330
253
100
AcDbEntity
  8
$DDT_AUDIT_GENERATED_(80)
  6
Continuous
 62
     7
100
AcDbLine
 10
139.7867758252
 20
546.6615871934
 30
0.0
 11
139.7106561766
 21
543.7546950891
 31
0.0
  0
LINE
  5
27D
330
253
100
AcDbEntity
  8
$DDT_AUDIT_GENERATED_(80)
  6
Continuous
 62
     7
100
AcDbLine
 10
239.0832812268
 20
545.2282256593
 30
0.0
 11
159.8104553563
 21
547.3040576601
 31
0.0
  0
ARC
  5
27E
330
253
100
AcDbEntity
  8
$DDT_AUDIT_GENERATED_(80)
  6
Continuous
 62
     7
100
AcDbCircle
 10
140.4865359527
 20
546.6432633296
 30
0.0
 40
0.6999999999999981
100
AcDbArc
 50
91.268712374
 51
178.5
  0
ARC
  5
27F
330
253
100
AcDbEntity
  8
$DDT_AUDIT_GENERATED_(80)
  6
Continuous
 62
     7
100
AcDbCircle
 10
239.064957363
 20
544.5284655318
 30
0.0
 40
0.7000000000000188
100
AcDbArc
 50
358.5
 51
88.5
  0
LINE
  5
281
330
253
100
AcDbEntity
  8
$DDT_AUDIT_GENERATED_(280)
  6
Continuous
 62
     7
100
AcDbLine
 10
139.5307211165
 20
537.1829782791
 30
0.0
 11
139.8945443884
 21
540.6445254849
 31
0.0
  0
LINE
  5
282
330
253
100
AcDbEntity
  8
$DDT_AUDIT_GENERATED_(280)
  6
Continuous
 62
     7
100
AcDbLine
 10
139.5307211165
 20
537.1829782791
 30
0.0
 11
139.5385481736
 21
537.1821556222
 31
0.0
  0
LINE
  5
283
330
253
100
AcDbEntity
  8
$DDT_AUDIT_GENERATED_(A3)
  6
Continuous
 62
     7
100
AcDbLine
 10
302.6142923743
 20
468.2939503896
 30
0.0
 11
283.4458826785
 21
459.3555741538
 31
0.0
  0
LINE
  5
284
330
253
100
AcDbEntity
  8
$DDT_AUDIT_GENERATED_(A3)
  6
Continuous
 62
     7
100
AcDbLine
 10
303.0979818996
 20
469.6228764383
 30
0.0
 11
301.1418893755
 21
473.8177303936
 31
0.0
  0
LINE
  5
285
330
253
100
AcDbEntity
  8
$DDT_AUDIT_GENERATED_(A3)
  6
Continuous
 62
     7
100
AcDbLine
 10
275.5986905515
 20
473.8177303936
 30
0.0
 11
282.1169566297
 21
459.8392636791
 31
0.0
  0
ARC
  5
286
330
253
100
AcDbEntity
  8
$DDT_AUDIT_GENERATED_(A3)
  6
Continuous
 62
     7
100
AcDbCircle
 10
302.1916741126
 20
469.2002581766
 30
0.0
 40
1.000000000000014
100
AcDbArc
 50
295.0
 51
25.0
  0
ARC
  5
287
330
253
100
AcDbEntity
  8
$DDT_AUDIT_GENERATED_(A3)
  6
Continuous
 62
     7
100
AcDbCircle
 10
283.0232644168
 20
460.2618819408
 30
0.0
 40
0.9999999999999896
100
AcDbArc
 50
205.0
 51
295.0
  0
LINE
  5
288
330
253
100
AcDbEntity
  8
$DDT_AUDIT_GENERATED_(AA)
  6
Continuous
 62
     7
100
AcDbLine
 10
301.2955613325
 20
465.8032735435
 30
0.0
 11
286.2015158102
 21
458.7648045239
 31
0.0
  0
ARC
  5
289
330
253
100
AcDbEntity
  8
$DDT_AUDIT_GENERATED_(AA)
  6
Continuous
 62
     7
100
AcDbCircle
 10
301.2532995064
 20
465.8939043222
 30
0.0
 40
0.0999999999999967
100
AcDbArc
 50
295.0
 51
7.0955524938
  0
ARC
  5
28A
330
253
100
AcDbEntity
  8
$DDT_AUDIT_GENERATED_(AA)
  6
Continuous
 62
     7
100
AcDbCircle
 10
286.1592539841
 20
458.8554353026
 30
0.0
 40
0.1000000000000169
100
AcDbArc
 50
222.9044475062
 51
295.0
  0
LINE
  5
28B
330
253
100
AcDbEntity
  8
$DDT_AUDIT_GENERATED_(AA)
  6
Continuous
 62
     7
100
AcDbLine
 10
285.0624150709
 20
459.8887000042
 30
0.0
 11
286.0860049784
 21
458.7873575297
 31
0.0
  0
LINE
  5
28C
330
253
100
AcDbEntity
  8
$DDT_AUDIT_GENERATED_(AA)
  6
Continuous
 62
     7
100
AcDbLine
 10
301.3525336593
 20
465.906256767
 30
0.0
 11
301.1668072867
 21
467.3983014243
 31
0.0
  0
LINE
  5
28D
330
253
100
AcDbEntity
  8
$DDT_AUDIT_GENERATED_(247)
  6
Continuous
 62
     7
100
AcDbLine
 10
183.5159951188
 20
372.3180332786
 30
0.0
 11
134.0159951188
 21
372.3180332786
 31
0.0
  0
LINE
  5
28E
330
253
100
AcDbEntity
  8
$DDT_AUDIT_GENERATED_(247)
  6
Continuous
 62
     7
100
AcDbLine
 10
182.8159951188
 20
377.3180332786
 30
0.0
 11
134.7159951188
 21
377.3180332786
 31
0.0
  0
LINE
  5
28F
330
253
100
AcDbEntity
  8
$DDT_AUDIT_GENERATED_(247)
  6
Continuous
 62
     7
100
AcDbLine
 10
183.5159951188
 20
372.3180332786
 30
0.0
 11
183.5159951188
 21
376.6180332786
 31
0.0
  0
LINE
  5
290
330
253
100
AcDbEntity
  8
$DDT_AUDIT_GENERATED_(247)
  6
Continuous
 62
     7
100
AcDbLine
 10
134.0159951188
 20
376.6180332786
 30
0.0
 11
134.0159951188
 21
372.3180332786
 31
0.0
  0
ARC
  5
291
330
253
100
AcDbEntity
  8
$DDT_AUDIT_GENERATED_(247)
  6
Continuous
 62
     7
100
AcDbCircle
 10
182.8159951188
 20
376.6180332786
 30
0.0
 40
0.6999999999999993
100
AcDbArc
 50
0.0
 51
90.0
  0
ARC
  5
292
330
253
100
AcDbEntity
  8
$DDT_AUDIT_GENERATED_(247)
  6
Continuous
 62
     7
100
AcDbCircle
 10
134.7159951188
 20
376.6180332786
 30
0.0
 40
0.7000000000000001
100
AcDbArc
 50
90.0
 51
180.0
  0
LINE
  5
294
330
253
100
AcDbEntity
  8
$DDT_AUDIT_GENERATED_(293)
  6
Continuous
 62
     7
100
AcDbLine
 10
132.420347416
 20
423.4942437227
 30
0.0
 11
121.049975
 21
423.4942437227
 31
0.0
  0
LINE
  5
295
330
253
100
AcDbEntity
  8
$DDT_AUDIT_GENERATED_(293)
  6
Continuous
 62
     7
100
AcDbLine
 10
121.049975
 20
419.4942437227
 30
0.0
 11
132.420347416
 21
419.4942437227
 31
0.0
  0
ARC
  5
296
330
253
100
AcDbEntity
  8
$DDT_AUDIT_GENERATED_(293)
  6
Continuous
 62
     7
100
AcDbCircle
 10
132.420347416
 20
418.4942437227
 30
0.0
 40
1.000000000000001
100
AcDbArc
 50
18.0
 51
90.0
  0
ARC
  5
297
330
253
100
AcDbEntity
  8
$DDT_AUDIT_GENERATED_(293)
  6
Continuous
 62
     7
100
AcDbCircle
 10
132.420347416
 20
418.4942437227
 30
0.0
 40
5.000000000000004
100
AcDbArc
 50
18.0
 51
90.0
  0
LINE
  5
298
330
253
100
AcDbEntity
  8
$DDT_AUDIT_GENERATED_(293)
  6
Continuous
 62
     7
100
AcDbLine
 10
138.8219977027
 20
414.9723299121
 30
0.0
 11
137.1756299975
 21
420.0393286946
 31
0.0
  0
LINE
  5
299
330
253
100
AcDbEntity
  8
$DDT_AUDIT_GENERATED_(293)
  6
Continuous
 62
     7
100
AcDbLine
 10
133.3714039323
 20
418.8032607171
 30
0.0
 11
138.8210925563
 21
402.0308437562
 31
0.0
  0
ARC
  5
29A
330
253
100
AcDbEntity
  8
$DDT_AUDIT_GENERATED_(293)
  6
Continuous
 62
     7
100
AcDbCircle
 10
121.049975
 20
421.4942437227
 30
0.0
 40
2.000000000000002
100
AcDbArc
 50
90.0
 51
270.0
  0
LINE
  5
29C
330
253
100
AcDbEntity
  8
DV2_Default
  6
CENTER2
 62
     7
100
AcDbLine
 10
178.7659946718
 20
372.3180332786
 30
0.0
 11
138.7659955658
 21
372.3180332786
 31
0.0
  0
LINE
  5
29D
330
253
100
AcDbEntity
  8
DV2_Default
  6
CENTER2
 62
     7
100
AcDbLine
 10
158.7659951188
 20
392.3180328316
 30
0.0
 11
158.7659951188
 21
352.3180337256
 31
0.0
  0
ENDBLK
  5
29F
330
253
100
AcDbEntity
  8
0
100
AcDbBlockEnd
  0
BLOCK
  5
2C4
330
2A0
100
AcDbEntity
  8
0
100
AcDbBlockBegin
  2
SE2
 70
     0
 10
0.0
 20
0.0
 30
0.0
  3
SE2
  1

  0
ARC
  5
2A2
330
2A0
100
AcDbEntity
  8
$DDT_AUDIT_GENERATED_(6B)
  6
Continuous
 62
     7
100
AcDbCircle
 10
32.1610145125
 20
253.35
 30
0.0
 40
20.0
100
AcDbArc
 50
359.5717079628
 51
0.0
  0
ARC
  5
2A3
330
2A0
100
AcDbEntity
  8
$DDT_AUDIT_GENERATED_(6B)
  6
Continuous
 62
     7
100
AcDbCircle
 10
32.1610145125
 20
253.35
 30
0.0
 40
20.0
100
AcDbArc
 50
0.0
 51
180.4282920372
  0
LINE
  5
2A4
330
2A0
100
AcDbEntity
  8
$DDT_AUDIT_GENERATED_(6B)
  6
Continuous
 62
     7
100
AcDbLine
 10
18.1610145125
 20
114.35
 30
0.0
 11
18.1610145125
 21
232.2786924943
 31
0.0
  0
LINE
  5
2A5
330
2A0
100
AcDbEntity
  8
$DDT_AUDIT_GENERATED_(6B)
  6
Continuous
 62
     7
100
AcDbLine
 10
46.1610145125
 20
232.2786924943
 30
0.0
 11
46.1610145125
 21
114.35
 31
0.0
  0
ARC
  5
2A6
330
2A0
100
AcDbEntity
  8
$DDT_AUDIT_GENERATED_(6B)
  6
Continuous
 62
     7
100
AcDbCircle
 10
-1.8389854875
 20
232.2786924943
 30
0.0
 40
20.00000000000016
100
AcDbArc
 50
0.0
 51
21.4823075394
  0
ARC
  5
2A7
330
2A0
100
AcDbEntity
  8
$DDT_AUDIT_GENERATED_(6B)
  6
Continuous
 62
     7
100
AcDbCircle
 10
66.1610145125
 20
232.2786924943
 30
0.0
 40
19.99999999999994
100
AcDbArc
 50
158.6284391709
 51
180.0
  0
LINE
  5
2A8
330
2A0
100
AcDbEntity
  8
$DDT_AUDIT_GENERATED_(6B)
  6
Continuous
 62
     7
100
AcDbLine
 10
38.1610145125
 20
106.35
 30
0.0
 11
26.1610145125
 21
106.35
 31
0.0
  0
ARC
  5
2A9
330
2A0
100
AcDbEntity
  8
$DDT_AUDIT_GENERATED_(6B)
  6
Continuous
 62
     7
100
AcDbCircle
 10
26.1610145125
 20
114.35
 30
0.0
 40
7.99999999999998
100
AcDbArc
 50
180.0
 51
270.0
  0
ARC
  5
2AA
330
2A0
100
AcDbEntity
  8
$DDT_AUDIT_GENERATED_(6B)
  6
Continuous
 62
     7
100
AcDbCircle
 10
38.1610145125
 20
114.35
 30
0.0
 40
7.999999999999989
100
AcDbArc
 50
270.0
 51
0.0
  0
ARC
  5
2AB
330
2A0
100
AcDbEntity
  8
$DDT_AUDIT_GENERATED_(80)
  6
Continuous
 62
     7
100
AcDbCircle
 10
32.1610145125
 20
15435.0161992538
 30
0.0
 40
15262.66492163868
100
AcDbArc
 50
269.9849840692
 51
270.0150159308
  0
ARC
  5
2AC
330
2A0
100
AcDbEntity
  8
$DDT_AUDIT_GENERATED_(80)
  6
Continuous
 62
     7
100
AcDbCircle
 10
36.1606530955
 20
175.3521632279
 30
0.0
 40
3.000361479651504
100
AcDbArc
 50
270.0069017238
 51
359.9882867669
  0
ARC
  5
2AD
330
2A0
100
AcDbEntity
  8
$DDT_AUDIT_GENERATED_(80)
  6
Continuous
 62
     7
100
AcDbCircle
 10
28.1613763433
 20
175.3521636418
 30
0.0
 40
3.000361893635382
100
AcDbArc
 50
180.011721136
 51
269.9930903732
  0
LINE
  5
2AE
330
2A0
100
AcDbEntity
  8
$DDT_AUDIT_GENERATED_(80)
  6
Continuous
 62
     7
100
AcDbLine
 10
39.1610145125
 20
228.6900849662
 30
0.0
 11
39.1610145125
 21
175.3515498506
 31
0.0
  0
LINE
  5
2AF
330
2A0
100
AcDbEntity
  8
$DDT_AUDIT_GENERATED_(80)
  6
Continuous
 62
     7
100
AcDbLine
 10
25.1610145125
 20
175.3515498506
 30
0.0
 11
25.1610145125
 21
228.6900849662
 31
0.0
  0
ARC
  5
2B0
330
2A0
100
AcDbEntity
  8
$DDT_AUDIT_GENERATED_(80)
  6
Continuous
 62
     7
100
AcDbCircle
 10
47.1634926718
 20
228.688609712
 30
0.0
 40
8.002478295308299
100
AcDbArc
 50
122.4021212381
 51
179.989437542
  0
ARC
  5
2B1
330
2A0
100
AcDbEntity
  8
$DDT_AUDIT_GENERATED_(80)
  6
Continuous
 62
     7
100
AcDbCircle
 10
17.1585368706
 20
228.6886099965
 30
0.0
 40
8.002477777814686
100
AcDbArc
 50
0.0105604216
 51
57.5978807983
  0
ELLIPSE
  5
2B2
330
2A0
100
AcDbEntity
  8
$DDT_AUDIT_GENERATED_(80)
  6
Continuous
 62
     7
100
AcDbEllipse
 10
32.1610145125
 20
252.3360727941
 30
0.0
 11
-20.00000000000163
 21
-1.434312738024524E-11
 31
0.0
210
0.0
220
0.0
230
1.0
 40
0.999657325
 41
3.141592653589792
 42
6.283185307178863
  0
ARC
  5
2B3
330
2A0
100
AcDbEntity
  8
$DDT_AUDIT_GENERATED_(80)
  6
Continuous
 62
     7
100
AcDbCircle
 10
32.172210432
 20
252.3393083338
 30
0.0
 40
20.0111961810634
100
AcDbArc
 50
180.0092639525
 51
237.5900075516
  0
ARC
  5
2B4
330
2A0
100
AcDbEntity
  8
$DDT_AUDIT_GENERATED_(80)
  6
Continuous
 62
     7
100
AcDbCircle
 10
32.1498184454
 20
252.339308415
 30
0.0
 40
20.01119632871357
100
AcDbArc
 50
302.4099926807
 51
359.9907358151
  0
LINE
  5
2B5
330
2A0
100
AcDbEntity
  8
$DDT_AUDIT_GENERATED_(80)
  6
Continuous
 62
     7
100
AcDbLine
 10
12.1610145125
 20
253.0529298605
 30
0.0
 11
12.1610145125
 21
252.3360727941
 31
0.0
  0
LINE
  5
2B6
330
2A0
100
AcDbEntity
  8
$DDT_AUDIT_GENERATED_(80)
  6
Continuous
 62
     7
100
AcDbLine
 10
52.1610145125
 20
252.3360727941
 30
0.0
 11
52.1610145125
 21
253.0529298605
 31
0.0
  0
ARC
  5
2B7
330
2A0
100
AcDbEntity
  8
$DDT_AUDIT_GENERATED_(247)
  6
Continuous
 62
     7
100
AcDbCircle
 10
32.1610145125
 20
253.35
 30
0.0
 40
24.75
100
AcDbArc
 50
304.4793341897
 51
0.0
  0
ARC
  5
2B8
330
2A0
100
AcDbEntity
  8
$DDT_AUDIT_GENERATED_(247)
  6
Continuous
 62
     7
100
AcDbCircle
 10
32.1610145125
 20
253.35
 30
0.0
 40
24.75
100
AcDbArc
 50
94.6350157456
 51
235.5206658103
  0
ARC
  5
2B9
330
2A0
100
AcDbEntity
  8
$DDT_AUDIT_GENERATED_(247)
  6
Continuous
 62
     7
100
AcDbCircle
 10
32.1610145125
 20
253.35
 30
0.0
 40
24.75
100
AcDbArc
 50
0.0
 51
85.3649842544
  0
ARC
  5
2BB
330
2A0
100
AcDbEntity
  8
$DDT_AUDIT_GENERATED_(2BA)
  6
Continuous
 62
     7
100
AcDbCircle
 10
32.1610145125
 20
251.85
 30
0.0
 40
25.0
100
AcDbArc
 50
304.0557977426
 51
0.0
  0
ARC
  5
2BC
330
2A0
100
AcDbEntity
  8
$DDT_AUDIT_GENERATED_(2BA)
  6
Continuous
 62
     7
100
AcDbCircle
 10
32.1610145125
 20
251.85
 30
0.0
 40
25.0
100
AcDbArc
 50
180.0
 51
235.9442022574
  0
LINE
  5
2BD
330
2A0
100
AcDbEntity
  8
$DDT_AUDIT_GENERATED_(293)
  6
Continuous
 62
     7
100
AcDbLine
 10
34.1610145125
 20
279.6956477028
 30
0.0
 11
34.1610145125
 21
291.0660201188
 31
0.0
  0
LINE
  5
2BE
330
2A0
100
AcDbEntity
  8
$DDT_AUDIT_GENERATED_(293)
  6
Continuous
 62
     7
100
AcDbLine
 10
30.1610145125
 20
291.0660201188
 30
0.0
 11
30.1610145125
 21
279.6956477028
 31
0.0
  0
LINE
  5
2BF
330
2A0
100
AcDbEntity
  8
$DDT_AUDIT_GENERATED_(293)
  6
Continuous
 62
     7
100
AcDbLine
 10
30.1610145125
 20
279.6956477028
 30
0.0
 11
30.1610145125
 21
276.8424781539
 31
0.0
  0
LINE
  5
2C0
330
2A0
100
AcDbEntity
  8
$DDT_AUDIT_GENERATED_(293)
  6
Continuous
 62
     7
100
AcDbLine
 10
34.1610145125
 20
276.8424781539
 30
0.0
 11
34.1610145125
 21
279.6956477028
 31
0.0
  0
LINE
  5
2C1
330
2A0
100
AcDbEntity
  8
$DDT_AUDIT_GENERATED_(293)
  6
Continuous
 62
     7
100
AcDbLine
 10
34.1610145125
 20
273.2497487421
 30
0.0
 11
34.1610145125
 21
276.8424781539
 31
0.0
  0
LINE
  5
2C2
330
2A0
100
AcDbEntity
  8
$DDT_AUDIT_GENERATED_(293)
  6
Continuous
 62
     7
100
AcDbLine
 10
30.1610145125
 20
276.8424781539
 30
0.0
 11
30.1610145125
 21
273.2497487421
 31
0.0
  0
ARC
  5
2C3
330
2A0
100
AcDbEntity
  8
$DDT_AUDIT_GENERATED_(293)
  6
Continuous
 62
     7
100
AcDbCircle
 10
32.1610145125
 20
291.0660201188
 30
0.0
 40
2.000000000000002
100
AcDbArc
 50
0.0
 51
180.0
  0
ENDBLK
  5
2C5
330
2A0
100
AcDbEntity
  8
0
100
AcDbBlockEnd
  0
ENDSEC
  0
SECTION
  2
ENTITIES
  0
INSERT
  5
5F
330
1F
100
AcDbEntity
  8
Default
100
AcDbBlockReference
  2
SEANNOT_GROUP
 10
0.0
 20
0.0
 30
0.0
  0
INSERT
  5
6A
330
1F
100
AcDbEntity
  8
Default
100
AcDbBlockReference
  2
SE
 10
0.0
 20
0.0
 30
0.0
  0
INSERT
  5
254
330
1F
100
AcDbEntity
  8
Default
100
AcDbBlockReference
  2
SE1
 10
0.0
 20
0.0
 30
0.0
  0
INSERT
  5
2A1
330
1F
100
AcDbEntity
  8
Default
100
AcDbBlockReference
  2
SE2
 10
0.0
 20
0.0
 30
0.0
  0
TEXT
  5
2C7
330
1F
100
AcDbEntity
  8
Default
  6
Continuous
 62
     7
100
AcDbText
 10
5.9362635081
 20
53.4225120485
 30
0.0
 40
10.0
  1
Grohe AG^J
  7
SEACAD_seiso_ttf
 11
5.9362635081
 21
63.4225120485
 31
0.0
100
AcDbText
 73
     3
  0
TEXT
  5
2C8
330
1F
100
AcDbEntity
  8
Default
  6
Continuous
 62
     7
100
AcDbText
 10
5.9362635081
 20
37.0588756849
 30
0.0
 40
10.0
  1
 
  7
SEACAD_seiso_ttf
 11
5.9362635081
 21
47.0588756849
 31
0.0
100
AcDbText
 73
     3
  0
TEXT
  5
2C9
330
1F
100
AcDbEntity
  8
Default
  6
Continuous
 62
     7
100
AcDbText
 10
5.9362635081
 20
20.6952393213
 30
0.0
 40
10.0
  1
ecn:
  7
SEACAD_seiso_ttf
 11
5.9362635081
 21
30.6952393213
 31
0.0
100
AcDbText
 73
     3
  0
TEXT
  5
2CA
330
1F
100
AcDbEntity
  8
Default
  6
Continuous
 62
     7
100
AcDbText
 10
5.9362635081
 20
4.3316029576
 30
0.0
 40
10.0
  1
unit: mm
  7
SEACAD_seiso_ttf
 11
5.9362635081
 21
14.3316029576
 31
0.0
100
AcDbText
 73
     3
  0
LINE
  5
2CB
330
1F
100
AcDbEntity
  8
Default
  6
Continuous
 62
     7
100
AcDbLine
 10
0.0
 20
0.0
 30
0.0
 11
100.0
 21
0.0
 31
0.0
  0
LINE
  5
2CC
330
1F
100
AcDbEntity
  8
Default
  6
Continuous
 62
     7
100
AcDbLine
 10
0.0
 20
0.0
 30
0.0
 11
0.0
 21
100.0
 31
0.0
  0
TEXT
  5
2CD
330
1F
100
AcDbEntity
  8
Default
  6
Continuous
 62
     7
100
AcDbText
 10
24.3923665681
 20
-18.2375342018
 30
0.0
 40
10.0
  1
100 mm
  7
SEACAD_seiso_ttf
 11
24.3923665681
 21
-8.2375342018
 31
0.0
100
AcDbText
 73
     3
  0
TEXT
  5
2CE
330
1F
100
AcDbEntity
  8
Default
  6
Continuous
 62
     7
100
AcDbText
 10
-7.6150308803
 20
24.6231930421
 30
0.0
 40
10.0
  1
100 mm
 50
90.0
  7
SEACAD_seiso_ttf
 11
-17.6150308803
 21
24.6231930421
 31
0.0
100
AcDbText
 73
     3
  0
TEXT
  5
2CF
330
1F
100
AcDbEntity
  8
Default
  6
Continuous
 62
     7
100
AcDbText
 10
28.4878128572
 20
20.0907663715
 30
0.0
 40
10.0
  1
229897
  7
SEACAD_seiso_ttf
 11
28.4878128572
 21
30.0907663715
 31
0.0
100
AcDbText
 73
     3
  0
TEXT
  5
2D0
330
1F
100
AcDbEntity
  8
Default
  6
Continuous
 62
     7
100
AcDbText
 10
5.9012241913
 20
36.7242780188
 30
0.0
 40
10.0
  1
23443000
  7
SEACAD_seiso_ttf
 11
5.9012241913
 21
46.7242780188
 31
0.0
100
AcDbText
 73
     3
  0
ENDSEC
  0
SECTION
  2
OBJECTS
  0
DICTIONARY
  5
C
330
0
100
AcDbDictionary
281
     1
  3
ACAD_GROUP
350
D
  3
ACAD_LAYOUT
350
1A
  3
ACAD_MLEADERSTYLE
350
2D4
  3
ACAD_MLINESTYLE
350
17
  3
ACAD_PLOTSETTINGS
350
19
  3
ACAD_PLOTSTYLENAME
350
E
  3
ACAD_SCALELIST
350
3B
  3
ACAD_TABLESTYLE
350
2D3
  3
ACAD_VISUALSTYLE
350
2A
  3
AcDbVariableDictionary
350
2D1
  0
DICTIONARY
  5
D
102
{ACAD_REACTORS
330
C
102
}
330
C
100
AcDbDictionary
281
     1
  0
DICTIONARY
  5
1A
102
{ACAD_REACTORS
330
C
102
}
330
C
100
AcDbDictionary
281
     1
  3
Layout1
350
1E
  3
Model
350
22
  0
DICTIONARY
  5
2D4
102
{ACAD_REACTORS
330
C
102
}
330
C
100
AcDbDictionary
281
     1
  0
DICTIONARY
  5
17
102
{ACAD_REACTORS
330
C
102
}
330
C
100
AcDbDictionary
281
     1
  3
Standard
350
18
  0
DICTIONARY
  5
19
102
{ACAD_REACTORS
330
C
102
}
330
C
100
AcDbDictionary
281
     1
  0
ACDBDICTIONARYWDFLT
  5
E
102
{ACAD_REACTORS
330
C
102
}
330
C
100
AcDbDictionary
281
     1
  3
Normal
350
F
100
AcDbDictionaryWithDefault
340
F
  0
DICTIONARY
  5
3B
102
{ACAD_REACTORS
330
C
102
}
330
C
100
AcDbDictionary
281
     1
  3
A0
350
3C
  3
A1
350
3D
  3
A2
350
3E
  3
A3
350
3F
  3
A4
350
40
  3
A5
350
41
  3
A6
350
42
  3
A7
350
43
  3
A8
350
44
  3
A9
350
45
  3
B0
350
46
  3
B1
350
47
  3
B2
350
48
  3
B3
350
49
  3
B4
350
4A
  3
B5
350
4B
  3
B6
350
4C
  3
B7
350
4D
  3
B8
350
4E
  3
B9
350
4F
  3
C0
350
50
  3
C1
350
51
  3
C2
350
52
  3
C3
350
53
  3
C4
350
54
  3
C5
350
55
  3
C6
350
56
  3
C7
350
57
  3
C8
350
58
  3
C9
350
59
  3
D0
350
5A
  3
D1
350
5B
  3
D2
350
5C
  0
DICTIONARY
  5
2D3
102
{ACAD_REACTORS
330
C
102
}
330
C
100
AcDbDictionary
281
     1
  0
DICTIONARY
  5
2A
102
{ACAD_REACTORS
330
C
102
}
330
C
100
AcDbDictionary
281
     1
  3
2dWireframe
350
2F
  3
3D Hidden
350
31
  3
3dWireframe
350
30
  3
Basic
350
32
  3
Brighten
350
36
  3
ColorChange
350
3A
  3
Conceptual
350
34
  3
Dim
350
35
  3
Facepattern
350
39
  3
Flat
350
2B
  3
FlatWithEdges
350
2C
  3
Gouraud
350
2D
  3
GouraudWithEdges
350
2E
  3
Linepattern
350
38
  3
Realistic
350
33
  3
Thicken
350
37
  0
DICTIONARY
  5
2D1
102
{ACAD_REACTORS
330
C
102
}
330
C
100
AcDbDictionary
281
     1
  3
CANNOSCALE
350
2D2
  3
PSOLHEIGHT
350
2D6
  3
PSOLWIDTH
350
2D5
  0
LAYOUT
  5
1E
102
{ACAD_REACTORS
330
1A
102
}
330
1A
100
AcDbPlotSettings
  1

  2
none_device
  4

  6

 40
0.0
 41
0.0
 42
0.0
 43
0.0
 44
0.0
 45
0.0
 46
0.0
 47
0.0
 48
0.0
 49
0.0
140
0.0
141
0.0
142
1.0
143
1.0
 70
   688
 72
     0
 73
     0
 74
     5
  7

 75
    16
147
1.0
148
0.0
149
0.0
100
AcDbLayout
  1
Layout1
 70
     1
 71
     1
 10
0.0
 20
0.0
 11
3000.0
 21
4500.0
 12
0.0
 22
0.0
 32
0.0
 14
0.0
 24
0.0
 34
0.0
 15
3000.0
 25
4500.0
 35
0.0
146
0.0
 13
0.0
 23
0.0
 33
0.0
 16
1.0
 26
0.0
 36
0.0
 17
0.0
 27
1.0
 37
0.0
 76
     0
330
1B
  0
LAYOUT
  5
22
102
{ACAD_REACTORS
330
1A
102
}
330
1A
100
AcDbPlotSettings
  1

  2
none_device
  4

  6

 40
0.0
 41
0.0
 42
0.0
 43
0.0
 44
0.0
 45
0.0
 46
0.0
 47
0.0
 48
0.0
 49
0.0
140
0.0
141
0.0
142
1.0
143
1.0
 70
  1712
 72
     0
 73
     0
 74
     0
  7

 75
     0
147
1.0
148
0.0
149
0.0
100
AcDbLayout
  1
Model
 70
     1
 71
     0
 10
0.0
 20
0.0
 11
3000.0
 21
4500.0
 12
0.0
 22
0.0
 32
0.0
 14
0.0
 24
0.0
 34
0.0
 15
3000.0
 25
4500.0
 35
0.0
146
0.0
 13
0.0
 23
0.0
 33
0.0
 16
1.0
 26
0.0
 36
0.0
 17
0.0
 27
1.0
 37
0.0
 76
     0
330
1F
331
29
  0
MLINESTYLE
  5
18
102
{ACAD_REACTORS
330
17
102
}
330
17
100
AcDbMlineStyle
  2
Standard
 70
     0
  3

 62
   256
 51
90.0
 52
90.0
 71
     2
 49
0.5
 62
   256
  6
BYLAYER
 49
-0.5
 62
   256
  6
BYLAYER
  0
ACDBPLACEHOLDER
  5
F
102
{ACAD_REACTORS
330
E
102
}
330
E
  0
SCALE
  5
3C
102
{ACAD_REACTORS
330
3B
102
}
330
3B
100
AcDbScale
 70
     0
300
1:1
140
1.0
141
1.0
290
     1
  0
SCALE
  5
3D
102
{ACAD_REACTORS
330
3B
102
}
330
3B
100
AcDbScale
 70
     0
300
1:2
140
1.0
141
2.0
290
     0
  0
SCALE
  5
3E
102
{ACAD_REACTORS
330
3B
102
}
330
3B
100
AcDbScale
 70
     0
300
1:4
140
1.0
141
4.0
290
     0
  0
SCALE
  5
3F
102
{ACAD_REACTORS
330
3B
102
}
330
3B
100
AcDbScale
 70
     0
300
1:5
140
1.0
141
5.0
290
     0
  0
SCALE
  5
40
102
{ACAD_REACTORS
330
3B
102
}
330
3B
100
AcDbScale
 70
     0
300
1:8
140
1.0
141
8.0
290
     0
  0
SCALE
  5
41
102
{ACAD_REACTORS
330
3B
102
}
330
3B
100
AcDbScale
 70
     0
300
1:10
140
1.0
141
10.0
290
     0
  0
SCALE
  5
42
102
{ACAD_REACTORS
330
3B
102
}
330
3B
100
AcDbScale
 70
     0
300
1:16
140
1.0
141
16.0
290
     0
  0
SCALE
  5
43
102
{ACAD_REACTORS
330
3B
102
}
330
3B
100
AcDbScale
 70
     0
300
1:20
140
1.0
141
20.0
290
     0
  0
SCALE
  5
44
102
{ACAD_REACTORS
330
3B
102
}
330
3B
100
AcDbScale
 70
     0
300
1:30
140
1.0
141
30.0
290
     0
  0
SCALE
  5
45
102
{ACAD_REACTORS
330
3B
102
}
330
3B
100
AcDbScale
 70
     0
300
1:40
140
1.0
141
40.0
290
     0
  0
SCALE
  5
46
102
{ACAD_REACTORS
330
3B
102
}
330
3B
100
AcDbScale
 70
     0
300
1:50
140
1.0
141
50.0
290
     0
  0
SCALE
  5
47
102
{ACAD_REACTORS
330
3B
102
}
330
3B
100
AcDbScale
 70
     0
300
1:100
140
1.0
141
100.0
290
     0
  0
SCALE
  5
48
102
{ACAD_REACTORS
330
3B
102
}
330
3B
100
AcDbScale
 70
     0
300
2:1
140
2.0
141
1.0
290
     0
  0
SCALE
  5
49
102
{ACAD_REACTORS
330
3B
102
}
330
3B
100
AcDbScale
 70
     0
300
4:1
140
4.0
141
1.0
290
     0
  0
SCALE
  5
4A
102
{ACAD_REACTORS
330
3B
102
}
330
3B
100
AcDbScale
 70
     0
300
8:1
140
8.0
141
1.0
290
     0
  0
SCALE
  5
4B
102
{ACAD_REACTORS
330
3B
102
}
330
3B
100
AcDbScale
 70
     0
300
10:1
140
10.0
141
1.0
290
     0
  0
SCALE
  5
4C
102
{ACAD_REACTORS
330
3B
102
}
330
3B
100
AcDbScale
 70
     0
300
100:1
140
100.0
141
1.0
290
     0
  0
SCALE
  5
4D
102
{ACAD_REACTORS
330
3B
102
}
330
3B
100
AcDbScale
 70
     0
300
1/128" = 1'-0"
140
0.0078125
141
12.0
290
     0
  0
SCALE
  5
4E
102
{ACAD_REACTORS
330
3B
102
}
330
3B
100
AcDbScale
 70
     0
300
1/64" = 1'-0"
140
0.015625
141
12.0
290
     0
  0
SCALE
  5
4F
102
{ACAD_REACTORS
330
3B
102
}
330
3B
100
AcDbScale
 70
     0
300
1/32" = 1'-0"
140
0.03125
141
12.0
290
     0
  0
SCALE
  5
50
102
{ACAD_REACTORS
330
3B
102
}
330
3B
100
AcDbScale
 70
     0
300
1/16" = 1'-0"
140
0.0625
141
12.0
290
     0
  0
SCALE
  5
51
102
{ACAD_REACTORS
330
3B
102
}
330
3B
100
AcDbScale
 70
     0
300
3/32" = 1'-0"
140
0.09375
141
12.0
290
     0
  0
SCALE
  5
52
102
{ACAD_REACTORS
330
3B
102
}
330
3B
100
AcDbScale
 70
     0
300
1/8" = 1'-0"
140
0.125
141
12.0
290
     0
  0
SCALE
  5
53
102
{ACAD_REACTORS
330
3B
102
}
330
3B
100
AcDbScale
 70
     0
300
3/16" = 1'-0"
140
0.1875
141
12.0
290
     0
  0
SCALE
  5
54
102
{ACAD_REACTORS
330
3B
102
}
330
3B
100
AcDbScale
 70
     0
300
1/4" = 1'-0"
140
0.25
141
12.0
290
     0
  0
SCALE
  5
55
102
{ACAD_REACTORS
330
3B
102
}
330
3B
100
AcDbScale
 70
     0
300
3/8" = 1'-0"
140
0.375
141
12.0
290
     0
  0
SCALE
  5
56
102
{ACAD_REACTORS
330
3B
102
}
330
3B
100
AcDbScale
 70
     0
300
1/2" = 1'-0"
140
0.5
141
12.0
290
     0
  0
SCALE
  5
57
102
{ACAD_REACTORS
330
3B
102
}
330
3B
100
AcDbScale
 70
     0
300
3/4" = 1'-0"
140
0.75
141
12.0
290
     0
  0
SCALE
  5
58
102
{ACAD_REACTORS
330
3B
102
}
330
3B
100
AcDbScale
 70
     0
300
1" = 1'-0"
140
1.0
141
12.0
290
     0
  0
SCALE
  5
59
102
{ACAD_REACTORS
330
3B
102
}
330
3B
100
AcDbScale
 70
     0
300
1-1/2" = 1'-0"
140
1.5
141
12.0
290
     0
  0
SCALE
  5
5A
102
{ACAD_REACTORS
330
3B
102
}
330
3B
100
AcDbScale
 70
     0
300
3" = 1'-0"
140
3.0
141
12.0
290
     0
  0
SCALE
  5
5B
102
{ACAD_REACTORS
330
3B
102
}
330
3B
100
AcDbScale
 70
     0
300
6" = 1'-0"
140
6.0
141
12.0
290
     0
  0
SCALE
  5
5C
102
{ACAD_REACTORS
330
3B
102
}
330
3B
100
AcDbScale
 70
     0
300
1'-0" = 1'-0"
140
12.0
141
12.0
290
     0
  0
VISUALSTYLE
  5
2F
102
{ACAD_REACTORS
330
2A
102
}
330
2A
100
AcDbVisualStyle
  2
2dWireframe
 70
     4
 71
     0
 72
     2
 73
     0
 90
        0
 40
-0.6
 41
-30.0
 62
     5
 63
     7
 74
     1
 91
        4
 64
     7
 65
   257
 75
     1
175
     1
 42
1.0
 92
        0
 66
   257
 43
1.0
 76
     1
 77
     6
 78
     2
 67
     7
 79
     5
170
     0
171
     0
290
     0
174
     0
 93
        1
 44
0.0
173
     0
291
     0
 45
0.0
1001
ACAD
1000
AcDbSavedByObjectVersion
1070
     0
  0
VISUALSTYLE
  5
31
102
{ACAD_REACTORS
330
2A
102
}
330
2A
100
AcDbVisualStyle
  2
3D Hidden
 70
     6
 71
     1
 72
     2
 73
     2
 90
        0
 40
-0.6
 41
-30.0
 62
     5
 63
     7
 74
     2
 91
        2
 64
     7
 65
   257
 75
     2
175
     1
 42
40.0
 92
        0
 66
   257
 43
1.0
 76
     1
 77
     6
 78
     2
 67
     7
 79
     3
170
     0
171
     0
290
     0
174
     0
 93
        1
 44
0.0
173
     0
291
     0
 45
0.0
1001
ACAD
1000
AcDbSavedByObjectVersion
1070
     0
  0
VISUALSTYLE
  5
30
102
{ACAD_REACTORS
330
2A
102
}
330
2A
100
AcDbVisualStyle
  2
3dWireframe
 70
     5
 71
     0
 72
     2
 73
     0
 90
        0
 40
-0.6
 41
-30.0
 62
     5
 63
     7
 74
     1
 91
        4
 64
     7
 65
   257
 75
     1
175
     1
 42
1.0
 92
        0
 66
   257
 43
1.0
 76
     1
 77
     6
 78
     2
 67
     7
 79
     5
170
     0
171
     0
290
     0
174
     0
 93
        1
 44
0.0
173
     0
291
     0
 45
0.0
1001
ACAD
1000
AcDbSavedByObjectVersion
1070
     0
  0
VISUALSTYLE
  5
32
102
{ACAD_REACTORS
330
2A
102
}
330
2A
100
AcDbVisualStyle
  2
Basic
 70
     7
 71
     1
 72
     0
 73
     1
 90
        0
 40
-0.6
 41
-30.0
 62
     5
 63
     7
 74
     0
 91
        4
 64
     7
 65
   257
 75
     1
175
     1
 42
1.0
 92
        8
 66
     7
 43
1.0
 76
     1
 77
     6
 78
     2
 67
     7
 79
     5
170
     0
171
     0
290
     0
174
     0
 93
        1
 44
0.0
173
     0
291
     1
 45
0.0
1001
ACAD
1000
AcDbSavedByObjectVersion
1070
     0
  0
VISUALSTYLE
  5
36
102
{ACAD_REACTORS
330
2A
102
}
330
2A
100
AcDbVisualStyle
  2
Brighten
 70
    12
 71
     2
 72
     2
 73
     0
 90
        0
 40
-0.6
 41
-30.0
 62
     5
 63
     7
 74
     1
 91
        4
 64
     7
 65
   257
 75
     1
175
     1
 42
1.0
 92
        8
 66
     7
 43
1.0
 76
     1
 77
     6
 78
     2
 67
     7
 79
     5
170
     0
171
     0
290
     0
174
     0
 93
        1
 44
50.0
173
     0
291
     1
 45
0.0
1001
ACAD
1000
AcDbSavedByObjectVersion
1070
     0
  0
VISUALSTYLE
  5
3A
102
{ACAD_REACTORS
330
2A
102
}
330
2A
100
AcDbVisualStyle
  2
ColorChange
 70
    16
 71
     2
 72
     2
 73
     3
 90
        0
 40
-0.6
 41
-30.0
 62
     5
 63
     8
 74
     1
 91
        4
 64
     7
 65
   257
 75
     1
175
     1
 42
1.0
 92
        8
 66
     8
 43
1.0
 76
     1
 77
     6
 78
     2
 67
     7
 79
     5
170
     0
171
     0
290
     0
174
     0
 93
        1
 44
0.0
173
     0
291
     1
 45
0.0
1001
ACAD
1000
AcDbSavedByObjectVersion
1070
     0
  0
VISUALSTYLE
  5
34
102
{ACAD_REACTORS
330
2A
102
}
330
2A
100
AcDbVisualStyle
  2
Conceptual
 70
     9
 71
     3
 72
     2
 73
     0
 90
        0
 40
-0.6
 41
-30.0
 62
     5
 63
     7
 74
     2
 91
        2
 64
     7
 65
   257
 75
     1
175
     1
 42
40.0
 92
        8
 66
     7
 43
1.0
 76
     1
 77
     6
 78
     2
 67
     7
 79
     3
170
     0
171
     0
290
     0
174
     0
 93
        1
 44
0.0
173
     0
291
     0
 45
0.0
1001
ACAD
1000
AcDbSavedByObjectVersion
1070
     0
  0
VISUALSTYLE
  5
35
102
{ACAD_REACTORS
330
2A
102
}
330
2A
100
AcDbVisualStyle
  2
Dim
 70
    11
 71
     2
 72
     2
 73
     0
 90
        0
 40
-0.6
 41
-30.0
 62
     5
 63
     7
 74
     1
 91
        4
 64
     7
 65
   257
 75
     1
175
     1
 42
1.0
 92
        8
 66
     7
 43
1.0
 76
     1
 77
     6
 78
     2
 67
     7
 79
     5
170
     0
171
     0
290
     0
174
     0
 93
        1
 44
-50.0
173
     0
291
     1
 45
0.0
1001
ACAD
1000
AcDbSavedByObjectVersion
1070
     0
  0
VISUALSTYLE
  5
39
102
{ACAD_REACTORS
330
2A
102
}
330
2A
100
AcDbVisualStyle
  2
Facepattern
 70
    15
 71
     2
 72
     2
 73
     0
 90
        0
 40
-0.6
 41
-30.0
 62
     5
 63
     7
 74
     1
 91
        4
 64
     7
 65
   257
 75
     1
175
     1
 42
1.0
 92
        8
 66
     7
 43
1.0
 76
     1
 77
     6
 78
     2
 67
     7
 79
     5
170
     0
171
     0
290
     0
174
     0
 93
        1
 44
0.0
173
     0
291
     1
 45
0.0
1001
ACAD
1000
AcDbSavedByObjectVersion
1070
     0
  0
VISUALSTYLE
  5
2B
102
{ACAD_REACTORS
330
2A
102
}
330
2A
100
AcDbVisualStyle
  2
Flat
 70
     0
 71
     2
 72
     1
 73
     1
 90
        2
 40
-0.6
 41
30.0
 62
     5
 63
     7
 74
     0
 91
        4
 64
     7
 65
   257
 75
     1
175
     1
 42
1.0
 92
        8
 66
     7
 43
1.0
 76
     1
 77
     6
 78
     2
 67
     7
 79
     5
170
     0
171
     0
290
     0
174
     0
 93
       13
 44
0.0
173
     0
291
     1
 45
0.0
1001
ACAD
1000
AcDbSavedByObjectVersion
1070
     0
  0
VISUALSTYLE
  5
2C
102
{ACAD_REACTORS
330
2A
102
}
330
2A
100
AcDbVisualStyle
  2
FlatWithEdges
 70
     1
 71
     2
 72
     1
 73
     1
 90
        2
 40
-0.6
 41
30.0
 62
     5
 63
     7
 74
     1
 91
        4
 64
     7
 65
   257
 75
     1
175
     1
 42
1.0
 92
        0
 66
   257
 43
1.0
 76
     1
 77
     6
 78
     2
 67
     7
 79
     5
170
     0
171
     0
290
     0
174
     0
 93
       13
 44
0.0
173
     0
291
     1
 45
0.0
1001
ACAD
1000
AcDbSavedByObjectVersion
1070
     0
  0
VISUALSTYLE
  5
2D
102
{ACAD_REACTORS
330
2A
102
}
330
2A
100
AcDbVisualStyle
  2
Gouraud
 70
     2
 71
     2
 72
     2
 73
     1
 90
        2
 40
-0.6
 41
30.0
 62
     5
 63
     7
 74
     0
 91
        4
 64
     7
 65
   257
 75
     1
175
     1
 42
1.0
 92
        0
 66
     7
 43
1.0
 76
     1
 77
     6
 78
     2
 67
     7
 79
     5
170
     0
171
     0
290
     0
174
     0
 93
       13
 44
0.0
173
     0
291
     1
 45
0.0
1001
ACAD
1000
AcDbSavedByObjectVersion
1070
     0
  0
VISUALSTYLE
  5
2E
102
{ACAD_REACTORS
330
2A
102
}
330
2A
100
AcDbVisualStyle
  2
GouraudWithEdges
 70
     3
 71
     2
 72
     2
 73
     1
 90
        2
 40
-0.6
 41
30.0
 62
     5
 63
     7
 74
     1
 91
        4
 64
     7
 65
   257
 75
     1
175
     1
 42
1.0
 92
        0
 66
   257
 43
1.0
 76
     1
 77
     6
 78
     2
 67
     7
 79
     5
170
     0
171
     0
290
     0
174
     0
 93
       13
 44
0.0
173
     0
291
     1
 45
0.0
1001
ACAD
1000
AcDbSavedByObjectVersion
1070
     0
  0
VISUALSTYLE
  5
38
102
{ACAD_REACTORS
330
2A
102
}
330
2A
100
AcDbVisualStyle
  2
Linepattern
 70
    14
 71
     2
 72
     2
 73
     0
 90
        0
 40
-0.6
 41
-30.0
 62
     5
 63
     7
 74
     1
 91
        4
 64
     7
 65
   257
 75
     7
175
     7
 42
1.0
 92
        8
 66
     7
 43
1.0
 76
     1
 77
     6
 78
     2
 67
     7
 79
     5
170
     0
171
     0
290
     0
174
     0
 93
        1
 44
0.0
173
     0
291
     1
 45
0.0
1001
ACAD
1000
AcDbSavedByObjectVersion
1070
     0
  0
VISUALSTYLE
  5
33
102
{ACAD_REACTORS
330
2A
102
}
330
2A
100
AcDbVisualStyle
  2
Realistic
 70
     8
 71
     2
 72
     2
 73
     0
 90
        0
 40
-0.6
 41
-30.0
 62
     5
 63
     7
 74
     1
 91
        0
 64
     7
 65
   257
 75
     1
175
     1
 42
1.0
 92
        8
 66
     8
 43
1.0
 76
     1
 77
     6
 78
     2
 67
     7
 79
     5
170
     0
171
     0
290
     0
174
     0
 93
       13
 44
0.0
173
     0
291
     0
 45
0.0
1001
ACAD
1000
AcDbSavedByObjectVersion
1070
     0
  0
VISUALSTYLE
  5
37
102
{ACAD_REACTORS
330
2A
102
}
330
2A
100
AcDbVisualStyle
  2
Thicken
 70
    13
 71
     2
 72
     2
 73
     0
 90
        0
 40
-0.6
 41
-30.0
 62
     5
 63
     7
 74
     1
 91
        4
 64
     7
 65
   257
 75
     1
175
     1
 42
1.0
 92
       12
 66
     7
 43
1.0
 76
     1
 77
     6
 78
     2
 67
     7
 79
     5
170
     0
171
     0
290
     0
174
     0
 93
        1
 44
0.0
173
     0
291
     1
 45
0.0
1001
ACAD
1000
AcDbSavedByObjectVersion
1070
     0
  0
DICTIONARYVAR
  5
2D2
102
{ACAD_REACTORS
330
2D1
102
}
330
2D1
100
DictionaryVariables
280
     0
  1
1:1
  0
DICTIONARYVAR
  5
2D6
102
{ACAD_REACTORS
330
2D1
102
}
330
2D1
100
DictionaryVariables
280
     0
  1
80.000000
  0
DICTIONARYVAR
  5
2D5
102
{ACAD_REACTORS
330
2D1
102
}
330
2D1
100
DictionaryVariables
280
     0
  1
5.000000
  0
ENDSEC
  0
EOF
