  0
SECTION
  2
HEADER
  9
$ACADVER
  1
AC1015
  9
$ACADMAINTVER
 70
     6
  9
$DWGCODEPAGE
  3
ANSI_1252
  9
$INSBASE
 10
0.0
 20
0.0
 30
0.0
  9
$EXTMIN
 10
0.0
 20
0.0
 30
0.0
  9
$EXTMAX
 10
3000.0
 20
4500.0
 30
0.0
  9
$LIMMIN
 10
0.0
 20
0.0
  9
$LIMMAX
 10
3000.0
 20
4500.0
  9
$ORTHOMODE
 70
     0
  9
$REGENMODE
 70
     1
  9
$FILLMODE
 70
     1
  9
$QTEXTMODE
 70
     0
  9
$MIRRTEXT
 70
     1
  9
$LTSCALE
 40
1.0
  9
$ATTMODE
 70
     1
  9
$TEXTSIZE
 40
2.5
  9
$TRACEWID
 40
1.0
  9
$TEXTSTYLE
  7
Standard
  9
$CLAYER
  8
0
  9
$CELTYPE
  6
ByLayer
  9
$CECOLOR
 62
   256
  9
$CELTSCALE
 40
1.0
  9
$DISPSILH
 70
     0
  9
$DIMSCALE
 40
1.0
  9
$DIMASZ
 40
2.5
  9
$DIMEXO
 40
0.625
  9
$DIMDLI
 40
3.75
  9
$DIMRND
 40
0.0
  9
$DIMDLE
 40
0.0
  9
$DIMEXE
 40
1.25
  9
$DIMTP
 40
0.0
  9
$DIMTM
 40
0.0
  9
$DIMTXT
 40
2.5
  9
$DIMCEN
 40
2.5
  9
$DIMTSZ
 40
0.0
  9
$DIMTOL
 70
     0
  9
$DIMLIM
 70
     0
  9
$DIMTIH
 70
     0
  9
$DIMTOH
 70
     0
  9
$DIMSE1
 70
     0
  9
$DIMSE2
 70
     0
  9
$DIMTAD
 70
     1
  9
$DIMZIN
 70
     8
  9
$DIMBLK
  1

  9
$DIMASO
 70
     1
  9
$DIMSHO
 70
     1
  9
$DIMPOST
  1

  9
$DIMAPOST
  1

  9
$DIMALT
 70
     0
  9
$DIMALTD
 70
     3
  9
$DIMALTF
 40
0.0393700787
  9
$DIMLFAC
 40
1.0
  9
$DIMTOFL
 70
     1
  9
$DIMTVP
 40
0.0
  9
$DIMTIX
 70
     0
  9
$DIMSOXD
 70
     0
  9
$DIMSAH
 70
     0
  9
$DIMBLK1
  1

  9
$DIMBLK2
  1

  9
$DIMSTYLE
  2
ISO-25
  9
$DIMCLRD
 70
     0
  9
$DIMCLRE
 70
     0
  9
$DIMCLRT
 70
     0
  9
$DIMTFAC
 40
1.0
  9
$DIMGAP
 40
0.625
  9
$DIMJUST
 70
     0
  9
$DIMSD1
 70
     0
  9
$DIMSD2
 70
     0
  9
$DIMTOLJ
 70
     0
  9
$DIMTZIN
 70
     8
  9
$DIMALTZ
 70
     0
  9
$DIMALTTZ
 70
     0
  9
$DIMUPT
 70
     0
  9
$DIMDEC
 70
     2
  9
$DIMTDEC
 70
     2
  9
$DIMALTU
 70
     2
  9
$DIMALTTD
 70
     3
  9
$DIMTXSTY
  7
Standard
  9
$DIMAUNIT
 70
     0
  9
$DIMADEC
 70
     0
  9
$DIMALTRND
 40
0.0
  9
$DIMAZIN
 70
     0
  9
$DIMDSEP
 70
    44
  9
$DIMATFIT
 70
     3
  9
$DIMFRAC
 70
     0
  9
$DIMLDRBLK
  1

  9
$DIMLUNIT
 70
     2
  9
$DIMLWD
 70
    -2
  9
$DIMLWE
 70
    -2
  9
$DIMTMOVE
 70
     0
  9
$LUNITS
 70
     2
  9
$LUPREC
 70
     4
  9
$SKETCHINC
 40
1.0
  9
$FILLETRAD
 40
10.0
  9
$AUNITS
 70
     0
  9
$AUPREC
 70
     0
  9
$MENU
  1
.
  9
$ELEVATION
 40
0.0
  9
$PELEVATION
 40
0.0
  9
$THICKNESS
 40
0.0
  9
$LIMCHECK
 70
     0
  9
$CHAMFERA
 40
10.0
  9
$CHAMFERB
 40
10.0
  9
$CHAMFERC
 40
20.0
  9
$CHAMFERD
 40
0.0
  9
$SKPOLY
 70
     0
  9
$TDCREATE
 40
2456548.376458414
  9
$TDUCREATE
 40
2456548.293125081
  9
$TDUPDATE
 40
2456548.376458426
  9
$TDUUPDATE
 40
2456548.293125093
  9
$TDINDWG
 40
0.0000000116
  9
$TDUSRTIMER
 40
0.0000000116
  9
$USRTIMER
 70
     1
  9
$ANGBASE
 50
0.0
  9
$ANGDIR
 70
     0
  9
$PDMODE
 70
     0
  9
$PDSIZE
 40
0.0
  9
$PLINEWID
 40
0.0
  9
$SPLFRAME
 70
     0
  9
$SPLINETYPE
 70
     6
  9
$SPLINESEGS
 70
     8
  9
$HANDSEED
  5
205
  9
$SURFTAB1
 70
     6
  9
$SURFTAB2
 70
     6
  9
$SURFTYPE
 70
     6
  9
$SURFU
 70
     6
  9
$SURFV
 70
     6
  9
$UCSBASE
  2

  9
$UCSNAME
  2

  9
$UCSORG
 10
0.0
 20
0.0
 30
0.0
  9
$UCSXDIR
 10
1.0
 20
0.0
 30
0.0
  9
$UCSYDIR
 10
0.0
 20
1.0
 30
0.0
  9
$UCSORTHOREF
  2

  9
$UCSORTHOVIEW
 70
     0
  9
$UCSORGTOP
 10
0.0
 20
0.0
 30
0.0
  9
$UCSORGBOTTOM
 10
0.0
 20
0.0
 30
0.0
  9
$UCSORGLEFT
 10
0.0
 20
0.0
 30
0.0
  9
$UCSORGRIGHT
 10
0.0
 20
0.0
 30
0.0
  9
$UCSORGFRONT
 10
0.0
 20
0.0
 30
0.0
  9
$UCSORGBACK
 10
0.0
 20
0.0
 30
0.0
  9
$PUCSBASE
  2

  9
$PUCSNAME
  2

  9
$PUCSORG
 10
0.0
 20
0.0
 30
0.0
  9
$PUCSXDIR
 10
1.0
 20
0.0
 30
0.0
  9
$PUCSYDIR
 10
0.0
 20
1.0
 30
0.0
  9
$PUCSORTHOREF
  2

  9
$PUCSORTHOVIEW
 70
     0
  9
$PUCSORGTOP
 10
0.0
 20
0.0
 30
0.0
  9
$PUCSORGBOTTOM
 10
0.0
 20
0.0
 30
0.0
  9
$PUCSORGLEFT
 10
0.0
 20
0.0
 30
0.0
  9
$PUCSORGRIGHT
 10
0.0
 20
0.0
 30
0.0
  9
$PUCSORGFRONT
 10
0.0
 20
0.0
 30
0.0
  9
$PUCSORGBACK
 10
0.0
 20
0.0
 30
0.0
  9
$USERI1
 70
     0
  9
$USERI2
 70
     0
  9
$USERI3
 70
     0
  9
$USERI4
 70
     0
  9
$USERI5
 70
     0
  9
$USERR1
 40
0.0
  9
$USERR2
 40
0.0
  9
$USERR3
 40
0.0
  9
$USERR4
 40
0.0
  9
$USERR5
 40
0.0
  9
$WORLDVIEW
 70
     1
  9
$SHADEDGE
 70
     3
  9
$SHADEDIF
 70
    70
  9
$TILEMODE
 70
     1
  9
$MAXACTVP
 70
    64
  9
$PINSBASE
 10
0.0
 20
0.0
 30
0.0
  9
$PLIMCHECK
 70
     0
  9
$PEXTMIN
 10
0.0
 20
0.0
 30
0.0
  9
$PEXTMAX
 10
3000.0
 20
4500.0
 30
0.0
  9
$PLIMMIN
 10
0.0
 20
0.0
  9
$PLIMMAX
 10
3000.0
 20
4500.0
  9
$UNITMODE
 70
     0
  9
$VISRETAIN
 70
     1
  9
$PLINEGEN
 70
     0
  9
$PSLTSCALE
 70
     1
  9
$TREEDEPTH
 70
  3020
  9
$CMLSTYLE
  2
Standard
  9
$CMLJUST
 70
     0
  9
$CMLSCALE
 40
20.0
  9
$PROXYGRAPHICS
 70
     1
  9
$MEASUREMENT
 70
     1
  9
$CELWEIGHT
370
    -1
  9
$ENDCAPS
280
     0
  9
$JOINSTYLE
280
     0
  9
$LWDISPLAY
290
     0
  9
$INSUNITS
 70
     4
  9
$HYPERLINKBASE
  1

  9
$STYLESHEET
  1

  9
$XEDIT
290
     1
  9
$CEPSNTYPE
380
     0
  9
$PSTYLEMODE
290
     1
  9
$FINGERPRINTGUID
  2
{1B0FF8C4-F50F-4C8F-847B-A5CBC9960022}
  9
$VERSIONGUID
  2
{FAEB1C32-E019-11D5-929B-00C0DF256EC4}
  9
$EXTNAMES
290
     1
  9
$PSVPSCALE
 40
0.0
  9
$OLESTARTUP
290
     0
  0
ENDSEC
  0
SECTION
  2
CLASSES
  0
CLASS
  1
ACDBDICTIONARYWDFLT
  2
AcDbDictionaryWithDefault
  3
ObjectDBX Classes
 90
        0
280
     0
281
     0
  0
CLASS
  1
VISUALSTYLE
  2
AcDbVisualStyle
  3
ObjectDBX Classes
 90
     4095
280
     0
281
     0
  0
CLASS
  1
SCALE
  2
AcDbScale
  3
ObjectDBX Classes
 90
     1153
280
     0
281
     0
  0
CLASS
  1
DICTIONARYVAR
  2
AcDbDictionaryVar
  3
ObjectDBX Classes
 90
        0
280
     0
281
     0
  0
CLASS
  1
ACDBPLACEHOLDER
  2
AcDbPlaceHolder
  3
ObjectDBX Classes
 90
        0
280
     0
281
     0
  0
CLASS
  1
LAYOUT
  2
AcDbLayout
  3
ObjectDBX Classes
 90
        0
280
     0
281
     0
  0
ENDSEC
  0
SECTION
  2
TABLES
  0
TABLE
  2
VPORT
  5
8
330
0
100
AcDbSymbolTable
 70
     1
  0
VPORT
  5
29
330
8
100
AcDbSymbolTableRecord
100
AcDbViewportTableRecord
  2
*Active
 70
     0
 10
0.0
 20
0.0
 11
1.0
 21
1.0
 12
344.1869158879
 22
148.5
 13
0.0
 23
0.0
 14
10.0
 24
10.0
 15
10.0
 25
10.0
 16
0.0
 26
0.0
 36
1.0
 17
0.0
 27
0.0
 37
0.0
 40
297.0
 41
1.9729729729
 42
50.0
 43
0.0
 44
0.0
 50
0.0
 51
0.0
 71
     0
 72
   100
 73
     1
 74
     3
 75
     0
 76
     0
 77
     0
 78
     0
281
     0
 65
     1
110
0.0
120
0.0
130
0.0
111
1.0
121
0.0
131
0.0
112
0.0
122
1.0
132
0.0
 79
     0
146
0.0
  0
ENDTAB
  0
TABLE
  2
LTYPE
  5
5
330
0
100
AcDbSymbolTable
 70
     1
  0
LTYPE
  5
14
330
5
100
AcDbSymbolTableRecord
100
AcDbLinetypeTableRecord
  2
ByBlock
 70
     0
  3

 72
    65
 73
     0
 40
0.0
  0
LTYPE
  5
15
330
5
100
AcDbSymbolTableRecord
100
AcDbLinetypeTableRecord
  2
ByLayer
 70
     0
  3

 72
    65
 73
     0
 40
0.0
  0
LTYPE
  5
16
330
5
100
AcDbSymbolTableRecord
100
AcDbLinetypeTableRecord
  2
Continuous
 70
     0
  3
Solid line
 72
    65
 73
     0
 40
0.0
  0
ENDTAB
  0
TABLE
  2
LAYER
  5
2
330
0
100
AcDbSymbolTable
 70
     7
  0
LAYER
  5
10
330
2
100
AcDbSymbolTableRecord
100
AcDbLayerTableRecord
  2
0
 70
     0
 62
     7
  6
Continuous
370
    -3
390
F
  0
LAYER
  5
5D
330
2
100
AcDbSymbolTableRecord
100
AcDbLayerTableRecord
  2
Default
 70
     0
 62
     7
  6
Continuous
370
    -3
390
F
  0
LAYER
  5
60
330
2
100
AcDbSymbolTableRecord
100
AcDbLayerTableRecord
  2
$DDT_AUDIT_GENERATED_(60)
 70
     0
 62
     7
  6
Continuous
370
    -3
390
F
  0
LAYER
  5
9E
330
2
100
AcDbSymbolTableRecord
100
AcDbLayerTableRecord
  2
$DDT_AUDIT_GENERATED_(9E)
 70
     0
 62
     7
  6
Continuous
370
    -3
390
F
  0
LAYER
  5
105
330
2
100
AcDbSymbolTableRecord
100
AcDbLayerTableRecord
  2
$DDT_AUDIT_GENERATED_(105)
 70
     0
 62
     7
  6
Continuous
370
    -3
390
F
  0
LAYER
  5
10D
330
2
100
AcDbSymbolTableRecord
100
AcDbLayerTableRecord
  2
$DDT_AUDIT_GENERATED_(10D)
 70
     0
 62
     7
  6
Continuous
370
    -3
390
F
  0
LAYER
  5
118
330
2
100
AcDbSymbolTableRecord
100
AcDbLayerTableRecord
  2
$DDT_AUDIT_GENERATED_(118)
 70
     0
 62
     7
  6
Continuous
370
    -3
390
F
  0
ENDTAB
  0
TABLE
  2
STYLE
  5
3
330
0
100
AcDbSymbolTable
 70
     2
  0
STYLE
  5
11
330
3
100
AcDbSymbolTableRecord
100
AcDbTextStyleTableRecord
  2
Standard
 70
     0
 40
0.0
 41
1.0
 50
0.0
 71
     0
 42
2.5
  3
txt
  4

  0
STYLE
  5
1F4
330
3
100
AcDbSymbolTableRecord
100
AcDbTextStyleTableRecord
  2
SEACAD_seiso_ttf
 70
     0
 40
0.0
 41
1.0
 50
0.0
 71
     0
 42
0.2
  3
seiso.ttf
  4

  0
ENDTAB
  0
TABLE
  2
VIEW
  5
6
330
0
100
AcDbSymbolTable
 70
     0
  0
ENDTAB
  0
TABLE
  2
UCS
  5
7
330
0
100
AcDbSymbolTable
 70
     0
  0
ENDTAB
  0
TABLE
  2
APPID
  5
9
330
0
100
AcDbSymbolTable
 70
     1
  0
APPID
  5
12
330
9
100
AcDbSymbolTableRecord
100
AcDbRegAppTableRecord
  2
ACAD
 70
     0
  0
ENDTAB
  0
TABLE
  2
DIMSTYLE
  5
A
330
0
100
AcDbSymbolTable
 70
     1
100
AcDbDimStyleTable
  0
DIMSTYLE
105
27
330
A
100
AcDbSymbolTableRecord
100
AcDbDimStyleTableRecord
  2
ISO-25
 70
     0
 41
2.5
 42
0.625
 43
3.75
 44
1.25
 73
     0
 74
     0
 77
     1
 78
     8
140
2.5
141
2.5
143
0.0393700787
147
0.625
171
     3
172
     1
271
     2
272
     2
274
     3
278
    44
283
     0
284
     8
340
11
  0
ENDTAB
  0
TABLE
  2
BLOCK_RECORD
  5
1
330
0
100
AcDbSymbolTable
 70
     4
  0
BLOCK_RECORD
  5
1F
330
1
100
AcDbSymbolTableRecord
100
AcDbBlockTableRecord
  2
*Model_Space
340
22
  0
BLOCK_RECORD
  5
1B
330
1
100
AcDbSymbolTableRecord
100
AcDbBlockTableRecord
  2
*Paper_Space
340
1E
  0
BLOCK_RECORD
  5
5E
330
1
100
AcDbSymbolTableRecord
100
AcDbBlockTableRecord
  2
SE
340
0
102
{BLKREFS
331
5F
102
}
  0
BLOCK_RECORD
  5
1D4
330
1
100
AcDbSymbolTableRecord
100
AcDbBlockTableRecord
  2
SE1
340
0
102
{BLKREFS
331
1D5
102
}
  0
BLOCK_RECORD
  5
1E8
330
1
100
AcDbSymbolTableRecord
100
AcDbBlockTableRecord
  2
SE2
340
0
102
{BLKREFS
331
1E9
102
}
  0
ENDTAB
  0
ENDSEC
  0
SECTION
  2
BLOCKS
  0
BLOCK
  5
20
330
1F
100
AcDbEntity
  8
0
100
AcDbBlockBegin
  2
*Model_Space
 70
     0
 10
0.0
 20
0.0
 30
0.0
  3
*Model_Space
  1

  0
ENDBLK
  5
21
330
1F
100
AcDbEntity
  8
0
100
AcDbBlockEnd
  0
BLOCK
  5
1C
330
1B
100
AcDbEntity
 67
     1
  8
0
100
AcDbBlockBegin
  2
*Paper_Space
 70
     0
 10
0.0
 20
0.0
 30
0.0
  3
*Paper_Space
  1

  0
ENDBLK
  5
1D
330
1B
100
AcDbEntity
 67
     1
  8
0
100
AcDbBlockEnd
  0
BLOCK
  5
1D2
330
5E
100
AcDbEntity
  8
0
100
AcDbBlockBegin
  2
SE
 70
     0
 10
0.0
 20
0.0
 30
0.0
  3
SE
  1

  0
LINE
  5
61
330
5E
100
AcDbEntity
  8
$DDT_AUDIT_GENERATED_(60)
  6
Continuous
 62
     7
100
AcDbLine
 10
6.65
 20
284.0764097819
 30
0.0
 11
6.8500304656
 21
284.0764097819
 31
0.0
  0
LINE
  5
62
330
5E
100
AcDbEntity
  8
$DDT_AUDIT_GENERATED_(60)
  6
Continuous
 62
     7
100
AcDbLine
 10
6.8500304656
 20
284.0764097819
 30
0.0
 11
266.8394050986
 21
284.0764097819
 31
0.0
  0
LINE
  5
63
330
5E
100
AcDbEntity
  8
$DDT_AUDIT_GENERATED_(60)
  6
Continuous
 62
     7
100
AcDbLine
 10
266.8394050986
 20
284.0764097819
 30
0.0
 11
267.0394355642
 21
284.0764097819
 31
0.0
  0
LINE
  5
64
330
5E
100
AcDbEntity
  8
$DDT_AUDIT_GENERATED_(60)
  6
Continuous
 62
     7
100
AcDbLine
 10
267.3393898728
 20
283.77117406
 30
0.0
 11
267.2624719363
 21
279.3645484299
 31
0.0
  0
ARC
  5
65
330
5E
100
AcDbEntity
  8
$DDT_AUDIT_GENERATED_(60)
  6
Continuous
 62
     7
100
AcDbCircle
 10
6.65
 20
283.7764097819
 30
0.0
 40
0.3000000000000119
100
AcDbArc
 50
90.0
 51
181.0
  0
ARC
  5
66
330
5E
100
AcDbEntity
  8
$DDT_AUDIT_GENERATED_(60)
  6
Continuous
 62
     7
100
AcDbCircle
 10
267.0394355642
 20
283.7764097819
 30
0.0
 40
0.3000000000000017
100
AcDbArc
 50
359.0
 51
90.0
  0
LINE
  5
67
330
5E
100
AcDbEntity
  8
$DDT_AUDIT_GENERATED_(60)
  6
Continuous
 62
     7
100
AcDbLine
 10
100.8344275229
 20
260.6659383381
 30
0.0
 11
100.8098076523
 21
262.0764097819
 31
0.0
  0
LINE
  5
68
330
5E
100
AcDbEntity
  8
$DDT_AUDIT_GENERATED_(60)
  6
Continuous
 62
     7
100
AcDbLine
 10
100.5479816783
 20
277.0764097819
 30
0.0
 11
100.4956164835
 21
280.0764097819
 31
0.0
  0
LINE
  5
69
330
5E
100
AcDbEntity
  8
$DDT_AUDIT_GENERATED_(60)
  6
Continuous
 62
     7
100
AcDbLine
 10
108.5414538824
 20
277.0764097819
 30
0.0
 11
108.5938190772
 21
280.0764097819
 31
0.0
  0
LINE
  5
6A
330
5E
100
AcDbEntity
  8
$DDT_AUDIT_GENERATED_(60)
  6
Continuous
 62
     7
100
AcDbLine
 10
108.879627912
 20
262.0764097819
 30
0.0
 11
108.8550080413
 21
260.6659383381
 31
0.0
  0
LINE
  5
6B
330
5E
100
AcDbEntity
  8
$DDT_AUDIT_GENERATED_(60)
  6
Continuous
 62
     7
100
AcDbLine
 10
109.1938190807
 20
280.0764097819
 30
0.0
 11
109.1414538859
 21
277.0764097819
 31
0.0
  0
LINE
  5
6C
330
5E
100
AcDbEntity
  8
$DDT_AUDIT_GENERATED_(60)
  6
Continuous
 62
     7
100
AcDbLine
 10
164.8344275229
 20
260.6659383381
 30
0.0
 11
164.8098076523
 21
262.0764097819
 31
0.0
  0
LINE
  5
6D
330
5E
100
AcDbEntity
  8
$DDT_AUDIT_GENERATED_(60)
  6
Continuous
 62
     7
100
AcDbLine
 10
164.5479816783
 20
277.0764097819
 30
0.0
 11
164.4956164835
 21
280.0764097819
 31
0.0
  0
LINE
  5
6E
330
5E
100
AcDbEntity
  8
$DDT_AUDIT_GENERATED_(60)
  6
Continuous
 62
     7
100
AcDbLine
 10
172.879627912
 20
262.0764097819
 30
0.0
 11
172.8550080413
 21
260.6659383381
 31
0.0
  0
LINE
  5
6F
330
5E
100
AcDbEntity
  8
$DDT_AUDIT_GENERATED_(60)
  6
Continuous
 62
     7
100
AcDbLine
 10
173.1938190807
 20
280.0764097819
 30
0.0
 11
173.1414538859
 21
277.0764097819
 31
0.0
  0
ARC
  5
70
330
5E
100
AcDbEntity
  8
$DDT_AUDIT_GENERATED_(60)
  6
Continuous
 62
     7
100
AcDbCircle
 10
101.43433614
 20
260.6764097819
 30
0.0
 40
0.6000000000000103
100
AcDbArc
 50
181.0
 51
270.0
  0
ARC
  5
71
330
5E
100
AcDbEntity
  8
$DDT_AUDIT_GENERATED_(60)
  6
Continuous
 62
     7
100
AcDbCircle
 10
108.2550994242
 20
260.6764097819
 30
0.0
 40
0.5999999999999958
100
AcDbArc
 50
270.0
 51
359.0
  0
LINE
  5
72
330
5E
100
AcDbEntity
  8
$DDT_AUDIT_GENERATED_(60)
  6
Continuous
 62
     7
100
AcDbLine
 10
108.2492790345
 20
260.0764097819
 30
0.0
 11
101.4401565297
 21
260.0764097819
 31
0.0
  0
LINE
  5
73
330
5E
100
AcDbEntity
  8
$DDT_AUDIT_GENERATED_(60)
  6
Continuous
 62
     7
100
AcDbLine
 10
108.2550994242
 20
260.0764097819
 30
0.0
 11
108.2492790345
 21
260.0764097819
 31
0.0
  0
LINE
  5
74
330
5E
100
AcDbEntity
  8
$DDT_AUDIT_GENERATED_(60)
  6
Continuous
 62
     7
100
AcDbLine
 10
101.4401565297
 20
260.0764097819
 30
0.0
 11
101.43433614
 21
260.0764097819
 31
0.0
  0
ARC
  5
75
330
5E
100
AcDbEntity
  8
$DDT_AUDIT_GENERATED_(60)
  6
Continuous
 62
     7
100
AcDbCircle
 10
165.43433614
 20
260.6764097819
 30
0.0
 40
0.5999999999999963
100
AcDbArc
 50
181.0
 51
270.0
  0
LINE
  5
76
330
5E
100
AcDbEntity
  8
$DDT_AUDIT_GENERATED_(60)
  6
Continuous
 62
     7
100
AcDbLine
 10
172.2550994242
 20
260.0764097819
 30
0.0
 11
172.2492790345
 21
260.0764097819
 31
0.0
  0
LINE
  5
77
330
5E
100
AcDbEntity
  8
$DDT_AUDIT_GENERATED_(60)
  6
Continuous
 62
     7
100
AcDbLine
 10
172.2492790345
 20
260.0764097819
 30
0.0
 11
165.4401565297
 21
260.0764097819
 31
0.0
  0
LINE
  5
78
330
5E
100
AcDbEntity
  8
$DDT_AUDIT_GENERATED_(60)
  6
Continuous
 62
     7
100
AcDbLine
 10
165.4401565297
 20
260.0764097819
 30
0.0
 11
165.43433614
 21
260.0764097819
 31
0.0
  0
ARC
  5
79
330
5E
100
AcDbEntity
  8
$DDT_AUDIT_GENERATED_(60)
  6
Continuous
 62
     7
100
AcDbCircle
 10
172.2550994242
 20
260.6764097819
 30
0.0
 40
0.6000000000000029
100
AcDbArc
 50
270.0
 51
359.0
  0
LINE
  5
7A
330
5E
100
AcDbEntity
  8
$DDT_AUDIT_GENERATED_(60)
  6
Continuous
 62
     7
100
AcDbLine
 10
19.9258265645
 20
212.6759488854
 30
0.0
 11
19.9264012734
 21
212.6100937685
 31
0.0
  0
LINE
  5
7B
330
5E
100
AcDbEntity
  8
$DDT_AUDIT_GENERATED_(60)
  6
Continuous
 62
     7
100
AcDbLine
 10
19.9258265645
 20
212.6759488854
 30
0.0
 11
19.8312813871
 21
223.5097531474
 31
0.0
  0
LINE
  5
7C
330
5E
100
AcDbEntity
  8
$DDT_AUDIT_GENERATED_(60)
  6
Continuous
 62
     7
100
AcDbLine
 10
19.8312813871
 20
223.5097531474
 30
0.0
 11
19.8170204207
 21
225.1438980305
 31
0.0
  0
LINE
  5
7D
330
5E
100
AcDbEntity
  8
$DDT_AUDIT_GENERATED_(60)
  6
Continuous
 62
     7
100
AcDbLine
 10
19.8170204207
 20
225.1438980305
 30
0.0
 11
19.3738423808
 21
275.9270713893
 31
0.0
  0
ARC
  5
7E
330
5E
100
AcDbEntity
  8
$DDT_AUDIT_GENERATED_(60)
  6
Continuous
 62
     7
100
AcDbCircle
 10
16.3739566116
 20
275.9008917829
 30
0.0
 40
2.999999999999995
100
AcDbArc
 50
0.5
 51
89.0
  0
LINE
  5
7F
330
5E
100
AcDbEntity
  8
$DDT_AUDIT_GENERATED_(60)
  6
Continuous
 62
     7
100
AcDbLine
 10
6.9217736439
 20
279.0663372344
 30
0.0
 11
6.7216822146
 21
279.0698298433
 31
0.0
  0
LINE
  5
80
330
5E
100
AcDbEntity
  8
$DDT_AUDIT_GENERATED_(60)
  6
Continuous
 62
     7
100
AcDbLine
 10
16.426313831
 20
278.9004348683
 30
0.0
 11
6.9217736439
 21
279.0663372344
 31
0.0
  0
LINE
  5
81
330
5E
100
AcDbEntity
  8
$DDT_AUDIT_GENERATED_(60)
  6
Continuous
 62
     7
100
AcDbLine
 10
6.4269636279
 20
279.3645484299
 30
0.0
 11
6.3500456915
 21
283.77117406
 31
0.0
  0
ARC
  5
82
330
5E
100
AcDbEntity
  8
$DDT_AUDIT_GENERATED_(60)
  6
Continuous
 62
     7
100
AcDbCircle
 10
6.7269179365
 20
279.3697841518
 30
0.0
 40
0.3000000000000119
100
AcDbArc
 50
181.0
 51
269.0
  0
ARC
  5
83
330
5E
100
AcDbEntity
  8
$DDT_AUDIT_GENERATED_(60)
  6
Continuous
 62
     7
100
AcDbCircle
 10
257.3154789526
 20
275.9008917829
 30
0.0
 40
3.0
100
AcDbArc
 50
91.0
 51
179.5
  0
LINE
  5
84
330
5E
100
AcDbEntity
  8
$DDT_AUDIT_GENERATED_(60)
  6
Continuous
 62
     7
100
AcDbLine
 10
253.7630342908
 20
212.6100937685
 30
0.0
 11
253.7636089997
 21
212.6759488854
 31
0.0
  0
LINE
  5
85
330
5E
100
AcDbEntity
  8
$DDT_AUDIT_GENERATED_(60)
  6
Continuous
 62
     7
100
AcDbLine
 10
253.8581541771
 20
223.5097531474
 30
0.0
 11
253.7636089997
 21
212.6759488854
 31
0.0
  0
LINE
  5
86
330
5E
100
AcDbEntity
  8
$DDT_AUDIT_GENERATED_(60)
  6
Continuous
 62
     7
100
AcDbLine
 10
253.8724151435
 20
225.1438980305
 30
0.0
 11
253.8581541771
 21
223.5097531474
 31
0.0
  0
LINE
  5
87
330
5E
100
AcDbEntity
  8
$DDT_AUDIT_GENERATED_(60)
  6
Continuous
 62
     7
100
AcDbLine
 10
254.3155931834
 20
275.9270713893
 30
0.0
 11
253.8724151435
 21
225.1438980305
 31
0.0
  0
LINE
  5
88
330
5E
100
AcDbEntity
  8
$DDT_AUDIT_GENERATED_(60)
  6
Continuous
 62
     7
100
AcDbLine
 10
266.9677533497
 20
279.0698298433
 30
0.0
 11
266.7676619203
 21
279.0663372344
 31
0.0
  0
LINE
  5
89
330
5E
100
AcDbEntity
  8
$DDT_AUDIT_GENERATED_(60)
  6
Continuous
 62
     7
100
AcDbLine
 10
266.7676619203
 20
279.0663372344
 30
0.0
 11
257.2631217333
 21
278.9004348683
 31
0.0
  0
ARC
  5
8A
330
5E
100
AcDbEntity
  8
$DDT_AUDIT_GENERATED_(60)
  6
Continuous
 62
     7
100
AcDbCircle
 10
266.9625176277
 20
279.3697841518
 30
0.0
 40
0.2999999999999978
100
AcDbArc
 50
271.0
 51
359.0
  0
LINE
  5
8B
330
5E
100
AcDbEntity
  8
$DDT_AUDIT_GENERATED_(60)
  6
Continuous
 62
     7
100
AcDbLine
 10
251.1147892183
 20
225.1360445472
 30
0.0
 11
250.198677656
 21
277.620040798
 31
0.0
  0
LINE
  5
8C
330
5E
100
AcDbEntity
  8
$DDT_AUDIT_GENERATED_(60)
  6
Continuous
 62
     7
100
AcDbLine
 10
251.1382796577
 20
223.7902781729
 30
0.0
 11
251.1147892183
 21
225.1360445472
 31
0.0
  0
LINE
  5
8D
330
5E
100
AcDbEntity
  8
$DDT_AUDIT_GENERATED_(60)
  6
Continuous
 62
     7
100
AcDbLine
 10
251.3273844145
 20
212.956473911
 30
0.0
 11
251.1382796577
 21
223.7902781729
 31
0.0
  0
LINE
  5
8E
330
5E
100
AcDbEntity
  8
$DDT_AUDIT_GENERATED_(60)
  6
Continuous
 62
     7
100
AcDbLine
 10
251.3273844145
 20
212.956473911
 30
0.0
 11
251.328331066
 21
212.9022402853
 31
0.0
  0
LINE
  5
8F
330
5E
100
AcDbEntity
  8
$DDT_AUDIT_GENERATED_(60)
  6
Continuous
 62
     7
100
AcDbLine
 10
23.4907579082
 20
277.620040798
 30
0.0
 11
22.574646346
 21
225.1360445472
 31
0.0
  0
LINE
  5
90
330
5E
100
AcDbEntity
  8
$DDT_AUDIT_GENERATED_(60)
  6
Continuous
 62
     7
100
AcDbLine
 10
22.574646346
 20
225.1360445472
 30
0.0
 11
22.5511559065
 21
223.7902781729
 31
0.0
  0
LINE
  5
91
330
5E
100
AcDbEntity
  8
$DDT_AUDIT_GENERATED_(60)
  6
Continuous
 62
     7
100
AcDbLine
 10
22.5511559065
 20
223.7902781729
 30
0.0
 11
22.3620511497
 21
212.956473911
 31
0.0
  0
LINE
  5
92
330
5E
100
AcDbEntity
  8
$DDT_AUDIT_GENERATED_(60)
  6
Continuous
 62
     7
100
AcDbLine
 10
22.3611044982
 20
212.9022402853
 30
0.0
 11
22.3620511497
 21
212.956473911
 31
0.0
  0
ARC
  5
93
330
5E
100
AcDbEntity
  8
$DDT_AUDIT_GENERATED_(60)
  6
Continuous
 62
     7
100
AcDbCircle
 10
247.6990584181
 20
277.5764097819
 30
0.0
 40
2.500000000000001
100
AcDbArc
 50
1.0
 51
90.0
  0
ARC
  5
94
330
5E
100
AcDbEntity
  8
$DDT_AUDIT_GENERATED_(60)
  6
Continuous
 62
     7
100
AcDbCircle
 10
25.9903771461
 20
277.5764097819
 30
0.0
 40
2.500000000000009
100
AcDbArc
 50
90.0
 51
179.0
  0
LINE
  5
95
330
5E
100
AcDbEntity
  8
$DDT_AUDIT_GENERATED_(60)
  6
Continuous
 62
     7
100
AcDbLine
 10
247.6990584181
 20
280.0764097819
 30
0.0
 11
25.9903771461
 21
280.0764097819
 31
0.0
  0
LINE
  5
96
330
5E
100
AcDbEntity
  8
$DDT_AUDIT_GENERATED_(60)
  6
Continuous
 62
     7
100
AcDbLine
 10
95.1034446499
 20
280.0764097819
 30
0.0
 11
95.1296252533
 21
277.0764097819
 31
0.0
  0
LINE
  5
97
330
5E
100
AcDbEntity
  8
$DDT_AUDIT_GENERATED_(60)
  6
Continuous
 62
     7
100
AcDbLine
 10
251.9282396831
 20
212.3127117292
 30
0.0
 11
253.4630457139
 21
212.3127117292
 31
0.0
  0
LINE
  5
98
330
5E
100
AcDbEntity
  8
$DDT_AUDIT_GENERATED_(60)
  6
Continuous
 62
     7
100
AcDbLine
 10
20.2263898504
 20
212.3127117292
 30
0.0
 11
21.7611958812
 21
212.3127117292
 31
0.0
  0
LINE
  5
99
330
5E
100
AcDbEntity
  8
$DDT_AUDIT_GENERATED_(60)
  6
Continuous
 62
     7
100
AcDbLine
 10
178.5598103109
 20
277.0764097819
 30
0.0
 11
178.5859909143
 21
280.0764097819
 31
0.0
  0
ARC
  5
9A
330
5E
100
AcDbEntity
  8
$DDT_AUDIT_GENERATED_(60)
  6
Continuous
 62
     7
100
AcDbCircle
 10
20.2263898504
 20
212.6127117292
 30
0.0
 40
0.3000000000000005
100
AcDbArc
 50
180.5
 51
270.5250501332
  0
ARC
  5
9B
330
5E
100
AcDbEntity
  8
$DDT_AUDIT_GENERATED_(60)
  6
Continuous
 62
     7
100
AcDbCircle
 10
253.4630457139
 20
212.6127117292
 30
0.0
 40
0.2999999999999982
100
AcDbArc
 50
270.8727875712
 51
359.5
  0
ARC
  5
9C
330
5E
100
AcDbEntity
  8
$DDT_AUDIT_GENERATED_(60)
  6
Continuous
 62
     7
100
AcDbCircle
 10
21.7611958812
 20
212.9127117292
 30
0.0
 40
0.5999999999999959
100
AcDbArc
 50
270.4120825313
 51
359.0
  0
ARC
  5
9D
330
5E
100
AcDbEntity
  8
$DDT_AUDIT_GENERATED_(60)
  6
Continuous
 62
     7
100
AcDbCircle
 10
251.9282396831
 20
212.9127117292
 30
0.0
 40
0.6000000000000008
100
AcDbArc
 50
181.0
 51
270.2662516945
  0
CIRCLE
  5
9F
330
5E
100
AcDbEntity
  8
$DDT_AUDIT_GENERATED_(9E)
  6
Continuous
 62
     7
100
AcDbCircle
 10
89.3447177821
 20
250.0764097819
 30
0.0
 40
2.0
  0
CIRCLE
  5
A0
330
5E
100
AcDbEntity
  8
$DDT_AUDIT_GENERATED_(9E)
  6
Continuous
 62
     7
100
AcDbCircle
 10
184.3447177821
 20
250.0764097819
 30
0.0
 40
2.0
  0
LINE
  5
A1
330
5E
100
AcDbEntity
  8
$DDT_AUDIT_GENERATED_(9E)
  6
Continuous
 62
     7
100
AcDbLine
 10
31.0656012351
 20
277.0764097819
 30
0.0
 11
35.4105440309
 21
277.0764097819
 31
0.0
  0
LINE
  5
A2
330
5E
100
AcDbEntity
  8
$DDT_AUDIT_GENERATED_(9E)
  6
Continuous
 62
     7
100
AcDbLine
 10
35.4105440309
 20
277.0764097819
 30
0.0
 11
95.1665185198
 21
277.0764097819
 31
0.0
  0
LINE
  5
A3
330
5E
100
AcDbEntity
  8
$DDT_AUDIT_GENERATED_(9E)
  6
Continuous
 62
     7
100
AcDbLine
 10
95.1665185198
 20
277.0764097819
 30
0.0
 11
97.3990899072
 21
277.0764097819
 31
0.0
  0
LINE
  5
A4
330
5E
100
AcDbEntity
  8
$DDT_AUDIT_GENERATED_(9E)
  6
Continuous
 62
     7
100
AcDbLine
 10
97.3990899072
 20
277.0764097819
 30
0.0
 11
98.7386327397
 21
277.0764097819
 31
0.0
  0
LINE
  5
A5
330
5E
100
AcDbEntity
  8
$DDT_AUDIT_GENERATED_(9E)
  6
Continuous
 62
     7
100
AcDbLine
 10
98.7386327397
 20
277.0764097819
 30
0.0
 11
104.9508028246
 21
277.0764097819
 31
0.0
  0
LINE
  5
A6
330
5E
100
AcDbEntity
  8
$DDT_AUDIT_GENERATED_(9E)
  6
Continuous
 62
     7
100
AcDbLine
 10
104.9508028246
 20
277.0764097819
 30
0.0
 11
106.290345657
 21
277.0764097819
 31
0.0
  0
LINE
  5
A7
330
5E
100
AcDbEntity
  8
$DDT_AUDIT_GENERATED_(9E)
  6
Continuous
 62
     7
100
AcDbLine
 10
106.290345657
 20
277.0764097819
 30
0.0
 11
108.5229170445
 21
277.0764097819
 31
0.0
  0
LINE
  5
A8
330
5E
100
AcDbEntity
  8
$DDT_AUDIT_GENERATED_(9E)
  6
Continuous
 62
     7
100
AcDbLine
 10
108.5229170445
 20
277.0764097819
 30
0.0
 11
165.1665185198
 21
277.0764097819
 31
0.0
  0
LINE
  5
A9
330
5E
100
AcDbEntity
  8
$DDT_AUDIT_GENERATED_(9E)
  6
Continuous
 62
     7
100
AcDbLine
 10
165.1665185198
 20
277.0764097819
 30
0.0
 11
167.3990899072
 21
277.0764097819
 31
0.0
  0
LINE
  5
AA
330
5E
100
AcDbEntity
  8
$DDT_AUDIT_GENERATED_(9E)
  6
Continuous
 62
     7
100
AcDbLine
 10
167.3990899072
 20
277.0764097819
 30
0.0
 11
168.7386327397
 21
277.0764097819
 31
0.0
  0
LINE
  5
AB
330
5E
100
AcDbEntity
  8
$DDT_AUDIT_GENERATED_(9E)
  6
Continuous
 62
     7
100
AcDbLine
 10
168.7386327397
 20
277.0764097819
 30
0.0
 11
174.7785991622
 21
277.0764097819
 31
0.0
  0
LINE
  5
AC
330
5E
100
AcDbEntity
  8
$DDT_AUDIT_GENERATED_(9E)
  6
Continuous
 62
     7
100
AcDbLine
 10
174.7785991622
 20
277.0764097819
 30
0.0
 11
176.1181419947
 21
277.0764097819
 31
0.0
  0
LINE
  5
AD
330
5E
100
AcDbEntity
  8
$DDT_AUDIT_GENERATED_(9E)
  6
Continuous
 62
     7
100
AcDbLine
 10
176.1181419947
 20
277.0764097819
 30
0.0
 11
178.3507133821
 21
277.0764097819
 31
0.0
  0
LINE
  5
AE
330
5E
100
AcDbEntity
  8
$DDT_AUDIT_GENERATED_(9E)
  6
Continuous
 62
     7
100
AcDbLine
 10
178.3507133821
 20
277.0764097819
 30
0.0
 11
238.2788915333
 21
277.0764097819
 31
0.0
  0
LINE
  5
AF
330
5E
100
AcDbEntity
  8
$DDT_AUDIT_GENERATED_(9E)
  6
Continuous
 62
     7
100
AcDbLine
 10
238.2788915333
 20
277.0764097819
 30
0.0
 11
242.6238343291
 21
277.0764097819
 31
0.0
  0
LINE
  5
B0
330
5E
100
AcDbEntity
  8
$DDT_AUDIT_GENERATED_(9E)
  6
Continuous
 62
     7
100
AcDbLine
 10
108.5229170445
 20
276.5764097819
 30
0.0
 11
108.5229170445
 21
274.5764097819
 31
0.0
  0
LINE
  5
B1
330
5E
100
AcDbEntity
  8
$DDT_AUDIT_GENERATED_(9E)
  6
Continuous
 62
     7
100
AcDbLine
 10
95.1665185198
 20
277.0764097819
 30
0.0
 11
95.1665185198
 21
276.5764097819
 31
0.0
  0
LINE
  5
B2
330
5E
100
AcDbEntity
  8
$DDT_AUDIT_GENERATED_(9E)
  6
Continuous
 62
     7
100
AcDbLine
 10
108.5229170445
 20
277.0764097819
 30
0.0
 11
108.5229170445
 21
276.5764097819
 31
0.0
  0
LINE
  5
B3
330
5E
100
AcDbEntity
  8
$DDT_AUDIT_GENERATED_(9E)
  6
Continuous
 62
     7
100
AcDbLine
 10
174.7785991622
 20
274.0764097819
 30
0.0
 11
168.7386327397
 21
274.0764097819
 31
0.0
  0
LINE
  5
B4
330
5E
100
AcDbEntity
  8
$DDT_AUDIT_GENERATED_(9E)
  6
Continuous
 62
     7
100
AcDbLine
 10
176.1181419947
 20
274.0764097819
 30
0.0
 11
174.7785991622
 21
274.0764097819
 31
0.0
  0
LINE
  5
B5
330
5E
100
AcDbEntity
  8
$DDT_AUDIT_GENERATED_(9E)
  6
Continuous
 62
     7
100
AcDbLine
 10
168.7386327397
 20
274.0764097819
 30
0.0
 11
167.3990899072
 21
274.0764097819
 31
0.0
  0
LINE
  5
B6
330
5E
100
AcDbEntity
  8
$DDT_AUDIT_GENERATED_(9E)
  6
Continuous
 62
     7
100
AcDbLine
 10
176.8507133821
 20
274.0764097819
 30
0.0
 11
176.1181419947
 21
274.0764097819
 31
0.0
  0
LINE
  5
B7
330
5E
100
AcDbEntity
  8
$DDT_AUDIT_GENERATED_(9E)
  6
Continuous
 62
     7
100
AcDbLine
 10
167.3990899072
 20
274.0764097819
 30
0.0
 11
166.6665185198
 21
274.0764097819
 31
0.0
  0
SPLINE
  5
B8
330
5E
100
AcDbEntity
  8
$DDT_AUDIT_GENERATED_(9E)
  6
Continuous
 62
     7
100
AcDbSpline
210
0.0
220
0.0
230
1.0
 70
     8
 71
     3
 72
    10
 73
     6
 74
     0
 42
0.0000000062455084
 43
0.0000000001
 40
0.0
 40
0.0
 40
0.0
 40
0.0
 40
0.5
 40
0.5
 40
1.0
 40
1.0
 40
1.0
 40
1.0
 10
166.6665185197539
 20
274.0764097819335
 30
0.0
 10
166.3976791426202
 20
274.0764097819335
 30
0.0
 10
166.1396730586987
 20
274.1484654330189
 30
0.0
 10
165.6423132303346
 20
274.3380215804808
 30
0.0
 10
165.403187649604
 20
274.4580764003523
 30
0.0
 10
165.1665185197538
 20
274.5764097819335
 30
0.0
  0
SPLINE
  5
B9
330
5E
100
AcDbEntity
  8
$DDT_AUDIT_GENERATED_(9E)
  6
Continuous
 62
     7
100
AcDbSpline
210
0.0
220
0.0
230
1.0
 70
     8
 71
     3
 72
    10
 73
     6
 74
     0
 42
0.0000000062455084
 43
0.0000000001
 40
0.0
 40
0.0
 40
0.0
 40
0.0
 40
0.5
 40
0.5
 40
1.0
 40
1.0
 40
1.0
 40
1.0
 10
178.3507133820936
 20
274.5764097819335
 30
0.0
 10
178.1140442522419
 20
274.4580764003551
 30
0.0
 10
177.8749186715128
 20
274.3380215804808
 30
0.0
 10
177.3775588431488
 20
274.1484654330189
 30
0.0
 10
177.1195527592271
 20
274.0764097819335
 30
0.0
 10
176.8507133820936
 20
274.0764097819335
 30
0.0
  0
LINE
  5
BA
330
5E
100
AcDbEntity
  8
$DDT_AUDIT_GENERATED_(9E)
  6
Continuous
 62
     7
100
AcDbLine
 10
107.0229170445
 20
274.0764097819
 30
0.0
 11
106.290345657
 21
274.0764097819
 31
0.0
  0
LINE
  5
BB
330
5E
100
AcDbEntity
  8
$DDT_AUDIT_GENERATED_(9E)
  6
Continuous
 62
     7
100
AcDbLine
 10
106.290345657
 20
274.0764097819
 30
0.0
 11
104.9508028246
 21
274.0764097819
 31
0.0
  0
LINE
  5
BC
330
5E
100
AcDbEntity
  8
$DDT_AUDIT_GENERATED_(9E)
  6
Continuous
 62
     7
100
AcDbLine
 10
104.9508028246
 20
274.0764097819
 30
0.0
 11
98.7386327397
 21
274.0764097819
 31
0.0
  0
LINE
  5
BD
330
5E
100
AcDbEntity
  8
$DDT_AUDIT_GENERATED_(9E)
  6
Continuous
 62
     7
100
AcDbLine
 10
98.7386327397
 20
274.0764097819
 30
0.0
 11
97.3990899072
 21
274.0764097819
 31
0.0
  0
LINE
  5
BE
330
5E
100
AcDbEntity
  8
$DDT_AUDIT_GENERATED_(9E)
  6
Continuous
 62
     7
100
AcDbLine
 10
97.3990899072
 20
274.0764097819
 30
0.0
 11
96.6665185198
 21
274.0764097819
 31
0.0
  0
LINE
  5
BF
330
5E
100
AcDbEntity
  8
$DDT_AUDIT_GENERATED_(9E)
  6
Continuous
 62
     7
100
AcDbLine
 10
95.1665185198
 20
274.5764097819
 30
0.0
 11
95.1665185198
 21
276.5764097819
 31
0.0
  0
SPLINE
  5
C0
330
5E
100
AcDbEntity
  8
$DDT_AUDIT_GENERATED_(9E)
  6
Continuous
 62
     7
100
AcDbSpline
210
0.0
220
0.0
230
1.0
 70
     8
 71
     3
 72
    10
 73
     6
 74
     0
 42
0.0000000062455084
 43
0.0000000001
 40
0.0
 40
0.0
 40
0.0
 40
0.0
 40
0.5
 40
0.5
 40
1.0
 40
1.0
 40
1.0
 40
1.0
 10
96.66651851975382
 20
274.0764097819335
 30
0.0
 10
96.39767914262022
 20
274.0764097819335
 30
0.0
 10
96.13967305869863
 20
274.1484654330189
 30
0.0
 10
95.64231323033457
 20
274.3380215804808
 30
0.0
 10
95.4031876496042
 20
274.4580764003526
 30
0.0
 10
95.16651851975382
 20
274.5764097819335
 30
0.0
  0
SPLINE
  5
C1
330
5E
100
AcDbEntity
  8
$DDT_AUDIT_GENERATED_(9E)
  6
Continuous
 62
     7
100
AcDbSpline
210
0.0
220
0.0
230
1.0
 70
     8
 71
     3
 72
    10
 73
     6
 74
     0
 42
0.0000000062455084
 43
0.0000000001
 40
0.0
 40
0.0
 40
0.0
 40
0.0
 40
0.5
 40
0.5
 40
1.0
 40
1.0
 40
1.0
 40
1.0
 10
108.522917044463
 20
274.5764097819335
 30
0.0
 10
108.2862479146127
 20
274.4580764003523
 30
0.0
 10
108.0471223338822
 20
274.3380215804808
 30
0.0
 10
107.5497625055181
 20
274.1484654330189
 30
0.0
 10
107.2917564215965
 20
274.0764097819335
 30
0.0
 10
107.022917044463
 20
274.0764097819335
 30
0.0
  0
ARC
  5
C2
330
5E
100
AcDbEntity
  8
$DDT_AUDIT_GENERATED_(9E)
  6
Continuous
 62
     7
100
AcDbCircle
 10
35.4105440309
 20
276.5764097819
 30
0.0
 40
0.5000000000000089
100
AcDbArc
 50
90.0
 51
105.0
  0
LINE
  5
C3
330
5E
100
AcDbEntity
  8
$DDT_AUDIT_GENERATED_(9E)
  6
Continuous
 62
     7
100
AcDbLine
 10
26.3447177821
 20
264.2123819109
 30
0.0
 11
26.3447177821
 21
272.8693030007
 31
0.0
  0
ARC
  5
C4
330
5E
100
AcDbEntity
  8
$DDT_AUDIT_GENERATED_(9E)
  6
Continuous
 62
     7
100
AcDbCircle
 10
31.3447177821
 20
264.2123819109
 30
0.0
 40
4.999999999999997
100
AcDbArc
 50
180.0
 51
205.6
  0
LINE
  5
C5
330
5E
100
AcDbEntity
  8
$DDT_AUDIT_GENERATED_(9E)
  6
Continuous
 62
     7
100
AcDbLine
 10
34.1525760139
 20
246.7801525355
 30
0.0
 11
26.8355551501
 21
262.0519531669
 31
0.0
  0
ARC
  5
C6
330
5E
100
AcDbEntity
  8
$DDT_AUDIT_GENERATED_(9E)
  6
Continuous
 62
     7
100
AcDbCircle
 10
36.8580735931
 20
248.0764097819
 30
0.0
 40
2.999999999999999
100
AcDbArc
 50
205.6
 51
270.0
  0
ARC
  5
C7
330
5E
100
AcDbEntity
  8
$DDT_AUDIT_GENERATED_(9E)
  6
Continuous
 62
     7
100
AcDbCircle
 10
35.1696199977
 20
249.7826954146
 30
0.0
 40
4.999999999999998
100
AcDbArc
 50
289.7362425026
 51
350.6104629154
  0
ARC
  5
C8
330
5E
100
AcDbEntity
  8
$DDT_AUDIT_GENERATED_(9E)
  6
Continuous
 62
     7
100
AcDbCircle
 10
59.0947177821
 20
245.8264097819
 30
0.0
 40
19.25
100
AcDbArc
 50
90.0
 51
170.6104629154
  0
ARC
  5
C9
330
5E
100
AcDbEntity
  8
$DDT_AUDIT_GENERATED_(9E)
  6
Continuous
 62
     7
100
AcDbCircle
 10
238.2788915333
 20
276.5764097819
 30
0.0
 40
0.5000000000000004
100
AcDbArc
 50
75.0
 51
90.0
  0
LINE
  5
CA
330
5E
100
AcDbEntity
  8
$DDT_AUDIT_GENERATED_(9E)
  6
Continuous
 62
     7
100
AcDbLine
 10
64.5947177821
 20
265.0764097819
 30
0.0
 11
59.0947177821
 21
265.0764097819
 31
0.0
  0
ARC
  5
CB
330
5E
100
AcDbEntity
  8
$DDT_AUDIT_GENERATED_(9E)
  6
Continuous
 62
     7
100
AcDbCircle
 10
64.5947177821
 20
245.8264097819
 30
0.0
 40
19.25000000000001
100
AcDbArc
 50
10.0936568592
 51
90.0
  0
LINE
  5
CC
330
5E
100
AcDbEntity
  8
$DDT_AUDIT_GENERATED_(9E)
  6
Continuous
 62
     7
100
AcDbLine
 10
238.4083010559
 20
277.0593726951
 30
0.0
 11
241.9741273047
 21
276.1039124314
 31
0.0
  0
ARC
  5
CD
330
5E
100
AcDbEntity
  8
$DDT_AUDIT_GENERATED_(9E)
  6
Continuous
 62
     7
100
AcDbCircle
 10
88.4693905547
 20
250.0764097819
 30
0.0
 40
5.000000000000001
100
AcDbArc
 50
190.0936568592
 51
270.0
  0
LINE
  5
CE
330
5E
100
AcDbEntity
  8
$DDT_AUDIT_GENERATED_(9E)
  6
Continuous
 62
     7
100
AcDbLine
 10
89.8447177821
 20
245.0764097819
 30
0.0
 11
88.4693905547
 21
245.0764097819
 31
0.0
  0
ARC
  5
CF
330
5E
100
AcDbEntity
  8
$DDT_AUDIT_GENERATED_(9E)
  6
Continuous
 62
     7
100
AcDbCircle
 10
89.8447177821
 20
250.0764097819
 30
0.0
 40
4.999999999999997
100
AcDbArc
 50
270.0
 51
0.0
  0
LINE
  5
D0
330
5E
100
AcDbEntity
  8
$DDT_AUDIT_GENERATED_(9E)
  6
Continuous
 62
     7
100
AcDbLine
 10
94.8447177821
 20
257.0764097819
 30
0.0
 11
94.8447177821
 21
250.0764097819
 31
0.0
  0
ARC
  5
D1
330
5E
100
AcDbEntity
  8
$DDT_AUDIT_GENERATED_(9E)
  6
Continuous
 62
     7
100
AcDbCircle
 10
99.8447177821
 20
257.0764097819
 30
0.0
 40
5.000000000000004
100
AcDbArc
 50
90.0
 51
180.0
  0
ARC
  5
D2
330
5E
100
AcDbEntity
  8
$DDT_AUDIT_GENERATED_(9E)
  6
Continuous
 62
     7
100
AcDbCircle
 10
242.3447177821
 20
264.2123819109
 30
0.0
 40
5.000000000000004
100
AcDbArc
 50
334.4
 51
0.0
  0
LINE
  5
D3
330
5E
100
AcDbEntity
  8
$DDT_AUDIT_GENERATED_(9E)
  6
Continuous
 62
     7
100
AcDbLine
 10
173.8447177821
 20
262.0764097819
 30
0.0
 11
99.8447177821
 21
262.0764097819
 31
0.0
  0
LINE
  5
D4
330
5E
100
AcDbEntity
  8
$DDT_AUDIT_GENERATED_(9E)
  6
Continuous
 62
     7
100
AcDbLine
 10
246.8538804141
 20
262.0519531669
 30
0.0
 11
239.5368595503
 21
246.7801525355
 31
0.0
  0
ARC
  5
D5
330
5E
100
AcDbEntity
  8
$DDT_AUDIT_GENERATED_(9E)
  6
Continuous
 62
     7
100
AcDbCircle
 10
173.8447177821
 20
257.0764097819
 30
0.0
 40
4.999999999999997
100
AcDbArc
 50
0.0
 51
90.0
  0
ARC
  5
D6
330
5E
100
AcDbEntity
  8
$DDT_AUDIT_GENERATED_(9E)
  6
Continuous
 62
     7
100
AcDbCircle
 10
236.8313619711
 20
248.0764097819
 30
0.0
 40
3.000000000000002
100
AcDbArc
 50
270.0
 51
334.4
  0
LINE
  5
D7
330
5E
100
AcDbEntity
  8
$DDT_AUDIT_GENERATED_(9E)
  6
Continuous
 62
     7
100
AcDbLine
 10
178.8447177821
 20
250.0764097819
 30
0.0
 11
178.8447177821
 21
257.0764097819
 31
0.0
  0
ARC
  5
D8
330
5E
100
AcDbEntity
  8
$DDT_AUDIT_GENERATED_(9E)
  6
Continuous
 62
     7
100
AcDbCircle
 10
238.5198155665
 20
249.7826954146
 30
0.0
 40
5.000000000000001
100
AcDbArc
 50
189.3895370846
 51
250.2637574974
  0
ARC
  5
D9
330
5E
100
AcDbEntity
  8
$DDT_AUDIT_GENERATED_(9E)
  6
Continuous
 62
     7
100
AcDbCircle
 10
183.8447177821
 20
250.0764097819
 30
0.0
 40
5.000000000000001
100
AcDbArc
 50
180.0
 51
270.0
  0
ARC
  5
DA
330
5E
100
AcDbEntity
  8
$DDT_AUDIT_GENERATED_(9E)
  6
Continuous
 62
     7
100
AcDbCircle
 10
214.5947177821
 20
245.8264097819
 30
0.0
 40
19.25
100
AcDbArc
 50
9.3895370846
 51
90.0
  0
LINE
  5
DB
330
5E
100
AcDbEntity
  8
$DDT_AUDIT_GENERATED_(9E)
  6
Continuous
 62
     7
100
AcDbLine
 10
185.2200450095
 20
245.0764097819
 30
0.0
 11
183.8447177821
 21
245.0764097819
 31
0.0
  0
LINE
  5
DC
330
5E
100
AcDbEntity
  8
$DDT_AUDIT_GENERATED_(9E)
  6
Continuous
 62
     7
100
AcDbLine
 10
214.5947177821
 20
265.0764097819
 30
0.0
 11
209.0947177821
 21
265.0764097819
 31
0.0
  0
ARC
  5
DD
330
5E
100
AcDbEntity
  8
$DDT_AUDIT_GENERATED_(9E)
  6
Continuous
 62
     7
100
AcDbCircle
 10
185.2200450095
 20
250.0764097819
 30
0.0
 40
4.999999999999997
100
AcDbArc
 50
270.0
 51
349.9063431408
  0
ARC
  5
DE
330
5E
100
AcDbEntity
  8
$DDT_AUDIT_GENERATED_(9E)
  6
Continuous
 62
     7
100
AcDbCircle
 10
209.0947177821
 20
245.8264097819
 30
0.0
 40
19.25
100
AcDbArc
 50
90.0
 51
169.9063431408
  0
ARC
  5
DF
330
5E
100
AcDbEntity
  8
$DDT_AUDIT_GENERATED_(9E)
  6
Continuous
 62
     7
100
AcDbCircle
 10
165.0961759124
 20
257.5652899962
 30
0.0
 40
72.8142091070311
100
AcDbArc
 50
350.1239632383
 51
350.5242473264
  0
ARC
  5
E0
330
5E
100
AcDbEntity
  8
$DDT_AUDIT_GENERATED_(9E)
  6
Continuous
 62
     7
100
AcDbCircle
 10
108.5932596535
 20
257.5652899965
 30
0.0
 40
72.81420910875406
100
AcDbArc
 50
189.4757526736
 51
189.8760367617
  0
LINE
  5
E1
330
5E
100
AcDbEntity
  8
$DDT_AUDIT_GENERATED_(9E)
  6
Continuous
 62
     7
100
AcDbLine
 10
31.3447177821
 20
274.2721093784
 30
0.0
 11
31.3447177821
 21
275.6209495182
 31
0.0
  0
ARC
  5
E2
330
5E
100
AcDbEntity
  8
$DDT_AUDIT_GENERATED_(9E)
  6
Continuous
 62
     7
100
AcDbCircle
 10
30.8447177821
 20
274.2721093784
 30
0.0
 40
0.5000000000000004
100
AcDbArc
 50
291.1170269289
 51
0.0
  0
LINE
  5
E3
330
5E
100
AcDbEntity
  8
$DDT_AUDIT_GENERATED_(9E)
  6
Continuous
 62
     7
100
AcDbLine
 10
26.4911643915
 20
273.2228563913
 30
0.0
 11
27.1798531285
 21
273.9115451283
 31
0.0
  0
ARC
  5
E4
330
5E
100
AcDbEntity
  8
$DDT_AUDIT_GENERATED_(9E)
  6
Continuous
 62
     7
100
AcDbCircle
 10
27.5334065191
 20
273.5579917377
 30
0.0
 40
0.4999999999999983
100
AcDbArc
 50
85.0
 51
135.0
  0
ARC
  5
E5
330
5E
100
AcDbEntity
  8
$DDT_AUDIT_GENERATED_(9E)
  6
Continuous
 62
     7
100
AcDbCircle
 10
26.8447177821
 20
272.8693030007
 30
0.0
 40
0.5000000000000031
100
AcDbArc
 50
135.0
 51
180.0
  0
LINE
  5
E6
330
5E
100
AcDbEntity
  8
$DDT_AUDIT_GENERATED_(9E)
  6
Continuous
 62
     7
100
AcDbLine
 10
31.7153082596
 20
276.1039124314
 30
0.0
 11
35.2811345084
 21
277.0593726951
 31
0.0
  0
ARC
  5
E7
330
5E
100
AcDbEntity
  8
$DDT_AUDIT_GENERATED_(9E)
  6
Continuous
 62
     7
100
AcDbCircle
 10
31.8447177821
 20
275.6209495182
 30
0.0
 40
0.5000000000000004
100
AcDbArc
 50
105.0
 51
180.0
  0
LINE
  5
E8
330
5E
100
AcDbEntity
  8
$DDT_AUDIT_GENERATED_(9E)
  6
Continuous
 62
     7
100
AcDbLine
 10
246.5095824357
 20
273.9115451283
 30
0.0
 11
247.1982711727
 21
273.2228563913
 31
0.0
  0
LINE
  5
E9
330
5E
100
AcDbEntity
  8
$DDT_AUDIT_GENERATED_(9E)
  6
Continuous
 62
     7
100
AcDbLine
 10
247.3447177821
 20
272.8693030007
 30
0.0
 11
247.3447177821
 21
264.2123819109
 31
0.0
  0
ARC
  5
EA
330
5E
100
AcDbEntity
  8
$DDT_AUDIT_GENERATED_(9E)
  6
Continuous
 62
     7
100
AcDbCircle
 10
246.8447177821
 20
272.8693030007
 30
0.0
 40
0.5000000000000031
100
AcDbArc
 50
0.0
 51
45.0
  0
ARC
  5
EB
330
5E
100
AcDbEntity
  8
$DDT_AUDIT_GENERATED_(9E)
  6
Continuous
 62
     7
100
AcDbCircle
 10
246.1560290451
 20
273.5579917377
 30
0.0
 40
0.5000000000000031
100
AcDbArc
 50
45.0
 51
95.0
  0
LINE
  5
EC
330
5E
100
AcDbEntity
  8
$DDT_AUDIT_GENERATED_(9E)
  6
Continuous
 62
     7
100
AcDbLine
 10
242.3447177821
 20
275.6209495182
 30
0.0
 11
242.3447177821
 21
274.2721093784
 31
0.0
  0
ARC
  5
ED
330
5E
100
AcDbEntity
  8
$DDT_AUDIT_GENERATED_(9E)
  6
Continuous
 62
     7
100
AcDbCircle
 10
241.8447177821
 20
275.6209495182
 30
0.0
 40
0.5000000000000004
100
AcDbArc
 50
0.0
 51
75.0
  0
ARC
  5
EE
330
5E
100
AcDbEntity
  8
$DDT_AUDIT_GENERATED_(9E)
  6
Continuous
 62
     7
100
AcDbCircle
 10
242.8447177821
 20
274.2721093784
 30
0.0
 40
0.5000000000000004
100
AcDbArc
 50
180.0
 51
248.8827061654
  0
ARC
  5
EF
330
5E
100
AcDbEntity
  8
$DDT_AUDIT_GENERATED_(9E)
  6
Continuous
 62
     7
100
AcDbCircle
 10
214.5947177821
 20
245.826409782
 30
0.0
 40
19.24999999990849
100
AcDbArc
 50
68.463824165
 51
69.4333055024
  0
ARC
  5
F0
330
5E
100
AcDbEntity
  8
$DDT_AUDIT_GENERATED_(9E)
  6
Continuous
 62
     7
100
AcDbCircle
 10
209.0947177821
 20
245.826409782
 30
0.0
 40
19.2499999999365
100
AcDbArc
 50
110.5640622876
 51
111.536175835
  0
ARC
  5
F1
330
5E
100
AcDbEntity
  8
$DDT_AUDIT_GENERATED_(9E)
  6
Continuous
 62
     7
100
AcDbCircle
 10
64.5947177821
 20
245.826409782
 30
0.0
 40
19.2499999999287
100
AcDbArc
 50
68.463824165
 51
69.4333055024
  0
ARC
  5
F2
330
5E
100
AcDbEntity
  8
$DDT_AUDIT_GENERATED_(9E)
  6
Continuous
 62
     7
100
AcDbCircle
 10
59.0947177821
 20
245.826409782
 30
0.0
 40
19.24999999996895
100
AcDbArc
 50
110.5640622876
 51
111.536175835
  0
LINE
  5
F3
330
5E
100
AcDbEntity
  8
$DDT_AUDIT_GENERATED_(9E)
  6
Continuous
 62
     7
100
AcDbLine
 10
50.8954333358
 20
277.1764097819
 30
0.0
 11
50.8954333358
 21
277.0764097819
 31
0.0
  0
LINE
  5
F4
330
5E
100
AcDbEntity
  8
$DDT_AUDIT_GENERATED_(9E)
  6
Continuous
 62
     7
100
AcDbLine
 10
59.3447177821
 20
277.1764097819
 30
0.0
 11
59.3447177821
 21
277.0764097819
 31
0.0
  0
LINE
  5
F5
330
5E
100
AcDbEntity
  8
$DDT_AUDIT_GENERATED_(9E)
  6
Continuous
 62
     7
100
AcDbLine
 10
46.8791051802
 20
277.1764097819
 30
0.0
 11
46.9629480552
 21
277.1764097819
 31
0.0
  0
LINE
  5
F6
330
5E
100
AcDbEntity
  8
$DDT_AUDIT_GENERATED_(9E)
  6
Continuous
 62
     7
100
AcDbLine
 10
46.9629480552
 20
277.1764097819
 30
0.0
 11
50.7373547733
 21
277.1764097819
 31
0.0
  0
LINE
  5
F7
330
5E
100
AcDbEntity
  8
$DDT_AUDIT_GENERATED_(9E)
  6
Continuous
 62
     7
100
AcDbLine
 10
50.7373547733
 20
277.1764097819
 30
0.0
 11
50.8954333358
 21
277.1764097819
 31
0.0
  0
LINE
  5
F8
330
5E
100
AcDbEntity
  8
$DDT_AUDIT_GENERATED_(9E)
  6
Continuous
 62
     7
100
AcDbLine
 10
50.8954333358
 20
277.1764097819
 30
0.0
 11
51.0954333358
 21
277.1764097819
 31
0.0
  0
LINE
  5
F9
330
5E
100
AcDbEntity
  8
$DDT_AUDIT_GENERATED_(9E)
  6
Continuous
 62
     7
100
AcDbLine
 10
51.0954333358
 20
277.1764097819
 30
0.0
 11
59.1447177821
 21
277.1764097819
 31
0.0
  0
LINE
  5
FA
330
5E
100
AcDbEntity
  8
$DDT_AUDIT_GENERATED_(9E)
  6
Continuous
 62
     7
100
AcDbLine
 10
59.1447177821
 20
277.1764097819
 30
0.0
 11
59.3447177821
 21
277.1764097819
 31
0.0
  0
LINE
  5
FB
330
5E
100
AcDbEntity
  8
$DDT_AUDIT_GENERATED_(9E)
  6
Continuous
 62
     7
100
AcDbLine
 10
226.726487509
 20
277.1764097819
 30
0.0
 11
226.8103303841
 21
277.1764097819
 31
0.0
  0
LINE
  5
FC
330
5E
100
AcDbEntity
  8
$DDT_AUDIT_GENERATED_(9E)
  6
Continuous
 62
     7
100
AcDbLine
 10
226.726487509
 20
277.1764097819
 30
0.0
 11
222.9520807909
 21
277.1764097819
 31
0.0
  0
LINE
  5
FD
330
5E
100
AcDbEntity
  8
$DDT_AUDIT_GENERATED_(9E)
  6
Continuous
 62
     7
100
AcDbLine
 10
222.9520807909
 20
277.1764097819
 30
0.0
 11
222.7940022284
 21
277.1764097819
 31
0.0
  0
LINE
  5
FE
330
5E
100
AcDbEntity
  8
$DDT_AUDIT_GENERATED_(9E)
  6
Continuous
 62
     7
100
AcDbLine
 10
222.7940022284
 20
277.1764097819
 30
0.0
 11
222.7940022284
 21
277.0764097819
 31
0.0
  0
LINE
  5
FF
330
5E
100
AcDbEntity
  8
$DDT_AUDIT_GENERATED_(9E)
  6
Continuous
 62
     7
100
AcDbLine
 10
222.7940022284
 20
277.1764097819
 30
0.0
 11
222.5940022284
 21
277.1764097819
 31
0.0
  0
LINE
  5
100
330
5E
100
AcDbEntity
  8
$DDT_AUDIT_GENERATED_(9E)
  6
Continuous
 62
     7
100
AcDbLine
 10
222.5940022284
 20
277.1764097819
 30
0.0
 11
214.5447177821
 21
277.1764097819
 31
0.0
  0
LINE
  5
101
330
5E
100
AcDbEntity
  8
$DDT_AUDIT_GENERATED_(9E)
  6
Continuous
 62
     7
100
AcDbLine
 10
214.5447177821
 20
277.1764097819
 30
0.0
 11
214.3447177821
 21
277.1764097819
 31
0.0
  0
LINE
  5
102
330
5E
100
AcDbEntity
  8
$DDT_AUDIT_GENERATED_(9E)
  6
Continuous
 62
     7
100
AcDbLine
 10
214.3447177821
 20
277.1764097819
 30
0.0
 11
214.3447177821
 21
277.0764097819
 31
0.0
  0
LINE
  5
103
330
5E
100
AcDbEntity
  8
$DDT_AUDIT_GENERATED_(9E)
  6
Continuous
 62
     7
100
AcDbLine
 10
46.8791051802
 20
277.1764097819
 30
0.0
 11
46.8791051802
 21
277.0764097819
 31
0.0
  0
LINE
  5
104
330
5E
100
AcDbEntity
  8
$DDT_AUDIT_GENERATED_(9E)
  6
Continuous
 62
     7
100
AcDbLine
 10
226.8103303841
 20
277.0764097819
 30
0.0
 11
226.8103303841
 21
277.1764097819
 31
0.0
  0
LINE
  5
106
330
5E
100
AcDbEntity
  8
$DDT_AUDIT_GENERATED_(105)
  6
Continuous
 62
     7
100
AcDbLine
 10
137.1447177821
 20
279.6764097819
 30
0.0
 11
136.5447177821
 21
279.6764097819
 31
0.0
  0
LINE
  5
107
330
5E
100
AcDbEntity
  8
$DDT_AUDIT_GENERATED_(105)
  6
Continuous
 62
     7
100
AcDbLine
 10
137.1447177821
 20
280.0764097819
 30
0.0
 11
137.1447177821
 21
279.6764097819
 31
0.0
  0
LINE
  5
108
330
5E
100
AcDbEntity
  8
$DDT_AUDIT_GENERATED_(105)
  6
Continuous
 62
     7
100
AcDbLine
 10
136.5447177821
 20
279.6764097819
 30
0.0
 11
136.5447177821
 21
280.0764097819
 31
0.0
  0
LINE
  5
109
330
5E
100
AcDbEntity
  8
$DDT_AUDIT_GENERATED_(105)
  6
Continuous
 62
     7
100
AcDbLine
 10
134.8447177821
 20
280.0764097819
 30
0.0
 11
134.8447177821
 21
277.0764097819
 31
0.0
  0
LINE
  5
10A
330
5E
100
AcDbEntity
  8
$DDT_AUDIT_GENERATED_(105)
  6
Continuous
 62
     7
100
AcDbLine
 10
138.8447177821
 20
277.0764097819
 30
0.0
 11
138.8447177821
 21
280.0764097819
 31
0.0
  0
LINE
  5
10B
330
5E
100
AcDbEntity
  8
$DDT_AUDIT_GENERATED_(105)
  6
Continuous
 62
     7
100
AcDbLine
 10
135.2747177821
 20
277.0764097819
 30
0.0
 11
135.2747177821
 21
280.0764097819
 31
0.0
  0
LINE
  5
10C
330
5E
100
AcDbEntity
  8
$DDT_AUDIT_GENERATED_(105)
  6
Continuous
 62
     7
100
AcDbLine
 10
138.4147177821
 20
277.0764097819
 30
0.0
 11
138.4147177821
 21
280.0764097819
 31
0.0
  0
LINE
  5
10E
330
5E
100
AcDbEntity
  8
$DDT_AUDIT_GENERATED_(10D)
  6
Continuous
 62
     7
100
AcDbLine
 10
208.2849462982
 20
265.0621454396
 30
0.0
 11
202.1447177821
 21
262.0673558911
 31
0.0
  0
LINE
  5
10F
330
5E
100
AcDbEntity
  8
$DDT_AUDIT_GENERATED_(10D)
  6
Continuous
 62
     7
100
AcDbLine
 10
209.0447177821
 20
264.8764097819
 30
0.0
 11
202.1447177821
 21
261.5110549208
 31
0.0
  0
LINE
  5
110
330
5E
100
AcDbEntity
  8
$DDT_AUDIT_GENERATED_(10D)
  6
Continuous
 62
     7
100
AcDbLine
 10
202.1447177821
 20
262.0673558911
 30
0.0
 11
202.1447177821
 21
261.5110549208
 31
0.0
  0
LINE
  5
111
330
5E
100
AcDbEntity
  8
$DDT_AUDIT_GENERATED_(10D)
  6
Continuous
 62
     7
100
AcDbLine
 10
209.0447177821
 20
264.8764097819
 30
0.0
 11
209.0447177821
 21
265.0763448468
 31
0.0
  0
LINE
  5
112
330
5E
100
AcDbEntity
  8
$DDT_AUDIT_GENERATED_(10D)
  6
Continuous
 62
     7
100
AcDbLine
 10
202.3447177821
 20
263.8541661593
 30
0.0
 11
202.3447177821
 21
262.1649024088
 31
0.0
  0
LINE
  5
113
330
5E
100
AcDbEntity
  8
$DDT_AUDIT_GENERATED_(10D)
  6
Continuous
 62
     7
100
AcDbLine
 10
221.5447177821
 20
262.0673558911
 30
0.0
 11
215.4107190052
 21
265.0591069928
 31
0.0
  0
LINE
  5
114
330
5E
100
AcDbEntity
  8
$DDT_AUDIT_GENERATED_(10D)
  6
Continuous
 62
     7
100
AcDbLine
 10
221.5447177821
 20
261.5110549208
 30
0.0
 11
214.6447177821
 21
264.8764097819
 31
0.0
  0
LINE
  5
115
330
5E
100
AcDbEntity
  8
$DDT_AUDIT_GENERATED_(10D)
  6
Continuous
 62
     7
100
AcDbLine
 10
214.6447177821
 20
265.0763448468
 30
0.0
 11
214.6447177821
 21
264.8764097819
 31
0.0
  0
LINE
  5
116
330
5E
100
AcDbEntity
  8
$DDT_AUDIT_GENERATED_(10D)
  6
Continuous
 62
     7
100
AcDbLine
 10
221.5447177821
 20
261.5110549208
 30
0.0
 11
221.5447177821
 21
262.0673558911
 31
0.0
  0
LINE
  5
117
330
5E
100
AcDbEntity
  8
$DDT_AUDIT_GENERATED_(10D)
  6
Continuous
 62
     7
100
AcDbLine
 10
221.3447177821
 20
262.1649024088
 30
0.0
 11
221.3447177821
 21
263.8541661593
 31
0.0
  0
ARC
  5
119
330
5E
100
AcDbEntity
  8
$DDT_AUDIT_GENERATED_(118)
  6
Continuous
 62
     7
100
AcDbCircle
 10
183.2861694329
 20
248.2414767278
 30
0.0
 40
0.3000000000000052
100
AcDbArc
 50
24.6
 51
59.6968012275
  0
LINE
  5
11A
330
5E
100
AcDbEntity
  8
$DDT_AUDIT_GENERATED_(118)
  6
Continuous
 62
     7
100
AcDbLine
 10
188.8642143558
 20
236.7786373402
 30
0.0
 11
185.06519752
 21
245.0764097819
 31
0.0
  0
LINE
  5
11B
330
5E
100
AcDbEntity
  8
$DDT_AUDIT_GENERATED_(118)
  6
Continuous
 62
     7
100
AcDbLine
 10
183.6314858582
 20
248.2079076485
 30
0.0
 11
183.5589402656
 21
248.3663609655
 31
0.0
  0
ARC
  5
11C
330
5E
100
AcDbEntity
  8
$DDT_AUDIT_GENERATED_(118)
  6
Continuous
 62
     7
100
AcDbCircle
 10
209.0947177821
 20
246.040884968
 30
0.0
 40
22.25
100
AcDbArc
 50
204.6
 51
270.0
  0
LINE
  5
11D
330
5E
100
AcDbEntity
  8
$DDT_AUDIT_GENERATED_(118)
  6
Continuous
 62
     7
100
AcDbLine
 10
214.5947177821
 20
223.790884968
 30
0.0
 11
209.0947177821
 21
223.790884968
 31
0.0
  0
ARC
  5
11E
330
5E
100
AcDbEntity
  8
$DDT_AUDIT_GENERATED_(118)
  6
Continuous
 62
     7
100
AcDbCircle
 10
214.5947177821
 20
246.040884968
 30
0.0
 40
22.25000000000002
100
AcDbArc
 50
270.0
 51
334.4
  0
LINE
  5
11F
330
5E
100
AcDbEntity
  8
$DDT_AUDIT_GENERATED_(118)
  6
Continuous
 62
     7
100
AcDbLine
 10
246.6743118216
 20
261.501754384
 30
0.0
 11
234.6604914946
 21
236.4269770572
 31
0.0
  0
ARC
  5
120
330
5E
100
AcDbEntity
  8
$DDT_AUDIT_GENERATED_(118)
  6
Continuous
 62
     7
100
AcDbCircle
 10
239.4596516104
 20
264.9584403744
 30
0.0
 40
7.999999999999993
100
AcDbArc
 50
334.4
 51
0.0
  0
LINE
  5
121
330
5E
100
AcDbEntity
  8
$DDT_AUDIT_GENERATED_(118)
  6
Continuous
 62
     7
100
AcDbLine
 10
231.9549939154
 20
237.7232343036
 30
0.0
 11
235.7412733799
 21
245.625809162
 31
0.0
  0
ARC
  5
122
330
5E
100
AcDbEntity
  8
$DDT_AUDIT_GENERATED_(118)
  6
Continuous
 62
     7
100
AcDbCircle
 10
214.5947177821
 20
246.040884968
 30
0.0
 40
19.25
100
AcDbArc
 50
270.0
 51
334.4
  0
LINE
  5
123
330
5E
100
AcDbEntity
  8
$DDT_AUDIT_GENERATED_(118)
  6
Continuous
 62
     7
100
AcDbLine
 10
209.0947177821
 20
226.790884968
 30
0.0
 11
214.5947177821
 21
226.790884968
 31
0.0
  0
ARC
  5
124
330
5E
100
AcDbEntity
  8
$DDT_AUDIT_GENERATED_(118)
  6
Continuous
 62
     7
100
AcDbCircle
 10
209.0947177821
 20
246.040884968
 30
0.0
 40
19.2499999999957
100
AcDbArc
 50
204.6
 51
270.0
  0
LINE
  5
125
330
5E
100
AcDbEntity
  8
$DDT_AUDIT_GENERATED_(118)
  6
Continuous
 62
     7
100
AcDbLine
 10
186.2866485928
 20
249.6152033422
 30
0.0
 11
186.2893865518
 21
249.609223121
 31
0.0
  0
LINE
  5
126
330
5E
100
AcDbEntity
  8
$DDT_AUDIT_GENERATED_(118)
  6
Continuous
 62
     7
100
AcDbLine
 10
187.9833173555
 20
245.9093573535
 30
0.0
 11
191.591922683
 21
238.027479717
 31
0.0
  0
ARC
  5
127
330
5E
100
AcDbEntity
  8
$DDT_AUDIT_GENERATED_(118)
  6
Continuous
 62
     7
100
AcDbCircle
 10
186.5594194255
 20
249.7400875799
 30
0.0
 40
0.299999999999996
100
AcDbArc
 50
169.5031987724
 51
204.6
  0
ARC
  5
128
330
5E
100
AcDbEntity
  8
$DDT_AUDIT_GENERATED_(118)
  6
Continuous
 62
     7
100
AcDbCircle
 10
184.3962362493
 20
250.140884968
 30
0.0
 40
1.900000000000002
100
AcDbArc
 50
181.414481014
 51
358.585518986
  0
ARC
  5
129
330
5E
100
AcDbEntity
  8
$DDT_AUDIT_GENERATED_(118)
  6
Continuous
 62
     7
100
AcDbCircle
 10
184.3962362493
 20
250.140884968
 30
0.0
 40
1.900000000000002
100
AcDbArc
 50
358.585518986
 51
181.414481014
  0
LINE
  5
12A
330
5E
100
AcDbEntity
  8
$DDT_AUDIT_GENERATED_(118)
  6
Continuous
 62
     7
100
AcDbLine
 10
247.1857983332
 20
274.1499947953
 30
0.0
 11
242.8357983332
 21
273.7694191089
 31
0.0
  0
LINE
  5
12B
330
5E
100
AcDbEntity
  8
$DDT_AUDIT_GENERATED_(118)
  6
Continuous
 62
     7
100
AcDbLine
 10
247.4596516104
 20
273.8465613022
 30
0.0
 11
247.4596516104
 21
273.140884968
 31
0.0
  0
LINE
  5
12C
330
5E
100
AcDbEntity
  8
$DDT_AUDIT_GENERATED_(118)
  6
Continuous
 62
     7
100
AcDbLine
 10
247.4596516104
 20
276.840884968
 30
0.0
 11
247.4596516104
 21
274.4488532047
 31
0.0
  0
LINE
  5
12D
330
5E
100
AcDbEntity
  8
$DDT_AUDIT_GENERATED_(118)
  6
Continuous
 62
     7
100
AcDbLine
 10
242.5096516104
 20
276.840884968
 30
0.0
 11
242.5096516104
 21
274.0682775184
 31
0.0
  0
LINE
  5
12E
330
5E
100
AcDbEntity
  8
$DDT_AUDIT_GENERATED_(118)
  6
Continuous
 62
     7
100
AcDbLine
 10
242.8096516104
 20
277.140884968
 30
0.0
 11
247.1596516104
 21
277.140884968
 31
0.0
  0
ARC
  5
12F
330
5E
100
AcDbEntity
  8
$DDT_AUDIT_GENERATED_(118)
  6
Continuous
 62
     7
100
AcDbCircle
 10
242.8096516104
 20
274.0682775184
 30
0.0
 40
0.2999999999999947
100
AcDbArc
 50
180.0
 51
185.0
  0
LINE
  5
130
330
5E
100
AcDbEntity
  8
$DDT_AUDIT_GENERATED_(118)
  6
Continuous
 62
     7
100
AcDbLine
 10
247.4596516104
 20
274.4488532047
 30
0.0
 11
247.4596516104
 21
273.8465613022
 31
0.0
  0
ARC
  5
131
330
5E
100
AcDbEntity
  8
$DDT_AUDIT_GENERATED_(118)
  6
Continuous
 62
     7
100
AcDbCircle
 10
242.8096516104
 20
276.840884968
 30
0.0
 40
0.2999999999999947
100
AcDbArc
 50
90.0
 51
180.0
  0
ARC
  5
132
330
5E
100
AcDbEntity
  8
$DDT_AUDIT_GENERATED_(118)
  6
Continuous
 62
     7
100
AcDbCircle
 10
242.8096516104
 20
274.0682775184
 30
0.0
 40
0.2999999999999945
100
AcDbArc
 50
185.0
 51
275.0
  0
ARC
  5
133
330
5E
100
AcDbEntity
  8
$DDT_AUDIT_GENERATED_(118)
  6
Continuous
 62
     7
100
AcDbCircle
 10
247.1596516104
 20
274.4488532047
 30
0.0
 40
0.2999999999999947
100
AcDbArc
 50
275.0
 51
0.0
  0
ARC
  5
134
330
5E
100
AcDbEntity
  8
$DDT_AUDIT_GENERATED_(118)
  6
Continuous
 62
     7
100
AcDbCircle
 10
247.1596516104
 20
276.840884968
 30
0.0
 40
0.3000000000000017
100
AcDbArc
 50
0.0
 51
90.0
  0
LINE
  5
135
330
5E
100
AcDbEntity
  8
$DDT_AUDIT_GENERATED_(118)
  6
Continuous
 62
     7
100
AcDbLine
 10
247.6096516104
 20
275.890884968
 30
0.0
 11
247.5596516104
 21
275.890884968
 31
0.0
  0
ARC
  5
136
330
5E
100
AcDbEntity
  8
$DDT_AUDIT_GENERATED_(118)
  6
Continuous
 62
     7
100
AcDbCircle
 10
247.6096516104
 20
276.140884968
 30
0.0
 40
0.2500000000000002
100
AcDbArc
 50
270.0
 51
90.0
  0
LINE
  5
137
330
5E
100
AcDbEntity
  8
$DDT_AUDIT_GENERATED_(118)
  6
Continuous
 62
     7
100
AcDbLine
 10
247.6096516104
 20
265.390884968
 30
0.0
 11
247.5596516104
 21
265.390884968
 31
0.0
  0
ARC
  5
138
330
5E
100
AcDbEntity
  8
$DDT_AUDIT_GENERATED_(118)
  6
Continuous
 62
     7
100
AcDbCircle
 10
247.6096516104
 20
265.640884968
 30
0.0
 40
0.2500000000000002
100
AcDbArc
 50
270.0
 51
90.0
  0
LINE
  5
139
330
5E
100
AcDbEntity
  8
$DDT_AUDIT_GENERATED_(118)
  6
Continuous
 62
     7
100
AcDbLine
 10
247.6096516104
 20
266.890884968
 30
0.0
 11
247.5596516104
 21
266.890884968
 31
0.0
  0
ARC
  5
13A
330
5E
100
AcDbEntity
  8
$DDT_AUDIT_GENERATED_(118)
  6
Continuous
 62
     7
100
AcDbCircle
 10
247.6096516104
 20
267.140884968
 30
0.0
 40
0.2500000000000002
100
AcDbArc
 50
270.0
 51
90.0
  0
LINE
  5
13B
330
5E
100
AcDbEntity
  8
$DDT_AUDIT_GENERATED_(118)
  6
Continuous
 62
     7
100
AcDbLine
 10
247.6096516104
 20
268.390884968
 30
0.0
 11
247.5596516104
 21
268.390884968
 31
0.0
  0
ARC
  5
13C
330
5E
100
AcDbEntity
  8
$DDT_AUDIT_GENERATED_(118)
  6
Continuous
 62
     7
100
AcDbCircle
 10
247.6096516104
 20
268.640884968
 30
0.0
 40
0.2500000000000002
100
AcDbArc
 50
270.0
 51
90.0
  0
LINE
  5
13D
330
5E
100
AcDbEntity
  8
$DDT_AUDIT_GENERATED_(118)
  6
Continuous
 62
     7
100
AcDbLine
 10
247.6096516104
 20
269.890884968
 30
0.0
 11
247.5596516104
 21
269.890884968
 31
0.0
  0
ARC
  5
13E
330
5E
100
AcDbEntity
  8
$DDT_AUDIT_GENERATED_(118)
  6
Continuous
 62
     7
100
AcDbCircle
 10
247.6096516104
 20
270.140884968
 30
0.0
 40
0.2500000000000002
100
AcDbArc
 50
270.0
 51
90.0
  0
LINE
  5
13F
330
5E
100
AcDbEntity
  8
$DDT_AUDIT_GENERATED_(118)
  6
Continuous
 62
     7
100
AcDbLine
 10
247.6096516104
 20
271.390884968
 30
0.0
 11
247.5596516104
 21
271.390884968
 31
0.0
  0
ARC
  5
140
330
5E
100
AcDbEntity
  8
$DDT_AUDIT_GENERATED_(118)
  6
Continuous
 62
     7
100
AcDbCircle
 10
247.6096516104
 20
271.640884968
 30
0.0
 40
0.2500000000000002
100
AcDbArc
 50
270.0
 51
90.0
  0
LINE
  5
141
330
5E
100
AcDbEntity
  8
$DDT_AUDIT_GENERATED_(118)
  6
Continuous
 62
     7
100
AcDbLine
 10
247.6096516104
 20
272.890884968
 30
0.0
 11
247.5596516104
 21
272.890884968
 31
0.0
  0
ARC
  5
142
330
5E
100
AcDbEntity
  8
$DDT_AUDIT_GENERATED_(118)
  6
Continuous
 62
     7
100
AcDbCircle
 10
247.6096516104
 20
273.140884968
 30
0.0
 40
0.2500000000000002
100
AcDbArc
 50
270.0
 51
90.0
  0
LINE
  5
143
330
5E
100
AcDbEntity
  8
$DDT_AUDIT_GENERATED_(118)
  6
Continuous
 62
     7
100
AcDbLine
 10
247.6096516104
 20
274.390884968
 30
0.0
 11
247.5596516104
 21
274.390884968
 31
0.0
  0
ARC
  5
144
330
5E
100
AcDbEntity
  8
$DDT_AUDIT_GENERATED_(118)
  6
Continuous
 62
     7
100
AcDbCircle
 10
247.6096516104
 20
274.640884968
 30
0.0
 40
0.2500000000000002
100
AcDbArc
 50
270.0
 51
90.0
  0
LINE
  5
145
330
5E
100
AcDbEntity
  8
$DDT_AUDIT_GENERATED_(118)
  6
Continuous
 62
     7
100
AcDbLine
 10
247.5596516104
 20
276.390884968
 30
0.0
 11
247.6096516104
 21
276.390884968
 31
0.0
  0
ARC
  5
146
330
5E
100
AcDbEntity
  8
$DDT_AUDIT_GENERATED_(118)
  6
Continuous
 62
     7
100
AcDbCircle
 10
247.5596516104
 20
276.490884968
 30
0.0
 40
0.1000000000000029
100
AcDbArc
 50
180.0
 51
270.0
  0
ARC
  5
147
330
5E
100
AcDbEntity
  8
$DDT_AUDIT_GENERATED_(118)
  6
Continuous
 62
     7
100
AcDbCircle
 10
247.5596516104
 20
275.790884968
 30
0.0
 40
0.1000000000000029
100
AcDbArc
 50
90.0
 51
180.0
  0
LINE
  5
148
330
5E
100
AcDbEntity
  8
$DDT_AUDIT_GENERATED_(118)
  6
Continuous
 62
     7
100
AcDbLine
 10
247.5596516104
 20
265.890884968
 30
0.0
 11
247.6096516104
 21
265.890884968
 31
0.0
  0
LINE
  5
149
330
5E
100
AcDbEntity
  8
$DDT_AUDIT_GENERATED_(118)
  6
Continuous
 62
     7
100
AcDbLine
 10
247.4596516104
 20
265.640884968
 30
0.0
 11
247.4596516104
 21
264.9584403744
 31
0.0
  0
ARC
  5
14A
330
5E
100
AcDbEntity
  8
$DDT_AUDIT_GENERATED_(118)
  6
Continuous
 62
     7
100
AcDbCircle
 10
247.5596516104
 20
265.290884968
 30
0.0
 40
0.1000000000000167
100
AcDbArc
 50
90.0
 51
180.0
  0
ARC
  5
14B
330
5E
100
AcDbEntity
  8
$DDT_AUDIT_GENERATED_(118)
  6
Continuous
 62
     7
100
AcDbCircle
 10
247.5596516104
 20
265.990884968
 30
0.0
 40
0.1000000000000167
100
AcDbArc
 50
180.0
 51
270.0
  0
LINE
  5
14C
330
5E
100
AcDbEntity
  8
$DDT_AUDIT_GENERATED_(118)
  6
Continuous
 62
     7
100
AcDbLine
 10
247.5596516104
 20
267.390884968
 30
0.0
 11
247.6096516104
 21
267.390884968
 31
0.0
  0
LINE
  5
14D
330
5E
100
AcDbEntity
  8
$DDT_AUDIT_GENERATED_(118)
  6
Continuous
 62
     7
100
AcDbLine
 10
247.4596516104
 20
267.140884968
 30
0.0
 11
247.4596516104
 21
265.640884968
 31
0.0
  0
ARC
  5
14E
330
5E
100
AcDbEntity
  8
$DDT_AUDIT_GENERATED_(118)
  6
Continuous
 62
     7
100
AcDbCircle
 10
247.5596516104
 20
266.790884968
 30
0.0
 40
0.1000000000000167
100
AcDbArc
 50
90.0
 51
180.0
  0
ARC
  5
14F
330
5E
100
AcDbEntity
  8
$DDT_AUDIT_GENERATED_(118)
  6
Continuous
 62
     7
100
AcDbCircle
 10
247.5596516104
 20
267.490884968
 30
0.0
 40
0.1000000000000167
100
AcDbArc
 50
180.0
 51
270.0
  0
LINE
  5
150
330
5E
100
AcDbEntity
  8
$DDT_AUDIT_GENERATED_(118)
  6
Continuous
 62
     7
100
AcDbLine
 10
247.5596516104
 20
268.890884968
 30
0.0
 11
247.6096516104
 21
268.890884968
 31
0.0
  0
LINE
  5
151
330
5E
100
AcDbEntity
  8
$DDT_AUDIT_GENERATED_(118)
  6
Continuous
 62
     7
100
AcDbLine
 10
247.4596516104
 20
268.640884968
 30
0.0
 11
247.4596516104
 21
267.140884968
 31
0.0
  0
ARC
  5
152
330
5E
100
AcDbEntity
  8
$DDT_AUDIT_GENERATED_(118)
  6
Continuous
 62
     7
100
AcDbCircle
 10
247.5596516104
 20
268.290884968
 30
0.0
 40
0.1000000000000167
100
AcDbArc
 50
90.0
 51
180.0
  0
ARC
  5
153
330
5E
100
AcDbEntity
  8
$DDT_AUDIT_GENERATED_(118)
  6
Continuous
 62
     7
100
AcDbCircle
 10
247.5596516104
 20
268.990884968
 30
0.0
 40
0.1000000000000167
100
AcDbArc
 50
180.0
 51
270.0
  0
LINE
  5
154
330
5E
100
AcDbEntity
  8
$DDT_AUDIT_GENERATED_(118)
  6
Continuous
 62
     7
100
AcDbLine
 10
247.4596516104
 20
270.140884968
 30
0.0
 11
247.4596516104
 21
268.640884968
 31
0.0
  0
LINE
  5
155
330
5E
100
AcDbEntity
  8
$DDT_AUDIT_GENERATED_(118)
  6
Continuous
 62
     7
100
AcDbLine
 10
247.5596516104
 20
270.390884968
 30
0.0
 11
247.6096516104
 21
270.390884968
 31
0.0
  0
ARC
  5
156
330
5E
100
AcDbEntity
  8
$DDT_AUDIT_GENERATED_(118)
  6
Continuous
 62
     7
100
AcDbCircle
 10
247.5596516104
 20
269.790884968
 30
0.0
 40
0.1000000000000167
100
AcDbArc
 50
90.0
 51
180.0
  0
ARC
  5
157
330
5E
100
AcDbEntity
  8
$DDT_AUDIT_GENERATED_(118)
  6
Continuous
 62
     7
100
AcDbCircle
 10
247.5596516104
 20
270.490884968
 30
0.0
 40
0.1000000000000029
100
AcDbArc
 50
180.0
 51
270.0
  0
LINE
  5
158
330
5E
100
AcDbEntity
  8
$DDT_AUDIT_GENERATED_(118)
  6
Continuous
 62
     7
100
AcDbLine
 10
247.5596516104
 20
271.890884968
 30
0.0
 11
247.6096516104
 21
271.890884968
 31
0.0
  0
LINE
  5
159
330
5E
100
AcDbEntity
  8
$DDT_AUDIT_GENERATED_(118)
  6
Continuous
 62
     7
100
AcDbLine
 10
247.4596516104
 20
271.640884968
 30
0.0
 11
247.4596516104
 21
270.140884968
 31
0.0
  0
ARC
  5
15A
330
5E
100
AcDbEntity
  8
$DDT_AUDIT_GENERATED_(118)
  6
Continuous
 62
     7
100
AcDbCircle
 10
247.5596516104
 20
271.290884968
 30
0.0
 40
0.1000000000000167
100
AcDbArc
 50
90.0
 51
180.0
  0
ARC
  5
15B
330
5E
100
AcDbEntity
  8
$DDT_AUDIT_GENERATED_(118)
  6
Continuous
 62
     7
100
AcDbCircle
 10
247.5596516104
 20
271.990884968
 30
0.0
 40
0.1000000000000167
100
AcDbArc
 50
180.0
 51
270.0
  0
LINE
  5
15C
330
5E
100
AcDbEntity
  8
$DDT_AUDIT_GENERATED_(118)
  6
Continuous
 62
     7
100
AcDbLine
 10
247.5596516104
 20
273.390884968
 30
0.0
 11
247.6096516104
 21
273.390884968
 31
0.0
  0
LINE
  5
15D
330
5E
100
AcDbEntity
  8
$DDT_AUDIT_GENERATED_(118)
  6
Continuous
 62
     7
100
AcDbLine
 10
247.4596516104
 20
273.140884968
 30
0.0
 11
247.4596516104
 21
271.640884968
 31
0.0
  0
ARC
  5
15E
330
5E
100
AcDbEntity
  8
$DDT_AUDIT_GENERATED_(118)
  6
Continuous
 62
     7
100
AcDbCircle
 10
247.5596516104
 20
272.790884968
 30
0.0
 40
0.1000000000000167
100
AcDbArc
 50
90.0
 51
180.0
  0
ARC
  5
15F
330
5E
100
AcDbEntity
  8
$DDT_AUDIT_GENERATED_(118)
  6
Continuous
 62
     7
100
AcDbCircle
 10
247.5596516104
 20
273.490884968
 30
0.0
 40
0.1000000000000167
100
AcDbArc
 50
180.0
 51
270.0
  0
LINE
  5
160
330
5E
100
AcDbEntity
  8
$DDT_AUDIT_GENERATED_(118)
  6
Continuous
 62
     7
100
AcDbLine
 10
247.5596516104
 20
274.890884968
 30
0.0
 11
247.6096516104
 21
274.890884968
 31
0.0
  0
ARC
  5
161
330
5E
100
AcDbEntity
  8
$DDT_AUDIT_GENERATED_(118)
  6
Continuous
 62
     7
100
AcDbCircle
 10
247.5596516104
 20
274.290884968
 30
0.0
 40
0.1000000000000167
100
AcDbArc
 50
90.0
 51
180.0
  0
ARC
  5
162
330
5E
100
AcDbEntity
  8
$DDT_AUDIT_GENERATED_(118)
  6
Continuous
 62
     7
100
AcDbCircle
 10
247.5596516104
 20
274.990884968
 30
0.0
 40
0.1000000000000029
100
AcDbArc
 50
180.0
 51
270.0
  0
LINE
  5
163
330
5E
100
AcDbEntity
  8
$DDT_AUDIT_GENERATED_(118)
  6
Continuous
 62
     7
100
AcDbLine
 10
37.9481621843
 20
245.625809162
 30
0.0
 11
41.7344416488
 21
237.7232343036
 31
0.0
  0
ARC
  5
164
330
5E
100
AcDbEntity
  8
$DDT_AUDIT_GENERATED_(118)
  6
Continuous
 62
     7
100
AcDbCircle
 10
59.0947177821
 20
246.040884968
 30
0.0
 40
19.25000000000001
100
AcDbArc
 50
205.6
 51
270.0
  0
LINE
  5
165
330
5E
100
AcDbEntity
  8
$DDT_AUDIT_GENERATED_(118)
  6
Continuous
 62
     7
100
AcDbLine
 10
59.0947177821
 20
226.790884968
 30
0.0
 11
64.5947177821
 21
226.790884968
 31
0.0
  0
ARC
  5
166
330
5E
100
AcDbEntity
  8
$DDT_AUDIT_GENERATED_(118)
  6
Continuous
 62
     7
100
AcDbCircle
 10
64.5947177821
 20
246.040884968
 30
0.0
 40
19.24999999999571
100
AcDbArc
 50
270.0
 51
335.4
  0
ARC
  5
167
330
5E
100
AcDbEntity
  8
$DDT_AUDIT_GENERATED_(118)
  6
Continuous
 62
     7
100
AcDbCircle
 10
87.1300161387
 20
249.7400875799
 30
0.0
 40
0.3000000000000052
100
AcDbArc
 50
335.4
 51
10.4968012276
  0
LINE
  5
168
330
5E
100
AcDbEntity
  8
$DDT_AUDIT_GENERATED_(118)
  6
Continuous
 62
     7
100
AcDbLine
 10
82.0975128813
 20
238.027479717
 30
0.0
 11
85.7061182087
 21
245.9093573535
 31
0.0
  0
LINE
  5
169
330
5E
100
AcDbEntity
  8
$DDT_AUDIT_GENERATED_(118)
  6
Continuous
 62
     7
100
AcDbLine
 10
87.4000490124
 20
249.609223121
 30
0.0
 11
87.4027869715
 21
249.6152033422
 31
0.0
  0
ARC
  5
16A
330
5E
100
AcDbEntity
  8
$DDT_AUDIT_GENERATED_(118)
  6
Continuous
 62
     7
100
AcDbCircle
 10
90.4032661313
 20
248.2414767278
 30
0.0
 40
0.3000000000000006
100
AcDbArc
 50
120.3031987725
 51
155.4
  0
LINE
  5
16B
330
5E
100
AcDbEntity
  8
$DDT_AUDIT_GENERATED_(118)
  6
Continuous
 62
     7
100
AcDbLine
 10
90.1304952986
 20
248.3663609655
 30
0.0
 11
90.057949706
 21
248.2079076485
 31
0.0
  0
LINE
  5
16C
330
5E
100
AcDbEntity
  8
$DDT_AUDIT_GENERATED_(118)
  6
Continuous
 62
     7
100
AcDbLine
 10
88.6242380442
 20
245.0764097819
 30
0.0
 11
84.8252212084
 21
236.7786373402
 31
0.0
  0
ARC
  5
16D
330
5E
100
AcDbEntity
  8
$DDT_AUDIT_GENERATED_(118)
  6
Continuous
 62
     7
100
AcDbCircle
 10
64.5947177821
 20
246.040884968
 30
0.0
 40
22.24999999999999
100
AcDbArc
 50
270.0
 51
335.4
  0
LINE
  5
16E
330
5E
100
AcDbEntity
  8
$DDT_AUDIT_GENERATED_(118)
  6
Continuous
 62
     7
100
AcDbLine
 10
64.5947177821
 20
223.790884968
 30
0.0
 11
59.0947177821
 21
223.790884968
 31
0.0
  0
ARC
  5
16F
330
5E
100
AcDbEntity
  8
$DDT_AUDIT_GENERATED_(118)
  6
Continuous
 62
     7
100
AcDbCircle
 10
59.0947177821
 20
246.040884968
 30
0.0
 40
22.25
100
AcDbArc
 50
205.6
 51
270.0
  0
LINE
  5
170
330
5E
100
AcDbEntity
  8
$DDT_AUDIT_GENERATED_(118)
  6
Continuous
 62
     7
100
AcDbLine
 10
39.0289440696
 20
236.4269770572
 30
0.0
 11
27.0151237426
 21
261.501754384
 31
0.0
  0
ARC
  5
171
330
5E
100
AcDbEntity
  8
$DDT_AUDIT_GENERATED_(118)
  6
Continuous
 62
     7
100
AcDbCircle
 10
34.2297839538
 20
264.9584403744
 30
0.0
 40
8.000000000000002
100
AcDbArc
 50
180.0
 51
205.6
  0
LINE
  5
172
330
5E
100
AcDbEntity
  8
$DDT_AUDIT_GENERATED_(118)
  6
Continuous
 62
     7
100
AcDbLine
 10
26.2297839538
 20
264.9584403744
 30
0.0
 11
26.2297839538
 21
265.640884968
 31
0.0
  0
ARC
  5
173
330
5E
100
AcDbEntity
  8
$DDT_AUDIT_GENERATED_(118)
  6
Continuous
 62
     7
100
AcDbCircle
 10
89.2931993149
 20
250.140884968
 30
0.0
 40
1.899999999999995
100
AcDbArc
 50
181.414481014
 51
358.585518986
  0
ARC
  5
174
330
5E
100
AcDbEntity
  8
$DDT_AUDIT_GENERATED_(118)
  6
Continuous
 62
     7
100
AcDbCircle
 10
89.2931993149
 20
250.140884968
 30
0.0
 40
1.900000000000002
100
AcDbArc
 50
358.585518986
 51
181.414481014
  0
LINE
  5
175
330
5E
100
AcDbEntity
  8
$DDT_AUDIT_GENERATED_(118)
  6
Continuous
 62
     7
100
AcDbLine
 10
30.853637231
 20
273.7694191089
 30
0.0
 11
26.503637231
 21
274.1499947953
 31
0.0
  0
LINE
  5
176
330
5E
100
AcDbEntity
  8
$DDT_AUDIT_GENERATED_(118)
  6
Continuous
 62
     7
100
AcDbLine
 10
26.2297839538
 20
274.4488532047
 30
0.0
 11
26.2297839538
 21
276.840884968
 31
0.0
  0
LINE
  5
177
330
5E
100
AcDbEntity
  8
$DDT_AUDIT_GENERATED_(118)
  6
Continuous
 62
     7
100
AcDbLine
 10
31.1797839538
 20
276.840884968
 30
0.0
 11
31.1797839538
 21
274.0682775184
 31
0.0
  0
LINE
  5
178
330
5E
100
AcDbEntity
  8
$DDT_AUDIT_GENERATED_(118)
  6
Continuous
 62
     7
100
AcDbLine
 10
26.5297839538
 20
277.140884968
 30
0.0
 11
30.8797839538
 21
277.140884968
 31
0.0
  0
LINE
  5
179
330
5E
100
AcDbEntity
  8
$DDT_AUDIT_GENERATED_(118)
  6
Continuous
 62
     7
100
AcDbLine
 10
26.2297839538
 20
273.8465613022
 30
0.0
 11
26.2297839538
 21
274.4488532047
 31
0.0
  0
ARC
  5
17A
330
5E
100
AcDbEntity
  8
$DDT_AUDIT_GENERATED_(118)
  6
Continuous
 62
     7
100
AcDbCircle
 10
30.8797839538
 20
276.840884968
 30
0.0
 40
0.2999999999999947
100
AcDbArc
 50
0.0
 51
90.0
  0
ARC
  5
17B
330
5E
100
AcDbEntity
  8
$DDT_AUDIT_GENERATED_(118)
  6
Continuous
 62
     7
100
AcDbCircle
 10
30.8797839538
 20
274.0682775184
 30
0.0
 40
0.3000000000000084
100
AcDbArc
 50
265.0
 51
0.0
  0
ARC
  5
17C
330
5E
100
AcDbEntity
  8
$DDT_AUDIT_GENERATED_(118)
  6
Continuous
 62
     7
100
AcDbCircle
 10
26.5297839538
 20
276.840884968
 30
0.0
 40
0.2999999999999878
100
AcDbArc
 50
90.0
 51
180.0
  0
ARC
  5
17D
330
5E
100
AcDbEntity
  8
$DDT_AUDIT_GENERATED_(118)
  6
Continuous
 62
     7
100
AcDbCircle
 10
26.5297839538
 20
274.4488532047
 30
0.0
 40
0.3000000000000084
100
AcDbArc
 50
180.0
 51
265.0
  0
LINE
  5
17E
330
5E
100
AcDbEntity
  8
$DDT_AUDIT_GENERATED_(118)
  6
Continuous
 62
     7
100
AcDbLine
 10
26.0797839538
 20
276.390884968
 30
0.0
 11
26.1297839538
 21
276.390884968
 31
0.0
  0
ARC
  5
17F
330
5E
100
AcDbEntity
  8
$DDT_AUDIT_GENERATED_(118)
  6
Continuous
 62
     7
100
AcDbCircle
 10
26.0797839538
 20
276.140884968
 30
0.0
 40
0.2500000000000002
100
AcDbArc
 50
90.0
 51
270.0
  0
LINE
  5
180
330
5E
100
AcDbEntity
  8
$DDT_AUDIT_GENERATED_(118)
  6
Continuous
 62
     7
100
AcDbLine
 10
26.0797839538
 20
265.890884968
 30
0.0
 11
26.1297839538
 21
265.890884968
 31
0.0
  0
ARC
  5
181
330
5E
100
AcDbEntity
  8
$DDT_AUDIT_GENERATED_(118)
  6
Continuous
 62
     7
100
AcDbCircle
 10
26.0797839538
 20
265.640884968
 30
0.0
 40
0.2500000000000002
100
AcDbArc
 50
90.0
 51
270.0
  0
LINE
  5
182
330
5E
100
AcDbEntity
  8
$DDT_AUDIT_GENERATED_(118)
  6
Continuous
 62
     7
100
AcDbLine
 10
26.0797839538
 20
267.390884968
 30
0.0
 11
26.1297839538
 21
267.390884968
 31
0.0
  0
ARC
  5
183
330
5E
100
AcDbEntity
  8
$DDT_AUDIT_GENERATED_(118)
  6
Continuous
 62
     7
100
AcDbCircle
 10
26.0797839538
 20
267.140884968
 30
0.0
 40
0.2500000000000002
100
AcDbArc
 50
90.0
 51
270.0
  0
LINE
  5
184
330
5E
100
AcDbEntity
  8
$DDT_AUDIT_GENERATED_(118)
  6
Continuous
 62
     7
100
AcDbLine
 10
26.0797839538
 20
268.890884968
 30
0.0
 11
26.1297839538
 21
268.890884968
 31
0.0
  0
ARC
  5
185
330
5E
100
AcDbEntity
  8
$DDT_AUDIT_GENERATED_(118)
  6
Continuous
 62
     7
100
AcDbCircle
 10
26.0797839538
 20
268.640884968
 30
0.0
 40
0.2500000000000002
100
AcDbArc
 50
90.0
 51
270.0
  0
LINE
  5
186
330
5E
100
AcDbEntity
  8
$DDT_AUDIT_GENERATED_(118)
  6
Continuous
 62
     7
100
AcDbLine
 10
26.0797839538
 20
270.390884968
 30
0.0
 11
26.1297839538
 21
270.390884968
 31
0.0
  0
ARC
  5
187
330
5E
100
AcDbEntity
  8
$DDT_AUDIT_GENERATED_(118)
  6
Continuous
 62
     7
100
AcDbCircle
 10
26.0797839538
 20
270.140884968
 30
0.0
 40
0.2500000000000002
100
AcDbArc
 50
90.0
 51
270.0
  0
LINE
  5
188
330
5E
100
AcDbEntity
  8
$DDT_AUDIT_GENERATED_(118)
  6
Continuous
 62
     7
100
AcDbLine
 10
26.0797839538
 20
271.890884968
 30
0.0
 11
26.1297839538
 21
271.890884968
 31
0.0
  0
ARC
  5
189
330
5E
100
AcDbEntity
  8
$DDT_AUDIT_GENERATED_(118)
  6
Continuous
 62
     7
100
AcDbCircle
 10
26.0797839538
 20
271.640884968
 30
0.0
 40
0.2500000000000002
100
AcDbArc
 50
90.0
 51
270.0
  0
LINE
  5
18A
330
5E
100
AcDbEntity
  8
$DDT_AUDIT_GENERATED_(118)
  6
Continuous
 62
     7
100
AcDbLine
 10
26.0797839538
 20
273.390884968
 30
0.0
 11
26.1297839538
 21
273.390884968
 31
0.0
  0
ARC
  5
18B
330
5E
100
AcDbEntity
  8
$DDT_AUDIT_GENERATED_(118)
  6
Continuous
 62
     7
100
AcDbCircle
 10
26.0797839538
 20
273.140884968
 30
0.0
 40
0.2500000000000002
100
AcDbArc
 50
90.0
 51
270.0
  0
LINE
  5
18C
330
5E
100
AcDbEntity
  8
$DDT_AUDIT_GENERATED_(118)
  6
Continuous
 62
     7
100
AcDbLine
 10
26.0797839538
 20
274.890884968
 30
0.0
 11
26.1297839538
 21
274.890884968
 31
0.0
  0
ARC
  5
18D
330
5E
100
AcDbEntity
  8
$DDT_AUDIT_GENERATED_(118)
  6
Continuous
 62
     7
100
AcDbCircle
 10
26.0797839538
 20
274.640884968
 30
0.0
 40
0.2500000000000002
100
AcDbArc
 50
90.0
 51
270.0
  0
LINE
  5
18E
330
5E
100
AcDbEntity
  8
$DDT_AUDIT_GENERATED_(118)
  6
Continuous
 62
     7
100
AcDbLine
 10
26.1297839538
 20
275.890884968
 30
0.0
 11
26.0797839538
 21
275.890884968
 31
0.0
  0
ARC
  5
18F
330
5E
100
AcDbEntity
  8
$DDT_AUDIT_GENERATED_(118)
  6
Continuous
 62
     7
100
AcDbCircle
 10
26.1297839538
 20
276.490884968
 30
0.0
 40
0.1000000000000029
100
AcDbArc
 50
270.0
 51
0.0
  0
ARC
  5
190
330
5E
100
AcDbEntity
  8
$DDT_AUDIT_GENERATED_(118)
  6
Continuous
 62
     7
100
AcDbCircle
 10
26.1297839538
 20
275.790884968
 30
0.0
 40
0.1000000000000029
100
AcDbArc
 50
0.0
 51
90.0
  0
LINE
  5
191
330
5E
100
AcDbEntity
  8
$DDT_AUDIT_GENERATED_(118)
  6
Continuous
 62
     7
100
AcDbLine
 10
26.2297839538
 20
265.640884968
 30
0.0
 11
26.2297839538
 21
267.140884968
 31
0.0
  0
LINE
  5
192
330
5E
100
AcDbEntity
  8
$DDT_AUDIT_GENERATED_(118)
  6
Continuous
 62
     7
100
AcDbLine
 10
26.1297839538
 20
265.390884968
 30
0.0
 11
26.0797839538
 21
265.390884968
 31
0.0
  0
ARC
  5
193
330
5E
100
AcDbEntity
  8
$DDT_AUDIT_GENERATED_(118)
  6
Continuous
 62
     7
100
AcDbCircle
 10
26.1297839538
 20
265.290884968
 30
0.0
 40
0.1000000000000029
100
AcDbArc
 50
0.0
 51
90.0
  0
ARC
  5
194
330
5E
100
AcDbEntity
  8
$DDT_AUDIT_GENERATED_(118)
  6
Continuous
 62
     7
100
AcDbCircle
 10
26.1297839538
 20
265.990884968
 30
0.0
 40
0.1000000000000029
100
AcDbArc
 50
270.0
 51
0.0
  0
LINE
  5
195
330
5E
100
AcDbEntity
  8
$DDT_AUDIT_GENERATED_(118)
  6
Continuous
 62
     7
100
AcDbLine
 10
26.2297839538
 20
267.140884968
 30
0.0
 11
26.2297839538
 21
268.640884968
 31
0.0
  0
LINE
  5
196
330
5E
100
AcDbEntity
  8
$DDT_AUDIT_GENERATED_(118)
  6
Continuous
 62
     7
100
AcDbLine
 10
26.1297839538
 20
266.890884968
 30
0.0
 11
26.0797839538
 21
266.890884968
 31
0.0
  0
ARC
  5
197
330
5E
100
AcDbEntity
  8
$DDT_AUDIT_GENERATED_(118)
  6
Continuous
 62
     7
100
AcDbCircle
 10
26.1297839538
 20
266.790884968
 30
0.0
 40
0.1000000000000029
100
AcDbArc
 50
0.0
 51
90.0
  0
ARC
  5
198
330
5E
100
AcDbEntity
  8
$DDT_AUDIT_GENERATED_(118)
  6
Continuous
 62
     7
100
AcDbCircle
 10
26.1297839538
 20
267.490884968
 30
0.0
 40
0.1000000000000029
100
AcDbArc
 50
270.0
 51
0.0
  0
LINE
  5
199
330
5E
100
AcDbEntity
  8
$DDT_AUDIT_GENERATED_(118)
  6
Continuous
 62
     7
100
AcDbLine
 10
26.2297839538
 20
268.640884968
 30
0.0
 11
26.2297839538
 21
270.140884968
 31
0.0
  0
LINE
  5
19A
330
5E
100
AcDbEntity
  8
$DDT_AUDIT_GENERATED_(118)
  6
Continuous
 62
     7
100
AcDbLine
 10
26.1297839538
 20
268.390884968
 30
0.0
 11
26.0797839538
 21
268.390884968
 31
0.0
  0
ARC
  5
19B
330
5E
100
AcDbEntity
  8
$DDT_AUDIT_GENERATED_(118)
  6
Continuous
 62
     7
100
AcDbCircle
 10
26.1297839538
 20
268.290884968
 30
0.0
 40
0.1000000000000029
100
AcDbArc
 50
0.0
 51
90.0
  0
ARC
  5
19C
330
5E
100
AcDbEntity
  8
$DDT_AUDIT_GENERATED_(118)
  6
Continuous
 62
     7
100
AcDbCircle
 10
26.1297839538
 20
268.990884968
 30
0.0
 40
0.1000000000000029
100
AcDbArc
 50
270.0
 51
0.0
  0
LINE
  5
19D
330
5E
100
AcDbEntity
  8
$DDT_AUDIT_GENERATED_(118)
  6
Continuous
 62
     7
100
AcDbLine
 10
26.2297839538
 20
270.140884968
 30
0.0
 11
26.2297839538
 21
271.640884968
 31
0.0
  0
LINE
  5
19E
330
5E
100
AcDbEntity
  8
$DDT_AUDIT_GENERATED_(118)
  6
Continuous
 62
     7
100
AcDbLine
 10
26.1297839538
 20
269.890884968
 30
0.0
 11
26.0797839538
 21
269.890884968
 31
0.0
  0
ARC
  5
19F
330
5E
100
AcDbEntity
  8
$DDT_AUDIT_GENERATED_(118)
  6
Continuous
 62
     7
100
AcDbCircle
 10
26.1297839538
 20
269.790884968
 30
0.0
 40
0.1000000000000029
100
AcDbArc
 50
0.0
 51
90.0
  0
ARC
  5
1A0
330
5E
100
AcDbEntity
  8
$DDT_AUDIT_GENERATED_(118)
  6
Continuous
 62
     7
100
AcDbCircle
 10
26.1297839538
 20
270.490884968
 30
0.0
 40
0.1000000000000029
100
AcDbArc
 50
270.0
 51
0.0
  0
LINE
  5
1A1
330
5E
100
AcDbEntity
  8
$DDT_AUDIT_GENERATED_(118)
  6
Continuous
 62
     7
100
AcDbLine
 10
26.2297839538
 20
271.640884968
 30
0.0
 11
26.2297839538
 21
273.140884968
 31
0.0
  0
LINE
  5
1A2
330
5E
100
AcDbEntity
  8
$DDT_AUDIT_GENERATED_(118)
  6
Continuous
 62
     7
100
AcDbLine
 10
26.1297839538
 20
271.390884968
 30
0.0
 11
26.0797839538
 21
271.390884968
 31
0.0
  0
ARC
  5
1A3
330
5E
100
AcDbEntity
  8
$DDT_AUDIT_GENERATED_(118)
  6
Continuous
 62
     7
100
AcDbCircle
 10
26.1297839538
 20
271.290884968
 30
0.0
 40
0.1000000000000029
100
AcDbArc
 50
0.0
 51
90.0
  0
ARC
  5
1A4
330
5E
100
AcDbEntity
  8
$DDT_AUDIT_GENERATED_(118)
  6
Continuous
 62
     7
100
AcDbCircle
 10
26.1297839538
 20
271.990884968
 30
0.0
 40
0.1000000000000029
100
AcDbArc
 50
270.0
 51
0.0
  0
LINE
  5
1A5
330
5E
100
AcDbEntity
  8
$DDT_AUDIT_GENERATED_(118)
  6
Continuous
 62
     7
100
AcDbLine
 10
26.2297839538
 20
273.140884968
 30
0.0
 11
26.2297839538
 21
273.8465613022
 31
0.0
  0
LINE
  5
1A6
330
5E
100
AcDbEntity
  8
$DDT_AUDIT_GENERATED_(118)
  6
Continuous
 62
     7
100
AcDbLine
 10
26.1297839538
 20
272.890884968
 30
0.0
 11
26.0797839538
 21
272.890884968
 31
0.0
  0
ARC
  5
1A7
330
5E
100
AcDbEntity
  8
$DDT_AUDIT_GENERATED_(118)
  6
Continuous
 62
     7
100
AcDbCircle
 10
26.1297839538
 20
272.790884968
 30
0.0
 40
0.1000000000000029
100
AcDbArc
 50
0.0
 51
90.0
  0
ARC
  5
1A8
330
5E
100
AcDbEntity
  8
$DDT_AUDIT_GENERATED_(118)
  6
Continuous
 62
     7
100
AcDbCircle
 10
26.1297839538
 20
273.490884968
 30
0.0
 40
0.1000000000000029
100
AcDbArc
 50
270.0
 51
0.0
  0
LINE
  5
1A9
330
5E
100
AcDbEntity
  8
$DDT_AUDIT_GENERATED_(118)
  6
Continuous
 62
     7
100
AcDbLine
 10
26.1297839538
 20
274.390884968
 30
0.0
 11
26.0797839538
 21
274.390884968
 31
0.0
  0
ARC
  5
1AA
330
5E
100
AcDbEntity
  8
$DDT_AUDIT_GENERATED_(118)
  6
Continuous
 62
     7
100
AcDbCircle
 10
26.1297839538
 20
274.290884968
 30
0.0
 40
0.1000000000000029
100
AcDbArc
 50
0.0
 51
90.0
  0
ARC
  5
1AB
330
5E
100
AcDbEntity
  8
$DDT_AUDIT_GENERATED_(118)
  6
Continuous
 62
     7
100
AcDbCircle
 10
26.1297839538
 20
274.990884968
 30
0.0
 40
0.1000000000000029
100
AcDbArc
 50
270.0
 51
0.0
  0
LINE
  5
1AC
330
5E
100
AcDbEntity
  8
$DDT_AUDIT_GENERATED_(105)
  6
Continuous
 62
     7
100
AcDbLine
 10
30.1447177821
 20
279.6764097819
 30
0.0
 11
29.5447177821
 21
279.6764097819
 31
0.0
  0
LINE
  5
1AD
330
5E
100
AcDbEntity
  8
$DDT_AUDIT_GENERATED_(105)
  6
Continuous
 62
     7
100
AcDbLine
 10
30.1447177821
 20
280.0764097819
 30
0.0
 11
30.1447177821
 21
279.6764097819
 31
0.0
  0
LINE
  5
1AE
330
5E
100
AcDbEntity
  8
$DDT_AUDIT_GENERATED_(105)
  6
Continuous
 62
     7
100
AcDbLine
 10
29.5447177821
 20
279.6764097819
 30
0.0
 11
29.5447177821
 21
280.0764097819
 31
0.0
  0
LINE
  5
1AF
330
5E
100
AcDbEntity
  8
$DDT_AUDIT_GENERATED_(105)
  6
Continuous
 62
     7
100
AcDbLine
 10
27.8447177821
 20
280.0764097819
 30
0.0
 11
27.8447177821
 21
277.140884968
 31
0.0
  0
LINE
  5
1B0
330
5E
100
AcDbEntity
  8
$DDT_AUDIT_GENERATED_(105)
  6
Continuous
 62
     7
100
AcDbLine
 10
31.8447177821
 20
277.0764097819
 30
0.0
 11
31.8447177821
 21
280.0764097819
 31
0.0
  0
LINE
  5
1B1
330
5E
100
AcDbEntity
  8
$DDT_AUDIT_GENERATED_(105)
  6
Continuous
 62
     7
100
AcDbLine
 10
28.2747177821
 20
277.140884968
 30
0.0
 11
28.2747177821
 21
280.0764097819
 31
0.0
  0
LINE
  5
1B2
330
5E
100
AcDbEntity
  8
$DDT_AUDIT_GENERATED_(105)
  6
Continuous
 62
     7
100
AcDbLine
 10
31.4147177821
 20
277.0764097819
 30
0.0
 11
31.4147177821
 21
280.0764097819
 31
0.0
  0
LINE
  5
1B3
330
5E
100
AcDbEntity
  8
$DDT_AUDIT_GENERATED_(105)
  6
Continuous
 62
     7
100
AcDbLine
 10
244.1447177821
 20
279.6764097819
 30
0.0
 11
243.5447177821
 21
279.6764097819
 31
0.0
  0
LINE
  5
1B4
330
5E
100
AcDbEntity
  8
$DDT_AUDIT_GENERATED_(105)
  6
Continuous
 62
     7
100
AcDbLine
 10
244.1447177821
 20
280.0764097819
 30
0.0
 11
244.1447177821
 21
279.6764097819
 31
0.0
  0
LINE
  5
1B5
330
5E
100
AcDbEntity
  8
$DDT_AUDIT_GENERATED_(105)
  6
Continuous
 62
     7
100
AcDbLine
 10
243.5447177821
 20
279.6764097819
 30
0.0
 11
243.5447177821
 21
280.0764097819
 31
0.0
  0
LINE
  5
1B6
330
5E
100
AcDbEntity
  8
$DDT_AUDIT_GENERATED_(105)
  6
Continuous
 62
     7
100
AcDbLine
 10
241.8447177821
 20
280.0764097819
 30
0.0
 11
241.8447177821
 21
277.0764097819
 31
0.0
  0
LINE
  5
1B7
330
5E
100
AcDbEntity
  8
$DDT_AUDIT_GENERATED_(105)
  6
Continuous
 62
     7
100
AcDbLine
 10
245.8447177821
 20
277.140884968
 30
0.0
 11
245.8447177821
 21
280.0764097819
 31
0.0
  0
LINE
  5
1B8
330
5E
100
AcDbEntity
  8
$DDT_AUDIT_GENERATED_(105)
  6
Continuous
 62
     7
100
AcDbLine
 10
242.2747177821
 20
277.0764097819
 30
0.0
 11
242.2747177821
 21
280.0764097819
 31
0.0
  0
LINE
  5
1B9
330
5E
100
AcDbEntity
  8
$DDT_AUDIT_GENERATED_(105)
  6
Continuous
 62
     7
100
AcDbLine
 10
245.4147177821
 20
277.140884968
 30
0.0
 11
245.4147177821
 21
280.0764097819
 31
0.0
  0
LINE
  5
1BA
330
5E
100
AcDbEntity
  8
$DDT_AUDIT_GENERATED_(105)
  6
Continuous
 62
     7
100
AcDbLine
 10
234.6447177821
 20
279.6764097819
 30
0.0
 11
234.0447177821
 21
279.6764097819
 31
0.0
  0
LINE
  5
1BB
330
5E
100
AcDbEntity
  8
$DDT_AUDIT_GENERATED_(105)
  6
Continuous
 62
     7
100
AcDbLine
 10
234.6447177821
 20
280.0764097819
 30
0.0
 11
234.6447177821
 21
279.6764097819
 31
0.0
  0
LINE
  5
1BC
330
5E
100
AcDbEntity
  8
$DDT_AUDIT_GENERATED_(105)
  6
Continuous
 62
     7
100
AcDbLine
 10
234.0447177821
 20
279.6764097819
 30
0.0
 11
234.0447177821
 21
280.0764097819
 31
0.0
  0
LINE
  5
1BD
330
5E
100
AcDbEntity
  8
$DDT_AUDIT_GENERATED_(105)
  6
Continuous
 62
     7
100
AcDbLine
 10
232.3447177821
 20
280.0764097819
 30
0.0
 11
232.3447177821
 21
277.0764097819
 31
0.0
  0
LINE
  5
1BE
330
5E
100
AcDbEntity
  8
$DDT_AUDIT_GENERATED_(105)
  6
Continuous
 62
     7
100
AcDbLine
 10
236.3447177821
 20
277.0764097819
 30
0.0
 11
236.3447177821
 21
280.0764097819
 31
0.0
  0
LINE
  5
1BF
330
5E
100
AcDbEntity
  8
$DDT_AUDIT_GENERATED_(105)
  6
Continuous
 62
     7
100
AcDbLine
 10
232.7747177821
 20
277.0764097819
 30
0.0
 11
232.7747177821
 21
280.0764097819
 31
0.0
  0
LINE
  5
1C0
330
5E
100
AcDbEntity
  8
$DDT_AUDIT_GENERATED_(105)
  6
Continuous
 62
     7
100
AcDbLine
 10
235.9147177821
 20
277.0764097819
 30
0.0
 11
235.9147177821
 21
280.0764097819
 31
0.0
  0
LINE
  5
1C1
330
5E
100
AcDbEntity
  8
$DDT_AUDIT_GENERATED_(105)
  6
Continuous
 62
     7
100
AcDbLine
 10
39.6447177821
 20
279.6764097819
 30
0.0
 11
39.0447177821
 21
279.6764097819
 31
0.0
  0
LINE
  5
1C2
330
5E
100
AcDbEntity
  8
$DDT_AUDIT_GENERATED_(105)
  6
Continuous
 62
     7
100
AcDbLine
 10
39.6447177821
 20
280.0764097819
 30
0.0
 11
39.6447177821
 21
279.6764097819
 31
0.0
  0
LINE
  5
1C3
330
5E
100
AcDbEntity
  8
$DDT_AUDIT_GENERATED_(105)
  6
Continuous
 62
     7
100
AcDbLine
 10
39.0447177821
 20
279.6764097819
 30
0.0
 11
39.0447177821
 21
280.0764097819
 31
0.0
  0
LINE
  5
1C4
330
5E
100
AcDbEntity
  8
$DDT_AUDIT_GENERATED_(105)
  6
Continuous
 62
     7
100
AcDbLine
 10
37.3447177821
 20
280.0764097819
 30
0.0
 11
37.3447177821
 21
277.0764097819
 31
0.0
  0
LINE
  5
1C5
330
5E
100
AcDbEntity
  8
$DDT_AUDIT_GENERATED_(105)
  6
Continuous
 62
     7
100
AcDbLine
 10
41.3447177821
 20
277.0764097819
 30
0.0
 11
41.3447177821
 21
280.0764097819
 31
0.0
  0
LINE
  5
1C6
330
5E
100
AcDbEntity
  8
$DDT_AUDIT_GENERATED_(105)
  6
Continuous
 62
     7
100
AcDbLine
 10
37.7747177821
 20
277.0764097819
 30
0.0
 11
37.7747177821
 21
280.0764097819
 31
0.0
  0
LINE
  5
1C7
330
5E
100
AcDbEntity
  8
$DDT_AUDIT_GENERATED_(105)
  6
Continuous
 62
     7
100
AcDbLine
 10
40.9147177821
 20
277.0764097819
 30
0.0
 11
40.9147177821
 21
280.0764097819
 31
0.0
  0
LINE
  5
1C8
330
5E
100
AcDbEntity
  8
$DDT_AUDIT_GENERATED_(10D)
  6
Continuous
 62
     7
100
AcDbLine
 10
58.2849462982
 20
265.0621454396
 30
0.0
 11
52.1447177821
 21
262.0673558911
 31
0.0
  0
LINE
  5
1C9
330
5E
100
AcDbEntity
  8
$DDT_AUDIT_GENERATED_(10D)
  6
Continuous
 62
     7
100
AcDbLine
 10
59.0447177821
 20
264.8764097819
 30
0.0
 11
52.1447177821
 21
261.5110549208
 31
0.0
  0
LINE
  5
1CA
330
5E
100
AcDbEntity
  8
$DDT_AUDIT_GENERATED_(10D)
  6
Continuous
 62
     7
100
AcDbLine
 10
52.1447177821
 20
262.0673558911
 30
0.0
 11
52.1447177821
 21
261.5110549208
 31
0.0
  0
LINE
  5
1CB
330
5E
100
AcDbEntity
  8
$DDT_AUDIT_GENERATED_(10D)
  6
Continuous
 62
     7
100
AcDbLine
 10
59.0447177821
 20
264.8764097819
 30
0.0
 11
59.0447177821
 21
265.0763448468
 31
0.0
  0
LINE
  5
1CC
330
5E
100
AcDbEntity
  8
$DDT_AUDIT_GENERATED_(10D)
  6
Continuous
 62
     7
100
AcDbLine
 10
52.3447177821
 20
263.8541661593
 30
0.0
 11
52.3447177821
 21
262.1649024088
 31
0.0
  0
LINE
  5
1CD
330
5E
100
AcDbEntity
  8
$DDT_AUDIT_GENERATED_(10D)
  6
Continuous
 62
     7
100
AcDbLine
 10
71.5447177821
 20
262.0673558911
 30
0.0
 11
65.4107190052
 21
265.0591069928
 31
0.0
  0
LINE
  5
1CE
330
5E
100
AcDbEntity
  8
$DDT_AUDIT_GENERATED_(10D)
  6
Continuous
 62
     7
100
AcDbLine
 10
71.5447177821
 20
261.5110549208
 30
0.0
 11
64.6447177821
 21
264.8764097819
 31
0.0
  0
LINE
  5
1CF
330
5E
100
AcDbEntity
  8
$DDT_AUDIT_GENERATED_(10D)
  6
Continuous
 62
     7
100
AcDbLine
 10
64.6447177821
 20
265.0763448468
 30
0.0
 11
64.6447177821
 21
264.8764097819
 31
0.0
  0
LINE
  5
1D0
330
5E
100
AcDbEntity
  8
$DDT_AUDIT_GENERATED_(10D)
  6
Continuous
 62
     7
100
AcDbLine
 10
71.5447177821
 20
261.5110549208
 30
0.0
 11
71.5447177821
 21
262.0673558911
 31
0.0
  0
LINE
  5
1D1
330
5E
100
AcDbEntity
  8
$DDT_AUDIT_GENERATED_(10D)
  6
Continuous
 62
     7
100
AcDbLine
 10
71.3447177821
 20
262.1649024088
 30
0.0
 11
71.3447177821
 21
263.8541661593
 31
0.0
  0
ENDBLK
  5
1D3
330
5E
100
AcDbEntity
  8
0
100
AcDbBlockEnd
  0
BLOCK
  5
1E6
330
1D4
100
AcDbEntity
  8
0
100
AcDbBlockBegin
  2
SE1
 70
     0
 10
0.0
 20
0.0
 30
0.0
  3
SE1
  1

  0
LINE
  5
1D6
330
1D4
100
AcDbEntity
  8
$DDT_AUDIT_GENERATED_(60)
  6
Continuous
 62
     7
100
AcDbLine
 10
372.8021472934
 20
284.0764097819
 30
0.0
 11
373.0021472934
 21
284.0764097819
 31
0.0
  0
LINE
  5
1D7
330
1D4
100
AcDbEntity
  8
$DDT_AUDIT_GENERATED_(60)
  6
Continuous
 62
     7
100
AcDbLine
 10
330.8073990503
 20
284.0764097819
 30
0.0
 11
372.8021472934
 21
284.0764097819
 31
0.0
  0
LINE
  5
1D8
330
1D4
100
AcDbEntity
  8
$DDT_AUDIT_GENERATED_(60)
  6
Continuous
 62
     7
100
AcDbLine
 10
330.6074295113
 20
284.0764097819
 30
0.0
 11
330.8073990503
 21
284.0764097819
 31
0.0
  0
LINE
  5
1D9
330
1D4
100
AcDbEntity
  8
$DDT_AUDIT_GENERATED_(60)
  6
Continuous
 62
     7
100
AcDbLine
 10
373.3021472934
 20
283.7764097819
 30
0.0
 11
373.3021472934
 21
279.3662915429
 31
0.0
  0
ARC
  5
1DA
330
1D4
100
AcDbEntity
  8
$DDT_AUDIT_GENERATED_(60)
  6
Continuous
 62
     7
100
AcDbCircle
 10
373.0021472934
 20
283.7764097819
 30
0.0
 40
0.3000000000000017
100
AcDbArc
 50
0.0
 51
90.0
  0
ARC
  5
1DB
330
1D4
100
AcDbEntity
  8
$DDT_AUDIT_GENERATED_(60)
  6
Continuous
 62
     7
100
AcDbCircle
 10
330.6074295113
 20
283.7764097819
 30
0.0
 40
0.2999999999999911
100
AcDbArc
 50
90.0
 51
181.0
  0
LINE
  5
1DC
330
1D4
100
AcDbEntity
  8
$DDT_AUDIT_GENERATED_(60)
  6
Continuous
 62
     7
100
AcDbLine
 10
373.3021472934
 20
279.3662915429
 30
0.0
 11
373.3021472934
 21
279.2003891769
 31
0.0
  0
LINE
  5
1DD
330
1D4
100
AcDbEntity
  8
$DDT_AUDIT_GENERATED_(60)
  6
Continuous
 62
     7
100
AcDbLine
 10
373.3021472934
 20
279.2003891769
 30
0.0
 11
373.3021472934
 21
275.92968935
 31
0.0
  0
LINE
  5
1DE
330
1D4
100
AcDbEntity
  8
$DDT_AUDIT_GENERATED_(60)
  6
Continuous
 62
     7
100
AcDbLine
 10
373.3021472934
 20
275.92968935
 30
0.0
 11
373.3021472934
 21
225.1465159911
 31
0.0
  0
ARC
  5
1DF
330
1D4
100
AcDbEntity
  8
$DDT_AUDIT_GENERATED_(60)
  6
Continuous
 62
     7
100
AcDbCircle
 10
371.3021472934
 20
225.1465159911
 30
0.0
 40
2.0
100
AcDbArc
 50
286.0
 51
0.0
  0
LINE
  5
1E0
330
1D4
100
AcDbEntity
  8
$DDT_AUDIT_GENERATED_(60)
  6
Continuous
 62
     7
100
AcDbLine
 10
371.853422005
 20
223.2239925992
 30
0.0
 11
334.0714565403
 21
212.3901883373
 31
0.0
  0
ARC
  5
1E1
330
1D4
100
AcDbEntity
  8
$DDT_AUDIT_GENERATED_(60)
  6
Continuous
 62
     7
100
AcDbCircle
 10
333.5201818286
 20
214.3127117292
 30
0.0
 40
2.0
100
AcDbArc
 50
181.0
 51
286.0
  0
LINE
  5
1E2
330
1D4
100
AcDbEntity
  8
$DDT_AUDIT_GENERATED_(60)
  6
Continuous
 62
     7
100
AcDbLine
 10
330.3844540844
 20
279.3610568848
 30
0.0
 11
330.3074752027
 21
283.77117406
 31
0.0
  0
LINE
  5
1E3
330
1D4
100
AcDbEntity
  8
$DDT_AUDIT_GENERATED_(60)
  6
Continuous
 62
     7
100
AcDbLine
 10
330.3873499395
 20
279.1951534549
 30
0.0
 11
330.3844540844
 21
279.3610568848
 31
0.0
  0
LINE
  5
1E4
330
1D4
100
AcDbEntity
  8
$DDT_AUDIT_GENERATED_(60)
  6
Continuous
 62
     7
100
AcDbLine
 10
330.4444402174
 20
275.9244536281
 30
0.0
 11
330.3873499395
 21
279.1951534549
 31
0.0
  0
LINE
  5
1E5
330
1D4
100
AcDbEntity
  8
$DDT_AUDIT_GENERATED_(60)
  6
Continuous
 62
     7
100
AcDbLine
 10
331.5204864383
 20
214.2778069163
 30
0.0
 11
330.4444402174
 21
275.9244536281
 31
0.0
  0
ENDBLK
  5
1E7
330
1D4
100
AcDbEntity
  8
0
100
AcDbBlockEnd
  0
BLOCK
  5
1F2
330
1E8
100
AcDbEntity
  8
0
100
AcDbBlockBegin
  2
SE2
 70
     0
 10
0.0
 20
0.0
 30
0.0
  3
SE2
  1

  0
ARC
  5
1EA
330
1E8
100
AcDbEntity
  8
$DDT_AUDIT_GENERATED_(60)
  6
Continuous
 62
     7
100
AcDbCircle
 10
266.8393746576
 20
148.8446568755
 30
0.0
 40
0.50001522352196
100
AcDbArc
 50
0.0104696366
 51
89.9895303634
  0
LINE
  5
1EB
330
1E8
100
AcDbEntity
  8
$DDT_AUDIT_GENERATED_(60)
  6
Continuous
 62
     7
100
AcDbLine
 10
267.3393898728
 20
148.8447482431
 30
0.0
 11
267.3393898728
 21
106.85
 31
0.0
  0
LINE
  5
1EC
330
1E8
100
AcDbEntity
  8
$DDT_AUDIT_GENERATED_(60)
  6
Continuous
 62
     7
100
AcDbLine
 10
6.849969539
 20
149.3446720907
 30
0.0
 11
266.8394660252
 21
149.3446720907
 31
0.0
  0
ELLIPSE
  5
1ED
330
1E8
100
AcDbEntity
  8
$DDT_AUDIT_GENERATED_(60)
  6
Continuous
 62
     7
100
AcDbEllipse
 10
266.8394050986
 20
106.85
 30
0.0
 11
0.0
 21
0.4999999999985079
 31
0.0
210
0.0
220
0.0
230
1.0
 40
1.0
 41
3.141592653589793
 42
4.71238898038469
  0
ARC
  5
1EE
330
1E8
100
AcDbEntity
  8
$DDT_AUDIT_GENERATED_(60)
  6
Continuous
 62
     7
100
AcDbCircle
 10
6.8500609066
 20
148.8446568755
 30
0.0
 40
0.50001522352196
100
AcDbArc
 50
90.0104696366
 51
179.9895303634
  0
LINE
  5
1EF
330
1E8
100
AcDbEntity
  8
$DDT_AUDIT_GENERATED_(60)
  6
Continuous
 62
     7
100
AcDbLine
 10
266.8394050986
 20
106.35
 30
0.0
 11
6.8500304656
 21
106.35
 31
0.0
  0
LINE
  5
1F0
330
1E8
100
AcDbEntity
  8
$DDT_AUDIT_GENERATED_(60)
  6
Continuous
 62
     7
100
AcDbLine
 10
6.3500456915
 20
106.85
 30
0.0
 11
6.3500456915
 21
148.8447482431
 31
0.0
  0
ELLIPSE
  5
1F1
330
1E8
100
AcDbEntity
  8
$DDT_AUDIT_GENERATED_(60)
  6
Continuous
 62
     7
100
AcDbEllipse
 10
6.8500304656
 20
106.85
 30
0.0
 11
-1.354749645798847E-10
 21
-0.5000000000009901
 31
0.0
210
0.0
220
0.0
230
1.0
 40
0.9999695483
 41
4.71238898065566
 42
6.283185307179584
  0
ENDBLK
  5
1F3
330
1E8
100
AcDbEntity
  8
0
100
AcDbBlockEnd
  0
ENDSEC
  0
SECTION
  2
ENTITIES
  0
INSERT
  5
5F
330
1F
100
AcDbEntity
  8
Default
100
AcDbBlockReference
  2
SE
 10
0.0
 20
0.0
 30
0.0
  0
INSERT
  5
1D5
330
1F
100
AcDbEntity
  8
Default
100
AcDbBlockReference
  2
SE1
 10
0.0
 20
0.0
 30
0.0
  0
INSERT
  5
1E9
330
1F
100
AcDbEntity
  8
Default
100
AcDbBlockReference
  2
SE2
 10
0.0
 20
0.0
 30
0.0
  0
TEXT
  5
1F5
330
1F
100
AcDbEntity
  8
Default
  6
Continuous
 62
     7
100
AcDbText
 10
5.9362635081
 20
53.4225120485
 30
0.0
 40
10.0
  1
Grohe AG^J
  7
SEACAD_seiso_ttf
 11
5.9362635081
 21
63.4225120485
 31
0.0
100
AcDbText
 73
     3
  0
TEXT
  5
1F6
330
1F
100
AcDbEntity
  8
Default
  6
Continuous
 62
     7
100
AcDbText
 10
5.9362635081
 20
37.0588756849
 30
0.0
 40
10.0
  1
 
  7
SEACAD_seiso_ttf
 11
5.9362635081
 21
47.0588756849
 31
0.0
100
AcDbText
 73
     3
  0
TEXT
  5
1F7
330
1F
100
AcDbEntity
  8
Default
  6
Continuous
 62
     7
100
AcDbText
 10
5.9362635081
 20
20.6952393213
 30
0.0
 40
10.0
  1
ecn:
  7
SEACAD_seiso_ttf
 11
5.9362635081
 21
30.6952393213
 31
0.0
100
AcDbText
 73
     3
  0
TEXT
  5
1F8
330
1F
100
AcDbEntity
  8
Default
  6
Continuous
 62
     7
100
AcDbText
 10
5.9362635081
 20
4.3316029576
 30
0.0
 40
10.0
  1
unit: mm
  7
SEACAD_seiso_ttf
 11
5.9362635081
 21
14.3316029576
 31
0.0
100
AcDbText
 73
     3
  0
LINE
  5
1F9
330
1F
100
AcDbEntity
  8
Default
  6
Continuous
 62
     7
100
AcDbLine
 10
0.0
 20
0.0
 30
0.0
 11
100.0
 21
0.0
 31
0.0
  0
LINE
  5
1FA
330
1F
100
AcDbEntity
  8
Default
  6
Continuous
 62
     7
100
AcDbLine
 10
0.0
 20
0.0
 30
0.0
 11
0.0
 21
100.0
 31
0.0
  0
TEXT
  5
1FB
330
1F
100
AcDbEntity
  8
Default
  6
Continuous
 62
     7
100
AcDbText
 10
24.3923665681
 20
-18.2375342018
 30
0.0
 40
10.0
  1
100 mm
  7
SEACAD_seiso_ttf
 11
24.3923665681
 21
-8.2375342018
 31
0.0
100
AcDbText
 73
     3
  0
TEXT
  5
1FC
330
1F
100
AcDbEntity
  8
Default
  6
Continuous
 62
     7
100
AcDbText
 10
-7.6150308803
 20
24.6231930421
 30
0.0
 40
10.0
  1
100 mm
 50
90.0
  7
SEACAD_seiso_ttf
 11
-17.6150308803
 21
24.6231930421
 31
0.0
100
AcDbText
 73
     3
  0
TEXT
  5
1FD
330
1F
100
AcDbEntity
  8
Default
  6
Continuous
 62
     7
100
AcDbText
 10
28.4878128572
 20
20.0907663715
 30
0.0
 40
10.0
  1
228605
  7
SEACAD_seiso_ttf
 11
28.4878128572
 21
30.0907663715
 31
0.0
100
AcDbText
 73
     3
  0
TEXT
  5
1FE
330
1F
100
AcDbEntity
  8
Default
  6
Continuous
 62
     7
100
AcDbText
 10
5.9012241913
 20
36.7242780188
 30
0.0
 40
10.0
  1
18608001
  7
SEACAD_seiso_ttf
 11
5.9012241913
 21
46.7242780188
 31
0.0
100
AcDbText
 73
     3
  0
ENDSEC
  0
SECTION
  2
OBJECTS
  0
DICTIONARY
  5
C
330
0
100
AcDbDictionary
281
     1
  3
ACAD_GROUP
350
D
  3
ACAD_LAYOUT
350
1A
  3
ACAD_MLEADERSTYLE
350
202
  3
ACAD_MLINESTYLE
350
17
  3
ACAD_PLOTSETTINGS
350
19
  3
ACAD_PLOTSTYLENAME
350
E
  3
ACAD_SCALELIST
350
3B
  3
ACAD_TABLESTYLE
350
201
  3
ACAD_VISUALSTYLE
350
2A
  3
AcDbVariableDictionary
350
1FF
  0
DICTIONARY
  5
D
102
{ACAD_REACTORS
330
C
102
}
330
C
100
AcDbDictionary
281
     1
  0
DICTIONARY
  5
1A
102
{ACAD_REACTORS
330
C
102
}
330
C
100
AcDbDictionary
281
     1
  3
Layout1
350
1E
  3
Model
350
22
  0
DICTIONARY
  5
202
102
{ACAD_REACTORS
330
C
102
}
330
C
100
AcDbDictionary
281
     1
  0
DICTIONARY
  5
17
102
{ACAD_REACTORS
330
C
102
}
330
C
100
AcDbDictionary
281
     1
  3
Standard
350
18
  0
DICTIONARY
  5
19
102
{ACAD_REACTORS
330
C
102
}
330
C
100
AcDbDictionary
281
     1
  0
ACDBDICTIONARYWDFLT
  5
E
102
{ACAD_REACTORS
330
C
102
}
330
C
100
AcDbDictionary
281
     1
  3
Normal
350
F
100
AcDbDictionaryWithDefault
340
F
  0
DICTIONARY
  5
3B
102
{ACAD_REACTORS
330
C
102
}
330
C
100
AcDbDictionary
281
     1
  3
A0
350
3C
  3
A1
350
3D
  3
A2
350
3E
  3
A3
350
3F
  3
A4
350
40
  3
A5
350
41
  3
A6
350
42
  3
A7
350
43
  3
A8
350
44
  3
A9
350
45
  3
B0
350
46
  3
B1
350
47
  3
B2
350
48
  3
B3
350
49
  3
B4
350
4A
  3
B5
350
4B
  3
B6
350
4C
  3
B7
350
4D
  3
B8
350
4E
  3
B9
350
4F
  3
C0
350
50
  3
C1
350
51
  3
C2
350
52
  3
C3
350
53
  3
C4
350
54
  3
C5
350
55
  3
C6
350
56
  3
C7
350
57
  3
C8
350
58
  3
C9
350
59
  3
D0
350
5A
  3
D1
350
5B
  3
D2
350
5C
  0
DICTIONARY
  5
201
102
{ACAD_REACTORS
330
C
102
}
330
C
100
AcDbDictionary
281
     1
  0
DICTIONARY
  5
2A
102
{ACAD_REACTORS
330
C
102
}
330
C
100
AcDbDictionary
281
     1
  3
2dWireframe
350
2F
  3
3D Hidden
350
31
  3
3dWireframe
350
30
  3
Basic
350
32
  3
Brighten
350
36
  3
ColorChange
350
3A
  3
Conceptual
350
34
  3
Dim
350
35
  3
Facepattern
350
39
  3
Flat
350
2B
  3
FlatWithEdges
350
2C
  3
Gouraud
350
2D
  3
GouraudWithEdges
350
2E
  3
Linepattern
350
38
  3
Realistic
350
33
  3
Thicken
350
37
  0
DICTIONARY
  5
1FF
102
{ACAD_REACTORS
330
C
102
}
330
C
100
AcDbDictionary
281
     1
  3
CANNOSCALE
350
200
  3
PSOLHEIGHT
350
204
  3
PSOLWIDTH
350
203
  0
LAYOUT
  5
1E
102
{ACAD_REACTORS
330
1A
102
}
330
1A
100
AcDbPlotSettings
  1

  2
none_device
  4

  6

 40
0.0
 41
0.0
 42
0.0
 43
0.0
 44
0.0
 45
0.0
 46
0.0
 47
0.0
 48
0.0
 49
0.0
140
0.0
141
0.0
142
1.0
143
1.0
 70
   688
 72
     0
 73
     0
 74
     5
  7

 75
    16
147
1.0
148
0.0
149
0.0
100
AcDbLayout
  1
Layout1
 70
     1
 71
     1
 10
0.0
 20
0.0
 11
3000.0
 21
4500.0
 12
0.0
 22
0.0
 32
0.0
 14
0.0
 24
0.0
 34
0.0
 15
3000.0
 25
4500.0
 35
0.0
146
0.0
 13
0.0
 23
0.0
 33
0.0
 16
1.0
 26
0.0
 36
0.0
 17
0.0
 27
1.0
 37
0.0
 76
     0
330
1B
  0
LAYOUT
  5
22
102
{ACAD_REACTORS
330
1A
102
}
330
1A
100
AcDbPlotSettings
  1

  2
none_device
  4

  6

 40
0.0
 41
0.0
 42
0.0
 43
0.0
 44
0.0
 45
0.0
 46
0.0
 47
0.0
 48
0.0
 49
0.0
140
0.0
141
0.0
142
1.0
143
1.0
 70
  1712
 72
     0
 73
     0
 74
     0
  7

 75
     0
147
1.0
148
0.0
149
0.0
100
AcDbLayout
  1
Model
 70
     1
 71
     0
 10
0.0
 20
0.0
 11
3000.0
 21
4500.0
 12
0.0
 22
0.0
 32
0.0
 14
0.0
 24
0.0
 34
0.0
 15
3000.0
 25
4500.0
 35
0.0
146
0.0
 13
0.0
 23
0.0
 33
0.0
 16
1.0
 26
0.0
 36
0.0
 17
0.0
 27
1.0
 37
0.0
 76
     0
330
1F
331
29
  0
MLINESTYLE
  5
18
102
{ACAD_REACTORS
330
17
102
}
330
17
100
AcDbMlineStyle
  2
Standard
 70
     0
  3

 62
   256
 51
90.0
 52
90.0
 71
     2
 49
0.5
 62
   256
  6
BYLAYER
 49
-0.5
 62
   256
  6
BYLAYER
  0
ACDBPLACEHOLDER
  5
F
102
{ACAD_REACTORS
330
E
102
}
330
E
  0
SCALE
  5
3C
102
{ACAD_REACTORS
330
3B
102
}
330
3B
100
AcDbScale
 70
     0
300
1:1
140
1.0
141
1.0
290
     1
  0
SCALE
  5
3D
102
{ACAD_REACTORS
330
3B
102
}
330
3B
100
AcDbScale
 70
     0
300
1:2
140
1.0
141
2.0
290
     0
  0
SCALE
  5
3E
102
{ACAD_REACTORS
330
3B
102
}
330
3B
100
AcDbScale
 70
     0
300
1:4
140
1.0
141
4.0
290
     0
  0
SCALE
  5
3F
102
{ACAD_REACTORS
330
3B
102
}
330
3B
100
AcDbScale
 70
     0
300
1:5
140
1.0
141
5.0
290
     0
  0
SCALE
  5
40
102
{ACAD_REACTORS
330
3B
102
}
330
3B
100
AcDbScale
 70
     0
300
1:8
140
1.0
141
8.0
290
     0
  0
SCALE
  5
41
102
{ACAD_REACTORS
330
3B
102
}
330
3B
100
AcDbScale
 70
     0
300
1:10
140
1.0
141
10.0
290
     0
  0
SCALE
  5
42
102
{ACAD_REACTORS
330
3B
102
}
330
3B
100
AcDbScale
 70
     0
300
1:16
140
1.0
141
16.0
290
     0
  0
SCALE
  5
43
102
{ACAD_REACTORS
330
3B
102
}
330
3B
100
AcDbScale
 70
     0
300
1:20
140
1.0
141
20.0
290
     0
  0
SCALE
  5
44
102
{ACAD_REACTORS
330
3B
102
}
330
3B
100
AcDbScale
 70
     0
300
1:30
140
1.0
141
30.0
290
     0
  0
SCALE
  5
45
102
{ACAD_REACTORS
330
3B
102
}
330
3B
100
AcDbScale
 70
     0
300
1:40
140
1.0
141
40.0
290
     0
  0
SCALE
  5
46
102
{ACAD_REACTORS
330
3B
102
}
330
3B
100
AcDbScale
 70
     0
300
1:50
140
1.0
141
50.0
290
     0
  0
SCALE
  5
47
102
{ACAD_REACTORS
330
3B
102
}
330
3B
100
AcDbScale
 70
     0
300
1:100
140
1.0
141
100.0
290
     0
  0
SCALE
  5
48
102
{ACAD_REACTORS
330
3B
102
}
330
3B
100
AcDbScale
 70
     0
300
2:1
140
2.0
141
1.0
290
     0
  0
SCALE
  5
49
102
{ACAD_REACTORS
330
3B
102
}
330
3B
100
AcDbScale
 70
     0
300
4:1
140
4.0
141
1.0
290
     0
  0
SCALE
  5
4A
102
{ACAD_REACTORS
330
3B
102
}
330
3B
100
AcDbScale
 70
     0
300
8:1
140
8.0
141
1.0
290
     0
  0
SCALE
  5
4B
102
{ACAD_REACTORS
330
3B
102
}
330
3B
100
AcDbScale
 70
     0
300
10:1
140
10.0
141
1.0
290
     0
  0
SCALE
  5
4C
102
{ACAD_REACTORS
330
3B
102
}
330
3B
100
AcDbScale
 70
     0
300
100:1
140
100.0
141
1.0
290
     0
  0
SCALE
  5
4D
102
{ACAD_REACTORS
330
3B
102
}
330
3B
100
AcDbScale
 70
     0
300
1/128" = 1'-0"
140
0.0078125
141
12.0
290
     0
  0
SCALE
  5
4E
102
{ACAD_REACTORS
330
3B
102
}
330
3B
100
AcDbScale
 70
     0
300
1/64" = 1'-0"
140
0.015625
141
12.0
290
     0
  0
SCALE
  5
4F
102
{ACAD_REACTORS
330
3B
102
}
330
3B
100
AcDbScale
 70
     0
300
1/32" = 1'-0"
140
0.03125
141
12.0
290
     0
  0
SCALE
  5
50
102
{ACAD_REACTORS
330
3B
102
}
330
3B
100
AcDbScale
 70
     0
300
1/16" = 1'-0"
140
0.0625
141
12.0
290
     0
  0
SCALE
  5
51
102
{ACAD_REACTORS
330
3B
102
}
330
3B
100
AcDbScale
 70
     0
300
3/32" = 1'-0"
140
0.09375
141
12.0
290
     0
  0
SCALE
  5
52
102
{ACAD_REACTORS
330
3B
102
}
330
3B
100
AcDbScale
 70
     0
300
1/8" = 1'-0"
140
0.125
141
12.0
290
     0
  0
SCALE
  5
53
102
{ACAD_REACTORS
330
3B
102
}
330
3B
100
AcDbScale
 70
     0
300
3/16" = 1'-0"
140
0.1875
141
12.0
290
     0
  0
SCALE
  5
54
102
{ACAD_REACTORS
330
3B
102
}
330
3B
100
AcDbScale
 70
     0
300
1/4" = 1'-0"
140
0.25
141
12.0
290
     0
  0
SCALE
  5
55
102
{ACAD_REACTORS
330
3B
102
}
330
3B
100
AcDbScale
 70
     0
300
3/8" = 1'-0"
140
0.375
141
12.0
290
     0
  0
SCALE
  5
56
102
{ACAD_REACTORS
330
3B
102
}
330
3B
100
AcDbScale
 70
     0
300
1/2" = 1'-0"
140
0.5
141
12.0
290
     0
  0
SCALE
  5
57
102
{ACAD_REACTORS
330
3B
102
}
330
3B
100
AcDbScale
 70
     0
300
3/4" = 1'-0"
140
0.75
141
12.0
290
     0
  0
SCALE
  5
58
102
{ACAD_REACTORS
330
3B
102
}
330
3B
100
AcDbScale
 70
     0
300
1" = 1'-0"
140
1.0
141
12.0
290
     0
  0
SCALE
  5
59
102
{ACAD_REACTORS
330
3B
102
}
330
3B
100
AcDbScale
 70
     0
300
1-1/2" = 1'-0"
140
1.5
141
12.0
290
     0
  0
SCALE
  5
5A
102
{ACAD_REACTORS
330
3B
102
}
330
3B
100
AcDbScale
 70
     0
300
3" = 1'-0"
140
3.0
141
12.0
290
     0
  0
SCALE
  5
5B
102
{ACAD_REACTORS
330
3B
102
}
330
3B
100
AcDbScale
 70
     0
300
6" = 1'-0"
140
6.0
141
12.0
290
     0
  0
SCALE
  5
5C
102
{ACAD_REACTORS
330
3B
102
}
330
3B
100
AcDbScale
 70
     0
300
1'-0" = 1'-0"
140
12.0
141
12.0
290
     0
  0
VISUALSTYLE
  5
2F
102
{ACAD_REACTORS
330
2A
102
}
330
2A
100
AcDbVisualStyle
  2
2dWireframe
 70
     4
 71
     0
 72
     2
 73
     0
 90
        0
 40
-0.6
 41
-30.0
 62
     5
 63
     7
 74
     1
 91
        4
 64
     7
 65
   257
 75
     1
175
     1
 42
1.0
 92
        0
 66
   257
 43
1.0
 76
     1
 77
     6
 78
     2
 67
     7
 79
     5
170
     0
171
     0
290
     0
174
     0
 93
        1
 44
0.0
173
     0
291
     0
 45
0.0
1001
ACAD
1000
AcDbSavedByObjectVersion
1070
     0
  0
VISUALSTYLE
  5
31
102
{ACAD_REACTORS
330
2A
102
}
330
2A
100
AcDbVisualStyle
  2
3D Hidden
 70
     6
 71
     1
 72
     2
 73
     2
 90
        0
 40
-0.6
 41
-30.0
 62
     5
 63
     7
 74
     2
 91
        2
 64
     7
 65
   257
 75
     2
175
     1
 42
40.0
 92
        0
 66
   257
 43
1.0
 76
     1
 77
     6
 78
     2
 67
     7
 79
     3
170
     0
171
     0
290
     0
174
     0
 93
        1
 44
0.0
173
     0
291
     0
 45
0.0
1001
ACAD
1000
AcDbSavedByObjectVersion
1070
     0
  0
VISUALSTYLE
  5
30
102
{ACAD_REACTORS
330
2A
102
}
330
2A
100
AcDbVisualStyle
  2
3dWireframe
 70
     5
 71
     0
 72
     2
 73
     0
 90
        0
 40
-0.6
 41
-30.0
 62
     5
 63
     7
 74
     1
 91
        4
 64
     7
 65
   257
 75
     1
175
     1
 42
1.0
 92
        0
 66
   257
 43
1.0
 76
     1
 77
     6
 78
     2
 67
     7
 79
     5
170
     0
171
     0
290
     0
174
     0
 93
        1
 44
0.0
173
     0
291
     0
 45
0.0
1001
ACAD
1000
AcDbSavedByObjectVersion
1070
     0
  0
VISUALSTYLE
  5
32
102
{ACAD_REACTORS
330
2A
102
}
330
2A
100
AcDbVisualStyle
  2
Basic
 70
     7
 71
     1
 72
     0
 73
     1
 90
        0
 40
-0.6
 41
-30.0
 62
     5
 63
     7
 74
     0
 91
        4
 64
     7
 65
   257
 75
     1
175
     1
 42
1.0
 92
        8
 66
     7
 43
1.0
 76
     1
 77
     6
 78
     2
 67
     7
 79
     5
170
     0
171
     0
290
     0
174
     0
 93
        1
 44
0.0
173
     0
291
     1
 45
0.0
1001
ACAD
1000
AcDbSavedByObjectVersion
1070
     0
  0
VISUALSTYLE
  5
36
102
{ACAD_REACTORS
330
2A
102
}
330
2A
100
AcDbVisualStyle
  2
Brighten
 70
    12
 71
     2
 72
     2
 73
     0
 90
        0
 40
-0.6
 41
-30.0
 62
     5
 63
     7
 74
     1
 91
        4
 64
     7
 65
   257
 75
     1
175
     1
 42
1.0
 92
        8
 66
     7
 43
1.0
 76
     1
 77
     6
 78
     2
 67
     7
 79
     5
170
     0
171
     0
290
     0
174
     0
 93
        1
 44
50.0
173
     0
291
     1
 45
0.0
1001
ACAD
1000
AcDbSavedByObjectVersion
1070
     0
  0
VISUALSTYLE
  5
3A
102
{ACAD_REACTORS
330
2A
102
}
330
2A
100
AcDbVisualStyle
  2
ColorChange
 70
    16
 71
     2
 72
     2
 73
     3
 90
        0
 40
-0.6
 41
-30.0
 62
     5
 63
     8
 74
     1
 91
        4
 64
     7
 65
   257
 75
     1
175
     1
 42
1.0
 92
        8
 66
     8
 43
1.0
 76
     1
 77
     6
 78
     2
 67
     7
 79
     5
170
     0
171
     0
290
     0
174
     0
 93
        1
 44
0.0
173
     0
291
     1
 45
0.0
1001
ACAD
1000
AcDbSavedByObjectVersion
1070
     0
  0
VISUALSTYLE
  5
34
102
{ACAD_REACTORS
330
2A
102
}
330
2A
100
AcDbVisualStyle
  2
Conceptual
 70
     9
 71
     3
 72
     2
 73
     0
 90
        0
 40
-0.6
 41
-30.0
 62
     5
 63
     7
 74
     2
 91
        2
 64
     7
 65
   257
 75
     1
175
     1
 42
40.0
 92
        8
 66
     7
 43
1.0
 76
     1
 77
     6
 78
     2
 67
     7
 79
     3
170
     0
171
     0
290
     0
174
     0
 93
        1
 44
0.0
173
     0
291
     0
 45
0.0
1001
ACAD
1000
AcDbSavedByObjectVersion
1070
     0
  0
VISUALSTYLE
  5
35
102
{ACAD_REACTORS
330
2A
102
}
330
2A
100
AcDbVisualStyle
  2
Dim
 70
    11
 71
     2
 72
     2
 73
     0
 90
        0
 40
-0.6
 41
-30.0
 62
     5
 63
     7
 74
     1
 91
        4
 64
     7
 65
   257
 75
     1
175
     1
 42
1.0
 92
        8
 66
     7
 43
1.0
 76
     1
 77
     6
 78
     2
 67
     7
 79
     5
170
     0
171
     0
290
     0
174
     0
 93
        1
 44
-50.0
173
     0
291
     1
 45
0.0
1001
ACAD
1000
AcDbSavedByObjectVersion
1070
     0
  0
VISUALSTYLE
  5
39
102
{ACAD_REACTORS
330
2A
102
}
330
2A
100
AcDbVisualStyle
  2
Facepattern
 70
    15
 71
     2
 72
     2
 73
     0
 90
        0
 40
-0.6
 41
-30.0
 62
     5
 63
     7
 74
     1
 91
        4
 64
     7
 65
   257
 75
     1
175
     1
 42
1.0
 92
        8
 66
     7
 43
1.0
 76
     1
 77
     6
 78
     2
 67
     7
 79
     5
170
     0
171
     0
290
     0
174
     0
 93
        1
 44
0.0
173
     0
291
     1
 45
0.0
1001
ACAD
1000
AcDbSavedByObjectVersion
1070
     0
  0
VISUALSTYLE
  5
2B
102
{ACAD_REACTORS
330
2A
102
}
330
2A
100
AcDbVisualStyle
  2
Flat
 70
     0
 71
     2
 72
     1
 73
     1
 90
        2
 40
-0.6
 41
30.0
 62
     5
 63
     7
 74
     0
 91
        4
 64
     7
 65
   257
 75
     1
175
     1
 42
1.0
 92
        8
 66
     7
 43
1.0
 76
     1
 77
     6
 78
     2
 67
     7
 79
     5
170
     0
171
     0
290
     0
174
     0
 93
       13
 44
0.0
173
     0
291
     1
 45
0.0
1001
ACAD
1000
AcDbSavedByObjectVersion
1070
     0
  0
VISUALSTYLE
  5
2C
102
{ACAD_REACTORS
330
2A
102
}
330
2A
100
AcDbVisualStyle
  2
FlatWithEdges
 70
     1
 71
     2
 72
     1
 73
     1
 90
        2
 40
-0.6
 41
30.0
 62
     5
 63
     7
 74
     1
 91
        4
 64
     7
 65
   257
 75
     1
175
     1
 42
1.0
 92
        0
 66
   257
 43
1.0
 76
     1
 77
     6
 78
     2
 67
     7
 79
     5
170
     0
171
     0
290
     0
174
     0
 93
       13
 44
0.0
173
     0
291
     1
 45
0.0
1001
ACAD
1000
AcDbSavedByObjectVersion
1070
     0
  0
VISUALSTYLE
  5
2D
102
{ACAD_REACTORS
330
2A
102
}
330
2A
100
AcDbVisualStyle
  2
Gouraud
 70
     2
 71
     2
 72
     2
 73
     1
 90
        2
 40
-0.6
 41
30.0
 62
     5
 63
     7
 74
     0
 91
        4
 64
     7
 65
   257
 75
     1
175
     1
 42
1.0
 92
        0
 66
     7
 43
1.0
 76
     1
 77
     6
 78
     2
 67
     7
 79
     5
170
     0
171
     0
290
     0
174
     0
 93
       13
 44
0.0
173
     0
291
     1
 45
0.0
1001
ACAD
1000
AcDbSavedByObjectVersion
1070
     0
  0
VISUALSTYLE
  5
2E
102
{ACAD_REACTORS
330
2A
102
}
330
2A
100
AcDbVisualStyle
  2
GouraudWithEdges
 70
     3
 71
     2
 72
     2
 73
     1
 90
        2
 40
-0.6
 41
30.0
 62
     5
 63
     7
 74
     1
 91
        4
 64
     7
 65
   257
 75
     1
175
     1
 42
1.0
 92
        0
 66
   257
 43
1.0
 76
     1
 77
     6
 78
     2
 67
     7
 79
     5
170
     0
171
     0
290
     0
174
     0
 93
       13
 44
0.0
173
     0
291
     1
 45
0.0
1001
ACAD
1000
AcDbSavedByObjectVersion
1070
     0
  0
VISUALSTYLE
  5
38
102
{ACAD_REACTORS
330
2A
102
}
330
2A
100
AcDbVisualStyle
  2
Linepattern
 70
    14
 71
     2
 72
     2
 73
     0
 90
        0
 40
-0.6
 41
-30.0
 62
     5
 63
     7
 74
     1
 91
        4
 64
     7
 65
   257
 75
     7
175
     7
 42
1.0
 92
        8
 66
     7
 43
1.0
 76
     1
 77
     6
 78
     2
 67
     7
 79
     5
170
     0
171
     0
290
     0
174
     0
 93
        1
 44
0.0
173
     0
291
     1
 45
0.0
1001
ACAD
1000
AcDbSavedByObjectVersion
1070
     0
  0
VISUALSTYLE
  5
33
102
{ACAD_REACTORS
330
2A
102
}
330
2A
100
AcDbVisualStyle
  2
Realistic
 70
     8
 71
     2
 72
     2
 73
     0
 90
        0
 40
-0.6
 41
-30.0
 62
     5
 63
     7
 74
     1
 91
        0
 64
     7
 65
   257
 75
     1
175
     1
 42
1.0
 92
        8
 66
     8
 43
1.0
 76
     1
 77
     6
 78
     2
 67
     7
 79
     5
170
     0
171
     0
290
     0
174
     0
 93
       13
 44
0.0
173
     0
291
     0
 45
0.0
1001
ACAD
1000
AcDbSavedByObjectVersion
1070
     0
  0
VISUALSTYLE
  5
37
102
{ACAD_REACTORS
330
2A
102
}
330
2A
100
AcDbVisualStyle
  2
Thicken
 70
    13
 71
     2
 72
     2
 73
     0
 90
        0
 40
-0.6
 41
-30.0
 62
     5
 63
     7
 74
     1
 91
        4
 64
     7
 65
   257
 75
     1
175
     1
 42
1.0
 92
       12
 66
     7
 43
1.0
 76
     1
 77
     6
 78
     2
 67
     7
 79
     5
170
     0
171
     0
290
     0
174
     0
 93
        1
 44
0.0
173
     0
291
     1
 45
0.0
1001
ACAD
1000
AcDbSavedByObjectVersion
1070
     0
  0
DICTIONARYVAR
  5
200
102
{ACAD_REACTORS
330
1FF
102
}
330
1FF
100
DictionaryVariables
280
     0
  1
1:1
  0
DICTIONARYVAR
  5
204
102
{ACAD_REACTORS
330
1FF
102
}
330
1FF
100
DictionaryVariables
280
     0
  1
80.000000
  0
DICTIONARYVAR
  5
203
102
{ACAD_REACTORS
330
1FF
102
}
330
1FF
100
DictionaryVariables
280
     0
  1
5.000000
  0
ENDSEC
  0
EOF
