  0
SECTION
  2
HEADER
  9
$ACADVER
  1
AC1015
  9
$ACADMAINTVER
 70
     6
  9
$DWGCODEPAGE
  3
ANSI_1252
  9
$INSBASE
 10
0.0
 20
0.0
 30
0.0
  9
$EXTMIN
 10
0.0
 20
0.0
 30
0.0
  9
$EXTMAX
 10
3000.0
 20
4500.0
 30
0.0
  9
$LIMMIN
 10
0.0
 20
0.0
  9
$LIMMAX
 10
3000.0
 20
4500.0
  9
$ORTHOMODE
 70
     0
  9
$REGENMODE
 70
     1
  9
$FILLMODE
 70
     1
  9
$QTEXTMODE
 70
     0
  9
$MIRRTEXT
 70
     1
  9
$LTSCALE
 40
1.0
  9
$ATTMODE
 70
     1
  9
$TEXTSIZE
 40
2.5
  9
$TRACEWID
 40
1.0
  9
$TEXTSTYLE
  7
Standard
  9
$CLAYER
  8
0
  9
$CELTYPE
  6
ByLayer
  9
$CECOLOR
 62
   256
  9
$CELTSCALE
 40
1.0
  9
$DISPSILH
 70
     0
  9
$DIMSCALE
 40
1.0
  9
$DIMASZ
 40
2.5
  9
$DIMEXO
 40
0.625
  9
$DIMDLI
 40
3.75
  9
$DIMRND
 40
0.0
  9
$DIMDLE
 40
0.0
  9
$DIMEXE
 40
1.25
  9
$DIMTP
 40
0.0
  9
$DIMTM
 40
0.0
  9
$DIMTXT
 40
2.5
  9
$DIMCEN
 40
2.5
  9
$DIMTSZ
 40
0.0
  9
$DIMTOL
 70
     0
  9
$DIMLIM
 70
     0
  9
$DIMTIH
 70
     0
  9
$DIMTOH
 70
     0
  9
$DIMSE1
 70
     0
  9
$DIMSE2
 70
     0
  9
$DIMTAD
 70
     1
  9
$DIMZIN
 70
     8
  9
$DIMBLK
  1

  9
$DIMASO
 70
     1
  9
$DIMSHO
 70
     1
  9
$DIMPOST
  1

  9
$DIMAPOST
  1

  9
$DIMALT
 70
     0
  9
$DIMALTD
 70
     3
  9
$DIMALTF
 40
0.0393700787
  9
$DIMLFAC
 40
1.0
  9
$DIMTOFL
 70
     1
  9
$DIMTVP
 40
0.0
  9
$DIMTIX
 70
     0
  9
$DIMSOXD
 70
     0
  9
$DIMSAH
 70
     0
  9
$DIMBLK1
  1

  9
$DIMBLK2
  1

  9
$DIMSTYLE
  2
ISO-25
  9
$DIMCLRD
 70
     0
  9
$DIMCLRE
 70
     0
  9
$DIMCLRT
 70
     0
  9
$DIMTFAC
 40
1.0
  9
$DIMGAP
 40
0.625
  9
$DIMJUST
 70
     0
  9
$DIMSD1
 70
     0
  9
$DIMSD2
 70
     0
  9
$DIMTOLJ
 70
     0
  9
$DIMTZIN
 70
     8
  9
$DIMALTZ
 70
     0
  9
$DIMALTTZ
 70
     0
  9
$DIMUPT
 70
     0
  9
$DIMDEC
 70
     2
  9
$DIMTDEC
 70
     2
  9
$DIMALTU
 70
     2
  9
$DIMALTTD
 70
     3
  9
$DIMTXSTY
  7
Standard
  9
$DIMAUNIT
 70
     0
  9
$DIMADEC
 70
     0
  9
$DIMALTRND
 40
0.0
  9
$DIMAZIN
 70
     0
  9
$DIMDSEP
 70
    44
  9
$DIMATFIT
 70
     3
  9
$DIMFRAC
 70
     0
  9
$DIMLDRBLK
  1

  9
$DIMLUNIT
 70
     2
  9
$DIMLWD
 70
    -2
  9
$DIMLWE
 70
    -2
  9
$DIMTMOVE
 70
     0
  9
$LUNITS
 70
     2
  9
$LUPREC
 70
     4
  9
$SKETCHINC
 40
1.0
  9
$FILLETRAD
 40
10.0
  9
$AUNITS
 70
     0
  9
$AUPREC
 70
     0
  9
$MENU
  1
.
  9
$ELEVATION
 40
0.0
  9
$PELEVATION
 40
0.0
  9
$THICKNESS
 40
0.0
  9
$LIMCHECK
 70
     0
  9
$CHAMFERA
 40
10.0
  9
$CHAMFERB
 40
10.0
  9
$CHAMFERC
 40
20.0
  9
$CHAMFERD
 40
0.0
  9
$SKPOLY
 70
     0
  9
$TDCREATE
 40
2456562.603283461
  9
$TDUCREATE
 40
2456562.519950127
  9
$TDUPDATE
 40
2456562.603283472
  9
$TDUUPDATE
 40
2456562.519950139
  9
$TDINDWG
 40
0.0000000116
  9
$TDUSRTIMER
 40
0.0000000116
  9
$USRTIMER
 70
     1
  9
$ANGBASE
 50
0.0
  9
$ANGDIR
 70
     0
  9
$PDMODE
 70
     0
  9
$PDSIZE
 40
0.0
  9
$PLINEWID
 40
0.0
  9
$SPLFRAME
 70
     0
  9
$SPLINETYPE
 70
     6
  9
$SPLINESEGS
 70
     8
  9
$HANDSEED
  5
22E
  9
$SURFTAB1
 70
     6
  9
$SURFTAB2
 70
     6
  9
$SURFTYPE
 70
     6
  9
$SURFU
 70
     6
  9
$SURFV
 70
     6
  9
$UCSBASE
  2

  9
$UCSNAME
  2

  9
$UCSORG
 10
0.0
 20
0.0
 30
0.0
  9
$UCSXDIR
 10
1.0
 20
0.0
 30
0.0
  9
$UCSYDIR
 10
0.0
 20
1.0
 30
0.0
  9
$UCSORTHOREF
  2

  9
$UCSORTHOVIEW
 70
     0
  9
$UCSORGTOP
 10
0.0
 20
0.0
 30
0.0
  9
$UCSORGBOTTOM
 10
0.0
 20
0.0
 30
0.0
  9
$UCSORGLEFT
 10
0.0
 20
0.0
 30
0.0
  9
$UCSORGRIGHT
 10
0.0
 20
0.0
 30
0.0
  9
$UCSORGFRONT
 10
0.0
 20
0.0
 30
0.0
  9
$UCSORGBACK
 10
0.0
 20
0.0
 30
0.0
  9
$PUCSBASE
  2

  9
$PUCSNAME
  2

  9
$PUCSORG
 10
0.0
 20
0.0
 30
0.0
  9
$PUCSXDIR
 10
1.0
 20
0.0
 30
0.0
  9
$PUCSYDIR
 10
0.0
 20
1.0
 30
0.0
  9
$PUCSORTHOREF
  2

  9
$PUCSORTHOVIEW
 70
     0
  9
$PUCSORGTOP
 10
0.0
 20
0.0
 30
0.0
  9
$PUCSORGBOTTOM
 10
0.0
 20
0.0
 30
0.0
  9
$PUCSORGLEFT
 10
0.0
 20
0.0
 30
0.0
  9
$PUCSORGRIGHT
 10
0.0
 20
0.0
 30
0.0
  9
$PUCSORGFRONT
 10
0.0
 20
0.0
 30
0.0
  9
$PUCSORGBACK
 10
0.0
 20
0.0
 30
0.0
  9
$USERI1
 70
     0
  9
$USERI2
 70
     0
  9
$USERI3
 70
     0
  9
$USERI4
 70
     0
  9
$USERI5
 70
     0
  9
$USERR1
 40
0.0
  9
$USERR2
 40
0.0
  9
$USERR3
 40
0.0
  9
$USERR4
 40
0.0
  9
$USERR5
 40
0.0
  9
$WORLDVIEW
 70
     1
  9
$SHADEDGE
 70
     3
  9
$SHADEDIF
 70
    70
  9
$TILEMODE
 70
     1
  9
$MAXACTVP
 70
    64
  9
$PINSBASE
 10
0.0
 20
0.0
 30
0.0
  9
$PLIMCHECK
 70
     0
  9
$PEXTMIN
 10
0.0
 20
0.0
 30
0.0
  9
$PEXTMAX
 10
3000.0
 20
4500.0
 30
0.0
  9
$PLIMMIN
 10
0.0
 20
0.0
  9
$PLIMMAX
 10
3000.0
 20
4500.0
  9
$UNITMODE
 70
     0
  9
$VISRETAIN
 70
     1
  9
$PLINEGEN
 70
     0
  9
$PSLTSCALE
 70
     1
  9
$TREEDEPTH
 70
  3020
  9
$CMLSTYLE
  2
Standard
  9
$CMLJUST
 70
     0
  9
$CMLSCALE
 40
20.0
  9
$PROXYGRAPHICS
 70
     1
  9
$MEASUREMENT
 70
     1
  9
$CELWEIGHT
370
    -1
  9
$ENDCAPS
280
     0
  9
$JOINSTYLE
280
     0
  9
$LWDISPLAY
290
     0
  9
$INSUNITS
 70
     4
  9
$HYPERLINKBASE
  1

  9
$STYLESHEET
  1

  9
$XEDIT
290
     1
  9
$CEPSNTYPE
380
     0
  9
$PSTYLEMODE
290
     1
  9
$FINGERPRINTGUID
  2
{F2C82C88-67A9-4DEC-9409-0125F9030117}
  9
$VERSIONGUID
  2
{FAEB1C32-E019-11D5-929B-00C0DF256EC4}
  9
$EXTNAMES
290
     1
  9
$PSVPSCALE
 40
0.0
  9
$OLESTARTUP
290
     0
  0
ENDSEC
  0
SECTION
  2
CLASSES
  0
CLASS
  1
ACDBDICTIONARYWDFLT
  2
AcDbDictionaryWithDefault
  3
ObjectDBX Classes
 90
        0
280
     0
281
     0
  0
CLASS
  1
VISUALSTYLE
  2
AcDbVisualStyle
  3
ObjectDBX Classes
 90
     4095
280
     0
281
     0
  0
CLASS
  1
SCALE
  2
AcDbScale
  3
ObjectDBX Classes
 90
     1153
280
     0
281
     0
  0
CLASS
  1
DICTIONARYVAR
  2
AcDbDictionaryVar
  3
ObjectDBX Classes
 90
        0
280
     0
281
     0
  0
CLASS
  1
ACDBPLACEHOLDER
  2
AcDbPlaceHolder
  3
ObjectDBX Classes
 90
        0
280
     0
281
     0
  0
CLASS
  1
LAYOUT
  2
AcDbLayout
  3
ObjectDBX Classes
 90
        0
280
     0
281
     0
  0
ENDSEC
  0
SECTION
  2
TABLES
  0
TABLE
  2
VPORT
  5
8
330
0
100
AcDbSymbolTable
 70
     1
  0
VPORT
  5
29
330
8
100
AcDbSymbolTableRecord
100
AcDbViewportTableRecord
  2
*Active
 70
     0
 10
0.0
 20
0.0
 11
1.0
 21
1.0
 12
344.1869158879
 22
148.5
 13
0.0
 23
0.0
 14
10.0
 24
10.0
 15
10.0
 25
10.0
 16
0.0
 26
0.0
 36
1.0
 17
0.0
 27
0.0
 37
0.0
 40
297.0
 41
1.9729729729
 42
50.0
 43
0.0
 44
0.0
 50
0.0
 51
0.0
 71
     0
 72
   100
 73
     1
 74
     3
 75
     0
 76
     0
 77
     0
 78
     0
281
     0
 65
     1
110
0.0
120
0.0
130
0.0
111
1.0
121
0.0
131
0.0
112
0.0
122
1.0
132
0.0
 79
     0
146
0.0
  0
ENDTAB
  0
TABLE
  2
LTYPE
  5
5
330
0
100
AcDbSymbolTable
 70
     2
  0
LTYPE
  5
14
330
5
100
AcDbSymbolTableRecord
100
AcDbLinetypeTableRecord
  2
ByBlock
 70
     0
  3

 72
    65
 73
     0
 40
0.0
  0
LTYPE
  5
15
330
5
100
AcDbSymbolTableRecord
100
AcDbLinetypeTableRecord
  2
ByLayer
 70
     0
  3

 72
    65
 73
     0
 40
0.0
  0
LTYPE
  5
16
330
5
100
AcDbSymbolTableRecord
100
AcDbLinetypeTableRecord
  2
Continuous
 70
     0
  3
Solid line
 72
    65
 73
     0
 40
0.0
  0
LTYPE
  5
60
330
5
100
AcDbSymbolTableRecord
100
AcDbLinetypeTableRecord
  2
CENTER2
 70
     0
  3
Center (.5x) ___ _ ___ _ ___ _ ___ _ ___ _ ___
 72
    65
 73
     4
 40
28.575
 49
19.05
 74
     4
 75
     0
340
0
 46
0.0
 50
0.0
 44
0.0
 45
0.0
 49
-3.175
 74
     4
 75
     0
340
0
 46
0.0
 50
0.0
 44
0.0
 45
0.0
 49
3.175
 74
     4
 75
     0
340
0
 46
0.0
 50
0.0
 44
0.0
 45
0.0
 49
-3.175
 74
     4
 75
     0
340
0
 46
0.0
 50
0.0
 44
0.0
 45
0.0
  0
ENDTAB
  0
TABLE
  2
LAYER
  5
2
330
0
100
AcDbSymbolTable
 70
    10
  0
LAYER
  5
10
330
2
100
AcDbSymbolTableRecord
100
AcDbLayerTableRecord
  2
0
 70
     0
 62
     7
  6
Continuous
370
    -3
390
F
  0
LAYER
  5
5D
330
2
100
AcDbSymbolTableRecord
100
AcDbLayerTableRecord
  2
Default
 70
     0
 62
     7
  6
Continuous
370
    -3
390
F
  0
LAYER
  5
88
330
2
100
AcDbSymbolTableRecord
100
AcDbLayerTableRecord
  2
$DDT_AUDIT_GENERATED_(88)
 70
     0
 62
     7
  6
Continuous
370
    -3
390
F
  0
LAYER
  5
A0
330
2
100
AcDbSymbolTableRecord
100
AcDbLayerTableRecord
  2
$DDT_AUDIT_GENERATED_(A0)
 70
     0
 62
     7
  6
Continuous
370
    -3
390
F
  0
LAYER
  5
DC
330
2
100
AcDbSymbolTableRecord
100
AcDbLayerTableRecord
  2
$DDT_AUDIT_GENERATED_(DC)
 70
     0
 62
     7
  6
Continuous
370
    -3
390
F
  0
LAYER
  5
DF
330
2
100
AcDbSymbolTableRecord
100
AcDbLayerTableRecord
  2
$DDT_AUDIT_GENERATED_(DF)
 70
     0
 62
     7
  6
Continuous
370
    -3
390
F
  0
LAYER
  5
E4
330
2
100
AcDbSymbolTableRecord
100
AcDbLayerTableRecord
  2
$DDT_AUDIT_GENERATED_(E4)
 70
     0
 62
     7
  6
Continuous
370
    -3
390
F
  0
LAYER
  5
1A0
330
2
100
AcDbSymbolTableRecord
100
AcDbLayerTableRecord
  2
$DDT_AUDIT_GENERATED_(1A0)
 70
     0
 62
     7
  6
Continuous
370
    -3
390
F
  0
LAYER
  5
1A7
330
2
100
AcDbSymbolTableRecord
100
AcDbLayerTableRecord
  2
$DDT_AUDIT_GENERATED_(1A7)
 70
     0
 62
     7
  6
Continuous
370
    -3
390
F
  0
LAYER
  5
1CF
330
2
100
AcDbSymbolTableRecord
100
AcDbLayerTableRecord
  2
$DDT_AUDIT_GENERATED_(1CF)
 70
     0
 62
     7
  6
Continuous
370
    -3
390
F
  0
ENDTAB
  0
TABLE
  2
STYLE
  5
3
330
0
100
AcDbSymbolTable
 70
     2
  0
STYLE
  5
11
330
3
100
AcDbSymbolTableRecord
100
AcDbTextStyleTableRecord
  2
Standard
 70
     0
 40
0.0
 41
1.0
 50
0.0
 71
     0
 42
2.5
  3
txt
  4

  0
STYLE
  5
21D
330
3
100
AcDbSymbolTableRecord
100
AcDbTextStyleTableRecord
  2
SEACAD_seiso_ttf
 70
     0
 40
0.0
 41
1.0
 50
0.0
 71
     0
 42
0.2
  3
seiso.ttf
  4

  0
ENDTAB
  0
TABLE
  2
VIEW
  5
6
330
0
100
AcDbSymbolTable
 70
     0
  0
ENDTAB
  0
TABLE
  2
UCS
  5
7
330
0
100
AcDbSymbolTable
 70
     0
  0
ENDTAB
  0
TABLE
  2
APPID
  5
9
330
0
100
AcDbSymbolTable
 70
     1
  0
APPID
  5
12
330
9
100
AcDbSymbolTableRecord
100
AcDbRegAppTableRecord
  2
ACAD
 70
     0
  0
ENDTAB
  0
TABLE
  2
DIMSTYLE
  5
A
330
0
100
AcDbSymbolTable
 70
     1
100
AcDbDimStyleTable
  0
DIMSTYLE
105
27
330
A
100
AcDbSymbolTableRecord
100
AcDbDimStyleTableRecord
  2
ISO-25
 70
     0
 41
2.5
 42
0.625
 43
3.75
 44
1.25
 73
     0
 74
     0
 77
     1
 78
     8
140
2.5
141
2.5
143
0.0393700787
147
0.625
171
     3
172
     1
271
     2
272
     2
274
     3
278
    44
283
     0
284
     8
340
11
  0
ENDTAB
  0
TABLE
  2
BLOCK_RECORD
  5
1
330
0
100
AcDbSymbolTable
 70
    10
  0
BLOCK_RECORD
  5
1F
330
1
100
AcDbSymbolTableRecord
100
AcDbBlockTableRecord
  2
*Model_Space
340
22
  0
BLOCK_RECORD
  5
1B
330
1
100
AcDbSymbolTableRecord
100
AcDbBlockTableRecord
  2
*Paper_Space
340
1E
  0
BLOCK_RECORD
  5
5E
330
1
100
AcDbSymbolTableRecord
100
AcDbBlockTableRecord
  2
SEANNOT_GROUP
340
0
102
{BLKREFS
331
5F
102
}
  0
BLOCK_RECORD
  5
65
330
1
100
AcDbSymbolTableRecord
100
AcDbBlockTableRecord
  2
SEANNOT_GROUP1
340
0
102
{BLKREFS
331
66
102
}
  0
BLOCK_RECORD
  5
6B
330
1
100
AcDbSymbolTableRecord
100
AcDbBlockTableRecord
  2
SEANNOT_GROUP2
340
0
102
{BLKREFS
331
6C
102
}
  0
BLOCK_RECORD
  5
72
330
1
100
AcDbSymbolTableRecord
100
AcDbBlockTableRecord
  2
SEANNOT_GROUP3
340
0
102
{BLKREFS
331
73
102
}
  0
BLOCK_RECORD
  5
7A
330
1
100
AcDbSymbolTableRecord
100
AcDbBlockTableRecord
  2
SEANNOT_GROUP4
340
0
102
{BLKREFS
331
7B
102
}
  0
BLOCK_RECORD
  5
80
330
1
100
AcDbSymbolTableRecord
100
AcDbBlockTableRecord
  2
SEANNOT_GROUP5
340
0
102
{BLKREFS
331
81
102
}
  0
BLOCK_RECORD
  5
86
330
1
100
AcDbSymbolTableRecord
100
AcDbBlockTableRecord
  2
SE
340
0
102
{BLKREFS
331
87
102
}
  0
BLOCK_RECORD
  5
1AC
330
1
100
AcDbSymbolTableRecord
100
AcDbBlockTableRecord
  2
SE1
340
0
102
{BLKREFS
331
1AD
102
}
  0
BLOCK_RECORD
  5
203
330
1
100
AcDbSymbolTableRecord
100
AcDbBlockTableRecord
  2
SE2
340
0
102
{BLKREFS
331
204
102
}
  0
ENDTAB
  0
ENDSEC
  0
SECTION
  2
BLOCKS
  0
BLOCK
  5
20
330
1F
100
AcDbEntity
  8
0
100
AcDbBlockBegin
  2
*Model_Space
 70
     0
 10
0.0
 20
0.0
 30
0.0
  3
*Model_Space
  1

  0
ENDBLK
  5
21
330
1F
100
AcDbEntity
  8
0
100
AcDbBlockEnd
  0
BLOCK
  5
1C
330
1B
100
AcDbEntity
 67
     1
  8
0
100
AcDbBlockBegin
  2
*Paper_Space
 70
     0
 10
0.0
 20
0.0
 30
0.0
  3
*Paper_Space
  1

  0
ENDBLK
  5
1D
330
1B
100
AcDbEntity
 67
     1
  8
0
100
AcDbBlockEnd
  0
BLOCK
  5
63
330
5E
100
AcDbEntity
  8
0
100
AcDbBlockBegin
  2
SEANNOT_GROUP
 70
     0
 10
0.0
 20
0.0
 30
0.0
  3
SEANNOT_GROUP
  1

  0
LINE
  5
61
330
5E
100
AcDbEntity
  8
Default
  6
CENTER2
 62
     7
100
AcDbLine
 10
51.349999553
 20
392.7594899018
 30
0.0
 11
11.350000447
 21
392.7594899018
 31
0.0
  0
LINE
  5
62
330
5E
100
AcDbEntity
  8
Default
  6
CENTER2
 62
     7
100
AcDbLine
 10
31.35
 20
412.7594894548
 30
0.0
 11
31.35
 21
372.7594903488
 31
0.0
  0
ENDBLK
  5
64
330
5E
100
AcDbEntity
  8
0
100
AcDbBlockEnd
  0
BLOCK
  5
69
330
65
100
AcDbEntity
  8
0
100
AcDbBlockBegin
  2
SEANNOT_GROUP1
 70
     0
 10
0.0
 20
0.0
 30
0.0
  3
SEANNOT_GROUP1
  1

  0
LINE
  5
67
330
65
100
AcDbEntity
  8
Default
  6
CENTER2
 62
     7
100
AcDbLine
 10
163.799974553
 20
392.7594899018
 30
0.0
 11
123.799975447
 21
392.7594899018
 31
0.0
  0
LINE
  5
68
330
65
100
AcDbEntity
  8
Default
  6
CENTER2
 62
     7
100
AcDbLine
 10
143.799975
 20
412.7594894548
 30
0.0
 11
143.799975
 21
372.7594903488
 31
0.0
  0
ENDBLK
  5
6A
330
65
100
AcDbEntity
  8
0
100
AcDbBlockEnd
  0
BLOCK
  5
6F
330
6B
100
AcDbEntity
  8
0
100
AcDbBlockBegin
  2
SEANNOT_GROUP2
 70
     0
 10
0.0
 20
0.0
 30
0.0
  3
SEANNOT_GROUP2
  1

  0
LINE
  5
6D
330
6B
100
AcDbEntity
  8
Default
  6
CENTER2
 62
     7
100
AcDbLine
 10
347.5225574575
 20
634.8563350082
 30
0.0
 11
307.5225583516
 21
634.8563350082
 31
0.0
  0
LINE
  5
6E
330
6B
100
AcDbEntity
  8
Default
  6
CENTER2
 62
     7
100
AcDbLine
 10
327.5225579045
 20
654.8563345612
 30
0.0
 11
327.5225579045
 21
614.8563354553
 31
0.0
  0
ENDBLK
  5
70
330
6B
100
AcDbEntity
  8
0
100
AcDbBlockEnd
  0
BLOCK
  5
76
330
72
100
AcDbEntity
  8
0
100
AcDbBlockBegin
  2
SEANNOT_GROUP3
 70
     0
 10
0.0
 20
0.0
 30
0.0
  3
SEANNOT_GROUP3
  1

  0
LINE
  5
74
330
72
100
AcDbEntity
  8
Default
  6
CENTER2
 62
     7
100
AcDbLine
 10
51.3500002022
 20
634.8563350082
 30
0.0
 11
11.3500010963
 21
634.8563350082
 31
0.0
  0
LINE
  5
75
330
72
100
AcDbEntity
  8
Default
  6
CENTER2
 62
     7
100
AcDbLine
 10
31.3500006493
 20
654.8563345612
 30
0.0
 11
31.3500006493
 21
614.8563354553
 31
0.0
  0
ENDBLK
  5
77
330
72
100
AcDbEntity
  8
0
100
AcDbBlockEnd
  0
BLOCK
  5
7E
330
7A
100
AcDbEntity
  8
0
100
AcDbBlockBegin
  2
SEANNOT_GROUP4
 70
     0
 10
0.0
 20
0.0
 30
0.0
  3
SEANNOT_GROUP4
  1

  0
LINE
  5
7C
330
7A
100
AcDbEntity
  8
Default
  6
CENTER2
 62
     7
100
AcDbLine
 10
51.349999553
 20
306.35
 30
0.0
 11
11.350000447
 21
306.35
 31
0.0
  0
LINE
  5
7D
330
7A
100
AcDbEntity
  8
Default
  6
CENTER2
 62
     7
100
AcDbLine
 10
31.35
 20
326.349999553
 30
0.0
 11
31.35
 21
286.350000447
 31
0.0
  0
ENDBLK
  5
7F
330
7A
100
AcDbEntity
  8
0
100
AcDbBlockEnd
  0
BLOCK
  5
84
330
80
100
AcDbEntity
  8
0
100
AcDbBlockBegin
  2
SEANNOT_GROUP5
 70
     0
 10
0.0
 20
0.0
 30
0.0
  3
SEANNOT_GROUP5
  1

  0
LINE
  5
82
330
80
100
AcDbEntity
  8
Default
  6
CENTER2
 62
     7
100
AcDbLine
 10
51.349999553
 20
122.6274170955
 30
0.0
 11
11.350000447
 21
122.6274170955
 31
0.0
  0
LINE
  5
83
330
80
100
AcDbEntity
  8
Default
  6
CENTER2
 62
     7
100
AcDbLine
 10
31.35
 20
142.6274166484
 30
0.0
 11
31.35
 21
102.6274175425
 31
0.0
  0
ENDBLK
  5
85
330
80
100
AcDbEntity
  8
0
100
AcDbBlockEnd
  0
BLOCK
  5
1AA
330
86
100
AcDbEntity
  8
0
100
AcDbBlockBegin
  2
SE
 70
     0
 10
0.0
 20
0.0
 30
0.0
  3
SE
  1

  0
LINE
  5
89
330
86
100
AcDbEntity
  8
$DDT_AUDIT_GENERATED_(88)
  6
Continuous
 62
     7
100
AcDbLine
 10
18.05
 20
669.7594899018
 30
0.0
 11
25.35
 21
669.7594899018
 31
0.0
  0
LINE
  5
8A
330
86
100
AcDbEntity
  8
$DDT_AUDIT_GENERATED_(88)
  6
Continuous
 62
     7
100
AcDbLine
 10
25.35
 20
669.7594899018
 30
0.0
 11
37.35
 21
669.7594899018
 31
0.0
  0
LINE
  5
8B
330
86
100
AcDbEntity
  8
$DDT_AUDIT_GENERATED_(88)
  6
Continuous
 62
     7
100
AcDbLine
 10
37.35
 20
669.7594899018
 30
0.0
 11
44.65
 21
669.7594899018
 31
0.0
  0
LINE
  5
8C
330
86
100
AcDbEntity
  8
$DDT_AUDIT_GENERATED_(88)
  6
Continuous
 62
     7
100
AcDbLine
 10
44.65
 20
669.7594899018
 30
0.0
 11
45.1674069184
 21
669.7594899018
 31
0.0
  0
LINE
  5
8D
330
86
100
AcDbEntity
  8
$DDT_AUDIT_GENERATED_(88)
  6
Continuous
 62
     7
100
AcDbLine
 10
45.35
 20
669.0594899018
 30
0.0
 11
45.35
 21
648.4594899018
 31
0.0
  0
ARC
  5
8E
330
86
100
AcDbEntity
  8
$DDT_AUDIT_GENERATED_(88)
  6
Continuous
 62
     7
100
AcDbCircle
 10
18.05
 20
669.0594899018
 30
0.0
 40
0.6999999999999784
100
AcDbArc
 50
90.0
 51
180.0
  0
ARC
  5
8F
330
86
100
AcDbEntity
  8
$DDT_AUDIT_GENERATED_(88)
  6
Continuous
 62
     7
100
AcDbCircle
 10
44.65
 20
669.0594899018
 30
0.0
 40
0.6999999999999784
100
AcDbArc
 50
0.0
 51
90.0
  0
LINE
  5
90
330
86
100
AcDbEntity
  8
$DDT_AUDIT_GENERATED_(88)
  6
Continuous
 62
     7
100
AcDbLine
 10
44.65
 20
647.7594899018
 30
0.0
 11
37.35
 21
647.7594899018
 31
0.0
  0
LINE
  5
91
330
86
100
AcDbEntity
  8
$DDT_AUDIT_GENERATED_(88)
  6
Continuous
 62
     7
100
AcDbLine
 10
37.35
 20
647.7594899018
 30
0.0
 11
25.35
 21
647.7594899018
 31
0.0
  0
LINE
  5
92
330
86
100
AcDbEntity
  8
$DDT_AUDIT_GENERATED_(88)
  6
Continuous
 62
     7
100
AcDbLine
 10
25.35
 20
647.7594899018
 30
0.0
 11
18.05
 21
647.7594899018
 31
0.0
  0
LINE
  5
93
330
86
100
AcDbEntity
  8
$DDT_AUDIT_GENERATED_(88)
  6
Continuous
 62
     7
100
AcDbLine
 10
17.35
 20
648.4594899018
 30
0.0
 11
17.35
 21
669.0594899018
 31
0.0
  0
ARC
  5
94
330
86
100
AcDbEntity
  8
$DDT_AUDIT_GENERATED_(88)
  6
Continuous
 62
     7
100
AcDbCircle
 10
44.65
 20
648.4594899018
 30
0.0
 40
0.6999999999999784
100
AcDbArc
 50
270.0
 51
0.0
  0
ARC
  5
95
330
86
100
AcDbEntity
  8
$DDT_AUDIT_GENERATED_(88)
  6
Continuous
 62
     7
100
AcDbCircle
 10
18.05
 20
648.4594899018
 30
0.0
 40
0.6999999999999784
100
AcDbArc
 50
180.0
 51
270.0
  0
SPLINE
  5
96
330
86
100
AcDbEntity
  8
$DDT_AUDIT_GENERATED_(88)
  6
Continuous
 62
     7
100
AcDbSpline
210
0.0
220
0.0
230
1.0
 70
     8
 71
     3
 72
     8
 73
     4
 74
     0
 42
0.0000000033135102
 43
0.0000000001
 40
0.9934140619913903
 40
0.9934140619913903
 40
0.9934140619913903
 40
0.9934140619913903
 40
1.0
 40
1.0
 40
1.0
 40
1.0
 10
45.18728271655527
 20
669.7594178193747
 30
0.0
 10
45.1806597317167
 20
669.7594657366468
 30
0.0
 10
45.17403450670787
 20
669.7594899018128
 30
0.0
 10
45.1674069183702
 20
669.7594899018128
 30
0.0
  0
LINE
  5
97
330
86
100
AcDbEntity
  8
$DDT_AUDIT_GENERATED_(88)
  6
Continuous
 62
     7
100
AcDbLine
 10
17.5325930816
 20
669.7594899018
 30
0.0
 11
18.05
 21
669.7594899018
 31
0.0
  0
SPLINE
  5
98
330
86
100
AcDbEntity
  8
$DDT_AUDIT_GENERATED_(88)
  6
Continuous
 62
     7
100
AcDbSpline
210
0.0
220
0.0
230
1.0
 70
     8
 71
     3
 72
     8
 73
     4
 74
     0
 42
0.0000000033143432
 43
0.0000000001
 40
0.0
 40
0.0
 40
0.0
 40
0.0
 40
0.0119432148381297
 40
0.0119432148381297
 40
0.0119432148381297
 40
0.0119432148381297
 10
17.53259308163006
 20
669.7594899018128
 30
0.0
 10
17.52057433634701
 20
669.7594899018128
 30
0.0
 10
17.50856336303847
 20
669.7594104329507
 30
0.0
 10
17.49655942723193
 20
669.7592539585627
 30
0.0
  0
LINE
  5
99
330
86
100
AcDbEntity
  8
$DDT_AUDIT_GENERATED_(88)
  6
Continuous
 62
     7
100
AcDbLine
 10
11.65
 20
689.7480463311
 30
0.0
 11
51.05
 21
689.7480463311
 31
0.0
  0
LINE
  5
9A
330
86
100
AcDbEntity
  8
$DDT_AUDIT_GENERATED_(88)
  6
Continuous
 62
     7
100
AcDbLine
 10
51.35
 20
398.0594899018
 30
0.0
 11
51.35
 21
689.4480463311
 31
0.0
  0
LINE
  5
9B
330
86
100
AcDbEntity
  8
$DDT_AUDIT_GENERATED_(88)
  6
Continuous
 62
     7
100
AcDbLine
 10
11.35
 20
689.4480463311
 30
0.0
 11
11.35
 21
398.0594899018
 31
0.0
  0
ARC
  5
9C
330
86
100
AcDbEntity
  8
$DDT_AUDIT_GENERATED_(88)
  6
Continuous
 62
     7
100
AcDbCircle
 10
11.65
 20
689.4480463311
 30
0.0
 40
0.3000000000000225
100
AcDbArc
 50
90.0
 51
180.0
  0
ARC
  5
9D
330
86
100
AcDbEntity
  8
$DDT_AUDIT_GENERATED_(88)
  6
Continuous
 62
     7
100
AcDbCircle
 10
51.05
 20
689.4480463311
 30
0.0
 40
0.3000000000000017
100
AcDbArc
 50
0.0
 51
90.0
  0
ARC
  5
9E
330
86
100
AcDbEntity
  8
$DDT_AUDIT_GENERATED_(88)
  6
Continuous
 62
     7
100
AcDbCircle
 10
11.65
 20
398.0594899018
 30
0.0
 40
0.3000000000000017
100
AcDbArc
 50
180.0
 51
270.0
  0
ARC
  5
9F
330
86
100
AcDbEntity
  8
$DDT_AUDIT_GENERATED_(88)
  6
Continuous
 62
     7
100
AcDbCircle
 10
51.05
 20
398.0594899018
 30
0.0
 40
0.300000000000012
100
AcDbArc
 50
270.0
 51
0.0
  0
ELLIPSE
  5
A1
330
86
100
AcDbEntity
  8
$DDT_AUDIT_GENERATED_(A0)
  6
Continuous
 62
     7
100
AcDbEllipse
 10
31.35
 20
692.7041408335
 30
0.0
 11
20.00000000000001
 21
5.551115123125783E-14
 31
0.0
210
0.0
220
0.0
230
1.0
 40
0.5064289213
 41
-0.0589383639644778
 42
0.0000000000000171
  0
ELLIPSE
  5
A2
330
86
100
AcDbEntity
  8
$DDT_AUDIT_GENERATED_(A0)
  6
Continuous
 62
     7
100
AcDbEllipse
 10
31.35
 20
692.7041408335
 30
0.0
 11
20.00000000000001
 21
5.551115123125783E-14
 31
0.0
210
0.0
220
0.0
230
1.0
 40
0.5064289213
 41
3.141592653589765
 42
3.202054645376347
  0
ELLIPSE
  5
A3
330
86
100
AcDbEntity
  8
$DDT_AUDIT_GENERATED_(A0)
  6
Continuous
 62
     7
100
AcDbEllipse
 10
31.35
 20
691.2560974191
 30
0.0
 11
19.70000000000003
 21
0.0
 31
0.0
210
0.0
220
0.0
230
1.0
 40
0.0261769483
 41
3.330413920245039
 42
6.053565145168925
  0
ELLIPSE
  5
A4
330
86
100
AcDbEntity
  8
$DDT_AUDIT_GENERATED_(A0)
  6
Continuous
 62
     7
100
AcDbEllipse
 10
35.35
 20
709.2336188989
 30
0.0
 11
2.300000000000001
 21
0.0
 31
0.0
210
0.0
220
0.0
230
1.0
 40
0.0261769483
 41
4.71238898038469
 42
5.769406681440225
  0
ELLIPSE
  5
A5
330
86
100
AcDbEntity
  8
$DDT_AUDIT_GENERATED_(A0)
  6
Continuous
 62
     7
100
AcDbEllipse
 10
27.35
 20
709.2336188989
 30
0.0
 11
2.299999999999994
 21
0.0
 31
0.0
210
0.0
220
0.0
230
1.0
 40
0.0261769483
 41
3.641423329979714
 42
4.71238898038469
  0
LINE
  5
A6
330
86
100
AcDbEntity
  8
$DDT_AUDIT_GENERATED_(A0)
  6
Continuous
 62
     7
100
AcDbLine
 10
20.6357142857
 20
711.5069281014
 30
0.0
 11
20.6357142857
 21
719.9702280079
 31
0.0
  0
ELLIPSE
  5
A7
330
86
100
AcDbEntity
  8
$DDT_AUDIT_GENERATED_(A0)
  6
Continuous
 62
     7
100
AcDbEllipse
 10
16.35
 20
711.3300977235
 30
0.0
 11
-7.999999999999947
 21
0.0
 31
0.0
210
0.0
220
0.0
230
1.0
 40
0.0261769483
 41
3.141592653589793
 42
4.147035550147317
  0
LINE
  5
A8
330
86
100
AcDbEntity
  8
$DDT_AUDIT_GENERATED_(A0)
  6
Continuous
 62
     7
100
AcDbLine
 10
24.35
 20
709.9333790264
 30
0.0
 11
24.35
 21
718.4807775779
 31
0.0
  0
ELLIPSE
  5
A9
330
86
100
AcDbEntity
  8
$DDT_AUDIT_GENERATED_(A0)
  6
Continuous
 62
     7
100
AcDbEllipse
 10
46.35
 20
711.3300977235
 30
0.0
 11
-8.000000000000023
 21
0.0
 31
0.0
210
0.0
220
0.0
230
1.0
 40
0.0261769483
 41
5.277742410622067
 42
6.283185307179586
  0
SPLINE
  5
AA
330
86
100
AcDbEntity
  8
$DDT_AUDIT_GENERATED_(A0)
  6
Continuous
 62
     7
100
AcDbSpline
210
0.0
220
0.0
230
1.0
 70
     8
 71
     3
 72
    10
 73
     6
 74
     0
 42
0.0000000020207894
 43
0.0000000001
 40
0.0
 40
0.0
 40
0.0
 40
0.0
 40
0.5
 40
0.5
 40
1.0
 40
1.0
 40
1.0
 40
1.0
 10
24.88583210691941
 20
709.2543184451548
 30
0.0
 10
24.04017203218491
 20
709.2618790383202
 30
0.0
 10
23.26138048067426
 20
709.6048085484222
 30
0.0
 10
21.87240431649496
 20
710.4566468063125
 30
0.0
 10
21.24075219376344
 20
710.9856598517703
 30
0.0
 10
20.6357142857142
 20
711.5069281013817
 30
0.0
  0
SPLINE
  5
AB
330
86
100
AcDbEntity
  8
$DDT_AUDIT_GENERATED_(A0)
  6
Continuous
 62
     7
100
AcDbSpline
210
0.0
220
0.0
230
1.0
 70
     8
 71
     3
 72
    12
 73
     8
 74
     0
 42
0.0000000020320505
 43
0.0000000001
 40
0.0
 40
0.0
 40
0.0
 40
0.0
 40
0.4999999999999997
 40
0.4999999999999997
 40
0.7499999999999998
 40
0.7499999999999998
 40
1.0
 40
1.0
 40
1.0
 40
1.0
 10
42.06428571428563
 20
711.5069281013817
 30
0.0
 10
41.4592478062601
 20
710.9856598517314
 30
0.0
 10
40.82759568350487
 20
710.4566468063125
 30
0.0
 10
39.78586356037039
 20
709.8177681128948
 30
0.0
 10
39.42240218973832
 20
709.629952875983
 30
0.0
 10
38.64065585922051
 20
709.3478901668364
 30
0.0
 10
38.23699793044769
 20
709.2580987417375
 30
0.0
 10
37.81416789308043
 20
709.2543184451548
 30
0.0
  0
SPLINE
  5
AC
330
86
100
AcDbEntity
  8
$DDT_AUDIT_GENERATED_(A0)
  6
Continuous
 62
     7
100
AcDbSpline
210
0.0
220
0.0
230
1.0
 70
     8
 71
     3
 72
    14
 73
    10
 74
     0
 42
0.0000000025889641
 43
0.0000000001
 40
0.0279862971474212
 40
0.0279862971474212
 40
0.0279862971474212
 40
0.0279862971474212
 40
0.25
 40
0.25
 40
0.5
 40
0.5
 40
0.75
 40
0.75
 40
1.0
 40
1.0
 40
1.0
 40
1.0
 10
38.39679714775725
 20
710.7210017625707
 30
0.0
 10
38.65477721422634
 20
710.7364489452723
 30
0.0
 10
38.90782381003442
 20
710.7821089569721
 30
0.0
 10
39.45782151378349
 20
710.8944912965522
 30
0.0
 10
39.75474169821251
 20
710.9655477700765
 30
0.0
 10
40.3707979993935
 20
711.1136038095293
 30
0.0
 10
40.68993935623153
 20
711.1911280867762
 30
0.0
 10
41.35587746719838
 20
711.3479670122323
 30
0.0
 10
41.70406707816358
 20
711.427750607044
 30
0.0
 10
42.06428571428563
 20
711.5069281013817
 30
0.0
  0
SPLINE
  5
AD
330
86
100
AcDbEntity
  8
$DDT_AUDIT_GENERATED_(A0)
  6
Continuous
 62
     7
100
AcDbSpline
210
0.0
220
0.0
230
1.0
 70
     8
 71
     3
 72
    14
 73
    10
 74
     0
 42
0.0000000025891554
 43
0.0000000001
 40
0.0
 40
0.0
 40
0.0
 40
0.0
 40
0.25
 40
0.25
 40
0.5
 40
0.5
 40
0.75
 40
0.75
 40
0.9727993150734027
 40
0.9727993150734027
 40
0.9727993150734027
 40
0.9727993150734027
 10
20.6357142857142
 20
711.5069281013817
 30
0.0
 10
20.99593292183677
 20
711.4277506070474
 30
0.0
 10
21.34412253280146
 20
711.3479670122322
 30
0.0
 10
22.01006064376831
 20
711.1911280867762
 30
0.0
 10
22.32920200060634
 20
711.1136038095293
 30
0.0
 10
22.94525830178733
 20
710.9655477700765
 30
0.0
 10
23.24217848621635
 20
710.8944912965522
 30
0.0
 10
23.79309159753701
 20
710.7819219095646
 30
0.0
 10
24.04701356396474
 20
710.7361258926354
 30
0.0
 10
24.30594168376284
 20
710.720838915461
 30
0.0
  0
ARC
  5
AE
330
86
100
AcDbEntity
  8
$DDT_AUDIT_GENERATED_(A0)
  6
Continuous
 62
     7
100
AcDbCircle
 10
17.1919777881
 20
786.7257884875
 30
0.0
 40
66.14983418763084
100
AcDbArc
 50
265.512394052
 51
266.661348021
  0
ARC
  5
AF
330
86
100
AcDbEntity
  8
$DDT_AUDIT_GENERATED_(A0)
  6
Continuous
 62
     7
100
AcDbCircle
 10
17.1919777881
 20
786.7257884875
 30
0.0
 40
66.14983418763084
100
AcDbArc
 50
266.661348021
 51
273.293728671
  0
ARC
  5
B0
330
86
100
AcDbEntity
  8
$DDT_AUDIT_GENERATED_(A0)
  6
Continuous
 62
     7
100
AcDbCircle
 10
22.201330609
 20
690.1328373067
 30
0.0
 40
30.57629003645221
100
AcDbArc
 50
86.0780926299
 51
92.2655856594
  0
ARC
  5
B1
330
86
100
AcDbEntity
  8
$DDT_AUDIT_GENERATED_(A0)
  6
Continuous
 62
     7
100
AcDbCircle
 10
22.201330609
 20
690.1328373067
 30
0.0
 40
30.57629003645221
100
AcDbArc
 50
84.6750037907
 51
86.0780926299
  0
LINE
  5
B2
330
86
100
AcDbEntity
  8
$DDT_AUDIT_GENERATED_(A0)
  6
Continuous
 62
     7
100
AcDbLine
 10
25.0389625829
 20
720.5771694093
 30
0.0
 11
25.0389625829
 21
719.1804507122
 31
0.0
  0
ARC
  5
B3
330
86
100
AcDbEntity
  8
$DDT_AUDIT_GENERATED_(A0)
  6
Continuous
 62
     7
100
AcDbCircle
 10
26.4999761257
 20
742.4947294153
 30
0.0
 40
23.36001181546452
100
AcDbArc
 50
266.4141892974
 51
266.9174624775
  0
ARC
  5
B4
330
86
100
AcDbEntity
  8
$DDT_AUDIT_GENERATED_(A0)
  6
Continuous
 62
     7
100
AcDbCircle
 10
26.4999761257
 20
742.4947294153
 30
0.0
 40
23.36001181546452
100
AcDbArc
 50
266.9174624775
 51
272.0681388769
  0
ARC
  5
B5
330
86
100
AcDbEntity
  8
$DDT_AUDIT_GENERATED_(A0)
  6
Continuous
 62
     7
100
AcDbCircle
 10
31.35
 20
318.782796222
 30
0.0
 40
400.3871889458451
100
AcDbArc
 50
89.426583869
 51
90.573416131
  0
ARC
  5
B6
330
86
100
AcDbEntity
  8
$DDT_AUDIT_GENERATED_(A0)
  6
Continuous
 62
     7
100
AcDbCircle
 10
36.1996935381
 20
742.5196699336
 30
0.0
 40
23.38492419910027
100
AcDbArc
 50
267.934875193
 51
273.0516123169
  0
ARC
  5
B7
330
86
100
AcDbEntity
  8
$DDT_AUDIT_GENERATED_(A0)
  6
Continuous
 62
     7
100
AcDbCircle
 10
36.1996935381
 20
742.5196699336
 30
0.0
 40
23.38492419910027
100
AcDbArc
 50
273.0516123169
 51
273.5827966327
  0
LINE
  5
B8
330
86
100
AcDbEntity
  8
$DDT_AUDIT_GENERATED_(A0)
  6
Continuous
 62
     7
100
AcDbLine
 10
37.6610374171
 20
719.1804507122
 30
0.0
 11
37.6610374171
 21
720.5771694093
 31
0.0
  0
SPLINE
  5
B9
330
86
100
AcDbEntity
  8
$DDT_AUDIT_GENERATED_(A0)
  6
Continuous
 62
     7
100
AcDbSpline
210
0.0
220
0.0
230
1.0
 70
     8
 71
     3
 72
    10
 73
     6
 74
     0
 42
0.0000000053603961
 43
0.0000000001
 40
0.0
 40
0.0
 40
0.0
 40
0.0
 40
0.2499999999999999
 40
0.2499999999999999
 40
0.4167285442068235
 40
0.4167285442068235
 40
0.4167285442068235
 40
0.4167285442068235
 10
37.66103741709413
 20
720.5771694093438
 30
0.0
 10
37.66103741709413
 20
720.5964428533483
 30
0.0
 10
37.75318432967286
 20
720.6138831391509
 30
0.0
 10
38.05540696302307
 20
720.6396915275875
 30
0.0
 10
38.21752471549102
 20
720.6491098563362
 30
0.0
 10
38.4160088197164
 20
720.657256434252
 30
0.0
  0
SPLINE
  5
BA
330
86
100
AcDbEntity
  8
$DDT_AUDIT_GENERATED_(A0)
  6
Continuous
 62
     7
100
AcDbSpline
210
0.0
220
0.0
230
1.0
 70
     8
 71
     3
 72
    10
 73
     6
 74
     0
 42
0.0000000017718012
 43
0.0000000001
 40
0.4167285442068235
 40
0.4167285442068235
 40
0.4167285442068235
 40
0.4167285442068235
 40
0.4999999999999999
 40
0.4999999999999999
 40
1.0
 40
1.0
 40
1.0
 40
1.0
 10
38.4160088197164
 20
720.657256434252
 30
0.0
 10
38.51514037747864
 20
720.6613251880818
 30
0.0
 10
38.62334328962302
 20
720.6650767117817
 30
0.0
 10
39.44056645797947
 20
720.6888140682104
 30
0.0
 10
40.46369849408544
 20
720.6967912242663
 30
0.0
 10
41.70739984268005
 20
720.6852264618933
 30
0.0
  0
ARC
  5
BB
330
86
100
AcDbEntity
  8
$DDT_AUDIT_GENERATED_(A0)
  6
Continuous
 62
     7
100
AcDbCircle
 10
45.5080684342
 20
786.7213521027
 30
0.0
 40
66.14540778763158
100
AcDbArc
 50
266.7060105675
 51
274.4878667094
  0
LINE
  5
BC
330
86
100
AcDbEntity
  8
$DDT_AUDIT_GENERATED_(A0)
  6
Continuous
 62
     7
100
AcDbLine
 10
38.35
 20
718.4807775779
 30
0.0
 11
38.35
 21
709.9333790264
 31
0.0
  0
LINE
  5
BD
330
86
100
AcDbEntity
  8
$DDT_AUDIT_GENERATED_(A0)
  6
Continuous
 62
     7
100
AcDbLine
 10
38.35
 20
719.877496275
 30
0.0
 11
38.35
 21
718.4807775779
 31
0.0
  0
LINE
  5
BE
330
86
100
AcDbEntity
  8
$DDT_AUDIT_GENERATED_(A0)
  6
Continuous
 62
     7
100
AcDbLine
 10
24.35
 20
718.4807775779
 30
0.0
 11
24.35
 21
719.877496275
 31
0.0
  0
LINE
  5
BF
330
86
100
AcDbEntity
  8
$DDT_AUDIT_GENERATED_(A0)
  6
Continuous
 62
     7
100
AcDbLine
 10
42.0642857143
 20
719.9702280079
 30
0.0
 11
42.0642857143
 21
711.5069281014
 31
0.0
  0
ARC
  5
C0
330
86
100
AcDbEntity
  8
$DDT_AUDIT_GENERATED_(A0)
  6
Continuous
 62
     7
100
AcDbCircle
 10
40.7901568105
 20
696.5717653856
 30
0.0
 40
23.43312735319584
100
AcDbArc
 50
86.8831207866
 51
95.9772048997
  0
ARC
  5
C1
330
86
100
AcDbEntity
  8
$DDT_AUDIT_GENERATED_(A0)
  6
Continuous
 62
     7
100
AcDbCircle
 10
21.9099632248
 20
696.5765732908
 30
0.0
 40
23.42833309013867
100
AcDbArc
 50
84.0218626561
 51
93.1178116576
  0
ARC
  5
C2
330
86
100
AcDbEntity
  8
$DDT_AUDIT_GENERATED_(A0)
  6
Continuous
 62
     7
100
AcDbCircle
 10
16.7959766686
 20
788.0808400121
 30
0.0
 40
68.21875880254896
100
AcDbArc
 50
265.4211441622
 51
273.226635794
  0
ARC
  5
C3
330
86
100
AcDbEntity
  8
$DDT_AUDIT_GENERATED_(A0)
  6
Continuous
 62
     7
100
AcDbCircle
 10
45.9039594489
 20
788.0862533777
 30
0.0
 40
68.22415999167647
100
AcDbArc
 50
266.7736736583
 51
274.5785463854
  0
ELLIPSE
  5
C4
330
86
100
AcDbEntity
  8
$DDT_AUDIT_GENERATED_(A0)
  6
Continuous
 62
     7
100
AcDbEllipse
 10
31.35
 20
720.7787510077
 30
0.0
 11
19.33381303966938
 21
5.551115123125783E-14
 31
0.0
210
0.0
220
0.0
230
1.0
 40
0.0261769483
 41
0.2623803837005856
 42
0.5721846656058563
  0
ELLIPSE
  5
C5
330
86
100
AcDbEntity
  8
$DDT_AUDIT_GENERATED_(A0)
  6
Continuous
 62
     7
100
AcDbEllipse
 10
31.35
 20
720.7787510077
 30
0.0
 11
19.33381303966938
 21
5.551115123125783E-14
 31
0.0
210
0.0
220
0.0
230
1.0
 40
0.0261769483
 41
-3.71377731919565
 42
-3.371871890855715
  0
ELLIPSE
  5
C6
330
86
100
AcDbEntity
  8
$DDT_AUDIT_GENERATED_(A0)
  6
Continuous
 62
     7
100
AcDbEllipse
 10
41.6892857143
 20
719.9857006659
 30
0.0
 11
-0.006488455354607126
 21
-0.6999699278876781
 31
0.0
210
0.0
220
0.0
230
0.9999999999999999
 40
0.5359748656
 41
1.553658294822506
 42
3.110591324194194
  0
ELLIPSE
  5
C7
330
86
100
AcDbEntity
  8
$DDT_AUDIT_GENERATED_(A0)
  6
Continuous
 62
     7
100
AcDbEllipse
 10
21.0107142857
 20
719.9857006659
 30
0.0
 11
0.0
 21
0.6997602881377708
 31
0.0
210
0.0
220
0.0
230
1.0
 40
1.0
 41
0.0258890827914513
 42
1.612033357964462
  0
ELLIPSE
  5
C8
330
86
100
AcDbEntity
  8
$DDT_AUDIT_GENERATED_(A0)
  6
Continuous
 62
     7
100
AcDbEllipse
 10
37.65
 20
719.877496275
 30
0.0
 11
0.6999999999999099
 21
-2.248201624865942E-11
 31
0.0
210
0.0
220
0.0
230
1.0
 40
0.999657325
 41
0.0
 42
1.555027934681154
  0
ELLIPSE
  5
C9
330
86
100
AcDbEntity
  8
$DDT_AUDIT_GENERATED_(A0)
  6
Continuous
 62
     7
100
AcDbEllipse
 10
25.05
 20
719.877496275
 30
0.0
 11
0.7000000000000278
 21
2.015054789694659E-11
 31
0.0
210
0.0
220
0.0
230
1.0
 40
0.999657325
 41
1.586564718911966
 42
3.141592653589793
  0
ELLIPSE
  5
CA
330
86
100
AcDbEntity
  8
$DDT_AUDIT_GENERATED_(A0)
  6
Continuous
 62
     7
100
AcDbEllipse
 10
37.65
 20
718.4807775779
 30
0.0
 11
0.7000000000000869
 21
-2.142730437526552E-11
 31
0.0
210
0.0
220
0.0
230
1.0
 40
0.999657325
 41
0.0000000000306209
 42
1.555027934679652
  0
ELLIPSE
  5
CB
330
86
100
AcDbEntity
  8
$DDT_AUDIT_GENERATED_(A0)
  6
Continuous
 62
     7
100
AcDbEllipse
 10
25.05
 20
718.4807775779
 30
0.0
 11
0.6999999999999689
 21
2.214894934127187E-11
 31
0.0
210
0.0
220
0.0
230
1.0
 40
0.999657325
 41
1.586564718909113
 42
3.141592653589793
  0
SPLINE
  5
CC
330
86
100
AcDbEntity
  8
$DDT_AUDIT_GENERATED_(A0)
  6
Continuous
 62
     7
100
AcDbSpline
210
0.0
220
0.0
230
1.0
 70
     8
 71
     3
 72
    14
 73
    10
 74
     0
 42
0.0000000138040527
 43
0.0000000001
 40
0.0
 40
0.0
 40
0.0
 40
0.0
 40
0.0349589470128667
 40
0.158273387264336
 40
0.2789908998990789
 40
0.4071032542981351
 40
0.5595714886467574
 40
0.7551546245917482
 40
1.0
 40
1.0
 40
1.0
 40
1.0
 10
50.87339896337567
 20
691.1856411758517
 30
0.0
 10
50.88515425584503
 20
691.1865260262723
 30
0.0
 10
50.93052369246121
 20
691.1900991608366
 30
0.0
 10
51.00907158153424
 20
691.2298834181632
 30
0.0
 10
51.08639809617183
 20
691.2923557140738
 30
0.0
 10
51.14573989853666
 20
691.3699407424738
 30
0.0
 10
51.19167811188141
 20
691.4595470444699
 30
0.0
 10
51.23242571825691
 20
691.5761494627185
 30
0.0
 10
51.251177696379
 20
691.6693153882893
 30
0.0
 10
51.26280511038775
 20
691.7309727254785
 30
0.0
  0
ARC
  5
CD
330
86
100
AcDbEntity
  8
$DDT_AUDIT_GENERATED_(A0)
  6
Continuous
 62
     7
100
AcDbCircle
 10
14.7425430662
 20
692.3632130515
 30
0.0
 40
3.366158964162754
100
AcDbArc
 50
185.2105114616
 51
190.8497083769
  0
ARC
  5
CE
330
86
100
AcDbEntity
  8
$DDT_AUDIT_GENERATED_(A0)
  6
Continuous
 62
     7
100
AcDbCircle
 10
48.2280004787
 20
692.3206865955
 30
0.0
 40
3.092460232629127
100
AcDbArc
 50
348.9805958823
 51
355.4218953664
  0
ARC
  5
CF
330
86
100
AcDbEntity
  8
$DDT_AUDIT_GENERATED_(A0)
  6
Continuous
 62
     7
100
AcDbCircle
 10
50.0828236005
 20
695.900309557
 30
0.0
 40
4.783884662299014
100
AcDbArc
 50
275.7596222263
 51
279.5218696422
  0
ARC
  5
D0
330
86
100
AcDbEntity
  8
$DDT_AUDIT_GENERATED_(A0)
  6
Continuous
 62
     7
100
AcDbCircle
 10
12.2612981403
 20
693.6663120345
 30
0.0
 40
2.521863603856931
100
AcDbArc
 50
260.0559557098
 51
263.2152726802
  0
SPLINE
  5
D1
330
86
100
AcDbEntity
  8
$DDT_AUDIT_GENERATED_(A0)
  6
Continuous
 62
     7
100
AcDbSpline
210
0.0
220
0.0
230
1.0
 70
     8
 71
     3
 72
    14
 73
    10
 74
     0
 42
0.0000000137752839
 43
0.0000000001
 40
0.0
 40
0.0
 40
0.0
 40
0.0
 40
0.1735948833345917
 40
0.4408979281639634
 40
0.598675242088074
 40
0.733838793884455
 40
0.8572339400552378
 40
0.9756871721506691
 40
1.0
 40
1.0
 40
1.0
 40
1.0
 10
11.43770074667494
 20
691.7326161678258
 30
0.0
 10
11.44546445422129
 20
691.687587072435
 30
0.0
 10
11.46322892295963
 20
691.5907737391715
 30
0.0
 10
11.50207904019659
 20
691.4708093559418
 30
0.0
 10
11.55692244369972
 20
691.3657035847359
 30
0.0
 10
11.61878788228244
 20
691.2868098346752
 30
0.0
 10
11.69948480528896
 20
691.2250349878236
 30
0.0
 10
11.77689590542554
 20
691.1875227423549
 30
0.0
 10
11.81792764948033
 20
691.1855874995451
 30
0.0
 10
11.82609851492333
 20
691.1852200943129
 30
0.0
  0
ARC
  5
D2
330
86
100
AcDbEntity
  8
$DDT_AUDIT_GENERATED_(A0)
  6
Continuous
 62
     7
100
AcDbCircle
 10
39.2032193864
 20
697.085257727
 30
0.0
 40
13.65958371111409
100
AcDbArc
 50
93.3837757117
 51
93.5854703176
  0
SPLINE
  5
D3
330
86
100
AcDbEntity
  8
$DDT_AUDIT_GENERATED_(A0)
  6
Continuous
 62
     7
100
AcDbSpline
210
0.0
220
0.0
230
1.0
 70
     8
 71
     3
 72
    20
 73
    16
 74
     0
 42
0.0000000072983117
 43
0.0000000001
 40
0.0
 40
0.0
 40
0.0
 40
0.0
 40
0.0165835986847187
 40
0.1703468110206069
 40
0.3335110817593334
 40
0.4386338427875538
 40
0.5033420688352349
 40
0.5506343631997469
 40
0.6009609693709916
 40
0.6596544467350388
 40
0.7245147208692109
 40
0.7943675428683368
 40
0.8680139233825599
 40
0.9437173530082097
 40
1.0
 40
1.0
 40
1.0
 40
1.0
 10
37.38628957557901
 20
709.204680573178
 30
0.0
 10
37.39298676623201
 20
709.2049553481372
 30
0.0
 10
37.45209034081351
 20
709.2073881061044
 30
0.0
 10
37.54974790123362
 20
709.2133542402344
 30
0.0
 10
37.6518918023602
 20
709.2216179346354
 30
0.0
 10
37.73028578972306
 20
709.231557181146
 30
0.0
 10
37.8034690713792
 20
709.2459546763635
 30
0.0
 10
37.87994894298806
 20
709.2684628441668
 30
0.0
 10
37.96519591506621
 20
709.3041370493266
 30
0.0
 10
38.06003277424047
 20
709.3608129505005
 30
0.0
 10
38.15569844401475
 20
709.4426344543848
 30
0.0
 10
38.24146537181209
 20
709.549735914479
 30
0.0
 10
38.30723709427265
 20
709.6776125734693
 30
0.0
 10
38.34414918342065
 20
709.8119178405708
 30
0.0
 10
38.3483899601001
 20
709.8927443411076
 30
0.0
 10
38.34999999999989
 20
709.9333790263564
 30
0.0
  0
LINE
  5
D4
330
86
100
AcDbEntity
  8
$DDT_AUDIT_GENERATED_(A0)
  6
Continuous
 62
     7
100
AcDbLine
 10
27.35
 20
709.1731720452
 30
0.0
 11
35.35
 21
709.1731720452
 31
0.0
  0
SPLINE
  5
D5
330
86
100
AcDbEntity
  8
$DDT_AUDIT_GENERATED_(A0)
  6
Continuous
 62
     7
100
AcDbSpline
210
0.0
220
0.0
230
1.0
 70
     8
 71
     3
 72
    21
 73
    17
 74
     0
 42
0.0000000073835996
 43
0.0000000001
 40
0.0
 40
0.0
 40
0.0
 40
0.0
 40
0.0819209883932865
 40
0.156468001802917
 40
0.2251048785773223
 40
0.2886670261471398
 40
0.3473647673672836
 40
0.4008924441028744
 40
0.4487156663146875
 40
0.4927316121828053
 40
0.5394506025062786
 40
0.5950984773213094
 40
0.6731604141677409
 40
0.8085987715444677
 40
0.9638501255266481
 40
1.0
 40
1.0
 40
1.0
 40
1.0
 10
24.3499999999999
 20
709.9333790263564
 30
0.0
 10
24.35330515508187
 20
709.8752430110294
 30
0.0
 10
24.3601532404006
 20
709.7811633603459
 30
0.0
 10
24.40930564921146
 20
709.6400480964471
 30
0.0
 10
24.47639369145718
 20
709.5248732060924
 30
0.0
 10
24.55673323222396
 20
709.4312893550001
 30
0.0
 10
24.64302090398456
 20
709.3594669914456
 30
0.0
 10
24.72853591846278
 20
709.3077826258447
 30
0.0
 10
24.80680379901622
 20
709.2734833151611
 30
0.0
 10
24.87373861770071
 20
709.2521741431502
 30
0.0
 10
24.9295065219407
 20
709.2391816495053
 30
0.0
 10
24.98157500708746
 20
709.230192023952
 30
0.0
 10
25.04517532783977
 20
709.2221251285077
 30
0.0
 10
25.13135274144015
 20
709.2147241441377
 30
0.0
 10
25.22177537949971
 20
709.2088383792845
 30
0.0
 10
25.2843956031948
 20
709.2060968599218
 30
0.0
 10
25.29823332374205
 20
709.2054954849511
 30
0.0
  0
SPLINE
  5
D6
330
86
100
AcDbEntity
  8
$DDT_AUDIT_GENERATED_(A0)
  6
Continuous
 62
     7
100
AcDbSpline
210
0.0
220
0.0
230
1.0
 70
     8
 71
     3
 72
     9
 73
     5
 74
     0
 42
0.0000000065400576
 43
0.0000000001
 40
0.0
 40
0.0
 40
0.0
 40
0.0
 40
0.0067934650289168
 40
0.0318100889192819
 40
0.0318100889192819
 40
0.0318100889192819
 40
0.0318100889192819
 10
24.30575683526872
 20
710.720943622677
 30
0.0
 10
24.30980974887605
 20
710.7207148373452
 30
0.0
 10
24.32615546221943
 20
710.7197916510357
 30
0.0
 10
24.34205951944802
 20
710.7188454683851
 30
0.0
 10
24.35431182478903
 20
710.7180904811663
 30
0.0
  0
ARC
  5
D7
330
86
100
AcDbEntity
  8
$DDT_AUDIT_GENERATED_(A0)
  6
Continuous
 62
     7
100
AcDbCircle
 10
31.35
 20
321.1329728467
 30
0.0
 40
400.2500000001537
100
AcDbArc
 50
87.6725537625
 51
92.3274462375
  0
LINE
  5
D8
330
86
100
AcDbEntity
  8
$DDT_AUDIT_GENERATED_(A0)
  6
Continuous
 62
     7
100
AcDbLine
 10
51.35
 20
692.7041408335
 30
0.0
 11
51.35
 21
720.0798077355
 31
0.0
  0
LINE
  5
D9
330
86
100
AcDbEntity
  8
$DDT_AUDIT_GENERATED_(A0)
  6
Continuous
 62
     7
100
AcDbLine
 10
11.35
 20
720.0798077355
 30
0.0
 11
11.35
 21
692.7041408335
 31
0.0
  0
SPLINE
  5
DA
330
86
100
AcDbEntity
  8
$DDT_AUDIT_GENERATED_(A0)
  6
Continuous
 62
     7
100
AcDbSpline
210
0.0
220
0.0
230
1.0
 70
     8
 71
     3
 72
    18
 73
    14
 74
     0
 42
0.0000000070638163
 43
0.0000000001
 40
0.0
 40
0.0
 40
0.0
 40
0.0
 40
0.1038118054570765
 40
0.2906732802513569
 40
0.492654559255212
 40
0.6256230531315634
 40
0.6957516289683356
 40
0.7491768012871491
 40
0.7948265047276746
 40
0.8357264674763815
 40
0.8745270701926376
 40
0.9128643214193737
 40
0.9391483580371168
 40
0.9391483580371168
 40
0.9391483580371168
 40
0.9391483580371168
 10
12.49354172526153
 20
720.8915128679067
 30
0.0
 10
12.44754923638455
 20
720.8865356120319
 30
0.0
 10
12.33870706477094
 20
720.8746078792409
 30
0.0
 10
12.173069387049
 20
720.8507301317138
 30
0.0
 10
12.02350928200652
 20
720.8225738880278
 30
0.0
 10
11.90495743884138
 20
720.7908127999825
 30
0.0
 10
11.81221342351534
 20
720.7562280473212
 30
0.0
 10
11.73614799590613
 20
720.7197535588484
 30
0.0
 10
11.6587861654664
 20
720.672281661873
 30
0.0
 10
11.57765832916527
 20
720.607272930524
 30
0.0
 10
11.49656975103359
 20
720.5195817473679
 30
0.0
 10
11.43147838225182
 20
720.4179539321574
 30
0.0
 10
11.39997544702212
 20
720.344427232868
 30
0.0
 10
11.38911098109772
 20
720.312935133079
 30
0.0
  0
SPLINE
  5
DB
330
86
100
AcDbEntity
  8
$DDT_AUDIT_GENERATED_(A0)
  6
Continuous
 62
     7
100
AcDbSpline
210
0.0
220
0.0
230
1.0
 70
     8
 71
     3
 72
    20
 73
    16
 74
     0
 42
0.0000000065012391
 43
0.0000000001
 40
0.0650677987792981
 40
0.0650677987792981
 40
0.0650677987792981
 40
0.0650677987792981
 40
0.0689304200178055
 40
0.102011048262377
 40
0.1347433762355925
 40
0.1682474554598131
 40
0.2042446560591978
 40
0.245249738007767
 40
0.2947981726131006
 40
0.3583052434193964
 40
0.44571228453051
 40
0.5819307426595628
 40
0.7514207361070915
 40
0.9105539367002049
 40
1.0
 40
1.0
 40
1.0
 40
1.0
 10
51.29472288553798
 20
720.3552856497315
 30
0.0
 10
51.29261465163902
 20
720.3603058297783
 30
0.0
 10
51.27200981754432
 20
720.4078805126554
 30
0.0
 10
51.22598018786219
 20
720.4885344610894
 30
0.0
 10
51.15013435343817
 20
720.5798932883065
 30
0.0
 10
51.07336463218275
 20
720.6483033654349
 30
0.0
 10
50.99944645467343
 20
720.6991507367397
 30
0.0
 10
50.92851901699122
 20
720.7376140128542
 30
0.0
 10
50.85790484762807
 20
720.7680658813637
 30
0.0
 10
50.78188613599941
 20
720.7940652388421
 30
0.0
 10
50.6868685863997
 20
720.8194710814605
 30
0.0
 10
50.56075243537209
 20
720.8449500842366
 30
0.0
 10
50.39477219250606
 20
720.8700564641508
 30
0.0
 10
50.2184504251981
 20
720.8916190717024
 30
0.0
 10
50.10242761889268
 20
720.9027180383822
 30
0.0
 10
50.05300879348954
 20
720.9074020266314
 30
0.0
  0
ARC
  5
DD
330
86
100
AcDbEntity
  8
$DDT_AUDIT_GENERATED_(DC)
  6
Continuous
 62
     7
100
AcDbCircle
 10
31.35
 20
681.3480463311
 30
0.0
 40
20.00000000000004
100
AcDbArc
 50
151.080697454
 51
155.1654125103
  0
ARC
  5
DE
330
86
100
AcDbEntity
  8
$DDT_AUDIT_GENERATED_(DC)
  6
Continuous
 62
     7
100
AcDbCircle
 10
31.35
 20
681.3480463311
 30
0.0
 40
20.00000000000001
100
AcDbArc
 50
24.8345874897
 51
28.9193025461
  0
ELLIPSE
  5
E0
330
86
100
AcDbEntity
  8
$DDT_AUDIT_GENERATED_(DF)
  6
Continuous
 62
     7
100
AcDbEllipse
 10
31.35
 20
635.0940991373
 30
0.0
 11
10.075
 21
0.0
 31
0.0
210
0.0
220
0.0
230
1.0
 40
0.3090169944
 41
0.0
 42
6.283185307179586
  0
LINE
  5
E1
330
86
100
AcDbEntity
  8
$DDT_AUDIT_GENERATED_(DF)
  6
Continuous
 62
     7
100
AcDbLine
 10
42.925
 20
636.0451556536
 30
0.0
 11
42.925
 21
647.7594899018
 31
0.0
  0
LINE
  5
E2
330
86
100
AcDbEntity
  8
$DDT_AUDIT_GENERATED_(DF)
  6
Continuous
 62
     7
100
AcDbLine
 10
19.775
 20
647.7594899018
 30
0.0
 11
19.775
 21
636.0451556536
 31
0.0
  0
SPLINE
  5
E3
330
86
100
AcDbEntity
  8
$DDT_AUDIT_GENERATED_(DF)
  6
Continuous
 62
     7
100
AcDbSpline
210
0.0
220
0.0
230
1.0
 70
     8
 71
     3
 72
    64
 73
    60
 74
     0
 42
0.0000000003782618
 43
0.0000000001
 40
0.0
 40
0.0
 40
0.0
 40
0.0
 40
0.0105081234616863
 40
0.0246497677025322
 40
0.0388761609935203
 40
0.0534195108150575
 40
0.0685071967670064
 40
0.0843522218004759
 40
0.1011192822976166
 40
0.1188628365168516
 40
0.1374632376750369
 40
0.1566351813294627
 40
0.1760471635215832
 40
0.1954120691147273
 40
0.2146261940275233
 40
0.2336680447696758
 40
0.2525475193474173
 40
0.2712851263403164
 40
0.2899028918418394
 40
0.3084209778671651
 40
0.3268567513461808
 40
0.3452248099270891
 40
0.3635373305214324
 40
0.3818044859334153
 40
0.4000348356010757
 40
0.418235662525049
 40
0.4364132543756077
 40
0.4545731359301753
 40
0.4727202623698098
 40
0.490859182787356
 40
0.5089941823094553
 40
0.5271294102355301
 40
0.5452676361849822
 40
0.5634130474948231
 40
0.5815700295734427
 40
0.5997432859575357
 40
0.6179379860186089
 40
0.6361599364075539
 40
0.6544157851525157
 40
0.6727132685267777
 40
0.691061511388661
 40
0.7094713900829662
 40
0.7279559594340452
 40
0.7465309231224211
 40
0.7652150696233607
 40
0.784030457406836
 40
0.80300180772077
 40
0.8221538218302172
 40
0.8415035468839561
 40
0.8610419853724952
 40
0.8806902613086499
 40
0.9001552466997934
 40
0.91695525577303
 40
0.9328198273381593
 40
0.9478291643083994
 40
0.9621525985031267
 40
0.9774462656937638
 40
0.9921320761967438
 40
1.0
 40
1.0
 40
1.0
 40
1.0
 10
19.77500000000002
 20
636.0451556536113
 30
0.0
 10
19.77685122533853
 20
635.9718249321604
 30
0.0
 10
19.78161512936224
 20
635.8265278576637
 30
0.0
 10
19.82380213147581
 20
635.5780689586587
 30
0.0
 10
19.90180859958469
 20
635.3213050929631
 30
0.0
 10
20.01302999593942
 20
635.0704492691332
 30
0.0
 10
20.15672312348315
 20
634.8272842302305
 30
0.0
 10
20.33436229558898
 20
634.5898309184872
 30
0.0
 10
20.5481083534616
 20
634.3573230318606
 30
0.0
 10
20.80017859572485
 20
634.1296463831629
 30
0.0
 10
21.09138832632886
 20
633.9080274402662
 30
0.0
 10
21.42027089744902
 20
633.6945674039004
 30
0.0
 10
21.78314814364971
 20
633.4915316937571
 30
0.0
 10
22.17579276865443
 20
633.3003287896352
 30
0.0
 10
22.59471010185888
 20
633.1213837298142
 30
0.0
 10
23.03781054114068
 20
632.95439357155
 30
0.0
 10
23.50366099628127
 20
632.7989254336976
 30
0.0
 10
23.99107012568573
 20
632.6546229664805
 30
0.0
 10
24.49889212449429
 20
632.5212505841404
 30
0.0
 10
25.02593208337641
 20
632.398684826875
 30
0.0
 10
25.57090738538842
 20
632.2868899576961
 30
0.0
 10
26.13243667163981
 20
632.1858926118765
 30
0.0
 10
26.70904164462106
 20
632.0957601260211
 30
0.0
 10
27.29915458377193
 20
632.0165832962653
 30
0.0
 10
27.90112822437618
 20
631.948463075339
 30
0.0
 10
28.51324646066533
 20
631.8915004557866
 30
0.0
 10
29.1337351923868
 20
631.8457888457726
 30
0.0
 10
29.7607730393464
 20
631.8114083833837
 30
0.0
 10
30.39250183745894
 20
631.7884217742322
 30
0.0
 10
31.02703691785089
 20
631.7768713538721
 30
0.0
 10
31.66247720344797
 20
631.7767771692344
 30
0.0
 10
32.29689928020579
 20
631.7881356633819
 30
0.0
 10
32.92838293077019
 20
631.8109184349826
 30
0.0
 10
33.55502145478494
 20
631.8450727718224
 30
0.0
 10
34.17494693600724
 20
631.8905245466884
 30
0.0
 10
34.78632455604603
 20
631.9471801868737
 30
0.0
 10
35.38736274403168
 20
632.0149299849677
 30
0.0
 10
35.9763237319106
 20
632.0936527329127
 30
0.0
 10
36.55153444377967
 20
632.1832220315151
 30
0.0
 10
37.11139776163952
 20
632.2835147911314
 30
0.0
 10
37.65440413843061
 20
632.3944226589431
 30
0.0
 10
38.17914336610948
 20
632.5158674096577
 30
0.0
 10
38.68431594675047
 20
632.6478217338318
 30
0.0
 10
39.16874274882164
 20
632.790337332958
 30
0.0
 10
39.63137001202492
 20
632.9435826359495
 30
0.0
 10
40.07126342434557
 20
633.1078923060995
 30
0.0
 10
40.48757809136463
 20
633.2838284204832
 30
0.0
 10
40.87947830981617
 20
633.4722450675524
 30
0.0
 10
41.24595851456851
 20
633.6743236642712
 30
0.0
 10
41.5854675789851
 20
633.8914737950911
 30
0.0
 10
41.89491452765818
 20
634.1246013471776
 30
0.0
 10
42.15992473434736
 20
634.364483713014
 30
0.0
 10
42.37939539832915
 20
634.6064115438777
 30
0.0
 10
42.55506635738161
 20
634.845038228481
 30
0.0
 10
42.69578535928155
 20
635.0879673199472
 30
0.0
 10
42.80715579713348
 20
635.3442760995423
 30
0.0
 10
42.88354013388092
 20
635.6104017865757
 30
0.0
 10
42.92262044241183
 20
635.8538756143597
 30
0.0
 10
42.92129537689945
 20
635.9874393352185
 30
0.0
 10
42.9204505099936
 20
636.0423476719687
 30
0.0
  0
ELLIPSE
  5
E5
330
86
100
AcDbEntity
  8
$DDT_AUDIT_GENERATED_(E4)
  6
Continuous
 62
     7
100
AcDbEllipse
 10
31.35
 20
634.8563350082
 30
0.0
 11
9.000000000000005
 21
0.0
 31
0.0
210
0.0
220
0.0
230
1.0
 40
0.3090169944
 41
0.0
 42
6.283185307179586
  0
ELLIPSE
  5
E6
330
86
100
AcDbEntity
  8
$DDT_AUDIT_GENERATED_(E4)
  6
Continuous
 62
     7
100
AcDbEllipse
 10
31.35
 20
634.8563350082
 30
0.0
 11
-5.249999999999998
 21
0.0
 31
0.0
210
0.0
220
0.0
230
1.0
 40
0.3090169944
 41
0.0
 42
6.283185307179586
  0
ELLIPSE
  5
E7
330
86
100
AcDbEntity
  8
$DDT_AUDIT_GENERATED_(E4)
  6
Continuous
 62
     7
100
AcDbEllipse
 10
31.35
 20
634.8563350082
 30
0.0
 11
-6.249999999999999
 21
0.0
 31
0.0
210
0.0
220
0.0
230
1.0
 40
0.3090169944
 41
0.0
 42
6.283185307179586
  0
ELLIPSE
  5
E8
330
86
100
AcDbEntity
  8
$DDT_AUDIT_GENERATED_(E4)
  6
Continuous
 62
     7
100
AcDbEllipse
 10
31.35
 20
634.8563350082
 30
0.0
 11
-2.750000000000002
 21
0.0
 31
0.0
210
0.0
220
0.0
230
1.0
 40
0.3090169944
 41
0.0
 42
6.283185307179586
  0
ELLIPSE
  5
E9
330
86
100
AcDbEntity
  8
$DDT_AUDIT_GENERATED_(E4)
  6
Continuous
 62
     7
100
AcDbEllipse
 10
31.35
 20
634.8563350082
 30
0.0
 11
-2.150000000000001
 21
0.0
 31
0.0
210
0.0
220
0.0
230
1.0
 40
0.3090169944
 41
0.0
 42
6.283185307179586
  0
ELLIPSE
  5
EA
330
86
100
AcDbEntity
  8
$DDT_AUDIT_GENERATED_(E4)
  6
Continuous
 62
     7
100
AcDbEllipse
 10
31.35
 20
635.0465463115
 30
0.0
 11
0.5196299438963565
 21
0.0
 31
0.0
210
0.0
220
0.0
230
1.0
 40
0.3090169944
 41
0.0
 42
6.283185307179586
  0
ELLIPSE
  5
EB
330
86
100
AcDbEntity
  8
$DDT_AUDIT_GENERATED_(E4)
  6
Continuous
 62
     7
100
AcDbEllipse
 10
31.35
 20
634.8563350082
 30
0.0
 11
8.700000000000003
 21
-2.775557561562891E-14
 31
0.0
210
0.0
220
0.0
230
1.0
 40
0.3090169944
 41
0.0
 42
6.283185307179586
  0
ARC
  5
EC
330
86
100
AcDbEntity
  8
$DDT_AUDIT_GENERATED_(E4)
  6
Continuous
 62
     7
100
AcDbCircle
 10
23.6622098561
 20
635.0465463115
 30
0.0
 40
0.8122096634552335
100
AcDbArc
 50
177.8195723747
 51
182.1804276253
  0
ARC
  5
ED
330
86
100
AcDbEntity
  8
$DDT_AUDIT_GENERATED_(E4)
  6
Continuous
 62
     7
100
AcDbCircle
 10
25.6975455457
 20
635.0465463115
 30
0.0
 40
0.5975450612445212
100
AcDbArc
 50
177.0356593909
 51
180.0
  0
ELLIPSE
  5
EE
330
86
100
AcDbEntity
  8
$DDT_AUDIT_GENERATED_(E4)
  6
Continuous
 62
     7
100
AcDbEllipse
 10
31.35
 20
635.0465463115
 30
0.0
 11
-8.500000000021618
 21
-7.494005416219806E-13
 31
0.0
210
0.0
220
0.0
230
1.0
 40
0.3090169944
 41
0.0117649772880365
 42
0.2500344105107015
  0
LINE
  5
EF
330
86
100
AcDbEntity
  8
$DDT_AUDIT_GENERATED_(E4)
  6
Continuous
 62
     7
100
AcDbLine
 10
25.1008000512
 20
635.0774480109
 30
0.0
 11
25.1008000512
 21
635.5319936113
 31
0.0
  0
LINE
  5
F0
330
86
100
AcDbEntity
  8
$DDT_AUDIT_GENERATED_(E4)
  6
Continuous
 62
     7
100
AcDbLine
 10
25.1008000512
 20
635.0774480109
 30
0.0
 11
22.8505882556
 21
635.0774480109
 31
0.0
  0
LINE
  5
F1
330
86
100
AcDbEntity
  8
$DDT_AUDIT_GENERATED_(E4)
  6
Continuous
 62
     7
100
AcDbLine
 10
25.1
 20
635.0156446121
 30
0.0
 11
22.8505882556
 21
635.0156446121
 31
0.0
  0
LINE
  5
F2
330
86
100
AcDbEntity
  8
$DDT_AUDIT_GENERATED_(E4)
  6
Continuous
 62
     7
100
AcDbLine
 10
30.8944615509
 20
635.358994966
 30
0.0
 11
30.8944615509
 21
635.5056373461
 31
0.0
  0
ELLIPSE
  5
F3
330
86
100
AcDbEntity
  8
$DDT_AUDIT_GENERATED_(E4)
  6
Continuous
 62
     7
100
AcDbEllipse
 10
31.35
 20
635.2817407174
 30
0.0
 11
0.5196299438963454
 21
0.0
 31
0.0
210
0.0
220
0.0
230
1.0
 40
0.3090169944
 41
2.639670372565531
 42
3.141592653589793
  0
LINE
  5
F4
330
86
100
AcDbEntity
  8
$DDT_AUDIT_GENERATED_(E4)
  6
Continuous
 62
     7
100
AcDbLine
 10
29.5188314468
 20
635.2044864689
 30
0.0
 11
30.8303700561
 21
635.2044864689
 31
0.0
  0
LINE
  5
F5
330
86
100
AcDbEntity
  8
$DDT_AUDIT_GENERATED_(E4)
  6
Continuous
 62
     7
100
AcDbLine
 10
29.94410652
 20
635.358994966
 30
0.0
 11
30.8944615509
 21
635.358994966
 31
0.0
  0
ELLIPSE
  5
F6
330
86
100
AcDbEntity
  8
$DDT_AUDIT_GENERATED_(E4)
  6
Continuous
 62
     7
100
AcDbEllipse
 10
31.35
 20
635.2817407174
 30
0.0
 11
0.5196299438963439
 21
2.775557561562891E-14
 31
0.0
210
0.0
220
0.0
230
1.0
 40
0.3090169944
 41
0.5452752701722158
 42
1.549119832220881
  0
LINE
  5
F7
330
86
100
AcDbEntity
  8
$DDT_AUDIT_GENERATED_(E4)
  6
Continuous
 62
     7
100
AcDbLine
 10
31.3612628736
 20
635.4422774778
 30
0.0
 11
31.3612628736
 21
635.5207124299
 31
0.0
  0
LINE
  5
F8
330
86
100
AcDbEntity
  8
$DDT_AUDIT_GENERATED_(E4)
  6
Continuous
 62
     7
100
AcDbLine
 10
31.5046097216
 20
635.5190014606
 30
0.0
 11
31.3612628736
 21
635.4422774778
 31
0.0
  0
LINE
  5
F9
330
86
100
AcDbEntity
  8
$DDT_AUDIT_GENERATED_(E4)
  6
Continuous
 62
     7
100
AcDbLine
 10
32.0228257439
 20
635.4873508522
 30
0.0
 11
31.7942755755
 21
635.3650232292
 31
0.0
  0
LINE
  5
FA
330
86
100
AcDbEntity
  8
$DDT_AUDIT_GENERATED_(E4)
  6
Continuous
 62
     7
100
AcDbLine
 10
32.6342141761
 20
634.7488952356
 30
0.0
 11
31.8696299439
 21
635.1581260509
 31
0.0
  0
LINE
  5
FB
330
86
100
AcDbEntity
  8
$DDT_AUDIT_GENERATED_(E4)
  6
Continuous
 62
     7
100
AcDbLine
 10
32.6342141761
 20
635.3891804901
 30
0.0
 11
32.6342141761
 21
634.7488952356
 31
0.0
  0
LINE
  5
FC
330
86
100
AcDbEntity
  8
$DDT_AUDIT_GENERATED_(E4)
  6
Continuous
 62
     7
100
AcDbLine
 10
32.2012014743
 20
634.671640987
 30
0.0
 11
31.7145430864
 21
634.9321166814
 31
0.0
  0
ELLIPSE
  5
FD
330
86
100
AcDbEntity
  8
$DDT_AUDIT_GENERATED_(E4)
  6
Continuous
 62
     7
100
AcDbEllipse
 10
31.35
 20
635.2817407175
 30
0.0
 11
2.150000000002365
 21
-7.494005416219806E-13
 31
0.0
210
0.0
220
0.0
230
1.0
 40
0.3090169944
 41
-1.163740259645357
 42
-0.9306548427468879
  0
ELLIPSE
  5
FE
330
86
100
AcDbEntity
  8
$DDT_AUDIT_GENERATED_(E4)
  6
Continuous
 62
     7
100
AcDbEllipse
 10
31.3499995448
 20
635.0465463491
 30
0.0
 11
-8.499999544533816
 21
-4.019612420691487E-8
 31
0.0
210
0.0
220
0.0
230
1.0
 40
0.3090170018
 41
-0.273564373805308
 42
-0.2500344185768881
  0
ELLIPSE
  5
FF
330
86
100
AcDbEntity
  8
$DDT_AUDIT_GENERATED_(E4)
  6
Continuous
 62
     7
100
AcDbEllipse
 10
31.35
 20
635.0465463115
 30
0.0
 11
-8.500000000026098
 21
9.436895709313831E-13
 31
0.0
210
0.0
220
0.0
230
1.0
 40
0.3090169944
 41
6.033150896668941
 42
6.271420329891588
  0
ELLIPSE
  5
100
330
86
100
AcDbEntity
  8
$DDT_AUDIT_GENERATED_(E4)
  6
Continuous
 62
     7
100
AcDbEllipse
 10
31.3500000557
 20
635.0465463068
 30
0.0
 11
-6.250000055713956
 21
4.984263002327793E-9
 31
0.0
210
0.0
220
0.0
230
1.0
 40
0.3090169931
 41
-0.2778000690711302
 42
-0.2457987037280631
  0
LINE
  5
101
330
86
100
AcDbEntity
  8
$DDT_AUDIT_GENERATED_(E4)
  6
Continuous
 62
     7
100
AcDbLine
 10
25.3396182803
 20
635.5762028447
 30
0.0
 11
25.3396182803
 21
636.0831825853
 31
0.0
  0
LINE
  5
102
330
86
100
AcDbEntity
  8
$DDT_AUDIT_GENERATED_(E4)
  6
Continuous
 62
     7
100
AcDbLine
 10
25.3396182803
 20
635.5762028447
 30
0.0
 11
23.1660805924
 21
635.7561736216
 31
0.0
  0
LINE
  5
103
330
86
100
AcDbEntity
  8
$DDT_AUDIT_GENERATED_(E4)
  6
Continuous
 62
     7
100
AcDbLine
 10
25.2878544713
 20
635.5165053455
 30
0.0
 11
23.1143167834
 21
635.6964761225
 31
0.0
  0
ELLIPSE
  5
104
330
86
100
AcDbEntity
  8
$DDT_AUDIT_GENERATED_(E4)
  6
Continuous
 62
     7
100
AcDbEllipse
 10
31.35
 20
635.0465463115
 30
0.0
 11
-8.500000000002148
 21
-6.106226635438361E-13
 31
0.0
210
0.0
220
0.0
230
1.0
 40
0.3090169944
 41
-0.2968759395083644
 42
-0.2735643650872381
  0
ELLIPSE
  5
105
330
86
100
AcDbEntity
  8
$DDT_AUDIT_GENERATED_(E4)
  6
Continuous
 62
     7
100
AcDbEllipse
 10
31.3500000041
 20
635.0465463108
 30
0.0
 11
-6.250000004174185
 21
7.038258864611180E-10
 31
0.0
210
0.0
220
0.0
230
1.0
 40
0.3090169943
 41
-0.5395994581372809
 42
-0.5075980926588519
  0
LINE
  5
106
330
86
100
AcDbEntity
  8
$DDT_AUDIT_GENERATED_(E4)
  6
Continuous
 62
     7
100
AcDbLine
 10
25.988034091
 20
636.0388624609
 30
0.0
 11
25.988034091
 21
636.6597832982
 31
0.0
  0
LINE
  5
107
330
86
100
AcDbEntity
  8
$DDT_AUDIT_GENERATED_(E4)
  6
Continuous
 62
     7
100
AcDbLine
 10
25.988034091
 20
636.0388624609
 30
0.0
 11
24.1520880357
 21
636.366415515
 31
0.0
  0
LINE
  5
108
330
86
100
AcDbEntity
  8
$DDT_AUDIT_GENERATED_(E4)
  6
Continuous
 62
     7
100
AcDbLine
 10
25.888034091
 20
635.9853391475
 30
0.0
 11
24.0414546481
 21
636.3147893154
 31
0.0
  0
ELLIPSE
  5
109
330
86
100
AcDbEntity
  8
$DDT_AUDIT_GENERATED_(E4)
  6
Continuous
 62
     7
100
AcDbEllipse
 10
31.3500000033
 20
635.0465463105
 30
0.0
 11
-6.250000003545263
 21
7.824019210289633E-10
 31
0.0
210
0.0
220
0.0
230
1.0
 40
0.3090169944
 41
-0.8013988459083832
 42
-0.7693974804298369
  0
LINE
  5
10A
330
86
100
AcDbEntity
  8
$DDT_AUDIT_GENERATED_(E4)
  6
Continuous
 62
     7
100
AcDbLine
 10
27.0018590173
 20
636.4338973715
 30
0.0
 11
27.0018590173
 21
637.1849307188
 31
0.0
  0
LINE
  5
10B
330
86
100
AcDbEntity
  8
$DDT_AUDIT_GENERATED_(E4)
  6
Continuous
 62
     7
100
AcDbLine
 10
27.0018590173
 20
636.4338973715
 30
0.0
 11
25.5883036579
 21
636.8707100001
 31
0.0
  0
LINE
  5
10C
330
86
100
AcDbEntity
  8
$DDT_AUDIT_GENERATED_(E4)
  6
Continuous
 62
     7
100
AcDbLine
 10
26.8604376611
 20
636.3901957691
 30
0.0
 11
25.439797826
 21
636.829197621
 31
0.0
  0
ELLIPSE
  5
10D
330
86
100
AcDbEntity
  8
$DDT_AUDIT_GENERATED_(E4)
  6
Continuous
 62
     7
100
AcDbEllipse
 10
31.3500000284
 20
635.0465462963
 30
0.0
 11
-6.250000035547365
 21
8.378103766304434E-9
 31
0.0
210
0.0
220
0.0
230
1.0
 40
0.3090169951
 41
-1.063198231483563
 42
-1.031196866138523
  0
LINE
  5
10E
330
86
100
AcDbEntity
  8
$DDT_AUDIT_GENERATED_(E4)
  6
Continuous
 62
     7
100
AcDbLine
 10
28.312002566
 20
636.7343866001
 30
0.0
 11
28.312002566
 21
637.3755451739
 31
0.0
  0
LINE
  5
10F
330
86
100
AcDbEntity
  8
$DDT_AUDIT_GENERATED_(E4)
  6
Continuous
 62
     7
100
AcDbLine
 10
28.312002566
 20
636.7343866001
 30
0.0
 11
27.3579183983
 21
637.2450440599
 31
0.0
  0
LINE
  5
110
330
86
100
AcDbEntity
  8
$DDT_AUDIT_GENERATED_(E4)
  6
Continuous
 62
     7
100
AcDbLine
 10
28.1387974852
 20
636.7034849006
 30
0.0
 11
27.1811733002
 21
637.216037095
 31
0.0
  0
ELLIPSE
  5
111
330
86
100
AcDbEntity
  8
$DDT_AUDIT_GENERATED_(E4)
  6
Continuous
 62
     7
100
AcDbEllipse
 10
31.3500000188
 20
635.0465462899
 30
0.0
 11
-6.250000038535645
 21
6.192990564812818E-9
 31
0.0
210
0.0
220
0.0
230
1.0
 40
0.3090169959
 41
-1.324997619888028
 42
-1.292996254582214
  0
LINE
  5
112
330
86
100
AcDbEntity
  8
$DDT_AUDIT_GENERATED_(E4)
  6
Continuous
 62
     7
100
AcDbLine
 10
29.8291806192
 20
636.9198523022
 30
0.0
 11
29.8291806192
 21
637.5033881536
 31
0.0
  0
LINE
  5
113
330
86
100
AcDbEntity
  8
$DDT_AUDIT_GENERATED_(E4)
  6
Continuous
 62
     7
100
AcDbLine
 10
29.8291806192
 20
636.9198523022
 30
0.0
 11
29.3497515065
 21
637.472762136
 31
0.0
  0
LINE
  5
114
330
86
100
AcDbEntity
  8
$DDT_AUDIT_GENERATED_(E4)
  6
Continuous
 62
     7
100
AcDbLine
 10
29.635995454
 20
636.9038564056
 30
0.0
 11
29.1556182313
 21
637.4578596633
 31
0.0
  0
ARC
  5
115
330
86
100
AcDbEntity
  8
$DDT_AUDIT_GENERATED_(E4)
  6
Continuous
 62
     7
100
AcDbCircle
 10
31.35
 20
616.7548194576
 30
0.0
 40
20.22308308305973
100
AcDbArc
 50
89.7166801285
 51
90.2833198715
  0
LINE
  5
116
330
86
100
AcDbEntity
  8
$DDT_AUDIT_GENERATED_(E4)
  6
Continuous
 62
     7
100
AcDbLine
 10
31.45
 20
636.9776552969
 30
0.0
 11
31.45
 21
637.5446052575
 31
0.0
  0
LINE
  5
117
330
86
100
AcDbEntity
  8
$DDT_AUDIT_GENERATED_(E4)
  6
Continuous
 62
     7
100
AcDbLine
 10
31.25
 20
636.9776552969
 30
0.0
 11
31.25
 21
637.5446052575
 31
0.0
  0
ELLIPSE
  5
118
330
86
100
AcDbEntity
  8
$DDT_AUDIT_GENERATED_(E4)
  6
Continuous
 62
     7
100
AcDbEllipse
 10
31.3499999816
 20
635.0465462902
 30
0.0
 11
6.250000038007331
 21
6.079914349754745E-9
 31
0.0
210
0.0
220
0.0
230
1.0
 40
0.3090169959
 41
1.292996254623832
 42
1.324997619932071
  0
LINE
  5
119
330
86
100
AcDbEntity
  8
$DDT_AUDIT_GENERATED_(E4)
  6
Continuous
 62
     7
100
AcDbLine
 10
33.064004546
 20
636.9038564056
 30
0.0
 11
33.5443817687
 21
637.4578596633
 31
0.0
  0
LINE
  5
11A
330
86
100
AcDbEntity
  8
$DDT_AUDIT_GENERATED_(E4)
  6
Continuous
 62
     7
100
AcDbLine
 10
32.8708193808
 20
636.9198523022
 30
0.0
 11
33.3502484935
 21
637.472762136
 31
0.0
  0
LINE
  5
11B
330
86
100
AcDbEntity
  8
$DDT_AUDIT_GENERATED_(E4)
  6
Continuous
 62
     7
100
AcDbLine
 10
32.8708193808
 20
636.9198523022
 30
0.0
 11
32.8708193808
 21
637.5033881536
 31
0.0
  0
ELLIPSE
  5
11C
330
86
100
AcDbEntity
  8
$DDT_AUDIT_GENERATED_(E4)
  6
Continuous
 62
     7
100
AcDbEllipse
 10
31.3499999702
 20
635.0465462955
 30
0.0
 11
6.250000037213523
 21
8.830380870961108E-9
 31
0.0
210
0.0
220
0.0
230
1.0
 40
0.3090169951
 41
1.03119686602862
 42
1.063198231366843
  0
LINE
  5
11D
330
86
100
AcDbEntity
  8
$DDT_AUDIT_GENERATED_(E4)
  6
Continuous
 62
     7
100
AcDbLine
 10
34.5612025148
 20
636.7034849006
 30
0.0
 11
35.5188266998
 21
637.216037095
 31
0.0
  0
LINE
  5
11E
330
86
100
AcDbEntity
  8
$DDT_AUDIT_GENERATED_(E4)
  6
Continuous
 62
     7
100
AcDbLine
 10
34.387997434
 20
636.7343866001
 30
0.0
 11
35.3420816017
 21
637.2450440599
 31
0.0
  0
LINE
  5
11F
330
86
100
AcDbEntity
  8
$DDT_AUDIT_GENERATED_(E4)
  6
Continuous
 62
     7
100
AcDbLine
 10
34.387997434
 20
636.7343866001
 30
0.0
 11
34.387997434
 21
637.3755451739
 31
0.0
  0
ELLIPSE
  5
120
330
86
100
AcDbEntity
  8
$DDT_AUDIT_GENERATED_(E4)
  6
Continuous
 62
     7
100
AcDbEllipse
 10
31.3499999592
 20
635.0465462989
 30
0.0
 11
6.25000004325586
 21
9.827860747435579E-9
 31
0.0
210
0.0
220
0.0
230
1.0
 40
0.3090169944
 41
0.7693974779329256
 42
0.8013988432759238
  0
LINE
  5
121
330
86
100
AcDbEntity
  8
$DDT_AUDIT_GENERATED_(E4)
  6
Continuous
 62
     7
100
AcDbLine
 10
35.8395623389
 20
636.3901957691
 30
0.0
 11
37.260202174
 21
636.829197621
 31
0.0
  0
LINE
  5
122
330
86
100
AcDbEntity
  8
$DDT_AUDIT_GENERATED_(E4)
  6
Continuous
 62
     7
100
AcDbLine
 10
35.6981409827
 20
636.4338973715
 30
0.0
 11
37.1116963421
 21
636.8707100001
 31
0.0
  0
LINE
  5
123
330
86
100
AcDbEntity
  8
$DDT_AUDIT_GENERATED_(E4)
  6
Continuous
 62
     7
100
AcDbLine
 10
35.6981409827
 20
636.4338973715
 30
0.0
 11
35.6981409827
 21
637.1849307188
 31
0.0
  0
ELLIPSE
  5
124
330
86
100
AcDbEntity
  8
$DDT_AUDIT_GENERATED_(E4)
  6
Continuous
 62
     7
100
AcDbEllipse
 10
31.3499999951
 20
635.0465463106
 30
0.0
 11
6.250000004949454
 21
8.347489366400395E-10
 31
0.0
210
0.0
220
0.0
230
1.0
 40
0.3090169943
 41
0.5075980926231722
 42
0.5395994580993333
  0
LINE
  5
125
330
86
100
AcDbEntity
  8
$DDT_AUDIT_GENERATED_(E4)
  6
Continuous
 62
     7
100
AcDbLine
 10
36.811965909
 20
635.9853391475
 30
0.0
 11
38.6585453519
 21
636.3147893154
 31
0.0
  0
LINE
  5
126
330
86
100
AcDbEntity
  8
$DDT_AUDIT_GENERATED_(E4)
  6
Continuous
 62
     7
100
AcDbLine
 10
36.711965909
 20
636.0388624609
 30
0.0
 11
38.5479119643
 21
636.366415515
 31
0.0
  0
LINE
  5
127
330
86
100
AcDbEntity
  8
$DDT_AUDIT_GENERATED_(E4)
  6
Continuous
 62
     7
100
AcDbLine
 10
36.711965909
 20
636.0388624609
 30
0.0
 11
36.711965909
 21
636.6597832982
 31
0.0
  0
ELLIPSE
  5
128
330
86
100
AcDbEntity
  8
$DDT_AUDIT_GENERATED_(E4)
  6
Continuous
 62
     7
100
AcDbEllipse
 10
31.3500003902
 20
635.046546344
 30
0.0
 11
8.499999609603698
 21
-3.465935871638237E-8
 31
0.0
210
0.0
220
0.0
230
1.0
 40
0.3090170007
 41
0.250034417431295
 42
0.2735643725666172
  0
ELLIPSE
  5
129
330
86
100
AcDbEntity
  8
$DDT_AUDIT_GENERATED_(E4)
  6
Continuous
 62
     7
100
AcDbEllipse
 10
31.35
 20
635.0465463115
 30
0.0
 11
8.500000000024063
 21
2.248201624865942E-12
 31
0.0
210
0.0
220
0.0
230
1.0
 40
0.3090169944
 41
0.2735643650868006
 42
0.2968759395078953
  0
ELLIPSE
  5
12A
330
86
100
AcDbEntity
  8
$DDT_AUDIT_GENERATED_(E4)
  6
Continuous
 62
     7
100
AcDbEllipse
 10
31.3499999443
 20
635.0465463069
 30
0.0
 11
6.250000055715919
 21
4.868661029888699E-9
 31
0.0
210
0.0
220
0.0
230
1.0
 40
0.3090169931
 41
0.2457987037338443
 42
0.2778000690768972
  0
LINE
  5
12B
330
86
100
AcDbEntity
  8
$DDT_AUDIT_GENERATED_(E4)
  6
Continuous
 62
     7
100
AcDbLine
 10
37.4121455287
 20
635.5165053455
 30
0.0
 11
39.5856832166
 21
635.6964761225
 31
0.0
  0
LINE
  5
12C
330
86
100
AcDbEntity
  8
$DDT_AUDIT_GENERATED_(E4)
  6
Continuous
 62
     7
100
AcDbLine
 10
37.3603817197
 20
635.5762028447
 30
0.0
 11
39.5339194076
 21
635.7561736216
 31
0.0
  0
LINE
  5
12D
330
86
100
AcDbEntity
  8
$DDT_AUDIT_GENERATED_(E4)
  6
Continuous
 62
     7
100
AcDbLine
 10
37.3603817197
 20
635.5762028447
 30
0.0
 11
37.3603817197
 21
636.0831825853
 31
0.0
  0
ARC
  5
12E
330
86
100
AcDbEntity
  8
$DDT_AUDIT_GENERATED_(E4)
  6
Continuous
 62
     7
100
AcDbCircle
 10
39.0377901439
 20
635.0465463115
 30
0.0
 40
0.8122096634552335
100
AcDbArc
 50
357.8195723747
 51
2.1804276253
  0
ELLIPSE
  5
12F
330
86
100
AcDbEntity
  8
$DDT_AUDIT_GENERATED_(E4)
  6
Continuous
 62
     7
100
AcDbEllipse
 10
31.35
 20
635.0465463115
 30
0.0
 11
8.500000000038387
 21
3.885780586188048E-13
 31
0.0
210
0.0
220
0.0
230
1.0
 40
0.3090169944
 41
0.0117649772880648
 42
0.2500344105104776
  0
ARC
  5
130
330
86
100
AcDbEntity
  8
$DDT_AUDIT_GENERATED_(E4)
  6
Continuous
 62
     7
100
AcDbCircle
 10
37.0024544543
 20
635.0465463115
 30
0.0
 40
0.5975450612446824
100
AcDbArc
 50
0.0
 51
2.964340609
  0
LINE
  5
131
330
86
100
AcDbEntity
  8
$DDT_AUDIT_GENERATED_(E4)
  6
Continuous
 62
     7
100
AcDbLine
 10
37.6
 20
635.0156446121
 30
0.0
 11
39.8494117444
 21
635.0156446121
 31
0.0
  0
LINE
  5
132
330
86
100
AcDbEntity
  8
$DDT_AUDIT_GENERATED_(E4)
  6
Continuous
 62
     7
100
AcDbLine
 10
37.5991999488
 20
635.0774480109
 30
0.0
 11
39.8494117444
 21
635.0774480109
 31
0.0
  0
LINE
  5
133
330
86
100
AcDbEntity
  8
$DDT_AUDIT_GENERATED_(E4)
  6
Continuous
 62
     7
100
AcDbLine
 10
37.5991999488
 20
635.0774480109
 30
0.0
 11
37.5991999488
 21
635.5319936113
 31
0.0
  0
ELLIPSE
  5
134
330
86
100
AcDbEntity
  8
$DDT_AUDIT_GENERATED_(E4)
  6
Continuous
 62
     7
100
AcDbEllipse
 10
31.3500003902
 20
635.0465462792
 30
0.0
 11
8.49999960953782
 21
3.445141394387008E-8
 31
0.0
210
0.0
220
0.0
230
1.0
 40
0.3090170007
 41
-0.2735643725614807
 42
-0.250034417426221
  0
ELLIPSE
  5
135
330
86
100
AcDbEntity
  8
$DDT_AUDIT_GENERATED_(E4)
  6
Continuous
 62
     7
100
AcDbEllipse
 10
31.35
 20
635.0465463115
 30
0.0
 11
8.499999999962347
 21
8.604228440844963E-13
 31
0.0
210
0.0
220
0.0
230
1.0
 40
0.3090169944
 41
6.033150896667932
 42
6.271420329891399
  0
LINE
  5
136
330
86
100
AcDbEntity
  8
$DDT_AUDIT_GENERATED_(E4)
  6
Continuous
 62
     7
100
AcDbLine
 10
39.5856832166
 20
634.3966165005
 30
0.0
 11
39.5856832166
 21
635.0156446121
 31
0.0
  0
LINE
  5
137
330
86
100
AcDbEntity
  8
$DDT_AUDIT_GENERATED_(E4)
  6
Continuous
 62
     7
100
AcDbLine
 10
37.4961083601
 20
634.5056514966
 30
0.0
 11
39.5339194076
 21
634.3369190014
 31
0.0
  0
LINE
  5
138
330
86
100
AcDbEntity
  8
$DDT_AUDIT_GENERATED_(E4)
  6
Continuous
 62
     7
100
AcDbLine
 10
37.5294083228
 20
634.566877818
 30
0.0
 11
39.5856832166
 21
634.3966165005
 31
0.0
  0
ELLIPSE
  5
139
330
86
100
AcDbEntity
  8
$DDT_AUDIT_GENERATED_(E4)
  6
Continuous
 62
     7
100
AcDbEllipse
 10
31.3499999775
 20
635.0465463154
 30
0.0
 11
8.500000022748868
 21
-3.787192781601334E-9
 31
0.0
210
0.0
220
0.0
230
1.0
 40
0.3090169941
 41
-0.5353637520661669
 42
-0.5118337975258651
  0
ELLIPSE
  5
13A
330
86
100
AcDbEntity
  8
$DDT_AUDIT_GENERATED_(E4)
  6
Continuous
 62
     7
100
AcDbEllipse
 10
31.35
 20
635.0465463115
 30
0.0
 11
8.500000000029312
 21
-2.914335439641036E-12
 31
0.0
210
0.0
220
0.0
230
1.0
 40
0.3090169944
 41
-0.5118337983092456
 42
-0.2735643650866963
  0
LINE
  5
13B
330
86
100
AcDbEntity
  8
$DDT_AUDIT_GENERATED_(E4)
  6
Continuous
 62
     7
100
AcDbLine
 10
38.7607064878
 20
633.7600766326
 30
0.0
 11
38.7607064878
 21
634.4009416915
 31
0.0
  0
LINE
  5
13C
330
86
100
AcDbEntity
  8
$DDT_AUDIT_GENERATED_(E4)
  6
Continuous
 62
     7
100
AcDbLine
 10
36.9661845074
 20
634.0088747563
 30
0.0
 11
38.6607064878
 21
633.7065533192
 31
0.0
  0
LINE
  5
13D
330
86
100
AcDbEntity
  8
$DDT_AUDIT_GENERATED_(E4)
  6
Continuous
 62
     7
100
AcDbLine
 10
37.0513556719
 20
634.0650436978
 30
0.0
 11
38.7607064878
 21
633.7600766326
 31
0.0
  0
ELLIPSE
  5
13E
330
86
100
AcDbEntity
  8
$DDT_AUDIT_GENERATED_(E4)
  6
Continuous
 62
     7
100
AcDbEllipse
 10
31.3500003328
 20
635.0465462086
 30
0.0
 11
8.499999646981475
 21
8.045564214853584E-8
 31
0.0
210
0.0
220
0.0
230
1.0
 40
0.3090169944
 41
-0.7971631577815952
 42
-0.7736332025539312
  0
ELLIPSE
  5
13F
330
86
100
AcDbEntity
  8
$DDT_AUDIT_GENERATED_(E4)
  6
Continuous
 62
     7
100
AcDbEllipse
 10
31.3500000001
 20
635.0465463115
 30
0.0
 11
8.499999999946683
 21
1.121325254871408E-11
 31
0.0
210
0.0
220
0.0
230
1.0
 40
0.3090169944
 41
-0.7736331861120931
 42
-0.5353637528882089
  0
LINE
  5
140
330
86
100
AcDbEntity
  8
$DDT_AUDIT_GENERATED_(E4)
  6
Continuous
 62
     7
100
AcDbLine
 10
37.4307023586
 20
633.2112075474
 30
0.0
 11
37.4307023586
 21
633.9259996411
 31
0.0
  0
LINE
  5
141
330
86
100
AcDbEntity
  8
$DDT_AUDIT_GENERATED_(E4)
  6
Continuous
 62
     7
100
AcDbLine
 10
36.0001125878
 20
633.5658808937
 30
0.0
 11
37.2892810024
 21
633.1675059449
 31
0.0
  0
LINE
  5
142
330
86
100
AcDbEntity
  8
$DDT_AUDIT_GENERATED_(E4)
  6
Continuous
 62
     7
100
AcDbLine
 10
36.1316601117
 20
633.6126336781
 30
0.0
 11
37.4307023586
 21
633.2112075474
 31
0.0
  0
ELLIPSE
  5
143
330
86
100
AcDbEntity
  8
$DDT_AUDIT_GENERATED_(E4)
  6
Continuous
 62
     7
100
AcDbEllipse
 10
31.3500002192
 20
635.0465461941
 30
0.0
 11
8.499999726051842
 21
6.489778159313175E-8
 31
0.0
210
0.0
220
0.0
230
1.0
 40
0.3090169904
 41
-1.058962542319382
 42
-1.035432587136589
  0
ELLIPSE
  5
144
330
86
100
AcDbEntity
  8
$DDT_AUDIT_GENERATED_(E4)
  6
Continuous
 62
     7
100
AcDbEllipse
 10
31.35
 20
635.0465463115
 30
0.0
 11
8.499999999985013
 21
3.663735981263017E-12
 31
0.0
210
0.0
220
0.0
230
1.0
 40
0.3090169944
 41
-1.035432573909433
 42
-0.797163140686167
  0
LINE
  5
145
330
86
100
AcDbEntity
  8
$DDT_AUDIT_GENERATED_(E4)
  6
Continuous
 62
     7
100
AcDbLine
 10
35.6863084126
 20
632.7874137659
 30
0.0
 11
35.6863084126
 21
633.4654519761
 31
0.0
  0
LINE
  5
146
330
86
100
AcDbEntity
  8
$DDT_AUDIT_GENERATED_(E4)
  6
Continuous
 62
     7
100
AcDbLine
 10
34.6532054876
 20
633.2167578851
 30
0.0
 11
35.5131033318
 21
632.7565120664
 31
0.0
  0
LINE
  5
147
330
86
100
AcDbEntity
  8
$DDT_AUDIT_GENERATED_(E4)
  6
Continuous
 62
     7
100
AcDbLine
 10
34.8214796591
 20
633.2502987705
 30
0.0
 11
35.6863084126
 21
632.7874137659
 31
0.0
  0
ELLIPSE
  5
148
330
86
100
AcDbEntity
  8
$DDT_AUDIT_GENERATED_(E4)
  6
Continuous
 62
     7
100
AcDbEllipse
 10
31.3500001177
 20
635.0465461758
 30
0.0
 11
8.499999757498724
 21
3.883598997944659E-8
 31
0.0
210
0.0
220
0.0
230
1.0
 40
0.3090169872
 41
-1.320761924700543
 42
-1.297231969495217
  0
ELLIPSE
  5
149
330
86
100
AcDbEntity
  8
$DDT_AUDIT_GENERATED_(E4)
  6
Continuous
 62
     7
100
AcDbEllipse
 10
31.35
 20
635.0465463115
 30
0.0
 11
8.499999999995694
 21
8.881784197001252E-13
 31
0.0
210
0.0
220
0.0
230
1.0
 40
0.3090169944
 41
-1.297231961707893
 42
-1.058962528484824
  0
LINE
  5
14A
330
86
100
AcDbEntity
  8
$DDT_AUDIT_GENERATED_(E4)
  6
Continuous
 62
     7
100
AcDbLine
 10
33.6464022142
 20
632.517576134
 30
0.0
 11
33.6464022142
 21
633.0600705763
 31
0.0
  0
LINE
  5
14B
330
86
100
AcDbEntity
  8
$DDT_AUDIT_GENERATED_(E4)
  6
Continuous
 62
     7
100
AcDbLine
 10
33.0248377827
 20
632.9956159614
 30
0.0
 11
33.453217049
 21
632.5015802373
 31
0.0
  0
LINE
  5
14C
330
86
100
AcDbEntity
  8
$DDT_AUDIT_GENERATED_(E4)
  6
Continuous
 62
     7
100
AcDbLine
 10
33.2167028894
 20
633.0131342382
 30
0.0
 11
33.6464022142
 21
632.517576134
 31
0.0
  0
ARC
  5
14D
330
86
100
AcDbEntity
  8
$DDT_AUDIT_GENERATED_(E4)
  6
Continuous
 62
     7
100
AcDbCircle
 10
31.35
 20
659.924757813
 30
0.0
 40
27.50485595940916
100
AcDbArc
 50
269.7916880356
 51
270.2083119644
  0
ELLIPSE
  5
14E
330
86
100
AcDbEntity
  8
$DDT_AUDIT_GENERATED_(E4)
  6
Continuous
 62
     7
100
AcDbEllipse
 10
31.35
 20
635.0465463115
 30
0.0
 11
8.500000000013445
 21
-9.992007221626409E-13
 31
0.0
210
0.0
220
0.0
230
1.0
 40
0.3090169944
 41
4.724153957673213
 42
4.962423390895806
  0
LINE
  5
14F
330
86
100
AcDbEntity
  8
$DDT_AUDIT_GENERATED_(E4)
  6
Continuous
 62
     7
100
AcDbLine
 10
31.25
 20
632.9252260228
 30
0.0
 11
31.25
 21
632.4200836403
 31
0.0
  0
LINE
  5
150
330
86
100
AcDbEntity
  8
$DDT_AUDIT_GENERATED_(E4)
  6
Continuous
 62
     7
100
AcDbLine
 10
31.45
 20
632.9252260228
 30
0.0
 11
31.45
 21
632.4200836403
 31
0.0
  0
ELLIPSE
  5
151
330
86
100
AcDbEntity
  8
$DDT_AUDIT_GENERATED_(E4)
  6
Continuous
 62
     7
100
AcDbEllipse
 10
31.3499998871
 20
635.0465461812
 30
0.0
 11
-8.499999767143208
 21
3.726302599815767E-8
 31
0.0
210
0.0
220
0.0
230
1.0
 40
0.3090169875
 41
1.297231969170603
 42
1.320761924350947
  0
ELLIPSE
  5
152
330
86
100
AcDbEntity
  8
$DDT_AUDIT_GENERATED_(E4)
  6
Continuous
 62
     7
100
AcDbEllipse
 10
31.35
 20
635.0465463115
 30
0.0
 11
-8.499999999996847
 21
3.608224830031759E-13
 31
0.0
210
0.0
220
0.0
230
1.0
 40
0.3090169944
 41
1.320761916283865
 42
1.559031349506911
  0
LINE
  5
153
330
86
100
AcDbEntity
  8
$DDT_AUDIT_GENERATED_(E4)
  6
Continuous
 62
     7
100
AcDbLine
 10
29.0535977858
 20
632.517576134
 30
0.0
 11
29.0535977858
 21
633.0600705763
 31
0.0
  0
LINE
  5
154
330
86
100
AcDbEntity
  8
$DDT_AUDIT_GENERATED_(E4)
  6
Continuous
 62
     7
100
AcDbLine
 10
29.4832971106
 20
633.0131342382
 30
0.0
 11
29.0535977858
 21
632.517576134
 31
0.0
  0
LINE
  5
155
330
86
100
AcDbEntity
  8
$DDT_AUDIT_GENERATED_(E4)
  6
Continuous
 62
     7
100
AcDbLine
 10
29.6751622173
 20
632.9956159614
 30
0.0
 11
29.246782951
 21
632.5015802373
 31
0.0
  0
ELLIPSE
  5
156
330
86
100
AcDbEntity
  8
$DDT_AUDIT_GENERATED_(E4)
  6
Continuous
 62
     7
100
AcDbEllipse
 10
31.349999799
 20
635.0465462038
 30
0.0
 11
-8.499999748641674
 21
5.950875903160124E-8
 31
0.0
210
0.0
220
0.0
230
1.0
 40
0.3090169907
 41
1.03543258602426
 42
1.0589625411573
  0
ELLIPSE
  5
157
330
86
100
AcDbEntity
  8
$DDT_AUDIT_GENERATED_(E4)
  6
Continuous
 62
     7
100
AcDbEllipse
 10
31.35
 20
635.0465463115
 30
0.0
 11
-8.500000000009308
 21
-1.332267629550188E-12
 31
0.0
210
0.0
220
0.0
230
1.0
 40
0.3090169944
 41
1.058962528484443
 42
1.297231961707175
  0
LINE
  5
158
330
86
100
AcDbEntity
  8
$DDT_AUDIT_GENERATED_(E4)
  6
Continuous
 62
     7
100
AcDbLine
 10
27.0136915874
 20
632.7874137659
 30
0.0
 11
27.0136915874
 21
633.4654519761
 31
0.0
  0
LINE
  5
159
330
86
100
AcDbEntity
  8
$DDT_AUDIT_GENERATED_(E4)
  6
Continuous
 62
     7
100
AcDbLine
 10
27.8785203409
 20
633.2502987705
 30
0.0
 11
27.0136915874
 21
632.7874137659
 31
0.0
  0
LINE
  5
15A
330
86
100
AcDbEntity
  8
$DDT_AUDIT_GENERATED_(E4)
  6
Continuous
 62
     7
100
AcDbLine
 10
28.0467945124
 20
633.2167578851
 30
0.0
 11
27.1868966682
 21
632.7565120664
 31
0.0
  0
ELLIPSE
  5
15B
330
86
100
AcDbEntity
  8
$DDT_AUDIT_GENERATED_(E4)
  6
Continuous
 62
     7
100
AcDbEllipse
 10
31.3499996662
 20
635.0465462083
 30
0.0
 11
-8.499999645958347
 21
8.069117596321007E-8
 31
0.0
210
0.0
220
0.0
230
1.0
 40
0.3090169944
 41
0.773633202602339
 42
0.797163157831883
  0
ELLIPSE
  5
15C
330
86
100
AcDbEntity
  8
$DDT_AUDIT_GENERATED_(E4)
  6
Continuous
 62
     7
100
AcDbEllipse
 10
31.35
 20
635.0465463115
 30
0.0
 11
-8.500000000016859
 21
-4.107825191113079E-12
 31
0.0
210
0.0
220
0.0
230
1.0
 40
0.3090169944
 41
0.7971631406848575
 42
1.03543257390747
  0
LINE
  5
15D
330
86
100
AcDbEntity
  8
$DDT_AUDIT_GENERATED_(E4)
  6
Continuous
 62
     7
100
AcDbLine
 10
25.2692976414
 20
633.2112075474
 30
0.0
 11
25.2692976414
 21
633.9259996411
 31
0.0
  0
LINE
  5
15E
330
86
100
AcDbEntity
  8
$DDT_AUDIT_GENERATED_(E4)
  6
Continuous
 62
     7
100
AcDbLine
 10
26.5683398883
 20
633.6126336781
 30
0.0
 11
25.2692976414
 21
633.2112075474
 31
0.0
  0
LINE
  5
15F
330
86
100
AcDbEntity
  8
$DDT_AUDIT_GENERATED_(E4)
  6
Continuous
 62
     7
100
AcDbLine
 10
26.6998874122
 20
633.5658808937
 30
0.0
 11
25.4107189976
 21
633.1675059449
 31
0.0
  0
ELLIPSE
  5
160
330
86
100
AcDbEntity
  8
$DDT_AUDIT_GENERATED_(E4)
  6
Continuous
 62
     7
100
AcDbEllipse
 10
31.3499995919
 20
635.0465462387
 30
0.0
 11
-8.499999587631871
 21
6.968992050104816E-8
 31
0.0
210
0.0
220
0.0
230
1.0
 40
0.3090169987
 41
0.5118338125226748
 42
0.5353637677511256
  0
ELLIPSE
  5
161
330
86
100
AcDbEntity
  8
$DDT_AUDIT_GENERATED_(E4)
  6
Continuous
 62
     7
100
AcDbEllipse
 10
31.35
 20
635.0465463115
 30
0.0
 11
-8.500000000019131
 21
-4.551914400963142E-12
 31
0.0
210
0.0
220
0.0
230
1.0
 40
0.3090169944
 41
0.5353637528857381
 42
0.7736331861083705
  0
LINE
  5
162
330
86
100
AcDbEntity
  8
$DDT_AUDIT_GENERATED_(E4)
  6
Continuous
 62
     7
100
AcDbLine
 10
23.9392935122
 20
633.7600766326
 30
0.0
 11
23.9392935122
 21
634.4009416915
 31
0.0
  0
LINE
  5
163
330
86
100
AcDbEntity
  8
$DDT_AUDIT_GENERATED_(E4)
  6
Continuous
 62
     7
100
AcDbLine
 10
25.6486443281
 20
634.0650436978
 30
0.0
 11
23.9392935122
 21
633.7600766326
 31
0.0
  0
LINE
  5
164
330
86
100
AcDbEntity
  8
$DDT_AUDIT_GENERATED_(E4)
  6
Continuous
 62
     7
100
AcDbLine
 10
25.7338154926
 20
634.0088747563
 30
0.0
 11
24.0392935122
 21
633.7065533192
 31
0.0
  0
ELLIPSE
  5
165
330
86
100
AcDbEntity
  8
$DDT_AUDIT_GENERATED_(E4)
  6
Continuous
 62
     7
100
AcDbEllipse
 10
31.3499995441
 20
635.0465462738
 30
0.0
 11
-8.49999954383641
 21
4.025776934035719E-8
 31
0.0
210
0.0
220
0.0
230
1.0
 40
0.3090170018
 41
0.250034418589468
 42
0.2735643738188708
  0
ELLIPSE
  5
166
330
86
100
AcDbEntity
  8
$DDT_AUDIT_GENERATED_(E4)
  6
Continuous
 62
     7
100
AcDbEllipse
 10
31.35
 20
635.0465463115
 30
0.0
 11
-8.500000000027867
 21
-2.747801985947262E-12
 31
0.0
210
0.0
220
0.0
230
1.0
 40
0.3090169944
 41
0.2735643650867349
 42
0.5118337983092796
  0
LINE
  5
167
330
86
100
AcDbEntity
  8
$DDT_AUDIT_GENERATED_(E4)
  6
Continuous
 62
     7
100
AcDbLine
 10
23.1143167834
 20
634.3966165005
 30
0.0
 11
23.1143167834
 21
635.0156446121
 31
0.0
  0
LINE
  5
168
330
86
100
AcDbEntity
  8
$DDT_AUDIT_GENERATED_(E4)
  6
Continuous
 62
     7
100
AcDbLine
 10
25.1705916772
 20
634.566877818
 30
0.0
 11
23.1143167834
 21
634.3966165005
 31
0.0
  0
LINE
  5
169
330
86
100
AcDbEntity
  8
$DDT_AUDIT_GENERATED_(E4)
  6
Continuous
 62
     7
100
AcDbLine
 10
25.2038916399
 20
634.5056514966
 30
0.0
 11
23.1660805924
 21
634.3369190014
 31
0.0
  0
LINE
  5
16A
330
86
100
AcDbEntity
  8
$DDT_AUDIT_GENERATED_(E4)
  6
Continuous
 62
     7
100
AcDbLine
 10
28.6055738305
 20
635.4737383863
 30
0.0
 11
28.6055738305
 21
635.1006242855
 31
0.0
  0
ELLIPSE
  5
16B
330
86
100
AcDbEntity
  8
$DDT_AUDIT_GENERATED_(E4)
  6
Continuous
 62
     7
100
AcDbEllipse
 10
31.35
 20
635.0465463115
 30
0.0
 11
2.749999999996156
 21
0.0
 31
0.0
210
0.0
220
0.0
230
1.0
 40
0.3090169944
 41
3.07791326133267
 42
3.141592653589793
  0
LINE
  5
16C
330
86
100
AcDbEntity
  8
$DDT_AUDIT_GENERATED_(E4)
  6
Continuous
 62
     7
100
AcDbLine
 10
28.6055738305
 20
635.1006242855
 30
0.0
 11
26.159860145
 21
635.1006242855
 31
0.0
  0
LINE
  5
16D
330
86
100
AcDbEntity
  8
$DDT_AUDIT_GENERATED_(E4)
  6
Continuous
 62
     7
100
AcDbLine
 10
28.6
 20
634.9924683375
 30
0.0
 11
26.1185157546
 21
634.9924683375
 31
0.0
  0
LINE
  5
16E
330
86
100
AcDbEntity
  8
$DDT_AUDIT_GENERATED_(E4)
  6
Continuous
 62
     7
100
AcDbLine
 10
29.0607572184
 20
636.1636689535
 30
0.0
 11
29.0607572184
 21
635.5174163739
 31
0.0
  0
ELLIPSE
  5
16F
330
86
100
AcDbEntity
  8
$DDT_AUDIT_GENERATED_(E4)
  6
Continuous
 62
     7
100
AcDbEllipse
 10
31.3500000001
 20
635.0465463115
 30
0.0
 11
-2.750000000075736
 21
1.243449787580175E-11
 31
0.0
210
0.0
220
0.0
230
1.0
 40
0.3090169944
 41
-0.5872781678460637
 42
-0.4599193833340562
  0
LINE
  5
170
330
86
100
AcDbEntity
  8
$DDT_AUDIT_GENERATED_(E4)
  6
Continuous
 62
     7
100
AcDbLine
 10
29.0607572184
 20
635.5174163739
 30
0.0
 11
27.1989434042
 21
635.8495845219
 31
0.0
  0
LINE
  5
171
330
86
100
AcDbEntity
  8
$DDT_AUDIT_GENERATED_(E4)
  6
Continuous
 62
     7
100
AcDbLine
 10
28.8857572184
 20
635.4237505753
 30
0.0
 11
26.9929891176
 21
635.7614413099
 31
0.0
  0
LINE
  5
172
330
86
100
AcDbEntity
  8
$DDT_AUDIT_GENERATED_(E4)
  6
Continuous
 62
     7
100
AcDbLine
 10
30.1293413609
 20
636.4342138026
 30
0.0
 11
30.1293413609
 21
635.8080392093
 31
0.0
  0
ELLIPSE
  5
173
330
86
100
AcDbEntity
  8
$DDT_AUDIT_GENERATED_(E4)
  6
Continuous
 62
     7
100
AcDbEllipse
 10
31.35
 20
635.0465463115
 30
0.0
 11
-2.749999999993016
 21
-2.581268532253489E-12
 31
0.0
210
0.0
220
0.0
230
1.0
 40
0.3090169944
 41
-1.11087694345486
 42
-0.9835181589405524
  0
LINE
  5
174
330
86
100
AcDbEntity
  8
$DDT_AUDIT_GENERATED_(E4)
  6
Continuous
 62
     7
100
AcDbLine
 10
30.1293413609
 20
635.8080392093
 30
0.0
 11
29.1542115666
 21
636.3299609858
 31
0.0
  0
LINE
  5
175
330
86
100
AcDbEntity
  8
$DDT_AUDIT_GENERATED_(E4)
  6
Continuous
 62
     7
100
AcDbLine
 10
29.8262324696
 20
635.7539612353
 30
0.0
 11
28.8408203031
 21
636.2813864781
 31
0.0
  0
ARC
  5
176
330
86
100
AcDbEntity
  8
$DDT_AUDIT_GENERATED_(E4)
  6
Continuous
 62
     7
100
AcDbCircle
 10
31.35
 20
627.0134709939
 30
0.0
 40
8.882873633922205
100
AcDbArc
 50
88.8711524509
 51
91.1288475491
  0
LINE
  5
177
330
86
100
AcDbEntity
  8
$DDT_AUDIT_GENERATED_(E4)
  6
Continuous
 62
     7
100
AcDbLine
 10
31.525
 20
635.8946206377
 30
0.0
 11
31.525
 21
636.4777726786
 31
0.0
  0
LINE
  5
178
330
86
100
AcDbEntity
  8
$DDT_AUDIT_GENERATED_(E4)
  6
Continuous
 62
     7
100
AcDbLine
 10
31.175
 20
635.8946206377
 30
0.0
 11
31.175
 21
636.4777726786
 31
0.0
  0
ELLIPSE
  5
179
330
86
100
AcDbEntity
  8
$DDT_AUDIT_GENERATED_(E4)
  6
Continuous
 62
     7
100
AcDbEllipse
 10
31.35
 20
635.0465463115
 30
0.0
 11
2.749999999986563
 21
-3.885780586188048E-13
 31
0.0
210
0.0
220
0.0
230
1.0
 40
0.3090169944
 41
0.9835181589410955
 42
1.110876943455663
  0
LINE
  5
17A
330
86
100
AcDbEntity
  8
$DDT_AUDIT_GENERATED_(E4)
  6
Continuous
 62
     7
100
AcDbLine
 10
32.5706586391
 20
636.4342138026
 30
0.0
 11
32.5706586391
 21
635.8080392093
 31
0.0
  0
LINE
  5
17B
330
86
100
AcDbEntity
  8
$DDT_AUDIT_GENERATED_(E4)
  6
Continuous
 62
     7
100
AcDbLine
 10
32.8737675304
 20
635.7539612353
 30
0.0
 11
33.8591796969
 21
636.2813864781
 31
0.0
  0
LINE
  5
17C
330
86
100
AcDbEntity
  8
$DDT_AUDIT_GENERATED_(E4)
  6
Continuous
 62
     7
100
AcDbLine
 10
32.5706586391
 20
635.8080392093
 30
0.0
 11
33.5457884334
 21
636.3299609858
 31
0.0
  0
ELLIPSE
  5
17D
330
86
100
AcDbEntity
  8
$DDT_AUDIT_GENERATED_(E4)
  6
Continuous
 62
     7
100
AcDbEllipse
 10
31.35
 20
635.0465463115
 30
0.0
 11
2.749999999986088
 21
-6.245004513516505E-12
 31
0.0
210
0.0
220
0.0
230
1.0
 40
0.3090169944
 41
0.459919383343046
 42
0.5872781678574658
  0
LINE
  5
17E
330
86
100
AcDbEntity
  8
$DDT_AUDIT_GENERATED_(E4)
  6
Continuous
 62
     7
100
AcDbLine
 10
33.6392427816
 20
636.1636689535
 30
0.0
 11
33.6392427816
 21
635.5174163739
 31
0.0
  0
LINE
  5
17F
330
86
100
AcDbEntity
  8
$DDT_AUDIT_GENERATED_(E4)
  6
Continuous
 62
     7
100
AcDbLine
 10
33.8142427816
 20
635.4237505753
 30
0.0
 11
35.7070108824
 21
635.7614413099
 31
0.0
  0
LINE
  5
180
330
86
100
AcDbEntity
  8
$DDT_AUDIT_GENERATED_(E4)
  6
Continuous
 62
     7
100
AcDbLine
 10
33.6392427816
 20
635.5174163739
 30
0.0
 11
35.5010565958
 21
635.8495845219
 31
0.0
  0
ELLIPSE
  5
181
330
86
100
AcDbEntity
  8
$DDT_AUDIT_GENERATED_(E4)
  6
Continuous
 62
     7
100
AcDbEllipse
 10
31.35
 20
635.0465463115
 30
0.0
 11
-2.750000000000355
 21
0.0
 31
0.0
210
0.0
220
0.0
230
1.0
 40
0.3090169944
 41
3.141592653589793
 42
3.205272045846841
  0
LINE
  5
182
330
86
100
AcDbEntity
  8
$DDT_AUDIT_GENERATED_(E4)
  6
Continuous
 62
     7
100
AcDbLine
 10
34.0944261695
 20
635.4737383863
 30
0.0
 11
34.0944261695
 21
635.1006242855
 31
0.0
  0
LINE
  5
183
330
86
100
AcDbEntity
  8
$DDT_AUDIT_GENERATED_(E4)
  6
Continuous
 62
     7
100
AcDbLine
 10
34.1
 20
634.9924683375
 30
0.0
 11
36.5814842454
 21
634.9924683375
 31
0.0
  0
LINE
  5
184
330
86
100
AcDbEntity
  8
$DDT_AUDIT_GENERATED_(E4)
  6
Continuous
 62
     7
100
AcDbLine
 10
34.0944261695
 20
635.1006242855
 30
0.0
 11
36.540139855
 21
635.1006242855
 31
0.0
  0
ELLIPSE
  5
185
330
86
100
AcDbEntity
  8
$DDT_AUDIT_GENERATED_(E4)
  6
Continuous
 62
     7
100
AcDbEllipse
 10
31.3500000032
 20
635.0465463109
 30
0.0
 11
5.249999996780621
 21
5.406786129924512E-10
 31
0.0
210
0.0
220
0.0
230
1.0
 40
0.3090169944
 41
-0.5569382850548665
 42
-0.4902592665089038
  0
LINE
  5
186
330
86
100
AcDbEntity
  8
$DDT_AUDIT_GENERATED_(E4)
  6
Continuous
 62
     7
100
AcDbLine
 10
33.8903302341
 20
634.5308794744
 30
0.0
 11
35.8066067604
 21
634.188994577
 31
0.0
  0
LINE
  5
187
330
86
100
AcDbEntity
  8
$DDT_AUDIT_GENERATED_(E4)
  6
Continuous
 62
     7
100
AcDbLine
 10
34.0053070795
 20
634.6352540667
 30
0.0
 11
35.9816067604
 21
634.2826603756
 31
0.0
  0
LINE
  5
188
330
86
100
AcDbEntity
  8
$DDT_AUDIT_GENERATED_(E4)
  6
Continuous
 62
     7
100
AcDbLine
 10
35.9816067604
 20
634.9924683375
 30
0.0
 11
35.9816067604
 21
634.2826603756
 31
0.0
  0
ELLIPSE
  5
189
330
86
100
AcDbEntity
  8
$DDT_AUDIT_GENERATED_(E4)
  6
Continuous
 62
     7
100
AcDbEllipse
 10
31.3500000018
 20
635.0465463105
 30
0.0
 11
5.249999997686783
 21
5.532241331707155E-10
 31
0.0
210
0.0
220
0.0
230
1.0
 40
0.3090169943
 41
-1.080537060654673
 42
-1.013858042108536
  0
LINE
  5
18A
330
86
100
AcDbEntity
  8
$DDT_AUDIT_GENERATED_(E4)
  6
Continuous
 62
     7
100
AcDbLine
 10
32.8383773381
 20
634.1417614953
 30
0.0
 11
33.8219868157
 21
633.6153011113
 31
0.0
  0
LINE
  5
18B
330
86
100
AcDbEntity
  8
$DDT_AUDIT_GENERATED_(E4)
  6
Continuous
 62
     7
100
AcDbLine
 10
33.1217360965
 20
634.2064103948
 30
0.0
 11
34.125095707
 21
633.6693790853
 31
0.0
  0
LINE
  5
18C
330
86
100
AcDbEntity
  8
$DDT_AUDIT_GENERATED_(E4)
  6
Continuous
 62
     7
100
AcDbLine
 10
34.125095707
 20
634.488994721
 30
0.0
 11
34.125095707
 21
633.6693790853
 31
0.0
  0
ARC
  5
18D
330
86
100
AcDbEntity
  8
$DDT_AUDIT_GENERATED_(E4)
  6
Continuous
 62
     7
100
AcDbCircle
 10
31.35
 20
650.405024368
 30
0.0
 40
16.98081750367713
100
AcDbArc
 50
269.4095137699
 51
270.5904862301
  0
LINE
  5
18E
330
86
100
AcDbEntity
  8
$DDT_AUDIT_GENERATED_(E4)
  6
Continuous
 62
     7
100
AcDbLine
 10
31.175
 20
634.0082606821
 30
0.0
 11
31.175
 21
633.4251086411
 31
0.0
  0
LINE
  5
18F
330
86
100
AcDbEntity
  8
$DDT_AUDIT_GENERATED_(E4)
  6
Continuous
 62
     7
100
AcDbLine
 10
31.525
 20
634.0082606821
 30
0.0
 11
31.525
 21
633.4251086411
 31
0.0
  0
ELLIPSE
  5
190
330
86
100
AcDbEntity
  8
$DDT_AUDIT_GENERATED_(E4)
  6
Continuous
 62
     7
100
AcDbEllipse
 10
31.3499999997
 20
635.0465463113
 30
0.0
 11
-5.249999999564922
 21
1.023348072948238E-10
 31
0.0
210
0.0
220
0.0
230
1.0
 40
0.3090169944
 41
1.013858041967927
 42
1.080537060494958
  0
LINE
  5
191
330
86
100
AcDbEntity
  8
$DDT_AUDIT_GENERATED_(E4)
  6
Continuous
 62
     7
100
AcDbLine
 10
29.5782639035
 20
634.2064103948
 30
0.0
 11
28.574904293
 21
633.6693790853
 31
0.0
  0
LINE
  5
192
330
86
100
AcDbEntity
  8
$DDT_AUDIT_GENERATED_(E4)
  6
Continuous
 62
     7
100
AcDbLine
 10
29.8616226619
 20
634.1417614953
 30
0.0
 11
28.8780131843
 21
633.6153011113
 31
0.0
  0
LINE
  5
193
330
86
100
AcDbEntity
  8
$DDT_AUDIT_GENERATED_(E4)
  6
Continuous
 62
     7
100
AcDbLine
 10
28.574904293
 20
634.488994721
 30
0.0
 11
28.574904293
 21
633.6693790853
 31
0.0
  0
ELLIPSE
  5
194
330
86
100
AcDbEntity
  8
$DDT_AUDIT_GENERATED_(E4)
  6
Continuous
 62
     7
100
AcDbEllipse
 10
31.3499999995
 20
635.0465463114
 30
0.0
 11
-5.249999999542275
 21
7.341349750333848E-11
 31
0.0
210
0.0
220
0.0
230
1.0
 40
0.3090169944
 41
0.4902592663612034
 42
0.5569382848871378
  0
LINE
  5
195
330
86
100
AcDbEntity
  8
$DDT_AUDIT_GENERATED_(E4)
  6
Continuous
 62
     7
100
AcDbLine
 10
28.6946929205
 20
634.6352540667
 30
0.0
 11
26.7183932396
 21
634.2826603756
 31
0.0
  0
LINE
  5
196
330
86
100
AcDbEntity
  8
$DDT_AUDIT_GENERATED_(E4)
  6
Continuous
 62
     7
100
AcDbLine
 10
28.8096697659
 20
634.5308794744
 30
0.0
 11
26.8933932396
 21
634.188994577
 31
0.0
  0
LINE
  5
197
330
86
100
AcDbEntity
  8
$DDT_AUDIT_GENERATED_(E4)
  6
Continuous
 62
     7
100
AcDbLine
 10
26.7183932396
 20
634.9924683375
 30
0.0
 11
26.7183932396
 21
634.2826603756
 31
0.0
  0
LINE
  5
198
330
86
100
AcDbEntity
  8
$DDT_AUDIT_GENERATED_(E4)
  6
Continuous
 62
     7
100
AcDbLine
 10
22.35
 20
636.4934250277
 30
0.0
 11
22.35
 21
634.8563350082
 31
0.0
  0
LINE
  5
199
330
86
100
AcDbEntity
  8
$DDT_AUDIT_GENERATED_(E4)
  6
Continuous
 62
     7
100
AcDbLine
 10
40.35
 20
634.8563350082
 30
0.0
 11
40.35
 21
636.4934250277
 31
0.0
  0
LINE
  5
19A
330
86
100
AcDbEntity
  8
$DDT_AUDIT_GENERATED_(E4)
  6
Continuous
 62
     7
100
AcDbLine
 10
25.1
 20
635.0465463115
 30
0.0
 11
25.1
 21
634.8563350082
 31
0.0
  0
LINE
  5
19B
330
86
100
AcDbEntity
  8
$DDT_AUDIT_GENERATED_(E4)
  6
Continuous
 62
     7
100
AcDbLine
 10
37.6
 20
634.8563350082
 30
0.0
 11
37.6
 21
635.0465463115
 31
0.0
  0
LINE
  5
19C
330
86
100
AcDbEntity
  8
$DDT_AUDIT_GENERATED_(E4)
  6
Continuous
 62
     7
100
AcDbLine
 10
28.6
 20
635.0465463115
 30
0.0
 11
28.6
 21
634.8563350082
 31
0.0
  0
LINE
  5
19D
330
86
100
AcDbEntity
  8
$DDT_AUDIT_GENERATED_(E4)
  6
Continuous
 62
     7
100
AcDbLine
 10
34.1
 20
634.8563350082
 30
0.0
 11
34.1
 21
635.0465463115
 31
0.0
  0
LINE
  5
19E
330
86
100
AcDbEntity
  8
$DDT_AUDIT_GENERATED_(E4)
  6
Continuous
 62
     7
100
AcDbLine
 10
30.8303700561
 20
635.2817407174
 30
0.0
 11
30.8303700561
 21
635.0465463115
 31
0.0
  0
LINE
  5
19F
330
86
100
AcDbEntity
  8
$DDT_AUDIT_GENERATED_(E4)
  6
Continuous
 62
     7
100
AcDbLine
 10
31.8696299439
 20
635.0465463115
 30
0.0
 11
31.8696299439
 21
635.405355384
 31
0.0
  0
LINE
  5
1A1
330
86
100
AcDbEntity
  8
$DDT_AUDIT_GENERATED_(1A0)
  6
Continuous
 62
     7
100
AcDbLine
 10
56.1
 20
392.7594899018
 30
0.0
 11
6.6
 21
392.7594899018
 31
0.0
  0
LINE
  5
1A2
330
86
100
AcDbEntity
  8
$DDT_AUDIT_GENERATED_(1A0)
  6
Continuous
 62
     7
100
AcDbLine
 10
7.3
 20
397.7594899018
 30
0.0
 11
55.4
 21
397.7594899018
 31
0.0
  0
LINE
  5
1A3
330
86
100
AcDbEntity
  8
$DDT_AUDIT_GENERATED_(1A0)
  6
Continuous
 62
     7
100
AcDbLine
 10
56.1
 20
392.7594899018
 30
0.0
 11
56.1
 21
397.0594899018
 31
0.0
  0
LINE
  5
1A4
330
86
100
AcDbEntity
  8
$DDT_AUDIT_GENERATED_(1A0)
  6
Continuous
 62
     7
100
AcDbLine
 10
6.6
 20
397.0594899018
 30
0.0
 11
6.6
 21
392.7594899018
 31
0.0
  0
ARC
  5
1A5
330
86
100
AcDbEntity
  8
$DDT_AUDIT_GENERATED_(1A0)
  6
Continuous
 62
     7
100
AcDbCircle
 10
55.4
 20
397.0594899018
 30
0.0
 40
0.6999999999999993
100
AcDbArc
 50
0.0
 51
90.0
  0
ARC
  5
1A6
330
86
100
AcDbEntity
  8
$DDT_AUDIT_GENERATED_(1A0)
  6
Continuous
 62
     7
100
AcDbCircle
 10
7.3
 20
397.0594899018
 30
0.0
 40
0.7000000000000001
100
AcDbArc
 50
90.0
 51
180.0
  0
ARC
  5
1A8
330
86
100
AcDbEntity
  8
$DDT_AUDIT_GENERATED_(1A7)
  6
Continuous
 62
     7
100
AcDbCircle
 10
52.35
 20
393.3472754553
 30
0.0
 40
1.5
100
AcDbArc
 50
321.6660932126
 51
336.9299009662
  0
ARC
  5
1A9
330
86
100
AcDbEntity
  8
$DDT_AUDIT_GENERATED_(1A7)
  6
Continuous
 62
     7
100
AcDbCircle
 10
10.35
 20
393.3472754553
 30
0.0
 40
1.5
100
AcDbArc
 50
203.0700990338
 51
218.3339067874
  0
ENDBLK
  5
1AB
330
86
100
AcDbEntity
  8
0
100
AcDbBlockEnd
  0
BLOCK
  5
201
330
1AC
100
AcDbEntity
  8
0
100
AcDbBlockBegin
  2
SE1
 70
     0
 10
0.0
 20
0.0
 30
0.0
  3
SE1
  1

  0
LINE
  5
1AE
330
1AC
100
AcDbEntity
  8
$DDT_AUDIT_GENERATED_(88)
  6
Continuous
 62
     7
100
AcDbLine
 10
164.8712825057
 20
669.7594899018
 30
0.0
 11
335.799975
 21
669.7594899018
 31
0.0
  0
LINE
  5
1AF
330
1AC
100
AcDbEntity
  8
$DDT_AUDIT_GENERATED_(88)
  6
Continuous
 62
     7
100
AcDbLine
 10
335.799975
 20
669.7594899018
 30
0.0
 11
343.099975
 21
669.7594899018
 31
0.0
  0
LINE
  5
1B0
330
1AC
100
AcDbEntity
  8
$DDT_AUDIT_GENERATED_(88)
  6
Continuous
 62
     7
100
AcDbLine
 10
343.799975
 20
669.0594899018
 30
0.0
 11
343.799975
 21
648.4594899018
 31
0.0
  0
LINE
  5
1B1
330
1AC
100
AcDbEntity
  8
$DDT_AUDIT_GENERATED_(88)
  6
Continuous
 62
     7
100
AcDbLine
 10
164.8712825057
 20
669.0594899018
 30
0.0
 11
164.8712825057
 21
648.4594899018
 31
0.0
  0
LINE
  5
1B2
330
1AC
100
AcDbEntity
  8
$DDT_AUDIT_GENERATED_(88)
  6
Continuous
 62
     7
100
AcDbLine
 10
164.8712825057
 20
669.7594899018
 30
0.0
 11
164.8712825057
 21
669.0594899018
 31
0.0
  0
ARC
  5
1B3
330
1AC
100
AcDbEntity
  8
$DDT_AUDIT_GENERATED_(88)
  6
Continuous
 62
     7
100
AcDbCircle
 10
343.099975
 20
669.0594899018
 30
0.0
 40
0.6999999999999784
100
AcDbArc
 50
0.0
 51
90.0
  0
LINE
  5
1B4
330
1AC
100
AcDbEntity
  8
$DDT_AUDIT_GENERATED_(88)
  6
Continuous
 62
     7
100
AcDbLine
 10
343.099975
 20
647.7594899018
 30
0.0
 11
335.799975
 21
647.7594899018
 31
0.0
  0
LINE
  5
1B5
330
1AC
100
AcDbEntity
  8
$DDT_AUDIT_GENERATED_(88)
  6
Continuous
 62
     7
100
AcDbLine
 10
335.799975
 20
647.7594899018
 30
0.0
 11
168.4395772695
 21
647.7594899018
 31
0.0
  0
LINE
  5
1B6
330
1AC
100
AcDbEntity
  8
$DDT_AUDIT_GENERATED_(88)
  6
Continuous
 62
     7
100
AcDbLine
 10
154.3356287529
 20
648.4594899018
 30
0.0
 11
154.3356287529
 21
669.0594899018
 31
0.0
  0
ARC
  5
1B7
330
1AC
100
AcDbEntity
  8
$DDT_AUDIT_GENERATED_(88)
  6
Continuous
 62
     7
100
AcDbCircle
 10
343.099975
 20
648.4594899018
 30
0.0
 40
0.6999999999999784
100
AcDbArc
 50
270.0
 51
0.0
  0
ARC
  5
1B8
330
1AC
100
AcDbEntity
  8
$DDT_AUDIT_GENERATED_(88)
  6
Continuous
 62
     7
100
AcDbCircle
 10
196.8853990336
 20
670.8656704534
 30
0.0
 40
48.0886668338097
100
AcDbArc
 50
207.7707337027
 51
217.7280369926
  0
SPLINE
  5
1B9
330
1AC
100
AcDbEntity
  8
$DDT_AUDIT_GENERATED_(88)
  6
Continuous
 62
     7
100
AcDbSpline
210
0.0
220
0.0
230
1.0
 70
     8
 71
     3
 72
    14
 73
    10
 74
     0
 42
0.0000000031810064
 43
0.0000000001
 40
0.0
 40
0.0
 40
0.0
 40
0.0
 40
0.2500000000000024
 40
0.2500000000000024
 40
0.3750000000000072
 40
0.3750000000000072
 40
0.500000000000012
 40
0.500000000000012
 40
1.0
 40
1.0
 40
1.0
 40
1.0
 10
161.399690906798
 20
639.7594899018128
 30
0.0
 10
161.2045002682133
 20
639.7594899018128
 30
0.0
 10
161.002126813127
 20
639.8032253709828
 30
0.0
 10
160.6885813656855
 20
639.9240854555777
 30
0.0
 10
160.5824024516368
 20
639.973663388769
 30
0.0
 10
160.3668589538385
 20
640.0904841603275
 30
0.0
 10
160.2571411566494
 20
640.1580353145978
 30
0.0
 10
159.7117480390951
 20
640.5307033863404
 30
0.0
 10
159.2772391710303
 20
640.9402162078383
 30
0.0
 10
158.8509089326468
 20
641.4395351207631
 30
0.0
  0
LINE
  5
1BA
330
1AC
100
AcDbEntity
  8
$DDT_AUDIT_GENERATED_(88)
  6
Continuous
 62
     7
100
AcDbLine
 10
161.3996909068
 20
639.7594899018
 30
0.0
 11
163.799975
 21
639.7594899018
 31
0.0
  0
ARC
  5
1BB
330
1AC
100
AcDbEntity
  8
$DDT_AUDIT_GENERATED_(88)
  6
Continuous
 62
     7
100
AcDbCircle
 10
168.7908786192
 20
704.1973477285
 30
0.0
 40
56.43895116583229
100
AcDbArc
 50
266.0176929577
 51
269.6433630634
  0
ARC
  5
1BC
330
1AC
100
AcDbEntity
  8
$DDT_AUDIT_GENERATED_(88)
  6
Continuous
 62
     7
100
AcDbCircle
 10
278.9835882257
 20
2874.9731383299
 30
0.0
 40
2230.000031488138
100
AcDbArc
 50
266.7957282229
 51
267.0668115875
  0
ELLIPSE
  5
1BD
330
1AC
100
AcDbEntity
  8
$DDT_AUDIT_GENERATED_(88)
  6
Continuous
 62
     7
100
AcDbEllipse
 10
164.8712825057
 20
641.4395351208
 30
0.0
 11
5.133197461732877
 21
6.135982710117366
 31
0.0
210
0.0
220
0.0
230
1.0
 40
0.6591383141
 41
0.9034752989645994
 42
2.074727037392322
  0
ELLIPSE
  5
1BE
330
1AC
100
AcDbEntity
  8
$DDT_AUDIT_GENERATED_(88)
  6
Continuous
 62
     7
100
AcDbEllipse
 10
168.4395772695
 20
639.7594899018
 30
0.0
 11
0.0
 21
8.0
 31
0.0
210
0.0
220
0.0
230
1.0
 40
1.0
 41
0.0
 42
1.570796326794897
  0
LINE
  5
1BF
330
1AC
100
AcDbEntity
  8
$DDT_AUDIT_GENERATED_(88)
  6
Continuous
 62
     7
100
AcDbLine
 10
163.799975
 20
671.2594899018
 30
0.0
 11
159.1228357827
 21
671.2594899018
 31
0.0
  0
SPLINE
  5
1C0
330
1AC
100
AcDbEntity
  8
$DDT_AUDIT_GENERATED_(88)
  6
Continuous
 62
     7
100
AcDbSpline
210
0.0
220
0.0
230
1.0
 70
     8
 71
     3
 72
    14
 73
    10
 74
     0
 42
0.0000000018770259
 43
0.0000000001
 40
0.0
 40
0.0
 40
0.0
 40
0.0
 40
0.4999999999999964
 40
0.4999999999999964
 40
0.6249999999999973
 40
0.6249999999999973
 40
0.7499999999999982
 40
0.7499999999999982
 40
1.0
 40
1.0
 40
1.0
 40
1.0
 10
154.3356287528528
 20
669.0594899018129
 30
0.0
 10
155.194473547873
 20
669.5703942509672
 30
0.0
 10
156.0094938448155
 20
670.081568925592
 30
0.0
 10
157.0040085358845
 20
670.6029743872369
 30
0.0
 10
157.2017481374163
 20
670.701175571984
 30
0.0
 10
157.5959080716886
 20
670.8807216582592
 30
0.0
 10
157.7932385671826
 20
670.9623999841878
 30
0.0
 10
158.3766461756467
 20
671.1692512866805
 30
0.0
 10
158.7542093203584
 20
671.2594899018129
 30
0.0
 10
159.1228357826814
 20
671.2594899018128
 30
0.0
  0
LINE
  5
1C1
330
1AC
100
AcDbEntity
  8
$DDT_AUDIT_GENERATED_(88)
  6
Continuous
 62
     7
100
AcDbLine
 10
160.2720503414
 20
669.7594899018
 30
0.0
 11
164.8712825057
 21
669.7594899018
 31
0.0
  0
ARC
  5
1C2
330
1AC
100
AcDbEntity
  8
$DDT_AUDIT_GENERATED_(88)
  6
Continuous
 62
     7
100
AcDbCircle
 10
162.0102686052
 20
629.4961369516
 30
0.0
 40
40.30085598998598
100
AcDbArc
 50
92.4719940132
 51
92.8807598047
  0
ARC
  5
1C3
330
1AC
100
AcDbEntity
  8
$DDT_AUDIT_GENERATED_(88)
  6
Continuous
 62
     7
100
AcDbCircle
 10
162.0102686052
 20
629.4961369516
 30
0.0
 40
40.30085598998598
100
AcDbArc
 50
92.8807598047
 51
100.9780936752
  0
ELLIPSE
  5
1C4
330
1AC
100
AcDbEntity
  8
$DDT_AUDIT_GENERATED_(88)
  6
Continuous
 62
     7
100
AcDbEllipse
 10
160.2720503414
 20
671.2594899018
 30
0.0
 11
0.0
 21
1.149214558701118
 31
0.0
210
0.0
220
0.0
230
1.0
 40
1.0
 41
1.570796326794897
 42
3.141592653589793
  0
LINE
  5
1C5
330
1AC
100
AcDbEntity
  8
$DDT_AUDIT_GENERATED_(88)
  6
Continuous
 62
     7
100
AcDbLine
 10
163.499975
 20
689.7480463311
 30
0.0
 11
124.099975
 21
689.7480463311
 31
0.0
  0
LINE
  5
1C6
330
1AC
100
AcDbEntity
  8
$DDT_AUDIT_GENERATED_(88)
  6
Continuous
 62
     7
100
AcDbLine
 10
163.799975
 20
671.2594899018
 30
0.0
 11
163.799975
 21
689.4480463311
 31
0.0
  0
LINE
  5
1C7
330
1AC
100
AcDbEntity
  8
$DDT_AUDIT_GENERATED_(88)
  6
Continuous
 62
     7
100
AcDbLine
 10
163.799975
 20
398.0594899018
 30
0.0
 11
163.799975
 21
639.7594899018
 31
0.0
  0
LINE
  5
1C8
330
1AC
100
AcDbEntity
  8
$DDT_AUDIT_GENERATED_(88)
  6
Continuous
 62
     7
100
AcDbLine
 10
123.799975
 20
689.4480463311
 30
0.0
 11
123.799975
 21
398.0594899018
 31
0.0
  0
ARC
  5
1C9
330
1AC
100
AcDbEntity
  8
$DDT_AUDIT_GENERATED_(88)
  6
Continuous
 62
     7
100
AcDbCircle
 10
171.799975
 20
639.7594899018
 30
0.0
 40
8.0
100
AcDbArc
 50
90.0
 51
180.0
  0
ARC
  5
1CA
330
1AC
100
AcDbEntity
  8
$DDT_AUDIT_GENERATED_(88)
  6
Continuous
 62
     7
100
AcDbCircle
 10
165.299975
 20
671.2594899018
 30
0.0
 40
1.500000000000001
100
AcDbArc
 50
180.0
 51
270.0
  0
ARC
  5
1CB
330
1AC
100
AcDbEntity
  8
$DDT_AUDIT_GENERATED_(88)
  6
Continuous
 62
     7
100
AcDbCircle
 10
124.099975
 20
689.4480463311
 30
0.0
 40
0.3000000000000225
100
AcDbArc
 50
90.0
 51
180.0
  0
ARC
  5
1CC
330
1AC
100
AcDbEntity
  8
$DDT_AUDIT_GENERATED_(88)
  6
Continuous
 62
     7
100
AcDbCircle
 10
163.499975
 20
689.4480463311
 30
0.0
 40
0.3000000000000017
100
AcDbArc
 50
0.0
 51
90.0
  0
ARC
  5
1CD
330
1AC
100
AcDbEntity
  8
$DDT_AUDIT_GENERATED_(88)
  6
Continuous
 62
     7
100
AcDbCircle
 10
124.099975
 20
398.0594899018
 30
0.0
 40
0.3000000000000017
100
AcDbArc
 50
180.0
 51
270.0
  0
ARC
  5
1CE
330
1AC
100
AcDbEntity
  8
$DDT_AUDIT_GENERATED_(88)
  6
Continuous
 62
     7
100
AcDbCircle
 10
163.499975
 20
398.0594899018
 30
0.0
 40
0.300000000000012
100
AcDbArc
 50
270.0
 51
0.0
  0
LINE
  5
1D0
330
1AC
100
AcDbEntity
  8
$DDT_AUDIT_GENERATED_(1CF)
  6
Continuous
 62
     7
100
AcDbLine
 10
124.5647009977
 20
711.1247377873
 30
0.0
 11
124.9148713497
 21
714.4563861368
 31
0.0
  0
LINE
  5
1D1
330
1AC
100
AcDbEntity
  8
$DDT_AUDIT_GENERATED_(1CF)
  6
Continuous
 62
     7
100
AcDbLine
 10
124.5647009977
 20
711.1247377873
 30
0.0
 11
124.5725280548
 21
711.1239151304
 31
0.0
  0
ARC
  5
1D2
330
1AC
100
AcDbEntity
  8
$DDT_AUDIT_GENERATED_(A0)
  6
Continuous
 62
     7
100
AcDbCircle
 10
147.114836744
 20
694.1771092153
 30
0.0
 40
3.000000000000019
100
AcDbArc
 50
242.5
 51
268.5
  0
LINE
  5
1D3
330
1AC
100
AcDbEntity
  8
$DDT_AUDIT_GENERATED_(A0)
  6
Continuous
 62
     7
100
AcDbLine
 10
145.7295909043
 20
691.5160767158
 30
0.0
 11
124.5167880635
 21
702.5587629246
 31
0.0
  0
LINE
  5
1D4
330
1AC
100
AcDbEntity
  8
$DDT_AUDIT_GENERATED_(A0)
  6
Continuous
 62
     7
100
AcDbLine
 10
163.7523760903
 20
690.7404115374
 30
0.0
 11
147.0363058991
 21
691.1781372404
 31
0.0
  0
ARC
  5
1D5
330
1AC
100
AcDbEntity
  8
$DDT_AUDIT_GENERATED_(A0)
  6
Continuous
 62
     7
100
AcDbCircle
 10
104.8197789123
 20
715.0026589168
 30
0.0
 40
20.11350318655697
100
AcDbArc
 50
349.1724468389
 51
7.8275209363
  0
LINE
  5
1D6
330
1AC
100
AcDbEntity
  8
$DDT_AUDIT_GENERATED_(A0)
  6
Continuous
 62
     7
100
AcDbLine
 10
223.855491625
 20
709.1734119178
 30
0.0
 11
221.5562797775
 21
709.2336188989
 31
0.0
  0
LINE
  5
1D7
330
1AC
100
AcDbEntity
  8
$DDT_AUDIT_GENERATED_(A0)
  6
Continuous
 62
     7
100
AcDbLine
 10
221.5562797775
 20
709.2336188989
 30
0.0
 11
168.2177446619
 21
710.630337596
 31
0.0
  0
LINE
  5
1D8
330
1AC
100
AcDbEntity
  8
$DDT_AUDIT_GENERATED_(A0)
  6
Continuous
 62
     7
100
AcDbLine
 10
168.2177446619
 20
710.630337596
 30
0.0
 11
164.9217416965
 21
710.7166464712
 31
0.0
  0
LINE
  5
1D9
330
1AC
100
AcDbEntity
  8
$DDT_AUDIT_GENERATED_(A0)
  6
Continuous
 62
     7
100
AcDbLine
 10
161.4831888379
 20
711.5069281014
 30
0.0
 11
161.7048081454
 21
719.9702280079
 31
0.0
  0
ARC
  5
1DA
330
1AC
100
AcDbEntity
  8
$DDT_AUDIT_GENERATED_(A0)
  6
Continuous
 62
     7
100
AcDbCircle
 10
223.8738154888
 20
709.8731720452
 30
0.0
 40
0.700000000000017
100
AcDbArc
 50
268.5
 51
358.5
  0
LINE
  5
1DB
330
1AC
100
AcDbEntity
  8
$DDT_AUDIT_GENERATED_(A0)
  6
Continuous
 62
     7
100
AcDbLine
 10
163.4634709757
 20
709.2543184452
 30
0.0
 11
164.5365468315
 21
709.226218965
 31
0.0
  0
SPLINE
  5
1DC
330
1AC
100
AcDbEntity
  8
$DDT_AUDIT_GENERATED_(A0)
  6
Continuous
 62
     7
100
AcDbSpline
210
0.0
220
0.0
230
1.0
 70
     8
 71
     3
 72
    12
 73
     8
 74
     0
 42
0.0000000032581908
 43
0.0000000001
 40
0.0
 40
0.0
 40
0.0
 40
0.0
 40
0.2500000000000002
 40
0.2500000000000002
 40
0.5000000000000003
 40
0.5000000000000003
 40
1.0
 40
1.0
 40
1.0
 40
1.0
 10
163.4634709757282
 20
709.2543184451548
 30
0.0
 10
163.3191072735514
 20
709.2580987417375
 30
0.0
 10
163.1678847748472
 20
709.3478901668362
 30
0.0
 10
162.849967197972
 20
709.629952875983
 30
0.0
 10
162.6893588606889
 20
709.8177681128947
 30
0.0
 10
162.1967013327991
 20
710.4566468063125
 30
0.0
 10
161.8535261842973
 20
710.9856598517703
 30
0.0
 10
161.4831888378656
 20
711.5069281013817
 30
0.0
  0
ARC
  5
1DD
330
1AC
100
AcDbEntity
  8
$DDT_AUDIT_GENERATED_(A0)
  6
Continuous
 62
     7
100
AcDbCircle
 10
166.294985832
 20
724.5674909518
 30
0.0
 40
13.91875325888985
100
AcDbArc
 50
249.7750993128
 51
264.3379049741
  0
ELLIPSE
  5
1DE
330
1AC
100
AcDbEntity
  8
$DDT_AUDIT_GENERATED_(A0)
  6
Continuous
 62
     7
100
AcDbEllipse
 10
164.882476274
 20
709.2171604837
 30
0.0
 11
0.03926542246202383
 21
1.499485987463356
 31
0.0
210
0.0
220
0.0
230
1.0
 40
0.9463278151
 41
0.0000000000000025
 42
1.57079632679507
  0
LINE
  5
1DF
330
1AC
100
AcDbEntity
  8
$DDT_AUDIT_GENERATED_(A0)
  6
Continuous
 62
     7
100
AcDbLine
 10
224.79817323
 20
718.4318850106
 30
0.0
 11
224.5735756163
 21
709.8548481814
 31
0.0
  0
LINE
  5
1E0
330
1AC
100
AcDbEntity
  8
$DDT_AUDIT_GENERATED_(A0)
  6
Continuous
 62
     7
100
AcDbLine
 10
224.7986973717
 20
718.4519011762
 30
0.0
 11
224.79817323
 21
718.4318850106
 31
0.0
  0
ELLIPSE
  5
1E1
330
1AC
100
AcDbEntity
  8
$DDT_AUDIT_GENERATED_(A0)
  6
Continuous
 62
     7
100
AcDbEllipse
 10
161.1139311727
 20
719.9857006659
 30
0.0
 11
-0.01021911813606571
 21
0.6999254028998703
 31
0.0
210
0.0
220
0.0
230
1.0
 40
0.8441976704
 41
4.677957794013164
 42
6.234890823382044
  0
ARC
  5
1E2
330
1AC
100
AcDbEntity
  8
$DDT_AUDIT_GENERATED_(A0)
  6
Continuous
 62
     7
100
AcDbCircle
 10
124.6553126475
 20
702.8248661745
 30
0.0
 40
0.2999999999999988
100
AcDbArc
 50
184.9694367896
 51
242.5
  0
ARC
  5
1E3
330
1AC
100
AcDbEntity
  8
$DDT_AUDIT_GENERATED_(A0)
  6
Continuous
 62
     7
100
AcDbCircle
 10
163.7602291748
 20
691.0403087349
 30
0.0
 40
0.3000000000000151
100
AcDbArc
 50
268.5
 51
358.5
  0
ARC
  5
1E4
330
1AC
100
AcDbEntity
  8
$DDT_AUDIT_GENERATED_(A0)
  6
Continuous
 62
     7
100
AcDbCircle
 10
166.0360328189
 20
709.1869535425
 30
0.0
 40
1.5
100
AcDbArc
 50
88.5
 51
178.5
  0
ARC
  5
1E5
330
1AC
100
AcDbEntity
  8
$DDT_AUDIT_GENERATED_(A0)
  6
Continuous
 62
     7
100
AcDbCircle
 10
134.3671116773
 20
321.1329728467
 30
0.0
 40
400.2500000001536
100
AcDbArc
 50
88.5
 51
91.268712374
  0
LINE
  5
1E6
330
1AC
100
AcDbEntity
  8
$DDT_AUDIT_GENERATED_(A0)
  6
Continuous
 62
     7
100
AcDbLine
 10
164.0601263723
 20
691.0324556504
 30
0.0
 11
164.5365468315
 21
709.226218965
 31
0.0
  0
LINE
  5
1E7
330
1AC
100
AcDbEntity
  8
$DDT_AUDIT_GENERATED_(A0)
  6
Continuous
 62
     7
100
AcDbLine
 10
124.5725280548
 20
711.1239151304
 30
0.0
 11
124.35541545
 21
702.832719259
 31
0.0
  0
LINE
  5
1E8
330
1AC
100
AcDbEntity
  8
$DDT_AUDIT_GENERATED_(A0)
  6
Continuous
 62
     7
100
AcDbLine
 10
124.8207557064
 20
720.6033467016
 30
0.0
 11
124.7446360578
 21
717.6964545973
 31
0.0
  0
LINE
  5
1E9
330
1AC
100
AcDbEntity
  8
$DDT_AUDIT_GENERATED_(A0)
  6
Continuous
 62
     7
100
AcDbLine
 10
224.117261108
 20
719.1699851675
 30
0.0
 11
144.8444352375
 21
721.2458171683
 31
0.0
  0
ARC
  5
1EA
330
1AC
100
AcDbEntity
  8
$DDT_AUDIT_GENERATED_(A0)
  6
Continuous
 62
     7
100
AcDbCircle
 10
125.5205158339
 20
720.5850228378
 30
0.0
 40
0.6999999999999702
100
AcDbArc
 50
91.268712374
 51
178.5
  0
ARC
  5
1EB
330
1AC
100
AcDbEntity
  8
$DDT_AUDIT_GENERATED_(A0)
  6
Continuous
 62
     7
100
AcDbCircle
 10
224.0989372442
 20
718.47022504
 30
0.0
 40
0.7000000000000027
100
AcDbArc
 50
358.5
 51
88.5
  0
LINE
  5
1EC
330
1AC
100
AcDbEntity
  8
$DDT_AUDIT_GENERATED_(DC)
  6
Continuous
 62
     7
100
AcDbLine
 10
134.454678626
 20
697.3854245457
 30
0.0
 11
131.849975
 21
697.3854245457
 31
0.0
  0
ARC
  5
1ED
330
1AC
100
AcDbEntity
  8
$DDT_AUDIT_GENERATED_(DC)
  6
Continuous
 62
     7
100
AcDbCircle
 10
143.799975
 20
681.3480463311
 30
0.0
 40
20.00000000000003
100
AcDbArc
 50
126.691057378
 51
155.1654125103
  0
ARC
  5
1EE
330
1AC
100
AcDbEntity
  8
$DDT_AUDIT_GENERATED_(DC)
  6
Continuous
 62
     7
100
AcDbCircle
 10
143.799975
 20
681.3480463311
 30
0.0
 40
20.00000000000001
100
AcDbArc
 50
24.8345874897
 51
28.207474582
  0
LINE
  5
1EF
330
1AC
100
AcDbEntity
  8
$DDT_AUDIT_GENERATED_(DF)
  6
Continuous
 62
     7
100
AcDbLine
 10
337.5027263158
 20
638.3619538528
 30
0.0
 11
317.3878809961
 21
631.8262444218
 31
0.0
  0
LINE
  5
1F0
330
1AC
100
AcDbEntity
  8
$DDT_AUDIT_GENERATED_(DF)
  6
Continuous
 62
     7
100
AcDbLine
 10
311.3261940529
 20
647.7315407536
 30
0.0
 11
311.4122126862
 21
647.7594899018
 31
0.0
  0
LINE
  5
1F1
330
1AC
100
AcDbEntity
  8
$DDT_AUDIT_GENERATED_(DF)
  6
Continuous
 62
     7
100
AcDbLine
 10
338.1447658377
 20
639.6220273635
 30
0.0
 11
335.5007439816
 21
647.7594899018
 31
0.0
  0
LINE
  5
1F2
330
1AC
100
AcDbEntity
  8
$DDT_AUDIT_GENERATED_(DF)
  6
Continuous
 62
     7
100
AcDbLine
 10
311.2298881246
 20
647.542529727
 30
0.0
 11
316.1278074855
 21
632.4682839437
 31
0.0
  0
ARC
  5
1F3
330
1AC
100
AcDbEntity
  8
$DDT_AUDIT_GENERATED_(DF)
  6
Continuous
 62
     7
100
AcDbCircle
 10
337.1937093214
 20
639.3130103691
 30
0.0
 40
0.999999999999995
100
AcDbArc
 50
288.0
 51
18.0
  0
ARC
  5
1F4
330
1AC
100
AcDbEntity
  8
$DDT_AUDIT_GENERATED_(DF)
  6
Continuous
 62
     7
100
AcDbCircle
 10
317.0788640018
 20
632.7773009381
 30
0.0
 40
0.999999999999995
100
AcDbArc
 50
198.0
 51
288.0
  0
ARC
  5
1F5
330
1AC
100
AcDbEntity
  8
$DDT_AUDIT_GENERATED_(DF)
  6
Continuous
 62
     7
100
AcDbCircle
 10
311.3725466021
 20
647.5888822762
 30
0.0
 40
0.1499999999999974
100
AcDbArc
 50
108.0
 51
198.0
  0
LINE
  5
1F6
330
1AC
100
AcDbEntity
  8
$DDT_AUDIT_GENERATED_(E4)
  6
Continuous
 62
     7
100
AcDbLine
 10
318.9630492579
 20
632.0751820589
 30
0.0
 11
336.0820665512
 21
637.6374879576
 31
0.0
  0
LINE
  5
1F7
330
1AC
100
AcDbEntity
  8
$DDT_AUDIT_GENERATED_(E4)
  6
Continuous
 62
     7
100
AcDbLine
 10
318.8857950093
 20
632.3129461879
 30
0.0
 11
318.9630492579
 21
632.0751820589
 31
0.0
  0
LINE
  5
1F8
330
1AC
100
AcDbEntity
  8
$DDT_AUDIT_GENERATED_(E4)
  6
Continuous
 62
     7
100
AcDbLine
 10
336.0820665512
 20
637.6374879576
 30
0.0
 11
336.0048123026
 21
637.8752520867
 31
0.0
  0
LINE
  5
1F9
330
1AC
100
AcDbEntity
  8
$DDT_AUDIT_GENERATED_(1A0)
  6
Continuous
 62
     7
100
AcDbLine
 10
168.549975
 20
392.7594899018
 30
0.0
 11
119.049975
 21
392.7594899018
 31
0.0
  0
LINE
  5
1FA
330
1AC
100
AcDbEntity
  8
$DDT_AUDIT_GENERATED_(1A0)
  6
Continuous
 62
     7
100
AcDbLine
 10
167.849975
 20
397.7594899018
 30
0.0
 11
119.749975
 21
397.7594899018
 31
0.0
  0
LINE
  5
1FB
330
1AC
100
AcDbEntity
  8
$DDT_AUDIT_GENERATED_(1A0)
  6
Continuous
 62
     7
100
AcDbLine
 10
168.549975
 20
392.7594899018
 30
0.0
 11
168.549975
 21
397.0594899018
 31
0.0
  0
LINE
  5
1FC
330
1AC
100
AcDbEntity
  8
$DDT_AUDIT_GENERATED_(1A0)
  6
Continuous
 62
     7
100
AcDbLine
 10
119.049975
 20
397.0594899018
 30
0.0
 11
119.049975
 21
392.7594899018
 31
0.0
  0
ARC
  5
1FD
330
1AC
100
AcDbEntity
  8
$DDT_AUDIT_GENERATED_(1A0)
  6
Continuous
 62
     7
100
AcDbCircle
 10
167.849975
 20
397.0594899018
 30
0.0
 40
0.6999999999999993
100
AcDbArc
 50
0.0
 51
90.0
  0
ARC
  5
1FE
330
1AC
100
AcDbEntity
  8
$DDT_AUDIT_GENERATED_(1A0)
  6
Continuous
 62
     7
100
AcDbCircle
 10
119.749975
 20
397.0594899018
 30
0.0
 40
0.7000000000000001
100
AcDbArc
 50
90.0
 51
180.0
  0
ARC
  5
1FF
330
1AC
100
AcDbEntity
  8
$DDT_AUDIT_GENERATED_(1A7)
  6
Continuous
 62
     7
100
AcDbCircle
 10
163.799975
 20
393.3472754553
 30
0.0
 40
1.5
100
AcDbArc
 50
321.6660932126
 51
336.9299009662
  0
ARC
  5
200
330
1AC
100
AcDbEntity
  8
$DDT_AUDIT_GENERATED_(1A7)
  6
Continuous
 62
     7
100
AcDbCircle
 10
121.799975
 20
393.3472754553
 30
0.0
 40
1.5
100
AcDbArc
 50
203.0700990338
 51
218.3339067874
  0
ENDBLK
  5
202
330
1AC
100
AcDbEntity
  8
0
100
AcDbBlockEnd
  0
BLOCK
  5
21B
330
203
100
AcDbEntity
  8
0
100
AcDbBlockBegin
  2
SE2
 70
     0
 10
0.0
 20
0.0
 30
0.0
  3
SE2
  1

  0
ARC
  5
205
330
203
100
AcDbEntity
  8
$DDT_AUDIT_GENERATED_(88)
  6
Continuous
 62
     7
100
AcDbCircle
 10
65.35
 20
285.2786924943
 30
0.0
 40
20.0
100
AcDbArc
 50
158.6232437826
 51
180.0
  0
LINE
  5
206
330
203
100
AcDbEntity
  8
$DDT_AUDIT_GENERATED_(88)
  6
Continuous
 62
     7
100
AcDbLine
 10
45.35
 20
285.2786924943
 30
0.0
 11
45.35
 21
114.35
 31
0.0
  0
ARC
  5
207
330
203
100
AcDbEntity
  8
$DDT_AUDIT_GENERATED_(88)
  6
Continuous
 62
     7
100
AcDbCircle
 10
37.35
 20
114.35
 30
0.0
 40
8.0
100
AcDbArc
 50
270.0
 51
0.0
  0
LINE
  5
208
330
203
100
AcDbEntity
  8
$DDT_AUDIT_GENERATED_(88)
  6
Continuous
 62
     7
100
AcDbLine
 10
37.35
 20
106.35
 30
0.0
 11
25.35
 21
106.35
 31
0.0
  0
ARC
  5
209
330
203
100
AcDbEntity
  8
$DDT_AUDIT_GENERATED_(88)
  6
Continuous
 62
     7
100
AcDbCircle
 10
25.35
 20
114.35
 30
0.0
 40
8.000000000000007
100
AcDbArc
 50
180.0
 51
270.0
  0
LINE
  5
20A
330
203
100
AcDbEntity
  8
$DDT_AUDIT_GENERATED_(88)
  6
Continuous
 62
     7
100
AcDbLine
 10
17.35
 20
114.35
 30
0.0
 11
17.35
 21
285.2786924943
 31
0.0
  0
ARC
  5
20B
330
203
100
AcDbEntity
  8
$DDT_AUDIT_GENERATED_(88)
  6
Continuous
 62
     7
100
AcDbCircle
 10
-2.65
 20
285.2786924943
 30
0.0
 40
20.0
100
AcDbArc
 50
0.0
 51
21.4900405007
  0
ARC
  5
20C
330
203
100
AcDbEntity
  8
$DDT_AUDIT_GENERATED_(88)
  6
Continuous
 62
     7
100
AcDbCircle
 10
31.35
 20
306.35
 30
0.0
 40
20.0
100
AcDbArc
 50
359.5717079594
 51
0.0
  0
ARC
  5
20D
330
203
100
AcDbEntity
  8
$DDT_AUDIT_GENERATED_(88)
  6
Continuous
 62
     7
100
AcDbCircle
 10
31.35
 20
306.35
 30
0.0
 40
20.0
100
AcDbArc
 50
0.0
 51
180.4282920405
  0
ARC
  5
20E
330
203
100
AcDbEntity
  8
$DDT_AUDIT_GENERATED_(A0)
  6
Continuous
 62
     7
100
AcDbCircle
 10
31.35
 20
15488.0161992538
 30
0.0
 40
15262.66492163866
100
AcDbArc
 50
269.9849840692
 51
270.0150159308
  0
ARC
  5
20F
330
203
100
AcDbEntity
  8
$DDT_AUDIT_GENERATED_(A0)
  6
Continuous
 62
     7
100
AcDbCircle
 10
35.349638583
 20
228.3521632279
 30
0.0
 40
3.00036147965147
100
AcDbArc
 50
270.0069017238
 51
359.9882867669
  0
ARC
  5
210
330
203
100
AcDbEntity
  8
$DDT_AUDIT_GENERATED_(A0)
  6
Continuous
 62
     7
100
AcDbCircle
 10
27.3503618309
 20
228.3521636418
 30
0.0
 40
3.000361893635404
100
AcDbArc
 50
180.0117211361
 51
269.9930903732
  0
LINE
  5
211
330
203
100
AcDbEntity
  8
$DDT_AUDIT_GENERATED_(A0)
  6
Continuous
 62
     7
100
AcDbLine
 10
38.35
 20
281.6900849662
 30
0.0
 11
38.35
 21
228.3515498506
 31
0.0
  0
LINE
  5
212
330
203
100
AcDbEntity
  8
$DDT_AUDIT_GENERATED_(A0)
  6
Continuous
 62
     7
100
AcDbLine
 10
24.35
 20
228.3515498506
 30
0.0
 11
24.35
 21
281.6900849662
 31
0.0
  0
ARC
  5
213
330
203
100
AcDbEntity
  8
$DDT_AUDIT_GENERATED_(A0)
  6
Continuous
 62
     7
100
AcDbCircle
 10
46.3524781593
 20
281.688609712
 30
0.0
 40
8.00247829530832
100
AcDbArc
 50
122.4021212381
 51
179.989437542
  0
ARC
  5
214
330
203
100
AcDbEntity
  8
$DDT_AUDIT_GENERATED_(A0)
  6
Continuous
 62
     7
100
AcDbCircle
 10
16.3475223581
 20
281.6886099965
 30
0.0
 40
8.002477777814702
100
AcDbArc
 50
0.0105604216
 51
57.5978807983
  0
ARC
  5
215
330
203
100
AcDbEntity
  8
$DDT_AUDIT_GENERATED_(A0)
  6
Continuous
 62
     7
100
AcDbCircle
 10
31.3611959195
 20
305.3393083338
 30
0.0
 40
20.01119618106339
100
AcDbArc
 50
180.0092639525
 51
237.5900075516
  0
ARC
  5
216
330
203
100
AcDbEntity
  8
$DDT_AUDIT_GENERATED_(A0)
  6
Continuous
 62
     7
100
AcDbCircle
 10
31.3388039329
 20
305.339308415
 30
0.0
 40
20.01119632871354
100
AcDbArc
 50
302.4099926807
 51
359.9907358151
  0
LINE
  5
217
330
203
100
AcDbEntity
  8
$DDT_AUDIT_GENERATED_(A0)
  6
Continuous
 62
     7
100
AcDbLine
 10
11.35
 20
306.0529298605
 30
0.0
 11
11.35
 21
305.3360727941
 31
0.0
  0
LINE
  5
218
330
203
100
AcDbEntity
  8
$DDT_AUDIT_GENERATED_(A0)
  6
Continuous
 62
     7
100
AcDbLine
 10
51.35
 20
305.3360727941
 30
0.0
 11
51.35
 21
306.0529298605
 31
0.0
  0
ARC
  5
219
330
203
100
AcDbEntity
  8
$DDT_AUDIT_GENERATED_(1A0)
  6
Continuous
 62
     7
100
AcDbCircle
 10
31.35
 20
306.35
 30
0.0
 40
24.75
100
AcDbArc
 50
304.4793341897
 51
0.0
  0
ARC
  5
21A
330
203
100
AcDbEntity
  8
$DDT_AUDIT_GENERATED_(1A0)
  6
Continuous
 62
     7
100
AcDbCircle
 10
31.35
 20
306.35
 30
0.0
 40
24.75
100
AcDbArc
 50
0.0
 51
235.5206658103
  0
ENDBLK
  5
21C
330
203
100
AcDbEntity
  8
0
100
AcDbBlockEnd
  0
ENDSEC
  0
SECTION
  2
ENTITIES
  0
INSERT
  5
5F
330
1F
100
AcDbEntity
  8
Default
100
AcDbBlockReference
  2
SEANNOT_GROUP
 10
0.0
 20
0.0
 30
0.0
  0
INSERT
  5
66
330
1F
100
AcDbEntity
  8
Default
100
AcDbBlockReference
  2
SEANNOT_GROUP1
 10
0.0
 20
0.0
 30
0.0
  0
INSERT
  5
6C
330
1F
100
AcDbEntity
  8
Default
100
AcDbBlockReference
  2
SEANNOT_GROUP2
 10
0.0
 20
0.0
 30
0.0
  0
POINT
  5
71
330
1F
100
AcDbEntity
  8
Default
  6
Continuous
 62
     7
100
AcDbPoint
 10
31.3500006493
 20
634.8563350082
 30
0.0
  0
INSERT
  5
73
330
1F
100
AcDbEntity
  8
Default
100
AcDbBlockReference
  2
SEANNOT_GROUP3
 10
0.0
 20
0.0
 30
0.0
  0
POINT
  5
78
330
1F
100
AcDbEntity
  8
Default
  6
Continuous
 62
     7
100
AcDbPoint
 10
31.35
 20
306.35
 30
0.0
  0
POINT
  5
79
330
1F
100
AcDbEntity
  8
Default
  6
Continuous
 62
     7
100
AcDbPoint
 10
31.35
 20
122.6274170955
 30
0.0
  0
INSERT
  5
7B
330
1F
100
AcDbEntity
  8
Default
100
AcDbBlockReference
  2
SEANNOT_GROUP4
 10
0.0
 20
0.0
 30
0.0
  0
INSERT
  5
81
330
1F
100
AcDbEntity
  8
Default
100
AcDbBlockReference
  2
SEANNOT_GROUP5
 10
0.0
 20
0.0
 30
0.0
  0
INSERT
  5
87
330
1F
100
AcDbEntity
  8
Default
100
AcDbBlockReference
  2
SE
 10
0.0
 20
0.0
 30
0.0
  0
INSERT
  5
1AD
330
1F
100
AcDbEntity
  8
Default
100
AcDbBlockReference
  2
SE1
 10
0.0
 20
0.0
 30
0.0
  0
INSERT
  5
204
330
1F
100
AcDbEntity
  8
Default
100
AcDbBlockReference
  2
SE2
 10
0.0
 20
0.0
 30
0.0
  0
TEXT
  5
21E
330
1F
100
AcDbEntity
  8
Default
  6
Continuous
 62
     7
100
AcDbText
 10
5.9362635081
 20
53.4225120485
 30
0.0
 40
10.0
  1
Grohe AG^J
  7
SEACAD_seiso_ttf
 11
5.9362635081
 21
63.4225120485
 31
0.0
100
AcDbText
 73
     3
  0
TEXT
  5
21F
330
1F
100
AcDbEntity
  8
Default
  6
Continuous
 62
     7
100
AcDbText
 10
5.9362635081
 20
37.0588756849
 30
0.0
 40
10.0
  1
 
  7
SEACAD_seiso_ttf
 11
5.9362635081
 21
47.0588756849
 31
0.0
100
AcDbText
 73
     3
  0
TEXT
  5
220
330
1F
100
AcDbEntity
  8
Default
  6
Continuous
 62
     7
100
AcDbText
 10
5.9362635081
 20
20.6952393213
 30
0.0
 40
10.0
  1
ecn:
  7
SEACAD_seiso_ttf
 11
5.9362635081
 21
30.6952393213
 31
0.0
100
AcDbText
 73
     3
  0
TEXT
  5
221
330
1F
100
AcDbEntity
  8
Default
  6
Continuous
 62
     7
100
AcDbText
 10
5.9362635081
 20
4.3316029576
 30
0.0
 40
10.0
  1
unit: mm
  7
SEACAD_seiso_ttf
 11
5.9362635081
 21
14.3316029576
 31
0.0
100
AcDbText
 73
     3
  0
LINE
  5
222
330
1F
100
AcDbEntity
  8
Default
  6
Continuous
 62
     7
100
AcDbLine
 10
0.0
 20
0.0
 30
0.0
 11
100.0
 21
0.0
 31
0.0
  0
LINE
  5
223
330
1F
100
AcDbEntity
  8
Default
  6
Continuous
 62
     7
100
AcDbLine
 10
0.0
 20
0.0
 30
0.0
 11
0.0
 21
100.0
 31
0.0
  0
TEXT
  5
224
330
1F
100
AcDbEntity
  8
Default
  6
Continuous
 62
     7
100
AcDbText
 10
24.3923665681
 20
-18.2375342018
 30
0.0
 40
10.0
  1
100 mm
  7
SEACAD_seiso_ttf
 11
24.3923665681
 21
-8.2375342018
 31
0.0
100
AcDbText
 73
     3
  0
TEXT
  5
225
330
1F
100
AcDbEntity
  8
Default
  6
Continuous
 62
     7
100
AcDbText
 10
-7.6150308803
 20
24.6231930421
 30
0.0
 40
10.0
  1
100 mm
 50
90.0
  7
SEACAD_seiso_ttf
 11
-17.6150308803
 21
24.6231930421
 31
0.0
100
AcDbText
 73
     3
  0
TEXT
  5
226
330
1F
100
AcDbEntity
  8
Default
  6
Continuous
 62
     7
100
AcDbText
 10
28.4878128572
 20
20.0907663715
 30
0.0
 40
10.0
  1
227985
  7
SEACAD_seiso_ttf
 11
28.4878128572
 21
30.0907663715
 31
0.0
100
AcDbText
 73
     3
  0
TEXT
  5
227
330
1F
100
AcDbEntity
  8
Default
  6
Continuous
 62
     7
100
AcDbText
 10
5.9012241913
 20
36.7242780188
 30
0.0
 40
10.0
  1
23405000
  7
SEACAD_seiso_ttf
 11
5.9012241913
 21
46.7242780188
 31
0.0
100
AcDbText
 73
     3
  0
ENDSEC
  0
SECTION
  2
OBJECTS
  0
DICTIONARY
  5
C
330
0
100
AcDbDictionary
281
     1
  3
ACAD_GROUP
350
D
  3
ACAD_LAYOUT
350
1A
  3
ACAD_MLEADERSTYLE
350
22B
  3
ACAD_MLINESTYLE
350
17
  3
ACAD_PLOTSETTINGS
350
19
  3
ACAD_PLOTSTYLENAME
350
E
  3
ACAD_SCALELIST
350
3B
  3
ACAD_TABLESTYLE
350
22A
  3
ACAD_VISUALSTYLE
350
2A
  3
AcDbVariableDictionary
350
228
  0
DICTIONARY
  5
D
102
{ACAD_REACTORS
330
C
102
}
330
C
100
AcDbDictionary
281
     1
  0
DICTIONARY
  5
1A
102
{ACAD_REACTORS
330
C
102
}
330
C
100
AcDbDictionary
281
     1
  3
Layout1
350
1E
  3
Model
350
22
  0
DICTIONARY
  5
22B
102
{ACAD_REACTORS
330
C
102
}
330
C
100
AcDbDictionary
281
     1
  0
DICTIONARY
  5
17
102
{ACAD_REACTORS
330
C
102
}
330
C
100
AcDbDictionary
281
     1
  3
Standard
350
18
  0
DICTIONARY
  5
19
102
{ACAD_REACTORS
330
C
102
}
330
C
100
AcDbDictionary
281
     1
  0
ACDBDICTIONARYWDFLT
  5
E
102
{ACAD_REACTORS
330
C
102
}
330
C
100
AcDbDictionary
281
     1
  3
Normal
350
F
100
AcDbDictionaryWithDefault
340
F
  0
DICTIONARY
  5
3B
102
{ACAD_REACTORS
330
C
102
}
330
C
100
AcDbDictionary
281
     1
  3
A0
350
3C
  3
A1
350
3D
  3
A2
350
3E
  3
A3
350
3F
  3
A4
350
40
  3
A5
350
41
  3
A6
350
42
  3
A7
350
43
  3
A8
350
44
  3
A9
350
45
  3
B0
350
46
  3
B1
350
47
  3
B2
350
48
  3
B3
350
49
  3
B4
350
4A
  3
B5
350
4B
  3
B6
350
4C
  3
B7
350
4D
  3
B8
350
4E
  3
B9
350
4F
  3
C0
350
50
  3
C1
350
51
  3
C2
350
52
  3
C3
350
53
  3
C4
350
54
  3
C5
350
55
  3
C6
350
56
  3
C7
350
57
  3
C8
350
58
  3
C9
350
59
  3
D0
350
5A
  3
D1
350
5B
  3
D2
350
5C
  0
DICTIONARY
  5
22A
102
{ACAD_REACTORS
330
C
102
}
330
C
100
AcDbDictionary
281
     1
  0
DICTIONARY
  5
2A
102
{ACAD_REACTORS
330
C
102
}
330
C
100
AcDbDictionary
281
     1
  3
2dWireframe
350
2F
  3
3D Hidden
350
31
  3
3dWireframe
350
30
  3
Basic
350
32
  3
Brighten
350
36
  3
ColorChange
350
3A
  3
Conceptual
350
34
  3
Dim
350
35
  3
Facepattern
350
39
  3
Flat
350
2B
  3
FlatWithEdges
350
2C
  3
Gouraud
350
2D
  3
GouraudWithEdges
350
2E
  3
Linepattern
350
38
  3
Realistic
350
33
  3
Thicken
350
37
  0
DICTIONARY
  5
228
102
{ACAD_REACTORS
330
C
102
}
330
C
100
AcDbDictionary
281
     1
  3
CANNOSCALE
350
229
  3
PSOLHEIGHT
350
22D
  3
PSOLWIDTH
350
22C
  0
LAYOUT
  5
1E
102
{ACAD_REACTORS
330
1A
102
}
330
1A
100
AcDbPlotSettings
  1

  2
none_device
  4

  6

 40
0.0
 41
0.0
 42
0.0
 43
0.0
 44
0.0
 45
0.0
 46
0.0
 47
0.0
 48
0.0
 49
0.0
140
0.0
141
0.0
142
1.0
143
1.0
 70
   688
 72
     0
 73
     0
 74
     5
  7

 75
    16
147
1.0
148
0.0
149
0.0
100
AcDbLayout
  1
Layout1
 70
     1
 71
     1
 10
0.0
 20
0.0
 11
3000.0
 21
4500.0
 12
0.0
 22
0.0
 32
0.0
 14
0.0
 24
0.0
 34
0.0
 15
3000.0
 25
4500.0
 35
0.0
146
0.0
 13
0.0
 23
0.0
 33
0.0
 16
1.0
 26
0.0
 36
0.0
 17
0.0
 27
1.0
 37
0.0
 76
     0
330
1B
  0
LAYOUT
  5
22
102
{ACAD_REACTORS
330
1A
102
}
330
1A
100
AcDbPlotSettings
  1

  2
none_device
  4

  6

 40
0.0
 41
0.0
 42
0.0
 43
0.0
 44
0.0
 45
0.0
 46
0.0
 47
0.0
 48
0.0
 49
0.0
140
0.0
141
0.0
142
1.0
143
1.0
 70
  1712
 72
     0
 73
     0
 74
     0
  7

 75
     0
147
1.0
148
0.0
149
0.0
100
AcDbLayout
  1
Model
 70
     1
 71
     0
 10
0.0
 20
0.0
 11
3000.0
 21
4500.0
 12
0.0
 22
0.0
 32
0.0
 14
0.0
 24
0.0
 34
0.0
 15
3000.0
 25
4500.0
 35
0.0
146
0.0
 13
0.0
 23
0.0
 33
0.0
 16
1.0
 26
0.0
 36
0.0
 17
0.0
 27
1.0
 37
0.0
 76
     0
330
1F
331
29
  0
MLINESTYLE
  5
18
102
{ACAD_REACTORS
330
17
102
}
330
17
100
AcDbMlineStyle
  2
Standard
 70
     0
  3

 62
   256
 51
90.0
 52
90.0
 71
     2
 49
0.5
 62
   256
  6
BYLAYER
 49
-0.5
 62
   256
  6
BYLAYER
  0
ACDBPLACEHOLDER
  5
F
102
{ACAD_REACTORS
330
E
102
}
330
E
  0
SCALE
  5
3C
102
{ACAD_REACTORS
330
3B
102
}
330
3B
100
AcDbScale
 70
     0
300
1:1
140
1.0
141
1.0
290
     1
  0
SCALE
  5
3D
102
{ACAD_REACTORS
330
3B
102
}
330
3B
100
AcDbScale
 70
     0
300
1:2
140
1.0
141
2.0
290
     0
  0
SCALE
  5
3E
102
{ACAD_REACTORS
330
3B
102
}
330
3B
100
AcDbScale
 70
     0
300
1:4
140
1.0
141
4.0
290
     0
  0
SCALE
  5
3F
102
{ACAD_REACTORS
330
3B
102
}
330
3B
100
AcDbScale
 70
     0
300
1:5
140
1.0
141
5.0
290
     0
  0
SCALE
  5
40
102
{ACAD_REACTORS
330
3B
102
}
330
3B
100
AcDbScale
 70
     0
300
1:8
140
1.0
141
8.0
290
     0
  0
SCALE
  5
41
102
{ACAD_REACTORS
330
3B
102
}
330
3B
100
AcDbScale
 70
     0
300
1:10
140
1.0
141
10.0
290
     0
  0
SCALE
  5
42
102
{ACAD_REACTORS
330
3B
102
}
330
3B
100
AcDbScale
 70
     0
300
1:16
140
1.0
141
16.0
290
     0
  0
SCALE
  5
43
102
{ACAD_REACTORS
330
3B
102
}
330
3B
100
AcDbScale
 70
     0
300
1:20
140
1.0
141
20.0
290
     0
  0
SCALE
  5
44
102
{ACAD_REACTORS
330
3B
102
}
330
3B
100
AcDbScale
 70
     0
300
1:30
140
1.0
141
30.0
290
     0
  0
SCALE
  5
45
102
{ACAD_REACTORS
330
3B
102
}
330
3B
100
AcDbScale
 70
     0
300
1:40
140
1.0
141
40.0
290
     0
  0
SCALE
  5
46
102
{ACAD_REACTORS
330
3B
102
}
330
3B
100
AcDbScale
 70
     0
300
1:50
140
1.0
141
50.0
290
     0
  0
SCALE
  5
47
102
{ACAD_REACTORS
330
3B
102
}
330
3B
100
AcDbScale
 70
     0
300
1:100
140
1.0
141
100.0
290
     0
  0
SCALE
  5
48
102
{ACAD_REACTORS
330
3B
102
}
330
3B
100
AcDbScale
 70
     0
300
2:1
140
2.0
141
1.0
290
     0
  0
SCALE
  5
49
102
{ACAD_REACTORS
330
3B
102
}
330
3B
100
AcDbScale
 70
     0
300
4:1
140
4.0
141
1.0
290
     0
  0
SCALE
  5
4A
102
{ACAD_REACTORS
330
3B
102
}
330
3B
100
AcDbScale
 70
     0
300
8:1
140
8.0
141
1.0
290
     0
  0
SCALE
  5
4B
102
{ACAD_REACTORS
330
3B
102
}
330
3B
100
AcDbScale
 70
     0
300
10:1
140
10.0
141
1.0
290
     0
  0
SCALE
  5
4C
102
{ACAD_REACTORS
330
3B
102
}
330
3B
100
AcDbScale
 70
     0
300
100:1
140
100.0
141
1.0
290
     0
  0
SCALE
  5
4D
102
{ACAD_REACTORS
330
3B
102
}
330
3B
100
AcDbScale
 70
     0
300
1/128" = 1'-0"
140
0.0078125
141
12.0
290
     0
  0
SCALE
  5
4E
102
{ACAD_REACTORS
330
3B
102
}
330
3B
100
AcDbScale
 70
     0
300
1/64" = 1'-0"
140
0.015625
141
12.0
290
     0
  0
SCALE
  5
4F
102
{ACAD_REACTORS
330
3B
102
}
330
3B
100
AcDbScale
 70
     0
300
1/32" = 1'-0"
140
0.03125
141
12.0
290
     0
  0
SCALE
  5
50
102
{ACAD_REACTORS
330
3B
102
}
330
3B
100
AcDbScale
 70
     0
300
1/16" = 1'-0"
140
0.0625
141
12.0
290
     0
  0
SCALE
  5
51
102
{ACAD_REACTORS
330
3B
102
}
330
3B
100
AcDbScale
 70
     0
300
3/32" = 1'-0"
140
0.09375
141
12.0
290
     0
  0
SCALE
  5
52
102
{ACAD_REACTORS
330
3B
102
}
330
3B
100
AcDbScale
 70
     0
300
1/8" = 1'-0"
140
0.125
141
12.0
290
     0
  0
SCALE
  5
53
102
{ACAD_REACTORS
330
3B
102
}
330
3B
100
AcDbScale
 70
     0
300
3/16" = 1'-0"
140
0.1875
141
12.0
290
     0
  0
SCALE
  5
54
102
{ACAD_REACTORS
330
3B
102
}
330
3B
100
AcDbScale
 70
     0
300
1/4" = 1'-0"
140
0.25
141
12.0
290
     0
  0
SCALE
  5
55
102
{ACAD_REACTORS
330
3B
102
}
330
3B
100
AcDbScale
 70
     0
300
3/8" = 1'-0"
140
0.375
141
12.0
290
     0
  0
SCALE
  5
56
102
{ACAD_REACTORS
330
3B
102
}
330
3B
100
AcDbScale
 70
     0
300
1/2" = 1'-0"
140
0.5
141
12.0
290
     0
  0
SCALE
  5
57
102
{ACAD_REACTORS
330
3B
102
}
330
3B
100
AcDbScale
 70
     0
300
3/4" = 1'-0"
140
0.75
141
12.0
290
     0
  0
SCALE
  5
58
102
{ACAD_REACTORS
330
3B
102
}
330
3B
100
AcDbScale
 70
     0
300
1" = 1'-0"
140
1.0
141
12.0
290
     0
  0
SCALE
  5
59
102
{ACAD_REACTORS
330
3B
102
}
330
3B
100
AcDbScale
 70
     0
300
1-1/2" = 1'-0"
140
1.5
141
12.0
290
     0
  0
SCALE
  5
5A
102
{ACAD_REACTORS
330
3B
102
}
330
3B
100
AcDbScale
 70
     0
300
3" = 1'-0"
140
3.0
141
12.0
290
     0
  0
SCALE
  5
5B
102
{ACAD_REACTORS
330
3B
102
}
330
3B
100
AcDbScale
 70
     0
300
6" = 1'-0"
140
6.0
141
12.0
290
     0
  0
SCALE
  5
5C
102
{ACAD_REACTORS
330
3B
102
}
330
3B
100
AcDbScale
 70
     0
300
1'-0" = 1'-0"
140
12.0
141
12.0
290
     0
  0
VISUALSTYLE
  5
2F
102
{ACAD_REACTORS
330
2A
102
}
330
2A
100
AcDbVisualStyle
  2
2dWireframe
 70
     4
 71
     0
 72
     2
 73
     0
 90
        0
 40
-0.6
 41
-30.0
 62
     5
 63
     7
 74
     1
 91
        4
 64
     7
 65
   257
 75
     1
175
     1
 42
1.0
 92
        0
 66
   257
 43
1.0
 76
     1
 77
     6
 78
     2
 67
     7
 79
     5
170
     0
171
     0
290
     0
174
     0
 93
        1
 44
0.0
173
     0
291
     0
 45
0.0
1001
ACAD
1000
AcDbSavedByObjectVersion
1070
     0
  0
VISUALSTYLE
  5
31
102
{ACAD_REACTORS
330
2A
102
}
330
2A
100
AcDbVisualStyle
  2
3D Hidden
 70
     6
 71
     1
 72
     2
 73
     2
 90
        0
 40
-0.6
 41
-30.0
 62
     5
 63
     7
 74
     2
 91
        2
 64
     7
 65
   257
 75
     2
175
     1
 42
40.0
 92
        0
 66
   257
 43
1.0
 76
     1
 77
     6
 78
     2
 67
     7
 79
     3
170
     0
171
     0
290
     0
174
     0
 93
        1
 44
0.0
173
     0
291
     0
 45
0.0
1001
ACAD
1000
AcDbSavedByObjectVersion
1070
     0
  0
VISUALSTYLE
  5
30
102
{ACAD_REACTORS
330
2A
102
}
330
2A
100
AcDbVisualStyle
  2
3dWireframe
 70
     5
 71
     0
 72
     2
 73
     0
 90
        0
 40
-0.6
 41
-30.0
 62
     5
 63
     7
 74
     1
 91
        4
 64
     7
 65
   257
 75
     1
175
     1
 42
1.0
 92
        0
 66
   257
 43
1.0
 76
     1
 77
     6
 78
     2
 67
     7
 79
     5
170
     0
171
     0
290
     0
174
     0
 93
        1
 44
0.0
173
     0
291
     0
 45
0.0
1001
ACAD
1000
AcDbSavedByObjectVersion
1070
     0
  0
VISUALSTYLE
  5
32
102
{ACAD_REACTORS
330
2A
102
}
330
2A
100
AcDbVisualStyle
  2
Basic
 70
     7
 71
     1
 72
     0
 73
     1
 90
        0
 40
-0.6
 41
-30.0
 62
     5
 63
     7
 74
     0
 91
        4
 64
     7
 65
   257
 75
     1
175
     1
 42
1.0
 92
        8
 66
     7
 43
1.0
 76
     1
 77
     6
 78
     2
 67
     7
 79
     5
170
     0
171
     0
290
     0
174
     0
 93
        1
 44
0.0
173
     0
291
     1
 45
0.0
1001
ACAD
1000
AcDbSavedByObjectVersion
1070
     0
  0
VISUALSTYLE
  5
36
102
{ACAD_REACTORS
330
2A
102
}
330
2A
100
AcDbVisualStyle
  2
Brighten
 70
    12
 71
     2
 72
     2
 73
     0
 90
        0
 40
-0.6
 41
-30.0
 62
     5
 63
     7
 74
     1
 91
        4
 64
     7
 65
   257
 75
     1
175
     1
 42
1.0
 92
        8
 66
     7
 43
1.0
 76
     1
 77
     6
 78
     2
 67
     7
 79
     5
170
     0
171
     0
290
     0
174
     0
 93
        1
 44
50.0
173
     0
291
     1
 45
0.0
1001
ACAD
1000
AcDbSavedByObjectVersion
1070
     0
  0
VISUALSTYLE
  5
3A
102
{ACAD_REACTORS
330
2A
102
}
330
2A
100
AcDbVisualStyle
  2
ColorChange
 70
    16
 71
     2
 72
     2
 73
     3
 90
        0
 40
-0.6
 41
-30.0
 62
     5
 63
     8
 74
     1
 91
        4
 64
     7
 65
   257
 75
     1
175
     1
 42
1.0
 92
        8
 66
     8
 43
1.0
 76
     1
 77
     6
 78
     2
 67
     7
 79
     5
170
     0
171
     0
290
     0
174
     0
 93
        1
 44
0.0
173
     0
291
     1
 45
0.0
1001
ACAD
1000
AcDbSavedByObjectVersion
1070
     0
  0
VISUALSTYLE
  5
34
102
{ACAD_REACTORS
330
2A
102
}
330
2A
100
AcDbVisualStyle
  2
Conceptual
 70
     9
 71
     3
 72
     2
 73
     0
 90
        0
 40
-0.6
 41
-30.0
 62
     5
 63
     7
 74
     2
 91
        2
 64
     7
 65
   257
 75
     1
175
     1
 42
40.0
 92
        8
 66
     7
 43
1.0
 76
     1
 77
     6
 78
     2
 67
     7
 79
     3
170
     0
171
     0
290
     0
174
     0
 93
        1
 44
0.0
173
     0
291
     0
 45
0.0
1001
ACAD
1000
AcDbSavedByObjectVersion
1070
     0
  0
VISUALSTYLE
  5
35
102
{ACAD_REACTORS
330
2A
102
}
330
2A
100
AcDbVisualStyle
  2
Dim
 70
    11
 71
     2
 72
     2
 73
     0
 90
        0
 40
-0.6
 41
-30.0
 62
     5
 63
     7
 74
     1
 91
        4
 64
     7
 65
   257
 75
     1
175
     1
 42
1.0
 92
        8
 66
     7
 43
1.0
 76
     1
 77
     6
 78
     2
 67
     7
 79
     5
170
     0
171
     0
290
     0
174
     0
 93
        1
 44
-50.0
173
     0
291
     1
 45
0.0
1001
ACAD
1000
AcDbSavedByObjectVersion
1070
     0
  0
VISUALSTYLE
  5
39
102
{ACAD_REACTORS
330
2A
102
}
330
2A
100
AcDbVisualStyle
  2
Facepattern
 70
    15
 71
     2
 72
     2
 73
     0
 90
        0
 40
-0.6
 41
-30.0
 62
     5
 63
     7
 74
     1
 91
        4
 64
     7
 65
   257
 75
     1
175
     1
 42
1.0
 92
        8
 66
     7
 43
1.0
 76
     1
 77
     6
 78
     2
 67
     7
 79
     5
170
     0
171
     0
290
     0
174
     0
 93
        1
 44
0.0
173
     0
291
     1
 45
0.0
1001
ACAD
1000
AcDbSavedByObjectVersion
1070
     0
  0
VISUALSTYLE
  5
2B
102
{ACAD_REACTORS
330
2A
102
}
330
2A
100
AcDbVisualStyle
  2
Flat
 70
     0
 71
     2
 72
     1
 73
     1
 90
        2
 40
-0.6
 41
30.0
 62
     5
 63
     7
 74
     0
 91
        4
 64
     7
 65
   257
 75
     1
175
     1
 42
1.0
 92
        8
 66
     7
 43
1.0
 76
     1
 77
     6
 78
     2
 67
     7
 79
     5
170
     0
171
     0
290
     0
174
     0
 93
       13
 44
0.0
173
     0
291
     1
 45
0.0
1001
ACAD
1000
AcDbSavedByObjectVersion
1070
     0
  0
VISUALSTYLE
  5
2C
102
{ACAD_REACTORS
330
2A
102
}
330
2A
100
AcDbVisualStyle
  2
FlatWithEdges
 70
     1
 71
     2
 72
     1
 73
     1
 90
        2
 40
-0.6
 41
30.0
 62
     5
 63
     7
 74
     1
 91
        4
 64
     7
 65
   257
 75
     1
175
     1
 42
1.0
 92
        0
 66
   257
 43
1.0
 76
     1
 77
     6
 78
     2
 67
     7
 79
     5
170
     0
171
     0
290
     0
174
     0
 93
       13
 44
0.0
173
     0
291
     1
 45
0.0
1001
ACAD
1000
AcDbSavedByObjectVersion
1070
     0
  0
VISUALSTYLE
  5
2D
102
{ACAD_REACTORS
330
2A
102
}
330
2A
100
AcDbVisualStyle
  2
Gouraud
 70
     2
 71
     2
 72
     2
 73
     1
 90
        2
 40
-0.6
 41
30.0
 62
     5
 63
     7
 74
     0
 91
        4
 64
     7
 65
   257
 75
     1
175
     1
 42
1.0
 92
        0
 66
     7
 43
1.0
 76
     1
 77
     6
 78
     2
 67
     7
 79
     5
170
     0
171
     0
290
     0
174
     0
 93
       13
 44
0.0
173
     0
291
     1
 45
0.0
1001
ACAD
1000
AcDbSavedByObjectVersion
1070
     0
  0
VISUALSTYLE
  5
2E
102
{ACAD_REACTORS
330
2A
102
}
330
2A
100
AcDbVisualStyle
  2
GouraudWithEdges
 70
     3
 71
     2
 72
     2
 73
     1
 90
        2
 40
-0.6
 41
30.0
 62
     5
 63
     7
 74
     1
 91
        4
 64
     7
 65
   257
 75
     1
175
     1
 42
1.0
 92
        0
 66
   257
 43
1.0
 76
     1
 77
     6
 78
     2
 67
     7
 79
     5
170
     0
171
     0
290
     0
174
     0
 93
       13
 44
0.0
173
     0
291
     1
 45
0.0
1001
ACAD
1000
AcDbSavedByObjectVersion
1070
     0
  0
VISUALSTYLE
  5
38
102
{ACAD_REACTORS
330
2A
102
}
330
2A
100
AcDbVisualStyle
  2
Linepattern
 70
    14
 71
     2
 72
     2
 73
     0
 90
        0
 40
-0.6
 41
-30.0
 62
     5
 63
     7
 74
     1
 91
        4
 64
     7
 65
   257
 75
     7
175
     7
 42
1.0
 92
        8
 66
     7
 43
1.0
 76
     1
 77
     6
 78
     2
 67
     7
 79
     5
170
     0
171
     0
290
     0
174
     0
 93
        1
 44
0.0
173
     0
291
     1
 45
0.0
1001
ACAD
1000
AcDbSavedByObjectVersion
1070
     0
  0
VISUALSTYLE
  5
33
102
{ACAD_REACTORS
330
2A
102
}
330
2A
100
AcDbVisualStyle
  2
Realistic
 70
     8
 71
     2
 72
     2
 73
     0
 90
        0
 40
-0.6
 41
-30.0
 62
     5
 63
     7
 74
     1
 91
        0
 64
     7
 65
   257
 75
     1
175
     1
 42
1.0
 92
        8
 66
     8
 43
1.0
 76
     1
 77
     6
 78
     2
 67
     7
 79
     5
170
     0
171
     0
290
     0
174
     0
 93
       13
 44
0.0
173
     0
291
     0
 45
0.0
1001
ACAD
1000
AcDbSavedByObjectVersion
1070
     0
  0
VISUALSTYLE
  5
37
102
{ACAD_REACTORS
330
2A
102
}
330
2A
100
AcDbVisualStyle
  2
Thicken
 70
    13
 71
     2
 72
     2
 73
     0
 90
        0
 40
-0.6
 41
-30.0
 62
     5
 63
     7
 74
     1
 91
        4
 64
     7
 65
   257
 75
     1
175
     1
 42
1.0
 92
       12
 66
     7
 43
1.0
 76
     1
 77
     6
 78
     2
 67
     7
 79
     5
170
     0
171
     0
290
     0
174
     0
 93
        1
 44
0.0
173
     0
291
     1
 45
0.0
1001
ACAD
1000
AcDbSavedByObjectVersion
1070
     0
  0
DICTIONARYVAR
  5
229
102
{ACAD_REACTORS
330
228
102
}
330
228
100
DictionaryVariables
280
     0
  1
1:1
  0
DICTIONARYVAR
  5
22D
102
{ACAD_REACTORS
330
228
102
}
330
228
100
DictionaryVariables
280
     0
  1
80.000000
  0
DICTIONARYVAR
  5
22C
102
{ACAD_REACTORS
330
228
102
}
330
228
100
DictionaryVariables
280
     0
  1
5.000000
  0
ENDSEC
  0
EOF
