  0
SECTION
  2
HEADER
  9
$ACADVER
  1
AC1015
  9
$ACADMAINTVER
 70
     6
  9
$DWGCODEPAGE
  3
ANSI_1252
  9
$INSBASE
 10
0.0
 20
0.0
 30
0.0
  9
$EXTMIN
 10
0.0
 20
0.0
 30
0.0
  9
$EXTMAX
 10
3000.0
 20
4500.0
 30
0.0
  9
$LIMMIN
 10
0.0
 20
0.0
  9
$LIMMAX
 10
3000.0
 20
4500.0
  9
$ORTHOMODE
 70
     0
  9
$REGENMODE
 70
     1
  9
$FILLMODE
 70
     1
  9
$QTEXTMODE
 70
     0
  9
$MIRRTEXT
 70
     1
  9
$LTSCALE
 40
1.0
  9
$ATTMODE
 70
     1
  9
$TEXTSIZE
 40
2.5
  9
$TRACEWID
 40
1.0
  9
$TEXTSTYLE
  7
Standard
  9
$CLAYER
  8
0
  9
$CELTYPE
  6
ByLayer
  9
$CECOLOR
 62
   256
  9
$CELTSCALE
 40
1.0
  9
$DISPSILH
 70
     0
  9
$DIMSCALE
 40
1.0
  9
$DIMASZ
 40
2.5
  9
$DIMEXO
 40
0.625
  9
$DIMDLI
 40
3.75
  9
$DIMRND
 40
0.0
  9
$DIMDLE
 40
0.0
  9
$DIMEXE
 40
1.25
  9
$DIMTP
 40
0.0
  9
$DIMTM
 40
0.0
  9
$DIMTXT
 40
2.5
  9
$DIMCEN
 40
2.5
  9
$DIMTSZ
 40
0.0
  9
$DIMTOL
 70
     0
  9
$DIMLIM
 70
     0
  9
$DIMTIH
 70
     0
  9
$DIMTOH
 70
     0
  9
$DIMSE1
 70
     0
  9
$DIMSE2
 70
     0
  9
$DIMTAD
 70
     1
  9
$DIMZIN
 70
     8
  9
$DIMBLK
  1

  9
$DIMASO
 70
     1
  9
$DIMSHO
 70
     1
  9
$DIMPOST
  1

  9
$DIMAPOST
  1

  9
$DIMALT
 70
     0
  9
$DIMALTD
 70
     3
  9
$DIMALTF
 40
0.0393700787
  9
$DIMLFAC
 40
1.0
  9
$DIMTOFL
 70
     1
  9
$DIMTVP
 40
0.0
  9
$DIMTIX
 70
     0
  9
$DIMSOXD
 70
     0
  9
$DIMSAH
 70
     0
  9
$DIMBLK1
  1

  9
$DIMBLK2
  1

  9
$DIMSTYLE
  2
ISO-25
  9
$DIMCLRD
 70
     0
  9
$DIMCLRE
 70
     0
  9
$DIMCLRT
 70
     0
  9
$DIMTFAC
 40
1.0
  9
$DIMGAP
 40
0.625
  9
$DIMJUST
 70
     0
  9
$DIMSD1
 70
     0
  9
$DIMSD2
 70
     0
  9
$DIMTOLJ
 70
     0
  9
$DIMTZIN
 70
     8
  9
$DIMALTZ
 70
     0
  9
$DIMALTTZ
 70
     0
  9
$DIMUPT
 70
     0
  9
$DIMDEC
 70
     2
  9
$DIMTDEC
 70
     2
  9
$DIMALTU
 70
     2
  9
$DIMALTTD
 70
     3
  9
$DIMTXSTY
  7
Standard
  9
$DIMAUNIT
 70
     0
  9
$DIMADEC
 70
     0
  9
$DIMALTRND
 40
0.0
  9
$DIMAZIN
 70
     0
  9
$DIMDSEP
 70
    44
  9
$DIMATFIT
 70
     3
  9
$DIMFRAC
 70
     0
  9
$DIMLDRBLK
  1

  9
$DIMLUNIT
 70
     2
  9
$DIMLWD
 70
    -2
  9
$DIMLWE
 70
    -2
  9
$DIMTMOVE
 70
     0
  9
$LUNITS
 70
     2
  9
$LUPREC
 70
     4
  9
$SKETCHINC
 40
1.0
  9
$FILLETRAD
 40
10.0
  9
$AUNITS
 70
     0
  9
$AUPREC
 70
     0
  9
$MENU
  1
.
  9
$ELEVATION
 40
0.0
  9
$PELEVATION
 40
0.0
  9
$THICKNESS
 40
0.0
  9
$LIMCHECK
 70
     0
  9
$CHAMFERA
 40
10.0
  9
$CHAMFERB
 40
10.0
  9
$CHAMFERC
 40
20.0
  9
$CHAMFERD
 40
0.0
  9
$SKPOLY
 70
     0
  9
$TDCREATE
 40
2456338.556745382
  9
$TDUCREATE
 40
2456338.515078715
  9
$TDUPDATE
 40
2456338.556745394
  9
$TDUUPDATE
 40
2456338.515078727
  9
$TDINDWG
 40
0.0000000116
  9
$TDUSRTIMER
 40
0.0000000116
  9
$USRTIMER
 70
     1
  9
$ANGBASE
 50
0.0
  9
$ANGDIR
 70
     0
  9
$PDMODE
 70
     0
  9
$PDSIZE
 40
0.0
  9
$PLINEWID
 40
0.0
  9
$SPLFRAME
 70
     0
  9
$SPLINETYPE
 70
     6
  9
$SPLINESEGS
 70
     8
  9
$HANDSEED
  5
232
  9
$SURFTAB1
 70
     6
  9
$SURFTAB2
 70
     6
  9
$SURFTYPE
 70
     6
  9
$SURFU
 70
     6
  9
$SURFV
 70
     6
  9
$UCSBASE
  2

  9
$UCSNAME
  2

  9
$UCSORG
 10
0.0
 20
0.0
 30
0.0
  9
$UCSXDIR
 10
1.0
 20
0.0
 30
0.0
  9
$UCSYDIR
 10
0.0
 20
1.0
 30
0.0
  9
$UCSORTHOREF
  2

  9
$UCSORTHOVIEW
 70
     0
  9
$UCSORGTOP
 10
0.0
 20
0.0
 30
0.0
  9
$UCSORGBOTTOM
 10
0.0
 20
0.0
 30
0.0
  9
$UCSORGLEFT
 10
0.0
 20
0.0
 30
0.0
  9
$UCSORGRIGHT
 10
0.0
 20
0.0
 30
0.0
  9
$UCSORGFRONT
 10
0.0
 20
0.0
 30
0.0
  9
$UCSORGBACK
 10
0.0
 20
0.0
 30
0.0
  9
$PUCSBASE
  2

  9
$PUCSNAME
  2

  9
$PUCSORG
 10
0.0
 20
0.0
 30
0.0
  9
$PUCSXDIR
 10
1.0
 20
0.0
 30
0.0
  9
$PUCSYDIR
 10
0.0
 20
1.0
 30
0.0
  9
$PUCSORTHOREF
  2

  9
$PUCSORTHOVIEW
 70
     0
  9
$PUCSORGTOP
 10
0.0
 20
0.0
 30
0.0
  9
$PUCSORGBOTTOM
 10
0.0
 20
0.0
 30
0.0
  9
$PUCSORGLEFT
 10
0.0
 20
0.0
 30
0.0
  9
$PUCSORGRIGHT
 10
0.0
 20
0.0
 30
0.0
  9
$PUCSORGFRONT
 10
0.0
 20
0.0
 30
0.0
  9
$PUCSORGBACK
 10
0.0
 20
0.0
 30
0.0
  9
$USERI1
 70
     0
  9
$USERI2
 70
     0
  9
$USERI3
 70
     0
  9
$USERI4
 70
     0
  9
$USERI5
 70
     0
  9
$USERR1
 40
0.0
  9
$USERR2
 40
0.0
  9
$USERR3
 40
0.0
  9
$USERR4
 40
0.0
  9
$USERR5
 40
0.0
  9
$WORLDVIEW
 70
     1
  9
$SHADEDGE
 70
     3
  9
$SHADEDIF
 70
    70
  9
$TILEMODE
 70
     1
  9
$MAXACTVP
 70
    64
  9
$PINSBASE
 10
0.0
 20
0.0
 30
0.0
  9
$PLIMCHECK
 70
     0
  9
$PEXTMIN
 10
0.0
 20
0.0
 30
0.0
  9
$PEXTMAX
 10
3000.0
 20
4500.0
 30
0.0
  9
$PLIMMIN
 10
0.0
 20
0.0
  9
$PLIMMAX
 10
3000.0
 20
4500.0
  9
$UNITMODE
 70
     0
  9
$VISRETAIN
 70
     1
  9
$PLINEGEN
 70
     0
  9
$PSLTSCALE
 70
     1
  9
$TREEDEPTH
 70
  3020
  9
$CMLSTYLE
  2
Standard
  9
$CMLJUST
 70
     0
  9
$CMLSCALE
 40
20.0
  9
$PROXYGRAPHICS
 70
     1
  9
$MEASUREMENT
 70
     1
  9
$CELWEIGHT
370
    -1
  9
$ENDCAPS
280
     0
  9
$JOINSTYLE
280
     0
  9
$LWDISPLAY
290
     0
  9
$INSUNITS
 70
     4
  9
$HYPERLINKBASE
  1

  9
$STYLESHEET
  1

  9
$XEDIT
290
     1
  9
$CEPSNTYPE
380
     0
  9
$PSTYLEMODE
290
     1
  9
$FINGERPRINTGUID
  2
{5D7FDDDF-6CA1-445D-A642-D1BAFE971DB3}
  9
$VERSIONGUID
  2
{FAEB1C32-E019-11D5-929B-00C0DF256EC4}
  9
$EXTNAMES
290
     1
  9
$PSVPSCALE
 40
0.0
  9
$OLESTARTUP
290
     0
  0
ENDSEC
  0
SECTION
  2
CLASSES
  0
CLASS
  1
ACDBDICTIONARYWDFLT
  2
AcDbDictionaryWithDefault
  3
ObjectDBX Classes
 90
        0
280
     0
281
     0
  0
CLASS
  1
VISUALSTYLE
  2
AcDbVisualStyle
  3
ObjectDBX Classes
 90
     4095
280
     0
281
     0
  0
CLASS
  1
SCALE
  2
AcDbScale
  3
ObjectDBX Classes
 90
     1153
280
     0
281
     0
  0
CLASS
  1
DICTIONARYVAR
  2
AcDbDictionaryVar
  3
ObjectDBX Classes
 90
        0
280
     0
281
     0
  0
CLASS
  1
ACDBPLACEHOLDER
  2
AcDbPlaceHolder
  3
ObjectDBX Classes
 90
        0
280
     0
281
     0
  0
CLASS
  1
LAYOUT
  2
AcDbLayout
  3
ObjectDBX Classes
 90
        0
280
     0
281
     0
  0
ENDSEC
  0
SECTION
  2
TABLES
  0
TABLE
  2
VPORT
  5
8
330
0
100
AcDbSymbolTable
 70
     1
  0
VPORT
  5
29
330
8
100
AcDbSymbolTableRecord
100
AcDbViewportTableRecord
  2
*Active
 70
     0
 10
0.0
 20
0.0
 11
1.0
 21
1.0
 12
344.1869158879
 22
148.5
 13
0.0
 23
0.0
 14
10.0
 24
10.0
 15
10.0
 25
10.0
 16
0.0
 26
0.0
 36
1.0
 17
0.0
 27
0.0
 37
0.0
 40
297.0
 41
1.9729729729
 42
50.0
 43
0.0
 44
0.0
 50
0.0
 51
0.0
 71
     0
 72
   100
 73
     1
 74
     3
 75
     0
 76
     0
 77
     0
 78
     0
281
     0
 65
     1
110
0.0
120
0.0
130
0.0
111
1.0
121
0.0
131
0.0
112
0.0
122
1.0
132
0.0
 79
     0
146
0.0
  0
ENDTAB
  0
TABLE
  2
LTYPE
  5
5
330
0
100
AcDbSymbolTable
 70
     2
  0
LTYPE
  5
14
330
5
100
AcDbSymbolTableRecord
100
AcDbLinetypeTableRecord
  2
ByBlock
 70
     0
  3

 72
    65
 73
     0
 40
0.0
  0
LTYPE
  5
15
330
5
100
AcDbSymbolTableRecord
100
AcDbLinetypeTableRecord
  2
ByLayer
 70
     0
  3

 72
    65
 73
     0
 40
0.0
  0
LTYPE
  5
16
330
5
100
AcDbSymbolTableRecord
100
AcDbLinetypeTableRecord
  2
Continuous
 70
     0
  3
Solid line
 72
    65
 73
     0
 40
0.0
  0
LTYPE
  5
60
330
5
100
AcDbSymbolTableRecord
100
AcDbLinetypeTableRecord
  2
CENTER2
 70
     0
  3
Center (.5x) ___ _ ___ _ ___ _ ___ _ ___ _ ___
 72
    65
 73
     4
 40
28.575
 49
19.05
 74
     4
 75
     0
340
0
 46
0.0
 50
0.0
 44
0.0
 45
0.0
 49
-3.175
 74
     4
 75
     0
340
0
 46
0.0
 50
0.0
 44
0.0
 45
0.0
 49
3.175
 74
     4
 75
     0
340
0
 46
0.0
 50
0.0
 44
0.0
 45
0.0
 49
-3.175
 74
     4
 75
     0
340
0
 46
0.0
 50
0.0
 44
0.0
 45
0.0
  0
ENDTAB
  0
TABLE
  2
LAYER
  5
2
330
0
100
AcDbSymbolTable
 70
     9
  0
LAYER
  5
10
330
2
100
AcDbSymbolTableRecord
100
AcDbLayerTableRecord
  2
0
 70
     0
 62
     7
  6
Continuous
370
    -3
390
F
  0
LAYER
  5
5D
330
2
100
AcDbSymbolTableRecord
100
AcDbLayerTableRecord
  2
Default
 70
     0
 62
     7
  6
Continuous
370
    -3
390
F
  0
LAYER
  5
6B
330
2
100
AcDbSymbolTableRecord
100
AcDbLayerTableRecord
  2
$DDT_AUDIT_GENERATED_(6B)
 70
     0
 62
     7
  6
Continuous
370
    -3
390
F
  0
LAYER
  5
7C
330
2
100
AcDbSymbolTableRecord
100
AcDbLayerTableRecord
  2
$DDT_AUDIT_GENERATED_(7C)
 70
     0
 62
     7
  6
Continuous
370
    -3
390
F
  0
LAYER
  5
8D
330
2
100
AcDbSymbolTableRecord
100
AcDbLayerTableRecord
  2
$DDT_AUDIT_GENERATED_(8D)
 70
     0
 62
     7
  6
Continuous
370
    -3
390
F
  0
LAYER
  5
91
330
2
100
AcDbSymbolTableRecord
100
AcDbLayerTableRecord
  2
$DDT_AUDIT_GENERATED_(91)
 70
     0
 62
     7
  6
Continuous
370
    -3
390
F
  0
LAYER
  5
A7
330
2
100
AcDbSymbolTableRecord
100
AcDbLayerTableRecord
  2
$DDT_AUDIT_GENERATED_(A7)
 70
     0
 62
     7
  6
Continuous
370
    -3
390
F
  0
LAYER
  5
A9
330
2
100
AcDbSymbolTableRecord
100
AcDbLayerTableRecord
  2
DV1_Default
 70
     0
 62
     7
  6
Continuous
370
    -3
390
F
  0
LAYER
  5
1F9
330
2
100
AcDbSymbolTableRecord
100
AcDbLayerTableRecord
  2
DV2_Default
 70
     0
 62
     7
  6
Continuous
370
    -3
390
F
  0
ENDTAB
  0
TABLE
  2
STYLE
  5
3
330
0
100
AcDbSymbolTable
 70
     2
  0
STYLE
  5
11
330
3
100
AcDbSymbolTableRecord
100
AcDbTextStyleTableRecord
  2
Standard
 70
     0
 40
0.0
 41
1.0
 50
0.0
 71
     0
 42
2.5
  3
txt
  4

  0
STYLE
  5
221
330
3
100
AcDbSymbolTableRecord
100
AcDbTextStyleTableRecord
  2
SEACAD_seiso_ttf
 70
     0
 40
0.0
 41
1.0
 50
0.0
 71
     0
 42
0.2
  3
seiso.ttf
  4

  0
ENDTAB
  0
TABLE
  2
VIEW
  5
6
330
0
100
AcDbSymbolTable
 70
     0
  0
ENDTAB
  0
TABLE
  2
UCS
  5
7
330
0
100
AcDbSymbolTable
 70
     0
  0
ENDTAB
  0
TABLE
  2
APPID
  5
9
330
0
100
AcDbSymbolTable
 70
     1
  0
APPID
  5
12
330
9
100
AcDbSymbolTableRecord
100
AcDbRegAppTableRecord
  2
ACAD
 70
     0
  0
ENDTAB
  0
TABLE
  2
DIMSTYLE
  5
A
330
0
100
AcDbSymbolTable
 70
     1
100
AcDbDimStyleTable
  0
DIMSTYLE
105
27
330
A
100
AcDbSymbolTableRecord
100
AcDbDimStyleTableRecord
  2
ISO-25
 70
     0
 41
2.5
 42
0.625
 43
3.75
 44
1.25
 73
     0
 74
     0
 77
     1
 78
     8
140
2.5
141
2.5
143
0.0393700787
147
0.625
171
     3
172
     1
271
     2
272
     2
274
     3
278
    44
283
     0
284
     8
340
11
  0
ENDTAB
  0
TABLE
  2
BLOCK_RECORD
  5
1
330
0
100
AcDbSymbolTable
 70
     5
  0
BLOCK_RECORD
  5
1F
330
1
100
AcDbSymbolTableRecord
100
AcDbBlockTableRecord
  2
*Model_Space
340
22
  0
BLOCK_RECORD
  5
1B
330
1
100
AcDbSymbolTableRecord
100
AcDbBlockTableRecord
  2
*Paper_Space
340
1E
  0
BLOCK_RECORD
  5
5E
330
1
100
AcDbSymbolTableRecord
100
AcDbBlockTableRecord
  2
SEANNOT_GROUP
340
0
102
{BLKREFS
331
5F
102
}
  0
BLOCK_RECORD
  5
69
330
1
100
AcDbSymbolTableRecord
100
AcDbBlockTableRecord
  2
SE
340
0
102
{BLKREFS
331
6A
102
}
  0
BLOCK_RECORD
  5
AF
330
1
100
AcDbSymbolTableRecord
100
AcDbBlockTableRecord
  2
SE1
340
0
102
{BLKREFS
331
B0
102
}
  0
BLOCK_RECORD
  5
1FF
330
1
100
AcDbSymbolTableRecord
100
AcDbBlockTableRecord
  2
SE2
340
0
102
{BLKREFS
331
200
102
}
  0
ENDTAB
  0
ENDSEC
  0
SECTION
  2
BLOCKS
  0
BLOCK
  5
20
330
1F
100
AcDbEntity
  8
0
100
AcDbBlockBegin
  2
*Model_Space
 70
     0
 10
0.0
 20
0.0
 30
0.0
  3
*Model_Space
  1

  0
ENDBLK
  5
21
330
1F
100
AcDbEntity
  8
0
100
AcDbBlockEnd
  0
BLOCK
  5
1C
330
1B
100
AcDbEntity
 67
     1
  8
0
100
AcDbBlockBegin
  2
*Paper_Space
 70
     0
 10
0.0
 20
0.0
 30
0.0
  3
*Paper_Space
  1

  0
ENDBLK
  5
1D
330
1B
100
AcDbEntity
 67
     1
  8
0
100
AcDbBlockEnd
  0
BLOCK
  5
67
330
5E
100
AcDbEntity
  8
0
100
AcDbBlockBegin
  2
SEANNOT_GROUP
 70
     0
 10
0.0
 20
0.0
 30
0.0
  3
SEANNOT_GROUP
  1

  0
LINE
  5
61
330
5E
100
AcDbEntity
  8
Default
  6
CENTER2
 62
     7
100
AcDbLine
 10
122.768226166
 20
185.8246927571
 30
0.0
 11
82.7682270601
 21
185.8246927571
 31
0.0
  0
LINE
  5
62
330
5E
100
AcDbEntity
  8
Default
  6
CENTER2
 62
     7
100
AcDbLine
 10
102.7682266131
 20
205.82469231
 30
0.0
 11
102.7682266131
 21
165.8246932041
 31
0.0
  0
LINE
  5
63
330
5E
100
AcDbEntity
  8
Default
  6
CENTER2
 62
     7
100
AcDbLine
 10
127.7682260543
 20
185.8246927571
 30
0.0
 11
131.4451263297
 21
185.8246927571
 31
0.0
  0
LINE
  5
64
330
5E
100
AcDbEntity
  8
Default
  6
CENTER2
 62
     7
100
AcDbLine
 10
102.7682266131
 20
210.8246921983
 30
0.0
 11
102.7682266131
 21
214.5015924737
 31
0.0
  0
LINE
  5
65
330
5E
100
AcDbEntity
  8
Default
  6
CENTER2
 62
     7
100
AcDbLine
 10
77.7682271719
 20
185.8246927571
 30
0.0
 11
74.0913268964
 21
185.8246927571
 31
0.0
  0
LINE
  5
66
330
5E
100
AcDbEntity
  8
Default
  6
CENTER2
 62
     7
100
AcDbLine
 10
102.7682266131
 20
160.8246933158
 30
0.0
 11
102.7682266131
 21
157.1477930404
 31
0.0
  0
ENDBLK
  5
68
330
5E
100
AcDbEntity
  8
0
100
AcDbBlockEnd
  0
BLOCK
  5
AD
330
69
100
AcDbEntity
  8
0
100
AcDbBlockBegin
  2
SE
 70
     0
 10
0.0
 20
0.0
 30
0.0
  3
SE
  1

  0
SPLINE
  5
6C
330
69
100
AcDbEntity
  8
$DDT_AUDIT_GENERATED_(6B)
  6
Continuous
 62
     7
100
AcDbSpline
210
0.0
220
0.0
230
1.0
 70
     8
 71
     3
 72
    20
 73
    16
 74
     0
 42
0.0000000000980198
 43
0.0000000001
 40
0.0
 40
0.0
 40
0.0
 40
0.0
 40
0.01559801237061
 40
0.023410481831765
 40
0.0312545941347371
 40
0.0625483465755066
 40
0.0781149234827916
 40
0.0937158124907949
 40
0.1250274952336117
 40
0.1405926928669554
 40
0.1561879212135154
 40
0.187466290745175
 40
0.2186807545709397
 40
0.2498659754134041
 40
0.2520685314004254
 40
0.2520685314004254
 40
0.2520685314004254
 40
0.2520685314004254
 10
209.8239292556056
 20
258.6032698395433
 30
0.0
 10
210.6467364576457
 20
258.6032701019473
 30
0.0
 10
211.8813812034856
 20
258.6032761868155
 30
0.0
 10
213.519926803546
 20
258.6032760021727
 30
0.0
 10
215.9650010942848
 20
258.6032639295035
 30
0.0
 10
218.7619747746764
 20
258.6032438393536
 30
0.0
 10
221.7708993576791
 20
258.6033142829178
 30
0.0
 10
224.6371109439472
 20
258.6032483625811
 30
0.0
 10
227.2548714625906
 20
258.6032306368238
 30
0.0
 10
229.5277291051127
 20
258.6033435370837
 30
0.0
 10
231.5545594159631
 20
258.6032246346157
 30
0.0
 10
233.5982341156351
 20
258.6032868658626
 30
0.0
 10
235.1326279675424
 20
258.6032579853325
 30
0.0
 10
235.5277066355231
 20
258.603281887444
 30
0.0
 10
235.539978617195
 20
258.6032667283469
 30
0.0
 10
235.5399553923789
 20
258.6032656470368
 30
0.0
  0
SPLINE
  5
6D
330
69
100
AcDbEntity
  8
$DDT_AUDIT_GENERATED_(6B)
  6
Continuous
 62
     7
100
AcDbSpline
210
0.0
220
0.0
230
1.0
 70
     8
 71
     3
 72
    18
 73
    14
 74
     0
 42
0.0000000000989438
 43
0.0000000001
 40
0.7520778733229504
 40
0.7520778733229504
 40
0.7520778733229504
 40
0.7520778733229504
 40
0.7758198629985986
 40
0.7944898960103902
 40
0.8132424899497954
 40
0.8442635428169606
 40
0.8754302903808864
 40
0.906446252248098
 40
0.9220415595659446
 40
0.9376101569488039
 40
0.9531459858787911
 40
0.9687499527635197
 40
1.0
 40
1.0
 40
1.0
 40
1.0
 10
184.7670764895998
 20
258.6032676163172
 30
0.0
 10
184.7671258891057
 20
258.6032567606497
 30
0.0
 10
184.9401488373702
 20
258.6032406309174
 30
0.0
 10
185.6215496352128
 20
258.6032786275214
 30
0.0
 10
186.7983847424694
 20
258.6032651985319
 30
0.0
 10
188.8288558390012
 20
258.6032743231756
 30
0.0
 10
191.9663397308403
 20
258.6032587396778
 30
0.0
 10
195.1611460999106
 20
258.6033027291817
 30
0.0
 10
197.9726227141255
 20
258.6032134757328
 30
0.0
 10
200.1972595135215
 20
258.6032932116264
 30
0.0
 10
202.515087056902
 20
258.6032342894683
 30
0.0
 10
205.7027719668312
 20
258.6032913452657
 30
0.0
 10
208.175465123168
 20
258.6032693138264
 30
0.0
 10
209.8239292556056
 20
258.6032698395433
 30
0.0
  0
SPLINE
  5
6E
330
69
100
AcDbEntity
  8
$DDT_AUDIT_GENERATED_(6B)
  6
Continuous
 62
     7
100
AcDbSpline
210
0.0
220
0.0
230
1.0
 70
     8
 71
     3
 72
    10
 73
     6
 74
     0
 42
0.0000000463763479
 43
0.0000000001
 40
0.4957576604216328
 40
0.4957576604216328
 40
0.4957576604216328
 40
0.4957576604216328
 40
0.4999999999999999
 40
0.4999999999999999
 40
0.5003952952164122
 40
0.5003952952164122
 40
0.5003952952164122
 40
0.5003952952164122
 10
322.9106946527565
 20
320.5230750622636
 30
0.0
 10
322.9110039962317
 20
320.5230935666481
 30
0.0
 10
322.9111713446297
 20
320.5231039440177
 30
0.0
 10
322.9111988927501
 20
320.5231063927267
 30
0.0
 10
322.9111999314954
 20
320.523106526282
 30
0.0
 10
322.9111996613636
 20
320.5231065847038
 30
0.0
  0
SPLINE
  5
6F
330
69
100
AcDbEntity
  8
$DDT_AUDIT_GENERATED_(6B)
  6
Continuous
 62
     7
100
AcDbSpline
210
0.0
220
0.0
230
1.0
 70
     8
 71
     3
 72
    10
 73
     6
 74
     0
 42
0.0000000491969196
 43
0.0000000001
 40
0.4992339413879535
 40
0.4992339413879535
 40
0.4992339413879535
 40
0.4992339413879535
 40
0.5000000000000002
 40
0.5000000000000002
 40
0.5041536333492256
 40
0.5041536333492256
 40
0.5041536333492256
 40
0.5041536333492256
 10
323.3984500060952
 20
317.8853837372599
 30
0.0
 10
323.3984554923344
 20
317.8853837962321
 30
0.0
 10
323.3984560169661
 20
317.8853836683139
 30
0.0
 10
323.3984275001691
 20
317.8853816459535
 30
0.0
 10
323.3982657726341
 20
317.8853747321087
 30
0.0
 10
323.3979665323346
 20
317.8853626137476
 30
0.0
  0
ARC
  5
70
330
69
100
AcDbEntity
  8
$DDT_AUDIT_GENERATED_(6B)
  6
Continuous
 62
     7
100
AcDbCircle
 10
336.6529445193
 20
262.0566106777
 30
0.0
 40
55.82592336882598
100
AcDbArc
 50
107.5087177832
 51
132.866838019
  0
ARC
  5
71
330
69
100
AcDbEntity
  8
$DDT_AUDIT_GENERATED_(6B)
  6
Continuous
 62
     7
100
AcDbCircle
 10
287.9476420485
 20
218.0231004508
 30
0.0
 40
83.75779891444704
100
AcDbArc
 50
85.2358750456
 51
118.3512383467
  0
LINE
  5
72
330
69
100
AcDbEntity
  8
$DDT_AUDIT_GENERATED_(6B)
  6
Continuous
 62
     7
100
AcDbLine
 10
319.8244447159
 20
315.3444191885
 30
0.0
 11
323.3867785986
 21
317.8877264048
 31
0.0
  0
LINE
  5
73
330
69
100
AcDbEntity
  8
$DDT_AUDIT_GENERATED_(6B)
  6
Continuous
 62
     7
100
AcDbLine
 10
295.8644539376
 20
301.7046026981
 30
0.0
 11
298.6731156847
 21
303.0371144554
 31
0.0
  0
ARC
  5
74
330
69
100
AcDbEntity
  8
$DDT_AUDIT_GENERATED_(6B)
  6
Continuous
 62
     7
100
AcDbCircle
 10
188.9894316041
 20
-143.9395424018
 30
0.0
 40
483.374739864764
100
AcDbArc
 50
73.9167130427
 51
82.1193584761
  0
ARC
  5
75
330
69
100
AcDbEntity
  8
$DDT_AUDIT_GENERATED_(6B)
  6
Continuous
 62
     7
100
AcDbCircle
 10
322.4875448276
 20
319.0857222832
 30
0.0
 40
1.489681969170109
100
AcDbArc
 50
306.7266870527
 51
74.0708682724
  0
ARC
  5
76
330
69
100
AcDbEntity
  8
$DDT_AUDIT_GENERATED_(6B)
  6
Continuous
 62
     7
100
AcDbCircle
 10
295.0650418246
 20
303.4137685915
 30
0.0
 40
1.89219171275204
100
AcDbArc
 50
265.2011771363
 51
295.0433761052
  0
ARC
  5
77
330
69
100
AcDbEntity
  8
$DDT_AUDIT_GENERATED_(6B)
  6
Continuous
 62
     7
100
AcDbCircle
 10
256.4391343248
 20
276.3494869636
 30
0.0
 40
17.50000355824903
100
AcDbArc
 50
118.2394787395
 51
169.9999906069
  0
ARC
  5
78
330
69
100
AcDbEntity
  8
$DDT_AUDIT_GENERATED_(6B)
  6
Continuous
 62
     7
100
AcDbCircle
 10
256.1150509312
 20
340.8463163582
 30
0.0
 40
5.966972939807977
100
AcDbArc
 50
169.7935494305
 51
261.9099864627
  0
LINE
  5
79
330
69
100
AcDbEntity
  8
$DDT_AUDIT_GENERATED_(6B)
  6
Continuous
 62
     7
100
AcDbLine
 10
201.1530489205
 20
351.5328009297
 30
0.0
 11
184.7675385497
 21
258.6059538584
 31
0.0
  0
LINE
  5
7A
330
69
100
AcDbEntity
  8
$DDT_AUDIT_GENERATED_(6B)
  6
Continuous
 62
     7
100
AcDbLine
 10
250.2285625071
 20
341.9060829603
 30
0.0
 11
250.3950204332
 21
342.8501127704
 31
0.0
  0
LINE
  5
7B
330
69
100
AcDbEntity
  8
$DDT_AUDIT_GENERATED_(6B)
  6
Continuous
 62
     7
100
AcDbLine
 10
235.5395722922
 20
258.6006798066
 30
0.0
 11
239.2057777448
 21
279.3927641368
 31
0.0
  0
LINE
  5
7D
330
69
100
AcDbEntity
  8
$DDT_AUDIT_GENERATED_(7C)
  6
Continuous
 62
     7
100
AcDbLine
 10
303.1937972893
 20
298.5468092772
 30
0.0
 11
321.4570215499
 21
309.7385274981
 31
0.0
  0
ELLIPSE
  5
7E
330
69
100
AcDbEntity
  8
$DDT_AUDIT_GENERATED_(7C)
  6
Continuous
 62
     7
100
AcDbEllipse
 10
313.6506848134
 20
301.9800155004
 30
0.0
 11
10.17626036156609
 21
6.236020369884876
 31
0.0
210
0.0
220
0.0
230
1.0
 40
0.5773502692
 41
1.166970237634107
 42
1.974622415955684
  0
LINE
  5
7F
330
69
100
AcDbEntity
  8
$DDT_AUDIT_GENERATED_(7C)
  6
Continuous
 62
     7
100
AcDbLine
 10
306.3412597588
 20
304.9323220063
 30
0.0
 11
307.9240319476
 21
302.3494725397
 31
0.0
  0
LINE
  5
80
330
69
100
AcDbEntity
  8
$DDT_AUDIT_GENERATED_(7C)
  6
Continuous
 62
     7
100
AcDbLine
 10
315.9213421773
 20
307.2502305515
 30
0.0
 11
314.3385699885
 21
309.8330800181
 31
0.0
  0
SPLINE
  5
81
330
69
100
AcDbEntity
  8
$DDT_AUDIT_GENERATED_(7C)
  6
Continuous
 62
     7
100
AcDbSpline
210
0.0
220
0.0
230
1.0
 70
     8
 71
     3
 72
    12
 73
     8
 74
     0
 42
0.0000000398432805
 43
0.0000000001
 40
0.0
 40
0.0
 40
0.0
 40
0.0
 40
0.5
 40
0.5
 40
0.75
 40
0.75
 40
1.0
 40
1.0
 40
1.0
 40
1.0
 10
315.8235537680306
 20
307.0379509502594
 30
0.0
 10
315.8532065989305
 20
307.0664307495066
 30
0.0
 10
315.8811536603372
 20
307.0976648904283
 30
0.0
 10
315.9132332978149
 20
307.1504720753334
 30
0.0
 10
315.9224985252982
 20
307.1693764661761
 30
0.0
 10
315.9323176303341
 20
307.2098744142323
 30
0.0
 10
315.9322958515261
 20
307.2323557796851
 30
0.0
 10
315.9213421772961
 20
307.2502305514577
 30
0.0
  0
SPLINE
  5
82
330
69
100
AcDbEntity
  8
$DDT_AUDIT_GENERATED_(7C)
  6
Continuous
 62
     7
100
AcDbSpline
210
0.0
220
0.0
230
1.0
 70
     8
 71
     3
 72
    12
 73
     8
 74
     0
 42
0.0000000398474798
 43
0.0000000001
 40
0.0
 40
0.0
 40
0.0
 40
0.0
 40
0.25
 40
0.25
 40
0.5
 40
0.5
 40
1.0
 40
1.0
 40
1.0
 40
1.0
 10
307.9240319475912
 20
302.3494725396949
 30
0.0
 10
307.9348978070723
 20
302.3317410685685
 30
0.0
 10
307.9548029959797
 20
302.3214838427247
 30
0.0
 10
307.9949872301039
 20
302.3118064786073
 30
0.0
 10
308.016153889694
 20
302.3113986423304
 30
0.0
 10
308.0780776655341
 20
302.3159603498813
 30
0.0
 10
308.1186307933015
 20
302.326703376559
 30
0.0
 10
308.1575694660248
 20
302.3402297281105
 30
0.0
  0
SPLINE
  5
83
330
69
100
AcDbEntity
  8
$DDT_AUDIT_GENERATED_(7C)
  6
Continuous
 62
     7
100
AcDbSpline
210
0.0
220
0.0
230
1.0
 70
     8
 71
     3
 72
    14
 73
    10
 74
     0
 42
0.0000000011024152
 43
0.0000000001
 40
0.0
 40
0.0
 40
0.0
 40
0.0
 40
0.25
 40
0.25
 40
0.5
 40
0.5
 40
0.75
 40
0.75
 40
1.0
 40
1.0
 40
1.0
 40
1.0
 10
308.1575694660248
 20
302.3402297281105
 30
0.0
 10
308.8715819149358
 20
302.5882603548296
 30
0.0
 10
309.5806777671338
 20
302.8705164639387
 30
0.0
 10
310.9500322766318
 20
303.5053089304954
 30
0.0
 10
311.6138849012424
 20
303.8591198101179
 30
0.0
 10
312.8968043911473
 20
304.6450554494146
 30
0.0
 10
313.5158616904093
 20
305.0771969365733
 30
0.0
 10
314.7114246869894
 20
306.015887068467
 30
0.0
 10
315.2806161137623
 20
306.5164912808767
 30
0.0
 10
315.8235537680306
 20
307.0379509502594
 30
0.0
  0
LINE
  5
84
330
69
100
AcDbEntity
  8
$DDT_AUDIT_GENERATED_(7C)
  6
Continuous
 62
     7
100
AcDbLine
 10
314.3385699885
 20
309.8330800181
 30
0.0
 11
306.3412597588
 21
304.9323220063
 31
0.0
  0
LINE
  5
85
330
69
100
AcDbEntity
  8
$DDT_AUDIT_GENERATED_(7C)
  6
Continuous
 62
     7
100
AcDbLine
 10
298.9109270771
 20
303.1909460206
 30
0.0
 11
301.7464267009
 21
298.5638311757
 31
0.0
  0
LINE
  5
86
330
69
100
AcDbEntity
  8
$DDT_AUDIT_GENERATED_(7C)
  6
Continuous
 62
     7
100
AcDbLine
 10
322.098947424
 20
311.0358719155
 30
0.0
 11
319.549254667
 21
315.1965923426
 31
0.0
  0
ARC
  5
87
330
69
100
AcDbEntity
  8
$DDT_AUDIT_GENERATED_(7C)
  6
Continuous
 62
     7
100
AcDbCircle
 10
301.8743227255
 20
298.6422059604
 30
0.0
 40
0.1500000000000028
100
AcDbArc
 50
211.5
 51
271.5
  0
LINE
  5
88
330
69
100
AcDbEntity
  8
$DDT_AUDIT_GENERATED_(7C)
  6
Continuous
 62
     7
100
AcDbLine
 10
301.8782492678
 20
298.4922573617
 30
0.0
 11
303.1193490468
 21
298.5247567031
 31
0.0
  0
LINE
  5
89
330
69
100
AcDbEntity
  8
$DDT_AUDIT_GENERATED_(7C)
  6
Continuous
 62
     7
100
AcDbLine
 10
321.5104693321
 20
309.7948497087
 30
0.0
 11
322.1028739663
 21
310.8859233167
 31
0.0
  0
ARC
  5
8A
330
69
100
AcDbEntity
  8
$DDT_AUDIT_GENERATED_(7C)
  6
Continuous
 62
     7
100
AcDbCircle
 10
303.1154225046
 20
298.6747053019
 30
0.0
 40
0.1499999999999936
100
AcDbArc
 50
271.5
 51
301.5
  0
ARC
  5
8B
330
69
100
AcDbEntity
  8
$DDT_AUDIT_GENERATED_(7C)
  6
Continuous
 62
     7
100
AcDbCircle
 10
321.3786467652
 20
309.8664235227
 30
0.0
 40
0.1499999999999992
100
AcDbArc
 50
301.5
 51
331.5
  0
ARC
  5
8C
330
69
100
AcDbEntity
  8
$DDT_AUDIT_GENERATED_(7C)
  6
Continuous
 62
     7
100
AcDbCircle
 10
321.9710513994
 20
310.9574971308
 30
0.0
 40
0.1499999999999991
100
AcDbArc
 50
331.5
 51
31.5
  0
LINE
  5
8E
330
69
100
AcDbEntity
  8
$DDT_AUDIT_GENERATED_(8D)
  6
Continuous
 62
     7
100
AcDbLine
 10
304.834522438
 20
299.1417572477
 30
0.0
 11
320.1820453964
 21
308.5467314126
 31
0.0
  0
LINE
  5
8F
330
69
100
AcDbEntity
  8
$DDT_AUDIT_GENERATED_(8D)
  6
Continuous
 62
     7
100
AcDbLine
 10
304.6516479404
 20
299.4401813052
 30
0.0
 11
304.834522438
 21
299.1417572477
 31
0.0
  0
LINE
  5
90
330
69
100
AcDbEntity
  8
$DDT_AUDIT_GENERATED_(8D)
  6
Continuous
 62
     7
100
AcDbLine
 10
320.1820453964
 20
308.5467314126
 30
0.0
 11
319.9991708988
 21
308.8451554701
 31
0.0
  0
LINE
  5
92
330
69
100
AcDbEntity
  8
$DDT_AUDIT_GENERATED_(91)
  6
Continuous
 62
     7
100
AcDbLine
 10
258.9532223263
 20
363.9938660489
 30
0.0
 11
257.2277323667
 21
357.6115815028
 31
0.0
  0
ARC
  5
93
330
69
100
AcDbEntity
  8
$DDT_AUDIT_GENERATED_(91)
  6
Continuous
 62
     7
100
AcDbCircle
 10
275.7464726826
 20
254.5914730626
 30
0.0
 40
125.9514370683086
100
AcDbArc
 50
127.0394124961
 51
127.0411004011
  0
ARC
  5
94
330
69
100
AcDbEntity
  8
$DDT_AUDIT_GENERATED_(91)
  6
Continuous
 62
     7
100
AcDbCircle
 10
229.3927169558
 20
351.7908698346
 30
0.0
 40
31.98073440559328
100
AcDbArc
 50
22.4308802124
 51
22.4322743475
  0
LINE
  5
95
330
69
100
AcDbEntity
  8
$DDT_AUDIT_GENERATED_(91)
  6
Continuous
 62
     7
100
AcDbLine
 10
199.7641704837
 20
354.9113903261
 30
0.0
 11
199.6099215432
 21
354.5972678367
 31
0.0
  0
LINE
  5
96
330
69
100
AcDbEntity
  8
$DDT_AUDIT_GENERATED_(91)
  6
Continuous
 62
     7
100
AcDbLine
 10
255.330440957
 20
351.0937778547
 30
0.0
 11
252.6859104887
 21
342.7072652527
 31
0.0
  0
LINE
  5
97
330
69
100
AcDbEntity
  8
$DDT_AUDIT_GENERATED_(91)
  6
Continuous
 62
     7
100
AcDbLine
 10
257.2277323667
 20
357.6115815028
 30
0.0
 11
257.2277041681
 21
357.6110214386
 31
0.0
  0
ARC
  5
98
330
69
100
AcDbEntity
  8
$DDT_AUDIT_GENERATED_(91)
  6
Continuous
 62
     7
100
AcDbCircle
 10
290.0691816248
 20
344.5156135889
 30
0.0
 40
35.35607936818079
100
AcDbArc
 50
160.9783006732
 51
169.2773708704
  0
LINE
  5
99
330
69
100
AcDbEntity
  8
$DDT_AUDIT_GENERATED_(91)
  6
Continuous
 62
     7
100
AcDbLine
 10
225.7889516113
 20
347.1888265926
 30
0.0
 11
199.2471741274
 21
351.8688580772
 31
0.0
  0
LINE
  5
9A
330
69
100
AcDbEntity
  8
$DDT_AUDIT_GENERATED_(91)
  6
Continuous
 62
     7
100
AcDbLine
 10
252.348849772
 20
342.505599942
 30
0.0
 11
225.7889516113
 21
347.1888265926
 31
0.0
  0
LINE
  5
9B
330
69
100
AcDbEntity
  8
$DDT_AUDIT_GENERATED_(91)
  6
Continuous
 62
     7
100
AcDbLine
 10
199.0463209803
 20
352.3864335785
 30
0.0
 11
199.6099174469
 21
354.5972660494
 31
0.0
  0
ARC
  5
9C
330
69
100
AcDbEntity
  8
$DDT_AUDIT_GENERATED_(91)
  6
Continuous
 62
     7
100
AcDbCircle
 10
199.2992685898
 20
352.1643003912
 30
0.0
 40
0.2999999898532363
100
AcDbArc
 50
166.3442532186
 51
259.9999978883
  0
ARC
  5
9D
330
69
100
AcDbEntity
  8
$DDT_AUDIT_GENERATED_(91)
  6
Continuous
 62
     7
100
AcDbCircle
 10
252.4009441379
 20
342.8010421658
 30
0.0
 40
0.2999998841848752
100
AcDbArc
 50
260.0000130664
 51
341.7846247624
  0
LINE
  5
9E
330
69
100
AcDbEntity
  8
$DDT_AUDIT_GENERATED_(91)
  6
Continuous
 62
     7
100
AcDbLine
 10
199.045685221
 20
352.3907677701
 30
0.0
 11
199.007874811
 21
352.23511194
 31
0.0
  0
SPLINE
  5
9F
330
69
100
AcDbEntity
  8
$DDT_AUDIT_GENERATED_(91)
  6
Continuous
 62
     7
100
AcDbSpline
210
0.0
220
0.0
230
1.0
 70
     8
 71
     3
 72
    26
 73
    22
 74
     0
 42
0.0000000000726196
 43
0.0000000001
 40
0.0
 40
0.0
 40
0.0
 40
0.0
 40
0.0721321954533408
 40
0.1500830505577288
 40
0.2273329296068356
 40
0.3036931196407744
 40
0.3628701714734657
 40
0.4211434353010065
 40
0.4783629180786509
 40
0.5344166529924871
 40
0.584318169235839
 40
0.6332233290752939
 40
0.681202196533711
 40
0.7283858378197486
 40
0.7749646430223016
 40
0.813496231095624
 40
0.8519372556654444
 40
0.8904610977999041
 40
0.9292447498628186
 40
0.9684602869294722
 40
1.0
 40
1.0
 40
1.0
 40
1.0
 10
327.4387774858077
 20
370.8238173585964
 30
0.0
 10
323.9813887198102
 20
371.9609067263481
 30
0.0
 10
317.9075575221941
 20
373.9394635682467
 30
0.0
 10
307.6598701173078
 20
376.8132643830886
 30
0.0
 10
297.3802973564885
 20
379.2608124524411
 30
0.0
 10
287.7702634572558
 20
381.0739699792908
 30
0.0
 10
278.963454451138
 20
382.2877188457622
 30
0.0
 10
270.9779477411892
 20
382.9908223621185
 30
0.0
 10
263.1089804589675
 20
383.2445767895444
 30
0.0
 10
255.6220604720566
 20
383.017010455141
 30
0.0
 10
248.5472391275641
 20
382.3249594191327
 30
0.0
 10
241.9029932538656
 20
381.1984942902215
 30
0.0
 10
235.4851236474619
 20
379.5941040910159
 30
0.0
 10
229.3231025076557
 20
377.4954024981753
 30
0.0
 10
223.7673431425528
 20
375.0336005820479
 30
0.0
 10
218.7952948246731
 20
372.3008555627495
 30
0.0
 10
214.3669137731539
 20
369.386613591503
 30
0.0
 10
210.1693370824645
 20
366.1124658130524
 30
0.0
 10
206.252897741012
 20
362.5135370431245
 30
0.0
 10
202.7360923108188
 20
358.7649022101568
 30
0.0
 10
200.8803609903555
 20
356.3837481513889
 30
0.0
 10
199.9081789909762
 20
355.1238195622304
 30
0.0
  0
LINE
  5
A0
330
69
100
AcDbEntity
  8
$DDT_AUDIT_GENERATED_(91)
  6
Continuous
 62
     7
100
AcDbLine
 10
199.0958323589
 20
352.580652971
 30
0.0
 11
199.0645465317
 21
352.4677790668
 31
0.0
  0
SPLINE
  5
A1
330
69
100
AcDbEntity
  8
$DDT_AUDIT_GENERATED_(91)
  6
Continuous
 62
     7
100
AcDbSpline
210
0.0
220
0.0
230
1.0
 70
     8
 71
     3
 72
     8
 73
     4
 74
     0
 42
0.0000000011528783
 43
0.0000000001
 40
0.0
 40
0.0
 40
0.0
 40
0.0
 40
1.0
 40
1.0
 40
1.0
 40
1.0
 10
319.6350148820319
 20
364.73720579914
 30
0.0
 10
322.1260957087532
 20
365.6779389320164
 30
0.0
 10
324.7957695646268
 20
366.7859002802245
 30
0.0
 10
327.6440364496525
 20
368.0610898437644
 30
0.0
  0
SPLINE
  5
A2
330
69
100
AcDbEntity
  8
$DDT_AUDIT_GENERATED_(91)
  6
Continuous
 62
     7
100
AcDbSpline
210
0.0
220
0.0
230
1.0
 70
     8
 71
     3
 72
    17
 73
    13
 74
     0
 42
0.0000000001901456
 43
0.0000000001
 40
0.0
 40
0.0
 40
0.0
 40
0.0
 40
0.053763189604934
 40
0.1374341527616753
 40
0.2234319075927662
 40
0.3123141338047748
 40
0.4046315198051504
 40
0.5206993863753916
 40
0.6433927834596272
 40
0.7735820111764435
 40
0.9121067887509786
 40
1.0
 40
1.0
 40
1.0
 40
1.0
 10
267.1464528947309
 20
371.5041039488882
 30
0.0
 10
268.1669533227783
 20
371.6841998417304
 30
0.0
 10
270.3799144892317
 20
372.0676660326738
 30
0.0
 10
274.3750039446742
 20
372.4262450596387
 30
0.0
 10
278.8763261290008
 20
372.5728500135417
 30
0.0
 10
283.5672542727774
 20
372.4373363180543
 30
0.0
 10
288.757902090733
 20
371.9964405380686
 30
0.0
 10
294.50281566615
 20
371.1766737108128
 30
0.0
 10
300.8557324583327
 20
369.9097343839389
 30
0.0
 10
307.4690115126796
 20
368.2515038759781
 30
0.0
 10
313.6123700301733
 20
366.457919060976
 30
0.0
 10
317.1168682102079
 20
365.2745263346174
 30
0.0
 10
318.7207540769069
 20
364.7290156176186
 30
0.0
  0
ARC
  5
A3
330
69
100
AcDbEntity
  8
$DDT_AUDIT_GENERATED_(91)
  6
Continuous
 62
     7
100
AcDbCircle
 10
268.9055321949
 20
361.4081742064
 30
0.0
 40
10.28108484503892
100
AcDbArc
 50
99.8721689848
 51
165.4285348185
  0
ARC
  5
A4
330
69
100
AcDbEntity
  8
$DDT_AUDIT_GENERATED_(91)
  6
Continuous
 62
     7
100
AcDbCircle
 10
202.1914781981
 20
353.431465562
 30
0.0
 40
2.87370267541774
100
AcDbArc
 50
143.5568706354
 51
148.6855207759
  0
ARC
  5
A5
330
69
100
AcDbEntity
  8
$DDT_AUDIT_GENERATED_(91)
  6
Continuous
 62
     7
100
AcDbCircle
 10
319.2112877268
 20
366.1319024027
 30
0.0
 40
1.452302235763486
100
AcDbArc
 50
250.7587355116
 51
291.8792277168
  0
ARC
  5
A6
330
69
100
AcDbEntity
  8
$DDT_AUDIT_GENERATED_(91)
  6
Continuous
 62
     7
100
AcDbCircle
 10
326.9894172632
 20
369.4087623253
 30
0.0
 40
1.495804867350894
100
AcDbArc
 50
293.5727302242
 51
72.3778983004
  0
LINE
  5
A8
330
69
100
AcDbEntity
  8
$DDT_AUDIT_GENERATED_(A7)
  6
Continuous
 62
     7
100
AcDbLine
 10
256.3037100917
 20
355.1455265364
 30
0.0
 11
257.2825358584
 21
357.6954548375
 31
0.0
  0
LINE
  5
AA
330
69
100
AcDbEntity
  8
DV1_Default
  6
Continuous
 62
     7
100
AcDbLine
 10
184.7670764707
 20
258.6032676246
 30
0.0
 11
235.5399558781
 21
258.6032656922
 31
0.0
  0
LINE
  5
AB
330
69
100
AcDbEntity
  8
DV1_Default
  6
CENTER2
 62
     7
100
AcDbLine
 10
230.1535157274
 20
258.6032666584
 30
0.0
 11
190.1535166215
 21
258.6032666584
 31
0.0
  0
LINE
  5
AC
330
69
100
AcDbEntity
  8
DV1_Default
  6
CENTER2
 62
     7
100
AcDbLine
 10
210.1535161744
 20
278.6032662114
 30
0.0
 11
210.1535161744
 21
248.0212413443
 31
0.0
  0
ENDBLK
  5
AE
330
69
100
AcDbEntity
  8
0
100
AcDbBlockEnd
  0
BLOCK
  5
1FD
330
AF
100
AcDbEntity
  8
0
100
AcDbBlockBegin
  2
SE1
 70
     0
 10
0.0
 20
0.0
 30
0.0
  3
SE1
  1

  0
SPLINE
  5
B1
330
AF
100
AcDbEntity
  8
$DDT_AUDIT_GENERATED_(6B)
  6
Continuous
 62
     7
100
AcDbSpline
210
0.0
220
0.0
230
1.0
 70
     8
 71
     3
 72
    31
 73
    27
 74
     0
 42
0.0000000000999955
 43
0.0000000001
 40
0.0020829392581679
 40
0.0020829392581679
 40
0.0020829392581679
 40
0.0020829392581679
 40
0.01559801237061
 40
0.023410481831765
 40
0.0312545941347371
 40
0.0625483465755066
 40
0.0781149234827916
 40
0.0937158124907949
 40
0.1250274952336117
 40
0.1405926928669554
 40
0.1561879212135154
 40
0.187466290745175
 40
0.2186807545709397
 40
0.2498659754134041
 40
0.2811700770970268
 40
0.2967779911875055
 40
0.3123497742687805
 40
0.3302220528077009
 40
0.3481750278455877
 40
0.37492837798291
 40
0.3905209085735557
 40
0.4061890900936222
 40
0.4374919524476198
 40
0.4686300399968535
 40
0.4999433709065426
 40
0.5020752723903249
 40
0.5020752723903249
 40
0.5020752723903249
 40
0.5020752723903249
 10
77.74797271736195
 20
258.6032701319133
 30
0.0
 10
77.74797546142032
 20
258.6032711354796
 30
0.0
 10
77.79518108139332
 20
258.6032761745102
 30
0.0
 10
77.96010259169354
 20
258.6032760021727
 30
0.0
 10
78.34265245460998
 20
258.6032639295035
 30
0.0
 10
79.12987672915986
 20
258.6032438393536
 30
0.0
 10
80.4757104254957
 20
258.6033142829178
 30
0.0
 10
82.10537930989159
 20
258.6032483625811
 30
0.0
 10
84.14403599270426
 20
258.6032306368238
 30
0.0
 10
86.53249287802862
 20
258.6033435370837
 30
0.0
 10
89.13089115636396
 20
258.6032246346157
 30
0.0
 10
92.73749460564544
 20
258.6032868658626
 30
0.0
 10
97.46463416364026
 20
258.6032579853325
 30
0.0
 10
102.4028269948874
 20
258.6032926546926
 30
0.0
 10
106.5337616629683
 20
258.6032011039483
 30
0.0
 10
109.7392634917409
 20
258.6033857038492
 30
0.0
 10
112.1839704407708
 20
258.6032131839944
 30
0.0
 10
114.6354647505642
 20
258.6033710639993
 30
0.0
 10
117.4387084851184
 20
258.6032516999323
 30
0.0
 10
119.8861961120139
 20
258.6032398871555
 30
0.0
 10
121.9463942589715
 20
258.6033370775901
 30
0.0
 10
123.9193683139605
 20
258.6032308609812
 30
0.0
 10
125.8905484063466
 20
258.6032826727933
 30
0.0
 10
127.3615504452414
 20
258.6032657451574
 30
0.0
 10
127.7377780264426
 20
258.6032700801956
 30
0.0
 10
127.7494510493308
 20
258.6032697823545
 30
0.0
 10
127.749448421118
 20
258.6032698134266
 30
0.0
  0
ARC
  5
B2
330
AF
100
AcDbEntity
  8
$DDT_AUDIT_GENERATED_(6B)
  6
Continuous
 62
     7
100
AcDbCircle
 10
67.4306356507
 20
317.7066631209
 30
0.0
 40
18.64326329943992
100
AcDbArc
 50
2.7198250357
 51
51.2262760731
  0
ARC
  5
B3
330
AF
100
AcDbEntity
  8
$DDT_AUDIT_GENERATED_(6B)
  6
Continuous
 62
     7
100
AcDbCircle
 10
102.7487758272
 20
318.2442528096
 30
0.0
 40
16.69948527314778
100
AcDbArc
 50
357.4823788993
 51
1.1932719494
  0
ARC
  5
B4
330
AF
100
AcDbEntity
  8
$DDT_AUDIT_GENERATED_(6B)
  6
Continuous
 62
     7
100
AcDbCircle
 10
102.7487758272
 20
318.2442528096
 30
0.0
 40
16.69948527314778
100
AcDbArc
 50
348.8915127176
 51
357.4823788993
  0
ARC
  5
B5
330
AF
100
AcDbEntity
  8
$DDT_AUDIT_GENERATED_(6B)
  6
Continuous
 62
     7
100
AcDbCircle
 10
102.7487758272
 20
318.2442528096
 30
0.0
 40
16.69948527314778
100
AcDbArc
 50
182.2758342169
 51
190.7316735043
  0
ARC
  5
B6
330
AF
100
AcDbEntity
  8
$DDT_AUDIT_GENERATED_(6B)
  6
Continuous
 62
     7
100
AcDbCircle
 10
102.7487758272
 20
318.2442528096
 30
0.0
 40
16.69948527314778
100
AcDbArc
 50
178.8091139259
 51
182.2758342169
  0
ARC
  5
B7
330
AF
100
AcDbEntity
  8
$DDT_AUDIT_GENERATED_(6B)
  6
Continuous
 62
     7
100
AcDbCircle
 10
102.7570395897
 20
-65.419597135
 30
0.0
 40
385.9427234325026
100
AcDbArc
 50
87.7580538815
 51
92.2444227997
  0
ARC
  5
B8
330
AF
100
AcDbEntity
  8
$DDT_AUDIT_GENERATED_(6B)
  6
Continuous
 62
     7
100
AcDbCircle
 10
136.9867263464
 20
319.3496843377
 30
0.0
 40
19.15199251633297
100
AcDbArc
 50
134.2835256466
 51
177.3723627563
  0
ARC
  5
B9
330
AF
100
AcDbEntity
  8
$DDT_AUDIT_GENERATED_(6B)
  6
Continuous
 62
     7
100
AcDbCircle
 10
102.7604457928
 20
-239.8545343832
 30
0.0
 40
557.7408966520003
100
AcDbArc
 50
88.427591371
 51
91.5748124102
  0
LINE
  5
BA
330
AF
100
AcDbEntity
  8
$DDT_AUDIT_GENERATED_(6B)
  6
Continuous
 62
     7
100
AcDbLine
 10
87.4324983297
 20
317.6756996174
 30
0.0
 11
87.350146196
 21
317.6682366171
 31
0.0
  0
ARC
  5
BB
330
AF
100
AcDbEntity
  8
$DDT_AUDIT_GENERATED_(6B)
  6
Continuous
 62
     7
100
AcDbCircle
 10
102.7487674094
 20
317.125692565
 30
0.0
 40
15.40817605443234
100
AcDbArc
 50
177.9821160273
 51
220.0839766036
  0
ARC
  5
BC
330
AF
100
AcDbEntity
  8
$DDT_AUDIT_GENERATED_(6B)
  6
Continuous
 62
     7
100
AcDbCircle
 10
102.7487674094
 20
317.125692565
 30
0.0
 40
15.40817605443234
100
AcDbArc
 50
320.0248910825
 51
2.0202855266
  0
LINE
  5
BD
330
AF
100
AcDbEntity
  8
$DDT_AUDIT_GENERATED_(6B)
  6
Continuous
 62
     7
100
AcDbLine
 10
118.1473658686
 20
317.6688820502
 30
0.0
 11
118.0650026761
 21
317.6763421939
 31
0.0
  0
ELLIPSE
  5
BE
330
AF
100
AcDbEntity
  8
$DDT_AUDIT_GENERATED_(6B)
  6
Continuous
 62
     7
100
AcDbEllipse
 10
87.9758058836
 20
318.8176326206
 30
0.0
 11
-0.05370242389641199
 21
1.499038374981686
 31
0.0
210
0.0
220
0.0
230
1.0
 40
0.5862870076
 41
0.3271420509938545
 42
2.415588407912512
  0
ELLIPSE
  5
BF
330
AF
100
AcDbEntity
  8
$DDT_AUDIT_GENERATED_(6B)
  6
Continuous
 62
     7
100
AcDbEllipse
 10
117.5216967698
 20
318.8182689641
 30
0.0
 11
-0.05362302214303831
 21
-1.499041217410901
 31
0.0
210
0.0
220
0.0
230
0.9999999999999999
 40
0.5862418789
 41
0.7259793882443685
 42
2.81444710501626
  0
LINE
  5
C0
330
AF
100
AcDbEntity
  8
$DDT_AUDIT_GENERATED_(6B)
  6
Continuous
 62
     7
100
AcDbLine
 10
87.6425383435
 20
320.2270515249
 30
0.0
 11
87.329396264
 21
320.1460281599
 31
0.0
  0
ARC
  5
C1
330
AF
100
AcDbEntity
  8
$DDT_AUDIT_GENERATED_(6B)
  6
Continuous
 62
     7
100
AcDbCircle
 10
87.7943588906
 20
318.4628776011
 30
0.0
 40
1.746191870199248
100
AcDbArc
 50
105.4425702219
 51
175.7816045991
  0
ELLIPSE
  5
C2
330
AF
100
AcDbEntity
  8
$DDT_AUDIT_GENERATED_(6B)
  6
Continuous
 62
     7
100
AcDbEllipse
 10
87.8959731463
 20
318.8097124673
 30
0.0
 11
0.2451128029895642
 21
-1.479837732256663
 31
0.0
210
0.0
220
0.0
230
0.9999999999999999
 40
0.668920471
 41
3.487922929312311
 42
5.475666314804881
  0
SPLINE
  5
C3
330
AF
100
AcDbEntity
  8
$DDT_AUDIT_GENERATED_(6B)
  6
Continuous
 62
     7
100
AcDbSpline
210
0.0
220
0.0
230
1.0
 70
     8
 71
     3
 72
    14
 73
    10
 74
     0
 42
0.0000000058976914
 43
0.0000000001
 40
0.0
 40
0.0
 40
0.0
 40
0.0
 40
0.25
 40
0.25
 40
0.5
 40
0.5
 40
0.75
 40
0.75
 40
1.0
 40
1.0
 40
1.0
 40
1.0
 10
87.3501461959664
 20
317.6682366171364
 30
0.0
 10
87.15282572164779
 20
317.7099977195761
 30
0.0
 10
86.9735708555242
 20
317.7655538294245
 30
0.0
 10
86.65617503305843
 20
317.897597812451
 30
0.0
 10
86.52052674982403
 20
317.9731555807012
 30
0.0
 10
86.29888849595244
 20
318.1364015238399
 30
0.0
 10
86.2131248098329
 20
318.2240088525731
 30
0.0
 10
86.0939308850589
 20
318.404546854494
 30
0.0
 10
86.06026650635975
 20
318.4974352381375
 30
0.0
 10
86.05289760789539
 20
318.5913246662622
 30
0.0
  0
SPLINE
  5
C4
330
AF
100
AcDbEntity
  8
$DDT_AUDIT_GENERATED_(6B)
  6
Continuous
 62
     7
100
AcDbSpline
210
0.0
220
0.0
230
1.0
 70
     8
 71
     3
 72
    12
 73
     8
 74
     0
 42
0.0000000058453307
 43
0.0000000001
 40
0.0
 40
0.0
 40
0.0
 40
0.0
 40
0.2499999999999992
 40
0.2499999999999992
 40
0.4999999999999984
 40
0.4999999999999984
 40
1.0
 40
1.0
 40
1.0
 40
1.0
 10
118.1473658686268
 20
317.6688820502308
 30
0.0
 10
118.3448274995255
 20
317.7106767240982
 30
0.0
 10
118.5262915886296
 20
317.7671045359965
 30
0.0
 10
118.8409842870213
 20
317.8981886994767
 30
0.0
 10
118.9766708886101
 20
317.9736167939226
 30
0.0
 10
119.3093879126614
 20
318.218576436453
 30
0.0
 10
119.4299808426466
 20
318.4052310650547
 30
0.0
 10
119.4446395795122
 20
318.5920199053481
 30
0.0
  0
ELLIPSE
  5
C5
330
AF
100
AcDbEntity
  8
$DDT_AUDIT_GENERATED_(6B)
  6
Continuous
 62
     7
100
AcDbEllipse
 10
117.6015402242
 20
318.8103515695
 30
0.0
 11
-0.2450512370556317
 21
-1.479847928409439
 31
0.0
210
0.0
220
0.0
230
1.0
 40
0.6688927724
 41
0.8074967296545026
 42
2.795253868108214
  0
ARC
  5
C6
330
AF
100
AcDbEntity
  8
$DDT_AUDIT_GENERATED_(6B)
  6
Continuous
 62
     7
100
AcDbCircle
 10
117.6841245175
 20
318.4478626409
 30
0.0
 40
1.766407257848609
100
AcDbArc
 50
4.6811395921
 51
74.0997725775
  0
LINE
  5
C7
330
AF
100
AcDbEntity
  8
$DDT_AUDIT_GENERATED_(6B)
  6
Continuous
 62
     7
100
AcDbLine
 10
117.8548707666
 20
320.2277045077
 30
0.0
 11
118.1680548128
 21
320.1466875494
 31
0.0
  0
ARC
  5
C8
330
AF
100
AcDbEntity
  8
$DDT_AUDIT_GENERATED_(6B)
  6
Continuous
 62
     7
100
AcDbCircle
 10
119.0714498337
 20
332.1398346121
 30
0.0
 40
7.570426224204841
100
AcDbArc
 50
2.6342307934
 51
75.2696950124
  0
ARC
  5
C9
330
AF
100
AcDbEntity
  8
$DDT_AUDIT_GENERATED_(6B)
  6
Continuous
 62
     7
100
AcDbCircle
 10
86.4267761681
 20
332.1446516396
 30
0.0
 40
7.56559589063874
100
AcDbArc
 50
104.7458540774
 51
177.4457039977
  0
ARC
  5
CA
330
AF
100
AcDbEntity
  8
$DDT_AUDIT_GENERATED_(6B)
  6
Continuous
 62
     7
100
AcDbCircle
 10
102.7494240365
 20
272.6694659109
 30
0.0
 40
69.23958433081512
100
AcDbArc
 50
74.7201648754
 51
105.2810184841
  0
ARC
  5
CB
330
AF
100
AcDbEntity
  8
$DDT_AUDIT_GENERATED_(6B)
  6
Continuous
 62
     7
100
AcDbCircle
 10
68.507667509
 20
319.3481198146
 30
0.0
 40
19.15504640574941
100
AcDbArc
 50
2.629947459
 51
45.7125308971
  0
SPLINE
  5
CC
330
AF
100
AcDbEntity
  8
$DDT_AUDIT_GENERATED_(6B)
  6
Continuous
 62
     7
100
AcDbSpline
210
0.0
220
0.0
230
1.0
 70
     8
 71
     3
 72
    18
 73
    14
 74
     0
 42
0.0000000031855351
 43
0.0000000001
 40
0.0
 40
0.0
 40
0.0
 40
0.0
 40
0.500000000000001
 40
0.500000000000001
 40
0.7500000000000016
 40
0.7500000000000016
 40
0.8750000000000013
 40
0.8750000000000013
 40
0.9375000000000013
 40
0.9375000000000013
 40
0.9687500000000007
 40
0.9687500000000007
 40
1.0
 40
1.0
 40
1.0
 40
1.0
 10
81.88284613156843
 20
333.060172892783
 30
0.0
 10
81.23563772470543
 20
333.1382119298838
 30
0.0
 10
80.70478756312153
 20
333.1078838607389
 30
0.0
 10
80.01663373006957
 20
332.9745890989949
 30
0.0
 10
79.80645795490426
 20
332.9150090699677
 30
0.0
 10
79.51757123273242
 20
332.7830425134041
 30
0.0
 10
79.42558810135237
 20
332.7326690418773
 30
0.0
 10
79.29502440474747
 20
332.6276441995533
 30
0.0
 10
79.25264852463752
 20
332.5881699591628
 30
0.0
 10
79.19197907712312
 20
332.5074245772595
 30
0.0
 10
79.17222106518568
 20
332.4772584878301
 30
0.0
 10
79.13463985205674
 20
332.3964188468734
 30
0.0
 10
79.11228000529515
 20
332.363384880937
 30
0.0
 10
79.10591102004868
 20
332.2414218564942
 30
0.0
  0
ARC
  5
CD
330
AF
100
AcDbEntity
  8
$DDT_AUDIT_GENERATED_(6B)
  6
Continuous
 62
     7
100
AcDbCircle
 10
138.0634504332
 20
317.7083235036
 30
0.0
 40
18.63977030265193
100
AcDbArc
 50
128.7772456628
 51
177.2826349456
  0
SPLINE
  5
CE
330
AF
100
AcDbEntity
  8
$DDT_AUDIT_GENERATED_(6B)
  6
Continuous
 62
     7
100
AcDbSpline
210
0.0
220
0.0
230
1.0
 70
     8
 71
     3
 72
    19
 73
    15
 74
     0
 42
0.00000000319249
 43
0.0000000001
 40
0.0
 40
0.0
 40
0.0
 40
0.0
 40
0.0078848803591764
 40
0.0196868683080174
 40
0.0358701924634228
 40
0.056607695063734
 40
0.0777135819012264
 40
0.1029187664392555
 40
0.1861619750998183
 40
0.392675044303647
 40
0.6332895739966554
 40
0.7848301987118811
 40
0.8986891007128889
 40
1.0
 40
1.0
 40
1.0
 40
1.0
 10
126.3894693379047
 20
332.2396414865358
 30
0.0
 10
126.3868147913144
 20
332.2652234937669
 30
0.0
 10
126.3801869533804
 20
332.3290963218206
 30
0.0
 10
126.3600246061578
 20
332.3908278875116
 30
0.0
 10
126.3315189037072
 20
332.4587438493015
 30
0.0
 10
126.2948218784636
 20
332.5177868108575
 30
0.0
 10
126.2510339464931
 20
332.5739122930351
 30
0.0
 10
126.1633124221012
 20
332.665307093976
 30
0.0
 10
125.939462967514
 20
332.8184593666969
 30
0.0
 10
125.5195494944278
 20
332.9742349505477
 30
0.0
 10
124.9678001784503
 20
333.0768488634128
 30
0.0
 10
124.4347160538185
 20
333.1072588439658
 30
0.0
 10
124.0142464214075
 20
333.100780561684
 30
0.0
 10
123.7425498265553
 20
333.0733752495289
 30
0.0
 10
123.614623759826
 20
333.0604716877694
 30
0.0
  0
ARC
  5
CF
330
AF
100
AcDbEntity
  8
$DDT_AUDIT_GENERATED_(6B)
  6
Continuous
 62
     7
100
AcDbCircle
 10
102.7495645739
 20
217.1886983601
 30
0.0
 40
117.7353750957561
100
AcDbArc
 50
79.7921276182
 51
100.2086928449
  0
SPLINE
  5
D0
330
AF
100
AcDbEntity
  8
$DDT_AUDIT_GENERATED_(6B)
  6
Continuous
 62
     7
100
AcDbSpline
210
0.0
220
0.0
230
1.0
 70
     8
 71
     3
 72
    38
 73
    34
 74
     0
 42
0.0000000000953061
 43
0.0000000001
 40
0.0
 40
0.0
 40
0.0
 40
0.0
 40
0.0106069594467525
 40
0.0210280013507499
 40
0.0312771410009628
 40
0.0469559438493713
 40
0.062740434122489
 40
0.0940782968816758
 40
0.1255613475130205
 40
0.1884647347213731
 40
0.2510039703691427
 40
0.3136495822610037
 40
0.3754887773353864
 40
0.4066150362698642
 40
0.4221939472149592
 40
0.4379159422866186
 40
0.4693178566921174
 40
0.5007005666489585
 40
0.5320985974373404
 40
0.5476997619330966
 40
0.5632885981988338
 40
0.5790082775779137
 40
0.5946423094348118
 40
0.6257694731257204
 40
0.6872130445767598
 40
0.7493228801349076
 40
0.8122986763089134
 40
0.8752186251278881
 40
0.9375992923890673
 40
0.9531622117066944
 40
0.9686151631552912
 40
0.9840987625189407
 40
1.0
 40
1.0
 40
1.0
 40
1.0
 10
79.10591102004868
 20
332.2414218564942
 30
0.0
 10
79.10318078987717
 20
331.8549437874655
 30
0.0
 10
79.09776818468877
 20
331.0887617917327
 30
0.0
 10
79.10902829393225
 20
329.9373012694622
 30
0.0
 10
79.13900476189184
 20
328.5926806274705
 30
0.0
 10
79.20061590745684
 20
327.0425627603009
 30
0.0
 10
79.34274397861037
 20
324.7096185159431
 30
0.0
 10
79.61398433312725
 20
321.8073776061093
 30
0.0
 10
80.24509974386646
 20
317.2623829966887
 30
0.0
 10
81.4083044083859
 20
311.7922807785394
 30
0.0
 10
83.4928668463436
 20
305.6734732307611
 30
0.0
 10
86.42409684241197
 20
300.1776377758453
 30
0.0
 10
89.79831677650698
 20
296.3532609372442
 30
0.0
 10
92.73620106006635
 20
294.3309368462267
 30
0.0
 10
94.59996376597118
 20
293.3928482953561
 30
0.0
 10
96.58919446695285
 20
292.6069176574932
 30
0.0
 10
99.30328743417675
 20
291.9364964732229
 30
0.0
 10
102.8177162152122
 20
291.6761620136492
 30
0.0
 10
105.7406372051997
 20
291.911665061676
 30
0.0
 10
107.9351360940803
 20
292.3685488958848
 30
0.0
 10
109.5044372948857
 20
292.8398214253414
 30
0.0
 10
110.9893688914779
 20
293.4372850919589
 30
0.0
 10
112.847628518263
 20
294.3885125516659
 30
0.0
 10
115.7636723890434
 20
296.4238657063991
 30
0.0
 10
119.1035223780124
 20
300.2393553994002
 30
0.0
 10
122.0215504975948
 20
305.7231815597852
 30
0.0
 10
124.1004052595488
 20
311.8490798371215
 30
0.0
 10
125.4893789376582
 20
318.405033367452
 30
0.0
 10
126.0843402737359
 20
323.5837837550932
 30
0.0
 10
126.2952411377372
 20
327.053648772226
 30
0.0
 10
126.363435589505
 20
328.7811056646016
 30
0.0
 10
126.3984360640043
 20
330.5142126576574
 30
0.0
 10
126.3924846451206
 20
331.6594187897715
 30
0.0
 10
126.3894693379047
 20
332.2396414865358
 30
0.0
  0
ELLIPSE
  5
D1
330
AF
100
AcDbEntity
  8
$DDT_AUDIT_GENERATED_(6B)
  6
Continuous
 62
     7
100
AcDbEllipse
 10
132.5722288718
 20
332.1696365451
 30
0.0
 11
-6.214245400459912
 21
-0.06015415692034454
 31
0.0
210
0.0
220
0.0
230
1.0
 40
0.2038082604
 41
-0.3010754733064651
 42
-0.1026997082640877
  0
SPLINE
  5
D2
330
AF
100
AcDbEntity
  8
$DDT_AUDIT_GENERATED_(6B)
  6
Continuous
 62
     7
100
AcDbSpline
210
0.0
220
0.0
230
1.0
 70
     8
 71
     3
 72
    14
 73
    10
 74
     0
 42
0.000000001342341
 43
0.0000000001
 40
0.0
 40
0.0
 40
0.0
 40
0.0
 40
0.25
 40
0.25
 40
0.5
 40
0.5
 40
0.75
 40
0.75
 40
1.0
 40
1.0
 40
1.0
 40
1.0
 10
123.614623759826
 20
333.0604716877694
 30
0.0
 10
123.1378482824081
 20
333.2668354472199
 30
0.0
 10
122.6968124960127
 20
333.5881511936201
 30
0.0
 10
121.9382515236139
 20
334.422779419514
 30
0.0
 10
121.6209076559948
 20
334.9358923983125
 30
0.0
 10
121.1475318161291
 20
336.0931815589905
 30
0.0
 10
120.9916129946319
 20
336.7370811147209
 30
0.0
 10
120.8597080790557
 20
338.0794260955698
 30
0.0
 10
120.8837535141314
 20
338.777550660755
 30
0.0
 10
120.996378461385
 20
339.4614466609402
 30
0.0
  0
ARC
  5
D3
330
AF
100
AcDbEntity
  8
$DDT_AUDIT_GENERATED_(6B)
  6
Continuous
 62
     7
100
AcDbCircle
 10
78.5242114995
 20
331.9046643786
 30
0.0
 40
0.6721457662872622
100
AcDbArc
 50
30.067407737
 51
59.1684139246
  0
ELLIPSE
  5
D4
330
AF
100
AcDbEntity
  8
$DDT_AUDIT_GENERATED_(6B)
  6
Continuous
 62
     7
100
AcDbEllipse
 10
80.1203639592
 20
338.7491283859
 30
0.0
 11
0.9898383022445938
 21
-5.917788449700589
 31
0.0
210
0.0
220
0.0
230
1.0
 40
0.7396964788
 41
0.1812009085702085
 42
1.567377098592309
  0
SPLINE
  5
D5
330
AF
100
AcDbEntity
  8
$DDT_AUDIT_GENERATED_(6B)
  6
Continuous
 62
     7
100
AcDbSpline
210
0.0
220
0.0
230
1.0
 70
     8
 71
     3
 72
    18
 73
    14
 74
     0
 42
0.0000000001795438
 43
0.0000000001
 40
0.0
 40
0.0
 40
0.0
 40
0.0
 40
0.0624999999999997
 40
0.0624999999999997
 40
0.1249999999999993
 40
0.1249999999999993
 40
0.1874999999999989
 40
0.1874999999999989
 40
0.2499999999999985
 40
0.2499999999999985
 40
0.2812499999999984
 40
0.2812499999999984
 40
0.2859186019402
 40
0.2859186019402
 40
0.2859186019402
 40
0.2859186019402
 10
102.7487774332746
 20
315.2961852326436
 30
0.0
 10
101.124578199632
 20
315.2961852326436
 30
0.0
 10
99.53126308015982
 20
315.1978752962982
 30
0.0
 10
96.56878942612217
 20
314.7952543446868
 30
0.0
 10
95.21455403500566
 20
314.4894231427317
 30
0.0
 10
92.96534285712198
 20
313.660237132724
 30
0.0
 10
92.05426806692935
 20
313.1275290740892
 30
0.0
 10
90.82915121029373
 20
311.8627417225992
 30
0.0
 10
90.50245591935489
 20
311.1153129544467
 30
0.0
 10
90.49698574733414
 20
309.9073850360525
 30
0.0
 10
90.57572737820816
 20
309.4826159761286
 30
0.0
 10
90.7546636840078
 20
308.9944681633766
 30
0.0
 10
90.77960458601902
 20
308.9309572447519
 30
0.0
 10
90.80623157596271
 20
308.8673911415879
 30
0.0
  0
SPLINE
  5
D6
330
AF
100
AcDbEntity
  8
$DDT_AUDIT_GENERATED_(6B)
  6
Continuous
 62
     7
100
AcDbSpline
210
0.0
220
0.0
230
1.0
 70
     8
 71
     3
 72
    16
 73
    12
 74
     0
 42
0.0000000001793465
 43
0.0000000001
 40
0.7147156951086764
 40
0.7147156951086764
 40
0.7147156951086764
 40
0.7147156951086764
 40
0.7499999999999994
 40
0.7499999999999994
 40
0.8124999999999996
 40
0.8124999999999996
 40
0.8749999999999997
 40
0.8749999999999997
 40
0.9374999999999998
 40
0.9374999999999998
 40
1.0
 40
1.0
 40
1.0
 40
1.0
 10
114.6998515875243
 20
308.8873019191365
 30
0.0
 10
114.8989957141741
 20
309.3686176847629
 30
0.0
 10
114.9997593350092
 20
309.8440044432884
 30
0.0
 10
114.9970182256237
 20
311.1151833369273
 30
0.0
 10
114.6729421144194
 20
311.8566510551838
 30
0.0
 10
113.4452029002928
 20
313.1269488154393
 30
0.0
 10
112.5350085021417
 20
313.6587133383264
 30
0.0
 10
110.2888946216826
 20
314.4877413064497
 30
0.0
 10
108.9289428463509
 20
314.7947426562896
 30
0.0
 10
105.9841164424096
 20
315.1959374073568
 30
0.0
 10
104.3729766669173
 20
315.2961852326436
 30
0.0
 10
102.7487774332746
 20
315.2961852326436
 30
0.0
  0
ELLIPSE
  5
D7
330
AF
100
AcDbEntity
  8
$DDT_AUDIT_GENERATED_(6B)
  6
Continuous
 62
     7
100
AcDbEllipse
 10
102.7487774333
 20
311.6032698257
 30
0.0
 11
12.24999999999999
 21
0.0
 31
0.0
210
0.0
220
0.0
230
1.0
 40
0.5224985647
 41
6.055917835751372
 42
6.181978516593603
  0
ELLIPSE
  5
D8
330
AF
100
AcDbEntity
  8
$DDT_AUDIT_GENERATED_(6B)
  6
Continuous
 62
     7
100
AcDbEllipse
 10
102.7487774333
 20
311.6032698257
 30
0.0
 11
12.24999999999999
 21
0.0
 31
0.0
210
0.0
220
0.0
230
1.0
 40
0.5224985647
 41
3.241505313674354
 42
3.368860125017997
  0
ELLIPSE
  5
D9
330
AF
100
AcDbEntity
  8
$DDT_AUDIT_GENERATED_(6B)
  6
Continuous
 62
     7
100
AcDbEllipse
 10
102.7487774333
 20
311.6032698257
 30
0.0
 11
-12.0085
 21
-6.938893903907228E-15
 31
0.0
210
0.0
220
0.0
230
1.0
 40
0.5224985647
 41
3.030895603077923
 42
3.126006549105056
  0
ELLIPSE
  5
DA
330
AF
100
AcDbEntity
  8
$DDT_AUDIT_GENERATED_(6B)
  6
Continuous
 62
     7
100
AcDbEllipse
 10
102.7487774333
 20
311.6032698257
 30
0.0
 11
-12.0085
 21
-6.938893903907228E-15
 31
0.0
210
0.0
220
0.0
230
1.0
 40
0.5224985647
 41
0.0170967841580974
 42
0.1106970505118588
  0
SPLINE
  5
DB
330
AF
100
AcDbEntity
  8
$DDT_AUDIT_GENERATED_(6B)
  6
Continuous
 62
     7
100
AcDbSpline
210
0.0
220
0.0
230
1.0
 70
     8
 71
     3
 72
    18
 73
    14
 74
     0
 42
0.0000000012716677
 43
0.0000000001
 40
0.0
 40
0.0
 40
0.0
 40
0.0
 40
0.0010103563524863
 40
0.0161937546174083
 40
0.0295608397863392
 40
0.0411325827134271
 40
0.0509272593308125
 40
0.0585489693258032
 40
0.06523377151812
 40
0.0718005056977184
 40
0.0782539949319817
 40
0.0845952654943122
 40
0.0884690583510945
 40
0.0884690583510945
 40
0.0884690583510945
 40
0.0884690583510945
 10
119.3548197533573
 20
316.3840754968722
 30
0.0
 10
119.3553451424424
 20
316.389319059984
 30
0.0
 10
119.362594464125
 20
316.461656109287
 30
0.0
 10
119.3765146263135
 20
316.5867805575198
 30
0.0
 10
119.3939212329885
 20
316.7377522320929
 30
0.0
 10
119.408070280931
 20
316.8521366661877
 30
0.0
 10
119.4186786068133
 20
316.9335893247235
 30
0.0
 10
119.4260554172657
 20
316.9878206269298
 30
0.0
 10
119.4309173841914
 20
317.0225103709406
 30
0.0
 10
119.434610707726
 20
317.0481549684062
 30
0.0
 10
119.4371322111407
 20
317.0652780719516
 30
0.0
 10
119.4383081522353
 20
317.0732296556205
 30
0.0
 10
119.4384819645877
 20
317.0746192487323
 30
0.0
 10
119.4384691566292
 20
317.0746613939581
 30
0.0
  0
SPLINE
  5
DC
330
AF
100
AcDbEntity
  8
$DDT_AUDIT_GENERATED_(6B)
  6
Continuous
 62
     7
100
AcDbSpline
210
0.0
220
0.0
230
1.0
 70
     8
 71
     3
 72
    17
 73
    13
 74
     0
 42
0.0000000012386513
 43
0.0000000001
 40
0.9127008141240929
 40
0.9127008141240929
 40
0.9127008141240929
 40
0.9127008141240929
 40
0.921027477895085
 40
0.9272240540573214
 40
0.9329425071734024
 40
0.9386464398345028
 40
0.9461894518144238
 40
0.955776686081308
 40
0.9674257088466526
 40
0.9811575532681677
 40
0.9969970950642941
 40
1.0
 40
1.0
 40
1.0
 40
1.0
 10
86.05928036225441
 20
317.0733594538557
 30
0.0
 10
86.05922379693301
 20
317.0734328695821
 30
0.0
 10
86.05975138906025
 20
317.0697306305075
 30
0.0
 10
86.06172864892594
 20
317.0562898653527
 30
0.0
 10
86.06454805091687
 20
317.0369394412559
 30
0.0
 10
86.06906882553596
 20
317.0052676611859
 30
0.0
 10
86.07659501400026
 20
316.950846522968
 30
0.0
 10
86.08728084727318
 20
316.8698198640272
 30
0.0
 10
86.10149867837583
 20
316.7560859767119
 30
0.0
 10
86.11908475097682
 20
316.605017652628
 30
0.0
 10
86.1340484063887
 20
316.4706740751325
 30
0.0
 10
86.14222768327245
 20
316.3890739961417
 30
0.0
 10
86.14374949998619
 20
316.3738813493109
 30
0.0
  0
ARC
  5
DD
330
AF
100
AcDbEntity
  8
$DDT_AUDIT_GENERATED_(6B)
  6
Continuous
 62
     7
100
AcDbCircle
 10
102.7517398451
 20
318.244620163
 30
0.0
 40
16.7109440027246
100
AcDbArc
 50
190.8917918469
 51
225.9148808746
  0
ARC
  5
DE
330
AF
100
AcDbEntity
  8
$DDT_AUDIT_GENERATED_(6B)
  6
Continuous
 62
     7
100
AcDbCircle
 10
102.7517398451
 20
318.244620163
 30
0.0
 40
16.7109440027246
100
AcDbArc
 50
314.0591962063
 51
348.7229795004
  0
LINE
  5
DF
330
AF
100
AcDbEntity
  8
$DDT_AUDIT_GENERATED_(6B)
  6
Continuous
 62
     7
100
AcDbLine
 10
77.7479725269
 20
345.4136880767
 30
0.0
 11
77.7479725269
 21
258.6032222606
 31
0.0
  0
LINE
  5
E0
330
AF
100
AcDbEntity
  8
$DDT_AUDIT_GENERATED_(6B)
  6
Continuous
 62
     7
100
AcDbLine
 10
127.749447294
 20
258.6033174703
 30
0.0
 11
127.749447294
 21
345.4142077048
 31
0.0
  0
ELLIPSE
  5
E1
330
AF
100
AcDbEntity
  8
$DDT_AUDIT_GENERATED_(7C)
  6
Continuous
 62
     7
100
AcDbEllipse
 10
102.7487774333
 20
311.3901097847
 30
0.0
 11
-11.935
 21
0.0
 31
0.0
210
0.0
220
0.0
230
1.0
 40
0.5224985647
 41
6.237848697437177
 42
6.283185307179586
  0
ELLIPSE
  5
E2
330
AF
100
AcDbEntity
  8
$DDT_AUDIT_GENERATED_(7C)
  6
Continuous
 62
     7
100
AcDbEllipse
 10
102.7487774333
 20
311.3901097847
 30
0.0
 11
-11.935
 21
0.0
 31
0.0
210
0.0
220
0.0
230
1.0
 40
0.5224985647
 41
3.141592653589793
 42
3.182068378032517
  0
ELLIPSE
  5
E3
330
AF
100
AcDbEntity
  8
$DDT_AUDIT_GENERATED_(7C)
  6
Continuous
 62
     7
100
AcDbEllipse
 10
102.7487774333
 20
304.6890903392
 30
0.0
 11
11.85999999999208
 21
-1.056099652174680E-11
 31
0.0
210
0.0
220
0.0
230
1.0
 40
0.5224985647
 41
-0.5225267283421697
 42
-0.3887609383039123
  0
ELLIPSE
  5
E4
330
AF
100
AcDbEntity
  8
$DDT_AUDIT_GENERATED_(7C)
  6
Continuous
 62
     7
100
AcDbEllipse
 10
102.7487774333
 20
304.6890903392
 30
0.0
 11
11.85999999999208
 21
-1.056099652174680E-11
 31
0.0
210
0.0
220
0.0
230
1.0
 40
0.5224985647
 41
3.693325606247532
 42
5.760658578837416
  0
ELLIPSE
  5
E5
330
AF
100
AcDbEntity
  8
$DDT_AUDIT_GENERATED_(7C)
  6
Continuous
 62
     7
100
AcDbEllipse
 10
102.7487774333
 20
304.6890903392
 30
0.0
 11
11.85999999999208
 21
-1.056099652174680E-11
 31
0.0
210
0.0
220
0.0
230
1.0
 40
0.5224985647
 41
3.530353591894652
 42
3.693325606247532
  0
ELLIPSE
  5
E6
330
AF
100
AcDbEntity
  8
$DDT_AUDIT_GENERATED_(7C)
  6
Continuous
 62
     7
100
AcDbEllipse
 10
102.7487774333
 20
304.1598032059
 30
0.0
 11
-10.78480762113533
 21
0.0
 31
0.0
210
0.0
220
0.0
230
1.0
 40
0.5224985647
 41
2.562598623575492
 42
6.283185307179586
  0
ELLIPSE
  5
E7
330
AF
100
AcDbEntity
  8
$DDT_AUDIT_GENERATED_(7C)
  6
Continuous
 62
     7
100
AcDbEllipse
 10
102.7487774333
 20
304.1598032059
 30
0.0
 11
-10.78480762113533
 21
0.0
 31
0.0
210
0.0
220
0.0
230
1.0
 40
0.5224985647
 41
0.5568613711995851
 42
2.562598623575492
  0
ELLIPSE
  5
E8
330
AF
100
AcDbEntity
  8
$DDT_AUDIT_GENERATED_(7C)
  6
Continuous
 62
     7
100
AcDbEllipse
 10
102.7487774333
 20
304.1598032059
 30
0.0
 11
-10.78480762113533
 21
0.0
 31
0.0
210
0.0
220
0.0
230
1.0
 40
0.5224985647
 41
0.0
 42
0.5568613711995851
  0
ELLIPSE
  5
E9
330
AF
100
AcDbEntity
  8
$DDT_AUDIT_GENERATED_(7C)
  6
Continuous
 62
     7
100
AcDbEllipse
 10
102.7487774333
 20
304.1426683876
 30
0.0
 11
10.70980762113533
 21
-6.938893903907228E-15
 31
0.0
210
0.0
220
0.0
230
1.0
 40
0.5224985647
 41
0.0
 42
6.283185307179586
  0
ELLIPSE
  5
EA
330
AF
100
AcDbEntity
  8
$DDT_AUDIT_GENERATED_(7C)
  6
Continuous
 62
     7
100
AcDbEllipse
 10
102.7487774333
 20
304.1426683876
 30
0.0
 11
10.075
 21
0.0
 31
0.0
210
0.0
220
0.0
230
1.0
 40
0.5224985647
 41
0.0
 42
6.283185307179586
  0
ELLIPSE
  5
EB
330
AF
100
AcDbEntity
  8
$DDT_AUDIT_GENERATED_(7C)
  6
Continuous
 62
     7
100
AcDbEllipse
 10
102.7487774333
 20
301.9800155004
 30
0.0
 11
-11.58161398464224
 21
-7.207555013021292
 31
0.0
210
0.0
220
0.0
230
0.9999999999999999
 40
0.3999669524
 41
2.493813698823271
 42
3.301465877144854
  0
LINE
  5
EC
330
AF
100
AcDbEntity
  8
$DDT_AUDIT_GENERATED_(7C)
  6
Continuous
 62
     7
100
AcDbLine
 10
113.7237774333
 20
307.2502305515
 30
0.0
 11
113.7237774333
 21
309.8330800181
 31
0.0
  0
LINE
  5
ED
330
AF
100
AcDbEntity
  8
$DDT_AUDIT_GENERATED_(7C)
  6
Continuous
 62
     7
100
AcDbLine
 10
113.7237774333
 20
307.0379509503
 30
0.0
 11
113.7237774333
 21
307.2502305515
 31
0.0
  0
LINE
  5
EE
330
AF
100
AcDbEntity
  8
$DDT_AUDIT_GENERATED_(7C)
  6
Continuous
 62
     7
100
AcDbLine
 10
113.7237774333
 20
302.3402297281
 30
0.0
 11
113.7237774333
 21
307.0379509503
 31
0.0
  0
ELLIPSE
  5
EF
330
AF
100
AcDbEntity
  8
$DDT_AUDIT_GENERATED_(7C)
  6
Continuous
 62
     7
100
AcDbEllipse
 10
102.7487774333
 20
304.7998515456
 30
0.0
 11
-11.93499999999998
 21
4.163336342344337E-14
 31
0.0
210
0.0
220
0.0
230
1.0
 40
0.5224985647
 41
3.545418742750582
 42
5.879359218018807
  0
ELLIPSE
  5
F0
330
AF
100
AcDbEntity
  8
$DDT_AUDIT_GENERATED_(7C)
  6
Continuous
 62
     7
100
AcDbEllipse
 10
102.7487774333
 20
301.9800155004
 30
0.0
 11
11.58161398464219
 21
-7.207555013021248
 31
0.0
210
0.0
220
0.0
230
0.9999999999999998
 40
0.3999669524
 41
2.981719430034771
 42
3.789371608356314
  0
LINE
  5
F1
330
AF
100
AcDbEntity
  8
$DDT_AUDIT_GENERATED_(7C)
  6
Continuous
 62
     7
100
AcDbLine
 10
91.7737774333
 20
307.2502305515
 30
0.0
 11
91.7737774333
 21
309.8330800181
 31
0.0
  0
ELLIPSE
  5
F2
330
AF
100
AcDbEntity
  8
$DDT_AUDIT_GENERATED_(7C)
  6
Continuous
 62
     7
100
AcDbEllipse
 10
102.7487774333
 20
304.6890903392
 30
0.0
 11
-11.86000000000003
 21
-1.387778780781446E-14
 31
0.0
210
0.0
220
0.0
230
1.0
 40
0.5224985647
 41
3.5303535918958
 42
5.894424368873569
  0
LINE
  5
F3
330
AF
100
AcDbEntity
  8
$DDT_AUDIT_GENERATED_(7C)
  6
Continuous
 62
     7
100
AcDbLine
 10
91.7737774333
 20
307.0379509503
 30
0.0
 11
91.7737774333
 21
307.2502305515
 31
0.0
  0
LINE
  5
F4
330
AF
100
AcDbEntity
  8
$DDT_AUDIT_GENERATED_(7C)
  6
Continuous
 62
     7
100
AcDbLine
 10
91.7737774333
 20
302.3402297281
 30
0.0
 11
91.7737774333
 21
307.0379509503
 31
0.0
  0
LINE
  5
F5
330
AF
100
AcDbEntity
  8
$DDT_AUDIT_GENERATED_(7C)
  6
Continuous
 62
     7
100
AcDbLine
 10
90.8137774333
 20
311.3901097847
 30
0.0
 11
90.8137774333
 21
307.8552821595
 31
0.0
  0
LINE
  5
F6
330
AF
100
AcDbEntity
  8
$DDT_AUDIT_GENERATED_(7C)
  6
Continuous
 62
     7
100
AcDbLine
 10
114.6837774333
 20
307.8552821595
 30
0.0
 11
114.6837774333
 21
311.3901097847
 31
0.0
  0
ARC
  5
F7
330
AF
100
AcDbEntity
  8
$DDT_AUDIT_GENERATED_(7C)
  6
Continuous
 62
     7
100
AcDbCircle
 10
109.153300142
 20
305.9825334531
 30
0.0
 40
5.860174580718666
100
AcDbArc
 50
311.9451858569
 51
321.2439373104
  0
ARC
  5
F8
330
AF
100
AcDbEntity
  8
$DDT_AUDIT_GENERATED_(7C)
  6
Continuous
 62
     7
100
AcDbCircle
 10
96.3998425985
 20
306.0409116443
 30
0.0
 40
5.940494078452542
100
AcDbArc
 50
218.8610599982
 51
230.455820229
  0
ELLIPSE
  5
F9
330
AF
100
AcDbEntity
  8
$DDT_AUDIT_GENERATED_(8D)
  6
Continuous
 62
     7
100
AcDbEllipse
 10
102.7487774333
 20
303.8442443301
 30
0.0
 11
9.000000000000007
 21
-6.938893903907228E-15
 31
0.0
210
0.0
220
0.0
230
1.0
 40
0.5224985647
 41
0.0
 42
6.283185307179586
  0
ELLIPSE
  5
FA
330
AF
100
AcDbEntity
  8
$DDT_AUDIT_GENERATED_(8D)
  6
Continuous
 62
     7
100
AcDbEllipse
 10
102.7487774333
 20
306.1463727739
 30
0.0
 11
9.000000000000007
 21
-6.938893903907228E-15
 31
0.0
210
0.0
220
0.0
230
1.0
 40
0.5224985647
 41
3.057475471317441
 42
3.141592653589794
  0
ELLIPSE
  5
FB
330
AF
100
AcDbEntity
  8
$DDT_AUDIT_GENERATED_(8D)
  6
Continuous
 62
     7
100
AcDbEllipse
 10
102.7487774333
 20
306.1463727739
 30
0.0
 11
9.000000000000007
 21
-6.938893903907228E-15
 31
0.0
210
0.0
220
0.0
230
1.0
 40
0.5224985647
 41
0.0
 42
0.0841171822723705
  0
ELLIPSE
  5
FC
330
AF
100
AcDbEntity
  8
$DDT_AUDIT_GENERATED_(8D)
  6
Continuous
 62
     7
100
AcDbEllipse
 10
102.7487774333
 20
306.4758961173
 30
0.0
 11
9.386474103795472
 21
-1.249000902703301E-13
 31
0.0
210
0.0
220
0.0
230
1.0
 40
0.5224985647
 41
5.995229759036674
 42
6.205078202674951
  0
ELLIPSE
  5
FD
330
AF
100
AcDbEntity
  8
$DDT_AUDIT_GENERATED_(8D)
  6
Continuous
 62
     7
100
AcDbEllipse
 10
102.7487774333
 20
306.4758961173
 30
0.0
 11
-9.386474103797786
 21
-5.481726184086710E-13
 31
0.0
210
0.0
220
0.0
230
1.0
 40
0.5224985647
 41
0.0781071045046196
 42
0.2879555481428528
  0
ELLIPSE
  5
FE
330
AF
100
AcDbEntity
  8
$DDT_AUDIT_GENERATED_(8D)
  6
Continuous
 62
     7
100
AcDbEllipse
 10
102.7487774333
 20
303.8442443301
 30
0.0
 11
5.250000000000003
 21
0.0
 31
0.0
210
0.0
220
0.0
230
1.0
 40
0.5224985647
 41
0.0
 42
6.283185307179586
  0
ELLIPSE
  5
FF
330
AF
100
AcDbEntity
  8
$DDT_AUDIT_GENERATED_(8D)
  6
Continuous
 62
     7
100
AcDbEllipse
 10
102.7487774333
 20
303.8442443301
 30
0.0
 11
6.250000000000001
 21
-6.938893903907228E-15
 31
0.0
210
0.0
220
0.0
230
1.0
 40
0.5224985647
 41
0.0
 42
6.283185307179586
  0
ELLIPSE
  5
100
330
AF
100
AcDbEntity
  8
$DDT_AUDIT_GENERATED_(8D)
  6
Continuous
 62
     7
100
AcDbEllipse
 10
102.7487774333
 20
303.8442443301
 30
0.0
 11
2.750000000000002
 21
-6.938893903907228E-15
 31
0.0
210
0.0
220
0.0
230
1.0
 40
0.5224985647
 41
0.0
 42
6.283185307179586
  0
ELLIPSE
  5
101
330
AF
100
AcDbEntity
  8
$DDT_AUDIT_GENERATED_(8D)
  6
Continuous
 62
     7
100
AcDbEllipse
 10
102.7487774333
 20
303.8442443301
 30
0.0
 11
2.150000000000001
 21
0.0
 31
0.0
210
0.0
220
0.0
230
1.0
 40
0.5224985647
 41
0.0
 42
6.283185307179586
  0
ELLIPSE
  5
102
330
AF
100
AcDbEntity
  8
$DDT_AUDIT_GENERATED_(8D)
  6
Continuous
 62
     7
100
AcDbEllipse
 10
102.7487774333
 20
304.014772363
 30
0.0
 11
0.5196299438963562
 21
0.0
 31
0.0
210
0.0
220
0.0
230
1.0
 40
0.5224985647
 41
0.0
 42
6.283185307179586
  0
ELLIPSE
  5
103
330
AF
100
AcDbEntity
  8
$DDT_AUDIT_GENERATED_(8D)
  6
Continuous
 62
     7
100
AcDbEllipse
 10
102.7487774333
 20
303.8442443301
 30
0.0
 11
-8.699999999999999
 21
0.0
 31
0.0
210
0.0
220
0.0
230
1.0
 40
0.5224985647
 41
0.0
 42
6.283185307179586
  0
ARC
  5
104
330
AF
100
AcDbEntity
  8
$DDT_AUDIT_GENERATED_(8D)
  6
Continuous
 62
     7
100
AcDbCircle
 10
102.7487774333
 20
315.8407033455
 30
0.0
 40
16.2671687903295
100
AcDbArc
 50
269.6477805012
 51
270.3522194988
  0
ELLIPSE
  5
105
330
AF
100
AcDbEntity
  8
$DDT_AUDIT_GENERATED_(8D)
  6
Continuous
 62
     7
100
AcDbEllipse
 10
102.7487774333
 20
304.014772363
 30
0.0
 11
8.50000000000901
 21
-1.679212324745549E-12
 31
0.0
210
0.0
220
0.0
230
1.0
 40
0.5224985647
 41
4.724153957673182
 42
4.962423390895903
  0
LINE
  5
106
330
AF
100
AcDbEntity
  8
$DDT_AUDIT_GENERATED_(8D)
  6
Continuous
 62
     7
100
AcDbLine
 10
102.6487774333
 20
300.5790463263
 30
0.0
 11
102.6487774333
 21
299.5738419256
 31
0.0
  0
LINE
  5
107
330
AF
100
AcDbEntity
  8
$DDT_AUDIT_GENERATED_(8D)
  6
Continuous
 62
     7
100
AcDbLine
 10
102.8487774333
 20
300.5790463263
 30
0.0
 11
102.8487774333
 21
299.5738419256
 31
0.0
  0
LINE
  5
108
330
AF
100
AcDbEntity
  8
$DDT_AUDIT_GENERATED_(8D)
  6
Continuous
 62
     7
100
AcDbLine
 10
102.9987774333
 20
303.1098769863
 30
0.0
 11
102.9987774333
 21
303.7767541772
 31
0.0
  0
LINE
  5
109
330
AF
100
AcDbEntity
  8
$DDT_AUDIT_GENERATED_(8D)
  6
Continuous
 62
     7
100
AcDbLine
 10
102.4987774333
 20
303.1098769863
 30
0.0
 11
102.4987774333
 21
303.7767541772
 31
0.0
  0
ELLIPSE
  5
10A
330
AF
100
AcDbEntity
  8
$DDT_AUDIT_GENERATED_(8D)
  6
Continuous
 62
     7
100
AcDbEllipse
 10
102.7487774333
 20
304.2256285987
 30
0.0
 11
-2.149999999998878
 21
6.245004513516506E-14
 31
0.0
210
0.0
220
0.0
230
1.0
 40
0.5224985647
 41
1.454253618345518
 42
1.687339035244312
  0
LINE
  5
10B
330
AF
100
AcDbEntity
  8
$DDT_AUDIT_GENERATED_(8D)
  6
Continuous
 62
     7
100
AcDbLine
 10
102.479269564
 20
304.4577619492
 30
0.0
 11
102.479269564
 21
304.9587553872
 31
0.0
  0
ELLIPSE
  5
10C
330
AF
100
AcDbEntity
  8
$DDT_AUDIT_GENERATED_(8D)
  6
Continuous
 62
     7
100
AcDbEllipse
 10
102.7487774333
 20
304.2256285987
 30
0.0
 11
-0.5196299438963558
 21
-6.938893903907228E-15
 31
0.0
210
0.0
220
0.0
230
1.0
 40
0.5224985647
 41
5.257664250556959
 42
6.261508812605804
  0
LINE
  5
10D
330
AF
100
AcDbEntity
  8
$DDT_AUDIT_GENERATED_(8D)
  6
Continuous
 62
     7
100
AcDbLine
 10
101.1075349172
 20
304.5699011651
 30
0.0
 11
102.229269564
 21
304.231513434
 31
0.0
  0
LINE
  5
10E
330
AF
100
AcDbEntity
  8
$DDT_AUDIT_GENERATED_(8D)
  6
Continuous
 62
     7
100
AcDbLine
 10
101.4918284087
 20
304.7556380762
 30
0.0
 11
102.479269564
 21
304.4577619492
 31
0.0
  0
ELLIPSE
  5
10F
330
AF
100
AcDbEntity
  8
$DDT_AUDIT_GENERATED_(8D)
  6
Continuous
 62
     7
100
AcDbEllipse
 10
102.7487774333
 20
304.2256285987
 30
0.0
 11
0.5196299438963574
 21
4.163336342344337E-14
 31
0.0
210
0.0
220
0.0
230
1.0
 40
0.5224985647
 41
0.0216764945751451
 42
1.025521056622644
  0
LINE
  5
110
330
AF
100
AcDbEntity
  8
$DDT_AUDIT_GENERATED_(8D)
  6
Continuous
 62
     7
100
AcDbLine
 10
104.0057264579
 20
304.7556380762
 30
0.0
 11
103.0182853026
 21
304.4577619492
 31
0.0
  0
LINE
  5
111
330
AF
100
AcDbEntity
  8
$DDT_AUDIT_GENERATED_(8D)
  6
Continuous
 62
     7
100
AcDbLine
 10
103.0182853026
 20
304.4577619492
 30
0.0
 11
103.0182853026
 21
304.9587553872
 31
0.0
  0
LINE
  5
112
330
AF
100
AcDbEntity
  8
$DDT_AUDIT_GENERATED_(8D)
  6
Continuous
 62
     7
100
AcDbLine
 10
104.3900199494
 20
304.5699011651
 30
0.0
 11
103.2682853026
 21
304.231513434
 31
0.0
  0
ELLIPSE
  5
113
330
AF
100
AcDbEntity
  8
$DDT_AUDIT_GENERATED_(8D)
  6
Continuous
 62
     7
100
AcDbEllipse
 10
102.7487773156
 20
304.0147721334
 30
0.0
 11
-8.49999975738333
 21
8.172020699026561E-8
 31
0.0
210
0.0
220
0.0
230
1.0
 40
0.5224985526
 41
1.297231973100433
 42
1.320761928306122
  0
ELLIPSE
  5
114
330
AF
100
AcDbEntity
  8
$DDT_AUDIT_GENERATED_(8D)
  6
Continuous
 62
     7
100
AcDbEllipse
 10
102.7487774333
 20
304.014772363
 30
0.0
 11
-8.499999999992223
 21
1.845745778439323E-12
 31
0.0
210
0.0
220
0.0
230
1.0
 40
0.5224985647
 41
1.320761916283992
 42
1.559031349507173
  0
LINE
  5
115
330
AF
100
AcDbEntity
  8
$DDT_AUDIT_GENERATED_(8D)
  6
Continuous
 62
     7
100
AcDbLine
 10
100.452375219
 20
299.7386862188
 30
0.0
 11
100.452375219
 21
300.8070470089
 31
0.0
  0
LINE
  5
116
330
AF
100
AcDbEntity
  8
$DDT_AUDIT_GENERATED_(8D)
  6
Continuous
 62
     7
100
AcDbLine
 10
100.9536779865
 20
300.716222199
 30
0.0
 11
100.452375219
 21
299.7386862188
 31
0.0
  0
LINE
  5
117
330
AF
100
AcDbEntity
  8
$DDT_AUDIT_GENERATED_(8D)
  6
Continuous
 62
     7
100
AcDbLine
 10
101.1461633929
 20
300.6878111595
 30
0.0
 11
100.6455603843
 21
299.7116397028
 31
0.0
  0
ELLIPSE
  5
118
330
AF
100
AcDbEntity
  8
$DDT_AUDIT_GENERATED_(8D)
  6
Continuous
 62
     7
100
AcDbEllipse
 10
102.7487772058
 20
304.0147721571
 30
0.0
 11
-8.49999971569955
 21
1.415644199087573E-7
 31
0.0
210
0.0
220
0.0
230
1.0
 40
0.5224985577
 41
1.035432593880314
 42
1.058962549086164
  0
ELLIPSE
  5
119
330
AF
100
AcDbEntity
  8
$DDT_AUDIT_GENERATED_(8D)
  6
Continuous
 62
     7
100
AcDbEllipse
 10
102.7487774333
 20
304.014772363
 30
0.0
 11
-8.500000000018384
 21
-8.326672684688674E-12
 31
0.0
210
0.0
220
0.0
230
1.0
 40
0.5224985647
 41
1.058962528483716
 42
1.297231961706235
  0
LINE
  5
11A
330
AF
100
AcDbEntity
  8
$DDT_AUDIT_GENERATED_(8D)
  6
Continuous
 62
     7
100
AcDbLine
 10
98.4124690207
 20
300.194938716
 30
0.0
 11
98.4124690207
 21
301.492482449
 31
0.0
  0
LINE
  5
11B
330
AF
100
AcDbEntity
  8
$DDT_AUDIT_GENERATED_(8D)
  6
Continuous
 62
     7
100
AcDbLine
 10
99.3986242779
 20
301.087403367
 30
0.0
 11
98.4124690207
 21
300.194938716
 31
0.0
  0
LINE
  5
11C
330
AF
100
AcDbEntity
  8
$DDT_AUDIT_GENERATED_(8D)
  6
Continuous
 62
     7
100
AcDbLine
 10
99.5692171707
 20
301.032789496
 30
0.0
 11
98.5856741015
 21
300.1426888596
 31
0.0
  0
ELLIPSE
  5
11D
330
AF
100
AcDbEntity
  8
$DDT_AUDIT_GENERATED_(8D)
  6
Continuous
 62
     7
100
AcDbEllipse
 10
102.7487770995
 20
304.0147721886
 30
0.0
 11
-8.499999646031899
 21
1.696043097632050E-7
 31
0.0
210
0.0
220
0.0
230
1.0
 40
0.5224985647
 41
0.7736332100910913
 42
0.7971631653204937
  0
ELLIPSE
  5
11E
330
AF
100
AcDbEntity
  8
$DDT_AUDIT_GENERATED_(8D)
  6
Continuous
 62
     7
100
AcDbEllipse
 10
102.7487774333
 20
304.014772363
 30
0.0
 11
-8.50000000002003
 21
-1.016547956922409E-11
 31
0.0
210
0.0
220
0.0
230
1.0
 40
0.5224985647
 41
0.7971631406842696
 42
1.035432573906827
  0
LINE
  5
11F
330
AF
100
AcDbEntity
  8
$DDT_AUDIT_GENERATED_(8D)
  6
Continuous
 62
     7
100
AcDbLine
 10
96.6680750746
 20
300.9115065638
 30
0.0
 11
96.6680750746
 21
302.1201062519
 31
0.0
  0
LINE
  5
120
330
AF
100
AcDbEntity
  8
$DDT_AUDIT_GENERATED_(8D)
  6
Continuous
 62
     7
100
AcDbLine
 10
98.101657965
 20
301.6605515664
 30
0.0
 11
96.6680750746
 21
300.9115065638
 31
0.0
  0
LINE
  5
121
330
AF
100
AcDbEntity
  8
$DDT_AUDIT_GENERATED_(8D)
  6
Continuous
 62
     7
100
AcDbLine
 10
98.2378531615
 20
301.5839284498
 30
0.0
 11
96.8094964309
 21
300.8376141081
 31
0.0
  0
ELLIPSE
  5
122
330
AF
100
AcDbEntity
  8
$DDT_AUDIT_GENERATED_(8D)
  6
Continuous
 62
     7
100
AcDbEllipse
 10
102.7487770835
 20
304.0147722573
 30
0.0
 11
-8.499999646547455
 21
1.258244064494818E-7
 31
0.0
210
0.0
220
0.0
230
1.0
 40
0.5224985709
 41
0.5118338160516323
 42
0.5353637711870318
  0
ELLIPSE
  5
123
330
AF
100
AcDbEntity
  8
$DDT_AUDIT_GENERATED_(8D)
  6
Continuous
 62
     7
100
AcDbEllipse
 10
102.7487774333
 20
304.014772363
 30
0.0
 11
-8.499999999990658
 21
4.246603069191224E-12
 31
0.0
210
0.0
220
0.0
230
1.0
 40
0.5224985647
 41
0.5353637528868999
 42
0.7736331861100287
  0
LINE
  5
124
330
AF
100
AcDbEntity
  8
$DDT_AUDIT_GENERATED_(8D)
  6
Continuous
 62
     7
100
AcDbLine
 10
95.3380709454
 20
301.8395568474
 30
0.0
 11
95.3380709454
 21
302.9231576834
 31
0.0
  0
LINE
  5
125
330
AF
100
AcDbEntity
  8
$DDT_AUDIT_GENERATED_(8D)
  6
Continuous
 62
     7
100
AcDbLine
 10
97.1549497626
 20
302.3876450271
 30
0.0
 11
95.3380709454
 21
301.8395568474
 31
0.0
  0
LINE
  5
126
330
AF
100
AcDbEntity
  8
$DDT_AUDIT_GENERATED_(8D)
  6
Continuous
 62
     7
100
AcDbLine
 10
97.2471078446
 20
302.2947799912
 30
0.0
 11
95.4380709454
 21
301.7490574413
 31
0.0
  0
ELLIPSE
  5
127
330
AF
100
AcDbEntity
  8
$DDT_AUDIT_GENERATED_(8D)
  6
Continuous
 62
     7
100
AcDbEllipse
 10
102.7487769776
 20
304.0147722992
 30
0.0
 11
-8.499999544095338
 21
8.475180279798877E-8
 31
0.0
210
0.0
220
0.0
230
1.0
 40
0.5224985773
 41
0.2500344223318006
 42
0.2735643775608707
  0
ELLIPSE
  5
128
330
AF
100
AcDbEntity
  8
$DDT_AUDIT_GENERATED_(8D)
  6
Continuous
 62
     7
100
AcDbEllipse
 10
102.7487774333
 20
304.014772363
 30
0.0
 11
-8.499999999995834
 21
6.661338147750939E-13
 31
0.0
210
0.0
220
0.0
230
1.0
 40
0.5224985647
 41
0.2735643650873434
 42
0.5118337983103748
  0
LINE
  5
129
330
AF
100
AcDbEntity
  8
$DDT_AUDIT_GENERATED_(8D)
  6
Continuous
 62
     7
100
AcDbLine
 10
94.5130942166
 20
302.9158444736
 30
0.0
 11
94.5130942166
 21
303.9625225065
 31
0.0
  0
LINE
  5
12A
330
AF
100
AcDbEntity
  8
$DDT_AUDIT_GENERATED_(8D)
  6
Continuous
 62
     7
100
AcDbLine
 10
96.6176058027
 20
303.2104825533
 30
0.0
 11
94.5130942166
 21
302.9158444736
 31
0.0
  0
LINE
  5
12B
330
AF
100
AcDbEntity
  8
$DDT_AUDIT_GENERATED_(8D)
  6
Continuous
 62
     7
100
AcDbLine
 10
96.6596116915
 20
303.1081774429
 30
0.0
 11
94.5648580257
 21
302.814905502
 31
0.0
  0
ARC
  5
12C
330
AF
100
AcDbEntity
  8
$DDT_AUDIT_GENERATED_(8D)
  6
Continuous
 62
     7
100
AcDbCircle
 10
96.5697454684
 20
304.014772363
 30
0.0
 40
2.320967980974909
100
AcDbArc
 50
178.7100428774
 51
181.2899571226
  0
ELLIPSE
  5
12D
330
AF
100
AcDbEntity
  8
$DDT_AUDIT_GENERATED_(8D)
  6
Continuous
 62
     7
100
AcDbEllipse
 10
102.7487774332
 20
304.014772363
 30
0.0
 11
-8.49999999996805
 21
2.602085213965211E-12
 31
0.0
210
0.0
220
0.0
230
1.0
 40
0.5224985647
 41
0.0117649772883856
 42
0.2500344105116958
  0
ARC
  5
12E
330
AF
100
AcDbEntity
  8
$DDT_AUDIT_GENERATED_(8D)
  6
Continuous
 62
     7
100
AcDbCircle
 10
98.205638755
 20
304.014772363
 30
0.0
 40
1.706861185426577
100
AcDbArc
 50
178.2458069636
 51
180.0
  0
LINE
  5
12F
330
AF
100
AcDbEntity
  8
$DDT_AUDIT_GENERATED_(8D)
  6
Continuous
 62
     7
100
AcDbLine
 10
96.4995774845
 20
304.0670222195
 30
0.0
 11
96.4995774845
 21
304.8355864994
 31
0.0
  0
LINE
  5
130
330
AF
100
AcDbEntity
  8
$DDT_AUDIT_GENERATED_(8D)
  6
Continuous
 62
     7
100
AcDbLine
 10
96.4995774845
 20
304.0670222195
 30
0.0
 11
94.2493656889
 21
304.0670222195
 31
0.0
  0
LINE
  5
131
330
AF
100
AcDbEntity
  8
$DDT_AUDIT_GENERATED_(8D)
  6
Continuous
 62
     7
100
AcDbLine
 10
96.4987774333
 20
303.9625225065
 30
0.0
 11
94.2493656889
 21
303.9625225065
 31
0.0
  0
ELLIPSE
  5
132
330
AF
100
AcDbEntity
  8
$DDT_AUDIT_GENERATED_(8D)
  6
Continuous
 62
     7
100
AcDbEllipse
 10
102.7487770106
 20
304.0147724221
 30
0.0
 11
-8.499999577120871
 21
-7.857865746974113E-8
 31
0.0
210
0.0
220
0.0
230
1.0
 40
0.5224985764
 41
-0.2735643766553943
 42
-0.2500344214736687
  0
ELLIPSE
  5
133
330
AF
100
AcDbEntity
  8
$DDT_AUDIT_GENERATED_(8D)
  6
Continuous
 62
     7
100
AcDbEllipse
 10
102.7487774333
 20
304.014772363
 30
0.0
 11
-8.500000000027057
 21
2.685351940812097E-12
 31
0.0
210
0.0
220
0.0
230
1.0
 40
0.5224985647
 41
6.0331508966691
 42
6.271420329891541
  0
ELLIPSE
  5
134
330
AF
100
AcDbEntity
  8
$DDT_AUDIT_GENERATED_(8D)
  6
Continuous
 62
     7
100
AcDbEllipse
 10
102.7487773868
 20
304.0147723695
 30
0.0
 11
-6.249999953463933
 21
-8.658643246839404E-9
 31
0.0
210
0.0
220
0.0
230
1.0
 40
0.5224985665
 41
-0.2778000722930063
 42
-0.2457987066791052
  0
LINE
  5
135
330
AF
100
AcDbEntity
  8
$DDT_AUDIT_GENERATED_(8D)
  6
Continuous
 62
     7
100
AcDbLine
 10
96.7383957136
 20
304.9103372782
 30
0.0
 11
96.7383957136
 21
305.7675593458
 31
0.0
  0
LINE
  5
136
330
AF
100
AcDbEntity
  8
$DDT_AUDIT_GENERATED_(8D)
  6
Continuous
 62
     7
100
AcDbLine
 10
96.7383957136
 20
304.9103372782
 30
0.0
 11
94.5648580257
 21
305.2146392239
 31
0.0
  0
LINE
  5
137
330
AF
100
AcDbEntity
  8
$DDT_AUDIT_GENERATED_(8D)
  6
Continuous
 62
     7
100
AcDbLine
 10
96.6866319046
 20
304.8093983066
 30
0.0
 11
94.5130942166
 21
305.1137002524
 31
0.0
  0
ELLIPSE
  5
138
330
AF
100
AcDbEntity
  8
$DDT_AUDIT_GENERATED_(8D)
  6
Continuous
 62
     7
100
AcDbEllipse
 10
102.7487770537
 20
304.0147724774
 30
0.0
 11
-8.499999616522402
 21
-1.363628029937836E-7
 31
0.0
210
0.0
220
0.0
230
1.0
 40
0.5224985715
 41
-0.5353637727374174
 42
-0.5118338175547139
  0
ELLIPSE
  5
139
330
AF
100
AcDbEntity
  8
$DDT_AUDIT_GENERATED_(8D)
  6
Continuous
 62
     7
100
AcDbEllipse
 10
102.7487774333
 20
304.014772363
 30
0.0
 11
-8.500000000027201
 21
7.369105325949477E-12
 31
0.0
210
0.0
220
0.0
230
1.0
 40
0.5224985647
 41
5.77135150887065
 42
6.009620942093205
  0
ELLIPSE
  5
13A
330
AF
100
AcDbEntity
  8
$DDT_AUDIT_GENERATED_(8D)
  6
Continuous
 62
     7
100
AcDbEllipse
 10
102.7487774834
 20
304.0147723479
 30
0.0
 11
-6.250000050638083
 21
1.800230797766034E-8
 31
0.0
210
0.0
220
0.0
230
1.0
 40
0.5224985635
 41
-0.5395994547593883
 42
-0.5075980894168852
  0
LINE
  5
13B
330
AF
100
AcDbEntity
  8
$DDT_AUDIT_GENERATED_(8D)
  6
Continuous
 62
     7
100
AcDbLine
 10
97.3868115243
 20
305.692621068
 30
0.0
 11
97.3868115243
 21
306.7424993988
 31
0.0
  0
LINE
  5
13C
330
AF
100
AcDbEntity
  8
$DDT_AUDIT_GENERATED_(8D)
  6
Continuous
 62
     7
100
AcDbLine
 10
97.3868115243
 20
305.692621068
 30
0.0
 11
95.4380709454
 21
306.2804872847
 31
0.0
  0
LINE
  5
13D
330
AF
100
AcDbEntity
  8
$DDT_AUDIT_GENERATED_(8D)
  6
Continuous
 62
     7
100
AcDbLine
 10
97.2868115243
 20
305.6021216619
 30
0.0
 11
95.3380709454
 21
306.1899878786
 31
0.0
  0
ELLIPSE
  5
13E
330
AF
100
AcDbEntity
  8
$DDT_AUDIT_GENERATED_(8D)
  6
Continuous
 62
     7
100
AcDbEllipse
 10
102.7487774333
 20
304.014772363
 30
0.0
 11
-8.500000000021334
 21
8.916478666520788E-12
 31
0.0
210
0.0
220
0.0
230
1.0
 40
0.5224985647
 41
-0.6445164383278694
 42
-0.5353637528852726
  0
ELLIPSE
  5
13F
330
AF
100
AcDbEntity
  8
$DDT_AUDIT_GENERATED_(8D)
  6
Continuous
 62
     7
100
AcDbEllipse
 10
102.7487774839
 20
304.0147723366
 30
0.0
 11
-6.250000053704326
 21
2.572255602961704E-8
 31
0.0
210
0.0
220
0.0
230
1.0
 40
0.5224985647
 41
-0.8013988410327091
 42
-0.7693974757252917
  0
LINE
  5
140
330
AF
100
AcDbEntity
  8
$DDT_AUDIT_GENERATED_(8D)
  6
Continuous
 62
     7
100
AcDbLine
 10
98.4006364506
 20
306.3605622413
 30
0.0
 11
98.4006364506
 21
307.7815291355
 31
0.0
  0
LINE
  5
141
330
AF
100
AcDbEntity
  8
$DDT_AUDIT_GENERATED_(8D)
  6
Continuous
 62
     7
100
AcDbLine
 10
98.4006364506
 20
306.3605622413
 30
0.0
 11
96.8352923148
 21
307.1784523055
 31
0.0
  0
LINE
  5
142
330
AF
100
AcDbEntity
  8
$DDT_AUDIT_GENERATED_(8D)
  6
Continuous
 62
     7
100
AcDbLine
 10
98.2592150944
 20
306.2866697856
 30
0.0
 11
96.6901180066
 21
307.1065207619
 31
0.0
  0
ELLIPSE
  5
143
330
AF
100
AcDbEntity
  8
$DDT_AUDIT_GENERATED_(8D)
  6
Continuous
 62
     7
100
AcDbEllipse
 10
102.7487774058
 20
304.0147723878
 30
0.0
 11
-6.24999996571969
 21
-1.707423785690665E-8
 31
0.0
210
0.0
220
0.0
230
1.0
 40
0.5224985636
 41
-1.063198237341816
 42
-1.031196871710785
  0
LINE
  5
144
330
AF
100
AcDbEntity
  8
$DDT_AUDIT_GENERATED_(8D)
  6
Continuous
 62
     7
100
AcDbLine
 10
99.7107799993
 20
306.868641711
 30
0.0
 11
99.7107799993
 21
308.1038278474
 31
0.0
  0
LINE
  5
145
330
AF
100
AcDbEntity
  8
$DDT_AUDIT_GENERATED_(8D)
  6
Continuous
 62
     7
100
AcDbLine
 10
99.7107799993
 20
306.868641711
 30
0.0
 11
98.6286933456
 21
307.847923706
 31
0.0
  0
LINE
  5
146
330
AF
100
AcDbEntity
  8
$DDT_AUDIT_GENERATED_(8D)
  6
Continuous
 62
     7
100
AcDbLine
 10
99.5375749185
 20
306.8163918545
 30
0.0
 11
98.4536121192
 21
307.7973717502
 31
0.0
  0
ELLIPSE
  5
147
330
AF
100
AcDbEntity
  8
$DDT_AUDIT_GENERATED_(8D)
  6
Continuous
 62
     7
100
AcDbEllipse
 10
102.7487774491
 20
304.0147723322
 30
0.0
 11
-6.250000032571021
 21
1.098265228760553E-8
 31
0.0
210
0.0
220
0.0
230
1.0
 40
0.5224985669
 41
-1.324997619520816
 42
-1.292996254186468
  0
LINE
  5
148
330
AF
100
AcDbEntity
  8
$DDT_AUDIT_GENERATED_(8D)
  6
Continuous
 62
     7
100
AcDbLine
 10
101.2279580525
 20
307.1822347008
 30
0.0
 11
101.2279580525
 21
308.3199899828
 31
0.0
  0
LINE
  5
149
330
AF
100
AcDbEntity
  8
$DDT_AUDIT_GENERATED_(8D)
  6
Continuous
 62
     7
100
AcDbLine
 10
101.2279580525
 20
307.1822347008
 30
0.0
 11
100.6757431419
 21
308.2590489117
 31
0.0
  0
LINE
  5
14A
330
AF
100
AcDbEntity
  8
$DDT_AUDIT_GENERATED_(8D)
  6
Continuous
 62
     7
100
AcDbLine
 10
101.0347728872
 20
307.1551881849
 30
0.0
 11
100.4820553297
 21
308.2329825529
 31
0.0
  0
ARC
  5
14B
330
AF
100
AcDbEntity
  8
$DDT_AUDIT_GENERATED_(8D)
  6
Continuous
 62
     7
100
AcDbCircle
 10
102.7487774333
 20
295.3197462231
 30
0.0
 40
11.96064218878366
100
AcDbArc
 50
89.520958439
 51
90.479041561
  0
LINE
  5
14C
330
AF
100
AcDbEntity
  8
$DDT_AUDIT_GENERATED_(8D)
  6
Continuous
 62
     7
100
AcDbLine
 10
102.8487774333
 20
307.2799703669
 30
0.0
 11
102.8487774333
 21
308.3896815467
 31
0.0
  0
LINE
  5
14D
330
AF
100
AcDbEntity
  8
$DDT_AUDIT_GENERATED_(8D)
  6
Continuous
 62
     7
100
AcDbLine
 10
102.6487774333
 20
307.2799703669
 30
0.0
 11
102.6487774333
 21
308.3896815467
 31
0.0
  0
ELLIPSE
  5
14E
330
AF
100
AcDbEntity
  8
$DDT_AUDIT_GENERATED_(8D)
  6
Continuous
 62
     7
100
AcDbEllipse
 10
102.7487774176
 20
304.0147723323
 30
0.0
 11
6.250000032387938
 21
1.089700552014961E-8
 31
0.0
210
0.0
220
0.0
230
1.0
 40
0.5224985669
 41
1.292996254205173
 42
1.324997619540349
  0
LINE
  5
14F
330
AF
100
AcDbEntity
  8
$DDT_AUDIT_GENERATED_(8D)
  6
Continuous
 62
     7
100
AcDbLine
 10
104.4627819793
 20
307.1551881849
 30
0.0
 11
105.0154995368
 21
308.2329825529
 31
0.0
  0
LINE
  5
150
330
AF
100
AcDbEntity
  8
$DDT_AUDIT_GENERATED_(8D)
  6
Continuous
 62
     7
100
AcDbLine
 10
104.269596814
 20
307.1822347008
 30
0.0
 11
104.8218117246
 21
308.2590489117
 31
0.0
  0
LINE
  5
151
330
AF
100
AcDbEntity
  8
$DDT_AUDIT_GENERATED_(8D)
  6
Continuous
 62
     7
100
AcDbLine
 10
104.269596814
 20
307.1822347008
 30
0.0
 11
104.269596814
 21
308.3199899828
 31
0.0
  0
ELLIPSE
  5
152
330
AF
100
AcDbEntity
  8
$DDT_AUDIT_GENERATED_(8D)
  6
Continuous
 62
     7
100
AcDbEllipse
 10
102.7487774045
 20
304.0147723369
 30
0.0
 11
6.250000036032988
 21
1.795221610256803E-8
 31
0.0
210
0.0
220
0.0
230
1.0
 40
0.5224985659
 41
1.031196865027468
 42
1.063198230370513
  0
LINE
  5
153
330
AF
100
AcDbEntity
  8
$DDT_AUDIT_GENERATED_(8D)
  6
Continuous
 62
     7
100
AcDbLine
 10
105.959979948
 20
306.8163918545
 30
0.0
 11
107.0439427474
 21
307.7973717502
 31
0.0
  0
LINE
  5
154
330
AF
100
AcDbEntity
  8
$DDT_AUDIT_GENERATED_(8D)
  6
Continuous
 62
     7
100
AcDbLine
 10
105.7867748673
 20
306.868641711
 30
0.0
 11
106.8688615209
 21
307.847923706
 31
0.0
  0
LINE
  5
155
330
AF
100
AcDbEntity
  8
$DDT_AUDIT_GENERATED_(8D)
  6
Continuous
 62
     7
100
AcDbLine
 10
105.7867748673
 20
306.868641711
 30
0.0
 11
105.7867748673
 21
308.1038278474
 31
0.0
  0
ELLIPSE
  5
156
330
AF
100
AcDbEntity
  8
$DDT_AUDIT_GENERATED_(8D)
  6
Continuous
 62
     7
100
AcDbEllipse
 10
102.7487773928
 20
304.0147723418
 30
0.0
 11
6.250000042951855
 21
2.057561065971214E-8
 31
0.0
210
0.0
220
0.0
230
1.0
 40
0.5224985647
 41
0.76939747671438
 42
0.8013988420584032
  0
LINE
  5
157
330
AF
100
AcDbEntity
  8
$DDT_AUDIT_GENERATED_(8D)
  6
Continuous
 62
     7
100
AcDbLine
 10
107.2383397722
 20
306.2866697856
 30
0.0
 11
108.80743686
 21
307.1065207619
 31
0.0
  0
LINE
  5
158
330
AF
100
AcDbEntity
  8
$DDT_AUDIT_GENERATED_(8D)
  6
Continuous
 62
     7
100
AcDbLine
 10
107.0969184159
 20
306.3605622413
 30
0.0
 11
108.6622625518
 21
307.1784523055
 31
0.0
  0
LINE
  5
159
330
AF
100
AcDbEntity
  8
$DDT_AUDIT_GENERATED_(8D)
  6
Continuous
 62
     7
100
AcDbLine
 10
107.0969184159
 20
306.3605622413
 30
0.0
 11
107.0969184159
 21
307.7815291355
 31
0.0
  0
ELLIPSE
  5
15A
330
AF
100
AcDbEntity
  8
$DDT_AUDIT_GENERATED_(8D)
  6
Continuous
 62
     7
100
AcDbEllipse
 10
102.748777783
 20
304.0147724686
 30
0.0
 11
8.499999646631913
 21
-1.258247395163892E-7
 31
0.0
210
0.0
220
0.0
230
1.0
 40
0.5224985709
 41
0.5118338160491936
 42
0.535363771184449
  0
ELLIPSE
  5
15B
330
AF
100
AcDbEntity
  8
$DDT_AUDIT_GENERATED_(8D)
  6
Continuous
 62
     7
100
AcDbEllipse
 10
102.7487774333
 20
304.014772363
 30
0.0
 11
8.499999999998655
 21
-4.857225732735060E-13
 31
0.0
210
0.0
220
0.0
230
1.0
 40
0.5224985647
 41
0.5353637528864489
 42
0.6445164383292219
  0
ELLIPSE
  5
15C
330
AF
100
AcDbEntity
  8
$DDT_AUDIT_GENERATED_(8D)
  6
Continuous
 62
     7
100
AcDbEllipse
 10
102.7487773832
 20
304.0147723479
 30
0.0
 11
6.250000050632556
 21
1.799978915917322E-8
 31
0.0
210
0.0
220
0.0
230
1.0
 40
0.5224985635
 41
0.5075980894175081
 42
0.5395994547599943
  0
LINE
  5
15D
330
AF
100
AcDbEntity
  8
$DDT_AUDIT_GENERATED_(8D)
  6
Continuous
 62
     7
100
AcDbLine
 10
108.2107433423
 20
305.6021216619
 30
0.0
 11
110.1594839211
 21
306.1899878786
 31
0.0
  0
LINE
  5
15E
330
AF
100
AcDbEntity
  8
$DDT_AUDIT_GENERATED_(8D)
  6
Continuous
 62
     7
100
AcDbLine
 10
108.1107433423
 20
305.692621068
 30
0.0
 11
110.0594839211
 21
306.2804872847
 31
0.0
  0
LINE
  5
15F
330
AF
100
AcDbEntity
  8
$DDT_AUDIT_GENERATED_(8D)
  6
Continuous
 62
     7
100
AcDbLine
 10
108.1107433423
 20
305.692621068
 30
0.0
 11
108.1107433423
 21
306.7424993988
 31
0.0
  0
ELLIPSE
  5
160
330
AF
100
AcDbEntity
  8
$DDT_AUDIT_GENERATED_(8D)
  6
Continuous
 62
     7
100
AcDbEllipse
 10
102.7487778894
 20
304.0147724268
 30
0.0
 11
8.499999543649432
 21
-8.483536095837962E-8
 31
0.0
210
0.0
220
0.0
230
1.0
 40
0.5224985773
 41
0.2500344223432471
 42
0.2735643775729372
  0
ELLIPSE
  5
161
330
AF
100
AcDbEntity
  8
$DDT_AUDIT_GENERATED_(8D)
  6
Continuous
 62
     7
100
AcDbEllipse
 10
102.7487774333
 20
304.014772363
 30
0.0
 11
8.499999999995428
 21
-1.082467449009528E-12
 31
0.0
210
0.0
220
0.0
230
1.0
 40
0.5224985647
 41
0.2735643650873718
 42
0.5118337983104138
  0
ELLIPSE
  5
162
330
AF
100
AcDbEntity
  8
$DDT_AUDIT_GENERATED_(8D)
  6
Continuous
 62
     7
100
AcDbEllipse
 10
102.7487774926
 20
304.0147723713
 30
0.0
 11
6.249999940652376
 21
-1.105873032036797E-8
 31
0.0
210
0.0
220
0.0
230
1.0
 40
0.5224985669
 41
0.2457987071276816
 42
0.2778000727755527
  0
LINE
  5
163
330
AF
100
AcDbEntity
  8
$DDT_AUDIT_GENERATED_(8D)
  6
Continuous
 62
     7
100
AcDbLine
 10
108.810922962
 20
304.8093983066
 30
0.0
 11
110.9844606499
 21
305.1137002524
 31
0.0
  0
LINE
  5
164
330
AF
100
AcDbEntity
  8
$DDT_AUDIT_GENERATED_(8D)
  6
Continuous
 62
     7
100
AcDbLine
 10
108.7591591529
 20
304.9103372782
 30
0.0
 11
110.9326968409
 21
305.2146392239
 31
0.0
  0
LINE
  5
165
330
AF
100
AcDbEntity
  8
$DDT_AUDIT_GENERATED_(8D)
  6
Continuous
 62
     7
100
AcDbLine
 10
108.7591591529
 20
304.9103372782
 30
0.0
 11
108.7591591529
 21
305.7675593458
 31
0.0
  0
ARC
  5
166
330
AF
100
AcDbEntity
  8
$DDT_AUDIT_GENERATED_(8D)
  6
Continuous
 62
     7
100
AcDbCircle
 10
108.9278093981
 20
304.014772363
 30
0.0
 40
2.320967980972889
100
AcDbArc
 50
358.7100428774
 51
1.2899571226
  0
ELLIPSE
  5
167
330
AF
100
AcDbEntity
  8
$DDT_AUDIT_GENERATED_(8D)
  6
Continuous
 62
     7
100
AcDbEllipse
 10
102.7487774332
 20
304.014772363
 30
0.0
 11
8.500000000026471
 21
2.636779683484747E-12
 31
0.0
210
0.0
220
0.0
230
1.0
 40
0.5224985647
 41
0.0117649772880176
 42
0.2500344105105095
  0
ARC
  5
168
330
AF
100
AcDbEntity
  8
$DDT_AUDIT_GENERATED_(8D)
  6
Continuous
 62
     7
100
AcDbCircle
 10
107.2919161115
 20
304.014772363
 30
0.0
 40
1.706861185427728
100
AcDbArc
 50
0.0
 51
1.7541930364
  0
LINE
  5
169
330
AF
100
AcDbEntity
  8
$DDT_AUDIT_GENERATED_(8D)
  6
Continuous
 62
     7
100
AcDbLine
 10
108.9987774333
 20
303.9625225065
 30
0.0
 11
111.2481891776
 21
303.9625225065
 31
0.0
  0
LINE
  5
16A
330
AF
100
AcDbEntity
  8
$DDT_AUDIT_GENERATED_(8D)
  6
Continuous
 62
     7
100
AcDbLine
 10
108.9979773821
 20
304.0670222195
 30
0.0
 11
111.2481891776
 21
304.0670222195
 31
0.0
  0
LINE
  5
16B
330
AF
100
AcDbEntity
  8
$DDT_AUDIT_GENERATED_(8D)
  6
Continuous
 62
     7
100
AcDbLine
 10
108.9979773821
 20
304.0670222195
 30
0.0
 11
108.9979773821
 21
304.8355864994
 31
0.0
  0
ELLIPSE
  5
16C
330
AF
100
AcDbEntity
  8
$DDT_AUDIT_GENERATED_(8D)
  6
Continuous
 62
     7
100
AcDbEllipse
 10
102.7487779221
 20
304.0147722945
 30
0.0
 11
8.4999995109041
 21
9.102279346917541E-8
 31
0.0
210
0.0
220
0.0
230
1.0
 40
0.5224985782
 41
-0.2735643784744921
 42
-0.2500344231978415
  0
ELLIPSE
  5
16D
330
AF
100
AcDbEntity
  8
$DDT_AUDIT_GENERATED_(8D)
  6
Continuous
 62
     7
100
AcDbEllipse
 10
102.7487774333
 20
304.014772363
 30
0.0
 11
8.499999999996449
 21
5.481726184086710E-13
 31
0.0
210
0.0
220
0.0
230
1.0
 40
0.5224985647
 41
6.033150896668448
 42
6.271420329891446
  0
LINE
  5
16E
330
AF
100
AcDbEntity
  8
$DDT_AUDIT_GENERATED_(8D)
  6
Continuous
 62
     7
100
AcDbLine
 10
110.9844606499
 20
302.9158444736
 30
0.0
 11
110.9844606499
 21
303.9625225065
 31
0.0
  0
LINE
  5
16F
330
AF
100
AcDbEntity
  8
$DDT_AUDIT_GENERATED_(8D)
  6
Continuous
 62
     7
100
AcDbLine
 10
108.837943175
 20
303.1081774429
 30
0.0
 11
110.9326968409
 21
302.814905502
 31
0.0
  0
LINE
  5
170
330
AF
100
AcDbEntity
  8
$DDT_AUDIT_GENERATED_(8D)
  6
Continuous
 62
     7
100
AcDbLine
 10
108.8799490638
 20
303.2104825533
 30
0.0
 11
110.9844606499
 21
302.9158444736
 31
0.0
  0
ELLIPSE
  5
171
330
AF
100
AcDbEntity
  8
$DDT_AUDIT_GENERATED_(8D)
  6
Continuous
 62
     7
100
AcDbEllipse
 10
102.7487778418
 20
304.0147722398
 30
0.0
 11
8.499999587256516
 21
1.467993782089394E-7
 31
0.0
210
0.0
220
0.0
230
1.0
 40
0.522498572
 41
-0.5353637742524899
 42
-0.511833819023412
  0
ELLIPSE
  5
172
330
AF
100
AcDbEntity
  8
$DDT_AUDIT_GENERATED_(8D)
  6
Continuous
 62
     7
100
AcDbEllipse
 10
102.7487774333
 20
304.014772363
 30
0.0
 11
8.499999999996374
 21
8.187894806610529E-13
 31
0.0
210
0.0
220
0.0
230
1.0
 40
0.5224985647
 41
5.771351508869215
 42
6.009620942092242
  0
LINE
  5
173
330
AF
100
AcDbEntity
  8
$DDT_AUDIT_GENERATED_(8D)
  6
Continuous
 62
     7
100
AcDbLine
 10
110.1594839211
 20
301.8395568474
 30
0.0
 11
110.1594839211
 21
302.9231576834
 31
0.0
  0
LINE
  5
174
330
AF
100
AcDbEntity
  8
$DDT_AUDIT_GENERATED_(8D)
  6
Continuous
 62
     7
100
AcDbLine
 10
108.2504470219
 20
302.2947799912
 30
0.0
 11
110.0594839211
 21
301.7490574413
 31
0.0
  0
LINE
  5
175
330
AF
100
AcDbEntity
  8
$DDT_AUDIT_GENERATED_(8D)
  6
Continuous
 62
     7
100
AcDbLine
 10
108.3426051039
 20
302.3876450271
 30
0.0
 11
110.1594839211
 21
301.8395568474
 31
0.0
  0
ELLIPSE
  5
176
330
AF
100
AcDbEntity
  8
$DDT_AUDIT_GENERATED_(8D)
  6
Continuous
 62
     7
100
AcDbEllipse
 10
102.7487777419
 20
304.0147722018
 30
0.0
 11
8.499999672695361
 21
1.568117094508104E-7
 31
0.0
210
0.0
220
0.0
230
0.9999999999999999
 40
0.5224985647
 41
-0.7971631634669825
 42
-0.77363320828686
  0
ELLIPSE
  5
177
330
AF
100
AcDbEntity
  8
$DDT_AUDIT_GENERATED_(8D)
  6
Continuous
 62
     7
100
AcDbEllipse
 10
102.7487774333
 20
304.014772363
 30
0.0
 11
8.499999999998252
 21
6.800116025829084E-13
 31
0.0
210
0.0
220
0.0
230
1.0
 40
0.5224985647
 41
-0.7736331861094818
 42
-0.5353637528864859
  0
LINE
  5
178
330
AF
100
AcDbEntity
  8
$DDT_AUDIT_GENERATED_(8D)
  6
Continuous
 62
     7
100
AcDbLine
 10
108.8294797919
 20
300.9115065638
 30
0.0
 11
108.8294797919
 21
302.1201062519
 31
0.0
  0
LINE
  5
179
330
AF
100
AcDbEntity
  8
$DDT_AUDIT_GENERATED_(8D)
  6
Continuous
 62
     7
100
AcDbLine
 10
107.259701705
 20
301.5839284498
 30
0.0
 11
108.6880584357
 21
300.8376141081
 31
0.0
  0
LINE
  5
17A
330
AF
100
AcDbEntity
  8
$DDT_AUDIT_GENERATED_(8D)
  6
Continuous
 62
     7
100
AcDbLine
 10
107.3958969015
 20
301.6605515664
 30
0.0
 11
108.8294797919
 21
300.9115065638
 31
0.0
  0
ELLIPSE
  5
17B
330
AF
100
AcDbEntity
  8
$DDT_AUDIT_GENERATED_(8D)
  6
Continuous
 62
     7
100
AcDbEllipse
 10
102.7487776609
 20
304.014772157
 30
0.0
 11
8.499999715530528
 21
1.416712094859385E-7
 31
0.0
210
0.0
220
0.0
230
1.0
 40
0.5224985577
 41
-1.058962549105466
 42
-1.035432593899309
  0
ELLIPSE
  5
17C
330
AF
100
AcDbEntity
  8
$DDT_AUDIT_GENERATED_(8D)
  6
Continuous
 62
     7
100
AcDbEllipse
 10
102.7487774333
 20
304.014772363
 30
0.0
 11
8.500000000017751
 21
-9.360567876370851E-12
 31
0.0
210
0.0
220
0.0
230
1.0
 40
0.5224985647
 41
-1.035432573907011
 42
-0.7971631406843986
  0
LINE
  5
17D
330
AF
100
AcDbEntity
  8
$DDT_AUDIT_GENERATED_(8D)
  6
Continuous
 62
     7
100
AcDbLine
 10
107.0850858458
 20
300.194938716
 30
0.0
 11
107.0850858458
 21
301.492482449
 31
0.0
  0
LINE
  5
17E
330
AF
100
AcDbEntity
  8
$DDT_AUDIT_GENERATED_(8D)
  6
Continuous
 62
     7
100
AcDbLine
 10
105.9283376958
 20
301.032789496
 30
0.0
 11
106.9118807651
 21
300.1426888596
 31
0.0
  0
LINE
  5
17F
330
AF
100
AcDbEntity
  8
$DDT_AUDIT_GENERATED_(8D)
  6
Continuous
 62
     7
100
AcDbLine
 10
106.0989305886
 20
301.087403367
 30
0.0
 11
107.0850858458
 21
300.194938716
 31
0.0
  0
ELLIPSE
  5
180
330
AF
100
AcDbEntity
  8
$DDT_AUDIT_GENERATED_(8D)
  6
Continuous
 62
     7
100
AcDbEllipse
 10
102.7487775487
 20
304.0147721381
 30
0.0
 11
8.499999762231761
 21
8.012082663988451E-8
 31
0.0
210
0.0
220
0.0
230
1.0
 40
0.5224985529
 41
-1.320761928079194
 42
-1.29723197288616
  0
ELLIPSE
  5
181
330
AF
100
AcDbEntity
  8
$DDT_AUDIT_GENERATED_(8D)
  6
Continuous
 62
     7
100
AcDbEllipse
 10
102.7487774333
 20
304.014772363
 30
0.0
 11
8.499999999993213
 21
3.025357742103552E-12
 31
0.0
210
0.0
220
0.0
230
1.0
 40
0.5224985647
 41
4.985953345471427
 42
5.224222778694561
  0
LINE
  5
182
330
AF
100
AcDbEntity
  8
$DDT_AUDIT_GENERATED_(8D)
  6
Continuous
 62
     7
100
AcDbLine
 10
105.0451796475
 20
299.7386862188
 30
0.0
 11
105.0451796475
 21
300.8070470089
 31
0.0
  0
LINE
  5
183
330
AF
100
AcDbEntity
  8
$DDT_AUDIT_GENERATED_(8D)
  6
Continuous
 62
     7
100
AcDbLine
 10
104.3513914737
 20
300.6878111595
 30
0.0
 11
104.8519944823
 21
299.7116397028
 31
0.0
  0
LINE
  5
184
330
AF
100
AcDbEntity
  8
$DDT_AUDIT_GENERATED_(8D)
  6
Continuous
 62
     7
100
AcDbLine
 10
104.5438768801
 20
300.716222199
 30
0.0
 11
105.0451796475
 21
299.7386862188
 31
0.0
  0
ARC
  5
185
330
AF
100
AcDbEntity
  8
$DDT_AUDIT_GENERATED_(8D)
  6
Continuous
 62
     7
100
AcDbCircle
 10
102.7487774333
 20
311.315470063
 30
0.0
 40
10.04381547279807
100
AcDbArc
 50
269.0016474478
 51
270.9983525522
  0
LINE
  5
186
330
AF
100
AcDbEntity
  8
$DDT_AUDIT_GENERATED_(8D)
  6
Continuous
 62
     7
100
AcDbLine
 10
102.5737774333
 20
302.4102855956
 30
0.0
 11
102.5737774333
 21
301.2731792759
 31
0.0
  0
LINE
  5
187
330
AF
100
AcDbEntity
  8
$DDT_AUDIT_GENERATED_(8D)
  6
Continuous
 62
     7
100
AcDbLine
 10
102.9237774333
 20
302.4102855956
 30
0.0
 11
102.9237774333
 21
301.2731792759
 31
0.0
  0
ELLIPSE
  5
188
330
AF
100
AcDbEntity
  8
$DDT_AUDIT_GENERATED_(8D)
  6
Continuous
 62
     7
100
AcDbEllipse
 10
102.7487774332
 20
304.0147723629
 30
0.0
 11
-5.249999999916528
 21
4.079375726107060E-11
 31
0.0
210
0.0
220
0.0
230
1.0
 40
0.5224985647
 41
1.013858041944027
 42
1.080537060467486
  0
LINE
  5
189
330
AF
100
AcDbEntity
  8
$DDT_AUDIT_GENERATED_(8D)
  6
Continuous
 62
     7
100
AcDbLine
 10
101.0913372966
 20
302.6976733805
 30
0.0
 11
99.9736817263
 21
301.6862017272
 31
0.0
  0
LINE
  5
18A
330
AF
100
AcDbEntity
  8
$DDT_AUDIT_GENERATED_(8D)
  6
Continuous
 62
     7
100
AcDbLine
 10
101.3840220674
 20
302.5968023645
 30
0.0
 11
100.2767906176
 21
301.5947644784
 31
0.0
  0
LINE
  5
18B
330
AF
100
AcDbEntity
  8
$DDT_AUDIT_GENERATED_(8D)
  6
Continuous
 62
     7
100
AcDbLine
 10
99.9736817263
 20
303.0720413447
 30
0.0
 11
99.9736817263
 21
301.6862017272
 31
0.0
  0
ELLIPSE
  5
18C
330
AF
100
AcDbEntity
  8
$DDT_AUDIT_GENERATED_(8D)
  6
Continuous
 62
     7
100
AcDbEllipse
 10
102.7487774313
 20
304.0147723624
 30
0.0
 11
-5.249999997994265
 21
7.123537870690200E-10
 31
0.0
210
0.0
220
0.0
230
1.0
 40
0.5224985648
 41
0.4902592664952468
 42
0.556938285032401
  0
LINE
  5
18D
330
AF
100
AcDbEntity
  8
$DDT_AUDIT_GENERATED_(8D)
  6
Continuous
 62
     7
100
AcDbLine
 10
100.1715946977
 20
303.3429099802
 30
0.0
 11
98.1171706729
 21
302.7231627998
 31
0.0
  0
LINE
  5
18E
330
AF
100
AcDbEntity
  8
$DDT_AUDIT_GENERATED_(8D)
  6
Continuous
 62
     7
100
AcDbLine
 10
100.3152103204
 20
303.1750684612
 30
0.0
 11
98.2921706729
 21
302.5647888391
 31
0.0
  0
LINE
  5
18F
330
AF
100
AcDbEntity
  8
$DDT_AUDIT_GENERATED_(8D)
  6
Continuous
 62
     7
100
AcDbLine
 10
98.1171706729
 20
303.9233351142
 30
0.0
 11
98.1171706729
 21
302.7231627998
 31
0.0
  0
LINE
  5
190
330
AF
100
AcDbEntity
  8
$DDT_AUDIT_GENERATED_(8D)
  6
Continuous
 62
     7
100
AcDbLine
 10
100.0043512637
 20
304.7370861839
 30
0.0
 11
100.0043512637
 21
304.1062096118
 31
0.0
  0
ELLIPSE
  5
191
330
AF
100
AcDbEntity
  8
$DDT_AUDIT_GENERATED_(8D)
  6
Continuous
 62
     7
100
AcDbEllipse
 10
102.7487774333
 20
304.014772363
 30
0.0
 11
2.750000000002041
 21
1.172673069760322E-12
 31
0.0
210
0.0
220
0.0
230
1.0
 40
0.5224985647
 41
3.077913261332552
 42
3.141592653589793
  0
LINE
  5
192
330
AF
100
AcDbEntity
  8
$DDT_AUDIT_GENERATED_(8D)
  6
Continuous
 62
     7
100
AcDbLine
 10
100.0043512637
 20
304.1062096118
 30
0.0
 11
97.5227724787
 21
304.1062096118
 31
0.0
  0
LINE
  5
193
330
AF
100
AcDbEntity
  8
$DDT_AUDIT_GENERATED_(8D)
  6
Continuous
 62
     7
100
AcDbLine
 10
99.9987774333
 20
303.9233351142
 30
0.0
 11
97.5016949106
 21
303.9233351142
 31
0.0
  0
LINE
  5
194
330
AF
100
AcDbEntity
  8
$DDT_AUDIT_GENERATED_(8D)
  6
Continuous
 62
     7
100
AcDbLine
 10
100.4595346517
 20
305.9036489868
 30
0.0
 11
100.4595346517
 21
304.8109387106
 31
0.0
  0
ELLIPSE
  5
195
330
AF
100
AcDbEntity
  8
$DDT_AUDIT_GENERATED_(8D)
  6
Continuous
 62
     7
100
AcDbEllipse
 10
102.7487774333
 20
304.014772363
 30
0.0
 11
-2.750000000069111
 21
2.376571162088226E-11
 31
0.0
210
0.0
220
0.0
230
1.0
 40
0.5224985647
 41
-0.5872781678436692
 42
-0.4599193833314654
  0
LINE
  5
196
330
AF
100
AcDbEntity
  8
$DDT_AUDIT_GENERATED_(8D)
  6
Continuous
 62
     7
100
AcDbLine
 10
100.4595346517
 20
304.8109387106
 30
0.0
 11
98.4482737391
 21
305.4176651043
 31
0.0
  0
LINE
  5
197
330
AF
100
AcDbEntity
  8
$DDT_AUDIT_GENERATED_(8D)
  6
Continuous
 62
     7
100
AcDbLine
 10
100.2845346517
 20
304.6525647499
 30
0.0
 11
98.256922382
 21
305.2642237706
 31
0.0
  0
LINE
  5
198
330
AF
100
AcDbEntity
  8
$DDT_AUDIT_GENERATED_(8D)
  6
Continuous
 62
     7
100
AcDbLine
 10
101.5281187942
 20
306.5121862891
 30
0.0
 11
101.5281187942
 21
305.3023356795
 31
0.0
  0
ELLIPSE
  5
199
330
AF
100
AcDbEntity
  8
$DDT_AUDIT_GENERATED_(8D)
  6
Continuous
 62
     7
100
AcDbEllipse
 10
102.7487774332
 20
304.014772363
 30
0.0
 11
-2.749999999930847
 21
-3.393119119010635E-11
 31
0.0
210
0.0
220
0.0
230
1.0
 40
0.5224985647
 41
-1.110876943470029
 42
-0.9835181589534274
  0
LINE
  5
19A
330
AF
100
AcDbEntity
  8
$DDT_AUDIT_GENERATED_(8D)
  6
Continuous
 62
     7
100
AcDbLine
 10
101.5281187942
 20
305.3023356795
 30
0.0
 11
100.4221061947
 21
306.3032705134
 31
0.0
  0
LINE
  5
19B
330
AF
100
AcDbEntity
  8
$DDT_AUDIT_GENERATED_(8D)
  6
Continuous
 62
     7
100
AcDbLine
 10
101.2250099028
 20
305.2108984307
 30
0.0
 11
100.1135521364
 21
306.2167611083
 31
0.0
  0
ARC
  5
19C
330
AF
100
AcDbEntity
  8
$DDT_AUDIT_GENERATED_(8D)
  6
Continuous
 62
     7
100
AcDbCircle
 10
102.7487774333
 20
300.1962263925
 30
0.0
 40
5.255419172255412
100
AcDbArc
 50
88.0917572906
 51
91.9082427094
  0
LINE
  5
19D
330
AF
100
AcDbEntity
  8
$DDT_AUDIT_GENERATED_(8D)
  6
Continuous
 62
     7
100
AcDbLine
 10
102.9237774333
 20
305.4487310975
 30
0.0
 11
102.9237774333
 21
306.5858374172
 31
0.0
  0
LINE
  5
19E
330
AF
100
AcDbEntity
  8
$DDT_AUDIT_GENERATED_(8D)
  6
Continuous
 62
     7
100
AcDbLine
 10
102.5737774333
 20
305.4487310975
 30
0.0
 11
102.5737774333
 21
306.5858374172
 31
0.0
  0
ELLIPSE
  5
19F
330
AF
100
AcDbEntity
  8
$DDT_AUDIT_GENERATED_(8D)
  6
Continuous
 62
     7
100
AcDbEllipse
 10
102.7487774332
 20
304.014772363
 30
0.0
 11
2.750000000050001
 21
2.453592884421596E-11
 31
0.0
210
0.0
220
0.0
230
1.0
 40
0.5224985647
 41
0.9835181589294253
 42
1.110876943441624
  0
LINE
  5
1A0
330
AF
100
AcDbEntity
  8
$DDT_AUDIT_GENERATED_(8D)
  6
Continuous
 62
     7
100
AcDbLine
 10
103.9694360724
 20
306.5121862891
 30
0.0
 11
103.9694360724
 21
305.3023356795
 31
0.0
  0
LINE
  5
1A1
330
AF
100
AcDbEntity
  8
$DDT_AUDIT_GENERATED_(8D)
  6
Continuous
 62
     7
100
AcDbLine
 10
104.2725449637
 20
305.2108984307
 30
0.0
 11
105.3840027301
 21
306.2167611083
 31
0.0
  0
LINE
  5
1A2
330
AF
100
AcDbEntity
  8
$DDT_AUDIT_GENERATED_(8D)
  6
Continuous
 62
     7
100
AcDbLine
 10
103.9694360724
 20
305.3023356795
 30
0.0
 11
105.0754486718
 21
306.3032705134
 31
0.0
  0
ELLIPSE
  5
1A3
330
AF
100
AcDbEntity
  8
$DDT_AUDIT_GENERATED_(8D)
  6
Continuous
 62
     7
100
AcDbEllipse
 10
102.7487774333
 20
304.014772363
 30
0.0
 11
2.74999999999498
 21
-2.657596365196468E-12
 31
0.0
210
0.0
220
0.0
230
1.0
 40
0.5224985647
 41
0.4599193833421728
 42
0.5872781678563234
  0
LINE
  5
1A4
330
AF
100
AcDbEntity
  8
$DDT_AUDIT_GENERATED_(8D)
  6
Continuous
 62
     7
100
AcDbLine
 10
105.0380202149
 20
305.9036489868
 30
0.0
 11
105.0380202149
 21
304.8109387106
 31
0.0
  0
LINE
  5
1A5
330
AF
100
AcDbEntity
  8
$DDT_AUDIT_GENERATED_(8D)
  6
Continuous
 62
     7
100
AcDbLine
 10
105.2130202149
 20
304.6525647499
 30
0.0
 11
107.2406324846
 21
305.2642237706
 31
0.0
  0
LINE
  5
1A6
330
AF
100
AcDbEntity
  8
$DDT_AUDIT_GENERATED_(8D)
  6
Continuous
 62
     7
100
AcDbLine
 10
105.0380202149
 20
304.8109387106
 30
0.0
 11
107.0492811275
 21
305.4176651043
 31
0.0
  0
ELLIPSE
  5
1A7
330
AF
100
AcDbEntity
  8
$DDT_AUDIT_GENERATED_(8D)
  6
Continuous
 62
     7
100
AcDbEllipse
 10
102.7487774333
 20
304.014772363
 30
0.0
 11
-2.750000000000076
 21
-1.172673069760322E-12
 31
0.0
210
0.0
220
0.0
230
1.0
 40
0.5224985647
 41
3.141592653589793
 42
3.205272045846594
  0
LINE
  5
1A8
330
AF
100
AcDbEntity
  8
$DDT_AUDIT_GENERATED_(8D)
  6
Continuous
 62
     7
100
AcDbLine
 10
105.4932036028
 20
304.7370861839
 30
0.0
 11
105.4932036028
 21
304.1062096118
 31
0.0
  0
LINE
  5
1A9
330
AF
100
AcDbEntity
  8
$DDT_AUDIT_GENERATED_(8D)
  6
Continuous
 62
     7
100
AcDbLine
 10
105.4987774333
 20
303.9233351142
 30
0.0
 11
107.995859956
 21
303.9233351142
 31
0.0
  0
LINE
  5
1AA
330
AF
100
AcDbEntity
  8
$DDT_AUDIT_GENERATED_(8D)
  6
Continuous
 62
     7
100
AcDbLine
 10
105.4932036028
 20
304.1062096118
 30
0.0
 11
107.9747823878
 21
304.1062096118
 31
0.0
  0
ELLIPSE
  5
1AB
330
AF
100
AcDbEntity
  8
$DDT_AUDIT_GENERATED_(8D)
  6
Continuous
 62
     7
100
AcDbEllipse
 10
102.7487774364
 20
304.014772362
 30
0.0
 11
5.249999996843949
 21
1.125266546608827E-9
 31
0.0
210
0.0
220
0.0
230
1.0
 40
0.5224985648
 41
-0.5569382851318245
 42
-0.4902592665863112
  0
LINE
  5
1AC
330
AF
100
AcDbEntity
  8
$DDT_AUDIT_GENERATED_(8D)
  6
Continuous
 62
     7
100
AcDbLine
 10
105.1823445462
 20
303.1750684612
 30
0.0
 11
107.2053841937
 21
302.5647888391
 31
0.0
  0
LINE
  5
1AD
330
AF
100
AcDbEntity
  8
$DDT_AUDIT_GENERATED_(8D)
  6
Continuous
 62
     7
100
AcDbLine
 10
105.3259601688
 20
303.3429099802
 30
0.0
 11
107.3803841937
 21
302.7231627998
 31
0.0
  0
LINE
  5
1AE
330
AF
100
AcDbEntity
  8
$DDT_AUDIT_GENERATED_(8D)
  6
Continuous
 62
     7
100
AcDbLine
 10
107.3803841937
 20
303.9233351142
 30
0.0
 11
107.3803841937
 21
302.7231627998
 31
0.0
  0
ELLIPSE
  5
1AF
330
AF
100
AcDbEntity
  8
$DDT_AUDIT_GENERATED_(8D)
  6
Continuous
 62
     7
100
AcDbEllipse
 10
102.7487774344
 20
304.014772362
 30
0.0
 11
5.249999998640565
 21
6.767503224480721E-10
 31
0.0
210
0.0
220
0.0
230
1.0
 40
0.5224985647
 41
-1.080537060621761
 42
-1.013858042085332
  0
LINE
  5
1B0
330
AF
100
AcDbEntity
  8
$DDT_AUDIT_GENERATED_(8D)
  6
Continuous
 62
     7
100
AcDbLine
 10
104.1135327992
 20
302.5968023645
 30
0.0
 11
105.220764249
 21
301.5947644784
 31
0.0
  0
LINE
  5
1B1
330
AF
100
AcDbEntity
  8
$DDT_AUDIT_GENERATED_(8D)
  6
Continuous
 62
     7
100
AcDbLine
 10
104.40621757
 20
302.6976733805
 30
0.0
 11
105.5238731403
 21
301.6862017272
 31
0.0
  0
LINE
  5
1B2
330
AF
100
AcDbEntity
  8
$DDT_AUDIT_GENERATED_(8D)
  6
Continuous
 62
     7
100
AcDbLine
 10
105.5238731403
 20
303.0720413447
 30
0.0
 11
105.5238731403
 21
301.6862017272
 31
0.0
  0
LINE
  5
1B3
330
AF
100
AcDbEntity
  8
$DDT_AUDIT_GENERATED_(8D)
  6
Continuous
 62
     7
100
AcDbLine
 10
93.7487774333
 20
306.1463727739
 30
0.0
 11
93.7487774333
 21
303.8442443301
 31
0.0
  0
LINE
  5
1B4
330
AF
100
AcDbEntity
  8
$DDT_AUDIT_GENERATED_(8D)
  6
Continuous
 62
     7
100
AcDbLine
 10
111.7487774333
 20
303.8442443301
 30
0.0
 11
111.7487774333
 21
306.1463727739
 31
0.0
  0
LINE
  5
1B5
330
AF
100
AcDbEntity
  8
$DDT_AUDIT_GENERATED_(8D)
  6
Continuous
 62
     7
100
AcDbLine
 10
96.4987774333
 20
304.014772363
 30
0.0
 11
96.4987774333
 21
303.8442443301
 31
0.0
  0
LINE
  5
1B6
330
AF
100
AcDbEntity
  8
$DDT_AUDIT_GENERATED_(8D)
  6
Continuous
 62
     7
100
AcDbLine
 10
108.9987774333
 20
303.8442443301
 30
0.0
 11
108.9987774333
 21
304.014772363
 31
0.0
  0
LINE
  5
1B7
330
AF
100
AcDbEntity
  8
$DDT_AUDIT_GENERATED_(8D)
  6
Continuous
 62
     7
100
AcDbLine
 10
99.9987774333
 20
304.014772363
 30
0.0
 11
99.9987774333
 21
303.8442443301
 31
0.0
  0
LINE
  5
1B8
330
AF
100
AcDbEntity
  8
$DDT_AUDIT_GENERATED_(8D)
  6
Continuous
 62
     7
100
AcDbLine
 10
105.4987774333
 20
303.8442443301
 30
0.0
 11
105.4987774333
 21
304.014772363
 31
0.0
  0
LINE
  5
1B9
330
AF
100
AcDbEntity
  8
$DDT_AUDIT_GENERATED_(8D)
  6
Continuous
 62
     7
100
AcDbLine
 10
102.2291474894
 20
304.2315502596
 30
0.0
 11
102.2291474894
 21
304.014772363
 31
0.0
  0
LINE
  5
1BA
330
AF
100
AcDbEntity
  8
$DDT_AUDIT_GENERATED_(8D)
  6
Continuous
 62
     7
100
AcDbLine
 10
103.2684073772
 20
304.014772363
 30
0.0
 11
103.2684073772
 21
304.2315502596
 31
0.0
  0
LINE
  5
1BB
330
AF
100
AcDbEntity
  8
$DDT_AUDIT_GENERATED_(91)
  6
Continuous
 62
     7
100
AcDbLine
 10
102.7129035001
 20
363.9938660489
 30
0.0
 11
102.7136158635
 21
357.6115815028
 31
0.0
  0
ARC
  5
1BC
330
AF
100
AcDbEntity
  8
$DDT_AUDIT_GENERATED_(91)
  6
Continuous
 62
     7
100
AcDbCircle
 10
102.7531781773
 20
386.021010523
 30
0.0
 40
21.23602631164571
100
AcDbArc
 50
236.9878424061
 51
303.0237782462
  0
ARC
  5
1BD
330
AF
100
AcDbEntity
  8
$DDT_AUDIT_GENERATED_(91)
  6
Continuous
 62
     7
100
AcDbCircle
 10
102.7163033055
 20
749.6450937129
 30
0.0
 40
381.6059715621271
100
AcDbArc
 50
268.2681466731
 51
271.7434739792
  0
SPLINE
  5
1BE
330
AF
100
AcDbEntity
  8
$DDT_AUDIT_GENERATED_(91)
  6
Continuous
 62
     7
100
AcDbSpline
210
0.0
220
0.0
230
1.0
 70
     8
 71
     3
 72
     8
 73
     4
 74
     0
 42
0.0000000011410283
 43
0.0000000001
 40
0.0569315209953705
 40
0.0569315209953705
 40
0.0569315209953705
 40
0.0569315209953705
 40
0.0643087428092375
 40
0.0643087428092375
 40
0.0643087428092375
 40
0.0643087428092375
 10
86.49787016484206
 20
380.952736740732
 30
0.0
 10
86.51865778314183
 20
380.9588259393335
 30
0.0
 10
86.53942703689177
 20
380.9645759497188
 30
0.0
 10
86.56017508122424
 20
380.9699889938861
 30
0.0
  0
SPLINE
  5
1BF
330
AF
100
AcDbEntity
  8
$DDT_AUDIT_GENERATED_(91)
  6
Continuous
 62
     7
100
AcDbSpline
210
0.0
220
0.0
230
1.0
 70
     8
 71
     3
 72
    14
 73
    10
 74
     0
 42
0.0000000007670086
 43
0.0000000001
 40
0.0643087428092375
 40
0.0643087428092375
 40
0.0643087428092375
 40
0.0643087428092375
 40
0.2499999999999997
 40
0.2499999999999997
 40
0.4999999999999993
 40
0.4999999999999993
 40
0.7499999999999997
 40
0.7499999999999997
 40
1.0
 40
1.0
 40
1.0
 40
1.0
 10
86.56017508122424
 20
380.9699889938861
 30
0.0
 10
87.08242187460435
 20
381.1062401466942
 30
0.0
 10
87.59123093614447
 20
381.0289983225897
 30
0.0
 10
88.64708107499345
 20
380.4299844616994
 30
0.0
 10
89.13877640861023
 20
379.7613110579805
 30
0.0
 10
89.88820025013567
 20
377.9247060541666
 30
0.0
 10
90.15289256808059
 20
376.7547904766161
 30
0.0
 10
90.67784974529951
 20
374.0804293730423
 30
0.0
 10
90.9450692563318
 20
372.5761975437038
 30
0.0
 10
91.3241154027149
 20
370.955279088827
 30
0.0
  0
SPLINE
  5
1C0
330
AF
100
AcDbEntity
  8
$DDT_AUDIT_GENERATED_(91)
  6
Continuous
 62
     7
100
AcDbSpline
210
0.0
220
0.0
230
1.0
 70
     8
 71
     3
 72
    12
 73
     8
 74
     0
 42
0.0000000007620023
 43
0.0000000001
 40
0.0
 40
0.0
 40
0.0
 40
0.0
 40
0.5000000000000001
 40
0.5000000000000001
 40
0.75
 40
0.75
 40
0.9346632142530032
 40
0.9346632142530032
 40
0.9346632142530032
 40
0.9346632142530032
 10
114.1852697225817
 20
370.957692214696
 30
0.0
 10
114.9567306727672
 20
374.2108448853834
 30
0.0
 10
115.2667373776136
 20
377.0019138272376
 30
0.0
 10
116.4067794933756
 20
379.7509835173915
 30
0.0
 10
116.9051655350451
 20
380.4217858958078
 30
0.0
 10
117.9785982018649
 20
381.0200053405513
 30
0.0
 10
118.4956628591619
 20
381.0972068656964
 30
0.0
 10
119.028552554243
 20
380.9577209424541
 30
0.0
  0
SPLINE
  5
1C1
330
AF
100
AcDbEntity
  8
$DDT_AUDIT_GENERATED_(91)
  6
Continuous
 62
     7
100
AcDbSpline
210
0.0
220
0.0
230
1.0
 70
     8
 71
     3
 72
     8
 73
     4
 74
     0
 42
0.0000000011115786
 43
0.0000000001
 40
0.9346632142530032
 40
0.9346632142530032
 40
0.9346632142530032
 40
0.9346632142530032
 40
0.9421055338788786
 40
0.9421055338788786
 40
0.9421055338788786
 40
0.9421055338788786
 10
119.028552554243
 20
380.9577209424541
 30
0.0
 10
119.0500291404281
 20
380.95209936358
 30
0.0
 10
119.0715314306072
 20
380.9461258277037
 30
0.0
 10
119.093056465917
 20
380.9397977333856
 30
0.0
  0
ARC
  5
1C2
330
AF
100
AcDbEntity
  8
$DDT_AUDIT_GENERATED_(91)
  6
Continuous
 62
     7
100
AcDbCircle
 10
102.700389217
 20
885.4083762344
 30
0.0
 40
514.5788654507683
100
AcDbArc
 50
268.7332056789
 51
271.2788901169
  0
ARC
  5
1C3
330
AF
100
AcDbEntity
  8
$DDT_AUDIT_GENERATED_(91)
  6
Continuous
 62
     7
100
AcDbCircle
 10
102.8182081478
 20
397.5047612562
 30
0.0
 40
25.98693938451828
100
AcDbArc
 50
227.9008220485
 51
236.7952161724
  0
ARC
  5
1C4
330
AF
100
AcDbEntity
  8
$DDT_AUDIT_GENERATED_(91)
  6
Continuous
 62
     7
100
AcDbCircle
 10
102.8182081478
 20
397.5047612562
 30
0.0
 40
25.98693938451828
100
AcDbArc
 50
302.8835463518
 51
312.0264326907
  0
SPLINE
  5
1C5
330
AF
100
AcDbEntity
  8
$DDT_AUDIT_GENERATED_(91)
  6
Continuous
 62
     7
100
AcDbSpline
210
0.0
220
0.0
230
1.0
 70
     8
 71
     3
 72
     8
 73
     4
 74
     0
 42
0.0000000011280928
 43
0.0000000001
 40
0.7288537068217893
 40
0.7288537068217893
 40
0.7288537068217893
 40
0.7288537068217893
 40
0.7463381876162644
 40
0.7463381876162644
 40
0.7463381876162644
 40
0.7463381876162644
 10
87.66064725569214
 20
378.0030845233423
 30
0.0
 10
87.61822738882644
 20
378.0331359678654
 30
0.0
 10
87.57518439196845
 20
378.0616902047726
 30
0.0
 10
87.53152049231169
 20
378.0887187399742
 30
0.0
  0
SPLINE
  5
1C6
330
AF
100
AcDbEntity
  8
$DDT_AUDIT_GENERATED_(91)
  6
Continuous
 62
     7
100
AcDbSpline
210
0.0
220
0.0
230
1.0
 70
     8
 71
     3
 72
    10
 73
     6
 74
     0
 42
0.0000000010948052
 43
0.0000000001
 40
0.7463381876162644
 40
0.7463381876162644
 40
0.7463381876162644
 40
0.7463381876162644
 40
0.75
 40
0.75
 40
1.0
 40
1.0
 40
1.0
 40
1.0
 10
87.53152049231169
 20
378.0887187399742
 30
0.0
 10
87.52237586798083
 20
378.0943793841809
 30
0.0
 10
87.51320400972011
 20
378.0999731083263
 30
0.0
 10
86.87596404133558
 20
378.4828088732781
 30
0.0
 10
86.13223472807866
 20
378.5493735709094
 30
0.0
 10
85.3959731563658
 20
378.2229888667759
 30
0.0
  0
SPLINE
  5
1C7
330
AF
100
AcDbEntity
  8
$DDT_AUDIT_GENERATED_(91)
  6
Continuous
 62
     7
100
AcDbSpline
210
0.0
220
0.0
230
1.0
 70
     8
 71
     3
 72
    10
 73
     6
 74
     0
 42
0.0000000010811859
 43
0.0000000001
 40
0.0
 40
0.0
 40
0.0
 40
0.0
 40
0.2499999999999999
 40
0.2499999999999999
 40
0.2755050742825645
 40
0.2755050742825645
 40
0.2755050742825645
 40
0.2755050742825645
 10
120.2160770741462
 20
378.2010006019298
 30
0.0
 10
119.4662609950076
 20
378.5377556537219
 30
0.0
 10
118.7099654427091
 20
378.4770315453942
 30
0.0
 10
118.0061037872469
 20
378.0667792347066
 30
0.0
 10
117.9422530293351
 20
378.0254923816374
 30
0.0
 10
117.8797239152055
 20
377.9809910544168
 30
0.0
  0
ARC
  5
1C8
330
AF
100
AcDbEntity
  8
$DDT_AUDIT_GENERATED_(91)
  6
Continuous
 62
     7
100
AcDbCircle
 10
89.313244793
 20
357.1176295129
 30
0.0
 40
21.46581492822636
100
AcDbArc
 50
100.5147613001
 51
112.5313028911
  0
ARC
  5
1C9
330
AF
100
AcDbEntity
  8
$DDT_AUDIT_GENERATED_(91)
  6
Continuous
 62
     7
100
AcDbCircle
 10
116.2076020179
 20
357.0585975948
 30
0.0
 40
21.51903987620592
100
AcDbArc
 50
67.2867950239
 51
79.2644801484
  0
ARC
  5
1CA
330
AF
100
AcDbEntity
  8
$DDT_AUDIT_GENERATED_(91)
  6
Continuous
 62
     7
100
AcDbCircle
 10
-83.0478437619
 20
347.1015045279
 30
0.0
 40
213.0466182065523
100
AcDbArc
 50
0.0999740322
 51
6.8288538255
  0
ARC
  5
1CB
330
AF
100
AcDbEntity
  8
$DDT_AUDIT_GENERATED_(91)
  6
Continuous
 62
     7
100
AcDbCircle
 10
121.3031297525
 20
370.0583010241
 30
0.0
 40
7.566726417309789
100
AcDbArc
 50
18.2952518846
 51
64.8701125055
  0
ARC
  5
1CC
330
AF
100
AcDbEntity
  8
$DDT_AUDIT_GENERATED_(91)
  6
Continuous
 62
     7
100
AcDbCircle
 10
288.5029644659
 20
347.2094170817
 30
0.0
 40
213.0041646552507
100
AcDbArc
 50
173.2195040422
 51
179.7847995203
  0
ARC
  5
1CD
330
AF
100
AcDbEntity
  8
$DDT_AUDIT_GENERATED_(91)
  6
Continuous
 62
     7
100
AcDbCircle
 10
288.5029644659
 20
347.2094170817
 30
0.0
 40
213.0041646552507
100
AcDbArc
 50
179.7847995203
 51
179.8868265691
  0
SPLINE
  5
1CE
330
AF
100
AcDbEntity
  8
$DDT_AUDIT_GENERATED_(91)
  6
Continuous
 62
     7
100
AcDbSpline
210
0.0
220
0.0
230
1.0
 70
     8
 71
     3
 72
    12
 73
     8
 74
     0
 42
0.0000000015727614
 43
0.0000000001
 40
0.0
 40
0.0
 40
0.0
 40
0.0
 40
0.4999999999999998
 40
0.4999999999999998
 40
0.7499999999999999
 40
0.7499999999999999
 40
1.0
 40
1.0
 40
1.0
 40
1.0
 10
81.08779939334681
 20
376.9449656554229
 30
0.0
 10
79.86993166732199
 20
376.2554055882906
 30
0.0
 10
78.9554624585537
 20
375.541379850387
 30
0.0
 10
77.94932840381996
 20
374.400516914954
 30
0.0
 10
77.67405588816872
 20
374.0081247893988
 30
0.0
 10
77.24024746201249
 20
373.1983451888203
 30
0.0
 10
77.08245285886797
 20
372.7778080995955
 30
0.0
 10
76.98860281763656
 20
372.3579553494667
 30
0.0
  0
SPLINE
  5
1CF
330
AF
100
AcDbEntity
  8
$DDT_AUDIT_GENERATED_(91)
  6
Continuous
 62
     7
100
AcDbSpline
210
0.0
220
0.0
230
1.0
 70
     8
 71
     3
 72
     8
 73
     4
 74
     0
 42
0.0000000005738654
 43
0.0000000001
 40
0.969101240313685
 40
0.969101240313685
 40
0.969101240313685
 40
0.969101240313685
 40
1.0
 40
1.0
 40
1.0
 40
1.0
 10
128.5771055012752
 20
371.903332552997
 30
0.0
 10
128.5575759156848
 20
372.0819367523736
 30
0.0
 10
128.5277423939067
 20
372.2587258041936
 30
0.0
 10
128.4873694617813
 20
372.4336006839063
 30
0.0
  0
SPLINE
  5
1D0
330
AF
100
AcDbEntity
  8
$DDT_AUDIT_GENERATED_(91)
  6
Continuous
 62
     7
100
AcDbSpline
210
0.0
220
0.0
230
1.0
 70
     8
 71
     3
 72
     8
 73
     4
 74
     0
 42
0.0000000005733815
 43
0.0000000001
 40
0.0
 40
0.0
 40
0.0
 40
0.0
 40
0.0280379204395929
 40
0.0280379204395929
 40
0.0280379204395929
 40
0.0280379204395929
 10
76.98860281763656
 20
372.3579553494667
 30
0.0
 10
76.95322374341654
 20
372.1996592266661
 30
0.0
 10
76.92631243846064
 20
372.0387599656981
 30
0.0
 10
76.90785546171585
 20
371.8761474984458
 30
0.0
  0
ARC
  5
1D1
330
AF
100
AcDbEntity
  8
$DDT_AUDIT_GENERATED_(91)
  6
Continuous
 62
     7
100
AcDbCircle
 10
127.1261946795
 20
372.2988970414
 30
0.0
 40
1.367823767653228
100
AcDbArc
 50
5.651663901
 51
10.7765256096
  0
ARC
  5
1D2
330
AF
100
AcDbEntity
  8
$DDT_AUDIT_GENERATED_(91)
  6
Continuous
 62
     7
100
AcDbCircle
 10
127.1261946795
 20
372.2988970414
 30
0.0
 40
1.367823767653228
100
AcDbArc
 50
10.7765256096
 51
14.2726577773
  0
ARC
  5
1D3
330
AF
100
AcDbEntity
  8
$DDT_AUDIT_GENERATED_(91)
  6
Continuous
 62
     7
100
AcDbCircle
 10
78.3506477749
 20
372.2215779446
 30
0.0
 40
1.368855457037594
100
AcDbArc
 50
166.0961798302
 51
168.6695045694
  0
ARC
  5
1D4
330
AF
100
AcDbEntity
  8
$DDT_AUDIT_GENERATED_(91)
  6
Continuous
 62
     7
100
AcDbCircle
 10
78.3506477749
 20
372.2215779446
 30
0.0
 40
1.368855457037594
100
AcDbArc
 50
168.6695045694
 51
174.2822053754
  0
SPLINE
  5
1D5
330
AF
100
AcDbEntity
  8
$DDT_AUDIT_GENERATED_(91)
  6
Continuous
 62
     7
100
AcDbSpline
210
0.0
220
0.0
230
1.0
 70
     8
 71
     3
 72
    10
 73
     6
 74
     0
 42
0.0000000052966127
 43
0.0000000001
 40
0.0
 40
0.0
 40
0.0
 40
0.0
 40
0.5
 40
0.5
 40
0.7969229262709567
 40
0.7969229262709567
 40
0.7969229262709567
 40
0.7969229262709567
 10
124.5165046380393
 20
376.9088171009317
 30
0.0
 10
124.5738795091773
 20
377.2396203669574
 30
0.0
 10
124.5223092543248
 20
377.5731058743814
 30
0.0
 10
124.2848138519796
 20
377.9902986710606
 30
0.0
 10
124.1623562636804
 20
378.1197542287241
 30
0.0
 10
124.0173935218548
 20
378.2144361780735
 30
0.0
  0
SPLINE
  5
1D6
330
AF
100
AcDbEntity
  8
$DDT_AUDIT_GENERATED_(91)
  6
Continuous
 62
     7
100
AcDbSpline
210
0.0
220
0.0
230
1.0
 70
     8
 71
     3
 72
    10
 73
     6
 74
     0
 42
0.0000000052842172
 43
0.0000000001
 40
0.199527290183951
 40
0.199527290183951
 40
0.199527290183951
 40
0.199527290183951
 40
0.5
 40
0.5
 40
1.0
 40
1.0
 40
1.0
 40
1.0
 10
81.58685406226452
 20
378.259335332368
 30
0.0
 10
81.43981553668922
 20
378.1641745327506
 30
0.0
 10
81.31581270651097
 20
378.0330022719396
 30
0.0
 10
81.07870240354272
 20
377.6121396428882
 30
0.0
 10
81.0286304713024
 20
377.2770167200055
 30
0.0
 10
81.08779939334681
 20
376.9449656554229
 30
0.0
  0
ARC
  5
1D7
330
AF
100
AcDbEntity
  8
$DDT_AUDIT_GENERATED_(91)
  6
Continuous
 62
     7
100
AcDbCircle
 10
119.1941952836
 20
379.2893277556
 30
0.0
 40
1.49288257651968
100
AcDbArc
 50
313.1964907064
 51
60.5920096694
  0
ARC
  5
1D8
330
AF
100
AcDbEntity
  8
$DDT_AUDIT_GENERATED_(91)
  6
Continuous
 62
     7
100
AcDbCircle
 10
86.4173689706
 20
379.3122471891
 30
0.0
 40
1.493229085608077
100
AcDbArc
 50
119.185168924
 51
226.84156002
  0
ELLIPSE
  5
1D9
330
AF
100
AcDbEntity
  8
$DDT_AUDIT_GENERATED_(91)
  6
Continuous
 62
     7
100
AcDbEllipse
 10
113.9381006137
 20
369.5496986368
 30
0.0
 11
-1.461077094686462
 21
0.3394903877617234
 31
0.0
210
0.0
220
0.0
230
0.9999999999999999
 40
0.9528856692
 41
3.142023877162303
 42
4.764353324684496
  0
ELLIPSE
  5
1DA
330
AF
100
AcDbEntity
  8
$DDT_AUDIT_GENERATED_(91)
  6
Continuous
 62
     7
100
AcDbEllipse
 10
113.9381006137
 20
369.5496986368
 30
0.0
 11
-0.7992807891924851
 21
1.269310923307454
 31
0.0
210
0.0
220
0.0
230
0.9999999999999999
 40
0.5598520093
 41
2.669239523728063
 42
3.140878330302429
  0
ELLIPSE
  5
1DB
330
AF
100
AcDbEntity
  8
$DDT_AUDIT_GENERATED_(91)
  6
Continuous
 62
     7
100
AcDbEllipse
 10
91.5717995374
 20
369.5473865106
 30
0.0
 11
0.798820841893271
 21
1.269600434214188
 31
0.0
210
0.0
220
0.0
230
1.0
 40
0.5594653805
 41
3.142769959116134
 42
3.613752678493293
  0
ELLIPSE
  5
1DC
330
AF
100
AcDbEntity
  8
$DDT_AUDIT_GENERATED_(91)
  6
Continuous
 62
     7
100
AcDbEllipse
 10
91.5717995374
 20
369.5473865106
 30
0.0
 11
1.462111391815686
 21
0.3350078774040643
 31
0.0
210
0.0
220
0.0
230
1.0
 40
0.9528946775
 41
1.522104506638262
 42
3.145056704070782
  0
ELLIPSE
  5
1DD
330
AF
100
AcDbEntity
  8
$DDT_AUDIT_GENERATED_(91)
  6
Continuous
 62
     7
100
AcDbEllipse
 10
113.9381006137
 20
369.5496986368
 30
0.0
 11
0.03927033801337347
 21
-1.499485858737049
 31
0.0
210
0.0
220
0.0
230
1.0
 40
0.5299429063
 41
0.4606749171200863
 42
2.776320793993789
  0
ELLIPSE
  5
1DE
330
AF
100
AcDbEntity
  8
$DDT_AUDIT_GENERATED_(91)
  6
Continuous
 62
     7
100
AcDbEllipse
 10
91.5717995374
 20
369.5473865106
 30
0.0
 11
0.03895051555144816
 21
1.499494200501703
 31
0.0
210
0.0
220
0.0
230
1.0
 40
0.5302019739
 41
0.3653722728814924
 42
2.680854199714971
  0
LINE
  5
1DF
330
AF
100
AcDbEntity
  8
$DDT_AUDIT_GENERATED_(91)
  6
Continuous
 62
     7
100
AcDbLine
 10
102.7145037963
 20
351.0937778547
 30
0.0
 11
102.715887595
 21
342.7072652527
 31
0.0
  0
LINE
  5
1E0
330
AF
100
AcDbEntity
  8
$DDT_AUDIT_GENERATED_(91)
  6
Continuous
 62
     7
100
AcDbLine
 10
102.7136158635
 20
357.6115815028
 30
0.0
 11
102.6825293018
 21
357.6110214386
 31
0.0
  0
SPLINE
  5
1E1
330
AF
100
AcDbEntity
  8
$DDT_AUDIT_GENERATED_(91)
  6
Continuous
 62
     7
100
AcDbSpline
210
0.0
220
0.0
230
1.0
 70
     8
 71
     3
 72
    14
 73
    10
 74
     0
 42
0.0000000009636973
 43
0.0000000001
 40
0.0
 40
0.0
 40
0.0
 40
0.0
 40
0.25
 40
0.25
 40
0.5
 40
0.5
 40
0.75
 40
0.75
 40
1.0
 40
1.0
 40
1.0
 40
1.0
 10
102.7145037962832
 20
351.0937778547496
 30
0.0
 10
101.8437315373556
 20
351.1015712415743
 30
0.0
 10
101.00764511599
 20
351.4996029885808
 30
0.0
 10
99.84663937746053
 20
352.7368339403491
 30
0.0
 10
99.51138284162815
 20
353.5719723443566
 30
0.0
 10
99.48689327129756
 20
355.2230726743202
 30
0.0
 10
99.80046927033462
 20
356.0420397786444
 30
0.0
 10
100.9745178125629
 20
357.2362473909942
 30
0.0
 10
101.8123067397895
 20
357.5914343113297
 30
0.0
 10
102.6825293018451
 20
357.6110214385869
 30
0.0
  0
SPLINE
  5
1E2
330
AF
100
AcDbEntity
  8
$DDT_AUDIT_GENERATED_(91)
  6
Continuous
 62
     7
100
AcDbSpline
210
0.0
220
0.0
230
1.0
 70
     8
 71
     3
 72
    14
 73
    10
 74
     0
 42
0.0000000009467715
 43
0.0000000001
 40
0.0
 40
0.0
 40
0.0
 40
0.0
 40
0.25
 40
0.25
 40
0.5
 40
0.5
 40
0.75
 40
0.75
 40
1.0
 40
1.0
 40
1.0
 40
1.0
 10
102.7136158635399
 20
357.6115048766228
 30
0.0
 10
103.5986585551502
 20
357.6235569991626
 30
0.0
 10
104.465408048509
 20
357.2849883580132
 30
0.0
 10
105.6799740050341
 20
356.096786321939
 30
0.0
 10
106.0089974266429
 20
355.260865282571
 30
0.0
 10
105.9880471479963
 20
353.583699317239
 30
0.0
 10
105.6445911159906
 20
352.7328142986598
 30
0.0
 10
104.4536854591706
 20
351.4805230683923
 30
0.0
 10
103.6003878516319
 20
351.0858559663607
 30
0.0
 10
102.7145037962832
 20
351.0937778547496
 30
0.0
  0
SPLINE
  5
1E3
330
AF
100
AcDbEntity
  8
$DDT_AUDIT_GENERATED_(91)
  6
Continuous
 62
     7
100
AcDbSpline
210
0.0
220
0.0
230
1.0
 70
     8
 71
     3
 72
    12
 73
     8
 74
     0
 42
0.0000000002523145
 43
0.0000000001
 40
0.5904546614369834
 40
0.5904546614369834
 40
0.5904546614369834
 40
0.5904546614369834
 40
0.6250000000000002
 40
0.6250000000000002
 40
0.7500000000000001
 40
0.7500000000000001
 40
1.0
 40
1.0
 40
1.0
 40
1.0
 10
118.9075399256046
 20
343.4397308931553
 30
0.0
 10
118.5182417705724
 20
343.3891183399257
 30
0.0
 10
118.1201599697257
 20
343.3402259797803
 30
0.0
 10
116.2408247369912
 20
343.1224142883891
 30
0.0
 10
114.6722612438799
 20
342.9773480447743
 30
0.0
 10
109.8102557241321
 20
342.6282600760335
 30
0.0
 10
106.2740295454839
 20
342.5049418390388
 30
0.0
 10
102.716204109858
 20
342.5055999420232
 30
0.0
  0
SPLINE
  5
1E4
330
AF
100
AcDbEntity
  8
$DDT_AUDIT_GENERATED_(91)
  6
Continuous
 62
     7
100
AcDbSpline
210
0.0
220
0.0
230
1.0
 70
     8
 71
     3
 72
    14
 73
    10
 74
     0
 42
0.0000000002506399
 43
0.0000000001
 40
0.0
 40
0.0
 40
0.0
 40
0.0
 40
0.125
 40
0.125
 40
0.25
 40
0.25
 40
0.375
 40
0.375
 40
0.378288518258919
 40
0.378288518258919
 40
0.378288518258919
 40
0.378288518258919
 10
102.716204109858
 20
342.5055999420232
 30
0.0
 10
100.9372470038662
 20
342.5059292397025
 30
0.0
 10
99.18818483583809
 20
342.5365422313711
 30
0.0
 10
95.74740237524519
 20
342.6558557682408
 30
0.0
 10
94.03787946060834
 20
342.7459981523244
 30
0.0
 10
90.77789669452136
 20
342.9811373340445
 30
0.0
 10
89.23187316569455
 20
343.1249478797389
 30
0.0
 10
87.73056015715291
 20
343.2992251856313
 30
0.0
 10
87.69212952241831
 20
343.303711835958
 30
0.0
 10
87.65375377135993
 20
343.3082175766837
 30
0.0
  0
ARC
  5
1E5
330
AF
100
AcDbEntity
  8
$DDT_AUDIT_GENERATED_(91)
  6
Continuous
 62
     7
100
AcDbCircle
 10
123.4885463957
 20
342.6306028697
 30
0.0
 40
20.77280026313399
100
AcDbArc
 50
179.7885484429
 51
180.3570617166
  0
ARC
  5
1E6
330
AF
100
AcDbEntity
  8
$DDT_AUDIT_GENERATED_(91)
  6
Continuous
 62
     7
100
AcDbCircle
 10
286.6024737798
 20
347.4590527946
 30
0.0
 40
211.1033573738213
100
AcDbArc
 50
173.355427757
 51
179.955254452
  0
ARC
  5
1E7
330
AF
100
AcDbEntity
  8
$DDT_AUDIT_GENERATED_(91)
  6
Continuous
 62
     7
100
AcDbCircle
 10
102.7733746376
 20
322.2409872444
 30
0.0
 40
60.92258043655171
100
AcDbArc
 50
74.5239912441
 51
105.4341771076
  0
ARC
  5
1E8
330
AF
100
AcDbEntity
  8
$DDT_AUDIT_GENERATED_(91)
  6
Continuous
 62
     7
100
AcDbCircle
 10
-80.1920120345
 20
347.4420522265
 30
0.0
 40
210.1888042162532
100
AcDbArc
 50
3.45512516
 51
6.6918589624
  0
LINE
  5
1E9
330
AF
100
AcDbEntity
  8
$DDT_AUDIT_GENERATED_(91)
  6
Continuous
 62
     7
100
AcDbLine
 10
75.4992018439
 20
347.635519424
 30
0.0
 11
75.499053534
 21
347.4826335396
 31
0.0
  0
ARC
  5
1EA
330
AF
100
AcDbEntity
  8
$DDT_AUDIT_GENERATED_(91)
  6
Continuous
 62
     7
100
AcDbCircle
 10
122.5722510204
 20
371.3296570775
 30
0.0
 40
6.02111074734974
100
AcDbArc
 50
5.5880120555
 51
11.7380922902
  0
ARC
  5
1EB
330
AF
100
AcDbEntity
  8
$DDT_AUDIT_GENERATED_(91)
  6
Continuous
 62
     7
100
AcDbCircle
 10
81.9253100872
 20
371.4261694005
 30
0.0
 40
5.032713464481944
100
AcDbArc
 50
167.7810392051
 51
174.9011360613
  0
ARC
  5
1EC
330
AF
100
AcDbEntity
  8
$DDT_AUDIT_GENERATED_(91)
  6
Continuous
 62
     7
100
AcDbCircle
 10
119.5907444186
 20
370.1332960638
 30
0.0
 40
9.21302314010938
100
AcDbArc
 50
15.7708969646
 51
61.3386279761
  0
ARC
  5
1ED
330
AF
100
AcDbEntity
  8
$DDT_AUDIT_GENERATED_(91)
  6
Continuous
 62
     7
100
AcDbCircle
 10
85.9906422713
 20
370.0482559405
 30
0.0
 40
9.31660968048784
100
AcDbArc
 50
118.1387824097
 51
164.4121852851
  0
ARC
  5
1EE
330
AF
100
AcDbEntity
  8
$DDT_AUDIT_GENERATED_(91)
  6
Continuous
 62
     7
100
AcDbCircle
 10
98.4051479069
 20
338.8392243448
 30
0.0
 40
46.97222066753632
100
AcDbArc
 50
56.9587141334
 51
62.7988804
  0
ARC
  5
1EF
330
AF
100
AcDbEntity
  8
$DDT_AUDIT_GENERATED_(91)
  6
Continuous
 62
     7
100
AcDbCircle
 10
107.7438350831
 20
337.494231062
 30
0.0
 40
48.43505759788983
100
AcDbArc
 50
117.0187708228
 51
122.6849214997
  0
SPLINE
  5
1F0
330
AF
100
AcDbEntity
  8
$DDT_AUDIT_GENERATED_(91)
  6
Continuous
 62
     7
100
AcDbSpline
210
0.0
220
0.0
230
1.0
 70
     8
 71
     3
 72
    25
 73
    21
 74
     0
 42
0.0000000010857703
 43
0.0000000001
 40
0.0
 40
0.0
 40
0.0
 40
0.0
 40
0.0001879568122809
 40
0.0745263625987227
 40
0.1501845165075207
 40
0.2234699604379397
 40
0.2952835581808739
 40
0.3647840388034555
 40
0.4314915819828147
 40
0.4952564314246453
 40
0.5561560839471857
 40
0.6144074766615849
 40
0.6568387093744302
 40
0.7002432894571042
 40
0.744459533288088
 40
0.8005883065734931
 40
0.8557393523393259
 40
0.9100977793105459
 40
0.9641958249376663
 40
1.0
 40
1.0
 40
1.0
 40
1.0
 10
115.3991198856882
 20
369.2101915213291
 30
0.0
 10
115.399362714513
 20
369.2111902421499
 30
0.0
 10
115.4825059082669
 20
369.553149307152
 30
0.0
 10
115.6370682350426
 20
370.2728701858896
 30
0.0
 10
115.8427778165736
 20
371.2706486608611
 30
0.0
 10
116.0255716749228
 20
372.2201869243712
 30
0.0
 10
116.190921487922
 20
373.0934825264912
 30
0.0
 10
116.3447547650145
 20
373.8907846699028
 30
0.0
 10
116.4913256333841
 20
374.6062660894233
 30
0.0
 10
116.633933837145
 20
375.2395736951402
 30
0.0
 10
116.7751518732452
 20
375.7939063059856
 30
0.0
 10
116.904870755487
 20
376.2347032285583
 30
0.0
 10
117.026286983615
 20
376.5929876899503
 30
0.0
 10
117.1344163836302
 20
376.8709856755875
 30
0.0
 10
117.2611444476895
 20
377.1483341224341
 30
0.0
 10
117.402201844494
 20
377.4063878391096
 30
0.0
 10
117.5526942080947
 20
377.6310520920078
 30
0.0
 10
117.6927923684676
 20
377.8005174798233
 30
0.0
 10
117.8096594880695
 20
377.9136251118979
 30
0.0
 10
117.8623440731156
 20
377.9514355784482
 30
0.0
 10
117.8869612379044
 20
377.9685938235767
 30
0.0
  0
ARC
  5
1F1
330
AF
100
AcDbEntity
  8
$DDT_AUDIT_GENERATED_(91)
  6
Continuous
 62
     7
100
AcDbCircle
 10
118.3405055284
 20
377.9656047531
 30
0.0
 40
3.062714293771537
100
AcDbArc
 50
58.8341409323
 51
76.7501841645
  0
ARC
  5
1F2
330
AF
100
AcDbEntity
  8
$DDT_AUDIT_GENERATED_(91)
  6
Continuous
 62
     7
100
AcDbCircle
 10
102.7535686581
 20
386.3962293199
 30
0.0
 40
21.71863298094082
100
AcDbArc
 50
236.5285040466
 51
303.4840724261
  0
ARC
  5
1F3
330
AF
100
AcDbEntity
  8
$DDT_AUDIT_GENERATED_(91)
  6
Continuous
 62
     7
100
AcDbCircle
 10
87.2729139219
 20
377.9567943278
 30
0.0
 40
3.09103880167751
100
AcDbArc
 50
103.5393291446
 51
120.7820885456
  0
SPLINE
  5
1F4
330
AF
100
AcDbEntity
  8
$DDT_AUDIT_GENERATED_(91)
  6
Continuous
 62
     7
100
AcDbSpline
210
0.0
220
0.0
230
1.0
 70
     8
 71
     3
 72
    25
 73
    21
 74
     0
 42
0.0000000010843503
 43
0.0000000001
 40
0.0
 40
0.0
 40
0.0
 40
0.0
 40
0.0337586842226859
 40
0.0895146263848103
 40
0.1433758527125835
 40
0.1969262827166541
 40
0.2507916528333832
 40
0.3054711015017709
 40
0.3502727088432426
 40
0.3948233506165893
 40
0.4491631979922265
 40
0.5052343533569116
 40
0.5635181443031748
 40
0.6242497539179123
 40
0.6876019150686403
 40
0.7536526655168638
 40
0.8223285477476516
 40
0.8933229201583184
 40
0.9660181873403495
 40
1.0
 40
1.0
 40
1.0
 40
1.0
 10
87.6568125918605
 20
377.9885808308154
 30
0.0
 10
87.67886430719005
 20
377.9733081463291
 30
0.0
 10
87.72878431302325
 20
377.9376730842704
 30
0.0
 10
87.84202580632498
 20
377.828717060306
 30
0.0
 10
87.9794119740543
 20
377.6623061239474
 30
0.0
 10
88.12427682682458
 20
377.4462213797006
 30
0.0
 10
88.27034174724137
 20
377.1806941160284
 30
0.0
 10
88.4048635488707
 20
376.8840662159019
 30
0.0
 10
88.52314865169208
 20
376.5704053004396
 30
0.0
 10
88.64223015098113
 20
376.2061011109512
 30
0.0
 10
88.7645156789328
 20
375.7766633476173
 30
0.0
 10
88.89279583148782
 20
375.2618169338797
 30
0.0
 10
89.02153144943733
 20
374.6823599684635
 30
0.0
 10
89.15326652607894
 20
374.0334434329885
 30
0.0
 10
89.29109859639505
 20
373.3117096204884
 30
0.0
 10
89.43908478790135
 20
372.515484673658
 30
0.0
 10
89.60242583345263
 20
371.6426232486913
 30
0.0
 10
89.7861061807822
 20
370.7058348740092
 30
0.0
 10
89.96009418956248
 20
369.8665617398428
 30
0.0
 10
90.07165720217753
 20
369.3875098155899
 30
0.0
 10
90.11357518557647
 20
369.2078256593991
 30
0.0
  0
ARC
  5
1F5
330
AF
100
AcDbEntity
  8
$DDT_AUDIT_GENERATED_(91)
  6
Continuous
 62
     7
100
AcDbCircle
 10
113.9381006137
 20
369.5496986368
 30
0.0
 40
1.499999999999979
100
AcDbArc
 50
302.198482183
 51
346.9190815948
  0
ARC
  5
1F6
330
AF
100
AcDbEntity
  8
$DDT_AUDIT_GENERATED_(91)
  6
Continuous
 62
     7
100
AcDbCircle
 10
91.5717995374
 20
369.5473865106
 30
0.0
 40
1.499999999999994
100
AcDbArc
 50
192.9052001954
 51
237.8222771386
  0
SPLINE
  5
1F7
330
AF
100
AcDbEntity
  8
$DDT_AUDIT_GENERATED_(91)
  6
Continuous
 62
     7
100
AcDbSpline
210
0.0
220
0.0
230
1.0
 70
     8
 71
     3
 72
    28
 73
    24
 74
     0
 42
0.0000000007927611
 43
0.0000000001
 40
0.0
 40
0.0
 40
0.0
 40
0.0
 40
0.022669423779629
 40
0.0691796341463968
 40
0.1155519119776558
 40
0.1617644847699706
 40
0.207694803984056
 40
0.2534899984513225
 40
0.2996768747191837
 40
0.3462138935894245
 40
0.3930570196965987
 40
0.4401586585069787
 40
0.4874700350528648
 40
0.5349440833765963
 40
0.5825387989072716
 40
0.6302206931913772
 40
0.677967030880952
 40
0.7257625713789679
 40
0.7735647905561288
 40
0.8212122686801665
 40
0.8604381132640264
 40
0.9018237956187168
 40
0.9417584292475434
 40
0.9417584292475434
 40
0.9417584292475434
 40
0.9417584292475434
 10
118.9707412623244
 20
343.4431691345789
 30
0.0
 10
119.1385469592502
 20
343.4646419355294
 30
0.0
 10
119.5734328772497
 20
343.5204870827627
 30
0.0
 10
120.3379392608826
 20
343.6301707387063
 30
0.0
 10
121.2009092755453
 20
343.7636696052305
 30
0.0
 10
122.0328280191731
 20
343.9044985438569
 30
0.0
 10
122.8233560863837
 20
344.0507054999927
 30
0.0
 10
123.5772098599286
 20
344.2029267255429
 30
0.0
 10
124.2962394392305
 20
344.3614412899918
 30
0.0
 10
124.9813564355824
 20
344.5265822870151
 30
0.0
 10
125.6302839078219
 20
344.6980035119532
 30
0.0
 10
126.2409057450403
 20
344.8753675861742
 30
0.0
 10
126.8112317838665
 20
345.0583492037533
 30
0.0
 10
127.3394633971215
 20
345.2466718841005
 30
0.0
 10
127.8240177572145
 20
345.4401505083858
 30
0.0
 10
128.2635978289129
 20
345.6387753132823
 30
0.0
 10
128.6570324931371
 20
345.8427620384485
 30
0.0
 10
129.0037466787135
 20
346.0528594511671
 30
0.0
 10
129.3013021238341
 20
346.2697120924557
 30
0.0
 10
129.5391595536329
 20
346.4839956898805
 30
0.0
 10
129.7190084741629
 20
346.705287109216
 30
0.0
 10
129.8422945734892
 20
346.9195272835478
 30
0.0
 10
129.8965924727376
 20
347.063158592758
 30
0.0
 10
129.9188085700922
 20
347.1345289451515
 30
0.0
  0
SPLINE
  5
1F8
330
AF
100
AcDbEntity
  8
$DDT_AUDIT_GENERATED_(91)
  6
Continuous
 62
     7
100
AcDbSpline
210
0.0
220
0.0
230
1.0
 70
     8
 71
     3
 72
    30
 73
    26
 74
     0
 42
0.0000000007357749
 43
0.0000000001
 40
0.0345158111139905
 40
0.0345158111139905
 40
0.0345158111139905
 40
0.0345158111139905
 40
0.0642151500385363
 40
0.103973196423682
 40
0.1417813903861223
 40
0.181754570006047
 40
0.2203092686844495
 40
0.2651918851581647
 40
0.3103528211333729
 40
0.3556775471541537
 40
0.4009829348545498
 40
0.446225718125506
 40
0.4913849035774754
 40
0.5364340760062052
 40
0.5813385481943573
 40
0.626057409164771
 40
0.6705466579503963
 40
0.714762246023688
 40
0.7586627007308182
 40
0.8022112658030986
 40
0.8453982682486348
 40
0.8890258542883065
 40
0.932816176742448
 40
0.9767667406455636
 40
1.0
 40
1.0
 40
1.0
 40
1.0
 10
75.54312208990159
 20
347.2663288287612
 30
0.0
 10
75.55471713375475
 20
347.2119574153855
 30
0.0
 10
75.59147550613133
 20
347.0788113219542
 30
0.0
 10
75.67478957028575
 20
346.877133020078
 30
0.0
 10
75.81094649950191
 20
346.6574788272239
 30
0.0
 10
75.99714820640472
 20
346.4464593371675
 30
0.0
 10
76.23062471563688
 20
346.2436136004055
 30
0.0
 10
76.51717462028427
 20
346.0376328064807
 30
0.0
 10
76.86599428905895
 20
345.8287544540781
 30
0.0
 10
77.26329250989413
 20
345.6247613575303
 30
0.0
 10
77.70767637107278
 20
345.4258056483901
 30
0.0
 10
78.19765910374886
 20
345.2318584327049
 30
0.0
 10
78.73200111800926
 20
345.0429793827738
 30
0.0
 10
79.30936443588685
 20
344.8593204890084
 30
0.0
 10
79.92819673368713
 20
344.6811467597643
 30
0.0
 10
80.58672933613111
 20
344.5087886760637
 30
0.0
 10
81.2829898573346
 20
344.342612107641
 30
0.0
 10
82.01487594268187
 20
344.1829897098758
 30
0.0
 10
82.78006307348562
 20
344.0302907624836
 30
0.0
 10
83.57667431327287
 20
343.8848134385444
 30
0.0
 10
84.40663647343882
 20
343.7460410262078
 30
0.0
 10
85.27330479585038
 20
343.6130748250083
 30
0.0
 10
86.17018122641113
 20
343.487317949433
 30
0.0
 10
86.97514516177282
 20
343.3828145909249
 30
0.0
 10
87.43602814897174
 20
343.3293666083158
 30
0.0
 10
87.6238655832691
 20
343.3076677899164
 30
0.0
  0
LINE
  5
1FA
330
AF
100
AcDbEntity
  8
DV2_Default
  6
Continuous
 62
     7
100
AcDbLine
 10
77.750104511
 20
258.6032698395
 30
0.0
 11
127.5477031408
 21
258.6032755009
 31
0.0
  0
LINE
  5
1FB
330
AF
100
AcDbEntity
  8
DV2_Default
  6
CENTER2
 62
     7
100
AcDbLine
 10
122.6489033789
 20
258.6032726702
 30
0.0
 11
82.6489042729
 21
258.6032726702
 31
0.0
  0
LINE
  5
1FC
330
AF
100
AcDbEntity
  8
DV2_Default
  6
CENTER2
 62
     7
100
AcDbLine
 10
102.6489038259
 20
278.6032722232
 30
0.0
 11
102.6489038259
 21
242.8898308093
 31
0.0
  0
ENDBLK
  5
1FE
330
AF
100
AcDbEntity
  8
0
100
AcDbBlockEnd
  0
BLOCK
  5
21F
330
1FF
100
AcDbEntity
  8
0
100
AcDbBlockBegin
  2
SE2
 70
     0
 10
0.0
 20
0.0
 30
0.0
  3
SE2
  1

  0
ARC
  5
201
330
1FF
100
AcDbEntity
  8
$DDT_AUDIT_GENERATED_(6B)
  6
Continuous
 62
     7
100
AcDbCircle
 10
102.7682266131
 20
185.8246927571
 30
0.0
 40
25.1768997166406
100
AcDbArc
 50
0.0023810476
 51
179.9976062905
  0
ARC
  5
202
330
1FF
100
AcDbEntity
  8
$DDT_AUDIT_GENERATED_(6B)
  6
Continuous
 62
     7
100
AcDbCircle
 10
102.7506932691
 20
96.7727928882
 30
0.0
 40
24.81660466449857
100
AcDbArc
 50
230.896849207
 51
238.5006475502
  0
ARC
  5
203
330
1FF
100
AcDbEntity
  8
$DDT_AUDIT_GENERATED_(6B)
  6
Continuous
 62
     7
100
AcDbCircle
 10
102.7506932691
 20
96.7727928882
 30
0.0
 40
24.81660466449857
100
AcDbArc
 50
301.5288710659
 51
309.0935368143
  0
LINE
  5
204
330
1FF
100
AcDbEntity
  8
$DDT_AUDIT_GENERATED_(6B)
  6
Continuous
 62
     7
100
AcDbLine
 10
86.0219647303
 20
80.6430021354
 30
0.0
 11
86.0508466888
 21
79.8048935698
 31
0.0
  0
ARC
  5
205
330
1FF
100
AcDbEntity
  8
$DDT_AUDIT_GENERATED_(6B)
  6
Continuous
 62
     7
100
AcDbCircle
 10
-773.5994179599
 20
48.2287147453
 30
0.0
 40
860.2322986294078
100
AcDbArc
 50
2.1594651093
 51
6.6109723828
  0
ARC
  5
206
330
1FF
100
AcDbEntity
  8
$DDT_AUDIT_GENERATED_(6B)
  6
Continuous
 62
     7
100
AcDbCircle
 10
87.6472005267
 20
78.4038360359
 30
0.0
 40
1.043926415725497
100
AcDbArc
 50
223.3883860901
 51
238.3271642659
  0
ARC
  5
207
330
1FF
100
AcDbEntity
  8
$DDT_AUDIT_GENERATED_(6B)
  6
Continuous
 62
     7
100
AcDbCircle
 10
89.0216599941
 20
79.7508405789
 30
0.0
 40
2.97015464179329
100
AcDbArc
 50
178.4610395712
 51
224.0778861817
  0
ARC
  5
208
330
1FF
100
AcDbEntity
  8
$DDT_AUDIT_GENERATED_(6B)
  6
Continuous
 62
     7
100
AcDbCircle
 10
116.4682844166
 20
79.7540217521
 30
0.0
 40
2.977635738466847
100
AcDbArc
 50
315.98083302
 51
1.4553182477
  0
ARC
  5
209
330
1FF
100
AcDbEntity
  8
$DDT_AUDIT_GENERATED_(6B)
  6
Continuous
 62
     7
100
AcDbCircle
 10
117.6606277734
 20
78.6121285188
 30
0.0
 40
1.325844988988897
100
AcDbArc
 50
303.9186378411
 51
315.6611119921
  0
ARC
  5
20A
330
1FF
100
AcDbEntity
  8
$DDT_AUDIT_GENERATED_(6B)
  6
Continuous
 62
     7
100
AcDbCircle
 10
987.7192060856
 20
47.6350999
 30
0.0
 40
868.8708419997776
100
AcDbArc
 50
173.4155277026
 51
177.828401957
  0
LINE
  5
20B
330
1FF
100
AcDbEntity
  8
$DDT_AUDIT_GENERATED_(6B)
  6
Continuous
 62
     7
100
AcDbLine
 10
119.4466853285
 20
79.8041045857
 30
0.0
 11
119.4723673417
 21
80.5587553557
 31
0.0
  0
LINE
  5
20C
330
1FF
100
AcDbEntity
  8
$DDT_AUDIT_GENERATED_(6B)
  6
Continuous
 62
     7
100
AcDbLine
 10
77.7479725269
 20
185.8254678598
 30
0.0
 11
77.7479725269
 21
180.7349879055
 31
0.0
  0
LINE
  5
20D
330
1FF
100
AcDbEntity
  8
$DDT_AUDIT_GENERATED_(6B)
  6
Continuous
 62
     7
100
AcDbLine
 10
127.749447294
 20
180.7362464297
 30
0.0
 11
127.749447294
 21
185.8260006647
 31
0.0
  0
ARC
  5
20E
330
1FF
100
AcDbEntity
  8
$DDT_AUDIT_GENERATED_(91)
  6
Continuous
 62
     7
100
AcDbCircle
 10
93.1686649639
 20
163.5169037148
 30
0.0
 40
35.41088877084211
100
AcDbArc
 50
332.2839545443
 51
343.4263428472
  0
ARC
  5
20F
330
1FF
100
AcDbEntity
  8
$DDT_AUDIT_GENERATED_(91)
  6
Continuous
 62
     7
100
AcDbCircle
 10
112.6292356709
 20
163.6306302306
 30
0.0
 40
35.73349668947428
100
AcDbArc
 50
196.5103402048
 51
208.0316713794
  0
ARC
  5
210
330
1FF
100
AcDbEntity
  8
$DDT_AUDIT_GENERATED_(91)
  6
Continuous
 62
     7
100
AcDbCircle
 10
102.5336259091
 20
170.3280686792
 30
0.0
 40
27.03531390970856
100
AcDbArc
 50
180.4020596781
 51
181.2258288019
  0
ARC
  5
211
330
1FF
100
AcDbEntity
  8
$DDT_AUDIT_GENERATED_(91)
  6
Continuous
 62
     7
100
AcDbCircle
 10
102.5661613247
 20
169.9041913401
 30
0.0
 40
27.06819658193335
100
AcDbArc
 50
138.7872101382
 51
179.5043323455
  0
ARC
  5
212
330
1FF
100
AcDbEntity
  8
$DDT_AUDIT_GENERATED_(91)
  6
Continuous
 62
     7
100
AcDbCircle
 10
102.9618955449
 20
170.3300198669
 30
0.0
 40
27.03776991800225
100
AcDbArc
 50
358.6690102315
 51
359.4567466666
  0
ARC
  5
213
330
1FF
100
AcDbEntity
  8
$DDT_AUDIT_GENERATED_(91)
  6
Continuous
 62
     7
100
AcDbCircle
 10
102.9372091301
 20
169.9102435269
 30
0.0
 40
27.06173442802224
100
AcDbArc
 50
0.3459989233
 51
41.4564622034
  0
ARC
  5
214
330
1FF
100
AcDbEntity
  8
$DDT_AUDIT_GENERATED_(91)
  6
Continuous
 62
     7
100
AcDbCircle
 10
129.9302797909
 20
170.6813755951
 30
0.0
 40
54.43613554479305
100
AcDbArc
 50
180.9807217753
 51
202.252263507
  0
ARC
  5
215
330
1FF
100
AcDbEntity
  8
$DDT_AUDIT_GENERATED_(91)
  6
Continuous
 62
     7
100
AcDbCircle
 10
75.4179909311
 20
170.7344005436
 30
0.0
 40
54.58636913570769
100
AcDbArc
 50
337.6392987706
 51
358.9161208537
  0
ARC
  5
216
330
1FF
100
AcDbEntity
  8
$DDT_AUDIT_GENERATED_(91)
  6
Continuous
 62
     7
100
AcDbCircle
 10
154.5143084442
 20
130.3639812237
 30
0.0
 40
34.32408349191245
100
AcDbArc
 50
150.8584991365
 51
170.3314527625
  0
ARC
  5
217
330
1FF
100
AcDbEntity
  8
$DDT_AUDIT_GENERATED_(91)
  6
Continuous
 62
     7
100
AcDbCircle
 10
52.0525410492
 20
130.4414895065
 30
0.0
 40
33.34356647258353
100
AcDbArc
 50
9.5478989863
 51
29.4826889255
  0
ARC
  5
218
330
1FF
100
AcDbEntity
  8
$DDT_AUDIT_GENERATED_(91)
  6
Continuous
 62
     7
100
AcDbCircle
 10
683.7402671985
 20
57.6736955433
 30
0.0
 40
568.49517850981
100
AcDbArc
 50
172.0677129227
 51
178.5251221093
  0
ARC
  5
219
330
1FF
100
AcDbEntity
  8
$DDT_AUDIT_GENERATED_(91)
  6
Continuous
 62
     7
100
AcDbCircle
 10
-483.644703102
 20
57.9091905407
 30
0.0
 40
573.9051253672153
100
AcDbArc
 50
1.4381363064
 51
7.8175127496
  0
ARC
  5
21A
330
1FF
100
AcDbEntity
  8
$DDT_AUDIT_GENERATED_(91)
  6
Continuous
 62
     7
100
AcDbCircle
 10
113.9381006137
 20
72.4135928758
 30
0.0
 40
1.499999999999971
100
AcDbArc
 50
302.0104253267
 51
355.8791837858
  0
ARC
  5
21B
330
1FF
100
AcDbEntity
  8
$DDT_AUDIT_GENERATED_(91)
  6
Continuous
 62
     7
100
AcDbCircle
 10
91.5717995374
 20
72.4176134512
 30
0.0
 40
1.499999999999988
100
AcDbArc
 50
184.0661737352
 51
237.9722102609
  0
ARC
  5
21C
330
1FF
100
AcDbEntity
  8
$DDT_AUDIT_GENERATED_(91)
  6
Continuous
 62
     7
100
AcDbCircle
 10
102.7590762832
 20
88.8822210938
 30
0.0
 40
21.40347367234078
100
AcDbArc
 50
235.9572529531
 51
304.0170312851
  0
ARC
  5
21D
330
1FF
100
AcDbEntity
  8
$DDT_AUDIT_GENERATED_(91)
  6
Continuous
 62
     7
100
AcDbCircle
 10
102.7946211459
 20
169.6034591612
 30
0.0
 40
27.37674693831324
100
AcDbArc
 50
41.755605639
 51
90.0272359044
  0
ARC
  5
21E
330
1FF
100
AcDbEntity
  8
$DDT_AUDIT_GENERATED_(91)
  6
Continuous
 62
     7
100
AcDbCircle
 10
102.7001870999
 20
169.572084172
 30
0.0
 40
27.394246360076
100
AcDbArc
 50
89.8292473619
 51
138.4337045946
  0
ENDBLK
  5
220
330
1FF
100
AcDbEntity
  8
0
100
AcDbBlockEnd
  0
ENDSEC
  0
SECTION
  2
ENTITIES
  0
INSERT
  5
5F
330
1F
100
AcDbEntity
  8
Default
100
AcDbBlockReference
  2
SEANNOT_GROUP
 10
0.0
 20
0.0
 30
0.0
  0
INSERT
  5
6A
330
1F
100
AcDbEntity
  8
Default
100
AcDbBlockReference
  2
SE
 10
0.0
 20
0.0
 30
0.0
  0
INSERT
  5
B0
330
1F
100
AcDbEntity
  8
Default
100
AcDbBlockReference
  2
SE1
 10
0.0
 20
0.0
 30
0.0
  0
INSERT
  5
200
330
1F
100
AcDbEntity
  8
Default
100
AcDbBlockReference
  2
SE2
 10
0.0
 20
0.0
 30
0.0
  0
TEXT
  5
222
330
1F
100
AcDbEntity
  8
Default
  6
Continuous
 62
     7
100
AcDbText
 10
5.9362635081
 20
53.4225120485
 30
0.0
 40
10.0
  1
Grohe AG^J
  7
SEACAD_seiso_ttf
 11
5.9362635081
 21
63.4225120485
 31
0.0
100
AcDbText
 73
     3
  0
TEXT
  5
223
330
1F
100
AcDbEntity
  8
Default
  6
Continuous
 62
     7
100
AcDbText
 10
5.9362635081
 20
37.0588756849
 30
0.0
 40
10.0
  1
 
  7
SEACAD_seiso_ttf
 11
5.9362635081
 21
47.0588756849
 31
0.0
100
AcDbText
 73
     3
  0
TEXT
  5
224
330
1F
100
AcDbEntity
  8
Default
  6
Continuous
 62
     7
100
AcDbText
 10
5.9362635081
 20
20.6952393213
 30
0.0
 40
10.0
  1
ecn:
  7
SEACAD_seiso_ttf
 11
5.9362635081
 21
30.6952393213
 31
0.0
100
AcDbText
 73
     3
  0
TEXT
  5
225
330
1F
100
AcDbEntity
  8
Default
  6
Continuous
 62
     7
100
AcDbText
 10
5.9362635081
 20
4.3316029576
 30
0.0
 40
10.0
  1
unit: mm
  7
SEACAD_seiso_ttf
 11
5.9362635081
 21
14.3316029576
 31
0.0
100
AcDbText
 73
     3
  0
LINE
  5
226
330
1F
100
AcDbEntity
  8
Default
  6
Continuous
 62
     7
100
AcDbLine
 10
0.0
 20
0.0
 30
0.0
 11
100.0
 21
0.0
 31
0.0
  0
LINE
  5
227
330
1F
100
AcDbEntity
  8
Default
  6
Continuous
 62
     7
100
AcDbLine
 10
0.0
 20
0.0
 30
0.0
 11
0.0
 21
100.0
 31
0.0
  0
TEXT
  5
228
330
1F
100
AcDbEntity
  8
Default
  6
Continuous
 62
     7
100
AcDbText
 10
24.3923665681
 20
-18.2375342018
 30
0.0
 40
10.0
  1
100 mm
  7
SEACAD_seiso_ttf
 11
24.3923665681
 21
-8.2375342018
 31
0.0
100
AcDbText
 73
     3
  0
TEXT
  5
229
330
1F
100
AcDbEntity
  8
Default
  6
Continuous
 62
     7
100
AcDbText
 10
-7.6150308803
 20
24.6231930421
 30
0.0
 40
10.0
  1
100 mm
 50
90.0
  7
SEACAD_seiso_ttf
 11
-17.6150308803
 21
24.6231930421
 31
0.0
100
AcDbText
 73
     3
  0
TEXT
  5
22A
330
1F
100
AcDbEntity
  8
Default
  6
Continuous
 62
     7
100
AcDbText
 10
28.4878128572
 20
20.0907663715
 30
0.0
 40
10.0
  1
227738
  7
SEACAD_seiso_ttf
 11
28.4878128572
 21
30.0907663715
 31
0.0
100
AcDbText
 73
     3
  0
TEXT
  5
22B
330
1F
100
AcDbEntity
  8
Default
  6
Continuous
 62
     7
100
AcDbText
 10
5.9012241913
 20
36.7242780188
 30
0.0
 40
10.0
  1
2337010E
  7
SEACAD_seiso_ttf
 11
5.9012241913
 21
46.7242780188
 31
0.0
100
AcDbText
 73
     3
  0
ENDSEC
  0
SECTION
  2
OBJECTS
  0
DICTIONARY
  5
C
330
0
100
AcDbDictionary
281
     1
  3
ACAD_GROUP
350
D
  3
ACAD_LAYOUT
350
1A
  3
ACAD_MLEADERSTYLE
350
22F
  3
ACAD_MLINESTYLE
350
17
  3
ACAD_PLOTSETTINGS
350
19
  3
ACAD_PLOTSTYLENAME
350
E
  3
ACAD_SCALELIST
350
3B
  3
ACAD_TABLESTYLE
350
22E
  3
ACAD_VISUALSTYLE
350
2A
  3
AcDbVariableDictionary
350
22C
  0
DICTIONARY
  5
D
102
{ACAD_REACTORS
330
C
102
}
330
C
100
AcDbDictionary
281
     1
  0
DICTIONARY
  5
1A
102
{ACAD_REACTORS
330
C
102
}
330
C
100
AcDbDictionary
281
     1
  3
Layout1
350
1E
  3
Model
350
22
  0
DICTIONARY
  5
22F
102
{ACAD_REACTORS
330
C
102
}
330
C
100
AcDbDictionary
281
     1
  0
DICTIONARY
  5
17
102
{ACAD_REACTORS
330
C
102
}
330
C
100
AcDbDictionary
281
     1
  3
Standard
350
18
  0
DICTIONARY
  5
19
102
{ACAD_REACTORS
330
C
102
}
330
C
100
AcDbDictionary
281
     1
  0
ACDBDICTIONARYWDFLT
  5
E
102
{ACAD_REACTORS
330
C
102
}
330
C
100
AcDbDictionary
281
     1
  3
Normal
350
F
100
AcDbDictionaryWithDefault
340
F
  0
DICTIONARY
  5
3B
102
{ACAD_REACTORS
330
C
102
}
330
C
100
AcDbDictionary
281
     1
  3
A0
350
3C
  3
A1
350
3D
  3
A2
350
3E
  3
A3
350
3F
  3
A4
350
40
  3
A5
350
41
  3
A6
350
42
  3
A7
350
43
  3
A8
350
44
  3
A9
350
45
  3
B0
350
46
  3
B1
350
47
  3
B2
350
48
  3
B3
350
49
  3
B4
350
4A
  3
B5
350
4B
  3
B6
350
4C
  3
B7
350
4D
  3
B8
350
4E
  3
B9
350
4F
  3
C0
350
50
  3
C1
350
51
  3
C2
350
52
  3
C3
350
53
  3
C4
350
54
  3
C5
350
55
  3
C6
350
56
  3
C7
350
57
  3
C8
350
58
  3
C9
350
59
  3
D0
350
5A
  3
D1
350
5B
  3
D2
350
5C
  0
DICTIONARY
  5
22E
102
{ACAD_REACTORS
330
C
102
}
330
C
100
AcDbDictionary
281
     1
  0
DICTIONARY
  5
2A
102
{ACAD_REACTORS
330
C
102
}
330
C
100
AcDbDictionary
281
     1
  3
2dWireframe
350
2F
  3
3D Hidden
350
31
  3
3dWireframe
350
30
  3
Basic
350
32
  3
Brighten
350
36
  3
ColorChange
350
3A
  3
Conceptual
350
34
  3
Dim
350
35
  3
Facepattern
350
39
  3
Flat
350
2B
  3
FlatWithEdges
350
2C
  3
Gouraud
350
2D
  3
GouraudWithEdges
350
2E
  3
Linepattern
350
38
  3
Realistic
350
33
  3
Thicken
350
37
  0
DICTIONARY
  5
22C
102
{ACAD_REACTORS
330
C
102
}
330
C
100
AcDbDictionary
281
     1
  3
CANNOSCALE
350
22D
  3
PSOLHEIGHT
350
231
  3
PSOLWIDTH
350
230
  0
LAYOUT
  5
1E
102
{ACAD_REACTORS
330
1A
102
}
330
1A
100
AcDbPlotSettings
  1

  2
none_device
  4

  6

 40
0.0
 41
0.0
 42
0.0
 43
0.0
 44
0.0
 45
0.0
 46
0.0
 47
0.0
 48
0.0
 49
0.0
140
0.0
141
0.0
142
1.0
143
1.0
 70
   688
 72
     0
 73
     0
 74
     5
  7

 75
    16
147
1.0
148
0.0
149
0.0
100
AcDbLayout
  1
Layout1
 70
     1
 71
     1
 10
0.0
 20
0.0
 11
3000.0
 21
4500.0
 12
0.0
 22
0.0
 32
0.0
 14
0.0
 24
0.0
 34
0.0
 15
3000.0
 25
4500.0
 35
0.0
146
0.0
 13
0.0
 23
0.0
 33
0.0
 16
1.0
 26
0.0
 36
0.0
 17
0.0
 27
1.0
 37
0.0
 76
     0
330
1B
  0
LAYOUT
  5
22
102
{ACAD_REACTORS
330
1A
102
}
330
1A
100
AcDbPlotSettings
  1

  2
none_device
  4

  6

 40
0.0
 41
0.0
 42
0.0
 43
0.0
 44
0.0
 45
0.0
 46
0.0
 47
0.0
 48
0.0
 49
0.0
140
0.0
141
0.0
142
1.0
143
1.0
 70
  1712
 72
     0
 73
     0
 74
     0
  7

 75
     0
147
1.0
148
0.0
149
0.0
100
AcDbLayout
  1
Model
 70
     1
 71
     0
 10
0.0
 20
0.0
 11
3000.0
 21
4500.0
 12
0.0
 22
0.0
 32
0.0
 14
0.0
 24
0.0
 34
0.0
 15
3000.0
 25
4500.0
 35
0.0
146
0.0
 13
0.0
 23
0.0
 33
0.0
 16
1.0
 26
0.0
 36
0.0
 17
0.0
 27
1.0
 37
0.0
 76
     0
330
1F
331
29
  0
MLINESTYLE
  5
18
102
{ACAD_REACTORS
330
17
102
}
330
17
100
AcDbMlineStyle
  2
Standard
 70
     0
  3

 62
   256
 51
90.0
 52
90.0
 71
     2
 49
0.5
 62
   256
  6
BYLAYER
 49
-0.5
 62
   256
  6
BYLAYER
  0
ACDBPLACEHOLDER
  5
F
102
{ACAD_REACTORS
330
E
102
}
330
E
  0
SCALE
  5
3C
102
{ACAD_REACTORS
330
3B
102
}
330
3B
100
AcDbScale
 70
     0
300
1:1
140
1.0
141
1.0
290
     1
  0
SCALE
  5
3D
102
{ACAD_REACTORS
330
3B
102
}
330
3B
100
AcDbScale
 70
     0
300
1:2
140
1.0
141
2.0
290
     0
  0
SCALE
  5
3E
102
{ACAD_REACTORS
330
3B
102
}
330
3B
100
AcDbScale
 70
     0
300
1:4
140
1.0
141
4.0
290
     0
  0
SCALE
  5
3F
102
{ACAD_REACTORS
330
3B
102
}
330
3B
100
AcDbScale
 70
     0
300
1:5
140
1.0
141
5.0
290
     0
  0
SCALE
  5
40
102
{ACAD_REACTORS
330
3B
102
}
330
3B
100
AcDbScale
 70
     0
300
1:8
140
1.0
141
8.0
290
     0
  0
SCALE
  5
41
102
{ACAD_REACTORS
330
3B
102
}
330
3B
100
AcDbScale
 70
     0
300
1:10
140
1.0
141
10.0
290
     0
  0
SCALE
  5
42
102
{ACAD_REACTORS
330
3B
102
}
330
3B
100
AcDbScale
 70
     0
300
1:16
140
1.0
141
16.0
290
     0
  0
SCALE
  5
43
102
{ACAD_REACTORS
330
3B
102
}
330
3B
100
AcDbScale
 70
     0
300
1:20
140
1.0
141
20.0
290
     0
  0
SCALE
  5
44
102
{ACAD_REACTORS
330
3B
102
}
330
3B
100
AcDbScale
 70
     0
300
1:30
140
1.0
141
30.0
290
     0
  0
SCALE
  5
45
102
{ACAD_REACTORS
330
3B
102
}
330
3B
100
AcDbScale
 70
     0
300
1:40
140
1.0
141
40.0
290
     0
  0
SCALE
  5
46
102
{ACAD_REACTORS
330
3B
102
}
330
3B
100
AcDbScale
 70
     0
300
1:50
140
1.0
141
50.0
290
     0
  0
SCALE
  5
47
102
{ACAD_REACTORS
330
3B
102
}
330
3B
100
AcDbScale
 70
     0
300
1:100
140
1.0
141
100.0
290
     0
  0
SCALE
  5
48
102
{ACAD_REACTORS
330
3B
102
}
330
3B
100
AcDbScale
 70
     0
300
2:1
140
2.0
141
1.0
290
     0
  0
SCALE
  5
49
102
{ACAD_REACTORS
330
3B
102
}
330
3B
100
AcDbScale
 70
     0
300
4:1
140
4.0
141
1.0
290
     0
  0
SCALE
  5
4A
102
{ACAD_REACTORS
330
3B
102
}
330
3B
100
AcDbScale
 70
     0
300
8:1
140
8.0
141
1.0
290
     0
  0
SCALE
  5
4B
102
{ACAD_REACTORS
330
3B
102
}
330
3B
100
AcDbScale
 70
     0
300
10:1
140
10.0
141
1.0
290
     0
  0
SCALE
  5
4C
102
{ACAD_REACTORS
330
3B
102
}
330
3B
100
AcDbScale
 70
     0
300
100:1
140
100.0
141
1.0
290
     0
  0
SCALE
  5
4D
102
{ACAD_REACTORS
330
3B
102
}
330
3B
100
AcDbScale
 70
     0
300
1/128" = 1'-0"
140
0.0078125
141
12.0
290
     0
  0
SCALE
  5
4E
102
{ACAD_REACTORS
330
3B
102
}
330
3B
100
AcDbScale
 70
     0
300
1/64" = 1'-0"
140
0.015625
141
12.0
290
     0
  0
SCALE
  5
4F
102
{ACAD_REACTORS
330
3B
102
}
330
3B
100
AcDbScale
 70
     0
300
1/32" = 1'-0"
140
0.03125
141
12.0
290
     0
  0
SCALE
  5
50
102
{ACAD_REACTORS
330
3B
102
}
330
3B
100
AcDbScale
 70
     0
300
1/16" = 1'-0"
140
0.0625
141
12.0
290
     0
  0
SCALE
  5
51
102
{ACAD_REACTORS
330
3B
102
}
330
3B
100
AcDbScale
 70
     0
300
3/32" = 1'-0"
140
0.09375
141
12.0
290
     0
  0
SCALE
  5
52
102
{ACAD_REACTORS
330
3B
102
}
330
3B
100
AcDbScale
 70
     0
300
1/8" = 1'-0"
140
0.125
141
12.0
290
     0
  0
SCALE
  5
53
102
{ACAD_REACTORS
330
3B
102
}
330
3B
100
AcDbScale
 70
     0
300
3/16" = 1'-0"
140
0.1875
141
12.0
290
     0
  0
SCALE
  5
54
102
{ACAD_REACTORS
330
3B
102
}
330
3B
100
AcDbScale
 70
     0
300
1/4" = 1'-0"
140
0.25
141
12.0
290
     0
  0
SCALE
  5
55
102
{ACAD_REACTORS
330
3B
102
}
330
3B
100
AcDbScale
 70
     0
300
3/8" = 1'-0"
140
0.375
141
12.0
290
     0
  0
SCALE
  5
56
102
{ACAD_REACTORS
330
3B
102
}
330
3B
100
AcDbScale
 70
     0
300
1/2" = 1'-0"
140
0.5
141
12.0
290
     0
  0
SCALE
  5
57
102
{ACAD_REACTORS
330
3B
102
}
330
3B
100
AcDbScale
 70
     0
300
3/4" = 1'-0"
140
0.75
141
12.0
290
     0
  0
SCALE
  5
58
102
{ACAD_REACTORS
330
3B
102
}
330
3B
100
AcDbScale
 70
     0
300
1" = 1'-0"
140
1.0
141
12.0
290
     0
  0
SCALE
  5
59
102
{ACAD_REACTORS
330
3B
102
}
330
3B
100
AcDbScale
 70
     0
300
1-1/2" = 1'-0"
140
1.5
141
12.0
290
     0
  0
SCALE
  5
5A
102
{ACAD_REACTORS
330
3B
102
}
330
3B
100
AcDbScale
 70
     0
300
3" = 1'-0"
140
3.0
141
12.0
290
     0
  0
SCALE
  5
5B
102
{ACAD_REACTORS
330
3B
102
}
330
3B
100
AcDbScale
 70
     0
300
6" = 1'-0"
140
6.0
141
12.0
290
     0
  0
SCALE
  5
5C
102
{ACAD_REACTORS
330
3B
102
}
330
3B
100
AcDbScale
 70
     0
300
1'-0" = 1'-0"
140
12.0
141
12.0
290
     0
  0
VISUALSTYLE
  5
2F
102
{ACAD_REACTORS
330
2A
102
}
330
2A
100
AcDbVisualStyle
  2
2dWireframe
 70
     4
 71
     0
 72
     2
 73
     0
 90
        0
 40
-0.6
 41
-30.0
 62
     5
 63
     7
 74
     1
 91
        4
 64
     7
 65
   257
 75
     1
175
     1
 42
1.0
 92
        0
 66
   257
 43
1.0
 76
     1
 77
     6
 78
     2
 67
     7
 79
     5
170
     0
171
     0
290
     0
174
     0
 93
        1
 44
0.0
173
     0
291
     0
 45
0.0
1001
ACAD
1000
AcDbSavedByObjectVersion
1070
     0
  0
VISUALSTYLE
  5
31
102
{ACAD_REACTORS
330
2A
102
}
330
2A
100
AcDbVisualStyle
  2
3D Hidden
 70
     6
 71
     1
 72
     2
 73
     2
 90
        0
 40
-0.6
 41
-30.0
 62
     5
 63
     7
 74
     2
 91
        2
 64
     7
 65
   257
 75
     2
175
     1
 42
40.0
 92
        0
 66
   257
 43
1.0
 76
     1
 77
     6
 78
     2
 67
     7
 79
     3
170
     0
171
     0
290
     0
174
     0
 93
        1
 44
0.0
173
     0
291
     0
 45
0.0
1001
ACAD
1000
AcDbSavedByObjectVersion
1070
     0
  0
VISUALSTYLE
  5
30
102
{ACAD_REACTORS
330
2A
102
}
330
2A
100
AcDbVisualStyle
  2
3dWireframe
 70
     5
 71
     0
 72
     2
 73
     0
 90
        0
 40
-0.6
 41
-30.0
 62
     5
 63
     7
 74
     1
 91
        4
 64
     7
 65
   257
 75
     1
175
     1
 42
1.0
 92
        0
 66
   257
 43
1.0
 76
     1
 77
     6
 78
     2
 67
     7
 79
     5
170
     0
171
     0
290
     0
174
     0
 93
        1
 44
0.0
173
     0
291
     0
 45
0.0
1001
ACAD
1000
AcDbSavedByObjectVersion
1070
     0
  0
VISUALSTYLE
  5
32
102
{ACAD_REACTORS
330
2A
102
}
330
2A
100
AcDbVisualStyle
  2
Basic
 70
     7
 71
     1
 72
     0
 73
     1
 90
        0
 40
-0.6
 41
-30.0
 62
     5
 63
     7
 74
     0
 91
        4
 64
     7
 65
   257
 75
     1
175
     1
 42
1.0
 92
        8
 66
     7
 43
1.0
 76
     1
 77
     6
 78
     2
 67
     7
 79
     5
170
     0
171
     0
290
     0
174
     0
 93
        1
 44
0.0
173
     0
291
     1
 45
0.0
1001
ACAD
1000
AcDbSavedByObjectVersion
1070
     0
  0
VISUALSTYLE
  5
36
102
{ACAD_REACTORS
330
2A
102
}
330
2A
100
AcDbVisualStyle
  2
Brighten
 70
    12
 71
     2
 72
     2
 73
     0
 90
        0
 40
-0.6
 41
-30.0
 62
     5
 63
     7
 74
     1
 91
        4
 64
     7
 65
   257
 75
     1
175
     1
 42
1.0
 92
        8
 66
     7
 43
1.0
 76
     1
 77
     6
 78
     2
 67
     7
 79
     5
170
     0
171
     0
290
     0
174
     0
 93
        1
 44
50.0
173
     0
291
     1
 45
0.0
1001
ACAD
1000
AcDbSavedByObjectVersion
1070
     0
  0
VISUALSTYLE
  5
3A
102
{ACAD_REACTORS
330
2A
102
}
330
2A
100
AcDbVisualStyle
  2
ColorChange
 70
    16
 71
     2
 72
     2
 73
     3
 90
        0
 40
-0.6
 41
-30.0
 62
     5
 63
     8
 74
     1
 91
        4
 64
     7
 65
   257
 75
     1
175
     1
 42
1.0
 92
        8
 66
     8
 43
1.0
 76
     1
 77
     6
 78
     2
 67
     7
 79
     5
170
     0
171
     0
290
     0
174
     0
 93
        1
 44
0.0
173
     0
291
     1
 45
0.0
1001
ACAD
1000
AcDbSavedByObjectVersion
1070
     0
  0
VISUALSTYLE
  5
34
102
{ACAD_REACTORS
330
2A
102
}
330
2A
100
AcDbVisualStyle
  2
Conceptual
 70
     9
 71
     3
 72
     2
 73
     0
 90
        0
 40
-0.6
 41
-30.0
 62
     5
 63
     7
 74
     2
 91
        2
 64
     7
 65
   257
 75
     1
175
     1
 42
40.0
 92
        8
 66
     7
 43
1.0
 76
     1
 77
     6
 78
     2
 67
     7
 79
     3
170
     0
171
     0
290
     0
174
     0
 93
        1
 44
0.0
173
     0
291
     0
 45
0.0
1001
ACAD
1000
AcDbSavedByObjectVersion
1070
     0
  0
VISUALSTYLE
  5
35
102
{ACAD_REACTORS
330
2A
102
}
330
2A
100
AcDbVisualStyle
  2
Dim
 70
    11
 71
     2
 72
     2
 73
     0
 90
        0
 40
-0.6
 41
-30.0
 62
     5
 63
     7
 74
     1
 91
        4
 64
     7
 65
   257
 75
     1
175
     1
 42
1.0
 92
        8
 66
     7
 43
1.0
 76
     1
 77
     6
 78
     2
 67
     7
 79
     5
170
     0
171
     0
290
     0
174
     0
 93
        1
 44
-50.0
173
     0
291
     1
 45
0.0
1001
ACAD
1000
AcDbSavedByObjectVersion
1070
     0
  0
VISUALSTYLE
  5
39
102
{ACAD_REACTORS
330
2A
102
}
330
2A
100
AcDbVisualStyle
  2
Facepattern
 70
    15
 71
     2
 72
     2
 73
     0
 90
        0
 40
-0.6
 41
-30.0
 62
     5
 63
     7
 74
     1
 91
        4
 64
     7
 65
   257
 75
     1
175
     1
 42
1.0
 92
        8
 66
     7
 43
1.0
 76
     1
 77
     6
 78
     2
 67
     7
 79
     5
170
     0
171
     0
290
     0
174
     0
 93
        1
 44
0.0
173
     0
291
     1
 45
0.0
1001
ACAD
1000
AcDbSavedByObjectVersion
1070
     0
  0
VISUALSTYLE
  5
2B
102
{ACAD_REACTORS
330
2A
102
}
330
2A
100
AcDbVisualStyle
  2
Flat
 70
     0
 71
     2
 72
     1
 73
     1
 90
        2
 40
-0.6
 41
30.0
 62
     5
 63
     7
 74
     0
 91
        4
 64
     7
 65
   257
 75
     1
175
     1
 42
1.0
 92
        8
 66
     7
 43
1.0
 76
     1
 77
     6
 78
     2
 67
     7
 79
     5
170
     0
171
     0
290
     0
174
     0
 93
       13
 44
0.0
173
     0
291
     1
 45
0.0
1001
ACAD
1000
AcDbSavedByObjectVersion
1070
     0
  0
VISUALSTYLE
  5
2C
102
{ACAD_REACTORS
330
2A
102
}
330
2A
100
AcDbVisualStyle
  2
FlatWithEdges
 70
     1
 71
     2
 72
     1
 73
     1
 90
        2
 40
-0.6
 41
30.0
 62
     5
 63
     7
 74
     1
 91
        4
 64
     7
 65
   257
 75
     1
175
     1
 42
1.0
 92
        0
 66
   257
 43
1.0
 76
     1
 77
     6
 78
     2
 67
     7
 79
     5
170
     0
171
     0
290
     0
174
     0
 93
       13
 44
0.0
173
     0
291
     1
 45
0.0
1001
ACAD
1000
AcDbSavedByObjectVersion
1070
     0
  0
VISUALSTYLE
  5
2D
102
{ACAD_REACTORS
330
2A
102
}
330
2A
100
AcDbVisualStyle
  2
Gouraud
 70
     2
 71
     2
 72
     2
 73
     1
 90
        2
 40
-0.6
 41
30.0
 62
     5
 63
     7
 74
     0
 91
        4
 64
     7
 65
   257
 75
     1
175
     1
 42
1.0
 92
        0
 66
     7
 43
1.0
 76
     1
 77
     6
 78
     2
 67
     7
 79
     5
170
     0
171
     0
290
     0
174
     0
 93
       13
 44
0.0
173
     0
291
     1
 45
0.0
1001
ACAD
1000
AcDbSavedByObjectVersion
1070
     0
  0
VISUALSTYLE
  5
2E
102
{ACAD_REACTORS
330
2A
102
}
330
2A
100
AcDbVisualStyle
  2
GouraudWithEdges
 70
     3
 71
     2
 72
     2
 73
     1
 90
        2
 40
-0.6
 41
30.0
 62
     5
 63
     7
 74
     1
 91
        4
 64
     7
 65
   257
 75
     1
175
     1
 42
1.0
 92
        0
 66
   257
 43
1.0
 76
     1
 77
     6
 78
     2
 67
     7
 79
     5
170
     0
171
     0
290
     0
174
     0
 93
       13
 44
0.0
173
     0
291
     1
 45
0.0
1001
ACAD
1000
AcDbSavedByObjectVersion
1070
     0
  0
VISUALSTYLE
  5
38
102
{ACAD_REACTORS
330
2A
102
}
330
2A
100
AcDbVisualStyle
  2
Linepattern
 70
    14
 71
     2
 72
     2
 73
     0
 90
        0
 40
-0.6
 41
-30.0
 62
     5
 63
     7
 74
     1
 91
        4
 64
     7
 65
   257
 75
     7
175
     7
 42
1.0
 92
        8
 66
     7
 43
1.0
 76
     1
 77
     6
 78
     2
 67
     7
 79
     5
170
     0
171
     0
290
     0
174
     0
 93
        1
 44
0.0
173
     0
291
     1
 45
0.0
1001
ACAD
1000
AcDbSavedByObjectVersion
1070
     0
  0
VISUALSTYLE
  5
33
102
{ACAD_REACTORS
330
2A
102
}
330
2A
100
AcDbVisualStyle
  2
Realistic
 70
     8
 71
     2
 72
     2
 73
     0
 90
        0
 40
-0.6
 41
-30.0
 62
     5
 63
     7
 74
     1
 91
        0
 64
     7
 65
   257
 75
     1
175
     1
 42
1.0
 92
        8
 66
     8
 43
1.0
 76
     1
 77
     6
 78
     2
 67
     7
 79
     5
170
     0
171
     0
290
     0
174
     0
 93
       13
 44
0.0
173
     0
291
     0
 45
0.0
1001
ACAD
1000
AcDbSavedByObjectVersion
1070
     0
  0
VISUALSTYLE
  5
37
102
{ACAD_REACTORS
330
2A
102
}
330
2A
100
AcDbVisualStyle
  2
Thicken
 70
    13
 71
     2
 72
     2
 73
     0
 90
        0
 40
-0.6
 41
-30.0
 62
     5
 63
     7
 74
     1
 91
        4
 64
     7
 65
   257
 75
     1
175
     1
 42
1.0
 92
       12
 66
     7
 43
1.0
 76
     1
 77
     6
 78
     2
 67
     7
 79
     5
170
     0
171
     0
290
     0
174
     0
 93
        1
 44
0.0
173
     0
291
     1
 45
0.0
1001
ACAD
1000
AcDbSavedByObjectVersion
1070
     0
  0
DICTIONARYVAR
  5
22D
102
{ACAD_REACTORS
330
22C
102
}
330
22C
100
DictionaryVariables
280
     0
  1
1:1
  0
DICTIONARYVAR
  5
231
102
{ACAD_REACTORS
330
22C
102
}
330
22C
100
DictionaryVariables
280
     0
  1
80.000000
  0
DICTIONARYVAR
  5
230
102
{ACAD_REACTORS
330
22C
102
}
330
22C
100
DictionaryVariables
280
     0
  1
5.000000
  0
ENDSEC
  0
EOF
