  0
SECTION
  2
HEADER
  9
$ACADVER
  1
AC1015
  9
$ACADMAINTVER
 70
     6
  9
$DWGCODEPAGE
  3
ANSI_1252
  9
$INSBASE
 10
0.0
 20
0.0
 30
0.0
  9
$EXTMIN
 10
0.0
 20
0.0
 30
0.0
  9
$EXTMAX
 10
3000.0
 20
4500.0
 30
0.0
  9
$LIMMIN
 10
0.0
 20
0.0
  9
$LIMMAX
 10
3000.0
 20
4500.0
  9
$ORTHOMODE
 70
     0
  9
$REGENMODE
 70
     1
  9
$FILLMODE
 70
     1
  9
$QTEXTMODE
 70
     0
  9
$MIRRTEXT
 70
     1
  9
$LTSCALE
 40
1.0
  9
$ATTMODE
 70
     1
  9
$TEXTSIZE
 40
2.5
  9
$TRACEWID
 40
1.0
  9
$TEXTSTYLE
  7
Standard
  9
$CLAYER
  8
0
  9
$CELTYPE
  6
ByLayer
  9
$CECOLOR
 62
   256
  9
$CELTSCALE
 40
1.0
  9
$DISPSILH
 70
     0
  9
$DIMSCALE
 40
1.0
  9
$DIMASZ
 40
2.5
  9
$DIMEXO
 40
0.625
  9
$DIMDLI
 40
3.75
  9
$DIMRND
 40
0.0
  9
$DIMDLE
 40
0.0
  9
$DIMEXE
 40
1.25
  9
$DIMTP
 40
0.0
  9
$DIMTM
 40
0.0
  9
$DIMTXT
 40
2.5
  9
$DIMCEN
 40
2.5
  9
$DIMTSZ
 40
0.0
  9
$DIMTOL
 70
     0
  9
$DIMLIM
 70
     0
  9
$DIMTIH
 70
     0
  9
$DIMTOH
 70
     0
  9
$DIMSE1
 70
     0
  9
$DIMSE2
 70
     0
  9
$DIMTAD
 70
     1
  9
$DIMZIN
 70
     8
  9
$DIMBLK
  1

  9
$DIMASO
 70
     1
  9
$DIMSHO
 70
     1
  9
$DIMPOST
  1

  9
$DIMAPOST
  1

  9
$DIMALT
 70
     0
  9
$DIMALTD
 70
     3
  9
$DIMALTF
 40
0.0393700787
  9
$DIMLFAC
 40
1.0
  9
$DIMTOFL
 70
     1
  9
$DIMTVP
 40
0.0
  9
$DIMTIX
 70
     0
  9
$DIMSOXD
 70
     0
  9
$DIMSAH
 70
     0
  9
$DIMBLK1
  1

  9
$DIMBLK2
  1

  9
$DIMSTYLE
  2
ISO-25
  9
$DIMCLRD
 70
     0
  9
$DIMCLRE
 70
     0
  9
$DIMCLRT
 70
     0
  9
$DIMTFAC
 40
1.0
  9
$DIMGAP
 40
0.625
  9
$DIMJUST
 70
     0
  9
$DIMSD1
 70
     0
  9
$DIMSD2
 70
     0
  9
$DIMTOLJ
 70
     0
  9
$DIMTZIN
 70
     8
  9
$DIMALTZ
 70
     0
  9
$DIMALTTZ
 70
     0
  9
$DIMUPT
 70
     0
  9
$DIMDEC
 70
     2
  9
$DIMTDEC
 70
     2
  9
$DIMALTU
 70
     2
  9
$DIMALTTD
 70
     3
  9
$DIMTXSTY
  7
Standard
  9
$DIMAUNIT
 70
     0
  9
$DIMADEC
 70
     0
  9
$DIMALTRND
 40
0.0
  9
$DIMAZIN
 70
     0
  9
$DIMDSEP
 70
    44
  9
$DIMATFIT
 70
     3
  9
$DIMFRAC
 70
     0
  9
$DIMLDRBLK
  1

  9
$DIMLUNIT
 70
     2
  9
$DIMLWD
 70
    -2
  9
$DIMLWE
 70
    -2
  9
$DIMTMOVE
 70
     0
  9
$LUNITS
 70
     2
  9
$LUPREC
 70
     4
  9
$SKETCHINC
 40
1.0
  9
$FILLETRAD
 40
10.0
  9
$AUNITS
 70
     0
  9
$AUPREC
 70
     0
  9
$MENU
  1
.
  9
$ELEVATION
 40
0.0
  9
$PELEVATION
 40
0.0
  9
$THICKNESS
 40
0.0
  9
$LIMCHECK
 70
     0
  9
$CHAMFERA
 40
10.0
  9
$CHAMFERB
 40
10.0
  9
$CHAMFERC
 40
20.0
  9
$CHAMFERD
 40
0.0
  9
$SKPOLY
 70
     0
  9
$TDCREATE
 40
2456338.436580289
  9
$TDUCREATE
 40
2456338.394913623
  9
$TDUPDATE
 40
2456338.436580301
  9
$TDUUPDATE
 40
2456338.394913634
  9
$TDINDWG
 40
0.0000000116
  9
$TDUSRTIMER
 40
0.0000000116
  9
$USRTIMER
 70
     1
  9
$ANGBASE
 50
0.0
  9
$ANGDIR
 70
     0
  9
$PDMODE
 70
     0
  9
$PDSIZE
 40
0.0
  9
$PLINEWID
 40
0.0
  9
$SPLFRAME
 70
     0
  9
$SPLINETYPE
 70
     6
  9
$SPLINESEGS
 70
     8
  9
$HANDSEED
  5
246
  9
$SURFTAB1
 70
     6
  9
$SURFTAB2
 70
     6
  9
$SURFTYPE
 70
     6
  9
$SURFU
 70
     6
  9
$SURFV
 70
     6
  9
$UCSBASE
  2

  9
$UCSNAME
  2

  9
$UCSORG
 10
0.0
 20
0.0
 30
0.0
  9
$UCSXDIR
 10
1.0
 20
0.0
 30
0.0
  9
$UCSYDIR
 10
0.0
 20
1.0
 30
0.0
  9
$UCSORTHOREF
  2

  9
$UCSORTHOVIEW
 70
     0
  9
$UCSORGTOP
 10
0.0
 20
0.0
 30
0.0
  9
$UCSORGBOTTOM
 10
0.0
 20
0.0
 30
0.0
  9
$UCSORGLEFT
 10
0.0
 20
0.0
 30
0.0
  9
$UCSORGRIGHT
 10
0.0
 20
0.0
 30
0.0
  9
$UCSORGFRONT
 10
0.0
 20
0.0
 30
0.0
  9
$UCSORGBACK
 10
0.0
 20
0.0
 30
0.0
  9
$PUCSBASE
  2

  9
$PUCSNAME
  2

  9
$PUCSORG
 10
0.0
 20
0.0
 30
0.0
  9
$PUCSXDIR
 10
1.0
 20
0.0
 30
0.0
  9
$PUCSYDIR
 10
0.0
 20
1.0
 30
0.0
  9
$PUCSORTHOREF
  2

  9
$PUCSORTHOVIEW
 70
     0
  9
$PUCSORGTOP
 10
0.0
 20
0.0
 30
0.0
  9
$PUCSORGBOTTOM
 10
0.0
 20
0.0
 30
0.0
  9
$PUCSORGLEFT
 10
0.0
 20
0.0
 30
0.0
  9
$PUCSORGRIGHT
 10
0.0
 20
0.0
 30
0.0
  9
$PUCSORGFRONT
 10
0.0
 20
0.0
 30
0.0
  9
$PUCSORGBACK
 10
0.0
 20
0.0
 30
0.0
  9
$USERI1
 70
     0
  9
$USERI2
 70
     0
  9
$USERI3
 70
     0
  9
$USERI4
 70
     0
  9
$USERI5
 70
     0
  9
$USERR1
 40
0.0
  9
$USERR2
 40
0.0
  9
$USERR3
 40
0.0
  9
$USERR4
 40
0.0
  9
$USERR5
 40
0.0
  9
$WORLDVIEW
 70
     1
  9
$SHADEDGE
 70
     3
  9
$SHADEDIF
 70
    70
  9
$TILEMODE
 70
     1
  9
$MAXACTVP
 70
    64
  9
$PINSBASE
 10
0.0
 20
0.0
 30
0.0
  9
$PLIMCHECK
 70
     0
  9
$PEXTMIN
 10
0.0
 20
0.0
 30
0.0
  9
$PEXTMAX
 10
3000.0
 20
4500.0
 30
0.0
  9
$PLIMMIN
 10
0.0
 20
0.0
  9
$PLIMMAX
 10
3000.0
 20
4500.0
  9
$UNITMODE
 70
     0
  9
$VISRETAIN
 70
     1
  9
$PLINEGEN
 70
     0
  9
$PSLTSCALE
 70
     1
  9
$TREEDEPTH
 70
  3020
  9
$CMLSTYLE
  2
Standard
  9
$CMLJUST
 70
     0
  9
$CMLSCALE
 40
20.0
  9
$PROXYGRAPHICS
 70
     1
  9
$MEASUREMENT
 70
     1
  9
$CELWEIGHT
370
    -1
  9
$ENDCAPS
280
     0
  9
$JOINSTYLE
280
     0
  9
$LWDISPLAY
290
     0
  9
$INSUNITS
 70
     4
  9
$HYPERLINKBASE
  1

  9
$STYLESHEET
  1

  9
$XEDIT
290
     1
  9
$CEPSNTYPE
380
     0
  9
$PSTYLEMODE
290
     1
  9
$FINGERPRINTGUID
  2
{9332914E-2FE7-498D-AA0E-807E7AF4BA89}
  9
$VERSIONGUID
  2
{FAEB1C32-E019-11D5-929B-00C0DF256EC4}
  9
$EXTNAMES
290
     1
  9
$PSVPSCALE
 40
0.0
  9
$OLESTARTUP
290
     0
  0
ENDSEC
  0
SECTION
  2
CLASSES
  0
CLASS
  1
ACDBDICTIONARYWDFLT
  2
AcDbDictionaryWithDefault
  3
ObjectDBX Classes
 90
        0
280
     0
281
     0
  0
CLASS
  1
VISUALSTYLE
  2
AcDbVisualStyle
  3
ObjectDBX Classes
 90
     4095
280
     0
281
     0
  0
CLASS
  1
SCALE
  2
AcDbScale
  3
ObjectDBX Classes
 90
     1153
280
     0
281
     0
  0
CLASS
  1
DICTIONARYVAR
  2
AcDbDictionaryVar
  3
ObjectDBX Classes
 90
        0
280
     0
281
     0
  0
CLASS
  1
ACDBPLACEHOLDER
  2
AcDbPlaceHolder
  3
ObjectDBX Classes
 90
        0
280
     0
281
     0
  0
CLASS
  1
LAYOUT
  2
AcDbLayout
  3
ObjectDBX Classes
 90
        0
280
     0
281
     0
  0
ENDSEC
  0
SECTION
  2
TABLES
  0
TABLE
  2
VPORT
  5
8
330
0
100
AcDbSymbolTable
 70
     1
  0
VPORT
  5
29
330
8
100
AcDbSymbolTableRecord
100
AcDbViewportTableRecord
  2
*Active
 70
     0
 10
0.0
 20
0.0
 11
1.0
 21
1.0
 12
344.1869158879
 22
148.5
 13
0.0
 23
0.0
 14
10.0
 24
10.0
 15
10.0
 25
10.0
 16
0.0
 26
0.0
 36
1.0
 17
0.0
 27
0.0
 37
0.0
 40
297.0
 41
1.9729729729
 42
50.0
 43
0.0
 44
0.0
 50
0.0
 51
0.0
 71
     0
 72
   100
 73
     1
 74
     3
 75
     0
 76
     0
 77
     0
 78
     0
281
     0
 65
     1
110
0.0
120
0.0
130
0.0
111
1.0
121
0.0
131
0.0
112
0.0
122
1.0
132
0.0
 79
     0
146
0.0
  0
ENDTAB
  0
TABLE
  2
LTYPE
  5
5
330
0
100
AcDbSymbolTable
 70
     2
  0
LTYPE
  5
14
330
5
100
AcDbSymbolTableRecord
100
AcDbLinetypeTableRecord
  2
ByBlock
 70
     0
  3

 72
    65
 73
     0
 40
0.0
  0
LTYPE
  5
15
330
5
100
AcDbSymbolTableRecord
100
AcDbLinetypeTableRecord
  2
ByLayer
 70
     0
  3

 72
    65
 73
     0
 40
0.0
  0
LTYPE
  5
16
330
5
100
AcDbSymbolTableRecord
100
AcDbLinetypeTableRecord
  2
Continuous
 70
     0
  3
Solid line
 72
    65
 73
     0
 40
0.0
  0
LTYPE
  5
60
330
5
100
AcDbSymbolTableRecord
100
AcDbLinetypeTableRecord
  2
CENTER2
 70
     0
  3
Center (.5x) ___ _ ___ _ ___ _ ___ _ ___ _ ___
 72
    65
 73
     4
 40
28.575
 49
19.05
 74
     4
 75
     0
340
0
 46
0.0
 50
0.0
 44
0.0
 45
0.0
 49
-3.175
 74
     4
 75
     0
340
0
 46
0.0
 50
0.0
 44
0.0
 45
0.0
 49
3.175
 74
     4
 75
     0
340
0
 46
0.0
 50
0.0
 44
0.0
 45
0.0
 49
-3.175
 74
     4
 75
     0
340
0
 46
0.0
 50
0.0
 44
0.0
 45
0.0
  0
ENDTAB
  0
TABLE
  2
LAYER
  5
2
330
0
100
AcDbSymbolTable
 70
     9
  0
LAYER
  5
10
330
2
100
AcDbSymbolTableRecord
100
AcDbLayerTableRecord
  2
0
 70
     0
 62
     7
  6
Continuous
370
    -3
390
F
  0
LAYER
  5
5D
330
2
100
AcDbSymbolTableRecord
100
AcDbLayerTableRecord
  2
Default
 70
     0
 62
     7
  6
Continuous
370
    -3
390
F
  0
LAYER
  5
77
330
2
100
AcDbSymbolTableRecord
100
AcDbLayerTableRecord
  2
$DDT_AUDIT_GENERATED_(77)
 70
     0
 62
     7
  6
Continuous
370
    -3
390
F
  0
LAYER
  5
89
330
2
100
AcDbSymbolTableRecord
100
AcDbLayerTableRecord
  2
$DDT_AUDIT_GENERATED_(89)
 70
     0
 62
     7
  6
Continuous
370
    -3
390
F
  0
LAYER
  5
9A
330
2
100
AcDbSymbolTableRecord
100
AcDbLayerTableRecord
  2
$DDT_AUDIT_GENERATED_(9A)
 70
     0
 62
     7
  6
Continuous
370
    -3
390
F
  0
LAYER
  5
9E
330
2
100
AcDbSymbolTableRecord
100
AcDbLayerTableRecord
  2
$DDT_AUDIT_GENERATED_(9E)
 70
     0
 62
     7
  6
Continuous
370
    -3
390
F
  0
LAYER
  5
B3
330
2
100
AcDbSymbolTableRecord
100
AcDbLayerTableRecord
  2
$DDT_AUDIT_GENERATED_(B3)
 70
     0
 62
     7
  6
Continuous
370
    -3
390
F
  0
LAYER
  5
B5
330
2
100
AcDbSymbolTableRecord
100
AcDbLayerTableRecord
  2
$DDT_AUDIT_GENERATED_(B5)
 70
     0
 62
     7
  6
Continuous
370
    -3
390
F
  0
LAYER
  5
B8
330
2
100
AcDbSymbolTableRecord
100
AcDbLayerTableRecord
  2
$DDT_AUDIT_GENERATED_(B8)
 70
     0
 62
     7
  6
Continuous
370
    -3
390
F
  0
ENDTAB
  0
TABLE
  2
STYLE
  5
3
330
0
100
AcDbSymbolTable
 70
     2
  0
STYLE
  5
11
330
3
100
AcDbSymbolTableRecord
100
AcDbTextStyleTableRecord
  2
Standard
 70
     0
 40
0.0
 41
1.0
 50
0.0
 71
     0
 42
2.5
  3
txt
  4

  0
STYLE
  5
235
330
3
100
AcDbSymbolTableRecord
100
AcDbTextStyleTableRecord
  2
SEACAD_seiso_ttf
 70
     0
 40
0.0
 41
1.0
 50
0.0
 71
     0
 42
0.2
  3
seiso.ttf
  4

  0
ENDTAB
  0
TABLE
  2
VIEW
  5
6
330
0
100
AcDbSymbolTable
 70
     0
  0
ENDTAB
  0
TABLE
  2
UCS
  5
7
330
0
100
AcDbSymbolTable
 70
     0
  0
ENDTAB
  0
TABLE
  2
APPID
  5
9
330
0
100
AcDbSymbolTable
 70
     1
  0
APPID
  5
12
330
9
100
AcDbSymbolTableRecord
100
AcDbRegAppTableRecord
  2
ACAD
 70
     0
  0
ENDTAB
  0
TABLE
  2
DIMSTYLE
  5
A
330
0
100
AcDbSymbolTable
 70
     1
100
AcDbDimStyleTable
  0
DIMSTYLE
105
27
330
A
100
AcDbSymbolTableRecord
100
AcDbDimStyleTableRecord
  2
ISO-25
 70
     0
 41
2.5
 42
0.625
 43
3.75
 44
1.25
 73
     0
 74
     0
 77
     1
 78
     8
140
2.5
141
2.5
143
0.0393700787
147
0.625
171
     3
172
     1
271
     2
272
     2
274
     3
278
    44
283
     0
284
     8
340
11
  0
ENDTAB
  0
TABLE
  2
BLOCK_RECORD
  5
1
330
0
100
AcDbSymbolTable
 70
     7
  0
BLOCK_RECORD
  5
1F
330
1
100
AcDbSymbolTableRecord
100
AcDbBlockTableRecord
  2
*Model_Space
340
22
  0
BLOCK_RECORD
  5
1B
330
1
100
AcDbSymbolTableRecord
100
AcDbBlockTableRecord
  2
*Paper_Space
340
1E
  0
BLOCK_RECORD
  5
5E
330
1
100
AcDbSymbolTableRecord
100
AcDbBlockTableRecord
  2
SEANNOT_GROUP
340
0
102
{BLKREFS
331
5F
102
}
  0
BLOCK_RECORD
  5
65
330
1
100
AcDbSymbolTableRecord
100
AcDbBlockTableRecord
  2
SEANNOT_GROUP1
340
0
102
{BLKREFS
331
66
102
}
  0
BLOCK_RECORD
  5
6B
330
1
100
AcDbSymbolTableRecord
100
AcDbBlockTableRecord
  2
SEANNOT_GROUP2
340
0
102
{BLKREFS
331
6C
102
}
  0
BLOCK_RECORD
  5
75
330
1
100
AcDbSymbolTableRecord
100
AcDbBlockTableRecord
  2
SE
340
0
102
{BLKREFS
331
76
102
}
  0
BLOCK_RECORD
  5
BE
330
1
100
AcDbSymbolTableRecord
100
AcDbBlockTableRecord
  2
SE1
340
0
102
{BLKREFS
331
BF
102
}
  0
BLOCK_RECORD
  5
20C
330
1
100
AcDbSymbolTableRecord
100
AcDbBlockTableRecord
  2
SE2
340
0
102
{BLKREFS
331
20D
102
}
  0
ENDTAB
  0
ENDSEC
  0
SECTION
  2
BLOCKS
  0
BLOCK
  5
20
330
1F
100
AcDbEntity
  8
0
100
AcDbBlockBegin
  2
*Model_Space
 70
     0
 10
0.0
 20
0.0
 30
0.0
  3
*Model_Space
  1

  0
ENDBLK
  5
21
330
1F
100
AcDbEntity
  8
0
100
AcDbBlockEnd
  0
BLOCK
  5
1C
330
1B
100
AcDbEntity
 67
     1
  8
0
100
AcDbBlockBegin
  2
*Paper_Space
 70
     0
 10
0.0
 20
0.0
 30
0.0
  3
*Paper_Space
  1

  0
ENDBLK
  5
1D
330
1B
100
AcDbEntity
 67
     1
  8
0
100
AcDbBlockEnd
  0
BLOCK
  5
63
330
5E
100
AcDbEntity
  8
0
100
AcDbBlockBegin
  2
SEANNOT_GROUP
 70
     0
 10
0.0
 20
0.0
 30
0.0
  3
SEANNOT_GROUP
  1

  0
LINE
  5
61
330
5E
100
AcDbEntity
  8
Default
  6
CENTER2
 62
     7
100
AcDbLine
 10
142.2135841275
 20
260.6455295041
 30
0.0
 11
102.2135850216
 21
260.6455295041
 31
0.0
  0
LINE
  5
62
330
5E
100
AcDbEntity
  8
Default
  6
CENTER2
 62
     7
100
AcDbLine
 10
122.2135845746
 20
280.645529057
 30
0.0
 11
122.2135845746
 21
240.6455299511
 31
0.0
  0
ENDBLK
  5
64
330
5E
100
AcDbEntity
  8
0
100
AcDbBlockEnd
  0
BLOCK
  5
69
330
65
100
AcDbEntity
  8
0
100
AcDbBlockBegin
  2
SEANNOT_GROUP1
 70
     0
 10
0.0
 20
0.0
 30
0.0
  3
SEANNOT_GROUP1
  1

  0
LINE
  5
67
330
65
100
AcDbEntity
  8
Default
  6
CENTER2
 62
     7
100
AcDbLine
 10
264.9710756339
 20
260.6455288125
 30
0.0
 11
224.971076528
 21
260.6455288125
 31
0.0
  0
LINE
  5
68
330
65
100
AcDbEntity
  8
Default
  6
CENTER2
 62
     7
100
AcDbLine
 10
244.9710760809
 20
280.6455283654
 30
0.0
 11
244.9710760809
 21
240.6455292595
 31
0.0
  0
ENDBLK
  5
6A
330
65
100
AcDbEntity
  8
0
100
AcDbBlockEnd
  0
BLOCK
  5
73
330
6B
100
AcDbEntity
  8
0
100
AcDbBlockBegin
  2
SEANNOT_GROUP2
 70
     0
 10
0.0
 20
0.0
 30
0.0
  3
SEANNOT_GROUP2
  1

  0
LINE
  5
6D
330
6B
100
AcDbEntity
  8
Default
  6
CENTER2
 62
     7
100
AcDbLine
 10
142.2265517819
 20
164.4330912097
 30
0.0
 11
102.2265526759
 21
164.4330912097
 31
0.0
  0
LINE
  5
6E
330
6B
100
AcDbEntity
  8
Default
  6
CENTER2
 62
     7
100
AcDbLine
 10
122.2265522289
 20
184.4330907627
 30
0.0
 11
122.2265522289
 21
144.4330916567
 31
0.0
  0
LINE
  5
6F
330
6B
100
AcDbEntity
  8
Default
  6
CENTER2
 62
     7
100
AcDbLine
 10
147.2265516701
 20
164.4330912097
 30
0.0
 11
150.9011653907
 21
164.4330912097
 31
0.0
  0
LINE
  5
70
330
6B
100
AcDbEntity
  8
Default
  6
CENTER2
 62
     7
100
AcDbLine
 10
122.2265522289
 20
189.4330906509
 30
0.0
 11
122.2265522289
 21
193.1077043715
 31
0.0
  0
LINE
  5
71
330
6B
100
AcDbEntity
  8
Default
  6
CENTER2
 62
     7
100
AcDbLine
 10
97.2265527877
 20
164.4330912097
 30
0.0
 11
93.5519390671
 21
164.4330912097
 31
0.0
  0
LINE
  5
72
330
6B
100
AcDbEntity
  8
Default
  6
CENTER2
 62
     7
100
AcDbLine
 10
122.2265522289
 20
139.4330917685
 30
0.0
 11
122.2265522289
 21
135.7584780479
 31
0.0
  0
ENDBLK
  5
74
330
6B
100
AcDbEntity
  8
0
100
AcDbBlockEnd
  0
BLOCK
  5
BC
330
75
100
AcDbEntity
  8
0
100
AcDbBlockBegin
  2
SE
 70
     0
 10
0.0
 20
0.0
 30
0.0
  3
SE
  1

  0
LINE
  5
78
330
75
100
AcDbEntity
  8
$DDT_AUDIT_GENERATED_(77)
  6
Continuous
 62
     7
100
AcDbLine
 10
219.5846256056
 20
260.6455292988
 30
0.0
 11
270.3575265562
 21
260.6455283262
 31
0.0
  0
SPLINE
  5
79
330
75
100
AcDbEntity
  8
$DDT_AUDIT_GENERATED_(77)
  6
Continuous
 62
     7
100
AcDbSpline
210
0.0
220
0.0
230
1.0
 70
     8
 71
     3
 72
    10
 73
     6
 74
     0
 42
0.0000000492891564
 43
0.0000000001
 40
0.4992371438660083
 40
0.4992371438660083
 40
0.4992371438660083
 40
0.4992371438660083
 40
0.5000000000000003
 40
0.5000000000000003
 40
0.5041660595101584
 40
0.5041660595101584
 40
0.5041660595101584
 40
0.5041660595101584
 10
358.2159989513294
 20
319.9276434173819
 30
0.0
 10
358.2160043733234
 20
319.9276434745515
 30
0.0
 10
358.2160048750923
 20
319.9276433463896
 30
0.0
 10
358.2159763048306
 20
319.9276413202376
 30
0.0
 10
358.2158136804314
 20
319.9276343700869
 30
0.0
 10
358.2155127196772
 20
319.9276221842389
 30
0.0
  0
ARC
  5
7A
330
75
100
AcDbEntity
  8
$DDT_AUDIT_GENERATED_(77)
  6
Continuous
 62
     7
100
AcDbCircle
 10
371.470493396
 20
264.0988703571
 30
0.0
 40
55.82592336882417
100
AcDbArc
 50
107.5087177832
 51
132.866838019
  0
ARC
  5
7B
330
75
100
AcDbEntity
  8
$DDT_AUDIT_GENERATED_(77)
  6
Continuous
 62
     7
100
AcDbCircle
 10
150.1044717291
 20
300.4911525469
 30
0.0
 40
75.48535294355091
100
AcDbArc
 50
346.4950019339
 51
353.5038181028
  0
ARC
  5
7C
330
75
100
AcDbEntity
  8
$DDT_AUDIT_GENERATED_(77)
  6
Continuous
 62
     7
100
AcDbCircle
 10
322.7422308321
 20
220.3994735566
 30
0.0
 40
83.42676211881002
100
AcDbArc
 50
85.2011032764
 51
118.4472115552
  0
LINE
  5
7D
330
75
100
AcDbEntity
  8
$DDT_AUDIT_GENERATED_(77)
  6
Continuous
 62
     7
100
AcDbLine
 10
354.6161147086
 20
317.4245348867
 30
0.0
 11
358.1546557856
 21
319.8990345058
 31
0.0
  0
LINE
  5
7E
330
75
100
AcDbEntity
  8
$DDT_AUDIT_GENERATED_(77)
  6
Continuous
 62
     7
100
AcDbLine
 10
330.6809987478
 20
303.7495486935
 30
0.0
 11
333.475643572
 21
305.1091749714
 31
0.0
  0
ARC
  5
7F
330
75
100
AcDbEntity
  8
$DDT_AUDIT_GENERATED_(77)
  6
Continuous
 62
     7
100
AcDbCircle
 10
226.4050006336
 20
-130.8282274625
 30
0.0
 40
472.0155796771938
100
AcDbArc
 50
73.8561261162
 51
82.2475655278
  0
LINE
  5
80
330
75
100
AcDbEntity
  8
$DDT_AUDIT_GENERATED_(77)
  6
Continuous
 62
     7
100
AcDbLine
 10
223.5042042982
 20
282.874629802
 30
0.0
 11
219.5850874264
 21
260.6482135378
 31
0.0
  0
LINE
  5
81
330
75
100
AcDbEntity
  8
$DDT_AUDIT_GENERATED_(77)
  6
Continuous
 62
     7
100
AcDbLine
 10
235.9721612994
 20
353.583927671
 30
0.0
 11
225.102329475
 21
291.9380480629
 31
0.0
  0
LINE
  5
82
330
75
100
AcDbEntity
  8
$DDT_AUDIT_GENERATED_(77)
  6
Continuous
 62
     7
100
AcDbLine
 10
285.0461019821
 20
343.9482893205
 30
0.0
 11
285.2141324185
 21
344.9012372797
 31
0.0
  0
LINE
  5
83
330
75
100
AcDbEntity
  8
$DDT_AUDIT_GENERATED_(77)
  6
Continuous
 62
     7
100
AcDbLine
 10
270.3571211689
 20
260.642939486
 30
0.0
 11
274.0237392875
 21
281.4373641612
 31
0.0
  0
ARC
  5
84
330
75
100
AcDbEntity
  8
$DDT_AUDIT_GENERATED_(77)
  6
Continuous
 62
     7
100
AcDbCircle
 10
357.3058342268
 20
321.1286722031
 30
0.0
 40
1.489274719009026
100
AcDbArc
 50
304.7551918111
 51
76.6105227571
  0
ARC
  5
85
330
75
100
AcDbEntity
  8
$DDT_AUDIT_GENERATED_(77)
  6
Continuous
 62
     7
100
AcDbCircle
 10
329.8878081903
 20
305.4538448538
 30
0.0
 40
1.882713478196719
100
AcDbArc
 50
264.9919075755
 51
294.8602760299
  0
ARC
  5
86
330
75
100
AcDbEntity
  8
$DDT_AUDIT_GENERATED_(77)
  6
Continuous
 62
     7
100
AcDbCircle
 10
291.2566832015
 20
278.391746643
 30
0.0
 40
17.50000355824903
100
AcDbArc
 50
118.2394787395
 51
169.9999906069
  0
ARC
  5
87
330
75
100
AcDbEntity
  8
$DDT_AUDIT_GENERATED_(77)
  6
Continuous
 62
     7
100
AcDbCircle
 10
290.9397539864
 20
342.8907293682
 30
0.0
 40
5.973687187280921
100
AcDbArc
 50
169.8320713763
 51
261.8337055772
  0
LINE
  5
88
330
75
100
AcDbEntity
  8
$DDT_AUDIT_GENERATED_(77)
  6
Continuous
 62
     7
100
AcDbLine
 10
285.1964458358
 20
344.8009892418
 30
0.0
 11
285.2576134028
 21
345.1478876602
 31
0.0
  0
LINE
  5
8A
330
75
100
AcDbEntity
  8
$DDT_AUDIT_GENERATED_(89)
  6
Continuous
 62
     7
100
AcDbLine
 10
338.011346166
 20
300.5890689566
 30
0.0
 11
356.2745704265
 21
311.7807871775
 31
0.0
  0
ELLIPSE
  5
8B
330
75
100
AcDbEntity
  8
$DDT_AUDIT_GENERATED_(89)
  6
Continuous
 62
     7
100
AcDbEllipse
 10
348.4682336901
 20
304.0222751798
 30
0.0
 11
10.17626036156609
 21
6.236020369884876
 31
0.0
210
0.0
220
0.0
230
1.0
 40
0.5773502692
 41
1.166970237634107
 42
1.974622415955677
  0
LINE
  5
8C
330
75
100
AcDbEntity
  8
$DDT_AUDIT_GENERATED_(89)
  6
Continuous
 62
     7
100
AcDbLine
 10
341.1588086355
 20
306.9745816857
 30
0.0
 11
342.7415808243
 21
304.3917322191
 31
0.0
  0
LINE
  5
8D
330
75
100
AcDbEntity
  8
$DDT_AUDIT_GENERATED_(89)
  6
Continuous
 62
     7
100
AcDbLine
 10
350.738891054
 20
309.2924902308
 30
0.0
 11
349.1561188652
 21
311.8753396975
 31
0.0
  0
SPLINE
  5
8E
330
75
100
AcDbEntity
  8
$DDT_AUDIT_GENERATED_(89)
  6
Continuous
 62
     7
100
AcDbSpline
210
0.0
220
0.0
230
1.0
 70
     8
 71
     3
 72
    12
 73
     8
 74
     0
 42
0.0000000398432805
 43
0.0000000001
 40
0.0
 40
0.0
 40
0.0
 40
0.0
 40
0.5
 40
0.5
 40
0.75
 40
0.75
 40
1.0
 40
1.0
 40
1.0
 40
1.0
 10
350.6411026447199
 20
309.0802106296516
 30
0.0
 10
350.6707554756198
 20
309.1086904288988
 30
0.0
 10
350.6987025370265
 20
309.1399245698205
 30
0.0
 10
350.7307821745042
 20
309.1927317547256
 30
0.0
 10
350.7400474019875
 20
309.2116361455683
 30
0.0
 10
350.7498665070233
 20
309.2521340936245
 30
0.0
 10
350.7498447282155
 20
309.2746154590773
 30
0.0
 10
350.7388910539854
 20
309.2924902308499
 30
0.0
  0
SPLINE
  5
8F
330
75
100
AcDbEntity
  8
$DDT_AUDIT_GENERATED_(89)
  6
Continuous
 62
     7
100
AcDbSpline
210
0.0
220
0.0
230
1.0
 70
     8
 71
     3
 72
    12
 73
     8
 74
     0
 42
0.0000000398474798
 43
0.0000000001
 40
0.0
 40
0.0
 40
0.0
 40
0.0
 40
0.25
 40
0.25
 40
0.5
 40
0.5
 40
1.0
 40
1.0
 40
1.0
 40
1.0
 10
342.7415808242804
 20
304.3917322190871
 30
0.0
 10
342.7524466837616
 20
304.3740007479607
 30
0.0
 10
342.772351872669
 20
304.3637435221169
 30
0.0
 10
342.8125361067931
 20
304.3540661579995
 30
0.0
 10
342.8337027663832
 20
304.3536583217226
 30
0.0
 10
342.8956265422234
 20
304.3582200292735
 30
0.0
 10
342.9361796699908
 20
304.3689630559511
 30
0.0
 10
342.9751183427141
 20
304.3824894075027
 30
0.0
  0
SPLINE
  5
90
330
75
100
AcDbEntity
  8
$DDT_AUDIT_GENERATED_(89)
  6
Continuous
 62
     7
100
AcDbSpline
210
0.0
220
0.0
230
1.0
 70
     8
 71
     3
 72
    14
 73
    10
 74
     0
 42
0.0000000011024152
 43
0.0000000001
 40
0.0
 40
0.0
 40
0.0
 40
0.0
 40
0.25
 40
0.25
 40
0.5
 40
0.5
 40
0.75
 40
0.75
 40
1.0
 40
1.0
 40
1.0
 40
1.0
 10
342.9751183427141
 20
304.3824894075027
 30
0.0
 10
343.6891307916251
 20
304.6305200342218
 30
0.0
 10
344.3982266438231
 20
304.9127761433309
 30
0.0
 10
345.767581153321
 20
305.5475686098875
 30
0.0
 10
346.4314337779317
 20
305.9013794895101
 30
0.0
 10
347.7143532678365
 20
306.6873151288068
 30
0.0
 10
348.3334105670986
 20
307.1194566159655
 30
0.0
 10
349.5289735636787
 20
308.0581467478592
 30
0.0
 10
350.0981649904516
 20
308.5587509602689
 30
0.0
 10
350.6411026447199
 20
309.0802106296516
 30
0.0
  0
LINE
  5
91
330
75
100
AcDbEntity
  8
$DDT_AUDIT_GENERATED_(89)
  6
Continuous
 62
     7
100
AcDbLine
 10
349.1561188652
 20
311.8753396975
 30
0.0
 11
341.1588086355
 21
306.9745816857
 31
0.0
  0
LINE
  5
92
330
75
100
AcDbEntity
  8
$DDT_AUDIT_GENERATED_(89)
  6
Continuous
 62
     7
100
AcDbLine
 10
333.7284759538
 20
305.2332057
 30
0.0
 11
336.5639755776
 21
300.6060908551
 31
0.0
  0
LINE
  5
93
330
75
100
AcDbEntity
  8
$DDT_AUDIT_GENERATED_(89)
  6
Continuous
 62
     7
100
AcDbLine
 10
356.9164963007
 20
313.0781315949
 30
0.0
 11
354.3668035437
 21
317.238852022
 31
0.0
  0
ARC
  5
94
330
75
100
AcDbEntity
  8
$DDT_AUDIT_GENERATED_(89)
  6
Continuous
 62
     7
100
AcDbCircle
 10
336.6918716022
 20
300.6844656398
 30
0.0
 40
0.1500000000000028
100
AcDbArc
 50
211.5
 51
271.5
  0
LINE
  5
95
330
75
100
AcDbEntity
  8
$DDT_AUDIT_GENERATED_(89)
  6
Continuous
 62
     7
100
AcDbLine
 10
336.6957981445
 20
300.534517041
 30
0.0
 11
337.9368979235
 21
300.5670163825
 31
0.0
  0
LINE
  5
96
330
75
100
AcDbEntity
  8
$DDT_AUDIT_GENERATED_(89)
  6
Continuous
 62
     7
100
AcDbLine
 10
356.3280182087
 20
311.8371093881
 30
0.0
 11
356.9204228429
 21
312.9281829961
 31
0.0
  0
ARC
  5
97
330
75
100
AcDbEntity
  8
$DDT_AUDIT_GENERATED_(89)
  6
Continuous
 62
     7
100
AcDbCircle
 10
337.9329713813
 20
300.7169649813
 30
0.0
 40
0.1499999999999936
100
AcDbArc
 50
271.5
 51
301.5
  0
ARC
  5
98
330
75
100
AcDbEntity
  8
$DDT_AUDIT_GENERATED_(89)
  6
Continuous
 62
     7
100
AcDbCircle
 10
356.1961956418
 20
311.9086832021
 30
0.0
 40
0.1499999999999992
100
AcDbArc
 50
301.5
 51
331.5
  0
ARC
  5
99
330
75
100
AcDbEntity
  8
$DDT_AUDIT_GENERATED_(89)
  6
Continuous
 62
     7
100
AcDbCircle
 10
356.788600276
 20
312.9997568101
 30
0.0
 40
0.1499999999999991
100
AcDbArc
 50
331.5
 51
31.5
  0
LINE
  5
9B
330
75
100
AcDbEntity
  8
$DDT_AUDIT_GENERATED_(9A)
  6
Continuous
 62
     7
100
AcDbLine
 10
339.6520713147
 20
301.1840169271
 30
0.0
 11
354.9995942731
 21
310.588991092
 31
0.0
  0
LINE
  5
9C
330
75
100
AcDbEntity
  8
$DDT_AUDIT_GENERATED_(9A)
  6
Continuous
 62
     7
100
AcDbLine
 10
339.4691968171
 20
301.4824409846
 30
0.0
 11
339.6520713147
 21
301.1840169271
 31
0.0
  0
LINE
  5
9D
330
75
100
AcDbEntity
  8
$DDT_AUDIT_GENERATED_(9A)
  6
Continuous
 62
     7
100
AcDbLine
 10
354.9995942731
 20
310.588991092
 30
0.0
 11
354.8167197755
 21
310.8874151495
 31
0.0
  0
LINE
  5
9F
330
75
100
AcDbEntity
  8
$DDT_AUDIT_GENERATED_(9E)
  6
Continuous
 62
     7
100
AcDbLine
 10
293.770771203
 20
366.0361257283
 30
0.0
 11
292.0452812434
 21
359.6538411822
 31
0.0
  0
ARC
  5
A0
330
75
100
AcDbEntity
  8
$DDT_AUDIT_GENERATED_(9E)
  6
Continuous
 62
     7
100
AcDbCircle
 10
310.5640215593
 20
256.633732742
 30
0.0
 40
125.9514370683086
100
AcDbArc
 50
127.0394122498
 51
127.045745728
  0
LINE
  5
A1
330
75
100
AcDbEntity
  8
$DDT_AUDIT_GENERATED_(9E)
  6
Continuous
 62
     7
100
AcDbLine
 10
234.6842667782
 20
357.1624841798
 30
0.0
 11
234.4274704199
 21
356.6395275161
 31
0.0
  0
LINE
  5
A2
330
75
100
AcDbEntity
  8
$DDT_AUDIT_GENERATED_(9E)
  6
Continuous
 62
     7
100
AcDbLine
 10
290.1479898337
 20
353.1360375341
 30
0.0
 11
288.1314842271
 21
346.7411595458
 31
0.0
  0
LINE
  5
A3
330
75
100
AcDbEntity
  8
$DDT_AUDIT_GENERATED_(9E)
  6
Continuous
 62
     7
100
AcDbLine
 10
292.0452812434
 20
359.6538411822
 30
0.0
 11
292.0452530447
 21
359.653281118
 31
0.0
  0
ARC
  5
A4
330
75
100
AcDbEntity
  8
$DDT_AUDIT_GENERATED_(9E)
  6
Continuous
 62
     7
100
AcDbCircle
 10
324.8867305015
 20
346.5578732683
 30
0.0
 40
35.35607936818079
100
AcDbArc
 50
158.7971522737
 51
169.2773708704
  0
LINE
  5
A5
330
75
100
AcDbEntity
  8
$DDT_AUDIT_GENERATED_(9E)
  6
Continuous
 62
     7
100
AcDbLine
 10
260.606500488
 20
349.231086272
 30
0.0
 11
234.064723004
 21
353.9111177566
 31
0.0
  0
LINE
  5
A6
330
75
100
AcDbEntity
  8
$DDT_AUDIT_GENERATED_(9E)
  6
Continuous
 62
     7
100
AcDbLine
 10
287.1663986487
 20
344.5478596214
 30
0.0
 11
260.606500488
 21
349.231086272
 31
0.0
  0
LINE
  5
A7
330
75
100
AcDbEntity
  8
$DDT_AUDIT_GENERATED_(9E)
  6
Continuous
 62
     7
100
AcDbLine
 10
233.8916298418
 20
354.5375879713
 30
0.0
 11
234.4274663236
 21
356.6395257288
 31
0.0
  0
ARC
  5
A8
330
75
100
AcDbEntity
  8
$DDT_AUDIT_GENERATED_(9E)
  6
Continuous
 62
     7
100
AcDbCircle
 10
234.1168174665
 20
354.2065600706
 30
0.0
 40
0.2999999898532363
100
AcDbArc
 50
166.3442532186
 51
259.9999978883
  0
ARC
  5
A9
330
75
100
AcDbEntity
  8
$DDT_AUDIT_GENERATED_(9E)
  6
Continuous
 62
     7
100
AcDbCircle
 10
287.2184930145
 20
344.8433018451
 30
0.0
 40
0.2999998841848752
100
AcDbArc
 50
260.0000130664
 51
341.7846247624
  0
LINE
  5
AA
330
75
100
AcDbEntity
  8
$DDT_AUDIT_GENERATED_(9E)
  6
Continuous
 62
     7
100
AcDbLine
 10
233.8632340977
 20
354.4330274495
 30
0.0
 11
233.8254236877
 21
354.2773716194
 31
0.0
  0
SPLINE
  5
AB
330
75
100
AcDbEntity
  8
$DDT_AUDIT_GENERATED_(9E)
  6
Continuous
 62
     7
100
AcDbSpline
210
0.0
220
0.0
230
1.0
 70
     8
 71
     3
 72
    26
 73
    22
 74
     0
 42
0.0000000000726471
 43
0.0000000001
 40
0.0
 40
0.0
 40
0.0
 40
0.0
 40
0.0633734589752616
 40
0.1330972584163962
 40
0.2022776331337977
 40
0.2708133988344691
 40
0.3385070397126762
 40
0.4051195439579977
 40
0.4704203056705235
 40
0.5342319766338882
 40
0.5841532958870307
 40
0.6330778622740166
 40
0.6810757674240001
 40
0.728278129333623
 40
0.7748754133850649
 40
0.8134222862004546
 40
0.8518785579235011
 40
0.8904176781666889
 40
0.9292167092184821
 40
0.9684477940645465
 40
1.0
 40
1.0
 40
1.0
 40
1.0
 10
362.2054220359999
 20
372.8841587221019
 30
0.0
 10
359.1697738636298
 20
373.8849603912775
 30
0.0
 10
353.7863912983442
 20
375.6453770713617
 30
0.0
 10
344.6862005189835
 20
378.2553341684012
 30
0.0
 10
335.5074774905419
 20
380.5510359773884
 30
0.0
 10
326.2696566051859
 20
382.4701113653122
 30
0.0
 10
317.0856506346912
 20
383.939056331532
 30
0.0
 10
307.9784801579584
 20
384.9039259687137
 30
0.0
 10
299.007132179962
 20
385.3033205182491
 30
0.0
 10
290.7927971229802
 20
385.0938069605899
 30
0.0
 10
283.3647994919791
 20
384.3672158904598
 30
0.0
 10
276.7205317766054
 20
383.2407463601073
 30
0.0
 10
270.3026677002903
 20
381.6363569409612
 30
0.0
 10
264.1406451949981
 20
379.5376550221764
 30
0.0
 10
258.5848864933699
 20
377.0758533510859
 30
0.0
 10
253.6128385642524
 20
374.3431087233945
 30
0.0
 10
249.1844581774482
 20
371.4288673949276
 30
0.0
 10
244.9868823183436
 20
368.154720546544
 30
0.0
 10
241.0704440206044
 20
364.555793040366
 30
0.0
 10
237.553640039568
 20
360.8071600867141
 30
0.0
 10
235.6979096737542
 20
358.4260074116817
 30
0.0
 10
234.7257283770364
 20
357.1660798207095
 30
0.0
  0
LINE
  5
AC
330
75
100
AcDbEntity
  8
$DDT_AUDIT_GENERATED_(9E)
  6
Continuous
 62
     7
100
AcDbLine
 10
354.4525637587
 20
366.7794654785
 30
0.0
 11
362.3532614925
 21
370.0604006565
 31
0.0
  0
ARC
  5
AD
330
75
100
AcDbEntity
  8
$DDT_AUDIT_GENERATED_(9E)
  6
Continuous
 62
     7
100
AcDbCircle
 10
314.5677631693
 20
270.042300448
 30
0.0
 40
104.2712039315572
100
AcDbArc
 50
68.0557553214
 51
96.9419167969
  0
ARC
  5
AE
330
75
100
AcDbEntity
  8
$DDT_AUDIT_GENERATED_(9E)
  6
Continuous
 62
     7
100
AcDbCircle
 10
303.7230644228
 20
363.4504519594
 30
0.0
 40
10.28106418463076
100
AcDbArc
 50
99.8720948446
 51
165.4286089587
  0
LINE
  5
AF
330
75
100
AcDbEntity
  8
$DDT_AUDIT_GENERATED_(9E)
  6
Continuous
 62
     7
100
AcDbLine
 10
287.9407920548
 20
346.0923119761
 30
0.0
 11
288.1466567244
 21
346.7235330138
 31
0.0
  0
LINE
  5
B0
330
75
100
AcDbEntity
  8
$DDT_AUDIT_GENERATED_(9E)
  6
Continuous
 62
     7
100
AcDbLine
 10
287.5029059396
 20
344.7496681479
 30
0.0
 11
287.9407920548
 21
346.0923119761
 31
0.0
  0
ARC
  5
B1
330
75
100
AcDbEntity
  8
$DDT_AUDIT_GENERATED_(9E)
  6
Continuous
 62
     7
100
AcDbCircle
 10
354.0431766671
 20
368.1198826137
 30
0.0
 40
1.39780384146772
100
AcDbArc
 50
249.4962843805
 51
292.1710322963
  0
SPLINE
  5
B2
330
75
100
AcDbEntity
  8
$DDT_AUDIT_GENERATED_(9E)
  6
Continuous
 62
     7
100
AcDbSpline
210
0.0
220
0.0
230
1.0
 70
     8
 71
     3
 72
    17
 73
    13
 74
     0
 42
0.000000002554675
 43
0.0000000001
 40
0.0
 40
0.0
 40
0.0
 40
0.0
 40
0.087149096217763
 40
0.2322789857886112
 40
0.3610965770497035
 40
0.4967632513787204
 40
0.6352905764131588
 40
0.7457103202499273
 40
0.8390628456166285
 40
0.9181038849931024
 40
0.982873586242805
 40
1.0
 40
1.0
 40
1.0
 40
1.0
 10
362.2273505899888
 20
370.0341050036164
 30
0.0
 10
362.345988999234
 20
370.0667897707144
 30
0.0
 10
362.6165263324479
 20
370.1464852361318
 30
0.0
 10
362.9826369820069
 20
370.4754468775737
 30
0.0
 10
363.2446039110961
 20
370.9355931765342
 30
0.0
 10
363.3359344599754
 20
371.4574033001571
 30
0.0
 10
363.2447061147964
 20
371.9535309077894
 30
0.0
 10
363.0304840341925
 20
372.3434968741494
 30
0.0
 10
362.7760594265638
 20
372.609033293001
 30
0.0
 10
362.5223018339164
 20
372.775319974707
 30
0.0
 10
362.3266758484813
 20
372.8626415570224
 30
0.0
 10
362.2305903267584
 20
372.8863055116549
 30
0.0
 10
362.2070965503694
 20
372.8919930885878
 30
0.0
  0
LINE
  5
B4
330
75
100
AcDbEntity
  8
$DDT_AUDIT_GENERATED_(B3)
  6
Continuous
 62
     7
100
AcDbLine
 10
291.2239163011
 20
357.4552177105
 30
0.0
 11
292.1000847351
 21
359.7377145169
 31
0.0
  0
LINE
  5
B6
330
75
100
AcDbEntity
  8
$DDT_AUDIT_GENERATED_(B5)
  6
Continuous
 62
     7
100
AcDbLine
 10
224.8854567595
 20
290.2427183973
 30
0.0
 11
214.1732551069
 21
313.2151089753
 31
0.0
  0
LINE
  5
B7
330
75
100
AcDbEntity
  8
$DDT_AUDIT_GENERATED_(B5)
  6
Continuous
 62
     7
100
AcDbLine
 10
211.0464932416
 20
311.7570759723
 30
0.0
 11
223.8399136342
 21
284.3214974034
 31
0.0
  0
LINE
  5
B9
330
75
100
AcDbEntity
  8
$DDT_AUDIT_GENERATED_(B8)
  6
Continuous
 62
     7
100
AcDbLine
 10
208.3288288263
 20
310.4898082432
 30
0.0
 11
216.8909195221
 21
314.4823767044
 31
0.0
  0
ARC
  5
BA
330
75
100
AcDbEntity
  8
$DDT_AUDIT_GENERATED_(B8)
  6
Continuous
 62
     7
100
AcDbCircle
 10
210.2854737346
 20
317.4707853025
 30
0.0
 40
7.249999999999996
100
AcDbArc
 50
335.657248638
 51
25.0
  0
ARC
  5
BB
330
75
100
AcDbEntity
  8
$DDT_AUDIT_GENERATED_(B8)
  6
Continuous
 62
     7
100
AcDbCircle
 10
210.2854737346
 20
317.4707853025
 30
0.0
 40
7.249999999999997
100
AcDbArc
 50
25.0
 51
254.342751362
  0
ENDBLK
  5
BD
330
75
100
AcDbEntity
  8
0
100
AcDbBlockEnd
  0
BLOCK
  5
20A
330
BE
100
AcDbEntity
  8
0
100
AcDbBlockBegin
  2
SE1
 70
     0
 10
0.0
 20
0.0
 30
0.0
  3
SE1
  1

  0
LINE
  5
C0
330
BE
100
AcDbEntity
  8
$DDT_AUDIT_GENERATED_(77)
  6
Continuous
 62
     7
100
AcDbLine
 10
147.2143199915
 20
260.6455295039
 30
0.0
 11
97.2128491577
 21
260.6455295042
 31
0.0
  0
ARC
  5
C1
330
BE
100
AcDbEntity
  8
$DDT_AUDIT_GENERATED_(77)
  6
Continuous
 62
     7
100
AcDbCircle
 10
86.8955072155
 20
319.7489228003
 30
0.0
 40
18.64326329943992
100
AcDbArc
 50
2.7198250357
 51
51.2262760731
  0
ARC
  5
C2
330
BE
100
AcDbEntity
  8
$DDT_AUDIT_GENERATED_(77)
  6
Continuous
 62
     7
100
AcDbCircle
 10
122.213647392
 20
320.286512489
 30
0.0
 40
16.69948527314778
100
AcDbArc
 50
357.4823788993
 51
1.1932719494
  0
ARC
  5
C3
330
BE
100
AcDbEntity
  8
$DDT_AUDIT_GENERATED_(77)
  6
Continuous
 62
     7
100
AcDbCircle
 10
122.213647392
 20
320.286512489
 30
0.0
 40
16.69948527314778
100
AcDbArc
 50
348.8915127176
 51
357.4823788993
  0
ARC
  5
C4
330
BE
100
AcDbEntity
  8
$DDT_AUDIT_GENERATED_(77)
  6
Continuous
 62
     7
100
AcDbCircle
 10
122.213647392
 20
320.286512489
 30
0.0
 40
16.69948527314778
100
AcDbArc
 50
182.2758342169
 51
190.7316735043
  0
ARC
  5
C5
330
BE
100
AcDbEntity
  8
$DDT_AUDIT_GENERATED_(77)
  6
Continuous
 62
     7
100
AcDbCircle
 10
122.213647392
 20
320.286512489
 30
0.0
 40
16.69948527314778
100
AcDbArc
 50
178.8091139259
 51
182.2758342169
  0
ARC
  5
C6
330
BE
100
AcDbEntity
  8
$DDT_AUDIT_GENERATED_(77)
  6
Continuous
 62
     7
100
AcDbCircle
 10
122.2219111545
 20
-63.3773374556
 30
0.0
 40
385.9427234325027
100
AcDbArc
 50
87.7580538815
 51
92.2444227997
  0
ARC
  5
C7
330
BE
100
AcDbEntity
  8
$DDT_AUDIT_GENERATED_(77)
  6
Continuous
 62
     7
100
AcDbCircle
 10
156.4515979112
 20
321.3919440171
 30
0.0
 40
19.15199251633298
100
AcDbArc
 50
134.2835256466
 51
177.3723627563
  0
ARC
  5
C8
330
BE
100
AcDbEntity
  8
$DDT_AUDIT_GENERATED_(77)
  6
Continuous
 62
     7
100
AcDbCircle
 10
122.2253173576
 20
-237.8122747038
 30
0.0
 40
557.7408966520003
100
AcDbArc
 50
88.427591371
 51
91.5748124102
  0
LINE
  5
C9
330
BE
100
AcDbEntity
  8
$DDT_AUDIT_GENERATED_(77)
  6
Continuous
 62
     7
100
AcDbLine
 10
106.8973698945
 20
319.7179592968
 30
0.0
 11
106.8150177608
 21
319.7104962965
 31
0.0
  0
ARC
  5
CA
330
BE
100
AcDbEntity
  8
$DDT_AUDIT_GENERATED_(77)
  6
Continuous
 62
     7
100
AcDbCircle
 10
122.2136389743
 20
319.1679522444
 30
0.0
 40
15.40817605443234
100
AcDbArc
 50
177.9821160273
 51
220.0839766036
  0
ARC
  5
CB
330
BE
100
AcDbEntity
  8
$DDT_AUDIT_GENERATED_(77)
  6
Continuous
 62
     7
100
AcDbCircle
 10
122.2136389743
 20
319.1679522444
 30
0.0
 40
15.40817605443234
100
AcDbArc
 50
320.0248910825
 51
2.0202855266
  0
LINE
  5
CC
330
BE
100
AcDbEntity
  8
$DDT_AUDIT_GENERATED_(77)
  6
Continuous
 62
     7
100
AcDbLine
 10
137.6122374335
 20
319.7111417296
 30
0.0
 11
137.529874241
 21
319.7186018733
 31
0.0
  0
ELLIPSE
  5
CD
330
BE
100
AcDbEntity
  8
$DDT_AUDIT_GENERATED_(77)
  6
Continuous
 62
     7
100
AcDbEllipse
 10
107.4406774484
 20
320.8598923
 30
0.0
 11
-0.05370242389641199
 21
1.499038374981686
 31
0.0
210
0.0
220
0.0
230
1.0
 40
0.5862870076
 41
0.3271420509938559
 42
2.415588407912512
  0
ELLIPSE
  5
CE
330
BE
100
AcDbEntity
  8
$DDT_AUDIT_GENERATED_(77)
  6
Continuous
 62
     7
100
AcDbEllipse
 10
136.9865683346
 20
320.8605286434
 30
0.0
 11
-0.05362302214303658
 21
-1.499041217410902
 31
0.0
210
0.0
220
0.0
230
1.0
 40
0.5862418789
 41
0.7259793882443666
 42
2.814447105016259
  0
LINE
  5
CF
330
BE
100
AcDbEntity
  8
$DDT_AUDIT_GENERATED_(77)
  6
Continuous
 62
     7
100
AcDbLine
 10
107.1074099084
 20
322.2693112043
 30
0.0
 11
106.7942678288
 21
322.1882878393
 31
0.0
  0
ARC
  5
D0
330
BE
100
AcDbEntity
  8
$DDT_AUDIT_GENERATED_(77)
  6
Continuous
 62
     7
100
AcDbCircle
 10
107.2592304554
 20
320.5051372805
 30
0.0
 40
1.746191870199369
100
AcDbArc
 50
105.4425702219
 51
175.7816045991
  0
ELLIPSE
  5
D1
330
BE
100
AcDbEntity
  8
$DDT_AUDIT_GENERATED_(77)
  6
Continuous
 62
     7
100
AcDbEllipse
 10
107.3608447111
 20
320.8519721467
 30
0.0
 11
0.2451128029895642
 21
-1.479837732256663
 31
0.0
210
0.0
220
0.0
230
0.9999999999999997
 40
0.668920471
 41
3.48792292931232
 42
5.475666314804881
  0
SPLINE
  5
D2
330
BE
100
AcDbEntity
  8
$DDT_AUDIT_GENERATED_(77)
  6
Continuous
 62
     7
100
AcDbSpline
210
0.0
220
0.0
230
1.0
 70
     8
 71
     3
 72
    14
 73
    10
 74
     0
 42
0.0000000058976914
 43
0.0000000001
 40
0.0
 40
0.0
 40
0.0
 40
0.0
 40
0.25
 40
0.25
 40
0.5
 40
0.5
 40
0.75
 40
0.75
 40
1.0
 40
1.0
 40
1.0
 40
1.0
 10
106.8150177607965
 20
319.7104962965286
 30
0.0
 10
106.6176972864778
 20
319.7522573989683
 30
0.0
 10
106.4384424203543
 20
319.8078135088167
 30
0.0
 10
106.1210465978885
 20
319.9398574918432
 30
0.0
 10
105.9853983146541
 20
320.0154152600933
 30
0.0
 10
105.7637600607825
 20
320.178661203232
 30
0.0
 10
105.677996374663
 20
320.2662685319653
 30
0.0
 10
105.558802449889
 20
320.4468065338863
 30
0.0
 10
105.5251380711898
 20
320.5396949175297
 30
0.0
 10
105.5177691727255
 20
320.6335843456544
 30
0.0
  0
SPLINE
  5
D3
330
BE
100
AcDbEntity
  8
$DDT_AUDIT_GENERATED_(77)
  6
Continuous
 62
     7
100
AcDbSpline
210
0.0
220
0.0
230
1.0
 70
     8
 71
     3
 72
    12
 73
     8
 74
     0
 42
0.0000000058453307
 43
0.0000000001
 40
0.0
 40
0.0
 40
0.0
 40
0.0
 40
0.25
 40
0.25
 40
0.5
 40
0.5
 40
1.0
 40
1.0
 40
1.0
 40
1.0
 10
137.6122374334569
 20
319.711141729623
 30
0.0
 10
137.8096990643556
 20
319.7529364034904
 30
0.0
 10
137.9911631534597
 20
319.8093642153887
 30
0.0
 10
138.3058558518514
 20
319.940448378869
 30
0.0
 10
138.4415424534401
 20
320.0158764733148
 30
0.0
 10
138.7742594774915
 20
320.2608361158452
 30
0.0
 10
138.8948524074766
 20
320.4474907444469
 30
0.0
 10
138.9095111443423
 20
320.6342795847403
 30
0.0
  0
ELLIPSE
  5
D4
330
BE
100
AcDbEntity
  8
$DDT_AUDIT_GENERATED_(77)
  6
Continuous
 62
     7
100
AcDbEllipse
 10
137.066411789
 20
320.8526112489
 30
0.0
 11
-0.2450512370556317
 21
-1.479847928409439
 31
0.0
210
0.0
220
0.0
230
1.0
 40
0.6688927724
 41
0.8074967296545026
 42
2.795253868108214
  0
ARC
  5
D5
330
BE
100
AcDbEntity
  8
$DDT_AUDIT_GENERATED_(77)
  6
Continuous
 62
     7
100
AcDbCircle
 10
137.1489960823
 20
320.4901223203
 30
0.0
 40
1.766407257848492
100
AcDbArc
 50
4.6811395921
 51
74.0997725775
  0
LINE
  5
D6
330
BE
100
AcDbEntity
  8
$DDT_AUDIT_GENERATED_(77)
  6
Continuous
 62
     7
100
AcDbLine
 10
137.3197423314
 20
322.2699641871
 30
0.0
 11
137.6329263776
 21
322.1889472288
 31
0.0
  0
ARC
  5
D7
330
BE
100
AcDbEntity
  8
$DDT_AUDIT_GENERATED_(77)
  6
Continuous
 62
     7
100
AcDbCircle
 10
138.5576784429
 20
334.1993592574
 30
0.0
 40
7.548315777732021
100
AcDbArc
 50
2.5107694068
 51
75.3931563989
  0
ARC
  5
D8
330
BE
100
AcDbEntity
  8
$DDT_AUDIT_GENERATED_(77)
  6
Continuous
 62
     7
100
AcDbCircle
 10
105.8865229407
 20
334.1910471284
 30
0.0
 40
7.560292880853911
100
AcDbArc
 50
104.7162728032
 51
177.4752852719
  0
ARC
  5
D9
330
BE
100
AcDbEntity
  8
$DDT_AUDIT_GENERATED_(77)
  6
Continuous
 62
     7
100
AcDbCircle
 10
122.2142956188
 20
274.7100290895
 30
0.0
 40
69.24122085748012
100
AcDbArc
 50
74.7205348435
 51
105.280648516
  0
ARC
  5
DA
330
BE
100
AcDbEntity
  8
$DDT_AUDIT_GENERATED_(77)
  6
Continuous
 62
     7
100
AcDbCircle
 10
87.9725390738
 20
321.3903794939
 30
0.0
 40
19.15504640574941
100
AcDbArc
 50
2.629947459
 51
45.7125308971
  0
SPLINE
  5
DB
330
BE
100
AcDbEntity
  8
$DDT_AUDIT_GENERATED_(77)
  6
Continuous
 62
     7
100
AcDbSpline
210
0.0
220
0.0
230
1.0
 70
     8
 71
     3
 72
    18
 73
    14
 74
     0
 42
0.0000000031855351
 43
0.0000000001
 40
0.0
 40
0.0
 40
0.0
 40
0.0
 40
0.500000000000001
 40
0.500000000000001
 40
0.7500000000000016
 40
0.7500000000000016
 40
0.8750000000000013
 40
0.8750000000000013
 40
0.9375000000000013
 40
0.9375000000000013
 40
0.9687500000000007
 40
0.9687500000000007
 40
1.0
 40
1.0
 40
1.0
 40
1.0
 10
101.3477176963985
 20
335.1024325721752
 30
0.0
 10
100.7005092895355
 20
335.180471609276
 30
0.0
 10
100.1696591279516
 20
335.1501435401311
 30
0.0
 10
99.48150529489965
 20
335.0168487783871
 30
0.0
 10
99.27132951973435
 20
334.9572687493599
 30
0.0
 10
98.9824427975625
 20
334.8253021927962
 30
0.0
 10
98.89045966618244
 20
334.7749287212695
 30
0.0
 10
98.75989596957753
 20
334.6699038789455
 30
0.0
 10
98.71752008946758
 20
334.630429638555
 30
0.0
 10
98.6568506419532
 20
334.5496842566517
 30
0.0
 10
98.63709263001574
 20
334.5195181672223
 30
0.0
 10
98.59951141688681
 20
334.4386785262656
 30
0.0
 10
98.57715157012522
 20
334.4056445603292
 30
0.0
 10
98.57078258487876
 20
334.2836815358864
 30
0.0
  0
ARC
  5
DC
330
BE
100
AcDbEntity
  8
$DDT_AUDIT_GENERATED_(77)
  6
Continuous
 62
     7
100
AcDbCircle
 10
157.528321998
 20
319.7505831829
 30
0.0
 40
18.63977030265193
100
AcDbArc
 50
128.7772456628
 51
177.2826349456
  0
SPLINE
  5
DD
330
BE
100
AcDbEntity
  8
$DDT_AUDIT_GENERATED_(77)
  6
Continuous
 62
     7
100
AcDbSpline
210
0.0
220
0.0
230
1.0
 70
     8
 71
     3
 72
    19
 73
    15
 74
     0
 42
0.00000000319249
 43
0.0000000001
 40
0.0
 40
0.0
 40
0.0
 40
0.0
 40
0.0078848803591764
 40
0.0196868683080174
 40
0.0358701924634228
 40
0.056607695063734
 40
0.0777135819012264
 40
0.1029187664392555
 40
0.1861619750998183
 40
0.392675044303647
 40
0.6332895739966554
 40
0.7848301987118811
 40
0.8986891007128889
 40
1.0
 40
1.0
 40
1.0
 40
1.0
 10
145.8543409027348
 20
334.281901165928
 30
0.0
 10
145.8516863561445
 20
334.3074831731591
 30
0.0
 10
145.8450585182105
 20
334.3713560012128
 30
0.0
 10
145.8248961709878
 20
334.4330875669038
 30
0.0
 10
145.7963904685372
 20
334.5010035286937
 30
0.0
 10
145.7596934432937
 20
334.5600464902497
 30
0.0
 10
145.7159055113232
 20
334.6161719724273
 30
0.0
 10
145.6281839869312
 20
334.7075667733682
 30
0.0
 10
145.4043345323441
 20
334.8607190460891
 30
0.0
 10
144.9844210592579
 20
335.0164946299399
 30
0.0
 10
144.4326717432804
 20
335.119108542805
 30
0.0
 10
143.8995876186486
 20
335.149518523358
 30
0.0
 10
143.4791179862376
 20
335.1430402410762
 30
0.0
 10
143.2074213913854
 20
335.1156349289211
 30
0.0
 10
143.0794953246561
 20
335.1027313671617
 30
0.0
  0
ARC
  5
DE
330
BE
100
AcDbEntity
  8
$DDT_AUDIT_GENERATED_(77)
  6
Continuous
 62
     7
100
AcDbCircle
 10
122.2144361387
 20
219.2309580395
 30
0.0
 40
117.735375095756
100
AcDbArc
 50
79.7921276182
 51
100.2086928449
  0
SPLINE
  5
DF
330
BE
100
AcDbEntity
  8
$DDT_AUDIT_GENERATED_(77)
  6
Continuous
 62
     7
100
AcDbSpline
210
0.0
220
0.0
230
1.0
 70
     8
 71
     3
 72
    38
 73
    34
 74
     0
 42
0.0000000000953061
 43
0.0000000001
 40
0.0
 40
0.0
 40
0.0
 40
0.0
 40
0.0106069594467525
 40
0.0210280013507499
 40
0.0312771410009628
 40
0.0469559438493713
 40
0.062740434122489
 40
0.0940782968816758
 40
0.1255613475130205
 40
0.1884647347213731
 40
0.2510039703691427
 40
0.3136495822610037
 40
0.3754887773353864
 40
0.4066150362698642
 40
0.4221939472149592
 40
0.4379159422866186
 40
0.4693178566921174
 40
0.5007005666489585
 40
0.5320985974373404
 40
0.5476997619330966
 40
0.5632885981988338
 40
0.5790082775779137
 40
0.5946423094348118
 40
0.6257694731257204
 40
0.6872130445767598
 40
0.7493228801349076
 40
0.8122986763089134
 40
0.8752186251278881
 40
0.9375992923890673
 40
0.9531622117066944
 40
0.9686151631552912
 40
0.9840987625189407
 40
1.0
 40
1.0
 40
1.0
 40
1.0
 10
98.57078258487876
 20
334.2836815358864
 30
0.0
 10
98.56805235470723
 20
333.8972034668577
 30
0.0
 10
98.56263974951884
 20
333.1310214711249
 30
0.0
 10
98.57389985876232
 20
331.9795609488544
 30
0.0
 10
98.6038763267219
 20
330.6349403068627
 30
0.0
 10
98.66548747228691
 20
329.0848224396931
 30
0.0
 10
98.80761554344045
 20
326.7518781953353
 30
0.0
 10
99.07885589795731
 20
323.8496372855015
 30
0.0
 10
99.70997130869652
 20
319.3046426760809
 30
0.0
 10
100.873175973216
 20
313.8345404579316
 30
0.0
 10
102.9577384111737
 20
307.7157329101533
 30
0.0
 10
105.888968407242
 20
302.2198974552375
 30
0.0
 10
109.263188341337
 20
298.3955206166364
 30
0.0
 10
112.2010726248964
 20
296.3731965256189
 30
0.0
 10
114.0648353308012
 20
295.4351079747483
 30
0.0
 10
116.0540660317829
 20
294.6491773368854
 30
0.0
 10
118.7681589990068
 20
293.9787561526151
 30
0.0
 10
122.2825877800423
 20
293.7184216930414
 30
0.0
 10
125.2055087700298
 20
293.9539247410682
 30
0.0
 10
127.4000076589104
 20
294.410808575277
 30
0.0
 10
128.9693088597158
 20
294.8820811047336
 30
0.0
 10
130.454240456308
 20
295.4795447713511
 30
0.0
 10
132.3125000830931
 20
296.4307722310581
 30
0.0
 10
135.2285439538735
 20
298.4661253857913
 30
0.0
 10
138.5683939428425
 20
302.2816150787924
 30
0.0
 10
141.4864220624249
 20
307.7654412391774
 30
0.0
 10
143.5652768243788
 20
313.8913395165137
 30
0.0
 10
144.9542505024882
 20
320.4472930468442
 30
0.0
 10
145.549211838566
 20
325.6260434344854
 30
0.0
 10
145.7601127025673
 20
329.0959084516182
 30
0.0
 10
145.8283071543351
 20
330.8233653439938
 30
0.0
 10
145.8633076288343
 20
332.5564723370496
 30
0.0
 10
145.8573562099507
 20
333.7016784691637
 30
0.0
 10
145.8543409027348
 20
334.281901165928
 30
0.0
  0
ELLIPSE
  5
E0
330
BE
100
AcDbEntity
  8
$DDT_AUDIT_GENERATED_(77)
  6
Continuous
 62
     7
100
AcDbEllipse
 10
152.0371004366
 20
334.2118962244
 30
0.0
 11
-6.214245400459912
 21
-0.06015415692034454
 31
0.0
210
0.0
220
0.0
230
1.0
 40
0.2038082604
 41
-0.3010754733064429
 42
-0.1026997082640673
  0
SPLINE
  5
E1
330
BE
100
AcDbEntity
  8
$DDT_AUDIT_GENERATED_(77)
  6
Continuous
 62
     7
100
AcDbSpline
210
0.0
220
0.0
230
1.0
 70
     8
 71
     3
 72
    14
 73
    10
 74
     0
 42
0.000000001342341
 43
0.0000000001
 40
0.0
 40
0.0
 40
0.0
 40
0.0
 40
0.25
 40
0.25
 40
0.5
 40
0.5
 40
0.75
 40
0.75
 40
1.0
 40
1.0
 40
1.0
 40
1.0
 10
143.0794953246561
 20
335.1027313671617
 30
0.0
 10
142.6027198472382
 20
335.3090951266121
 30
0.0
 10
142.1616840608428
 20
335.6304108730124
 30
0.0
 10
141.4031230884439
 20
336.4650390989062
 30
0.0
 10
141.0857792208249
 20
336.9781520777047
 30
0.0
 10
140.6124033809591
 20
338.1354412383827
 30
0.0
 10
140.456484559462
 20
338.7793407941131
 30
0.0
 10
140.3245796438858
 20
340.121685774962
 30
0.0
 10
140.3486250789615
 20
340.8198103401472
 30
0.0
 10
140.4612500262151
 20
341.5037063403324
 30
0.0
  0
ARC
  5
E2
330
BE
100
AcDbEntity
  8
$DDT_AUDIT_GENERATED_(77)
  6
Continuous
 62
     7
100
AcDbCircle
 10
97.9890830643
 20
333.9469240579
 30
0.0
 40
0.6721457662872622
100
AcDbArc
 50
30.067407737
 51
59.1684139246
  0
ELLIPSE
  5
E3
330
BE
100
AcDbEntity
  8
$DDT_AUDIT_GENERATED_(77)
  6
Continuous
 62
     7
100
AcDbEllipse
 10
99.5852355241
 20
340.7913880653
 30
0.0
 11
0.989838302244559
 21
-5.917788449700562
 31
0.0
210
0.0
220
0.0
230
1.0
 40
0.7396964788
 41
0.1812009085702289
 42
1.567377098592312
  0
SPLINE
  5
E4
330
BE
100
AcDbEntity
  8
$DDT_AUDIT_GENERATED_(77)
  6
Continuous
 62
     7
100
AcDbSpline
210
0.0
220
0.0
230
1.0
 70
     8
 71
     3
 72
    18
 73
    14
 74
     0
 42
0.0000000001795438
 43
0.0000000001
 40
0.0
 40
0.0
 40
0.0
 40
0.0
 40
0.0624999999999997
 40
0.0624999999999997
 40
0.1249999999999993
 40
0.1249999999999993
 40
0.1874999999999989
 40
0.1874999999999989
 40
0.2499999999999985
 40
0.2499999999999985
 40
0.2812499999999984
 40
0.2812499999999984
 40
0.2859186019402
 40
0.2859186019402
 40
0.2859186019402
 40
0.2859186019402
 10
122.2136489981047
 20
317.3384449120358
 30
0.0
 10
120.589449764462
 20
317.3384449120358
 30
0.0
 10
118.9961346449899
 20
317.2401349756904
 30
0.0
 10
116.0336609909522
 20
316.837514024079
 30
0.0
 10
114.6794255998357
 20
316.5316828221239
 30
0.0
 10
112.430214421952
 20
315.7024968121162
 30
0.0
 10
111.5191396317594
 20
315.1697887534814
 30
0.0
 10
110.2940227751238
 20
313.9050014019914
 30
0.0
 10
109.967327484185
 20
313.1575726338389
 30
0.0
 10
109.9618573121642
 20
311.9496447154447
 30
0.0
 10
110.0405989430382
 20
311.5248756555208
 30
0.0
 10
110.2195352488379
 20
311.0367278427688
 30
0.0
 10
110.2444761508491
 20
310.9732169241441
 30
0.0
 10
110.2711031407928
 20
310.9096508209801
 30
0.0
  0
SPLINE
  5
E5
330
BE
100
AcDbEntity
  8
$DDT_AUDIT_GENERATED_(77)
  6
Continuous
 62
     7
100
AcDbSpline
210
0.0
220
0.0
230
1.0
 70
     8
 71
     3
 72
    16
 73
    12
 74
     0
 42
0.0000000001793465
 43
0.0000000001
 40
0.7147156951086764
 40
0.7147156951086764
 40
0.7147156951086764
 40
0.7147156951086764
 40
0.7499999999999994
 40
0.7499999999999994
 40
0.8124999999999996
 40
0.8124999999999996
 40
0.8749999999999997
 40
0.8749999999999997
 40
0.9374999999999998
 40
0.9374999999999998
 40
1.0
 40
1.0
 40
1.0
 40
1.0
 10
134.1647231523544
 20
310.9295615985287
 30
0.0
 10
134.3638672790042
 20
311.4108773641551
 30
0.0
 10
134.4646308998393
 20
311.8862641226806
 30
0.0
 10
134.4618897904538
 20
313.1574430163195
 30
0.0
 10
134.1378136792495
 20
313.898910734576
 30
0.0
 10
132.9100744651229
 20
315.1692084948315
 30
0.0
 10
131.9998800669718
 20
315.7009730177186
 30
0.0
 10
129.7537661865126
 20
316.5300009858419
 30
0.0
 10
128.393814411181
 20
316.8370023356818
 30
0.0
 10
125.4489880072397
 20
317.238197086749
 30
0.0
 10
123.8378482317474
 20
317.3384449120358
 30
0.0
 10
122.2136489981047
 20
317.3384449120358
 30
0.0
  0
ELLIPSE
  5
E6
330
BE
100
AcDbEntity
  8
$DDT_AUDIT_GENERATED_(77)
  6
Continuous
 62
     7
100
AcDbEllipse
 10
122.2136489981
 20
313.6455295051
 30
0.0
 11
-12.25
 21
-6.938893903907228E-15
 31
0.0
210
0.0
220
0.0
230
1.0
 40
0.5224985647
 41
2.914325182161589
 42
3.040385863003818
  0
ELLIPSE
  5
E7
330
BE
100
AcDbEntity
  8
$DDT_AUDIT_GENERATED_(77)
  6
Continuous
 62
     7
100
AcDbEllipse
 10
122.2136489981
 20
313.6455295051
 30
0.0
 11
-12.25
 21
-6.938893903907228E-15
 31
0.0
210
0.0
220
0.0
230
1.0
 40
0.5224985647
 41
0.0999126600845641
 42
0.2272674714282094
  0
ELLIPSE
  5
E8
330
BE
100
AcDbEntity
  8
$DDT_AUDIT_GENERATED_(77)
  6
Continuous
 62
     7
100
AcDbEllipse
 10
122.2136489981
 20
313.6455295051
 30
0.0
 11
-12.0085
 21
-6.938893903907228E-15
 31
0.0
210
0.0
220
0.0
230
1.0
 40
0.5224985647
 41
3.030895603077937
 42
3.126006549105163
  0
ELLIPSE
  5
E9
330
BE
100
AcDbEntity
  8
$DDT_AUDIT_GENERATED_(77)
  6
Continuous
 62
     7
100
AcDbEllipse
 10
122.2136489981
 20
313.6455295051
 30
0.0
 11
-12.0085
 21
-6.938893903907228E-15
 31
0.0
210
0.0
220
0.0
230
1.0
 40
0.5224985647
 41
0.0170967841581429
 42
0.1106970505118558
  0
SPLINE
  5
EA
330
BE
100
AcDbEntity
  8
$DDT_AUDIT_GENERATED_(77)
  6
Continuous
 62
     7
100
AcDbSpline
210
0.0
220
0.0
230
1.0
 70
     8
 71
     3
 72
    18
 73
    14
 74
     0
 42
0.0000000012716677
 43
0.0000000001
 40
0.0
 40
0.0
 40
0.0
 40
0.0
 40
0.0010103563524863
 40
0.0161937546174083
 40
0.0295608397863392
 40
0.0411325827134271
 40
0.0509272593308125
 40
0.0585489693258032
 40
0.06523377151812
 40
0.0718005056977184
 40
0.0782539949319817
 40
0.0845952654943122
 40
0.0884690583510945
 40
0.0884690583510945
 40
0.0884690583510945
 40
0.0884690583510945
 10
138.8196913181874
 20
318.4263351762644
 30
0.0
 10
138.8202167072725
 20
318.4315787393762
 30
0.0
 10
138.8274660289551
 20
318.5039157886792
 30
0.0
 10
138.8413861911436
 20
318.629040236912
 30
0.0
 10
138.8587927978186
 20
318.7800119114851
 30
0.0
 10
138.8729418457611
 20
318.8943963455799
 30
0.0
 10
138.8835501716433
 20
318.9758490041157
 30
0.0
 10
138.8909269820957
 20
319.030080306322
 30
0.0
 10
138.8957889490214
 20
319.0647700503328
 30
0.0
 10
138.8994822725561
 20
319.0904146477984
 30
0.0
 10
138.9020037759707
 20
319.1075377513438
 30
0.0
 10
138.9031797170654
 20
319.1154893350127
 30
0.0
 10
138.9033535294177
 20
319.1168789281245
 30
0.0
 10
138.9033407214592
 20
319.1169210733503
 30
0.0
  0
SPLINE
  5
EB
330
BE
100
AcDbEntity
  8
$DDT_AUDIT_GENERATED_(77)
  6
Continuous
 62
     7
100
AcDbSpline
210
0.0
220
0.0
230
1.0
 70
     8
 71
     3
 72
    17
 73
    13
 74
     0
 42
0.0000000012386513
 43
0.0000000001
 40
0.9127008141240929
 40
0.9127008141240929
 40
0.9127008141240929
 40
0.9127008141240929
 40
0.921027477895085
 40
0.9272240540573214
 40
0.9329425071734024
 40
0.9386464398345028
 40
0.9461894518144238
 40
0.955776686081308
 40
0.9674257088466526
 40
0.9811575532681677
 40
0.9969970950642941
 40
1.0
 40
1.0
 40
1.0
 40
1.0
 10
105.5241519270845
 20
319.1156191332479
 30
0.0
 10
105.5240953617631
 20
319.1156925489743
 30
0.0
 10
105.5246229538903
 20
319.1119903098997
 30
0.0
 10
105.526600213756
 20
319.0985495447449
 30
0.0
 10
105.5294196157469
 20
319.0791991206481
 30
0.0
 10
105.533940390366
 20
319.0475273405781
 30
0.0
 10
105.5414665788304
 20
318.9931062023602
 30
0.0
 10
105.5521524121033
 20
318.9120795434194
 30
0.0
 10
105.5663702432059
 20
318.7983456561041
 30
0.0
 10
105.5839563158069
 20
318.6472773320202
 30
0.0
 10
105.5989199712188
 20
318.5129337545247
 30
0.0
 10
105.6070992481025
 20
318.4313336755339
 30
0.0
 10
105.6086210648162
 20
318.4161410287031
 30
0.0
  0
LINE
  5
EC
330
BE
100
AcDbEntity
  8
$DDT_AUDIT_GENERATED_(77)
  6
Continuous
 62
     7
100
AcDbLine
 10
97.2128440918
 20
347.4559477561
 30
0.0
 11
97.2128440918
 21
260.64548194
 31
0.0
  0
LINE
  5
ED
330
BE
100
AcDbEntity
  8
$DDT_AUDIT_GENERATED_(77)
  6
Continuous
 62
     7
100
AcDbLine
 10
147.2143188589
 20
260.6455771497
 30
0.0
 11
147.2143188589
 21
347.4564673841
 31
0.0
  0
ARC
  5
EE
330
BE
100
AcDbEntity
  8
$DDT_AUDIT_GENERATED_(77)
  6
Continuous
 62
     7
100
AcDbCircle
 10
122.2166114099
 20
320.2868798424
 30
0.0
 40
16.7109440027246
100
AcDbArc
 50
190.8917918469
 51
225.9148808746
  0
ARC
  5
EF
330
BE
100
AcDbEntity
  8
$DDT_AUDIT_GENERATED_(77)
  6
Continuous
 62
     7
100
AcDbCircle
 10
122.2166114099
 20
320.2868798424
 30
0.0
 40
16.7109440027246
100
AcDbArc
 50
314.0591962063
 51
348.7229795004
  0
ELLIPSE
  5
F0
330
BE
100
AcDbEntity
  8
$DDT_AUDIT_GENERATED_(89)
  6
Continuous
 62
     7
100
AcDbEllipse
 10
122.2136489981
 20
313.432369464
 30
0.0
 11
11.935
 21
0.0
 31
0.0
210
0.0
220
0.0
230
1.0
 40
0.5224985647
 41
3.096256043847362
 42
3.141592653589793
  0
ELLIPSE
  5
F1
330
BE
100
AcDbEntity
  8
$DDT_AUDIT_GENERATED_(89)
  6
Continuous
 62
     7
100
AcDbEllipse
 10
122.2136489981
 20
313.432369464
 30
0.0
 11
11.935
 21
0.0
 31
0.0
210
0.0
220
0.0
230
1.0
 40
0.5224985647
 41
0.0
 42
0.0404757244427543
  0
ELLIPSE
  5
F2
330
BE
100
AcDbEntity
  8
$DDT_AUDIT_GENERATED_(89)
  6
Continuous
 62
     7
100
AcDbEllipse
 10
122.2136489981
 20
306.7313500186
 30
0.0
 11
11.85999999999208
 21
-1.056099652174680E-11
 31
0.0
210
0.0
220
0.0
230
1.0
 40
0.5224985647
 41
-0.5225267283421751
 42
-0.3887609383039159
  0
ELLIPSE
  5
F3
330
BE
100
AcDbEntity
  8
$DDT_AUDIT_GENERATED_(89)
  6
Continuous
 62
     7
100
AcDbEllipse
 10
122.2136489981
 20
306.7313500186
 30
0.0
 11
11.85999999999208
 21
-1.056099652174680E-11
 31
0.0
210
0.0
220
0.0
230
1.0
 40
0.5224985647
 41
3.693325606247532
 42
5.760658578837411
  0
ELLIPSE
  5
F4
330
BE
100
AcDbEntity
  8
$DDT_AUDIT_GENERATED_(89)
  6
Continuous
 62
     7
100
AcDbEllipse
 10
122.2136489981
 20
306.7313500186
 30
0.0
 11
11.85999999999208
 21
-1.056099652174680E-11
 31
0.0
210
0.0
220
0.0
230
1.0
 40
0.5224985647
 41
3.530353591894652
 42
3.693325606247532
  0
ELLIPSE
  5
F5
330
BE
100
AcDbEntity
  8
$DDT_AUDIT_GENERATED_(89)
  6
Continuous
 62
     7
100
AcDbEllipse
 10
122.2136489981
 20
306.2020628853
 30
0.0
 11
-10.78480762113534
 21
0.0
 31
0.0
210
0.0
220
0.0
230
1.0
 40
0.5224985647
 41
2.562598623575489
 42
6.283185307179586
  0
ELLIPSE
  5
F6
330
BE
100
AcDbEntity
  8
$DDT_AUDIT_GENERATED_(89)
  6
Continuous
 62
     7
100
AcDbEllipse
 10
122.2136489981
 20
306.2020628853
 30
0.0
 11
-10.78480762113534
 21
0.0
 31
0.0
210
0.0
220
0.0
230
1.0
 40
0.5224985647
 41
0.5568613711995835
 42
2.562598623575489
  0
ELLIPSE
  5
F7
330
BE
100
AcDbEntity
  8
$DDT_AUDIT_GENERATED_(89)
  6
Continuous
 62
     7
100
AcDbEllipse
 10
122.2136489981
 20
306.2020628853
 30
0.0
 11
-10.78480762113534
 21
0.0
 31
0.0
210
0.0
220
0.0
230
1.0
 40
0.5224985647
 41
0.0
 42
0.5568613711995835
  0
ELLIPSE
  5
F8
330
BE
100
AcDbEntity
  8
$DDT_AUDIT_GENERATED_(89)
  6
Continuous
 62
     7
100
AcDbEllipse
 10
122.2136489981
 20
306.184928067
 30
0.0
 11
10.70980762113534
 21
-6.938893903907228E-15
 31
0.0
210
0.0
220
0.0
230
1.0
 40
0.5224985647
 41
0.0
 42
6.283185307179586
  0
ELLIPSE
  5
F9
330
BE
100
AcDbEntity
  8
$DDT_AUDIT_GENERATED_(89)
  6
Continuous
 62
     7
100
AcDbEllipse
 10
122.2136489981
 20
306.184928067
 30
0.0
 11
10.075
 21
-6.938893903907228E-15
 31
0.0
210
0.0
220
0.0
230
1.0
 40
0.5224985647
 41
0.0
 42
6.283185307179586
  0
ELLIPSE
  5
FA
330
BE
100
AcDbEntity
  8
$DDT_AUDIT_GENERATED_(89)
  6
Continuous
 62
     7
100
AcDbEllipse
 10
122.2136489981
 20
304.0222751798
 30
0.0
 11
-11.58161398464224
 21
-7.207555013021292
 31
0.0
210
0.0
220
0.0
230
0.9999999999999999
 40
0.3999669524
 41
2.493813698823272
 42
3.30146587714485
  0
LINE
  5
FB
330
BE
100
AcDbEntity
  8
$DDT_AUDIT_GENERATED_(89)
  6
Continuous
 62
     7
100
AcDbLine
 10
133.1886489981
 20
309.2924902308
 30
0.0
 11
133.1886489981
 21
311.8753396975
 31
0.0
  0
LINE
  5
FC
330
BE
100
AcDbEntity
  8
$DDT_AUDIT_GENERATED_(89)
  6
Continuous
 62
     7
100
AcDbLine
 10
133.1886489981
 20
309.0802106297
 30
0.0
 11
133.1886489981
 21
309.2924902308
 31
0.0
  0
LINE
  5
FD
330
BE
100
AcDbEntity
  8
$DDT_AUDIT_GENERATED_(89)
  6
Continuous
 62
     7
100
AcDbLine
 10
133.1886489981
 20
304.3824894075
 30
0.0
 11
133.1886489981
 21
309.0802106297
 31
0.0
  0
ELLIPSE
  5
FE
330
BE
100
AcDbEntity
  8
$DDT_AUDIT_GENERATED_(89)
  6
Continuous
 62
     7
100
AcDbEllipse
 10
122.2136489981
 20
306.842111225
 30
0.0
 11
-11.93499999999999
 21
4.163336342344337E-14
 31
0.0
210
0.0
220
0.0
230
1.0
 40
0.5224985647
 41
3.545418742750583
 42
5.879359218018803
  0
ELLIPSE
  5
FF
330
BE
100
AcDbEntity
  8
$DDT_AUDIT_GENERATED_(89)
  6
Continuous
 62
     7
100
AcDbEllipse
 10
122.2136489981
 20
304.0222751798
 30
0.0
 11
11.58161398464219
 21
-7.207555013021248
 31
0.0
210
0.0
220
0.0
230
0.9999999999999998
 40
0.3999669524
 41
2.981719430034771
 42
3.789371608356314
  0
LINE
  5
100
330
BE
100
AcDbEntity
  8
$DDT_AUDIT_GENERATED_(89)
  6
Continuous
 62
     7
100
AcDbLine
 10
111.2386489981
 20
309.2924902308
 30
0.0
 11
111.2386489981
 21
311.8753396975
 31
0.0
  0
ELLIPSE
  5
101
330
BE
100
AcDbEntity
  8
$DDT_AUDIT_GENERATED_(89)
  6
Continuous
 62
     7
100
AcDbEllipse
 10
122.2136489981
 20
306.7313500186
 30
0.0
 11
-11.86000000000001
 21
6.938893903907228E-15
 31
0.0
210
0.0
220
0.0
230
1.0
 40
0.5224985647
 41
3.530353591895799
 42
5.894424368873581
  0
LINE
  5
102
330
BE
100
AcDbEntity
  8
$DDT_AUDIT_GENERATED_(89)
  6
Continuous
 62
     7
100
AcDbLine
 10
111.2386489981
 20
309.0802106297
 30
0.0
 11
111.2386489981
 21
309.2924902308
 31
0.0
  0
LINE
  5
103
330
BE
100
AcDbEntity
  8
$DDT_AUDIT_GENERATED_(89)
  6
Continuous
 62
     7
100
AcDbLine
 10
111.2386489981
 20
304.3824894075
 30
0.0
 11
111.2386489981
 21
309.0802106297
 31
0.0
  0
LINE
  5
104
330
BE
100
AcDbEntity
  8
$DDT_AUDIT_GENERATED_(89)
  6
Continuous
 62
     7
100
AcDbLine
 10
110.2786489981
 20
313.432369464
 30
0.0
 11
110.2786489981
 21
309.8975418389
 31
0.0
  0
LINE
  5
105
330
BE
100
AcDbEntity
  8
$DDT_AUDIT_GENERATED_(89)
  6
Continuous
 62
     7
100
AcDbLine
 10
134.1486489981
 20
309.8975418389
 30
0.0
 11
134.1486489981
 21
313.432369464
 31
0.0
  0
ARC
  5
106
330
BE
100
AcDbEntity
  8
$DDT_AUDIT_GENERATED_(89)
  6
Continuous
 62
     7
100
AcDbCircle
 10
128.6181717068
 20
308.0247931325
 30
0.0
 40
5.860174580718666
100
AcDbArc
 50
311.9451858569
 51
321.2439373104
  0
ARC
  5
107
330
BE
100
AcDbEntity
  8
$DDT_AUDIT_GENERATED_(89)
  6
Continuous
 62
     7
100
AcDbCircle
 10
115.8647141633
 20
308.0831713237
 30
0.0
 40
5.940494078452542
100
AcDbArc
 50
218.8610599982
 51
230.455820229
  0
ELLIPSE
  5
108
330
BE
100
AcDbEntity
  8
$DDT_AUDIT_GENERATED_(9A)
  6
Continuous
 62
     7
100
AcDbEllipse
 10
122.2136489981
 20
305.8865040095
 30
0.0
 11
9.000000000000007
 21
-6.938893903907228E-15
 31
0.0
210
0.0
220
0.0
230
1.0
 40
0.5224985647
 41
0.0
 42
6.283185307179586
  0
ELLIPSE
  5
109
330
BE
100
AcDbEntity
  8
$DDT_AUDIT_GENERATED_(9A)
  6
Continuous
 62
     7
100
AcDbEllipse
 10
122.2136489981
 20
308.1886324533
 30
0.0
 11
9.000000000000005
 21
-6.938893903907228E-15
 31
0.0
210
0.0
220
0.0
230
1.0
 40
0.5224985647
 41
3.057475471317425
 42
3.141592653589793
  0
ELLIPSE
  5
10A
330
BE
100
AcDbEntity
  8
$DDT_AUDIT_GENERATED_(9A)
  6
Continuous
 62
     7
100
AcDbEllipse
 10
122.2136489981
 20
308.1886324533
 30
0.0
 11
9.000000000000005
 21
-6.938893903907228E-15
 31
0.0
210
0.0
220
0.0
230
1.0
 40
0.5224985647
 41
0.0
 42
0.0841171822723678
  0
ELLIPSE
  5
10B
330
BE
100
AcDbEntity
  8
$DDT_AUDIT_GENERATED_(9A)
  6
Continuous
 62
     7
100
AcDbEllipse
 10
122.2136489981
 20
308.5181557966
 30
0.0
 11
9.386474103795472
 21
-1.249000902703301E-13
 31
0.0
210
0.0
220
0.0
230
1.0
 40
0.5224985647
 41
5.995229759036683
 42
6.205078202674988
  0
ELLIPSE
  5
10C
330
BE
100
AcDbEntity
  8
$DDT_AUDIT_GENERATED_(9A)
  6
Continuous
 62
     7
100
AcDbEllipse
 10
122.2136489981
 20
308.5181557966
 30
0.0
 11
-9.386474103797786
 21
-5.481726184086710E-13
 31
0.0
210
0.0
220
0.0
230
1.0
 40
0.5224985647
 41
0.0781071045046196
 42
0.2879555481428578
  0
ELLIPSE
  5
10D
330
BE
100
AcDbEntity
  8
$DDT_AUDIT_GENERATED_(9A)
  6
Continuous
 62
     7
100
AcDbEllipse
 10
122.2136489981
 20
305.8865040095
 30
0.0
 11
5.250000000000003
 21
0.0
 31
0.0
210
0.0
220
0.0
230
1.0
 40
0.5224985647
 41
0.0
 42
6.283185307179586
  0
ELLIPSE
  5
10E
330
BE
100
AcDbEntity
  8
$DDT_AUDIT_GENERATED_(9A)
  6
Continuous
 62
     7
100
AcDbEllipse
 10
122.2136489981
 20
305.8865040095
 30
0.0
 11
6.249999999999998
 21
-6.938893903907229E-15
 31
0.0
210
0.0
220
0.0
230
1.0
 40
0.5224985647
 41
0.0
 42
6.283185307179586
  0
ELLIPSE
  5
10F
330
BE
100
AcDbEntity
  8
$DDT_AUDIT_GENERATED_(9A)
  6
Continuous
 62
     7
100
AcDbEllipse
 10
122.2136489981
 20
305.8865040095
 30
0.0
 11
2.750000000000002
 21
-6.938893903907228E-15
 31
0.0
210
0.0
220
0.0
230
1.0
 40
0.5224985647
 41
0.0
 42
6.283185307179586
  0
ELLIPSE
  5
110
330
BE
100
AcDbEntity
  8
$DDT_AUDIT_GENERATED_(9A)
  6
Continuous
 62
     7
100
AcDbEllipse
 10
122.2136489981
 20
305.8865040095
 30
0.0
 11
-2.150000000000001
 21
0.0
 31
0.0
210
0.0
220
0.0
230
1.0
 40
0.5224985647
 41
0.0
 42
6.283185307179586
  0
ELLIPSE
  5
111
330
BE
100
AcDbEntity
  8
$DDT_AUDIT_GENERATED_(9A)
  6
Continuous
 62
     7
100
AcDbEllipse
 10
122.2136489981
 20
306.0570320424
 30
0.0
 11
0.5196299438963563
 21
0.0
 31
0.0
210
0.0
220
0.0
230
1.0
 40
0.5224985647
 41
0.0
 42
6.283185307179586
  0
ELLIPSE
  5
112
330
BE
100
AcDbEntity
  8
$DDT_AUDIT_GENERATED_(9A)
  6
Continuous
 62
     7
100
AcDbEllipse
 10
122.2136489981
 20
305.8865040095
 30
0.0
 11
-8.699999999999999
 21
0.0
 31
0.0
210
0.0
220
0.0
230
1.0
 40
0.5224985647
 41
0.0
 42
6.283185307179586
  0
ARC
  5
113
330
BE
100
AcDbEntity
  8
$DDT_AUDIT_GENERATED_(9A)
  6
Continuous
 62
     7
100
AcDbCircle
 10
122.2136489981
 20
317.8829630249
 30
0.0
 40
16.2671687903295
100
AcDbArc
 50
269.6477805012
 51
270.3522194988
  0
ELLIPSE
  5
114
330
BE
100
AcDbEntity
  8
$DDT_AUDIT_GENERATED_(9A)
  6
Continuous
 62
     7
100
AcDbEllipse
 10
122.2136489981
 20
306.0570320424
 30
0.0
 11
8.500000000009008
 21
-1.686151218649456E-12
 31
0.0
210
0.0
220
0.0
230
1.0
 40
0.5224985647
 41
4.724153957673181
 42
4.962423390895903
  0
LINE
  5
115
330
BE
100
AcDbEntity
  8
$DDT_AUDIT_GENERATED_(9A)
  6
Continuous
 62
     7
100
AcDbLine
 10
122.1136489981
 20
302.6213060056
 30
0.0
 11
122.1136489981
 21
301.616101605
 31
0.0
  0
LINE
  5
116
330
BE
100
AcDbEntity
  8
$DDT_AUDIT_GENERATED_(9A)
  6
Continuous
 62
     7
100
AcDbLine
 10
122.3136489981
 20
302.6213060056
 30
0.0
 11
122.3136489981
 21
301.616101605
 31
0.0
  0
LINE
  5
117
330
BE
100
AcDbEntity
  8
$DDT_AUDIT_GENERATED_(9A)
  6
Continuous
 62
     7
100
AcDbLine
 10
122.4636489981
 20
305.1521366657
 30
0.0
 11
122.4636489981
 21
305.8190138566
 31
0.0
  0
LINE
  5
118
330
BE
100
AcDbEntity
  8
$DDT_AUDIT_GENERATED_(9A)
  6
Continuous
 62
     7
100
AcDbLine
 10
121.9636489981
 20
305.1521366657
 30
0.0
 11
121.9636489981
 21
305.8190138566
 31
0.0
  0
ELLIPSE
  5
119
330
BE
100
AcDbEntity
  8
$DDT_AUDIT_GENERATED_(9A)
  6
Continuous
 62
     7
100
AcDbEllipse
 10
122.2136489981
 20
306.2678882781
 30
0.0
 11
-2.149999999998878
 21
6.245004513516506E-14
 31
0.0
210
0.0
220
0.0
230
1.0
 40
0.5224985647
 41
1.454253618345518
 42
1.687339035244312
  0
LINE
  5
11A
330
BE
100
AcDbEntity
  8
$DDT_AUDIT_GENERATED_(9A)
  6
Continuous
 62
     7
100
AcDbLine
 10
121.9441411288
 20
306.5000216286
 30
0.0
 11
121.9441411288
 21
307.0010150665
 31
0.0
  0
ELLIPSE
  5
11B
330
BE
100
AcDbEntity
  8
$DDT_AUDIT_GENERATED_(9A)
  6
Continuous
 62
     7
100
AcDbEllipse
 10
122.2136489981
 20
306.2678882781
 30
0.0
 11
-0.5196299438963553
 21
-6.938893903907228E-15
 31
0.0
210
0.0
220
0.0
230
1.0
 40
0.5224985647
 41
5.25766425055696
 42
6.261508812605834
  0
LINE
  5
11C
330
BE
100
AcDbEntity
  8
$DDT_AUDIT_GENERATED_(9A)
  6
Continuous
 62
     7
100
AcDbLine
 10
120.572406482
 20
306.6121608445
 30
0.0
 11
121.6941411288
 21
306.2737731134
 31
0.0
  0
LINE
  5
11D
330
BE
100
AcDbEntity
  8
$DDT_AUDIT_GENERATED_(9A)
  6
Continuous
 62
     7
100
AcDbLine
 10
120.9566999735
 20
306.7978977556
 30
0.0
 11
121.9441411288
 21
306.5000216286
 31
0.0
  0
ELLIPSE
  5
11E
330
BE
100
AcDbEntity
  8
$DDT_AUDIT_GENERATED_(9A)
  6
Continuous
 62
     7
100
AcDbEllipse
 10
122.2136489981
 20
306.2678882781
 30
0.0
 11
0.5196299438963579
 21
4.163336342344337E-14
 31
0.0
210
0.0
220
0.0
230
1.0
 40
0.5224985647
 41
0.0216764945739311
 42
1.02552105662258
  0
LINE
  5
11F
330
BE
100
AcDbEntity
  8
$DDT_AUDIT_GENERATED_(9A)
  6
Continuous
 62
     7
100
AcDbLine
 10
123.4705980227
 20
306.7978977556
 30
0.0
 11
122.4831568674
 21
306.5000216286
 31
0.0
  0
LINE
  5
120
330
BE
100
AcDbEntity
  8
$DDT_AUDIT_GENERATED_(9A)
  6
Continuous
 62
     7
100
AcDbLine
 10
122.4831568674
 20
306.5000216286
 30
0.0
 11
122.4831568674
 21
307.0010150665
 31
0.0
  0
LINE
  5
121
330
BE
100
AcDbEntity
  8
$DDT_AUDIT_GENERATED_(9A)
  6
Continuous
 62
     7
100
AcDbLine
 10
123.8548915142
 20
306.6121608445
 30
0.0
 11
122.7331568674
 21
306.2737731134
 31
0.0
  0
ELLIPSE
  5
122
330
BE
100
AcDbEntity
  8
$DDT_AUDIT_GENERATED_(9A)
  6
Continuous
 62
     7
100
AcDbEllipse
 10
122.2136488804
 20
306.0570318128
 30
0.0
 11
-8.49999975738333
 21
8.172020699026561E-8
 31
0.0
210
0.0
220
0.0
230
1.0
 40
0.5224985526
 41
1.297231973100432
 42
1.320761928306118
  0
ELLIPSE
  5
123
330
BE
100
AcDbEntity
  8
$DDT_AUDIT_GENERATED_(9A)
  6
Continuous
 62
     7
100
AcDbEllipse
 10
122.2136489981
 20
306.0570320424
 30
0.0
 11
-8.49999999999222
 21
1.838806884535416E-12
 31
0.0
210
0.0
220
0.0
230
1.0
 40
0.5224985647
 41
1.320761916283989
 42
1.559031349507174
  0
LINE
  5
124
330
BE
100
AcDbEntity
  8
$DDT_AUDIT_GENERATED_(9A)
  6
Continuous
 62
     7
100
AcDbLine
 10
119.9172467839
 20
301.7809458982
 30
0.0
 11
119.9172467839
 21
302.8493066883
 31
0.0
  0
LINE
  5
125
330
BE
100
AcDbEntity
  8
$DDT_AUDIT_GENERATED_(9A)
  6
Continuous
 62
     7
100
AcDbLine
 10
120.4185495513
 20
302.7584818784
 30
0.0
 11
119.9172467839
 21
301.7809458982
 31
0.0
  0
LINE
  5
126
330
BE
100
AcDbEntity
  8
$DDT_AUDIT_GENERATED_(9A)
  6
Continuous
 62
     7
100
AcDbLine
 10
120.6110349577
 20
302.7300708389
 30
0.0
 11
120.1104319491
 21
301.7538993822
 31
0.0
  0
ELLIPSE
  5
127
330
BE
100
AcDbEntity
  8
$DDT_AUDIT_GENERATED_(9A)
  6
Continuous
 62
     7
100
AcDbEllipse
 10
122.2136487707
 20
306.0570318365
 30
0.0
 11
-8.49999971569955
 21
1.415644199087573E-7
 31
0.0
210
0.0
220
0.0
230
1.0
 40
0.5224985577
 41
1.035432593880316
 42
1.058962549086164
  0
ELLIPSE
  5
128
330
BE
100
AcDbEntity
  8
$DDT_AUDIT_GENERATED_(9A)
  6
Continuous
 62
     7
100
AcDbEllipse
 10
122.2136489981
 20
306.0570320424
 30
0.0
 11
-8.500000000018384
 21
-8.326672684688674E-12
 31
0.0
210
0.0
220
0.0
230
1.0
 40
0.5224985647
 41
1.058962528483714
 42
1.297231961706233
  0
LINE
  5
129
330
BE
100
AcDbEntity
  8
$DDT_AUDIT_GENERATED_(9A)
  6
Continuous
 62
     7
100
AcDbLine
 10
117.8773405856
 20
302.2371983954
 30
0.0
 11
117.8773405856
 21
303.5347421284
 31
0.0
  0
LINE
  5
12A
330
BE
100
AcDbEntity
  8
$DDT_AUDIT_GENERATED_(9A)
  6
Continuous
 62
     7
100
AcDbLine
 10
118.8634958428
 20
303.1296630464
 30
0.0
 11
117.8773405856
 21
302.2371983954
 31
0.0
  0
LINE
  5
12B
330
BE
100
AcDbEntity
  8
$DDT_AUDIT_GENERATED_(9A)
  6
Continuous
 62
     7
100
AcDbLine
 10
119.0340887356
 20
303.0750491753
 30
0.0
 11
118.0505456663
 21
302.184948539
 31
0.0
  0
ELLIPSE
  5
12C
330
BE
100
AcDbEntity
  8
$DDT_AUDIT_GENERATED_(9A)
  6
Continuous
 62
     7
100
AcDbEllipse
 10
122.2136486644
 20
306.057031868
 30
0.0
 11
-8.499999646031899
 21
1.696043097632050E-7
 31
0.0
210
0.0
220
0.0
230
1.0
 40
0.5224985647
 41
0.7736332100910913
 42
0.7971631653204937
  0
ELLIPSE
  5
12D
330
BE
100
AcDbEntity
  8
$DDT_AUDIT_GENERATED_(9A)
  6
Continuous
 62
     7
100
AcDbEllipse
 10
122.2136489981
 20
306.0570320424
 30
0.0
 11
-8.50000000002003
 21
-1.016547956922409E-11
 31
0.0
210
0.0
220
0.0
230
1.0
 40
0.5224985647
 41
0.797163140684272
 42
1.035432573906829
  0
LINE
  5
12E
330
BE
100
AcDbEntity
  8
$DDT_AUDIT_GENERATED_(9A)
  6
Continuous
 62
     7
100
AcDbLine
 10
116.1329466395
 20
302.9537662432
 30
0.0
 11
116.1329466395
 21
304.1623659313
 31
0.0
  0
LINE
  5
12F
330
BE
100
AcDbEntity
  8
$DDT_AUDIT_GENERATED_(9A)
  6
Continuous
 62
     7
100
AcDbLine
 10
117.5665295298
 20
303.7028112458
 30
0.0
 11
116.1329466395
 21
302.9537662432
 31
0.0
  0
LINE
  5
130
330
BE
100
AcDbEntity
  8
$DDT_AUDIT_GENERATED_(9A)
  6
Continuous
 62
     7
100
AcDbLine
 10
117.7027247264
 20
303.6261881292
 30
0.0
 11
116.2743679957
 21
302.8798737875
 31
0.0
  0
ELLIPSE
  5
131
330
BE
100
AcDbEntity
  8
$DDT_AUDIT_GENERATED_(9A)
  6
Continuous
 62
     7
100
AcDbEllipse
 10
122.2136486483
 20
306.0570319367
 30
0.0
 11
-8.499999646547453
 21
1.258244064494818E-7
 31
0.0
210
0.0
220
0.0
230
1.0
 40
0.5224985709
 41
0.5118338160516327
 42
0.5353637711870323
  0
ELLIPSE
  5
132
330
BE
100
AcDbEntity
  8
$DDT_AUDIT_GENERATED_(9A)
  6
Continuous
 62
     7
100
AcDbEllipse
 10
122.2136489981
 20
306.0570320424
 30
0.0
 11
-8.499999999990658
 21
4.246603069191224E-12
 31
0.0
210
0.0
220
0.0
230
1.0
 40
0.5224985647
 41
0.5353637528868965
 42
0.7736331861100263
  0
LINE
  5
133
330
BE
100
AcDbEntity
  8
$DDT_AUDIT_GENERATED_(9A)
  6
Continuous
 62
     7
100
AcDbLine
 10
114.8029425103
 20
303.8818165268
 30
0.0
 11
114.8029425103
 21
304.9654173628
 31
0.0
  0
LINE
  5
134
330
BE
100
AcDbEntity
  8
$DDT_AUDIT_GENERATED_(9A)
  6
Continuous
 62
     7
100
AcDbLine
 10
116.6198213275
 20
304.4299047064
 30
0.0
 11
114.8029425103
 21
303.8818165268
 31
0.0
  0
LINE
  5
135
330
BE
100
AcDbEntity
  8
$DDT_AUDIT_GENERATED_(9A)
  6
Continuous
 62
     7
100
AcDbLine
 10
116.7119794095
 20
304.3370396706
 30
0.0
 11
114.9029425103
 21
303.7913171207
 31
0.0
  0
ELLIPSE
  5
136
330
BE
100
AcDbEntity
  8
$DDT_AUDIT_GENERATED_(9A)
  6
Continuous
 62
     7
100
AcDbEllipse
 10
122.2136485425
 20
306.0570319786
 30
0.0
 11
-8.499999544095338
 21
8.475180279798877E-8
 31
0.0
210
0.0
220
0.0
230
1.0
 40
0.5224985773
 41
0.2500344223318006
 42
0.2735643775608707
  0
ELLIPSE
  5
137
330
BE
100
AcDbEntity
  8
$DDT_AUDIT_GENERATED_(9A)
  6
Continuous
 62
     7
100
AcDbEllipse
 10
122.2136489981
 20
306.0570320424
 30
0.0
 11
-8.499999999995865
 21
6.661338147750939E-13
 31
0.0
210
0.0
220
0.0
230
1.0
 40
0.5224985647
 41
0.2735643650873504
 42
0.5118337983103741
  0
LINE
  5
138
330
BE
100
AcDbEntity
  8
$DDT_AUDIT_GENERATED_(9A)
  6
Continuous
 62
     7
100
AcDbLine
 10
113.9779657815
 20
304.958104153
 30
0.0
 11
113.9779657815
 21
306.0047821859
 31
0.0
  0
LINE
  5
139
330
BE
100
AcDbEntity
  8
$DDT_AUDIT_GENERATED_(9A)
  6
Continuous
 62
     7
100
AcDbLine
 10
116.0824773676
 20
305.2527422327
 30
0.0
 11
113.9779657815
 21
304.958104153
 31
0.0
  0
LINE
  5
13A
330
BE
100
AcDbEntity
  8
$DDT_AUDIT_GENERATED_(9A)
  6
Continuous
 62
     7
100
AcDbLine
 10
116.1244832564
 20
305.1504371223
 30
0.0
 11
114.0297295905
 21
304.8571651814
 31
0.0
  0
ARC
  5
13B
330
BE
100
AcDbEntity
  8
$DDT_AUDIT_GENERATED_(9A)
  6
Continuous
 62
     7
100
AcDbCircle
 10
116.0346170333
 20
306.0570320424
 30
0.0
 40
2.320967980974909
100
AcDbArc
 50
178.7100428774
 51
181.2899571226
  0
ELLIPSE
  5
13C
330
BE
100
AcDbEntity
  8
$DDT_AUDIT_GENERATED_(9A)
  6
Continuous
 62
     7
100
AcDbEllipse
 10
122.2136489981
 20
306.0570320424
 30
0.0
 11
-8.49999999996805
 21
2.602085213965211E-12
 31
0.0
210
0.0
220
0.0
230
1.0
 40
0.5224985647
 41
0.0117649772883856
 42
0.2500344105116958
  0
ARC
  5
13D
330
BE
100
AcDbEntity
  8
$DDT_AUDIT_GENERATED_(9A)
  6
Continuous
 62
     7
100
AcDbCircle
 10
117.6705103198
 20
306.0570320424
 30
0.0
 40
1.706861185426577
100
AcDbArc
 50
178.2458069636
 51
180.0
  0
LINE
  5
13E
330
BE
100
AcDbEntity
  8
$DDT_AUDIT_GENERATED_(9A)
  6
Continuous
 62
     7
100
AcDbLine
 10
115.9644490493
 20
306.1092818989
 30
0.0
 11
115.9644490493
 21
306.8778461788
 31
0.0
  0
LINE
  5
13F
330
BE
100
AcDbEntity
  8
$DDT_AUDIT_GENERATED_(9A)
  6
Continuous
 62
     7
100
AcDbLine
 10
115.9644490493
 20
306.1092818989
 30
0.0
 11
113.7142372538
 21
306.1092818989
 31
0.0
  0
LINE
  5
140
330
BE
100
AcDbEntity
  8
$DDT_AUDIT_GENERATED_(9A)
  6
Continuous
 62
     7
100
AcDbLine
 10
115.9636489981
 20
306.0047821859
 30
0.0
 11
113.7142372538
 21
306.0047821859
 31
0.0
  0
ELLIPSE
  5
141
330
BE
100
AcDbEntity
  8
$DDT_AUDIT_GENERATED_(9A)
  6
Continuous
 62
     7
100
AcDbEllipse
 10
122.2136485755
 20
306.0570321015
 30
0.0
 11
-8.499999577120871
 21
-7.857865746974113E-8
 31
0.0
210
0.0
220
0.0
230
1.0
 40
0.5224985764
 41
-0.2735643766554006
 42
-0.2500344214736687
  0
ELLIPSE
  5
142
330
BE
100
AcDbEntity
  8
$DDT_AUDIT_GENERATED_(9A)
  6
Continuous
 62
     7
100
AcDbEllipse
 10
122.2136489981
 20
306.0570320424
 30
0.0
 11
-8.500000000027057
 21
2.685351940812097E-12
 31
0.0
210
0.0
220
0.0
230
1.0
 40
0.5224985647
 41
6.033150896669093
 42
6.271420329891541
  0
ELLIPSE
  5
143
330
BE
100
AcDbEntity
  8
$DDT_AUDIT_GENERATED_(9A)
  6
Continuous
 62
     7
100
AcDbEllipse
 10
122.2136489516
 20
306.0570320489
 30
0.0
 11
-6.249999953463933
 21
-8.658643246839404E-9
 31
0.0
210
0.0
220
0.0
230
1.0
 40
0.5224985665
 41
-0.2778000722930143
 42
-0.2457987066791141
  0
LINE
  5
144
330
BE
100
AcDbEntity
  8
$DDT_AUDIT_GENERATED_(9A)
  6
Continuous
 62
     7
100
AcDbLine
 10
116.2032672784
 20
306.9525969576
 30
0.0
 11
116.2032672784
 21
307.8098190251
 31
0.0
  0
LINE
  5
145
330
BE
100
AcDbEntity
  8
$DDT_AUDIT_GENERATED_(9A)
  6
Continuous
 62
     7
100
AcDbLine
 10
116.2032672784
 20
306.9525969576
 30
0.0
 11
114.0297295905
 21
307.2568989033
 31
0.0
  0
LINE
  5
146
330
BE
100
AcDbEntity
  8
$DDT_AUDIT_GENERATED_(9A)
  6
Continuous
 62
     7
100
AcDbLine
 10
116.1515034694
 20
306.851657986
 30
0.0
 11
113.9779657815
 21
307.1559599318
 31
0.0
  0
ELLIPSE
  5
147
330
BE
100
AcDbEntity
  8
$DDT_AUDIT_GENERATED_(9A)
  6
Continuous
 62
     7
100
AcDbEllipse
 10
122.2136486186
 20
306.0570321568
 30
0.0
 11
-8.499999616522404
 21
-1.363628029937836E-7
 31
0.0
210
0.0
220
0.0
230
1.0
 40
0.5224985715
 41
-0.535363772737421
 42
-0.5118338175547148
  0
ELLIPSE
  5
148
330
BE
100
AcDbEntity
  8
$DDT_AUDIT_GENERATED_(9A)
  6
Continuous
 62
     7
100
AcDbEllipse
 10
122.2136489981
 20
306.0570320424
 30
0.0
 11
-8.500000000027235
 21
7.382983113757291E-12
 31
0.0
210
0.0
220
0.0
230
1.0
 40
0.5224985647
 41
5.77135150887065
 42
6.009620942093211
  0
ELLIPSE
  5
149
330
BE
100
AcDbEntity
  8
$DDT_AUDIT_GENERATED_(9A)
  6
Continuous
 62
     7
100
AcDbEllipse
 10
122.2136490482
 20
306.0570320273
 30
0.0
 11
-6.250000050638083
 21
1.800230797766034E-8
 31
0.0
210
0.0
220
0.0
230
1.0
 40
0.5224985635
 41
-0.5395994547593883
 42
-0.5075980894168852
  0
LINE
  5
14A
330
BE
100
AcDbEntity
  8
$DDT_AUDIT_GENERATED_(9A)
  6
Continuous
 62
     7
100
AcDbLine
 10
116.8516830891
 20
307.7348807474
 30
0.0
 11
116.8516830891
 21
308.7847590782
 31
0.0
  0
LINE
  5
14B
330
BE
100
AcDbEntity
  8
$DDT_AUDIT_GENERATED_(9A)
  6
Continuous
 62
     7
100
AcDbLine
 10
116.8516830891
 20
307.7348807474
 30
0.0
 11
114.9029425103
 21
308.3227469641
 31
0.0
  0
LINE
  5
14C
330
BE
100
AcDbEntity
  8
$DDT_AUDIT_GENERATED_(9A)
  6
Continuous
 62
     7
100
AcDbLine
 10
116.7516830891
 20
307.6443813413
 30
0.0
 11
114.8029425103
 21
308.232247558
 31
0.0
  0
ELLIPSE
  5
14D
330
BE
100
AcDbEntity
  8
$DDT_AUDIT_GENERATED_(9A)
  6
Continuous
 62
     7
100
AcDbEllipse
 10
122.2136489981
 20
306.0570320424
 30
0.0
 11
-8.500000000021334
 21
8.916478666520788E-12
 31
0.0
210
0.0
220
0.0
230
1.0
 40
0.5224985647
 41
-0.644516438327873
 42
-0.5353637528852762
  0
ELLIPSE
  5
14E
330
BE
100
AcDbEntity
  8
$DDT_AUDIT_GENERATED_(9A)
  6
Continuous
 62
     7
100
AcDbEllipse
 10
122.2136490488
 20
306.057032016
 30
0.0
 11
-6.250000053704326
 21
2.572255602961704E-8
 31
0.0
210
0.0
220
0.0
230
1.0
 40
0.5224985647
 41
-0.8013988410327055
 42
-0.7693974757252882
  0
LINE
  5
14F
330
BE
100
AcDbEntity
  8
$DDT_AUDIT_GENERATED_(9A)
  6
Continuous
 62
     7
100
AcDbLine
 10
117.8655080154
 20
308.4028219207
 30
0.0
 11
117.8655080154
 21
309.8237888149
 31
0.0
  0
LINE
  5
150
330
BE
100
AcDbEntity
  8
$DDT_AUDIT_GENERATED_(9A)
  6
Continuous
 62
     7
100
AcDbLine
 10
117.8655080154
 20
308.4028219207
 30
0.0
 11
116.3001638796
 21
309.2207119849
 31
0.0
  0
LINE
  5
151
330
BE
100
AcDbEntity
  8
$DDT_AUDIT_GENERATED_(9A)
  6
Continuous
 62
     7
100
AcDbLine
 10
117.7240866592
 20
308.328929465
 30
0.0
 11
116.1549895714
 21
309.1487804413
 31
0.0
  0
ELLIPSE
  5
152
330
BE
100
AcDbEntity
  8
$DDT_AUDIT_GENERATED_(9A)
  6
Continuous
 62
     7
100
AcDbEllipse
 10
122.2136489707
 20
306.0570320672
 30
0.0
 11
-6.24999996571969
 21
-1.707423785690665E-8
 31
0.0
210
0.0
220
0.0
230
1.0
 40
0.5224985636
 41
-1.063198237341816
 42
-1.031196871710785
  0
LINE
  5
153
330
BE
100
AcDbEntity
  8
$DDT_AUDIT_GENERATED_(9A)
  6
Continuous
 62
     7
100
AcDbLine
 10
119.1756515641
 20
308.9109013904
 30
0.0
 11
119.1756515641
 21
310.1460875268
 31
0.0
  0
LINE
  5
154
330
BE
100
AcDbEntity
  8
$DDT_AUDIT_GENERATED_(9A)
  6
Continuous
 62
     7
100
AcDbLine
 10
119.1756515641
 20
308.9109013904
 30
0.0
 11
118.0935649104
 21
309.8901833854
 31
0.0
  0
LINE
  5
155
330
BE
100
AcDbEntity
  8
$DDT_AUDIT_GENERATED_(9A)
  6
Continuous
 62
     7
100
AcDbLine
 10
119.0024464833
 20
308.8586515339
 30
0.0
 11
117.918483684
 21
309.8396314296
 31
0.0
  0
ELLIPSE
  5
156
330
BE
100
AcDbEntity
  8
$DDT_AUDIT_GENERATED_(9A)
  6
Continuous
 62
     7
100
AcDbEllipse
 10
122.2136490139
 20
306.0570320116
 30
0.0
 11
-6.250000032571021
 21
1.098265228760553E-8
 31
0.0
210
0.0
220
0.0
230
1.0
 40
0.5224985669
 41
-1.324997619520813
 42
-1.292996254186468
  0
LINE
  5
157
330
BE
100
AcDbEntity
  8
$DDT_AUDIT_GENERATED_(9A)
  6
Continuous
 62
     7
100
AcDbLine
 10
120.6928296173
 20
309.2244943802
 30
0.0
 11
120.6928296173
 21
310.3622496621
 31
0.0
  0
LINE
  5
158
330
BE
100
AcDbEntity
  8
$DDT_AUDIT_GENERATED_(9A)
  6
Continuous
 62
     7
100
AcDbLine
 10
120.6928296173
 20
309.2244943802
 30
0.0
 11
120.1406147067
 21
310.3013085911
 31
0.0
  0
LINE
  5
159
330
BE
100
AcDbEntity
  8
$DDT_AUDIT_GENERATED_(9A)
  6
Continuous
 62
     7
100
AcDbLine
 10
120.4996444521
 20
309.1974478643
 30
0.0
 11
119.9469268945
 21
310.2752422323
 31
0.0
  0
ARC
  5
15A
330
BE
100
AcDbEntity
  8
$DDT_AUDIT_GENERATED_(9A)
  6
Continuous
 62
     7
100
AcDbCircle
 10
122.2136489981
 20
297.3620059025
 30
0.0
 40
11.96064218878366
100
AcDbArc
 50
89.520958439
 51
90.479041561
  0
LINE
  5
15B
330
BE
100
AcDbEntity
  8
$DDT_AUDIT_GENERATED_(9A)
  6
Continuous
 62
     7
100
AcDbLine
 10
122.3136489981
 20
309.3222300463
 30
0.0
 11
122.3136489981
 21
310.4319412261
 31
0.0
  0
LINE
  5
15C
330
BE
100
AcDbEntity
  8
$DDT_AUDIT_GENERATED_(9A)
  6
Continuous
 62
     7
100
AcDbLine
 10
122.1136489981
 20
309.3222300463
 30
0.0
 11
122.1136489981
 21
310.4319412261
 31
0.0
  0
ELLIPSE
  5
15D
330
BE
100
AcDbEntity
  8
$DDT_AUDIT_GENERATED_(9A)
  6
Continuous
 62
     7
100
AcDbEllipse
 10
122.2136489824
 20
306.0570320117
 30
0.0
 11
6.250000032387938
 21
1.089700552014961E-8
 31
0.0
210
0.0
220
0.0
230
1.0
 40
0.5224985669
 41
1.292996254205175
 42
1.324997619540351
  0
LINE
  5
15E
330
BE
100
AcDbEntity
  8
$DDT_AUDIT_GENERATED_(9A)
  6
Continuous
 62
     7
100
AcDbLine
 10
123.9276535441
 20
309.1974478643
 30
0.0
 11
124.4803711017
 21
310.2752422323
 31
0.0
  0
LINE
  5
15F
330
BE
100
AcDbEntity
  8
$DDT_AUDIT_GENERATED_(9A)
  6
Continuous
 62
     7
100
AcDbLine
 10
123.7344683789
 20
309.2244943802
 30
0.0
 11
124.2866832895
 21
310.3013085911
 31
0.0
  0
LINE
  5
160
330
BE
100
AcDbEntity
  8
$DDT_AUDIT_GENERATED_(9A)
  6
Continuous
 62
     7
100
AcDbLine
 10
123.7344683789
 20
309.2244943802
 30
0.0
 11
123.7344683789
 21
310.3622496621
 31
0.0
  0
ELLIPSE
  5
161
330
BE
100
AcDbEntity
  8
$DDT_AUDIT_GENERATED_(9A)
  6
Continuous
 62
     7
100
AcDbEllipse
 10
122.2136489693
 20
306.0570320163
 30
0.0
 11
6.250000036032988
 21
1.795221610256803E-8
 31
0.0
210
0.0
220
0.0
230
1.0
 40
0.5224985659
 41
1.031196865027471
 42
1.063198230370516
  0
LINE
  5
162
330
BE
100
AcDbEntity
  8
$DDT_AUDIT_GENERATED_(9A)
  6
Continuous
 62
     7
100
AcDbLine
 10
125.4248515129
 20
308.8586515339
 30
0.0
 11
126.5088143122
 21
309.8396314296
 31
0.0
  0
LINE
  5
163
330
BE
100
AcDbEntity
  8
$DDT_AUDIT_GENERATED_(9A)
  6
Continuous
 62
     7
100
AcDbLine
 10
125.2516464321
 20
308.9109013904
 30
0.0
 11
126.3337330858
 21
309.8901833854
 31
0.0
  0
LINE
  5
164
330
BE
100
AcDbEntity
  8
$DDT_AUDIT_GENERATED_(9A)
  6
Continuous
 62
     7
100
AcDbLine
 10
125.2516464321
 20
308.9109013904
 30
0.0
 11
125.2516464321
 21
310.1460875268
 31
0.0
  0
ELLIPSE
  5
165
330
BE
100
AcDbEntity
  8
$DDT_AUDIT_GENERATED_(9A)
  6
Continuous
 62
     7
100
AcDbEllipse
 10
122.2136489576
 20
306.0570320212
 30
0.0
 11
6.250000042951855
 21
2.057561065971214E-8
 31
0.0
210
0.0
220
0.0
230
1.0
 40
0.5224985647
 41
0.7693974767143734
 42
0.8013988420584
  0
LINE
  5
166
330
BE
100
AcDbEntity
  8
$DDT_AUDIT_GENERATED_(9A)
  6
Continuous
 62
     7
100
AcDbLine
 10
126.703211337
 20
308.328929465
 30
0.0
 11
128.2723084248
 21
309.1487804413
 31
0.0
  0
LINE
  5
167
330
BE
100
AcDbEntity
  8
$DDT_AUDIT_GENERATED_(9A)
  6
Continuous
 62
     7
100
AcDbLine
 10
126.5617899808
 20
308.4028219207
 30
0.0
 11
128.1271341166
 21
309.2207119849
 31
0.0
  0
LINE
  5
168
330
BE
100
AcDbEntity
  8
$DDT_AUDIT_GENERATED_(9A)
  6
Continuous
 62
     7
100
AcDbLine
 10
126.5617899808
 20
308.4028219207
 30
0.0
 11
126.5617899808
 21
309.8237888149
 31
0.0
  0
ELLIPSE
  5
169
330
BE
100
AcDbEntity
  8
$DDT_AUDIT_GENERATED_(9A)
  6
Continuous
 62
     7
100
AcDbEllipse
 10
122.2136493478
 20
306.057032148
 30
0.0
 11
8.499999646631915
 21
-1.258247395163892E-7
 31
0.0
210
0.0
220
0.0
230
1.0
 40
0.5224985709
 41
0.5118338160491941
 42
0.535363771184456
  0
ELLIPSE
  5
16A
330
BE
100
AcDbEntity
  8
$DDT_AUDIT_GENERATED_(9A)
  6
Continuous
 62
     7
100
AcDbEllipse
 10
122.2136489981
 20
306.0570320424
 30
0.0
 11
8.499999999998657
 21
-4.857225732735060E-13
 31
0.0
210
0.0
220
0.0
230
1.0
 40
0.5224985647
 41
0.5353637528864496
 42
0.6445164383292169
  0
ELLIPSE
  5
16B
330
BE
100
AcDbEntity
  8
$DDT_AUDIT_GENERATED_(9A)
  6
Continuous
 62
     7
100
AcDbEllipse
 10
122.213648948
 20
306.0570320273
 30
0.0
 11
6.250000050632556
 21
1.799978915917322E-8
 31
0.0
210
0.0
220
0.0
230
1.0
 40
0.5224985635
 41
0.5075980894175081
 42
0.5395994547599899
  0
LINE
  5
16C
330
BE
100
AcDbEntity
  8
$DDT_AUDIT_GENERATED_(9A)
  6
Continuous
 62
     7
100
AcDbLine
 10
127.6756149071
 20
307.6443813413
 30
0.0
 11
129.6243554859
 21
308.232247558
 31
0.0
  0
LINE
  5
16D
330
BE
100
AcDbEntity
  8
$DDT_AUDIT_GENERATED_(9A)
  6
Continuous
 62
     7
100
AcDbLine
 10
127.5756149071
 20
307.7348807474
 30
0.0
 11
129.5243554859
 21
308.3227469641
 31
0.0
  0
LINE
  5
16E
330
BE
100
AcDbEntity
  8
$DDT_AUDIT_GENERATED_(9A)
  6
Continuous
 62
     7
100
AcDbLine
 10
127.5756149071
 20
307.7348807474
 30
0.0
 11
127.5756149071
 21
308.7847590782
 31
0.0
  0
ELLIPSE
  5
16F
330
BE
100
AcDbEntity
  8
$DDT_AUDIT_GENERATED_(9A)
  6
Continuous
 62
     7
100
AcDbEllipse
 10
122.2136494542
 20
306.0570321062
 30
0.0
 11
8.499999543649432
 21
-8.483536095837962E-8
 31
0.0
210
0.0
220
0.0
230
1.0
 40
0.5224985773
 41
0.2500344223432471
 42
0.2735643775729372
  0
ELLIPSE
  5
170
330
BE
100
AcDbEntity
  8
$DDT_AUDIT_GENERATED_(9A)
  6
Continuous
 62
     7
100
AcDbEllipse
 10
122.2136489981
 20
306.0570320424
 30
0.0
 11
8.499999999995401
 21
-1.089406342913435E-12
 31
0.0
210
0.0
220
0.0
230
1.0
 40
0.5224985647
 41
0.2735643650873735
 42
0.5118337983104122
  0
ELLIPSE
  5
171
330
BE
100
AcDbEntity
  8
$DDT_AUDIT_GENERATED_(9A)
  6
Continuous
 62
     7
100
AcDbEllipse
 10
122.2136490574
 20
306.0570320507
 30
0.0
 11
6.249999940652376
 21
-1.105873032036797E-8
 31
0.0
210
0.0
220
0.0
230
1.0
 40
0.5224985669
 41
0.2457987071277099
 42
0.2778000727755693
  0
LINE
  5
172
330
BE
100
AcDbEntity
  8
$DDT_AUDIT_GENERATED_(9A)
  6
Continuous
 62
     7
100
AcDbLine
 10
128.2757945268
 20
306.851657986
 30
0.0
 11
130.4493322147
 21
307.1559599318
 31
0.0
  0
LINE
  5
173
330
BE
100
AcDbEntity
  8
$DDT_AUDIT_GENERATED_(9A)
  6
Continuous
 62
     7
100
AcDbLine
 10
128.2240307178
 20
306.9525969576
 30
0.0
 11
130.3975684057
 21
307.2568989033
 31
0.0
  0
LINE
  5
174
330
BE
100
AcDbEntity
  8
$DDT_AUDIT_GENERATED_(9A)
  6
Continuous
 62
     7
100
AcDbLine
 10
128.2240307178
 20
306.9525969576
 30
0.0
 11
128.2240307178
 21
307.8098190251
 31
0.0
  0
ARC
  5
175
330
BE
100
AcDbEntity
  8
$DDT_AUDIT_GENERATED_(9A)
  6
Continuous
 62
     7
100
AcDbCircle
 10
128.3926809629
 20
306.0570320424
 30
0.0
 40
2.320967980972891
100
AcDbArc
 50
358.7100428774
 51
1.2899571226
  0
ELLIPSE
  5
176
330
BE
100
AcDbEntity
  8
$DDT_AUDIT_GENERATED_(9A)
  6
Continuous
 62
     7
100
AcDbEllipse
 10
122.2136489981
 20
306.0570320424
 30
0.0
 11
8.500000000026471
 21
2.636779683484747E-12
 31
0.0
210
0.0
220
0.0
230
1.0
 40
0.5224985647
 41
0.0117649772878666
 42
0.2500344105105095
  0
ARC
  5
177
330
BE
100
AcDbEntity
  8
$DDT_AUDIT_GENERATED_(9A)
  6
Continuous
 62
     7
100
AcDbCircle
 10
126.7567876764
 20
306.0570320424
 30
0.0
 40
1.706861185427728
100
AcDbArc
 50
0.0
 51
1.7541930364
  0
LINE
  5
178
330
BE
100
AcDbEntity
  8
$DDT_AUDIT_GENERATED_(9A)
  6
Continuous
 62
     7
100
AcDbLine
 10
128.4636489981
 20
306.0047821859
 30
0.0
 11
130.7130607425
 21
306.0047821859
 31
0.0
  0
LINE
  5
179
330
BE
100
AcDbEntity
  8
$DDT_AUDIT_GENERATED_(9A)
  6
Continuous
 62
     7
100
AcDbLine
 10
128.4628489469
 20
306.1092818989
 30
0.0
 11
130.7130607425
 21
306.1092818989
 31
0.0
  0
LINE
  5
17A
330
BE
100
AcDbEntity
  8
$DDT_AUDIT_GENERATED_(9A)
  6
Continuous
 62
     7
100
AcDbLine
 10
128.4628489469
 20
306.1092818989
 30
0.0
 11
128.4628489469
 21
306.8778461788
 31
0.0
  0
ELLIPSE
  5
17B
330
BE
100
AcDbEntity
  8
$DDT_AUDIT_GENERATED_(9A)
  6
Continuous
 62
     7
100
AcDbEllipse
 10
122.2136494869
 20
306.0570319739
 30
0.0
 11
8.4999995109041
 21
9.102279346917541E-8
 31
0.0
210
0.0
220
0.0
230
1.0
 40
0.5224985782
 41
-0.2735643784744797
 42
-0.2500344231978353
  0
ELLIPSE
  5
17C
330
BE
100
AcDbEntity
  8
$DDT_AUDIT_GENERATED_(9A)
  6
Continuous
 62
     7
100
AcDbEllipse
 10
122.2136489981
 20
306.0570320424
 30
0.0
 11
8.499999999996449
 21
5.481726184086710E-13
 31
0.0
210
0.0
220
0.0
230
1.0
 40
0.5224985647
 41
6.033150896668442
 42
6.271420329891597
  0
LINE
  5
17D
330
BE
100
AcDbEntity
  8
$DDT_AUDIT_GENERATED_(9A)
  6
Continuous
 62
     7
100
AcDbLine
 10
130.4493322147
 20
304.958104153
 30
0.0
 11
130.4493322147
 21
306.0047821859
 31
0.0
  0
LINE
  5
17E
330
BE
100
AcDbEntity
  8
$DDT_AUDIT_GENERATED_(9A)
  6
Continuous
 62
     7
100
AcDbLine
 10
128.3028147399
 20
305.1504371223
 30
0.0
 11
130.3975684057
 21
304.8571651814
 31
0.0
  0
LINE
  5
17F
330
BE
100
AcDbEntity
  8
$DDT_AUDIT_GENERATED_(9A)
  6
Continuous
 62
     7
100
AcDbLine
 10
128.3448206287
 20
305.2527422327
 30
0.0
 11
130.4493322147
 21
304.958104153
 31
0.0
  0
ELLIPSE
  5
180
330
BE
100
AcDbEntity
  8
$DDT_AUDIT_GENERATED_(9A)
  6
Continuous
 62
     7
100
AcDbEllipse
 10
122.2136494066
 20
306.0570319192
 30
0.0
 11
8.499999587256516
 21
1.467993782089394E-7
 31
0.0
210
0.0
220
0.0
230
1.0
 40
0.522498572
 41
-0.5353637742524961
 42
-0.5118338190234191
  0
ELLIPSE
  5
181
330
BE
100
AcDbEntity
  8
$DDT_AUDIT_GENERATED_(9A)
  6
Continuous
 62
     7
100
AcDbEllipse
 10
122.2136489981
 20
306.0570320424
 30
0.0
 11
8.499999999996346
 21
8.326672684688674E-13
 31
0.0
210
0.0
220
0.0
230
1.0
 40
0.5224985647
 41
5.771351508869207
 42
6.009620942092222
  0
LINE
  5
182
330
BE
100
AcDbEntity
  8
$DDT_AUDIT_GENERATED_(9A)
  6
Continuous
 62
     7
100
AcDbLine
 10
129.6243554859
 20
303.8818165268
 30
0.0
 11
129.6243554859
 21
304.9654173628
 31
0.0
  0
LINE
  5
183
330
BE
100
AcDbEntity
  8
$DDT_AUDIT_GENERATED_(9A)
  6
Continuous
 62
     7
100
AcDbLine
 10
127.7153185868
 20
304.3370396706
 30
0.0
 11
129.5243554859
 21
303.7913171207
 31
0.0
  0
LINE
  5
184
330
BE
100
AcDbEntity
  8
$DDT_AUDIT_GENERATED_(9A)
  6
Continuous
 62
     7
100
AcDbLine
 10
127.8074766687
 20
304.4299047064
 30
0.0
 11
129.6243554859
 21
303.8818165268
 31
0.0
  0
ELLIPSE
  5
185
330
BE
100
AcDbEntity
  8
$DDT_AUDIT_GENERATED_(9A)
  6
Continuous
 62
     7
100
AcDbEllipse
 10
122.2136493067
 20
306.0570318812
 30
0.0
 11
8.499999672695361
 21
1.568117094508104E-7
 31
0.0
210
0.0
220
0.0
230
0.9999999999999999
 40
0.5224985647
 41
-0.7971631634669825
 42
-0.7736332082868582
  0
ELLIPSE
  5
186
330
BE
100
AcDbEntity
  8
$DDT_AUDIT_GENERATED_(9A)
  6
Continuous
 62
     7
100
AcDbEllipse
 10
122.2136489981
 20
306.0570320424
 30
0.0
 11
8.499999999998252
 21
6.800116025829084E-13
 31
0.0
210
0.0
220
0.0
230
1.0
 40
0.5224985647
 41
-0.7736331861094818
 42
-0.5353637528864921
  0
LINE
  5
187
330
BE
100
AcDbEntity
  8
$DDT_AUDIT_GENERATED_(9A)
  6
Continuous
 62
     7
100
AcDbLine
 10
128.2943513568
 20
302.9537662432
 30
0.0
 11
128.2943513568
 21
304.1623659313
 31
0.0
  0
LINE
  5
188
330
BE
100
AcDbEntity
  8
$DDT_AUDIT_GENERATED_(9A)
  6
Continuous
 62
     7
100
AcDbLine
 10
126.7245732699
 20
303.6261881292
 30
0.0
 11
128.1529300005
 21
302.8798737875
 31
0.0
  0
LINE
  5
189
330
BE
100
AcDbEntity
  8
$DDT_AUDIT_GENERATED_(9A)
  6
Continuous
 62
     7
100
AcDbLine
 10
126.8607684664
 20
303.7028112458
 30
0.0
 11
128.2943513568
 21
302.9537662432
 31
0.0
  0
ELLIPSE
  5
18A
330
BE
100
AcDbEntity
  8
$DDT_AUDIT_GENERATED_(9A)
  6
Continuous
 62
     7
100
AcDbEllipse
 10
122.2136492257
 20
306.0570318364
 30
0.0
 11
8.49999971553053
 21
1.416712094859385E-7
 31
0.0
210
0.0
220
0.0
230
1.0
 40
0.5224985577
 41
-1.058962549105466
 42
-1.035432593899309
  0
ELLIPSE
  5
18B
330
BE
100
AcDbEntity
  8
$DDT_AUDIT_GENERATED_(9A)
  6
Continuous
 62
     7
100
AcDbEllipse
 10
122.2136489981
 20
306.0570320424
 30
0.0
 11
8.500000000017751
 21
-9.360567876370851E-12
 31
0.0
210
0.0
220
0.0
230
1.0
 40
0.5224985647
 41
-1.035432573907013
 42
-0.7971631406844004
  0
LINE
  5
18C
330
BE
100
AcDbEntity
  8
$DDT_AUDIT_GENERATED_(9A)
  6
Continuous
 62
     7
100
AcDbLine
 10
126.5499574107
 20
302.2371983954
 30
0.0
 11
126.5499574107
 21
303.5347421284
 31
0.0
  0
LINE
  5
18D
330
BE
100
AcDbEntity
  8
$DDT_AUDIT_GENERATED_(9A)
  6
Continuous
 62
     7
100
AcDbLine
 10
125.3932092607
 20
303.0750491753
 30
0.0
 11
126.3767523299
 21
302.184948539
 31
0.0
  0
LINE
  5
18E
330
BE
100
AcDbEntity
  8
$DDT_AUDIT_GENERATED_(9A)
  6
Continuous
 62
     7
100
AcDbLine
 10
125.5638021535
 20
303.1296630464
 30
0.0
 11
126.5499574107
 21
302.2371983954
 31
0.0
  0
ELLIPSE
  5
18F
330
BE
100
AcDbEntity
  8
$DDT_AUDIT_GENERATED_(9A)
  6
Continuous
 62
     7
100
AcDbEllipse
 10
122.2136491135
 20
306.0570318175
 30
0.0
 11
8.499999762231761
 21
8.012082663988451E-8
 31
0.0
210
0.0
220
0.0
230
1.0
 40
0.5224985529
 41
-1.320761928079194
 42
-1.297231972886162
  0
ELLIPSE
  5
190
330
BE
100
AcDbEntity
  8
$DDT_AUDIT_GENERATED_(9A)
  6
Continuous
 62
     7
100
AcDbEllipse
 10
122.2136489981
 20
306.0570320424
 30
0.0
 11
8.499999999993213
 21
3.025357742103552E-12
 31
0.0
210
0.0
220
0.0
230
1.0
 40
0.5224985647
 41
4.985953345471425
 42
5.224222778694562
  0
LINE
  5
191
330
BE
100
AcDbEntity
  8
$DDT_AUDIT_GENERATED_(9A)
  6
Continuous
 62
     7
100
AcDbLine
 10
124.5100512123
 20
301.7809458982
 30
0.0
 11
124.5100512123
 21
302.8493066883
 31
0.0
  0
LINE
  5
192
330
BE
100
AcDbEntity
  8
$DDT_AUDIT_GENERATED_(9A)
  6
Continuous
 62
     7
100
AcDbLine
 10
123.8162630385
 20
302.7300708389
 30
0.0
 11
124.3168660471
 21
301.7538993822
 31
0.0
  0
LINE
  5
193
330
BE
100
AcDbEntity
  8
$DDT_AUDIT_GENERATED_(9A)
  6
Continuous
 62
     7
100
AcDbLine
 10
124.0087484449
 20
302.7584818784
 30
0.0
 11
124.5100512123
 21
301.7809458982
 31
0.0
  0
ARC
  5
194
330
BE
100
AcDbEntity
  8
$DDT_AUDIT_GENERATED_(9A)
  6
Continuous
 62
     7
100
AcDbCircle
 10
122.2136489981
 20
313.3577297424
 30
0.0
 40
10.04381547279807
100
AcDbArc
 50
269.0016474478
 51
270.9983525522
  0
LINE
  5
195
330
BE
100
AcDbEntity
  8
$DDT_AUDIT_GENERATED_(9A)
  6
Continuous
 62
     7
100
AcDbLine
 10
122.0386489981
 20
304.452545275
 30
0.0
 11
122.0386489981
 21
303.3154389553
 31
0.0
  0
LINE
  5
196
330
BE
100
AcDbEntity
  8
$DDT_AUDIT_GENERATED_(9A)
  6
Continuous
 62
     7
100
AcDbLine
 10
122.3886489981
 20
304.452545275
 30
0.0
 11
122.3886489981
 21
303.3154389553
 31
0.0
  0
ELLIPSE
  5
197
330
BE
100
AcDbEntity
  8
$DDT_AUDIT_GENERATED_(9A)
  6
Continuous
 62
     7
100
AcDbEllipse
 10
122.213648998
 20
306.0570320423
 30
0.0
 11
-5.249999999916528
 21
4.079375726107060E-11
 31
0.0
210
0.0
220
0.0
230
1.0
 40
0.5224985647
 41
1.01385804194403
 42
1.080537060467489
  0
LINE
  5
198
330
BE
100
AcDbEntity
  8
$DDT_AUDIT_GENERATED_(9A)
  6
Continuous
 62
     7
100
AcDbLine
 10
120.5562088614
 20
304.7399330599
 30
0.0
 11
119.4385532911
 21
303.7284614066
 31
0.0
  0
LINE
  5
199
330
BE
100
AcDbEntity
  8
$DDT_AUDIT_GENERATED_(9A)
  6
Continuous
 62
     7
100
AcDbLine
 10
120.8488936322
 20
304.6390620439
 30
0.0
 11
119.7416621824
 21
303.6370241577
 31
0.0
  0
LINE
  5
19A
330
BE
100
AcDbEntity
  8
$DDT_AUDIT_GENERATED_(9A)
  6
Continuous
 62
     7
100
AcDbLine
 10
119.4385532911
 20
305.1143010241
 30
0.0
 11
119.4385532911
 21
303.7284614066
 31
0.0
  0
ELLIPSE
  5
19B
330
BE
100
AcDbEntity
  8
$DDT_AUDIT_GENERATED_(9A)
  6
Continuous
 62
     7
100
AcDbEllipse
 10
122.2136489961
 20
306.0570320418
 30
0.0
 11
-5.249999997994265
 21
7.123537870690200E-10
 31
0.0
210
0.0
220
0.0
230
1.0
 40
0.5224985648
 41
0.4902592664952468
 42
0.556938285032401
  0
LINE
  5
19C
330
BE
100
AcDbEntity
  8
$DDT_AUDIT_GENERATED_(9A)
  6
Continuous
 62
     7
100
AcDbLine
 10
119.6364662626
 20
305.3851696596
 30
0.0
 11
117.5820422377
 21
304.7654224792
 31
0.0
  0
LINE
  5
19D
330
BE
100
AcDbEntity
  8
$DDT_AUDIT_GENERATED_(9A)
  6
Continuous
 62
     7
100
AcDbLine
 10
119.7800818852
 20
305.2173281406
 30
0.0
 11
117.7570422377
 21
304.6070485185
 31
0.0
  0
LINE
  5
19E
330
BE
100
AcDbEntity
  8
$DDT_AUDIT_GENERATED_(9A)
  6
Continuous
 62
     7
100
AcDbLine
 10
117.5820422377
 20
305.9655947936
 30
0.0
 11
117.5820422377
 21
304.7654224792
 31
0.0
  0
LINE
  5
19F
330
BE
100
AcDbEntity
  8
$DDT_AUDIT_GENERATED_(9A)
  6
Continuous
 62
     7
100
AcDbLine
 10
119.4692228286
 20
306.7793458633
 30
0.0
 11
119.4692228286
 21
306.1484692912
 31
0.0
  0
ELLIPSE
  5
1A0
330
BE
100
AcDbEntity
  8
$DDT_AUDIT_GENERATED_(9A)
  6
Continuous
 62
     7
100
AcDbEllipse
 10
122.2136489981
 20
306.0570320424
 30
0.0
 11
2.750000000002041
 21
1.172673069760322E-12
 31
0.0
210
0.0
220
0.0
230
1.0
 40
0.5224985647
 41
3.077913261332632
 42
3.141592653589768
  0
LINE
  5
1A1
330
BE
100
AcDbEntity
  8
$DDT_AUDIT_GENERATED_(9A)
  6
Continuous
 62
     7
100
AcDbLine
 10
119.4692228286
 20
306.1484692912
 30
0.0
 11
116.9876440436
 21
306.1484692912
 31
0.0
  0
LINE
  5
1A2
330
BE
100
AcDbEntity
  8
$DDT_AUDIT_GENERATED_(9A)
  6
Continuous
 62
     7
100
AcDbLine
 10
119.4636489981
 20
305.9655947936
 30
0.0
 11
116.9665664754
 21
305.9655947936
 31
0.0
  0
LINE
  5
1A3
330
BE
100
AcDbEntity
  8
$DDT_AUDIT_GENERATED_(9A)
  6
Continuous
 62
     7
100
AcDbLine
 10
119.9244062165
 20
307.9459086662
 30
0.0
 11
119.9244062165
 21
306.85319839
 31
0.0
  0
ELLIPSE
  5
1A4
330
BE
100
AcDbEntity
  8
$DDT_AUDIT_GENERATED_(9A)
  6
Continuous
 62
     7
100
AcDbEllipse
 10
122.2136489982
 20
306.0570320424
 30
0.0
 11
-2.750000000069111
 21
2.376571162088226E-11
 31
0.0
210
0.0
220
0.0
230
1.0
 40
0.5224985647
 41
-0.5872781678436692
 42
-0.4599193833314654
  0
LINE
  5
1A5
330
BE
100
AcDbEntity
  8
$DDT_AUDIT_GENERATED_(9A)
  6
Continuous
 62
     7
100
AcDbLine
 10
119.9244062165
 20
306.85319839
 30
0.0
 11
117.9131453039
 21
307.4599247836
 31
0.0
  0
LINE
  5
1A6
330
BE
100
AcDbEntity
  8
$DDT_AUDIT_GENERATED_(9A)
  6
Continuous
 62
     7
100
AcDbLine
 10
119.7494062165
 20
306.6948244293
 30
0.0
 11
117.7217939468
 21
307.30648345
 31
0.0
  0
LINE
  5
1A7
330
BE
100
AcDbEntity
  8
$DDT_AUDIT_GENERATED_(9A)
  6
Continuous
 62
     7
100
AcDbLine
 10
120.992990359
 20
308.5544459685
 30
0.0
 11
120.992990359
 21
307.3445953589
 31
0.0
  0
ELLIPSE
  5
1A8
330
BE
100
AcDbEntity
  8
$DDT_AUDIT_GENERATED_(9A)
  6
Continuous
 62
     7
100
AcDbEllipse
 10
122.213648998
 20
306.0570320424
 30
0.0
 11
-2.749999999930847
 21
-3.393119119010635E-11
 31
0.0
210
0.0
220
0.0
230
1.0
 40
0.5224985647
 41
-1.110876943470034
 42
-0.9835181589534274
  0
LINE
  5
1A9
330
BE
100
AcDbEntity
  8
$DDT_AUDIT_GENERATED_(9A)
  6
Continuous
 62
     7
100
AcDbLine
 10
120.992990359
 20
307.3445953589
 30
0.0
 11
119.8869777596
 21
308.3455301928
 31
0.0
  0
LINE
  5
1AA
330
BE
100
AcDbEntity
  8
$DDT_AUDIT_GENERATED_(9A)
  6
Continuous
 62
     7
100
AcDbLine
 10
120.6898814677
 20
307.2531581101
 30
0.0
 11
119.5784237012
 21
308.2590207877
 31
0.0
  0
ARC
  5
1AB
330
BE
100
AcDbEntity
  8
$DDT_AUDIT_GENERATED_(9A)
  6
Continuous
 62
     7
100
AcDbCircle
 10
122.2136489981
 20
302.2384860719
 30
0.0
 40
5.255419172255412
100
AcDbArc
 50
88.0917572906
 51
91.9082427094
  0
LINE
  5
1AC
330
BE
100
AcDbEntity
  8
$DDT_AUDIT_GENERATED_(9A)
  6
Continuous
 62
     7
100
AcDbLine
 10
122.3886489981
 20
307.4909907769
 30
0.0
 11
122.3886489981
 21
308.6280970966
 31
0.0
  0
LINE
  5
1AD
330
BE
100
AcDbEntity
  8
$DDT_AUDIT_GENERATED_(9A)
  6
Continuous
 62
     7
100
AcDbLine
 10
122.0386489981
 20
307.4909907769
 30
0.0
 11
122.0386489981
 21
308.6280970966
 31
0.0
  0
ELLIPSE
  5
1AE
330
BE
100
AcDbEntity
  8
$DDT_AUDIT_GENERATED_(9A)
  6
Continuous
 62
     7
100
AcDbEllipse
 10
122.2136489981
 20
306.0570320424
 30
0.0
 11
2.750000000050001
 21
2.453592884421596E-11
 31
0.0
210
0.0
220
0.0
230
1.0
 40
0.5224985647
 41
0.9835181589294253
 42
1.110876943441618
  0
LINE
  5
1AF
330
BE
100
AcDbEntity
  8
$DDT_AUDIT_GENERATED_(9A)
  6
Continuous
 62
     7
100
AcDbLine
 10
123.4343076372
 20
308.5544459685
 30
0.0
 11
123.4343076372
 21
307.3445953589
 31
0.0
  0
LINE
  5
1B0
330
BE
100
AcDbEntity
  8
$DDT_AUDIT_GENERATED_(9A)
  6
Continuous
 62
     7
100
AcDbLine
 10
123.7374165285
 20
307.2531581101
 30
0.0
 11
124.848874295
 21
308.2590207877
 31
0.0
  0
LINE
  5
1B1
330
BE
100
AcDbEntity
  8
$DDT_AUDIT_GENERATED_(9A)
  6
Continuous
 62
     7
100
AcDbLine
 10
123.4343076372
 20
307.3445953589
 30
0.0
 11
124.5403202367
 21
308.3455301928
 31
0.0
  0
ELLIPSE
  5
1B2
330
BE
100
AcDbEntity
  8
$DDT_AUDIT_GENERATED_(9A)
  6
Continuous
 62
     7
100
AcDbEllipse
 10
122.2136489981
 20
306.0570320424
 30
0.0
 11
2.74999999999498
 21
-2.657596365196468E-12
 31
0.0
210
0.0
220
0.0
230
1.0
 40
0.5224985647
 41
0.4599193833421728
 42
0.5872781678563234
  0
LINE
  5
1B3
330
BE
100
AcDbEntity
  8
$DDT_AUDIT_GENERATED_(9A)
  6
Continuous
 62
     7
100
AcDbLine
 10
124.5028917797
 20
307.9459086662
 30
0.0
 11
124.5028917797
 21
306.85319839
 31
0.0
  0
LINE
  5
1B4
330
BE
100
AcDbEntity
  8
$DDT_AUDIT_GENERATED_(9A)
  6
Continuous
 62
     7
100
AcDbLine
 10
124.6778917797
 20
306.6948244293
 30
0.0
 11
126.7055040494
 21
307.30648345
 31
0.0
  0
LINE
  5
1B5
330
BE
100
AcDbEntity
  8
$DDT_AUDIT_GENERATED_(9A)
  6
Continuous
 62
     7
100
AcDbLine
 10
124.5028917797
 20
306.85319839
 30
0.0
 11
126.5141526923
 21
307.4599247836
 31
0.0
  0
ELLIPSE
  5
1B6
330
BE
100
AcDbEntity
  8
$DDT_AUDIT_GENERATED_(9A)
  6
Continuous
 62
     7
100
AcDbEllipse
 10
122.2136489981
 20
306.0570320424
 30
0.0
 11
-2.750000000000076
 21
-1.172673069760322E-12
 31
0.0
210
0.0
220
0.0
230
1.0
 40
0.5224985647
 41
3.141592653589793
 42
3.205272045846594
  0
LINE
  5
1B7
330
BE
100
AcDbEntity
  8
$DDT_AUDIT_GENERATED_(9A)
  6
Continuous
 62
     7
100
AcDbLine
 10
124.9580751676
 20
306.7793458633
 30
0.0
 11
124.9580751676
 21
306.1484692912
 31
0.0
  0
LINE
  5
1B8
330
BE
100
AcDbEntity
  8
$DDT_AUDIT_GENERATED_(9A)
  6
Continuous
 62
     7
100
AcDbLine
 10
124.9636489981
 20
305.9655947936
 30
0.0
 11
127.4607315208
 21
305.9655947936
 31
0.0
  0
LINE
  5
1B9
330
BE
100
AcDbEntity
  8
$DDT_AUDIT_GENERATED_(9A)
  6
Continuous
 62
     7
100
AcDbLine
 10
124.9580751676
 20
306.1484692912
 30
0.0
 11
127.4396539526
 21
306.1484692912
 31
0.0
  0
ELLIPSE
  5
1BA
330
BE
100
AcDbEntity
  8
$DDT_AUDIT_GENERATED_(9A)
  6
Continuous
 62
     7
100
AcDbEllipse
 10
122.2136490012
 20
306.0570320414
 30
0.0
 11
5.249999996843949
 21
1.125266546608827E-9
 31
0.0
210
0.0
220
0.0
230
1.0
 40
0.5224985648
 41
-0.5569382851318192
 42
-0.4902592665863112
  0
LINE
  5
1BB
330
BE
100
AcDbEntity
  8
$DDT_AUDIT_GENERATED_(9A)
  6
Continuous
 62
     7
100
AcDbLine
 10
124.647216111
 20
305.2173281406
 30
0.0
 11
126.6702557585
 21
304.6070485185
 31
0.0
  0
LINE
  5
1BC
330
BE
100
AcDbEntity
  8
$DDT_AUDIT_GENERATED_(9A)
  6
Continuous
 62
     7
100
AcDbLine
 10
124.7908317336
 20
305.3851696596
 30
0.0
 11
126.8452557585
 21
304.7654224792
 31
0.0
  0
LINE
  5
1BD
330
BE
100
AcDbEntity
  8
$DDT_AUDIT_GENERATED_(9A)
  6
Continuous
 62
     7
100
AcDbLine
 10
126.8452557585
 20
305.9655947936
 30
0.0
 11
126.8452557585
 21
304.7654224792
 31
0.0
  0
ELLIPSE
  5
1BE
330
BE
100
AcDbEntity
  8
$DDT_AUDIT_GENERATED_(9A)
  6
Continuous
 62
     7
100
AcDbEllipse
 10
122.2136489992
 20
306.0570320414
 30
0.0
 11
5.249999998640565
 21
6.767503224480721E-10
 31
0.0
210
0.0
220
0.0
230
1.0
 40
0.5224985647
 41
-1.080537060621758
 42
-1.013858042085332
  0
LINE
  5
1BF
330
BE
100
AcDbEntity
  8
$DDT_AUDIT_GENERATED_(9A)
  6
Continuous
 62
     7
100
AcDbLine
 10
123.578404364
 20
304.6390620439
 30
0.0
 11
124.6856358138
 21
303.6370241577
 31
0.0
  0
LINE
  5
1C0
330
BE
100
AcDbEntity
  8
$DDT_AUDIT_GENERATED_(9A)
  6
Continuous
 62
     7
100
AcDbLine
 10
123.8710891348
 20
304.7399330599
 30
0.0
 11
124.9887447051
 21
303.7284614066
 31
0.0
  0
LINE
  5
1C1
330
BE
100
AcDbEntity
  8
$DDT_AUDIT_GENERATED_(9A)
  6
Continuous
 62
     7
100
AcDbLine
 10
124.9887447051
 20
305.1143010241
 30
0.0
 11
124.9887447051
 21
303.7284614066
 31
0.0
  0
LINE
  5
1C2
330
BE
100
AcDbEntity
  8
$DDT_AUDIT_GENERATED_(9A)
  6
Continuous
 62
     7
100
AcDbLine
 10
113.2136489981
 20
308.1886324533
 30
0.0
 11
113.2136489981
 21
305.8865040095
 31
0.0
  0
LINE
  5
1C3
330
BE
100
AcDbEntity
  8
$DDT_AUDIT_GENERATED_(9A)
  6
Continuous
 62
     7
100
AcDbLine
 10
131.2136489981
 20
305.8865040095
 30
0.0
 11
131.2136489981
 21
308.1886324533
 31
0.0
  0
LINE
  5
1C4
330
BE
100
AcDbEntity
  8
$DDT_AUDIT_GENERATED_(9A)
  6
Continuous
 62
     7
100
AcDbLine
 10
115.9636489981
 20
306.0570320424
 30
0.0
 11
115.9636489981
 21
305.8865040095
 31
0.0
  0
LINE
  5
1C5
330
BE
100
AcDbEntity
  8
$DDT_AUDIT_GENERATED_(9A)
  6
Continuous
 62
     7
100
AcDbLine
 10
128.4636489981
 20
305.8865040095
 30
0.0
 11
128.4636489981
 21
306.0570320424
 31
0.0
  0
LINE
  5
1C6
330
BE
100
AcDbEntity
  8
$DDT_AUDIT_GENERATED_(9A)
  6
Continuous
 62
     7
100
AcDbLine
 10
119.4636489981
 20
306.0570320424
 30
0.0
 11
119.4636489981
 21
305.8865040095
 31
0.0
  0
LINE
  5
1C7
330
BE
100
AcDbEntity
  8
$DDT_AUDIT_GENERATED_(9A)
  6
Continuous
 62
     7
100
AcDbLine
 10
124.9636489981
 20
305.8865040095
 30
0.0
 11
124.9636489981
 21
306.0570320424
 31
0.0
  0
LINE
  5
1C8
330
BE
100
AcDbEntity
  8
$DDT_AUDIT_GENERATED_(9A)
  6
Continuous
 62
     7
100
AcDbLine
 10
121.6940190542
 20
306.2738099389
 30
0.0
 11
121.6940190542
 21
306.0570320424
 31
0.0
  0
LINE
  5
1C9
330
BE
100
AcDbEntity
  8
$DDT_AUDIT_GENERATED_(9A)
  6
Continuous
 62
     7
100
AcDbLine
 10
122.733278942
 20
306.0570320424
 30
0.0
 11
122.733278942
 21
306.2738099389
 31
0.0
  0
LINE
  5
1CA
330
BE
100
AcDbEntity
  8
$DDT_AUDIT_GENERATED_(9E)
  6
Continuous
 62
     7
100
AcDbLine
 10
122.1777750649
 20
366.0361257283
 30
0.0
 11
122.1784874284
 21
359.6538411822
 31
0.0
  0
ARC
  5
1CB
330
BE
100
AcDbEntity
  8
$DDT_AUDIT_GENERATED_(9E)
  6
Continuous
 62
     7
100
AcDbCircle
 10
122.2180497422
 20
388.0632702024
 30
0.0
 40
21.23602631164572
100
AcDbArc
 50
236.9878424061
 51
303.0237782462
  0
ARC
  5
1CC
330
BE
100
AcDbEntity
  8
$DDT_AUDIT_GENERATED_(9E)
  6
Continuous
 62
     7
100
AcDbCircle
 10
122.1811748703
 20
751.6873533923
 30
0.0
 40
381.605971562127
100
AcDbArc
 50
268.2681466731
 51
271.7434739792
  0
SPLINE
  5
1CD
330
BE
100
AcDbEntity
  8
$DDT_AUDIT_GENERATED_(9E)
  6
Continuous
 62
     7
100
AcDbSpline
210
0.0
220
0.0
230
1.0
 70
     8
 71
     3
 72
     8
 73
     4
 74
     0
 42
0.0000000011410283
 43
0.0000000001
 40
0.0569315209953705
 40
0.0569315209953705
 40
0.0569315209953705
 40
0.0569315209953705
 40
0.0643087428092375
 40
0.0643087428092375
 40
0.0643087428092375
 40
0.0643087428092375
 10
105.9627417296721
 20
382.9949964201242
 30
0.0
 10
105.9835293479719
 20
383.0010856187257
 30
0.0
 10
106.0042986017218
 20
383.006835629111
 30
0.0
 10
106.0250466460543
 20
383.0122486732783
 30
0.0
  0
SPLINE
  5
1CE
330
BE
100
AcDbEntity
  8
$DDT_AUDIT_GENERATED_(9E)
  6
Continuous
 62
     7
100
AcDbSpline
210
0.0
220
0.0
230
1.0
 70
     8
 71
     3
 72
    14
 73
    10
 74
     0
 42
0.0000000007670086
 43
0.0000000001
 40
0.0643087428092375
 40
0.0643087428092375
 40
0.0643087428092375
 40
0.0643087428092375
 40
0.2499999999999997
 40
0.2499999999999997
 40
0.4999999999999993
 40
0.4999999999999993
 40
0.7499999999999997
 40
0.7499999999999997
 40
1.0
 40
1.0
 40
1.0
 40
1.0
 10
106.0250466460543
 20
383.0122486732783
 30
0.0
 10
106.5472934394344
 20
383.1484998260864
 30
0.0
 10
107.0561025009745
 20
383.0712580019819
 30
0.0
 10
108.1119526398235
 20
382.4722441410916
 30
0.0
 10
108.6036479734403
 20
381.8035707373728
 30
0.0
 10
109.3530718149657
 20
379.9669657335588
 30
0.0
 10
109.6177641329107
 20
378.7970501560083
 30
0.0
 10
110.1427213101296
 20
376.1226890524345
 30
0.0
 10
110.4099408211619
 20
374.618457223096
 30
0.0
 10
110.788986967545
 20
372.9975387682192
 30
0.0
  0
SPLINE
  5
1CF
330
BE
100
AcDbEntity
  8
$DDT_AUDIT_GENERATED_(9E)
  6
Continuous
 62
     7
100
AcDbSpline
210
0.0
220
0.0
230
1.0
 70
     8
 71
     3
 72
    12
 73
     8
 74
     0
 42
0.0000000007620023
 43
0.0000000001
 40
0.0
 40
0.0
 40
0.0
 40
0.0
 40
0.5000000000000001
 40
0.5000000000000001
 40
0.75
 40
0.75
 40
0.9346632142530032
 40
0.9346632142530032
 40
0.9346632142530032
 40
0.9346632142530032
 10
133.6501412874118
 20
372.9999518940882
 30
0.0
 10
134.4216022375972
 20
376.2531045647756
 30
0.0
 10
134.7316089424436
 20
379.0441735066298
 30
0.0
 10
135.8716510582057
 20
381.7932431967837
 30
0.0
 10
136.3700370998752
 20
382.4640455752
 30
0.0
 10
137.443469766695
 20
383.0622650199435
 30
0.0
 10
137.960534423992
 20
383.1394665450886
 30
0.0
 10
138.4934241190731
 20
382.9999806218463
 30
0.0
  0
SPLINE
  5
1D0
330
BE
100
AcDbEntity
  8
$DDT_AUDIT_GENERATED_(9E)
  6
Continuous
 62
     7
100
AcDbSpline
210
0.0
220
0.0
230
1.0
 70
     8
 71
     3
 72
     8
 73
     4
 74
     0
 42
0.0000000011115786
 43
0.0000000001
 40
0.9346632142530032
 40
0.9346632142530032
 40
0.9346632142530032
 40
0.9346632142530032
 40
0.9421055338788786
 40
0.9421055338788786
 40
0.9421055338788786
 40
0.9421055338788786
 10
138.4934241190731
 20
382.9999806218463
 30
0.0
 10
138.5149007052582
 20
382.9943590429722
 30
0.0
 10
138.5364029954372
 20
382.9883855070959
 30
0.0
 10
138.5579280307471
 20
382.9820574127778
 30
0.0
  0
ARC
  5
1D1
330
BE
100
AcDbEntity
  8
$DDT_AUDIT_GENERATED_(9E)
  6
Continuous
 62
     7
100
AcDbCircle
 10
122.1652607818
 20
887.4506359138
 30
0.0
 40
514.5788654507683
100
AcDbArc
 50
268.7332056789
 51
271.2788901169
  0
ARC
  5
1D2
330
BE
100
AcDbEntity
  8
$DDT_AUDIT_GENERATED_(9E)
  6
Continuous
 62
     7
100
AcDbCircle
 10
122.2830797126
 20
399.5470209356
 30
0.0
 40
25.98693938451828
100
AcDbArc
 50
227.9008220485
 51
236.7952161724
  0
ARC
  5
1D3
330
BE
100
AcDbEntity
  8
$DDT_AUDIT_GENERATED_(9E)
  6
Continuous
 62
     7
100
AcDbCircle
 10
122.2830797126
 20
399.5470209356
 30
0.0
 40
25.98693938451828
100
AcDbArc
 50
302.8835463518
 51
312.0264326907
  0
SPLINE
  5
1D4
330
BE
100
AcDbEntity
  8
$DDT_AUDIT_GENERATED_(9E)
  6
Continuous
 62
     7
100
AcDbSpline
210
0.0
220
0.0
230
1.0
 70
     8
 71
     3
 72
     8
 73
     4
 74
     0
 42
0.0000000011280928
 43
0.0000000001
 40
0.7288537068217893
 40
0.7288537068217893
 40
0.7288537068217893
 40
0.7288537068217893
 40
0.7463381876162644
 40
0.7463381876162644
 40
0.7463381876162644
 40
0.7463381876162644
 10
107.1255188205222
 20
380.0453442027345
 30
0.0
 10
107.0830989536565
 20
380.0753956472576
 30
0.0
 10
107.0400559567985
 20
380.1039498841648
 30
0.0
 10
106.9963920571417
 20
380.1309784193664
 30
0.0
  0
SPLINE
  5
1D5
330
BE
100
AcDbEntity
  8
$DDT_AUDIT_GENERATED_(9E)
  6
Continuous
 62
     7
100
AcDbSpline
210
0.0
220
0.0
230
1.0
 70
     8
 71
     3
 72
    10
 73
     6
 74
     0
 42
0.0000000010948052
 43
0.0000000001
 40
0.7463381876162644
 40
0.7463381876162644
 40
0.7463381876162644
 40
0.7463381876162644
 40
0.75
 40
0.75
 40
1.0
 40
1.0
 40
1.0
 40
1.0
 10
106.9963920571417
 20
380.1309784193664
 30
0.0
 10
106.9872474328109
 20
380.1366390635731
 30
0.0
 10
106.9780755745502
 20
380.1422327877185
 30
0.0
 10
106.3408356061656
 20
380.5250685526703
 30
0.0
 10
105.5971062929087
 20
380.5916332503016
 30
0.0
 10
104.8608447211959
 20
380.2652485461682
 30
0.0
  0
SPLINE
  5
1D6
330
BE
100
AcDbEntity
  8
$DDT_AUDIT_GENERATED_(9E)
  6
Continuous
 62
     7
100
AcDbSpline
210
0.0
220
0.0
230
1.0
 70
     8
 71
     3
 72
    10
 73
     6
 74
     0
 42
0.0000000010811859
 43
0.0000000001
 40
0.0
 40
0.0
 40
0.0
 40
0.0
 40
0.2499999999999999
 40
0.2499999999999999
 40
0.2755050742825645
 40
0.2755050742825645
 40
0.2755050742825645
 40
0.2755050742825645
 10
139.6809486389763
 20
380.2432602813219
 30
0.0
 10
138.9311325598377
 20
380.5800153331141
 30
0.0
 10
138.1748370075392
 20
380.5192912247864
 30
0.0
 10
137.4709753520769
 20
380.1090389140988
 30
0.0
 10
137.4071245941651
 20
380.0677520610296
 30
0.0
 10
137.3445954800356
 20
380.023250733809
 30
0.0
  0
SPLINE
  5
1D7
330
BE
100
AcDbEntity
  8
$DDT_AUDIT_GENERATED_(9E)
  6
Continuous
 62
     7
100
AcDbSpline
210
0.0
220
0.0
230
1.0
 70
     8
 71
     3
 72
    23
 73
    19
 74
     0
 42
0.0000000003810292
 43
0.0000000001
 40
0.0
 40
0.0
 40
0.0
 40
0.0
 40
0.0114635578336256
 40
0.0445110696320932
 40
0.0774464826680898
 40
0.1106812759243093
 40
0.1435182183553988
 40
0.2093535128933931
 40
0.2752457146934893
 40
0.3411777393755041
 40
0.4071967629826935
 40
0.4732377901564948
 40
0.6052111286631972
 40
0.736783150438974
 40
0.8036553865838874
 40
0.8685700738678035
 40
0.9348426095742058
 40
1.0
 40
1.0
 40
1.0
 40
1.0
 10
143.9813762028694
 20
378.9510767803239
 30
0.0
 10
143.9383097485803
 20
378.8876246903899
 30
0.0
 10
143.7618280559468
 20
378.6427141406912
 30
0.0
 10
143.4366851023237
 20
378.2161749055311
 30
0.0
 10
142.9910508748466
 20
377.6731227089272
 30
0.0
 10
142.5149694278525
 20
377.1393725691108
 30
0.0
 10
141.8447177513281
 20
376.4276891786351
 30
0.0
 10
140.9525327597931
 20
375.5147255341889
 30
0.0
 10
139.8071706025017
 20
374.3757139010477
 30
0.0
 10
138.5834137612549
 20
373.2291069149634
 30
0.0
 10
137.2794918046866
 20
372.0992358604752
 30
0.0
 10
135.4361682410766
 20
370.6372389100064
 30
0.0
 10
132.9284595264583
 20
368.9511524710234
 30
0.0
 10
130.1332833454851
 20
367.5897553703618
 30
0.0
 10
127.7645806936405
 20
366.7972948732564
 30
0.0
 10
125.9269450556189
 20
366.3611981622909
 30
0.0
 10
124.064508604737
 20
366.0841733991135
 30
0.0
 10
122.8031187342662
 20
366.0520507681358
 30
0.0
 10
122.1777785662057
 20
366.0359740665368
 30
0.0
  0
SPLINE
  5
1D8
330
BE
100
AcDbEntity
  8
$DDT_AUDIT_GENERATED_(9E)
  6
Continuous
 62
     7
100
AcDbSpline
210
0.0
220
0.0
230
1.0
 70
     8
 71
     3
 72
    19
 73
    15
 74
     0
 42
0.0000000003829799
 43
0.0000000001
 40
0.0
 40
0.0
 40
0.0
 40
0.0
 40
0.0259625408979158
 40
0.0958195282616233
 40
0.1656765156248732
 40
0.2355335029883503
 40
0.3053904903517137
 40
0.3752474777150773
 40
0.4451044650784407
 40
0.5149614524418041
 40
0.5848184398055116
 40
0.7245324145322387
 40
0.8642463892589656
 40
1.0
 40
1.0
 40
1.0
 40
1.0
 10
100.5526709581769
 20
378.9872253348152
 30
0.0
 10
100.6449904453614
 20
378.8577781751426
 30
0.0
 10
100.9957668168981
 20
378.3791590395314
 30
0.0
 10
101.6644340124576
 20
377.5479618031011
 30
0.0
 10
102.6255540664046
 20
376.5146103386039
 30
0.0
 10
103.8103432507266
 20
375.2955320094151
 30
0.0
 10
105.0427167895986
 20
374.0781335617924
 30
0.0
 10
106.3966952034496
 20
372.8331979509584
 30
0.0
 10
107.8371275165886
 20
371.6246691089767
 30
0.0
 10
109.3745174804216
 20
370.4631282762418
 30
0.0
 10
111.5527021577946
 20
369.0277825438963
 30
0.0
 10
114.4810859182486
 20
367.5002263950371
 30
0.0
 10
118.291154083995
 20
366.3193943982709
 30
0.0
 10
120.8834316791156
 20
366.0398601450241
 30
0.0
 10
122.1777785662057
 20
366.0359740665368
 30
0.0
  0
ARC
  5
1D9
330
BE
100
AcDbEntity
  8
$DDT_AUDIT_GENERATED_(9E)
  6
Continuous
 62
     7
100
AcDbCircle
 10
108.7781163579
 20
359.1598891923
 30
0.0
 40
21.46581492822636
100
AcDbArc
 50
100.5147613001
 51
112.5313028911
  0
ARC
  5
1DA
330
BE
100
AcDbEntity
  8
$DDT_AUDIT_GENERATED_(9E)
  6
Continuous
 62
     7
100
AcDbCircle
 10
135.6724735827
 20
359.1008572742
 30
0.0
 40
21.51903987620592
100
AcDbArc
 50
67.2867950239
 51
79.2644801484
  0
ARC
  5
1DB
330
BE
100
AcDbEntity
  8
$DDT_AUDIT_GENERATED_(9E)
  6
Continuous
 62
     7
100
AcDbCircle
 10
-63.5829721971
 20
349.1437642073
 30
0.0
 40
213.0466182065523
100
AcDbArc
 50
0.0999740322
 51
6.8288538255
  0
ARC
  5
1DC
330
BE
100
AcDbEntity
  8
$DDT_AUDIT_GENERATED_(9E)
  6
Continuous
 62
     7
100
AcDbCircle
 10
140.7680013173
 20
372.1005607035
 30
0.0
 40
7.566726417309789
100
AcDbArc
 50
18.2952518846
 51
64.8701125055
  0
ARC
  5
1DD
330
BE
100
AcDbEntity
  8
$DDT_AUDIT_GENERATED_(9E)
  6
Continuous
 62
     7
100
AcDbCircle
 10
307.9678360307
 20
349.2516767611
 30
0.0
 40
213.0041646552507
100
AcDbArc
 50
173.2195040422
 51
179.7847995203
  0
ARC
  5
1DE
330
BE
100
AcDbEntity
  8
$DDT_AUDIT_GENERATED_(9E)
  6
Continuous
 62
     7
100
AcDbCircle
 10
307.9678360307
 20
349.2516767611
 30
0.0
 40
213.0041646552507
100
AcDbArc
 50
179.7847995203
 51
179.8868265691
  0
SPLINE
  5
1DF
330
BE
100
AcDbEntity
  8
$DDT_AUDIT_GENERATED_(9E)
  6
Continuous
 62
     7
100
AcDbSpline
210
0.0
220
0.0
230
1.0
 70
     8
 71
     3
 72
    12
 73
     8
 74
     0
 42
0.0000000015727614
 43
0.0000000001
 40
0.0
 40
0.0
 40
0.0
 40
0.0
 40
0.4999999999999998
 40
0.4999999999999998
 40
0.7499999999999999
 40
0.7499999999999999
 40
1.0
 40
1.0
 40
1.0
 40
1.0
 10
100.5526709581769
 20
378.9872253348152
 30
0.0
 10
99.33480323215207
 20
378.2976652676828
 30
0.0
 10
98.42033402338376
 20
377.5836395297792
 30
0.0
 10
97.41419996865002
 20
376.4427765943462
 30
0.0
 10
97.13892745299879
 20
376.050384468791
 30
0.0
 10
96.70511902684257
 20
375.2406048682125
 30
0.0
 10
96.54732442369804
 20
374.8200677789877
 30
0.0
 10
96.45347438246662
 20
374.4002150288589
 30
0.0
  0
SPLINE
  5
1E0
330
BE
100
AcDbEntity
  8
$DDT_AUDIT_GENERATED_(9E)
  6
Continuous
 62
     7
100
AcDbSpline
210
0.0
220
0.0
230
1.0
 70
     8
 71
     3
 72
     8
 73
     4
 74
     0
 42
0.0000000005738654
 43
0.0000000001
 40
0.969101240313685
 40
0.969101240313685
 40
0.969101240313685
 40
0.969101240313685
 40
1.0
 40
1.0
 40
1.0
 40
1.0
 10
148.0419770661052
 20
373.9455922323892
 30
0.0
 10
148.0224474805149
 20
374.1241964317658
 30
0.0
 10
147.9926139587368
 20
374.3009854835858
 30
0.0
 10
147.9522410266114
 20
374.4758603632985
 30
0.0
  0
SPLINE
  5
1E1
330
BE
100
AcDbEntity
  8
$DDT_AUDIT_GENERATED_(9E)
  6
Continuous
 62
     7
100
AcDbSpline
210
0.0
220
0.0
230
1.0
 70
     8
 71
     3
 72
     8
 73
     4
 74
     0
 42
0.0000000005733815
 43
0.0000000001
 40
0.0
 40
0.0
 40
0.0
 40
0.0
 40
0.0280379204395929
 40
0.0280379204395929
 40
0.0280379204395929
 40
0.0280379204395929
 10
96.45347438246662
 20
374.4002150288589
 30
0.0
 10
96.4180953082466
 20
374.2419189060583
 30
0.0
 10
96.3911840032907
 20
374.0810196450904
 30
0.0
 10
96.37272702654592
 20
373.918407177838
 30
0.0
  0
ARC
  5
1E2
330
BE
100
AcDbEntity
  8
$DDT_AUDIT_GENERATED_(9E)
  6
Continuous
 62
     7
100
AcDbCircle
 10
146.5910662443
 20
374.3411567207
 30
0.0
 40
1.367823767653228
100
AcDbArc
 50
5.651663901
 51
10.7765256096
  0
ARC
  5
1E3
330
BE
100
AcDbEntity
  8
$DDT_AUDIT_GENERATED_(9E)
  6
Continuous
 62
     7
100
AcDbCircle
 10
146.5910662443
 20
374.3411567207
 30
0.0
 40
1.367823767653228
100
AcDbArc
 50
10.7765256096
 51
14.2726577773
  0
ARC
  5
1E4
330
BE
100
AcDbEntity
  8
$DDT_AUDIT_GENERATED_(9E)
  6
Continuous
 62
     7
100
AcDbCircle
 10
97.8155193398
 20
374.263837624
 30
0.0
 40
1.368855457037594
100
AcDbArc
 50
166.0961798302
 51
168.6695045694
  0
ARC
  5
1E5
330
BE
100
AcDbEntity
  8
$DDT_AUDIT_GENERATED_(9E)
  6
Continuous
 62
     7
100
AcDbCircle
 10
97.8155193398
 20
374.263837624
 30
0.0
 40
1.368855457037594
100
AcDbArc
 50
168.6695045694
 51
174.2822053754
  0
SPLINE
  5
1E6
330
BE
100
AcDbEntity
  8
$DDT_AUDIT_GENERATED_(9E)
  6
Continuous
 62
     7
100
AcDbSpline
210
0.0
220
0.0
230
1.0
 70
     8
 71
     3
 72
    10
 73
     6
 74
     0
 42
0.0000000052966127
 43
0.0000000001
 40
0.0
 40
0.0
 40
0.0
 40
0.0
 40
0.5
 40
0.5
 40
0.7969229262709567
 40
0.7969229262709567
 40
0.7969229262709567
 40
0.7969229262709567
 10
143.9813762028694
 20
378.9510767803239
 30
0.0
 10
144.0387510740074
 20
379.2818800463496
 30
0.0
 10
143.9871808191549
 20
379.6153655537736
 30
0.0
 10
143.7496854168097
 20
380.0325583504528
 30
0.0
 10
143.6272278285105
 20
380.1620139081163
 30
0.0
 10
143.4822650866849
 20
380.2566958574657
 30
0.0
  0
SPLINE
  5
1E7
330
BE
100
AcDbEntity
  8
$DDT_AUDIT_GENERATED_(9E)
  6
Continuous
 62
     7
100
AcDbSpline
210
0.0
220
0.0
230
1.0
 70
     8
 71
     3
 72
    10
 73
     6
 74
     0
 42
0.0000000052842172
 43
0.0000000001
 40
0.199527290183951
 40
0.199527290183951
 40
0.199527290183951
 40
0.199527290183951
 40
0.5
 40
0.5
 40
1.0
 40
1.0
 40
1.0
 40
1.0
 10
101.0517256270946
 20
380.3015950117602
 30
0.0
 10
100.9046871015193
 20
380.2064342121428
 30
0.0
 10
100.780684271341
 20
380.0752619513318
 30
0.0
 10
100.5435739683728
 20
379.6543993222804
 30
0.0
 10
100.4935020361325
 20
379.3192763993977
 30
0.0
 10
100.5526709581769
 20
378.9872253348152
 30
0.0
  0
ARC
  5
1E8
330
BE
100
AcDbEntity
  8
$DDT_AUDIT_GENERATED_(9E)
  6
Continuous
 62
     7
100
AcDbCircle
 10
138.6590668485
 20
381.331587435
 30
0.0
 40
1.49288257651968
100
AcDbArc
 50
313.1964907064
 51
60.5920096694
  0
ARC
  5
1E9
330
BE
100
AcDbEntity
  8
$DDT_AUDIT_GENERATED_(9E)
  6
Continuous
 62
     7
100
AcDbCircle
 10
105.8822405355
 20
381.3545068685
 30
0.0
 40
1.493229085608077
100
AcDbArc
 50
119.185168924
 51
226.84156002
  0
ELLIPSE
  5
1EA
330
BE
100
AcDbEntity
  8
$DDT_AUDIT_GENERATED_(9E)
  6
Continuous
 62
     7
100
AcDbEllipse
 10
133.4029721785
 20
371.5919583162
 30
0.0
 11
-1.461077094686462
 21
0.3394903877617234
 31
0.0
210
0.0
220
0.0
230
0.9999999999999999
 40
0.9528856692
 41
3.142023877140677
 42
4.764353324684487
  0
ELLIPSE
  5
1EB
330
BE
100
AcDbEntity
  8
$DDT_AUDIT_GENERATED_(9E)
  6
Continuous
 62
     7
100
AcDbEllipse
 10
133.4029721785
 20
371.5919583162
 30
0.0
 11
-0.7992807891924851
 21
1.269310923307454
 31
0.0
210
0.0
220
0.0
230
0.9999999999999999
 40
0.5598520093
 41
2.669239523728096
 42
3.140878330316573
  0
ELLIPSE
  5
1EC
330
BE
100
AcDbEntity
  8
$DDT_AUDIT_GENERATED_(9E)
  6
Continuous
 62
     7
100
AcDbEllipse
 10
111.0366711023
 20
371.58964619
 30
0.0
 11
0.798820841893271
 21
1.269600434214188
 31
0.0
210
0.0
220
0.0
230
1.0
 40
0.5594653805
 41
3.142769959116134
 42
3.613752678493303
  0
ELLIPSE
  5
1ED
330
BE
100
AcDbEntity
  8
$DDT_AUDIT_GENERATED_(9E)
  6
Continuous
 62
     7
100
AcDbEllipse
 10
111.0366711023
 20
371.58964619
 30
0.0
 11
1.462111391815702
 21
0.3350078774040088
 31
0.0
210
0.0
220
0.0
230
1.0
 40
0.9528946775
 41
1.5221045066383
 42
3.14505670406905
  0
ELLIPSE
  5
1EE
330
BE
100
AcDbEntity
  8
$DDT_AUDIT_GENERATED_(9E)
  6
Continuous
 62
     7
100
AcDbEllipse
 10
133.4029721785
 20
371.5919583162
 30
0.0
 11
0.03927033801337347
 21
-1.499485858737049
 31
0.0
210
0.0
220
0.0
230
1.0
 40
0.5299429063
 41
0.4606749171200851
 42
2.776320793993788
  0
ELLIPSE
  5
1EF
330
BE
100
AcDbEntity
  8
$DDT_AUDIT_GENERATED_(9E)
  6
Continuous
 62
     7
100
AcDbEllipse
 10
111.0366711023
 20
371.58964619
 30
0.0
 11
0.03895051555144816
 21
1.499494200501703
 31
0.0
210
0.0
220
0.0
230
1.0
 40
0.5302019739
 41
0.3653722728814912
 42
2.680854199714971
  0
LINE
  5
1F0
330
BE
100
AcDbEntity
  8
$DDT_AUDIT_GENERATED_(9E)
  6
Continuous
 62
     7
100
AcDbLine
 10
122.1793753611
 20
353.1360375341
 30
0.0
 11
122.1807591598
 21
344.7495249321
 31
0.0
  0
LINE
  5
1F1
330
BE
100
AcDbEntity
  8
$DDT_AUDIT_GENERATED_(9E)
  6
Continuous
 62
     7
100
AcDbLine
 10
122.1784874284
 20
359.6538411822
 30
0.0
 11
122.1474008667
 21
359.653281118
 31
0.0
  0
SPLINE
  5
1F2
330
BE
100
AcDbEntity
  8
$DDT_AUDIT_GENERATED_(9E)
  6
Continuous
 62
     7
100
AcDbSpline
210
0.0
220
0.0
230
1.0
 70
     8
 71
     3
 72
    14
 73
    10
 74
     0
 42
0.0000000009636973
 43
0.0000000001
 40
0.0
 40
0.0
 40
0.0
 40
0.0
 40
0.25
 40
0.25
 40
0.5
 40
0.5
 40
0.75
 40
0.75
 40
1.0
 40
1.0
 40
1.0
 40
1.0
 10
122.1793753611132
 20
353.1360375341418
 30
0.0
 10
121.3086031021857
 20
353.1438309209665
 30
0.0
 10
120.47251668082
 20
353.541862667973
 30
0.0
 10
119.3115109422906
 20
354.7790936197413
 30
0.0
 10
118.9762544064582
 20
355.6142320237488
 30
0.0
 10
118.9517648361276
 20
357.2653323537124
 30
0.0
 10
119.2653408351647
 20
358.0842994580366
 30
0.0
 10
120.439389377393
 20
359.2785070703864
 30
0.0
 10
121.2771783046196
 20
359.6336939907219
 30
0.0
 10
122.1474008666752
 20
359.6532811179791
 30
0.0
  0
SPLINE
  5
1F3
330
BE
100
AcDbEntity
  8
$DDT_AUDIT_GENERATED_(9E)
  6
Continuous
 62
     7
100
AcDbSpline
210
0.0
220
0.0
230
1.0
 70
     8
 71
     3
 72
    14
 73
    10
 74
     0
 42
0.0000000009467715
 43
0.0000000001
 40
0.0
 40
0.0
 40
0.0
 40
0.0
 40
0.25
 40
0.25
 40
0.5
 40
0.5
 40
0.75
 40
0.75
 40
1.0
 40
1.0
 40
1.0
 40
1.0
 10
122.1784874283699
 20
359.653764556015
 30
0.0
 10
123.0635301199802
 20
359.6658166785548
 30
0.0
 10
123.9302796133391
 20
359.3272480374054
 30
0.0
 10
125.1448455698642
 20
358.1390460013312
 30
0.0
 10
125.473868991473
 20
357.3031249619632
 30
0.0
 10
125.4529187128264
 20
355.6259589966312
 30
0.0
 10
125.1094626808206
 20
354.775073978052
 30
0.0
 10
123.9185570240007
 20
353.5227827477845
 30
0.0
 10
123.0652594164619
 20
353.1281156457529
 30
0.0
 10
122.1793753611132
 20
353.1360375341418
 30
0.0
  0
SPLINE
  5
1F4
330
BE
100
AcDbEntity
  8
$DDT_AUDIT_GENERATED_(9E)
  6
Continuous
 62
     7
100
AcDbSpline
210
0.0
220
0.0
230
1.0
 70
     8
 71
     3
 72
    12
 73
     8
 74
     0
 42
0.0000000002523145
 43
0.0000000001
 40
0.5904546614369834
 40
0.5904546614369834
 40
0.5904546614369834
 40
0.5904546614369834
 40
0.6250000000000002
 40
0.6250000000000002
 40
0.7500000000000001
 40
0.7500000000000001
 40
1.0
 40
1.0
 40
1.0
 40
1.0
 10
138.3724114904346
 20
345.4819905725475
 30
0.0
 10
137.9831133354025
 20
345.4313780193179
 30
0.0
 10
137.5850315345558
 20
345.3824856591725
 30
0.0
 10
135.7056963018213
 20
345.1646739677813
 30
0.0
 10
134.13713280871
 20
345.0196077241665
 30
0.0
 10
129.2751272889622
 20
344.6705197554257
 30
0.0
 10
125.738901110314
 20
344.547201518431
 30
0.0
 10
122.181075674688
 20
344.5478596214154
 30
0.0
  0
SPLINE
  5
1F5
330
BE
100
AcDbEntity
  8
$DDT_AUDIT_GENERATED_(9E)
  6
Continuous
 62
     7
100
AcDbSpline
210
0.0
220
0.0
230
1.0
 70
     8
 71
     3
 72
    14
 73
    10
 74
     0
 42
0.0000000002506399
 43
0.0000000001
 40
0.0
 40
0.0
 40
0.0
 40
0.0
 40
0.125
 40
0.125
 40
0.25
 40
0.25
 40
0.375
 40
0.375
 40
0.378288518258919
 40
0.378288518258919
 40
0.378288518258919
 40
0.378288518258919
 10
122.181075674688
 20
344.5478596214154
 30
0.0
 10
120.4021185686963
 20
344.5481889190947
 30
0.0
 10
118.6530564006682
 20
344.5788019107633
 30
0.0
 10
115.2122739400753
 20
344.698115447633
 30
0.0
 10
113.5027510254384
 20
344.7882578317166
 30
0.0
 10
110.2427682593514
 20
345.0233970134367
 30
0.0
 10
108.6967447305246
 20
345.1672075591311
 30
0.0
 10
107.195431721983
 20
345.3414848650235
 30
0.0
 10
107.1570010872484
 20
345.3459715153502
 30
0.0
 10
107.11862533619
 20
345.3504772560759
 30
0.0
  0
ARC
  5
1F6
330
BE
100
AcDbEntity
  8
$DDT_AUDIT_GENERATED_(9E)
  6
Continuous
 62
     7
100
AcDbCircle
 10
142.9534179606
 20
344.6728625491
 30
0.0
 40
20.77280026313399
100
AcDbArc
 50
179.7885484429
 51
180.3570617166
  0
ARC
  5
1F7
330
BE
100
AcDbEntity
  8
$DDT_AUDIT_GENERATED_(9E)
  6
Continuous
 62
     7
100
AcDbCircle
 10
306.0673453447
 20
349.501312474
 30
0.0
 40
211.1033573738213
100
AcDbArc
 50
173.355427757
 51
179.955254452
  0
ARC
  5
1F8
330
BE
100
AcDbEntity
  8
$DDT_AUDIT_GENERATED_(9E)
  6
Continuous
 62
     7
100
AcDbCircle
 10
122.2382462024
 20
324.2832469238
 30
0.0
 40
60.92258043655174
100
AcDbArc
 50
74.5239912441
 51
105.4341771076
  0
ARC
  5
1F9
330
BE
100
AcDbEntity
  8
$DDT_AUDIT_GENERATED_(9E)
  6
Continuous
 62
     7
100
AcDbCircle
 10
-60.7271404697
 20
349.4843119059
 30
0.0
 40
210.1888042162532
100
AcDbArc
 50
3.45512516
 51
6.6918589624
  0
LINE
  5
1FA
330
BE
100
AcDbEntity
  8
$DDT_AUDIT_GENERATED_(9E)
  6
Continuous
 62
     7
100
AcDbLine
 10
94.9640734087
 20
349.6777791033
 30
0.0
 11
94.9639250988
 21
349.524893219
 31
0.0
  0
ARC
  5
1FB
330
BE
100
AcDbEntity
  8
$DDT_AUDIT_GENERATED_(9E)
  6
Continuous
 62
     7
100
AcDbCircle
 10
142.0371225852
 20
373.3719167569
 30
0.0
 40
6.02111074734974
100
AcDbArc
 50
5.5880120555
 51
11.7380922902
  0
ARC
  5
1FC
330
BE
100
AcDbEntity
  8
$DDT_AUDIT_GENERATED_(9E)
  6
Continuous
 62
     7
100
AcDbCircle
 10
101.390181652
 20
373.4684290799
 30
0.0
 40
5.032713464481944
100
AcDbArc
 50
167.7810392051
 51
174.9011360613
  0
ARC
  5
1FD
330
BE
100
AcDbEntity
  8
$DDT_AUDIT_GENERATED_(9E)
  6
Continuous
 62
     7
100
AcDbCircle
 10
139.0556159835
 20
372.1755557432
 30
0.0
 40
9.21302314010938
100
AcDbArc
 50
15.7708969646
 51
61.3386279761
  0
ARC
  5
1FE
330
BE
100
AcDbEntity
  8
$DDT_AUDIT_GENERATED_(9E)
  6
Continuous
 62
     7
100
AcDbCircle
 10
105.4555138362
 20
372.0905156199
 30
0.0
 40
9.31660968048784
100
AcDbArc
 50
118.1387824097
 51
164.4121852851
  0
ARC
  5
1FF
330
BE
100
AcDbEntity
  8
$DDT_AUDIT_GENERATED_(9E)
  6
Continuous
 62
     7
100
AcDbCircle
 10
117.8700194717
 20
340.8814840242
 30
0.0
 40
46.97222066753632
100
AcDbArc
 50
56.9587141334
 51
62.7988804
  0
ARC
  5
200
330
BE
100
AcDbEntity
  8
$DDT_AUDIT_GENERATED_(9E)
  6
Continuous
 62
     7
100
AcDbCircle
 10
127.2087066479
 20
339.5364907414
 30
0.0
 40
48.43505759788983
100
AcDbArc
 50
117.0187708228
 51
122.6849214997
  0
SPLINE
  5
201
330
BE
100
AcDbEntity
  8
$DDT_AUDIT_GENERATED_(9E)
  6
Continuous
 62
     7
100
AcDbSpline
210
0.0
220
0.0
230
1.0
 70
     8
 71
     3
 72
    25
 73
    21
 74
     0
 42
0.0000000010857703
 43
0.0000000001
 40
0.0
 40
0.0
 40
0.0
 40
0.0
 40
0.0001879568122809
 40
0.0745263625987227
 40
0.1501845165075207
 40
0.2234699604379397
 40
0.2952835581808739
 40
0.3647840388034555
 40
0.4314915819828147
 40
0.4952564314246453
 40
0.5561560839471857
 40
0.6144074766615849
 40
0.6568387093744302
 40
0.7002432894571042
 40
0.744459533288088
 40
0.8005883065734931
 40
0.8557393523393259
 40
0.9100977793105459
 40
0.9641958249376663
 40
1.0
 40
1.0
 40
1.0
 40
1.0
 10
134.8639914505183
 20
371.2524512007213
 30
0.0
 10
134.864234279343
 20
371.2534499215421
 30
0.0
 10
134.947377473097
 20
371.5954089865442
 30
0.0
 10
135.1019397998726
 20
372.3151298652818
 30
0.0
 10
135.3076493814037
 20
373.3129083402533
 30
0.0
 10
135.4904432397529
 20
374.2624466037634
 30
0.0
 10
135.6557930527521
 20
375.1357422058834
 30
0.0
 10
135.8096263298446
 20
375.933044349295
 30
0.0
 10
135.9561971982141
 20
376.6485257688155
 30
0.0
 10
136.0988054019751
 20
377.2818333745324
 30
0.0
 10
136.2400234380753
 20
377.8361659853778
 30
0.0
 10
136.369742320317
 20
378.2769629079504
 30
0.0
 10
136.4911585484451
 20
378.6352473693425
 30
0.0
 10
136.5992879484602
 20
378.9132453549797
 30
0.0
 10
136.7260160125196
 20
379.1905938018263
 30
0.0
 10
136.8670734093241
 20
379.4486475185018
 30
0.0
 10
137.0175657729248
 20
379.6733117714
 30
0.0
 10
137.1576639332977
 20
379.8427771592155
 30
0.0
 10
137.2745310528996
 20
379.9558847912901
 30
0.0
 10
137.3272156379457
 20
379.9936952578404
 30
0.0
 10
137.3518328027344
 20
380.0108535029689
 30
0.0
  0
ARC
  5
202
330
BE
100
AcDbEntity
  8
$DDT_AUDIT_GENERATED_(9E)
  6
Continuous
 62
     7
100
AcDbCircle
 10
137.8053770932
 20
380.0078644325
 30
0.0
 40
3.062714293771597
100
AcDbArc
 50
58.8341409323
 51
76.7501841645
  0
ARC
  5
203
330
BE
100
AcDbEntity
  8
$DDT_AUDIT_GENERATED_(9E)
  6
Continuous
 62
     7
100
AcDbCircle
 10
122.2184402229
 20
388.4384889993
 30
0.0
 40
21.71863298094081
100
AcDbArc
 50
236.5285040466
 51
303.4840724261
  0
ARC
  5
204
330
BE
100
AcDbEntity
  8
$DDT_AUDIT_GENERATED_(9E)
  6
Continuous
 62
     7
100
AcDbCircle
 10
106.7377854867
 20
379.9990540072
 30
0.0
 40
3.09103880167744
100
AcDbArc
 50
103.5393291446
 51
120.7820885456
  0
SPLINE
  5
205
330
BE
100
AcDbEntity
  8
$DDT_AUDIT_GENERATED_(9E)
  6
Continuous
 62
     7
100
AcDbSpline
210
0.0
220
0.0
230
1.0
 70
     8
 71
     3
 72
    25
 73
    21
 74
     0
 42
0.0000000010843503
 43
0.0000000001
 40
0.0
 40
0.0
 40
0.0
 40
0.0
 40
0.0337586842226859
 40
0.0895146263848103
 40
0.1433758527125835
 40
0.1969262827166541
 40
0.2507916528333832
 40
0.3054711015017709
 40
0.3502727088432426
 40
0.3948233506165893
 40
0.4491631979922265
 40
0.5052343533569116
 40
0.5635181443031748
 40
0.6242497539179123
 40
0.6876019150686403
 40
0.7536526655168638
 40
0.8223285477476516
 40
0.8933229201583184
 40
0.9660181873403495
 40
1.0
 40
1.0
 40
1.0
 40
1.0
 10
107.1216841566906
 20
380.0308405102076
 30
0.0
 10
107.1437358720201
 20
380.0155678257213
 30
0.0
 10
107.1936558778533
 20
379.9799327636626
 30
0.0
 10
107.306897371155
 20
379.8709767396982
 30
0.0
 10
107.4442835388844
 20
379.7045658033396
 30
0.0
 10
107.5891483916546
 20
379.4884810590928
 30
0.0
 10
107.7352133120714
 20
379.2229537954206
 30
0.0
 10
107.8697351137008
 20
378.926325895294
 30
0.0
 10
107.9880202165222
 20
378.6126649798318
 30
0.0
 10
108.1071017158112
 20
378.2483607903434
 30
0.0
 10
108.2293872437629
 20
377.8189230270095
 30
0.0
 10
108.3576673963179
 20
377.3040766132719
 30
0.0
 10
108.4864030142674
 20
376.7246196478557
 30
0.0
 10
108.618138090909
 20
376.0757031123807
 30
0.0
 10
108.7559701612251
 20
375.3539692998806
 30
0.0
 10
108.9039563527314
 20
374.5577443530502
 30
0.0
 10
109.0672973982827
 20
373.6848829280835
 30
0.0
 10
109.2509777456123
 20
372.7480945534014
 30
0.0
 10
109.4249657543925
 20
371.908821419235
 30
0.0
 10
109.5365287670076
 20
371.4297694949821
 30
0.0
 10
109.5784467504065
 20
371.2500853387913
 30
0.0
  0
ARC
  5
206
330
BE
100
AcDbEntity
  8
$DDT_AUDIT_GENERATED_(9E)
  6
Continuous
 62
     7
100
AcDbCircle
 10
133.4029721785
 20
371.5919583162
 30
0.0
 40
1.499999999999979
100
AcDbArc
 50
302.198482183
 51
346.9190815948
  0
ARC
  5
207
330
BE
100
AcDbEntity
  8
$DDT_AUDIT_GENERATED_(9E)
  6
Continuous
 62
     7
100
AcDbCircle
 10
111.0366711023
 20
371.58964619
 30
0.0
 40
1.499999999999994
100
AcDbArc
 50
192.9052001954
 51
237.8222771386
  0
SPLINE
  5
208
330
BE
100
AcDbEntity
  8
$DDT_AUDIT_GENERATED_(9E)
  6
Continuous
 62
     7
100
AcDbSpline
210
0.0
220
0.0
230
1.0
 70
     8
 71
     3
 72
    28
 73
    24
 74
     0
 42
0.0000000007927611
 43
0.0000000001
 40
0.0
 40
0.0
 40
0.0
 40
0.0
 40
0.022669423779629
 40
0.0691796341463968
 40
0.1155519119776558
 40
0.1617644847699706
 40
0.207694803984056
 40
0.2534899984513225
 40
0.2996768747191837
 40
0.3462138935894245
 40
0.3930570196965987
 40
0.4401586585069787
 40
0.4874700350528648
 40
0.5349440833765963
 40
0.5825387989072716
 40
0.6302206931913772
 40
0.677967030880952
 40
0.7257625713789679
 40
0.7735647905561288
 40
0.8212122686801665
 40
0.8604381132640264
 40
0.9018237956187168
 40
0.9417584292475434
 40
0.9417584292475434
 40
0.9417584292475434
 40
0.9417584292475434
 10
138.4356128271545
 20
345.4854288139711
 30
0.0
 10
138.6034185240802
 20
345.5069016149216
 30
0.0
 10
139.0383044420798
 20
345.5627467621549
 30
0.0
 10
139.8028108257127
 20
345.6724304180985
 30
0.0
 10
140.6657808403754
 20
345.8059292846227
 30
0.0
 10
141.4976995840032
 20
345.9467582232491
 30
0.0
 10
142.2882276512138
 20
346.0929651793849
 30
0.0
 10
143.0420814247586
 20
346.2451864049351
 30
0.0
 10
143.7611110040606
 20
346.403700969384
 30
0.0
 10
144.4462280004125
 20
346.5688419664073
 30
0.0
 10
145.095155472652
 20
346.7402631913454
 30
0.0
 10
145.7057773098704
 20
346.9176272655664
 30
0.0
 10
146.2761033486966
 20
347.1006088831455
 30
0.0
 10
146.8043349619516
 20
347.2889315634927
 30
0.0
 10
147.2888893220446
 20
347.482410187778
 30
0.0
 10
147.728469393743
 20
347.6810349926745
 30
0.0
 10
148.1219040579672
 20
347.8850217178407
 30
0.0
 10
148.4686182435436
 20
348.0951191305593
 30
0.0
 10
148.7661736886642
 20
348.3119717718479
 30
0.0
 10
149.0040311184629
 20
348.5262553692727
 30
0.0
 10
149.1838800389929
 20
348.7475467886082
 30
0.0
 10
149.3071661383193
 20
348.96178696294
 30
0.0
 10
149.3614640375676
 20
349.1054182721502
 30
0.0
 10
149.3836801349222
 20
349.1767886245437
 30
0.0
  0
SPLINE
  5
209
330
BE
100
AcDbEntity
  8
$DDT_AUDIT_GENERATED_(9E)
  6
Continuous
 62
     7
100
AcDbSpline
210
0.0
220
0.0
230
1.0
 70
     8
 71
     3
 72
    30
 73
    26
 74
     0
 42
0.0000000007357749
 43
0.0000000001
 40
0.0345158111139905
 40
0.0345158111139905
 40
0.0345158111139905
 40
0.0345158111139905
 40
0.0642151500385363
 40
0.103973196423682
 40
0.1417813903861223
 40
0.181754570006047
 40
0.2203092686844495
 40
0.2651918851581647
 40
0.3103528211333729
 40
0.3556775471541537
 40
0.4009829348545498
 40
0.446225718125506
 40
0.4913849035774754
 40
0.5364340760062052
 40
0.5813385481943573
 40
0.626057409164771
 40
0.6705466579503963
 40
0.714762246023688
 40
0.7586627007308182
 40
0.8022112658030986
 40
0.8453982682486348
 40
0.8890258542883065
 40
0.932816176742448
 40
0.9767667406455636
 40
1.0
 40
1.0
 40
1.0
 40
1.0
 10
95.00799365473166
 20
349.3085885081534
 30
0.0
 10
95.01958869858481
 20
349.2542170947777
 30
0.0
 10
95.05634707096142
 20
349.1210710013464
 30
0.0
 10
95.13966113511582
 20
348.9193926994702
 30
0.0
 10
95.275818064332
 20
348.6997385066161
 30
0.0
 10
95.46201977123478
 20
348.4887190165597
 30
0.0
 10
95.69549628046694
 20
348.2858732797977
 30
0.0
 10
95.98204618511433
 20
348.0798924858729
 30
0.0
 10
96.33086585388902
 20
347.8710141334703
 30
0.0
 10
96.7281640747242
 20
347.6670210369225
 30
0.0
 10
97.17254793590286
 20
347.4680653277823
 30
0.0
 10
97.66253066857892
 20
347.2741181120971
 30
0.0
 10
98.19687268283934
 20
347.085239062166
 30
0.0
 10
98.77423600071691
 20
346.9015801684006
 30
0.0
 10
99.39306829851719
 20
346.7234064391565
 30
0.0
 10
100.0516009009612
 20
346.5510483554559
 30
0.0
 10
100.7478614221647
 20
346.3848717870332
 30
0.0
 10
101.4797475075119
 20
346.225249389268
 30
0.0
 10
102.2449346383157
 20
346.0725504418758
 30
0.0
 10
103.0415458781029
 20
345.9270731179366
 30
0.0
 10
103.8715080382689
 20
345.7883007056
 30
0.0
 10
104.7381763606804
 20
345.6553345044005
 30
0.0
 10
105.6350527912412
 20
345.5295776288251
 30
0.0
 10
106.4400167266029
 20
345.4250742703171
 30
0.0
 10
106.9008997138018
 20
345.371626287708
 30
0.0
 10
107.0887371480992
 20
345.3499274693086
 30
0.0
  0
ENDBLK
  5
20B
330
BE
100
AcDbEntity
  8
0
100
AcDbBlockEnd
  0
BLOCK
  5
233
330
20C
100
AcDbEntity
  8
0
100
AcDbBlockBegin
  2
SE2
 70
     0
 10
0.0
 20
0.0
 30
0.0
  3
SE2
  1

  0
ARC
  5
20E
330
20C
100
AcDbEntity
  8
$DDT_AUDIT_GENERATED_(77)
  6
Continuous
 62
     7
100
AcDbCircle
 10
122.2265522289
 20
164.4330912097
 30
0.0
 40
25.17461316181424
100
AcDbArc
 50
0.0
 51
86.1299541387
  0
ARC
  5
20F
330
20C
100
AcDbEntity
  8
$DDT_AUDIT_GENERATED_(77)
  6
Continuous
 62
     7
100
AcDbCircle
 10
122.2265522289
 20
164.4330912097
 30
0.0
 40
25.17461316181424
100
AcDbArc
 50
93.9286072586
 51
180.0196242291
  0
ARC
  5
210
330
20C
100
AcDbEntity
  8
$DDT_AUDIT_GENERATED_(77)
  6
Continuous
 62
     7
100
AcDbCircle
 10
122.2265522289
 20
164.4330912097
 30
0.0
 40
25.17461316181424
100
AcDbArc
 50
359.9803388417
 51
0.0
  0
SPLINE
  5
211
330
20C
100
AcDbEntity
  8
$DDT_AUDIT_GENERATED_(77)
  6
Continuous
 62
     7
100
AcDbSpline
210
0.0
220
0.0
230
1.0
 70
     8
 71
     3
 72
    22
 73
    18
 74
     0
 42
0.0000000009188207
 43
0.0000000001
 40
0.0
 40
0.0
 40
0.0
 40
0.0
 40
0.1250000000000005
 40
0.1250000000000005
 40
0.1875000000000007
 40
0.1875000000000007
 40
0.2500000000000007
 40
0.2500000000000007
 40
0.3125000000000006
 40
0.3125000000000006
 40
0.3750000000000006
 40
0.3750000000000006
 40
0.5000000000000001
 40
0.5000000000000001
 40
0.6249999999999997
 40
0.6249999999999997
 40
0.6380288549613409
 40
0.6380288549613409
 40
0.6380288549613409
 40
0.6380288549613409
 10
119.5923232807048
 20
184.8719875207317
 30
0.0
 10
119.6736636345256
 20
184.7122998624232
 30
0.0
 10
119.9024095573907
 20
184.5752535216706
 30
0.0
 10
120.6184492477813
 20
184.4065210779355
 30
0.0
 10
120.918716788008
 20
184.3573498217899
 30
0.0
 10
121.7342371793436
 20
184.2911595826579
 30
0.0
 10
122.2604546535853
 20
184.2805218859055
 30
0.0
 10
123.1772436307097
 20
184.3206144865294
 30
0.0
 10
123.5396859346343
 20
184.3642426294353
 30
0.0
 10
124.0971463702383
 20
184.4660522486412
 30
0.0
 10
124.3036756423988
 20
184.5260535923401
 30
0.0
 10
124.7724401018247
 20
184.7214564600161
 30
0.0
 10
124.8982488138425
 20
184.8783682949644
 30
0.0
 10
124.8136170090647
 20
185.2200455238263
 30
0.0
 10
124.6122477079919
 20
185.4142476065033
 30
0.0
 10
124.0602912513252
 20
185.6170674251879
 30
0.0
 10
124.0048239669909
 20
185.6360137619597
 30
0.0
 10
123.945847450164
 20
185.6545317126235
 30
0.0
  0
SPLINE
  5
212
330
20C
100
AcDbEntity
  8
$DDT_AUDIT_GENERATED_(77)
  6
Continuous
 62
     7
100
AcDbSpline
210
0.0
220
0.0
230
1.0
 70
     8
 71
     3
 72
    10
 73
     6
 74
     0
 42
0.0000000013260085
 43
0.0000000001
 40
0.8178055464807955
 40
0.8178055464807955
 40
0.8178055464807955
 40
0.8178055464807955
 40
0.8749999999999998
 40
0.8749999999999998
 40
1.0
 40
1.0
 40
1.0
 40
1.0
 10
120.4784179510077
 20
185.6535402627797
 30
0.0
 10
120.2204950244501
 20
185.5727992860623
 30
0.0
 10
120.0333417475312
 20
185.4857811719787
 30
0.0
 10
119.5893781007458
 20
185.2117818821224
 30
0.0
 10
119.5109829268839
 20
185.0316751790401
 30
0.0
 10
119.5923232807048
 20
184.8719875207317
 30
0.0
  0
LINE
  5
213
330
20C
100
AcDbEntity
  8
$DDT_AUDIT_GENERATED_(77)
  6
Continuous
 62
     7
100
AcDbLine
 10
97.2128440918
 20
164.4242576904
 30
0.0
 11
97.2128440918
 21
159.333777736
 31
0.0
  0
LINE
  5
214
330
20C
100
AcDbEntity
  8
$DDT_AUDIT_GENERATED_(77)
  6
Continuous
 62
     7
100
AcDbLine
 10
147.2143188589
 20
159.3350362603
 30
0.0
 11
147.2143188589
 21
164.4247904952
 31
0.0
  0
ARC
  5
215
330
20C
100
AcDbEntity
  8
$DDT_AUDIT_GENERATED_(77)
  6
Continuous
 62
     7
100
AcDbCircle
 10
122.2155648339
 20
75.3715827188
 30
0.0
 40
24.81660466449857
100
AcDbArc
 50
230.896849207
 51
238.5006475502
  0
ARC
  5
216
330
20C
100
AcDbEntity
  8
$DDT_AUDIT_GENERATED_(77)
  6
Continuous
 62
     7
100
AcDbCircle
 10
122.2155648339
 20
75.3715827188
 30
0.0
 40
24.81660466449857
100
AcDbArc
 50
301.5288710659
 51
309.0935368143
  0
LINE
  5
217
330
20C
100
AcDbEntity
  8
$DDT_AUDIT_GENERATED_(77)
  6
Continuous
 62
     7
100
AcDbLine
 10
105.4868362951
 20
59.241791966
 30
0.0
 11
105.5157182536
 21
58.4036834003
 31
0.0
  0
ARC
  5
218
330
20C
100
AcDbEntity
  8
$DDT_AUDIT_GENERATED_(77)
  6
Continuous
 62
     7
100
AcDbCircle
 10
-754.1345463965
 20
26.8275045758
 30
0.0
 40
860.2322986307846
100
AcDbArc
 50
2.1594651093
 51
6.6109723828
  0
ARC
  5
219
330
20C
100
AcDbEntity
  8
$DDT_AUDIT_GENERATED_(77)
  6
Continuous
 62
     7
100
AcDbCircle
 10
107.1120720915
 20
57.0026258665
 30
0.0
 40
1.043926415729457
100
AcDbArc
 50
223.3883860901
 51
238.3271642658
  0
ARC
  5
21A
330
20C
100
AcDbEntity
  8
$DDT_AUDIT_GENERATED_(77)
  6
Continuous
 62
     7
100
AcDbCircle
 10
108.486531559
 20
58.3496304095
 30
0.0
 40
2.970154641792943
100
AcDbArc
 50
178.4610395712
 51
224.0778861817
  0
ARC
  5
21B
330
20C
100
AcDbEntity
  8
$DDT_AUDIT_GENERATED_(77)
  6
Continuous
 62
     7
100
AcDbCircle
 10
135.9331559814
 20
58.3528115826
 30
0.0
 40
2.977635738466847
100
AcDbArc
 50
315.98083302
 51
1.4553182477
  0
ARC
  5
21C
330
20C
100
AcDbEntity
  8
$DDT_AUDIT_GENERATED_(77)
  6
Continuous
 62
     7
100
AcDbCircle
 10
137.1254993382
 20
57.2109183494
 30
0.0
 40
1.325844988988897
100
AcDbArc
 50
303.9186378411
 51
315.6611119921
  0
ARC
  5
21D
330
20C
100
AcDbEntity
  8
$DDT_AUDIT_GENERATED_(77)
  6
Continuous
 62
     7
100
AcDbCircle
 10
1007.1840776504
 20
26.2338897305
 30
0.0
 40
868.8708419997776
100
AcDbArc
 50
173.4155277026
 51
177.828401957
  0
LINE
  5
21E
330
20C
100
AcDbEntity
  8
$DDT_AUDIT_GENERATED_(77)
  6
Continuous
 62
     7
100
AcDbLine
 10
138.9115568933
 20
58.4028944162
 30
0.0
 11
138.9372389065
 21
59.1575451862
 31
0.0
  0
ARC
  5
21F
330
20C
100
AcDbEntity
  8
$DDT_AUDIT_GENERATED_(9E)
  6
Continuous
 62
     7
100
AcDbCircle
 10
112.6335365288
 20
142.1156935454
 30
0.0
 40
35.41088877084211
100
AcDbArc
 50
332.2839545443
 51
343.4263428472
  0
ARC
  5
220
330
20C
100
AcDbEntity
  8
$DDT_AUDIT_GENERATED_(9E)
  6
Continuous
 62
     7
100
AcDbCircle
 10
132.0941072357
 20
142.2294200612
 30
0.0
 40
35.73349668947428
100
AcDbArc
 50
196.5103402048
 51
208.0316713794
  0
ARC
  5
221
330
20C
100
AcDbEntity
  8
$DDT_AUDIT_GENERATED_(9E)
  6
Continuous
 62
     7
100
AcDbCircle
 10
121.998497474
 20
148.9268585098
 30
0.0
 40
27.03531390970856
100
AcDbArc
 50
180.4020596781
 51
181.2258288019
  0
ARC
  5
222
330
20C
100
AcDbEntity
  8
$DDT_AUDIT_GENERATED_(9E)
  6
Continuous
 62
     7
100
AcDbCircle
 10
122.0310328895
 20
148.5029811707
 30
0.0
 40
27.06819658193335
100
AcDbArc
 50
138.7872101382
 51
179.5043323455
  0
ARC
  5
223
330
20C
100
AcDbEntity
  8
$DDT_AUDIT_GENERATED_(9E)
  6
Continuous
 62
     7
100
AcDbCircle
 10
122.4267671097
 20
148.9288096974
 30
0.0
 40
27.03776991800225
100
AcDbArc
 50
358.6690102315
 51
359.4567466666
  0
ARC
  5
224
330
20C
100
AcDbEntity
  8
$DDT_AUDIT_GENERATED_(9E)
  6
Continuous
 62
     7
100
AcDbCircle
 10
122.4020806949
 20
148.5090333575
 30
0.0
 40
27.06173442802224
100
AcDbArc
 50
0.3459989233
 51
41.4564622034
  0
ARC
  5
225
330
20C
100
AcDbEntity
  8
$DDT_AUDIT_GENERATED_(9E)
  6
Continuous
 62
     7
100
AcDbCircle
 10
149.3951513558
 20
149.2801654256
 30
0.0
 40
54.43613554479305
100
AcDbArc
 50
180.9807217753
 51
202.252263507
  0
ARC
  5
226
330
20C
100
AcDbEntity
  8
$DDT_AUDIT_GENERATED_(9E)
  6
Continuous
 62
     7
100
AcDbCircle
 10
94.8828624959
 20
149.3331903741
 30
0.0
 40
54.58636913570769
100
AcDbArc
 50
337.6392987706
 51
358.9161208537
  0
ARC
  5
227
330
20C
100
AcDbEntity
  8
$DDT_AUDIT_GENERATED_(9E)
  6
Continuous
 62
     7
100
AcDbCircle
 10
173.979180009
 20
108.9627710543
 30
0.0
 40
34.32408349191245
100
AcDbArc
 50
150.8584991365
 51
170.3314527625
  0
ARC
  5
228
330
20C
100
AcDbEntity
  8
$DDT_AUDIT_GENERATED_(9E)
  6
Continuous
 62
     7
100
AcDbCircle
 10
71.5174126141
 20
109.040279337
 30
0.0
 40
33.34356647258353
100
AcDbArc
 50
9.5478989863
 51
29.4826889255
  0
ARC
  5
229
330
20C
100
AcDbEntity
  8
$DDT_AUDIT_GENERATED_(9E)
  6
Continuous
 62
     7
100
AcDbCircle
 10
703.2051387633
 20
36.2724853738
 30
0.0
 40
568.49517850981
100
AcDbArc
 50
172.0677129227
 51
178.5251221093
  0
ARC
  5
22A
330
20C
100
AcDbEntity
  8
$DDT_AUDIT_GENERATED_(9E)
  6
Continuous
 62
     7
100
AcDbCircle
 10
-464.1798315372
 20
36.5079803713
 30
0.0
 40
573.9051253672153
100
AcDbArc
 50
1.4381363064
 51
7.8175127496
  0
ARC
  5
22B
330
20C
100
AcDbEntity
  8
$DDT_AUDIT_GENERATED_(9E)
  6
Continuous
 62
     7
100
AcDbCircle
 10
133.4029721785
 20
51.0123827064
 30
0.0
 40
1.499999999999971
100
AcDbArc
 50
302.0104253267
 51
355.8791837858
  0
ARC
  5
22C
330
20C
100
AcDbEntity
  8
$DDT_AUDIT_GENERATED_(9E)
  6
Continuous
 62
     7
100
AcDbCircle
 10
111.0366711023
 20
51.0164032818
 30
0.0
 40
1.499999999999988
100
AcDbArc
 50
184.0661737352
 51
237.9722102609
  0
ARC
  5
22D
330
20C
100
AcDbEntity
  8
$DDT_AUDIT_GENERATED_(9E)
  6
Continuous
 62
     7
100
AcDbCircle
 10
122.223947848
 20
67.4810109244
 30
0.0
 40
21.40347367234078
100
AcDbArc
 50
235.9572529531
 51
304.0170312851
  0
ARC
  5
22E
330
20C
100
AcDbEntity
  8
$DDT_AUDIT_GENERATED_(9E)
  6
Continuous
 62
     7
100
AcDbCircle
 10
122.2594927107
 20
148.2022489917
 30
0.0
 40
27.37674693831324
100
AcDbArc
 50
41.755605639
 51
90.0272359044
  0
ARC
  5
22F
330
20C
100
AcDbEntity
  8
$DDT_AUDIT_GENERATED_(9E)
  6
Continuous
 62
     7
100
AcDbCircle
 10
122.1650586647
 20
148.1708740026
 30
0.0
 40
27.394246360076
100
AcDbArc
 50
89.8292473619
 51
138.4337045946
  0
LINE
  5
230
330
20C
100
AcDbEntity
  8
$DDT_AUDIT_GENERATED_(B5)
  6
Continuous
 62
     7
100
AcDbLine
 10
123.9386489981
 20
184.4405989365
 30
0.0
 11
123.9386489981
 21
192.0683497362
 31
0.0
  0
LINE
  5
231
330
20C
100
AcDbEntity
  8
$DDT_AUDIT_GENERATED_(B5)
  6
Continuous
 62
     7
100
AcDbLine
 10
120.4886489981
 20
192.0683497362
 30
0.0
 11
120.4886489981
 21
184.4445526907
 31
0.0
  0
CIRCLE
  5
232
330
20C
100
AcDbEntity
  8
$DDT_AUDIT_GENERATED_(B8)
  6
Continuous
 62
     7
100
AcDbCircle
 10
122.2136489981
 20
199.1101446068
 30
0.0
 40
7.25
  0
ENDBLK
  5
234
330
20C
100
AcDbEntity
  8
0
100
AcDbBlockEnd
  0
ENDSEC
  0
SECTION
  2
ENTITIES
  0
INSERT
  5
5F
330
1F
100
AcDbEntity
  8
Default
100
AcDbBlockReference
  2
SEANNOT_GROUP
 10
0.0
 20
0.0
 30
0.0
  0
INSERT
  5
66
330
1F
100
AcDbEntity
  8
Default
100
AcDbBlockReference
  2
SEANNOT_GROUP1
 10
0.0
 20
0.0
 30
0.0
  0
INSERT
  5
6C
330
1F
100
AcDbEntity
  8
Default
100
AcDbBlockReference
  2
SEANNOT_GROUP2
 10
0.0
 20
0.0
 30
0.0
  0
INSERT
  5
76
330
1F
100
AcDbEntity
  8
Default
100
AcDbBlockReference
  2
SE
 10
0.0
 20
0.0
 30
0.0
  0
INSERT
  5
BF
330
1F
100
AcDbEntity
  8
Default
100
AcDbBlockReference
  2
SE1
 10
0.0
 20
0.0
 30
0.0
  0
INSERT
  5
20D
330
1F
100
AcDbEntity
  8
Default
100
AcDbBlockReference
  2
SE2
 10
0.0
 20
0.0
 30
0.0
  0
TEXT
  5
236
330
1F
100
AcDbEntity
  8
Default
  6
Continuous
 62
     7
100
AcDbText
 10
5.9362635081
 20
53.4225120485
 30
0.0
 40
10.0
  1
Grohe AG^J
  7
SEACAD_seiso_ttf
 11
5.9362635081
 21
63.4225120485
 31
0.0
100
AcDbText
 73
     3
  0
TEXT
  5
237
330
1F
100
AcDbEntity
  8
Default
  6
Continuous
 62
     7
100
AcDbText
 10
5.9362635081
 20
37.0588756849
 30
0.0
 40
10.0
  1
 
  7
SEACAD_seiso_ttf
 11
5.9362635081
 21
47.0588756849
 31
0.0
100
AcDbText
 73
     3
  0
TEXT
  5
238
330
1F
100
AcDbEntity
  8
Default
  6
Continuous
 62
     7
100
AcDbText
 10
5.9362635081
 20
20.6952393213
 30
0.0
 40
10.0
  1
ecn:
  7
SEACAD_seiso_ttf
 11
5.9362635081
 21
30.6952393213
 31
0.0
100
AcDbText
 73
     3
  0
TEXT
  5
239
330
1F
100
AcDbEntity
  8
Default
  6
Continuous
 62
     7
100
AcDbText
 10
5.9362635081
 20
4.3316029576
 30
0.0
 40
10.0
  1
unit: mm
  7
SEACAD_seiso_ttf
 11
5.9362635081
 21
14.3316029576
 31
0.0
100
AcDbText
 73
     3
  0
LINE
  5
23A
330
1F
100
AcDbEntity
  8
Default
  6
Continuous
 62
     7
100
AcDbLine
 10
0.0
 20
0.0
 30
0.0
 11
100.0
 21
0.0
 31
0.0
  0
LINE
  5
23B
330
1F
100
AcDbEntity
  8
Default
  6
Continuous
 62
     7
100
AcDbLine
 10
0.0
 20
0.0
 30
0.0
 11
0.0
 21
100.0
 31
0.0
  0
TEXT
  5
23C
330
1F
100
AcDbEntity
  8
Default
  6
Continuous
 62
     7
100
AcDbText
 10
24.3923665681
 20
-18.2375342018
 30
0.0
 40
10.0
  1
100 mm
  7
SEACAD_seiso_ttf
 11
24.3923665681
 21
-8.2375342018
 31
0.0
100
AcDbText
 73
     3
  0
TEXT
  5
23D
330
1F
100
AcDbEntity
  8
Default
  6
Continuous
 62
     7
100
AcDbText
 10
-7.6150308803
 20
24.6231930421
 30
0.0
 40
10.0
  1
100 mm
 50
90.0
  7
SEACAD_seiso_ttf
 11
-17.6150308803
 21
24.6231930421
 31
0.0
100
AcDbText
 73
     3
  0
TEXT
  5
23E
330
1F
100
AcDbEntity
  8
Default
  6
Continuous
 62
     7
100
AcDbText
 10
28.4878128572
 20
20.0907663715
 30
0.0
 40
10.0
  1
227738
  7
SEACAD_seiso_ttf
 11
28.4878128572
 21
30.0907663715
 31
0.0
100
AcDbText
 73
     3
  0
TEXT
  5
23F
330
1F
100
AcDbEntity
  8
Default
  6
Continuous
 62
     7
100
AcDbText
 10
5.9012241913
 20
36.7242780188
 30
0.0
 40
10.0
  1
2337110E
  7
SEACAD_seiso_ttf
 11
5.9012241913
 21
46.7242780188
 31
0.0
100
AcDbText
 73
     3
  0
ENDSEC
  0
SECTION
  2
OBJECTS
  0
DICTIONARY
  5
C
330
0
100
AcDbDictionary
281
     1
  3
ACAD_GROUP
350
D
  3
ACAD_LAYOUT
350
1A
  3
ACAD_MLEADERSTYLE
350
243
  3
ACAD_MLINESTYLE
350
17
  3
ACAD_PLOTSETTINGS
350
19
  3
ACAD_PLOTSTYLENAME
350
E
  3
ACAD_SCALELIST
350
3B
  3
ACAD_TABLESTYLE
350
242
  3
ACAD_VISUALSTYLE
350
2A
  3
AcDbVariableDictionary
350
240
  0
DICTIONARY
  5
D
102
{ACAD_REACTORS
330
C
102
}
330
C
100
AcDbDictionary
281
     1
  0
DICTIONARY
  5
1A
102
{ACAD_REACTORS
330
C
102
}
330
C
100
AcDbDictionary
281
     1
  3
Layout1
350
1E
  3
Model
350
22
  0
DICTIONARY
  5
243
102
{ACAD_REACTORS
330
C
102
}
330
C
100
AcDbDictionary
281
     1
  0
DICTIONARY
  5
17
102
{ACAD_REACTORS
330
C
102
}
330
C
100
AcDbDictionary
281
     1
  3
Standard
350
18
  0
DICTIONARY
  5
19
102
{ACAD_REACTORS
330
C
102
}
330
C
100
AcDbDictionary
281
     1
  0
ACDBDICTIONARYWDFLT
  5
E
102
{ACAD_REACTORS
330
C
102
}
330
C
100
AcDbDictionary
281
     1
  3
Normal
350
F
100
AcDbDictionaryWithDefault
340
F
  0
DICTIONARY
  5
3B
102
{ACAD_REACTORS
330
C
102
}
330
C
100
AcDbDictionary
281
     1
  3
A0
350
3C
  3
A1
350
3D
  3
A2
350
3E
  3
A3
350
3F
  3
A4
350
40
  3
A5
350
41
  3
A6
350
42
  3
A7
350
43
  3
A8
350
44
  3
A9
350
45
  3
B0
350
46
  3
B1
350
47
  3
B2
350
48
  3
B3
350
49
  3
B4
350
4A
  3
B5
350
4B
  3
B6
350
4C
  3
B7
350
4D
  3
B8
350
4E
  3
B9
350
4F
  3
C0
350
50
  3
C1
350
51
  3
C2
350
52
  3
C3
350
53
  3
C4
350
54
  3
C5
350
55
  3
C6
350
56
  3
C7
350
57
  3
C8
350
58
  3
C9
350
59
  3
D0
350
5A
  3
D1
350
5B
  3
D2
350
5C
  0
DICTIONARY
  5
242
102
{ACAD_REACTORS
330
C
102
}
330
C
100
AcDbDictionary
281
     1
  0
DICTIONARY
  5
2A
102
{ACAD_REACTORS
330
C
102
}
330
C
100
AcDbDictionary
281
     1
  3
2dWireframe
350
2F
  3
3D Hidden
350
31
  3
3dWireframe
350
30
  3
Basic
350
32
  3
Brighten
350
36
  3
ColorChange
350
3A
  3
Conceptual
350
34
  3
Dim
350
35
  3
Facepattern
350
39
  3
Flat
350
2B
  3
FlatWithEdges
350
2C
  3
Gouraud
350
2D
  3
GouraudWithEdges
350
2E
  3
Linepattern
350
38
  3
Realistic
350
33
  3
Thicken
350
37
  0
DICTIONARY
  5
240
102
{ACAD_REACTORS
330
C
102
}
330
C
100
AcDbDictionary
281
     1
  3
CANNOSCALE
350
241
  3
PSOLHEIGHT
350
245
  3
PSOLWIDTH
350
244
  0
LAYOUT
  5
1E
102
{ACAD_REACTORS
330
1A
102
}
330
1A
100
AcDbPlotSettings
  1

  2
none_device
  4

  6

 40
0.0
 41
0.0
 42
0.0
 43
0.0
 44
0.0
 45
0.0
 46
0.0
 47
0.0
 48
0.0
 49
0.0
140
0.0
141
0.0
142
1.0
143
1.0
 70
   688
 72
     0
 73
     0
 74
     5
  7

 75
    16
147
1.0
148
0.0
149
0.0
100
AcDbLayout
  1
Layout1
 70
     1
 71
     1
 10
0.0
 20
0.0
 11
3000.0
 21
4500.0
 12
0.0
 22
0.0
 32
0.0
 14
0.0
 24
0.0
 34
0.0
 15
3000.0
 25
4500.0
 35
0.0
146
0.0
 13
0.0
 23
0.0
 33
0.0
 16
1.0
 26
0.0
 36
0.0
 17
0.0
 27
1.0
 37
0.0
 76
     0
330
1B
  0
LAYOUT
  5
22
102
{ACAD_REACTORS
330
1A
102
}
330
1A
100
AcDbPlotSettings
  1

  2
none_device
  4

  6

 40
0.0
 41
0.0
 42
0.0
 43
0.0
 44
0.0
 45
0.0
 46
0.0
 47
0.0
 48
0.0
 49
0.0
140
0.0
141
0.0
142
1.0
143
1.0
 70
  1712
 72
     0
 73
     0
 74
     0
  7

 75
     0
147
1.0
148
0.0
149
0.0
100
AcDbLayout
  1
Model
 70
     1
 71
     0
 10
0.0
 20
0.0
 11
3000.0
 21
4500.0
 12
0.0
 22
0.0
 32
0.0
 14
0.0
 24
0.0
 34
0.0
 15
3000.0
 25
4500.0
 35
0.0
146
0.0
 13
0.0
 23
0.0
 33
0.0
 16
1.0
 26
0.0
 36
0.0
 17
0.0
 27
1.0
 37
0.0
 76
     0
330
1F
331
29
  0
MLINESTYLE
  5
18
102
{ACAD_REACTORS
330
17
102
}
330
17
100
AcDbMlineStyle
  2
Standard
 70
     0
  3

 62
   256
 51
90.0
 52
90.0
 71
     2
 49
0.5
 62
   256
  6
BYLAYER
 49
-0.5
 62
   256
  6
BYLAYER
  0
ACDBPLACEHOLDER
  5
F
102
{ACAD_REACTORS
330
E
102
}
330
E
  0
SCALE
  5
3C
102
{ACAD_REACTORS
330
3B
102
}
330
3B
100
AcDbScale
 70
     0
300
1:1
140
1.0
141
1.0
290
     1
  0
SCALE
  5
3D
102
{ACAD_REACTORS
330
3B
102
}
330
3B
100
AcDbScale
 70
     0
300
1:2
140
1.0
141
2.0
290
     0
  0
SCALE
  5
3E
102
{ACAD_REACTORS
330
3B
102
}
330
3B
100
AcDbScale
 70
     0
300
1:4
140
1.0
141
4.0
290
     0
  0
SCALE
  5
3F
102
{ACAD_REACTORS
330
3B
102
}
330
3B
100
AcDbScale
 70
     0
300
1:5
140
1.0
141
5.0
290
     0
  0
SCALE
  5
40
102
{ACAD_REACTORS
330
3B
102
}
330
3B
100
AcDbScale
 70
     0
300
1:8
140
1.0
141
8.0
290
     0
  0
SCALE
  5
41
102
{ACAD_REACTORS
330
3B
102
}
330
3B
100
AcDbScale
 70
     0
300
1:10
140
1.0
141
10.0
290
     0
  0
SCALE
  5
42
102
{ACAD_REACTORS
330
3B
102
}
330
3B
100
AcDbScale
 70
     0
300
1:16
140
1.0
141
16.0
290
     0
  0
SCALE
  5
43
102
{ACAD_REACTORS
330
3B
102
}
330
3B
100
AcDbScale
 70
     0
300
1:20
140
1.0
141
20.0
290
     0
  0
SCALE
  5
44
102
{ACAD_REACTORS
330
3B
102
}
330
3B
100
AcDbScale
 70
     0
300
1:30
140
1.0
141
30.0
290
     0
  0
SCALE
  5
45
102
{ACAD_REACTORS
330
3B
102
}
330
3B
100
AcDbScale
 70
     0
300
1:40
140
1.0
141
40.0
290
     0
  0
SCALE
  5
46
102
{ACAD_REACTORS
330
3B
102
}
330
3B
100
AcDbScale
 70
     0
300
1:50
140
1.0
141
50.0
290
     0
  0
SCALE
  5
47
102
{ACAD_REACTORS
330
3B
102
}
330
3B
100
AcDbScale
 70
     0
300
1:100
140
1.0
141
100.0
290
     0
  0
SCALE
  5
48
102
{ACAD_REACTORS
330
3B
102
}
330
3B
100
AcDbScale
 70
     0
300
2:1
140
2.0
141
1.0
290
     0
  0
SCALE
  5
49
102
{ACAD_REACTORS
330
3B
102
}
330
3B
100
AcDbScale
 70
     0
300
4:1
140
4.0
141
1.0
290
     0
  0
SCALE
  5
4A
102
{ACAD_REACTORS
330
3B
102
}
330
3B
100
AcDbScale
 70
     0
300
8:1
140
8.0
141
1.0
290
     0
  0
SCALE
  5
4B
102
{ACAD_REACTORS
330
3B
102
}
330
3B
100
AcDbScale
 70
     0
300
10:1
140
10.0
141
1.0
290
     0
  0
SCALE
  5
4C
102
{ACAD_REACTORS
330
3B
102
}
330
3B
100
AcDbScale
 70
     0
300
100:1
140
100.0
141
1.0
290
     0
  0
SCALE
  5
4D
102
{ACAD_REACTORS
330
3B
102
}
330
3B
100
AcDbScale
 70
     0
300
1/128" = 1'-0"
140
0.0078125
141
12.0
290
     0
  0
SCALE
  5
4E
102
{ACAD_REACTORS
330
3B
102
}
330
3B
100
AcDbScale
 70
     0
300
1/64" = 1'-0"
140
0.015625
141
12.0
290
     0
  0
SCALE
  5
4F
102
{ACAD_REACTORS
330
3B
102
}
330
3B
100
AcDbScale
 70
     0
300
1/32" = 1'-0"
140
0.03125
141
12.0
290
     0
  0
SCALE
  5
50
102
{ACAD_REACTORS
330
3B
102
}
330
3B
100
AcDbScale
 70
     0
300
1/16" = 1'-0"
140
0.0625
141
12.0
290
     0
  0
SCALE
  5
51
102
{ACAD_REACTORS
330
3B
102
}
330
3B
100
AcDbScale
 70
     0
300
3/32" = 1'-0"
140
0.09375
141
12.0
290
     0
  0
SCALE
  5
52
102
{ACAD_REACTORS
330
3B
102
}
330
3B
100
AcDbScale
 70
     0
300
1/8" = 1'-0"
140
0.125
141
12.0
290
     0
  0
SCALE
  5
53
102
{ACAD_REACTORS
330
3B
102
}
330
3B
100
AcDbScale
 70
     0
300
3/16" = 1'-0"
140
0.1875
141
12.0
290
     0
  0
SCALE
  5
54
102
{ACAD_REACTORS
330
3B
102
}
330
3B
100
AcDbScale
 70
     0
300
1/4" = 1'-0"
140
0.25
141
12.0
290
     0
  0
SCALE
  5
55
102
{ACAD_REACTORS
330
3B
102
}
330
3B
100
AcDbScale
 70
     0
300
3/8" = 1'-0"
140
0.375
141
12.0
290
     0
  0
SCALE
  5
56
102
{ACAD_REACTORS
330
3B
102
}
330
3B
100
AcDbScale
 70
     0
300
1/2" = 1'-0"
140
0.5
141
12.0
290
     0
  0
SCALE
  5
57
102
{ACAD_REACTORS
330
3B
102
}
330
3B
100
AcDbScale
 70
     0
300
3/4" = 1'-0"
140
0.75
141
12.0
290
     0
  0
SCALE
  5
58
102
{ACAD_REACTORS
330
3B
102
}
330
3B
100
AcDbScale
 70
     0
300
1" = 1'-0"
140
1.0
141
12.0
290
     0
  0
SCALE
  5
59
102
{ACAD_REACTORS
330
3B
102
}
330
3B
100
AcDbScale
 70
     0
300
1-1/2" = 1'-0"
140
1.5
141
12.0
290
     0
  0
SCALE
  5
5A
102
{ACAD_REACTORS
330
3B
102
}
330
3B
100
AcDbScale
 70
     0
300
3" = 1'-0"
140
3.0
141
12.0
290
     0
  0
SCALE
  5
5B
102
{ACAD_REACTORS
330
3B
102
}
330
3B
100
AcDbScale
 70
     0
300
6" = 1'-0"
140
6.0
141
12.0
290
     0
  0
SCALE
  5
5C
102
{ACAD_REACTORS
330
3B
102
}
330
3B
100
AcDbScale
 70
     0
300
1'-0" = 1'-0"
140
12.0
141
12.0
290
     0
  0
VISUALSTYLE
  5
2F
102
{ACAD_REACTORS
330
2A
102
}
330
2A
100
AcDbVisualStyle
  2
2dWireframe
 70
     4
 71
     0
 72
     2
 73
     0
 90
        0
 40
-0.6
 41
-30.0
 62
     5
 63
     7
 74
     1
 91
        4
 64
     7
 65
   257
 75
     1
175
     1
 42
1.0
 92
        0
 66
   257
 43
1.0
 76
     1
 77
     6
 78
     2
 67
     7
 79
     5
170
     0
171
     0
290
     0
174
     0
 93
        1
 44
0.0
173
     0
291
     0
 45
0.0
1001
ACAD
1000
AcDbSavedByObjectVersion
1070
     0
  0
VISUALSTYLE
  5
31
102
{ACAD_REACTORS
330
2A
102
}
330
2A
100
AcDbVisualStyle
  2
3D Hidden
 70
     6
 71
     1
 72
     2
 73
     2
 90
        0
 40
-0.6
 41
-30.0
 62
     5
 63
     7
 74
     2
 91
        2
 64
     7
 65
   257
 75
     2
175
     1
 42
40.0
 92
        0
 66
   257
 43
1.0
 76
     1
 77
     6
 78
     2
 67
     7
 79
     3
170
     0
171
     0
290
     0
174
     0
 93
        1
 44
0.0
173
     0
291
     0
 45
0.0
1001
ACAD
1000
AcDbSavedByObjectVersion
1070
     0
  0
VISUALSTYLE
  5
30
102
{ACAD_REACTORS
330
2A
102
}
330
2A
100
AcDbVisualStyle
  2
3dWireframe
 70
     5
 71
     0
 72
     2
 73
     0
 90
        0
 40
-0.6
 41
-30.0
 62
     5
 63
     7
 74
     1
 91
        4
 64
     7
 65
   257
 75
     1
175
     1
 42
1.0
 92
        0
 66
   257
 43
1.0
 76
     1
 77
     6
 78
     2
 67
     7
 79
     5
170
     0
171
     0
290
     0
174
     0
 93
        1
 44
0.0
173
     0
291
     0
 45
0.0
1001
ACAD
1000
AcDbSavedByObjectVersion
1070
     0
  0
VISUALSTYLE
  5
32
102
{ACAD_REACTORS
330
2A
102
}
330
2A
100
AcDbVisualStyle
  2
Basic
 70
     7
 71
     1
 72
     0
 73
     1
 90
        0
 40
-0.6
 41
-30.0
 62
     5
 63
     7
 74
     0
 91
        4
 64
     7
 65
   257
 75
     1
175
     1
 42
1.0
 92
        8
 66
     7
 43
1.0
 76
     1
 77
     6
 78
     2
 67
     7
 79
     5
170
     0
171
     0
290
     0
174
     0
 93
        1
 44
0.0
173
     0
291
     1
 45
0.0
1001
ACAD
1000
AcDbSavedByObjectVersion
1070
     0
  0
VISUALSTYLE
  5
36
102
{ACAD_REACTORS
330
2A
102
}
330
2A
100
AcDbVisualStyle
  2
Brighten
 70
    12
 71
     2
 72
     2
 73
     0
 90
        0
 40
-0.6
 41
-30.0
 62
     5
 63
     7
 74
     1
 91
        4
 64
     7
 65
   257
 75
     1
175
     1
 42
1.0
 92
        8
 66
     7
 43
1.0
 76
     1
 77
     6
 78
     2
 67
     7
 79
     5
170
     0
171
     0
290
     0
174
     0
 93
        1
 44
50.0
173
     0
291
     1
 45
0.0
1001
ACAD
1000
AcDbSavedByObjectVersion
1070
     0
  0
VISUALSTYLE
  5
3A
102
{ACAD_REACTORS
330
2A
102
}
330
2A
100
AcDbVisualStyle
  2
ColorChange
 70
    16
 71
     2
 72
     2
 73
     3
 90
        0
 40
-0.6
 41
-30.0
 62
     5
 63
     8
 74
     1
 91
        4
 64
     7
 65
   257
 75
     1
175
     1
 42
1.0
 92
        8
 66
     8
 43
1.0
 76
     1
 77
     6
 78
     2
 67
     7
 79
     5
170
     0
171
     0
290
     0
174
     0
 93
        1
 44
0.0
173
     0
291
     1
 45
0.0
1001
ACAD
1000
AcDbSavedByObjectVersion
1070
     0
  0
VISUALSTYLE
  5
34
102
{ACAD_REACTORS
330
2A
102
}
330
2A
100
AcDbVisualStyle
  2
Conceptual
 70
     9
 71
     3
 72
     2
 73
     0
 90
        0
 40
-0.6
 41
-30.0
 62
     5
 63
     7
 74
     2
 91
        2
 64
     7
 65
   257
 75
     1
175
     1
 42
40.0
 92
        8
 66
     7
 43
1.0
 76
     1
 77
     6
 78
     2
 67
     7
 79
     3
170
     0
171
     0
290
     0
174
     0
 93
        1
 44
0.0
173
     0
291
     0
 45
0.0
1001
ACAD
1000
AcDbSavedByObjectVersion
1070
     0
  0
VISUALSTYLE
  5
35
102
{ACAD_REACTORS
330
2A
102
}
330
2A
100
AcDbVisualStyle
  2
Dim
 70
    11
 71
     2
 72
     2
 73
     0
 90
        0
 40
-0.6
 41
-30.0
 62
     5
 63
     7
 74
     1
 91
        4
 64
     7
 65
   257
 75
     1
175
     1
 42
1.0
 92
        8
 66
     7
 43
1.0
 76
     1
 77
     6
 78
     2
 67
     7
 79
     5
170
     0
171
     0
290
     0
174
     0
 93
        1
 44
-50.0
173
     0
291
     1
 45
0.0
1001
ACAD
1000
AcDbSavedByObjectVersion
1070
     0
  0
VISUALSTYLE
  5
39
102
{ACAD_REACTORS
330
2A
102
}
330
2A
100
AcDbVisualStyle
  2
Facepattern
 70
    15
 71
     2
 72
     2
 73
     0
 90
        0
 40
-0.6
 41
-30.0
 62
     5
 63
     7
 74
     1
 91
        4
 64
     7
 65
   257
 75
     1
175
     1
 42
1.0
 92
        8
 66
     7
 43
1.0
 76
     1
 77
     6
 78
     2
 67
     7
 79
     5
170
     0
171
     0
290
     0
174
     0
 93
        1
 44
0.0
173
     0
291
     1
 45
0.0
1001
ACAD
1000
AcDbSavedByObjectVersion
1070
     0
  0
VISUALSTYLE
  5
2B
102
{ACAD_REACTORS
330
2A
102
}
330
2A
100
AcDbVisualStyle
  2
Flat
 70
     0
 71
     2
 72
     1
 73
     1
 90
        2
 40
-0.6
 41
30.0
 62
     5
 63
     7
 74
     0
 91
        4
 64
     7
 65
   257
 75
     1
175
     1
 42
1.0
 92
        8
 66
     7
 43
1.0
 76
     1
 77
     6
 78
     2
 67
     7
 79
     5
170
     0
171
     0
290
     0
174
     0
 93
       13
 44
0.0
173
     0
291
     1
 45
0.0
1001
ACAD
1000
AcDbSavedByObjectVersion
1070
     0
  0
VISUALSTYLE
  5
2C
102
{ACAD_REACTORS
330
2A
102
}
330
2A
100
AcDbVisualStyle
  2
FlatWithEdges
 70
     1
 71
     2
 72
     1
 73
     1
 90
        2
 40
-0.6
 41
30.0
 62
     5
 63
     7
 74
     1
 91
        4
 64
     7
 65
   257
 75
     1
175
     1
 42
1.0
 92
        0
 66
   257
 43
1.0
 76
     1
 77
     6
 78
     2
 67
     7
 79
     5
170
     0
171
     0
290
     0
174
     0
 93
       13
 44
0.0
173
     0
291
     1
 45
0.0
1001
ACAD
1000
AcDbSavedByObjectVersion
1070
     0
  0
VISUALSTYLE
  5
2D
102
{ACAD_REACTORS
330
2A
102
}
330
2A
100
AcDbVisualStyle
  2
Gouraud
 70
     2
 71
     2
 72
     2
 73
     1
 90
        2
 40
-0.6
 41
30.0
 62
     5
 63
     7
 74
     0
 91
        4
 64
     7
 65
   257
 75
     1
175
     1
 42
1.0
 92
        0
 66
     7
 43
1.0
 76
     1
 77
     6
 78
     2
 67
     7
 79
     5
170
     0
171
     0
290
     0
174
     0
 93
       13
 44
0.0
173
     0
291
     1
 45
0.0
1001
ACAD
1000
AcDbSavedByObjectVersion
1070
     0
  0
VISUALSTYLE
  5
2E
102
{ACAD_REACTORS
330
2A
102
}
330
2A
100
AcDbVisualStyle
  2
GouraudWithEdges
 70
     3
 71
     2
 72
     2
 73
     1
 90
        2
 40
-0.6
 41
30.0
 62
     5
 63
     7
 74
     1
 91
        4
 64
     7
 65
   257
 75
     1
175
     1
 42
1.0
 92
        0
 66
   257
 43
1.0
 76
     1
 77
     6
 78
     2
 67
     7
 79
     5
170
     0
171
     0
290
     0
174
     0
 93
       13
 44
0.0
173
     0
291
     1
 45
0.0
1001
ACAD
1000
AcDbSavedByObjectVersion
1070
     0
  0
VISUALSTYLE
  5
38
102
{ACAD_REACTORS
330
2A
102
}
330
2A
100
AcDbVisualStyle
  2
Linepattern
 70
    14
 71
     2
 72
     2
 73
     0
 90
        0
 40
-0.6
 41
-30.0
 62
     5
 63
     7
 74
     1
 91
        4
 64
     7
 65
   257
 75
     7
175
     7
 42
1.0
 92
        8
 66
     7
 43
1.0
 76
     1
 77
     6
 78
     2
 67
     7
 79
     5
170
     0
171
     0
290
     0
174
     0
 93
        1
 44
0.0
173
     0
291
     1
 45
0.0
1001
ACAD
1000
AcDbSavedByObjectVersion
1070
     0
  0
VISUALSTYLE
  5
33
102
{ACAD_REACTORS
330
2A
102
}
330
2A
100
AcDbVisualStyle
  2
Realistic
 70
     8
 71
     2
 72
     2
 73
     0
 90
        0
 40
-0.6
 41
-30.0
 62
     5
 63
     7
 74
     1
 91
        0
 64
     7
 65
   257
 75
     1
175
     1
 42
1.0
 92
        8
 66
     8
 43
1.0
 76
     1
 77
     6
 78
     2
 67
     7
 79
     5
170
     0
171
     0
290
     0
174
     0
 93
       13
 44
0.0
173
     0
291
     0
 45
0.0
1001
ACAD
1000
AcDbSavedByObjectVersion
1070
     0
  0
VISUALSTYLE
  5
37
102
{ACAD_REACTORS
330
2A
102
}
330
2A
100
AcDbVisualStyle
  2
Thicken
 70
    13
 71
     2
 72
     2
 73
     0
 90
        0
 40
-0.6
 41
-30.0
 62
     5
 63
     7
 74
     1
 91
        4
 64
     7
 65
   257
 75
     1
175
     1
 42
1.0
 92
       12
 66
     7
 43
1.0
 76
     1
 77
     6
 78
     2
 67
     7
 79
     5
170
     0
171
     0
290
     0
174
     0
 93
        1
 44
0.0
173
     0
291
     1
 45
0.0
1001
ACAD
1000
AcDbSavedByObjectVersion
1070
     0
  0
DICTIONARYVAR
  5
241
102
{ACAD_REACTORS
330
240
102
}
330
240
100
DictionaryVariables
280
     0
  1
1:1
  0
DICTIONARYVAR
  5
245
102
{ACAD_REACTORS
330
240
102
}
330
240
100
DictionaryVariables
280
     0
  1
80.000000
  0
DICTIONARYVAR
  5
244
102
{ACAD_REACTORS
330
240
102
}
330
240
100
DictionaryVariables
280
     0
  1
5.000000
  0
ENDSEC
  0
EOF
