  0
SECTION
  2
HEADER
  9
$ACADVER
  1
AC1015
  9
$ACADMAINTVER
 70
     6
  9
$DWGCODEPAGE
  3
ANSI_1252
  9
$INSBASE
 10
0.0
 20
0.0
 30
0.0
  9
$EXTMIN
 10
0.0
 20
0.0
 30
0.0
  9
$EXTMAX
 10
3000.0
 20
4500.0
 30
0.0
  9
$LIMMIN
 10
0.0
 20
0.0
  9
$LIMMAX
 10
3000.0
 20
4500.0
  9
$ORTHOMODE
 70
     0
  9
$REGENMODE
 70
     1
  9
$FILLMODE
 70
     1
  9
$QTEXTMODE
 70
     0
  9
$MIRRTEXT
 70
     1
  9
$LTSCALE
 40
1.0
  9
$ATTMODE
 70
     1
  9
$TEXTSIZE
 40
2.5
  9
$TRACEWID
 40
1.0
  9
$TEXTSTYLE
  7
Standard
  9
$CLAYER
  8
0
  9
$CELTYPE
  6
ByLayer
  9
$CECOLOR
 62
   256
  9
$CELTSCALE
 40
1.0
  9
$DISPSILH
 70
     0
  9
$DIMSCALE
 40
1.0
  9
$DIMASZ
 40
2.5
  9
$DIMEXO
 40
0.625
  9
$DIMDLI
 40
3.75
  9
$DIMRND
 40
0.0
  9
$DIMDLE
 40
0.0
  9
$DIMEXE
 40
1.25
  9
$DIMTP
 40
0.0
  9
$DIMTM
 40
0.0
  9
$DIMTXT
 40
2.5
  9
$DIMCEN
 40
2.5
  9
$DIMTSZ
 40
0.0
  9
$DIMTOL
 70
     0
  9
$DIMLIM
 70
     0
  9
$DIMTIH
 70
     0
  9
$DIMTOH
 70
     0
  9
$DIMSE1
 70
     0
  9
$DIMSE2
 70
     0
  9
$DIMTAD
 70
     1
  9
$DIMZIN
 70
     8
  9
$DIMBLK
  1

  9
$DIMASO
 70
     1
  9
$DIMSHO
 70
     1
  9
$DIMPOST
  1

  9
$DIMAPOST
  1

  9
$DIMALT
 70
     0
  9
$DIMALTD
 70
     3
  9
$DIMALTF
 40
0.0393700787
  9
$DIMLFAC
 40
1.0
  9
$DIMTOFL
 70
     1
  9
$DIMTVP
 40
0.0
  9
$DIMTIX
 70
     0
  9
$DIMSOXD
 70
     0
  9
$DIMSAH
 70
     0
  9
$DIMBLK1
  1

  9
$DIMBLK2
  1

  9
$DIMSTYLE
  2
ISO-25
  9
$DIMCLRD
 70
     0
  9
$DIMCLRE
 70
     0
  9
$DIMCLRT
 70
     0
  9
$DIMTFAC
 40
1.0
  9
$DIMGAP
 40
0.625
  9
$DIMJUST
 70
     0
  9
$DIMSD1
 70
     0
  9
$DIMSD2
 70
     0
  9
$DIMTOLJ
 70
     0
  9
$DIMTZIN
 70
     8
  9
$DIMALTZ
 70
     0
  9
$DIMALTTZ
 70
     0
  9
$DIMUPT
 70
     0
  9
$DIMDEC
 70
     2
  9
$DIMTDEC
 70
     2
  9
$DIMALTU
 70
     2
  9
$DIMALTTD
 70
     3
  9
$DIMTXSTY
  7
Standard
  9
$DIMAUNIT
 70
     0
  9
$DIMADEC
 70
     0
  9
$DIMALTRND
 40
0.0
  9
$DIMAZIN
 70
     0
  9
$DIMDSEP
 70
    44
  9
$DIMATFIT
 70
     3
  9
$DIMFRAC
 70
     0
  9
$DIMLDRBLK
  1

  9
$DIMLUNIT
 70
     2
  9
$DIMLWD
 70
    -2
  9
$DIMLWE
 70
    -2
  9
$DIMTMOVE
 70
     0
  9
$LUNITS
 70
     2
  9
$LUPREC
 70
     4
  9
$SKETCHINC
 40
1.0
  9
$FILLETRAD
 40
10.0
  9
$AUNITS
 70
     0
  9
$AUPREC
 70
     0
  9
$MENU
  1
.
  9
$ELEVATION
 40
0.0
  9
$PELEVATION
 40
0.0
  9
$THICKNESS
 40
0.0
  9
$LIMCHECK
 70
     0
  9
$CHAMFERA
 40
10.0
  9
$CHAMFERB
 40
10.0
  9
$CHAMFERC
 40
20.0
  9
$CHAMFERD
 40
0.0
  9
$SKPOLY
 70
     0
  9
$TDCREATE
 40
2456337.564192569
  9
$TDUCREATE
 40
2456337.522525903
  9
$TDUPDATE
 40
2456337.564192581
  9
$TDUUPDATE
 40
2456337.522525914
  9
$TDINDWG
 40
0.0000000116
  9
$TDUSRTIMER
 40
0.0000000116
  9
$USRTIMER
 70
     1
  9
$ANGBASE
 50
0.0
  9
$ANGDIR
 70
     0
  9
$PDMODE
 70
     0
  9
$PDSIZE
 40
0.0
  9
$PLINEWID
 40
0.0
  9
$SPLFRAME
 70
     0
  9
$SPLINETYPE
 70
     6
  9
$SPLINESEGS
 70
     8
  9
$HANDSEED
  5
11E
  9
$SURFTAB1
 70
     6
  9
$SURFTAB2
 70
     6
  9
$SURFTYPE
 70
     6
  9
$SURFU
 70
     6
  9
$SURFV
 70
     6
  9
$UCSBASE
  2

  9
$UCSNAME
  2

  9
$UCSORG
 10
0.0
 20
0.0
 30
0.0
  9
$UCSXDIR
 10
1.0
 20
0.0
 30
0.0
  9
$UCSYDIR
 10
0.0
 20
1.0
 30
0.0
  9
$UCSORTHOREF
  2

  9
$UCSORTHOVIEW
 70
     0
  9
$UCSORGTOP
 10
0.0
 20
0.0
 30
0.0
  9
$UCSORGBOTTOM
 10
0.0
 20
0.0
 30
0.0
  9
$UCSORGLEFT
 10
0.0
 20
0.0
 30
0.0
  9
$UCSORGRIGHT
 10
0.0
 20
0.0
 30
0.0
  9
$UCSORGFRONT
 10
0.0
 20
0.0
 30
0.0
  9
$UCSORGBACK
 10
0.0
 20
0.0
 30
0.0
  9
$PUCSBASE
  2

  9
$PUCSNAME
  2

  9
$PUCSORG
 10
0.0
 20
0.0
 30
0.0
  9
$PUCSXDIR
 10
1.0
 20
0.0
 30
0.0
  9
$PUCSYDIR
 10
0.0
 20
1.0
 30
0.0
  9
$PUCSORTHOREF
  2

  9
$PUCSORTHOVIEW
 70
     0
  9
$PUCSORGTOP
 10
0.0
 20
0.0
 30
0.0
  9
$PUCSORGBOTTOM
 10
0.0
 20
0.0
 30
0.0
  9
$PUCSORGLEFT
 10
0.0
 20
0.0
 30
0.0
  9
$PUCSORGRIGHT
 10
0.0
 20
0.0
 30
0.0
  9
$PUCSORGFRONT
 10
0.0
 20
0.0
 30
0.0
  9
$PUCSORGBACK
 10
0.0
 20
0.0
 30
0.0
  9
$USERI1
 70
     0
  9
$USERI2
 70
     0
  9
$USERI3
 70
     0
  9
$USERI4
 70
     0
  9
$USERI5
 70
     0
  9
$USERR1
 40
0.0
  9
$USERR2
 40
0.0
  9
$USERR3
 40
0.0
  9
$USERR4
 40
0.0
  9
$USERR5
 40
0.0
  9
$WORLDVIEW
 70
     1
  9
$SHADEDGE
 70
     3
  9
$SHADEDIF
 70
    70
  9
$TILEMODE
 70
     1
  9
$MAXACTVP
 70
    64
  9
$PINSBASE
 10
0.0
 20
0.0
 30
0.0
  9
$PLIMCHECK
 70
     0
  9
$PEXTMIN
 10
0.0
 20
0.0
 30
0.0
  9
$PEXTMAX
 10
3000.0
 20
4500.0
 30
0.0
  9
$PLIMMIN
 10
0.0
 20
0.0
  9
$PLIMMAX
 10
3000.0
 20
4500.0
  9
$UNITMODE
 70
     0
  9
$VISRETAIN
 70
     1
  9
$PLINEGEN
 70
     0
  9
$PSLTSCALE
 70
     1
  9
$TREEDEPTH
 70
  3020
  9
$CMLSTYLE
  2
Standard
  9
$CMLJUST
 70
     0
  9
$CMLSCALE
 40
20.0
  9
$PROXYGRAPHICS
 70
     1
  9
$MEASUREMENT
 70
     1
  9
$CELWEIGHT
370
    -1
  9
$ENDCAPS
280
     0
  9
$JOINSTYLE
280
     0
  9
$LWDISPLAY
290
     0
  9
$INSUNITS
 70
     4
  9
$HYPERLINKBASE
  1

  9
$STYLESHEET
  1

  9
$XEDIT
290
     1
  9
$CEPSNTYPE
380
     0
  9
$PSTYLEMODE
290
     1
  9
$FINGERPRINTGUID
  2
{0F7244B6-CBA4-4C4E-BF57-6AE7F8DA3EEF}
  9
$VERSIONGUID
  2
{FAEB1C32-E019-11D5-929B-00C0DF256EC4}
  9
$EXTNAMES
290
     1
  9
$PSVPSCALE
 40
0.0
  9
$OLESTARTUP
290
     0
  0
ENDSEC
  0
SECTION
  2
CLASSES
  0
CLASS
  1
ACDBDICTIONARYWDFLT
  2
AcDbDictionaryWithDefault
  3
ObjectDBX Classes
 90
        0
280
     0
281
     0
  0
CLASS
  1
VISUALSTYLE
  2
AcDbVisualStyle
  3
ObjectDBX Classes
 90
     4095
280
     0
281
     0
  0
CLASS
  1
SCALE
  2
AcDbScale
  3
ObjectDBX Classes
 90
     1153
280
     0
281
     0
  0
CLASS
  1
DICTIONARYVAR
  2
AcDbDictionaryVar
  3
ObjectDBX Classes
 90
        0
280
     0
281
     0
  0
CLASS
  1
ACDBPLACEHOLDER
  2
AcDbPlaceHolder
  3
ObjectDBX Classes
 90
        0
280
     0
281
     0
  0
CLASS
  1
LAYOUT
  2
AcDbLayout
  3
ObjectDBX Classes
 90
        0
280
     0
281
     0
  0
ENDSEC
  0
SECTION
  2
TABLES
  0
TABLE
  2
VPORT
  5
8
330
0
100
AcDbSymbolTable
 70
     1
  0
VPORT
  5
29
330
8
100
AcDbSymbolTableRecord
100
AcDbViewportTableRecord
  2
*Active
 70
     0
 10
0.0
 20
0.0
 11
1.0
 21
1.0
 12
344.1869158879
 22
148.5
 13
0.0
 23
0.0
 14
10.0
 24
10.0
 15
10.0
 25
10.0
 16
0.0
 26
0.0
 36
1.0
 17
0.0
 27
0.0
 37
0.0
 40
297.0
 41
1.9729729729
 42
50.0
 43
0.0
 44
0.0
 50
0.0
 51
0.0
 71
     0
 72
   100
 73
     1
 74
     3
 75
     0
 76
     0
 77
     0
 78
     0
281
     0
 65
     1
110
0.0
120
0.0
130
0.0
111
1.0
121
0.0
131
0.0
112
0.0
122
1.0
132
0.0
 79
     0
146
0.0
  0
ENDTAB
  0
TABLE
  2
LTYPE
  5
5
330
0
100
AcDbSymbolTable
 70
     2
  0
LTYPE
  5
14
330
5
100
AcDbSymbolTableRecord
100
AcDbLinetypeTableRecord
  2
ByBlock
 70
     0
  3

 72
    65
 73
     0
 40
0.0
  0
LTYPE
  5
15
330
5
100
AcDbSymbolTableRecord
100
AcDbLinetypeTableRecord
  2
ByLayer
 70
     0
  3

 72
    65
 73
     0
 40
0.0
  0
LTYPE
  5
16
330
5
100
AcDbSymbolTableRecord
100
AcDbLinetypeTableRecord
  2
Continuous
 70
     0
  3
Solid line
 72
    65
 73
     0
 40
0.0
  0
LTYPE
  5
60
330
5
100
AcDbSymbolTableRecord
100
AcDbLinetypeTableRecord
  2
CENTER2
 70
     0
  3
Center (.5x) ___ _ ___ _ ___ _ ___ _ ___ _ ___
 72
    65
 73
     4
 40
28.575
 49
19.05
 74
     4
 75
     0
340
0
 46
0.0
 50
0.0
 44
0.0
 45
0.0
 49
-3.175
 74
     4
 75
     0
340
0
 46
0.0
 50
0.0
 44
0.0
 45
0.0
 49
3.175
 74
     4
 75
     0
340
0
 46
0.0
 50
0.0
 44
0.0
 45
0.0
 49
-3.175
 74
     4
 75
     0
340
0
 46
0.0
 50
0.0
 44
0.0
 45
0.0
  0
ENDTAB
  0
TABLE
  2
LAYER
  5
2
330
0
100
AcDbSymbolTable
 70
     6
  0
LAYER
  5
10
330
2
100
AcDbSymbolTableRecord
100
AcDbLayerTableRecord
  2
0
 70
     0
 62
     7
  6
Continuous
370
    -3
390
F
  0
LAYER
  5
5D
330
2
100
AcDbSymbolTableRecord
100
AcDbLayerTableRecord
  2
Default
 70
     0
 62
     7
  6
Continuous
370
    -3
390
F
  0
LAYER
  5
85
330
2
100
AcDbSymbolTableRecord
100
AcDbLayerTableRecord
  2
$DDT_AUDIT_GENERATED_(85)
 70
     0
 62
     7
  6
Continuous
370
    -3
390
F
  0
LAYER
  5
91
330
2
100
AcDbSymbolTableRecord
100
AcDbLayerTableRecord
  2
$DDT_AUDIT_GENERATED_(91)
 70
     0
 62
     7
  6
Continuous
370
    -3
390
F
  0
LAYER
  5
A3
330
2
100
AcDbSymbolTableRecord
100
AcDbLayerTableRecord
  2
$DDT_AUDIT_GENERATED_(A3)
 70
     0
 62
     7
  6
Continuous
370
    -3
390
F
  0
LAYER
  5
B3
330
2
100
AcDbSymbolTableRecord
100
AcDbLayerTableRecord
  2
$DDT_AUDIT_GENERATED_(B3)
 70
     0
 62
     7
  6
Continuous
370
    -3
390
F
  0
ENDTAB
  0
TABLE
  2
STYLE
  5
3
330
0
100
AcDbSymbolTable
 70
     2
  0
STYLE
  5
11
330
3
100
AcDbSymbolTableRecord
100
AcDbTextStyleTableRecord
  2
Standard
 70
     0
 40
0.0
 41
1.0
 50
0.0
 71
     0
 42
2.5
  3
txt
  4

  0
STYLE
  5
10D
330
3
100
AcDbSymbolTableRecord
100
AcDbTextStyleTableRecord
  2
SEACAD_seiso_ttf
 70
     0
 40
0.0
 41
1.0
 50
0.0
 71
     0
 42
0.2
  3
seiso.ttf
  4

  0
ENDTAB
  0
TABLE
  2
VIEW
  5
6
330
0
100
AcDbSymbolTable
 70
     0
  0
ENDTAB
  0
TABLE
  2
UCS
  5
7
330
0
100
AcDbSymbolTable
 70
     0
  0
ENDTAB
  0
TABLE
  2
APPID
  5
9
330
0
100
AcDbSymbolTable
 70
     1
  0
APPID
  5
12
330
9
100
AcDbSymbolTableRecord
100
AcDbRegAppTableRecord
  2
ACAD
 70
     0
  0
ENDTAB
  0
TABLE
  2
DIMSTYLE
  5
A
330
0
100
AcDbSymbolTable
 70
     1
100
AcDbDimStyleTable
  0
DIMSTYLE
105
27
330
A
100
AcDbSymbolTableRecord
100
AcDbDimStyleTableRecord
  2
ISO-25
 70
     0
 41
2.5
 42
0.625
 43
3.75
 44
1.25
 73
     0
 74
     0
 77
     1
 78
     8
140
2.5
141
2.5
143
0.0393700787
147
0.625
171
     3
172
     1
271
     2
272
     2
274
     3
278
    44
283
     0
284
     8
340
11
  0
ENDTAB
  0
TABLE
  2
BLOCK_RECORD
  5
1
330
0
100
AcDbSymbolTable
 70
    10
  0
BLOCK_RECORD
  5
1F
330
1
100
AcDbSymbolTableRecord
100
AcDbBlockTableRecord
  2
*Model_Space
340
22
  0
BLOCK_RECORD
  5
1B
330
1
100
AcDbSymbolTableRecord
100
AcDbBlockTableRecord
  2
*Paper_Space
340
1E
  0
BLOCK_RECORD
  5
5E
330
1
100
AcDbSymbolTableRecord
100
AcDbBlockTableRecord
  2
SEANNOT_GROUP
340
0
102
{BLKREFS
331
5F
102
}
  0
BLOCK_RECORD
  5
65
330
1
100
AcDbSymbolTableRecord
100
AcDbBlockTableRecord
  2
SEANNOT_GROUP1
340
0
102
{BLKREFS
331
66
102
}
  0
BLOCK_RECORD
  5
6B
330
1
100
AcDbSymbolTableRecord
100
AcDbBlockTableRecord
  2
SEANNOT_GROUP2
340
0
102
{BLKREFS
331
6C
102
}
  0
BLOCK_RECORD
  5
71
330
1
100
AcDbSymbolTableRecord
100
AcDbBlockTableRecord
  2
SEANNOT_GROUP3
340
0
102
{BLKREFS
331
72
102
}
  0
BLOCK_RECORD
  5
77
330
1
100
AcDbSymbolTableRecord
100
AcDbBlockTableRecord
  2
SEANNOT_GROUP4
340
0
102
{BLKREFS
331
78
102
}
  0
BLOCK_RECORD
  5
7D
330
1
100
AcDbSymbolTableRecord
100
AcDbBlockTableRecord
  2
SEANNOT_GROUP5
340
0
102
{BLKREFS
331
7E
102
}
  0
BLOCK_RECORD
  5
83
330
1
100
AcDbSymbolTableRecord
100
AcDbBlockTableRecord
  2
SE
340
0
102
{BLKREFS
331
84
102
}
  0
BLOCK_RECORD
  5
BA
330
1
100
AcDbSymbolTableRecord
100
AcDbBlockTableRecord
  2
SE1
340
0
102
{BLKREFS
331
BB
102
}
  0
BLOCK_RECORD
  5
EA
330
1
100
AcDbSymbolTableRecord
100
AcDbBlockTableRecord
  2
SE2
340
0
102
{BLKREFS
331
EB
102
}
  0
ENDTAB
  0
ENDSEC
  0
SECTION
  2
BLOCKS
  0
BLOCK
  5
20
330
1F
100
AcDbEntity
  8
0
100
AcDbBlockBegin
  2
*Model_Space
 70
     0
 10
0.0
 20
0.0
 30
0.0
  3
*Model_Space
  1

  0
ENDBLK
  5
21
330
1F
100
AcDbEntity
  8
0
100
AcDbBlockEnd
  0
BLOCK
  5
1C
330
1B
100
AcDbEntity
 67
     1
  8
0
100
AcDbBlockBegin
  2
*Paper_Space
 70
     0
 10
0.0
 20
0.0
 30
0.0
  3
*Paper_Space
  1

  0
ENDBLK
  5
1D
330
1B
100
AcDbEntity
 67
     1
  8
0
100
AcDbBlockEnd
  0
BLOCK
  5
63
330
5E
100
AcDbEntity
  8
0
100
AcDbBlockBegin
  2
SEANNOT_GROUP
 70
     0
 10
0.0
 20
0.0
 30
0.0
  3
SEANNOT_GROUP
  1

  0
LINE
  5
61
330
5E
100
AcDbEntity
  8
Default
  6
CENTER2
 62
     7
100
AcDbLine
 10
62.9873477176
 20
530.5328004291
 30
0.0
 11
22.9873486117
 21
530.5328004291
 31
0.0
  0
LINE
  5
62
330
5E
100
AcDbEntity
  8
Default
  6
CENTER2
 62
     7
100
AcDbLine
 10
42.9873481647
 20
550.5327999821
 30
0.0
 11
42.9873481647
 21
510.5328008762
 31
0.0
  0
ENDBLK
  5
64
330
5E
100
AcDbEntity
  8
0
100
AcDbBlockEnd
  0
BLOCK
  5
69
330
65
100
AcDbEntity
  8
0
100
AcDbBlockBegin
  2
SEANNOT_GROUP1
 70
     0
 10
0.0
 20
0.0
 30
0.0
  3
SEANNOT_GROUP1
  1

  0
LINE
  5
67
330
65
100
AcDbEntity
  8
Default
  6
CENTER2
 62
     7
100
AcDbLine
 10
62.9873477176
 20
478.0328004291
 30
0.0
 11
22.9873486117
 21
478.0328004291
 31
0.0
  0
LINE
  5
68
330
65
100
AcDbEntity
  8
Default
  6
CENTER2
 62
     7
100
AcDbLine
 10
42.9873481647
 20
498.0327999821
 30
0.0
 11
42.9873481647
 21
458.0328008762
 31
0.0
  0
ENDBLK
  5
6A
330
65
100
AcDbEntity
  8
0
100
AcDbBlockEnd
  0
BLOCK
  5
6F
330
6B
100
AcDbEntity
  8
0
100
AcDbBlockBegin
  2
SEANNOT_GROUP2
 70
     0
 10
0.0
 20
0.0
 30
0.0
  3
SEANNOT_GROUP2
  1

  0
LINE
  5
6D
330
6B
100
AcDbEntity
  8
Default
  6
CENTER2
 62
     7
100
AcDbLine
 10
463.5719068769
 20
478.0328004291
 30
0.0
 11
423.5719077709
 21
478.0328004291
 31
0.0
  0
LINE
  5
6E
330
6B
100
AcDbEntity
  8
Default
  6
CENTER2
 62
     7
100
AcDbLine
 10
443.5719073239
 20
498.0327999821
 30
0.0
 11
443.5719073239
 21
458.0328008762
 31
0.0
  0
ENDBLK
  5
70
330
6B
100
AcDbEntity
  8
0
100
AcDbBlockEnd
  0
BLOCK
  5
75
330
71
100
AcDbEntity
  8
0
100
AcDbBlockBegin
  2
SEANNOT_GROUP3
 70
     0
 10
0.0
 20
0.0
 30
0.0
  3
SEANNOT_GROUP3
  1

  0
LINE
  5
73
330
71
100
AcDbEntity
  8
Default
  6
CENTER2
 62
     7
100
AcDbLine
 10
178.771698139
 20
530.5328010402
 30
0.0
 11
138.7716990331
 21
530.5328010402
 31
0.0
  0
LINE
  5
74
330
71
100
AcDbEntity
  8
Default
  6
CENTER2
 62
     7
100
AcDbLine
 10
158.7716985861
 20
550.5328005932
 30
0.0
 11
158.7716985861
 21
510.5328014872
 31
0.0
  0
ENDBLK
  5
76
330
71
100
AcDbEntity
  8
0
100
AcDbBlockEnd
  0
BLOCK
  5
7B
330
77
100
AcDbEntity
  8
0
100
AcDbBlockBegin
  2
SEANNOT_GROUP4
 70
     0
 10
0.0
 20
0.0
 30
0.0
  3
SEANNOT_GROUP4
  1

  0
LINE
  5
79
330
77
100
AcDbEntity
  8
Default
  6
CENTER2
 62
     7
100
AcDbLine
 10
62.9859812972
 20
401.6502087378
 30
0.0
 11
22.9859821913
 21
401.6502087378
 31
0.0
  0
LINE
  5
7A
330
77
100
AcDbEntity
  8
Default
  6
CENTER2
 62
     7
100
AcDbLine
 10
42.9859817443
 20
421.6502082908
 30
0.0
 11
42.9859817443
 21
381.6502091849
 31
0.0
  0
ENDBLK
  5
7C
330
77
100
AcDbEntity
  8
0
100
AcDbBlockEnd
  0
BLOCK
  5
81
330
7D
100
AcDbEntity
  8
0
100
AcDbBlockBegin
  2
SEANNOT_GROUP5
 70
     0
 10
0.0
 20
0.0
 30
0.0
  3
SEANNOT_GROUP5
  1

  0
LINE
  5
7F
330
7D
100
AcDbEntity
  8
Default
  6
CENTER2
 62
     7
100
AcDbLine
 10
62.9873477176
 20
116.85
 30
0.0
 11
22.9873486117
 21
116.85
 31
0.0
  0
LINE
  5
80
330
7D
100
AcDbEntity
  8
Default
  6
CENTER2
 62
     7
100
AcDbLine
 10
42.9873481647
 20
136.849999553
 30
0.0
 11
42.9873481647
 21
96.850000447
 31
0.0
  0
ENDBLK
  5
82
330
7D
100
AcDbEntity
  8
0
100
AcDbBlockEnd
  0
BLOCK
  5
B8
330
83
100
AcDbEntity
  8
0
100
AcDbBlockBegin
  2
SE
 70
     0
 10
0.0
 20
0.0
 30
0.0
  3
SE
  1

  0
SPLINE
  5
86
330
83
100
AcDbEntity
  8
$DDT_AUDIT_GENERATED_(85)
  6
Continuous
 62
     7
100
AcDbSpline
210
0.0
220
0.0
230
1.0
 70
     8
 71
     3
 72
     8
 73
     4
 74
     0
 42
0.0000000212052875
 43
0.0000000001
 40
0.0
 40
0.0
 40
0.0
 40
0.0
 40
1.0
 40
1.0
 40
1.0
 40
1.0
 10
72.76097287574673
 20
500.4464842230517
 30
0.0
 10
72.90596589527387
 20
500.4960599046013
 30
0.0
 10
73.02271972649145
 20
500.6128097805389
 30
0.0
 10
73.07230031296385
 20
500.7578011395216
 30
0.0
  0
SPLINE
  5
87
330
83
100
AcDbEntity
  8
$DDT_AUDIT_GENERATED_(85)
  6
Continuous
 62
     7
100
AcDbSpline
210
0.0
220
0.0
230
1.0
 70
     8
 71
     3
 72
    14
 73
    10
 74
     0
 42
0.0000000003343897
 43
0.0000000001
 40
0.0
 40
0.0
 40
0.0
 40
0.0
 40
0.5032548676953871
 40
0.5032548676953871
 40
0.6311155262773757
 40
0.6311155262773757
 40
0.7589761848593644
 40
0.7589761848593644
 40
1.0
 40
1.0
 40
1.0
 40
1.0
 10
73.07230031296385
 20
500.7578011395216
 30
0.0
 10
74.70195125027797
 20
505.5234830501366
 30
0.0
 10
75.91843764727375
 20
510.3859516288886
 30
0.0
 10
76.94664694383563
 20
516.5998425061856
 30
0.0
 10
77.12932270655888
 20
517.8662036519175
 30
0.0
 10
77.4420060165906
 20
520.404612049561
 30
0.0
 10
77.57164894393354
 20
521.6731607525776
 30
0.0
 10
77.8701373808822
 20
525.3311356596977
 30
0.0
 10
77.97227841275145
 20
527.7189248676361
 30
0.0
 10
77.98318540572
 20
530.1044758970501
 30
0.0
  0
SPLINE
  5
88
330
83
100
AcDbEntity
  8
$DDT_AUDIT_GENERATED_(85)
  6
Continuous
 62
     7
100
AcDbSpline
210
0.0
220
0.0
230
1.0
 70
     8
 71
     3
 72
     8
 73
     4
 74
     0
 42
0.0000000001645705
 43
0.0000000001
 40
0.0
 40
0.0
 40
0.0
 40
0.0
 40
0.326350854603949
 40
0.326350854603949
 40
0.326350854603949
 40
0.326350854603949
 10
13.2109905647177
 20
500.4464805595758
 30
0.0
 10
19.46220771960193
 20
498.308993007958
 30
0.0
 10
25.93552436506899
 20
496.8691067275089
 30
0.0
 10
32.48597384708603
 20
496.1267920999956
 30
0.0
  0
SPLINE
  5
89
330
83
100
AcDbEntity
  8
$DDT_AUDIT_GENERATED_(85)
  6
Continuous
 62
     7
100
AcDbSpline
210
0.0
220
0.0
230
1.0
 70
     8
 71
     3
 72
     8
 73
     4
 74
     0
 42
0.0000000001645711
 43
0.0000000001
 40
0.6736991781113039
 40
0.6736991781113039
 40
0.6736991781113039
 40
0.6736991781113039
 40
1.0
 40
1.0
 40
1.0
 40
1.0
 10
53.48903907846105
 20
496.1271999091159
 30
0.0
 10
60.03845434670021
 20
496.8696449490242
 30
0.0
 10
66.51073227576873
 20
498.3094162552071
 30
0.0
 10
72.76097287574673
 20
500.4464842230517
 30
0.0
  0
SPLINE
  5
8A
330
83
100
AcDbEntity
  8
$DDT_AUDIT_GENERATED_(85)
  6
Continuous
 62
     7
100
AcDbSpline
210
0.0
220
0.0
230
1.0
 70
     8
 71
     3
 72
     8
 73
     4
 74
     0
 42
0.0000000212047534
 43
0.0000000001
 40
0.0
 40
0.0
 40
0.0
 40
0.0
 40
1.0
 40
1.0
 40
1.0
 40
1.0
 10
12.89966346031197
 20
500.7578114963989
 30
0.0
 10
12.94924031534193
 20
500.6128150267817
 30
0.0
 10
13.06599469050904
 20
500.4960592045787
 30
0.0
 10
13.2109905647177
 20
500.4464805595758
 30
0.0
  0
SPLINE
  5
8B
330
83
100
AcDbEntity
  8
$DDT_AUDIT_GENERATED_(85)
  6
Continuous
 62
     7
100
AcDbSpline
210
0.0
220
0.0
230
1.0
 70
     8
 71
     3
 72
     8
 73
     4
 74
     0
 42
0.0000000001620023
 43
0.0000000001
 40
0.0
 40
0.0
 40
0.0
 40
0.0
 40
1.0
 40
1.0
 40
1.0
 40
1.0
 10
72.76097165275114
 20
560.6191200003053
 30
0.0
 10
53.60607508020004
 20
567.1687811484805
 30
0.0
 10
32.36583296949869
 20
567.1684963353493
 30
0.0
 10
13.21099183581506
 20
560.6191176883782
 30
0.0
  0
SPLINE
  5
8C
330
83
100
AcDbEntity
  8
$DDT_AUDIT_GENERATED_(85)
  6
Continuous
 62
     7
100
AcDbSpline
210
0.0
220
0.0
230
1.0
 70
     8
 71
     3
 72
     8
 73
     4
 74
     0
 42
0.0000000212047534
 43
0.0000000001
 40
0.0
 40
0.0
 40
0.0
 40
0.0
 40
1.0
 40
1.0
 40
1.0
 40
1.0
 10
13.21099183581506
 20
560.6191176883782
 30
0.0
 10
13.06599536629135
 20
560.5695408333808
 30
0.0
 10
12.94923954396397
 20
560.4527864580903
 30
0.0
 10
12.89966089899206
 20
560.3077905839757
 30
0.0
  0
SPLINE
  5
8D
330
83
100
AcDbEntity
  8
$DDT_AUDIT_GENERATED_(85)
  6
Continuous
 62
     7
100
AcDbSpline
210
0.0
220
0.0
230
1.0
 70
     8
 71
     3
 72
     8
 73
     4
 74
     0
 42
0.0000000001620023
 43
0.0000000001
 40
0.0
 40
0.0
 40
0.0
 40
0.0
 40
1.0
 40
1.0
 40
1.0
 40
1.0
 10
12.89966089899206
 20
560.3077905839757
 30
0.0
 10
6.350000000000001
 20
541.1528942017857
 30
0.0
 10
6.350284896479056
 20
519.9126523867827
 30
0.0
 10
12.89966346031197
 20
500.7578114963989
 30
0.0
  0
SPLINE
  5
8E
330
83
100
AcDbEntity
  8
$DDT_AUDIT_GENERATED_(85)
  6
Continuous
 62
     7
100
AcDbSpline
210
0.0
220
0.0
230
1.0
 70
     8
 71
     3
 72
    14
 73
    10
 74
     0
 42
0.0000000003343993
 43
0.0000000001
 40
0.0
 40
0.0
 40
0.0
 40
0.0
 40
0.4970241027707429
 40
0.4970241027707429
 40
0.6248138523932442
 40
0.6248138523932442
 40
0.7526036020157454
 40
0.7526036020157454
 40
1.0
 40
1.0
 40
1.0
 40
1.0
 10
77.98319029604264
 20
530.9607252155987
 30
0.0
 10
77.96081722391781
 20
535.8816866734963
 30
0.0
 10
77.55262450110429
 20
540.7931816388511
 30
0.0
 10
76.53507868046522
 20
546.955093684425
 30
0.0
 10
76.30010847131632
 20
548.214680783107
 30
0.0
 10
75.77906970477314
 20
550.7163518681031
 30
0.0
 10
75.49269490887458
 20
551.960462741773
 30
0.0
 10
74.57568266501242
 20
555.5933027885844
 30
0.0
 10
73.87385921854096
 20
557.9635171994661
 30
0.0
 10
73.07229798135415
 20
560.3077913219171
 30
0.0
  0
SPLINE
  5
8F
330
83
100
AcDbEntity
  8
$DDT_AUDIT_GENERATED_(85)
  6
Continuous
 62
     7
100
AcDbSpline
210
0.0
220
0.0
230
1.0
 70
     8
 71
     3
 72
     8
 73
     4
 74
     0
 42
0.0000000212048718
 43
0.0000000001
 40
0.0
 40
0.0
 40
0.0
 40
0.0
 40
1.0
 40
1.0
 40
1.0
 40
1.0
 10
73.07229798135415
 20
560.3077913219171
 30
0.0
 10
73.02272069596619
 20
560.4527867905158
 30
0.0
 10
72.90596676204193
 20
560.5695416154574
 30
0.0
 10
72.76097165275114
 20
560.6191200003053
 30
0.0
  0
LINE
  5
90
330
83
100
AcDbEntity
  8
$DDT_AUDIT_GENERATED_(85)
  6
Continuous
 62
     7
100
AcDbLine
 10
77.983190296
 20
530.9607252156
 30
0.0
 11
77.9831854057
 21
530.1044758971
 31
0.0
  0
ARC
  5
92
330
83
100
AcDbEntity
  8
$DDT_AUDIT_GENERATED_(91)
  6
Continuous
 62
     7
100
AcDbCircle
 10
562.7997584968
 20
57.9121171378
 30
0.0
 40
702.0582802162016
100
AcDbArc
 50
134.6054759951
 51
136.6806428833
  0
ARC
  5
93
330
83
100
AcDbEntity
  8
$DDT_AUDIT_GENERATED_(91)
  6
Continuous
 62
     7
100
AcDbCircle
 10
-420.0326058521
 20
20.5397628331
 30
0.0
 40
688.327626223795
100
AcDbArc
 50
44.5847775208
 51
46.5355369737
  0
ARC
  5
94
330
83
100
AcDbEntity
  8
$DDT_AUDIT_GENERATED_(91)
  6
Continuous
 62
     7
100
AcDbCircle
 10
515.9672144154
 20
10.3543042477
 30
0.0
 40
702.5710591825568
100
AcDbArc
 50
133.4821305799
 51
135.3937966731
  0
ARC
  5
95
330
83
100
AcDbEntity
  8
$DDT_AUDIT_GENERATED_(91)
  6
Continuous
 62
     7
100
AcDbCircle
 10
-477.1924929348
 20
57.5522880547
 30
0.0
 40
702.5724672081575
100
AcDbArc
 50
43.3201489399
 51
45.3937957805
  0
ARC
  5
96
330
83
100
AcDbEntity
  8
$DDT_AUDIT_GENERATED_(91)
  6
Continuous
 62
     7
100
AcDbCircle
 10
42.9873481647
 20
530.5328004291
 30
0.0
 40
10.75033959597019
100
AcDbArc
 50
0.0
 51
192.3890414468
  0
ARC
  5
97
330
83
100
AcDbEntity
  8
$DDT_AUDIT_GENERATED_(91)
  6
Continuous
 62
     7
100
AcDbCircle
 10
42.9873481647
 20
530.5328004291
 30
0.0
 40
10.75033959597019
100
AcDbArc
 50
347.6109585532
 51
0.0
  0
SPLINE
  5
98
330
83
100
AcDbEntity
  8
$DDT_AUDIT_GENERATED_(91)
  6
Continuous
 62
     7
100
AcDbSpline
210
0.0
220
0.0
230
1.0
 70
     8
 71
     3
 72
    31
 73
    27
 74
     0
 42
0.0000000001831643
 43
0.0000000001
 40
0.0
 40
0.0
 40
0.0
 40
0.0
 40
0.0418589180625159
 40
0.0811898391795138
 40
0.1226358606568944
 40
0.164104735755972
 40
0.2056134996532048
 40
0.2471770469198442
 40
0.2888098739339273
 40
0.3305260712936822
 40
0.3723393189450531
 40
0.4142628825230292
 40
0.4563096109804801
 40
0.4984919355698606
 40
0.540780474407342
 40
0.5828794165570061
 40
0.6249424291556475
 40
0.6669594022238133
 40
0.7089205209851331
 40
0.7508165368248754
 40
0.7926388765799051
 40
0.8343797446992428
 40
0.8760322173417834
 40
0.9175903276063282
 40
0.9590491412737883
 40
1.0
 40
1.0
 40
1.0
 40
1.0
 10
70.3168611127796
 20
503.6837391342435
 30
0.0
 10
70.56833615742663
 20
504.4829685073373
 30
0.0
 10
70.97636899524515
 20
505.7889522716319
 30
0.0
 10
71.59948907611816
 20
507.975919417264
 30
0.0
 10
72.14886803681797
 20
510.1197278913919
 30
0.0
 10
72.65416365688492
 20
512.3302320003539
 30
0.0
 10
73.0999668978308
 20
514.5515820615707
 30
0.0
 10
73.48761371507243
 20
516.7879341762483
 30
0.0
 10
73.81647435042157
 20
519.0372073560127
 30
0.0
 10
74.08644062904868
 20
521.2989596591782
 30
0.0
 10
74.2972593995011
 20
523.5722815086758
 30
0.0
 10
74.44872434990243
 20
525.8563607257488
 30
0.0
 10
74.54058672027095
 20
528.1503310154279
 30
0.0
 10
74.57272065522355
 20
530.4525564935782
 30
0.0
 10
74.5446840647958
 20
532.755790835855
 30
0.0
 10
74.45611006055356
 20
535.0553185554265
 30
0.0
 10
74.30750993337226
 20
537.3467975349347
 30
0.0
 10
74.09890655488127
 20
539.6310719733456
 30
0.0
 10
73.83053477431102
 20
541.9060595394799
 30
0.0
 10
73.50272483922853
 20
544.1695885926397
 30
0.0
 10
73.11572784400404
 20
546.4199841553437
 30
0.0
 10
72.67039489834612
 20
548.6539327514166
 30
0.0
 10
72.16561995060763
 20
550.8744592456633
 30
0.0
 10
71.6078355892893
 20
553.0612816744291
 30
0.0
 10
70.97773013197772
 20
555.2738697001785
 30
0.0
 10
70.56300612295627
 20
556.6006821012719
 30
0.0
 10
70.31685871639138
 20
557.3825333378682
 30
0.0
  0
SPLINE
  5
99
330
83
100
AcDbEntity
  8
$DDT_AUDIT_GENERATED_(91)
  6
Continuous
 62
     7
100
AcDbSpline
210
0.0
220
0.0
230
1.0
 70
     8
 71
     3
 72
    12
 73
     8
 74
     0
 42
0.0000000142247318
 43
0.0000000001
 40
0.0
 40
0.0
 40
0.0
 40
0.0
 40
0.0807250267316688
 40
0.3645573736993929
 40
0.674627073482326
 40
0.9651746316469343
 40
1.0
 40
1.0
 40
1.0
 40
1.0
 10
69.83307010022632
 20
503.2156587572483
 30
0.0
 10
69.85288487479257
 20
503.2211061013949
 30
0.0
 10
69.92931288062084
 20
503.2427016600658
 30
0.0
 10
70.07046232967396
 20
503.3273033613847
 30
0.0
 10
70.20939478477509
 20
503.4738478135619
 30
0.0
 10
70.28820231960003
 20
503.6089549631013
 30
0.0
 10
70.30374659137804
 20
503.6784962414342
 30
0.0
 10
70.3056573379879
 20
503.6871532646766
 30
0.0
  0
SPLINE
  5
9A
330
83
100
AcDbEntity
  8
$DDT_AUDIT_GENERATED_(91)
  6
Continuous
 62
     7
100
AcDbSpline
210
0.0
220
0.0
230
1.0
 70
     8
 71
     3
 72
    12
 73
     8
 74
     0
 42
0.0000000142197311
 43
0.0000000001
 40
0.0
 40
0.0
 40
0.0
 40
0.0
 40
0.0807725755808674
 40
0.3645041119220217
 40
0.6744636591985629
 40
0.964908005817357
 40
1.0
 40
1.0
 40
1.0
 40
1.0
 10
70.30485381281525
 20
557.3788200016966
 30
0.0
 10
70.29940168193723
 20
557.3986535899218
 30
0.0
 10
70.27780263822947
 20
557.4750974254888
 30
0.0
 10
70.19319481556005
 20
557.6162614212388
 30
0.0
 10
70.04664947947661
 20
557.7552010945251
 30
0.0
 10
69.91148199969079
 20
557.8340246463408
 30
0.0
 10
69.84188184973523
 20
557.8495767850485
 30
0.0
 10
69.83315526572156
 20
557.851502016375
 30
0.0
  0
SPLINE
  5
9B
330
83
100
AcDbEntity
  8
$DDT_AUDIT_GENERATED_(91)
  6
Continuous
 62
     7
100
AcDbSpline
210
0.0
220
0.0
230
1.0
 70
     8
 71
     3
 72
    15
 73
    11
 74
     0
 42
0.0000000001831661
 43
0.0000000001
 40
0.0
 40
0.0
 40
0.0
 40
0.0
 40
0.0418592885678002
 40
0.0811901598534844
 40
0.1226361287534309
 40
0.1641049533916492
 40
0.2056136691579772
 40
0.2471771707562793
 40
0.2888099546859959
 40
0.3071861288720957
 40
0.3071861288720957
 40
0.3071861288720957
 40
0.3071861288720957
 10
16.13796372473566
 20
503.2036491670855
 30
0.0
 10
16.93720034191404
 20
502.952171581046
 30
0.0
 10
18.24318937244625
 20
502.5441366895434
 30
0.0
 10
20.43016169240481
 20
501.9210148286141
 30
0.0
 10
22.57396814012485
 20
501.3716361473889
 30
0.0
 10
24.78447018420781
 20
500.8663408059346
 30
0.0
 10
27.00581832906379
 20
500.4205378025977
 30
0.0
 10
29.24216865593364
 20
500.0328911906944
 30
0.0
 10
31.07116213137683
 20
499.7654785508019
 30
0.0
 10
32.15448615314538
 20
499.6280480045667
 30
0.0
 10
32.48646003331955
 20
499.5878905242422
 30
0.0
  0
SPLINE
  5
9C
330
83
100
AcDbEntity
  8
$DDT_AUDIT_GENERATED_(91)
  6
Continuous
 62
     7
100
AcDbSpline
210
0.0
220
0.0
230
1.0
 70
     8
 71
     3
 72
    15
 73
    11
 74
     0
 42
0.0000000001831657
 43
0.0000000001
 40
0.6928215552499087
 40
0.6928215552499087
 40
0.6928215552499087
 40
0.6928215552499087
 40
0.7089203321646926
 40
0.750816337437856
 40
0.7926386693874865
 40
0.8343795324255168
 40
0.8760320026489625
 40
0.9175901130711317
 40
0.9590489293652691
 40
1.0
 40
1.0
 40
1.0
 40
1.0
 10
53.48820705314193
 20
499.5900449529697
 30
0.0
 10
53.77903416565601
 20
499.6252611485865
 30
0.0
 10
54.82607394510249
 20
499.757427896974
 30
0.0
 10
56.62381384899399
 20
500.0177811362847
 30
0.0
 10
58.8742096704849
 20
500.4047782319117
 30
0.0
 10
61.1081586730478
 20
500.8501112958158
 30
0.0
 10
63.32868570256917
 20
501.3548863942089
 30
0.0
 10
65.51550884608216
 20
501.9126708989925
 30
0.0
 10
67.72810125184294
 20
502.5427777059903
 30
0.0
 10
69.05491750012395
 20
502.9575026393746
 30
0.0
 10
69.8367730663726
 20
503.2036512546308
 30
0.0
  0
SPLINE
  5
9D
330
83
100
AcDbEntity
  8
$DDT_AUDIT_GENERATED_(91)
  6
Continuous
 62
     7
100
AcDbSpline
210
0.0
220
0.0
230
1.0
 70
     8
 71
     3
 72
    31
 73
    27
 74
     0
 42
0.0000000001831645
 43
0.0000000001
 40
0.0
 40
0.0
 40
0.0
 40
0.0
 40
0.0417106240526637
 40
0.0810414009967295
 40
0.1224872175200711
 40
0.1639560405542974
 40
0.2054648566127725
 40
0.2470285054387896
 40
0.2886614275648881
 40
0.3303776568318779
 40
0.3721908156406225
 40
0.4141141114280268
 40
0.456160334440544
 40
0.4983418568704101
 40
0.5406296610798892
 40
0.5827286989237465
 40
0.6247918680240564
 40
0.6668090841390947
 40
0.7087705132832343
 40
0.7506668872942419
 40
0.7924896132843657
 40
0.8342308759472229
 40
0.875883731797445
 40
0.9174421945363035
 40
0.9589013109211965
 40
1.0
 40
1.0
 40
1.0
 40
1.0
 10
69.83670118282163
 20
557.8626203092716
 30
0.0
 10
69.04031373020199
 20
558.1132349007603
 30
0.0
 10
67.73667479961605
 20
558.5205959706557
 30
0.0
 10
65.55235055964442
 20
559.1431856695975
 30
0.0
 10
63.40862141208076
 20
559.6927562466522
 30
0.0
 10
61.19816525085346
 20
560.1982584735622
 30
0.0
 10
58.97685871787365
 20
560.6442687718011
 30
0.0
 10
56.74054035425652
 20
561.0321253266017
 30
0.0
 10
54.49129628067588
 20
561.361196829436
 30
0.0
 10
52.22957088167372
 20
561.6313747388274
 30
0.0
 10
49.95627699383844
 20
561.8424054509444
 30
0.0
 10
47.67222991780442
 20
561.9940822699623
 30
0.0
 10
45.37829916996665
 20
562.0861568062605
 30
0.0
 10
43.07611618420442
 20
562.1185014777437
 30
0.0
 10
40.77290785975643
 20
562.0906796667203
 30
0.0
 10
38.47338303583216
 20
562.0023202077617
 30
0.0
 10
36.18188357860303
 20
561.8539333776207
 30
0.0
 10
33.89757914368884
 20
561.6455424256394
 30
0.0
 10
31.62255235934463
 20
561.3773819772418
 30
0.0
 10
29.35897578673511
 20
561.0497820448561
 30
0.0
 10
27.10852608413535
 20
560.6629937958592
 30
0.0
 10
24.87451562055142
 20
560.2178676044875
 30
0.0
 10
22.65392878816895
 20
559.7132999592701
 30
0.0
 10
20.4670181856496
 20
559.155714080926
 30
0.0
 10
18.25179411608501
 20
558.5250828371372
 30
0.0
 10
16.92263966595267
 20
558.109703658055
 30
0.0
 10
16.13795487483839
 20
557.8627057992153
 30
0.0
  0
SPLINE
  5
9E
330
83
100
AcDbEntity
  8
$DDT_AUDIT_GENERATED_(91)
  6
Continuous
 62
     7
100
AcDbSpline
210
0.0
220
0.0
230
1.0
 70
     8
 71
     3
 72
    12
 73
     8
 74
     0
 42
0.0000000142247883
 43
0.0000000001
 40
0.0
 40
0.0
 40
0.0
 40
0.0
 40
0.0806640372870858
 40
0.3644747843628967
 40
0.6745552881127009
 40
0.9651036986475997
 40
1.0
 40
1.0
 40
1.0
 40
1.0
 10
15.66987305872367
 20
503.6874364694163
 30
0.0
 10
15.6753192886455
 20
503.6676375090727
 30
0.0
 10
15.69692136830495
 20
503.5912302439895
 30
0.0
 10
15.78149391452668
 20
503.4500872980672
 30
0.0
 10
15.92803003513007
 20
503.3111452250583
 30
0.0
 10
16.06314889062996
 20
503.2323226561061
 30
0.0
 10
16.13270437335321
 20
503.2167722826181
 30
0.0
 10
16.14137895574536
 20
503.2148573461046
 30
0.0
  0
SPLINE
  5
9F
330
83
100
AcDbEntity
  8
$DDT_AUDIT_GENERATED_(91)
  6
Continuous
 62
     7
100
AcDbSpline
210
0.0
220
0.0
230
1.0
 70
     8
 71
     3
 72
    12
 73
     8
 74
     0
 42
0.000000014219786
 43
0.0000000001
 40
0.0
 40
0.0
 40
0.0
 40
0.0
 40
0.0813649117652295
 40
0.3650444025808183
 40
0.6749140168014719
 40
0.9653491736341823
 40
1.0
 40
1.0
 40
1.0
 40
1.0
 10
16.1416913279197
 20
557.8506216041773
 30
0.0
 10
16.121714551572
 20
557.8451211873559
 30
0.0
 10
16.04517172616907
 20
557.8234554939002
 30
0.0
 10
15.90395383962689
 20
557.7387456133449
 30
0.0
 10
15.76512261157447
 20
557.5921452769181
 30
0.0
 10
15.68639529750021
 20
557.4570642788201
 30
0.0
 10
15.67088103175497
 20
557.3875535106056
 30
0.0
 10
15.66898180472317
 20
557.3789362273401
 30
0.0
  0
SPLINE
  5
A0
330
83
100
AcDbEntity
  8
$DDT_AUDIT_GENERATED_(91)
  6
Continuous
 62
     7
100
AcDbSpline
210
0.0
220
0.0
230
1.0
 70
     8
 71
     3
 72
    32
 73
    28
 74
     0
 42
0.0000000001831639
 43
0.0000000001
 40
0.0
 40
0.0
 40
0.0
 40
0.0
 40
0.0409379974693208
 40
0.0802675337732323
 40
0.1217117547630526
 40
0.1631798273791282
 40
0.2046884797358126
 40
0.2462522594181261
 40
0.2878853092381924
 40
0.3296013603222959
 40
0.3714137280321351
 40
0.4133353091666109
 40
0.4553785805159469
 40
0.497555598831186
 40
0.5398392131924393
 40
0.5819385702085533
 40
0.6240022998519907
 40
0.6660205562558813
 40
0.7079834032378642
 40
0.7498814684356221
 40
0.7917060536480669
 40
0.8334492379271722
 40
0.8751039725812179
 40
0.9166641672711441
 40
0.9581247665683246
 40
0.9994318527623931
 40
1.0
 40
1.0
 40
1.0
 40
1.0
 10
15.65816290646708
 20
557.3823962878241
 30
0.0
 10
15.41203259993259
 20
556.6008078905295
 30
0.0
 10
15.00817350119871
 20
555.3093824287782
 30
0.0
 10
14.38834120061295
 20
553.1388291018615
 30
0.0
 10
13.83776501981833
 20
550.9955253764172
 30
0.0
 10
13.33117694601233
 20
548.7853288126742
 30
0.0
 10
12.88407813344326
 20
546.564256518518
 30
0.0
 10
12.49511842204968
 20
544.3281191112812
 30
0.0
 10
12.16493746833998
 20
542.0790298754755
 30
0.0
 10
11.8936458056769
 20
539.8174462569326
 30
0.0
 10
11.68149950989105
 20
537.5442984555239
 30
0.0
 10
11.52870734408111
 20
535.2604184190089
 30
0.0
 10
11.43551588318711
 20
532.9666928651025
 30
0.0
 10
11.40206154405407
 20
530.6647308197123
 30
0.0
 10
11.42875313834523
 20
528.3616549385067
 30
0.0
 10
11.51598338521229
 20
526.0621399314293
 30
0.0
 10
11.66324719726079
 20
523.7705279832044
 30
0.0
 10
11.87052172693984
 20
521.4860533012395
 30
0.0
 10
12.13756364705654
 20
519.2108371382471
 30
0.0
 10
12.46408169331962
 20
516.9469121675377
 30
0.0
 10
12.84968477329494
 20
514.6965030258467
 30
0.0
 10
13.29404580783569
 20
512.4609102448115
 30
0.0
 10
13.79632248244579
 20
510.2446308044969
 30
0.0
 10
14.35732901568822
 20
508.0400001735587
 30
0.0
 10
14.97123539298151
 20
505.8851522060365
 30
0.0
 10
15.43151185166248
 20
504.382659496064
 30
0.0
 10
15.65437763602049
 20
503.6944030166796
 30
0.0
 10
15.65788136286387
 20
503.683584011603
 30
0.0
  0
SPLINE
  5
A1
330
83
100
AcDbEntity
  8
$DDT_AUDIT_GENERATED_(91)
  6
Continuous
 62
     7
100
AcDbSpline
210
0.0
220
0.0
230
1.0
 70
     8
 71
     3
 72
    12
 73
     8
 74
     0
 42
0.0000000015563142
 43
0.0000000001
 40
0.7338210992107249
 40
0.7338210992107249
 40
0.7338210992107249
 40
0.7338210992107249
 40
0.7912490661360703
 40
0.8568655676943793
 40
0.9217848141266592
 40
0.9808539983924703
 40
1.0
 40
1.0
 40
1.0
 40
1.0
 10
43.91661955011974
 20
551.4107689426291
 30
0.0
 10
43.79882177646342
 20
551.3916148551
 30
0.0
 10
43.54118358554044
 20
551.3582523863857
 30
0.0
 10
43.13555732924203
 20
551.3333614196936
 30
0.0
 10
42.72692681097254
 20
551.3366354255977
 30
0.0
 10
42.41108438111157
 20
551.3608193343191
 30
0.0
 10
42.25728979215818
 20
551.380041545882
 30
0.0
 10
42.21325437683374
 20
551.3856469266191
 30
0.0
  0
SPLINE
  5
A2
330
83
100
AcDbEntity
  8
$DDT_AUDIT_GENERATED_(91)
  6
Continuous
 62
     7
100
AcDbSpline
210
0.0
220
0.0
230
1.0
 70
     8
 71
     3
 72
    10
 73
     6
 74
     0
 42
0.0000000021260521
 43
0.0000000001
 40
0.0
 40
0.0
 40
0.0
 40
0.0
 40
0.0420760731876338
 40
0.123148597880264
 40
0.1259461395436026
 40
0.1259461395436026
 40
0.1259461395436026
 40
0.1259461395436026
 10
42.21325437683374
 20
551.3856469266191
 30
0.0
 10
42.13963787629509
 20
551.396182116636
 30
0.0
 10
41.95682311446463
 20
551.4229923318478
 30
0.0
 10
41.76044732673106
 20
551.4653357754969
 30
0.0
 10
41.63642078556771
 20
551.4973903732415
 30
0.0
 10
41.63229123121423
 20
551.4984638726654
 30
0.0
  0
ARC
  5
A4
330
83
100
AcDbEntity
  8
$DDT_AUDIT_GENERATED_(A3)
  6
Continuous
 62
     7
100
AcDbCircle
 10
42.9873481647
 20
530.5328004291
 30
0.0
 40
10.5
100
AcDbArc
 50
0.0
 51
180.0
  0
LINE
  5
A5
330
83
100
AcDbEntity
  8
$DDT_AUDIT_GENERATED_(A3)
  6
Continuous
 62
     7
100
AcDbLine
 10
53.4873481647
 20
490.0328004291
 30
0.0
 11
32.4873481647
 21
490.0328004291
 31
0.0
  0
LINE
  5
A6
330
83
100
AcDbEntity
  8
$DDT_AUDIT_GENERATED_(A3)
  6
Continuous
 62
     7
100
AcDbLine
 10
33.7098481647
 20
478.0328004291
 30
0.0
 11
52.2648481647
 21
478.0328004291
 31
0.0
  0
LINE
  5
A7
330
83
100
AcDbEntity
  8
$DDT_AUDIT_GENERATED_(A3)
  6
Continuous
 62
     7
100
AcDbLine
 10
53.4648481647
 20
479.2328004291
 30
0.0
 11
32.5098481647
 21
479.2328004291
 31
0.0
  0
LINE
  5
A8
330
83
100
AcDbEntity
  8
$DDT_AUDIT_GENERATED_(A3)
  6
Continuous
 62
     7
100
AcDbLine
 10
32.4873481647
 20
530.5328004291
 30
0.0
 11
32.4873481647
 21
490.0328004291
 31
0.0
  0
LINE
  5
A9
330
83
100
AcDbEntity
  8
$DDT_AUDIT_GENERATED_(A3)
  6
Continuous
 62
     7
100
AcDbLine
 10
53.4873481647
 20
490.0328004291
 30
0.0
 11
53.4873481647
 21
530.5328004291
 31
0.0
  0
LINE
  5
AA
330
83
100
AcDbEntity
  8
$DDT_AUDIT_GENERATED_(A3)
  6
Continuous
 62
     7
100
AcDbLine
 10
53.4648481647
 20
487.5328004291
 30
0.0
 11
53.4648481647
 21
490.0328004291
 31
0.0
  0
LINE
  5
AB
330
83
100
AcDbEntity
  8
$DDT_AUDIT_GENERATED_(A3)
  6
Continuous
 62
     7
100
AcDbLine
 10
32.5098481647
 20
490.0328004291
 30
0.0
 11
32.5098481647
 21
487.5328004291
 31
0.0
  0
LINE
  5
AC
330
83
100
AcDbEntity
  8
$DDT_AUDIT_GENERATED_(A3)
  6
Continuous
 62
     7
100
AcDbLine
 10
53.4648481647
 20
479.2328004291
 30
0.0
 11
53.4648481647
 21
487.5328004291
 31
0.0
  0
LINE
  5
AD
330
83
100
AcDbEntity
  8
$DDT_AUDIT_GENERATED_(A3)
  6
Continuous
 62
     7
100
AcDbLine
 10
32.5098481647
 20
487.5328004291
 30
0.0
 11
32.5098481647
 21
479.2328004291
 31
0.0
  0
LINE
  5
AE
330
83
100
AcDbEntity
  8
$DDT_AUDIT_GENERATED_(A3)
  6
Continuous
 62
     7
100
AcDbLine
 10
32.5098481647
 20
479.2328004291
 30
0.0
 11
33.7098481647
 21
478.0328004291
 31
0.0
  0
LINE
  5
AF
330
83
100
AcDbEntity
  8
$DDT_AUDIT_GENERATED_(A3)
  6
Continuous
 62
     7
100
AcDbLine
 10
52.2648481647
 20
478.0328004291
 30
0.0
 11
53.4648481647
 21
479.2328004291
 31
0.0
  0
LINE
  5
B0
330
83
100
AcDbEntity
  8
$DDT_AUDIT_GENERATED_(A3)
  6
Continuous
 62
     7
100
AcDbLine
 10
33.6718481647
 20
478.0708004291
 30
0.0
 11
33.6718481647
 21
487.5328004291
 31
0.0
  0
LINE
  5
B1
330
83
100
AcDbEntity
  8
$DDT_AUDIT_GENERATED_(A3)
  6
Continuous
 62
     7
100
AcDbLine
 10
52.3028481647
 20
478.0708004291
 30
0.0
 11
52.3028481647
 21
487.5328004291
 31
0.0
  0
LINE
  5
B2
330
83
100
AcDbEntity
  8
$DDT_AUDIT_GENERATED_(A3)
  6
Continuous
 62
     7
100
AcDbLine
 10
53.4648481647
 20
487.5328004291
 30
0.0
 11
32.5098481647
 21
487.5328004291
 31
0.0
  0
ELLIPSE
  5
B4
330
83
100
AcDbEntity
  8
$DDT_AUDIT_GENERATED_(B3)
  6
Continuous
 62
     7
100
AcDbEllipse
 10
42.9873481647
 20
553.9054839841
 30
0.0
 11
3.45
 21
-3.469446951953615E-15
 31
0.0
210
0.0
220
0.0
230
1.0
 40
0.7535540501
 41
4.985673468438515
 42
6.283185307179586
  0
ELLIPSE
  5
B5
330
83
100
AcDbEntity
  8
$DDT_AUDIT_GENERATED_(B3)
  6
Continuous
 62
     7
100
AcDbEllipse
 10
42.9873481647
 20
553.9054839841
 30
0.0
 11
3.45
 21
-3.469446951953615E-15
 31
0.0
210
0.0
220
0.0
230
1.0
 40
0.7535540501
 41
0.0000000000000013
 42
4.4384599610628
  0
LINE
  5
B6
330
83
100
AcDbEntity
  8
$DDT_AUDIT_GENERATED_(B3)
  6
Continuous
 62
     7
100
AcDbLine
 10
46.4373481647
 20
553.6520296287
 30
0.0
 11
46.4373481647
 21
553.9054839841
 31
0.0
  0
LINE
  5
B7
330
83
100
AcDbEntity
  8
$DDT_AUDIT_GENERATED_(B3)
  6
Continuous
 62
     7
100
AcDbLine
 10
39.5373481647
 20
553.9054839841
 30
0.0
 11
39.5373481647
 21
553.6521767452
 31
0.0
  0
ENDBLK
  5
B9
330
83
100
AcDbEntity
  8
0
100
AcDbBlockEnd
  0
BLOCK
  5
E8
330
BA
100
AcDbEntity
  8
0
100
AcDbBlockBegin
  2
SE1
 70
     0
 10
0.0
 20
0.0
 30
0.0
  3
SE1
  1

  0
LINE
  5
BC
330
BA
100
AcDbEntity
  8
$DDT_AUDIT_GENERATED_(85)
  6
Continuous
 62
     7
100
AcDbLine
 10
165.0762705927
 20
560.2643127507
 30
0.0
 11
158.7716985861
 21
560.307790584
 31
0.0
  0
LINE
  5
BD
330
BA
100
AcDbEntity
  8
$DDT_AUDIT_GENERATED_(85)
  6
Continuous
 62
     7
100
AcDbLine
 10
165.5719073239
 20
564.976213684
 30
0.0
 11
165.5719073239
 21
560.1026923577
 31
0.0
  0
LINE
  5
BE
330
BA
100
AcDbEntity
  8
$DDT_AUDIT_GENERATED_(85)
  6
Continuous
 62
     7
100
AcDbLine
 10
165.5719073239
 20
496.0893871246
 30
0.0
 11
165.5719073239
 21
500.9629098007
 31
0.0
  0
LINE
  5
BF
330
BA
100
AcDbEntity
  8
$DDT_AUDIT_GENERATED_(85)
  6
Continuous
 62
     7
100
AcDbLine
 10
165.5719073239
 20
560.1026923577
 30
0.0
 11
165.5719073239
 21
500.9629033662
 31
0.0
  0
LINE
  5
C0
330
BA
100
AcDbEntity
  8
$DDT_AUDIT_GENERATED_(85)
  6
Continuous
 62
     7
100
AcDbLine
 10
165.0762705927
 20
500.489765109
 30
0.0
 11
158.7716985861
 21
500.4464805596
 31
0.0
  0
LINE
  5
C1
330
BA
100
AcDbEntity
  8
$DDT_AUDIT_GENERATED_(85)
  6
Continuous
 62
     7
100
AcDbLine
 10
158.7716985861
 20
495.5343420411
 30
0.0
 11
158.7716985861
 21
500.4464842231
 31
0.0
  0
LINE
  5
C2
330
BA
100
AcDbEntity
  8
$DDT_AUDIT_GENERATED_(85)
  6
Continuous
 62
     7
100
AcDbLine
 10
158.7716985861
 20
500.7578114964
 30
0.0
 11
158.7716985861
 21
500.4464805596
 31
0.0
  0
LINE
  5
C3
330
BA
100
AcDbEntity
  8
$DDT_AUDIT_GENERATED_(85)
  6
Continuous
 62
     7
100
AcDbLine
 10
158.7716985861
 20
565.5312587681
 30
0.0
 11
158.7716985861
 21
560.6191176884
 31
0.0
  0
LINE
  5
C4
330
BA
100
AcDbEntity
  8
$DDT_AUDIT_GENERATED_(85)
  6
Continuous
 62
     7
100
AcDbLine
 10
158.7716985861
 20
560.6191176884
 30
0.0
 11
158.7716985861
 21
560.307790584
 31
0.0
  0
LINE
  5
C5
330
BA
100
AcDbEntity
  8
$DDT_AUDIT_GENERATED_(85)
  6
Continuous
 62
     7
100
AcDbLine
 10
158.7716985861
 20
560.307790584
 30
0.0
 11
158.7716985861
 21
500.7578114964
 31
0.0
  0
ARC
  5
C6
330
BA
100
AcDbEntity
  8
$DDT_AUDIT_GENERATED_(85)
  6
Continuous
 62
     7
100
AcDbCircle
 10
165.0719073239
 20
496.0893844722
 30
0.0
 40
0.4999999999999945
100
AcDbArc
 50
270.8455007072
 51
0.0
  0
ARC
  5
C7
330
BA
100
AcDbEntity
  8
$DDT_AUDIT_GENERATED_(85)
  6
Continuous
 62
     7
100
AcDbCircle
 10
165.0719073239
 20
564.976216337
 30
0.0
 40
0.4999999999997586
100
AcDbArc
 50
0.0
 51
89.8522842298
  0
LINE
  5
C8
330
BA
100
AcDbEntity
  8
$DDT_AUDIT_GENERATED_(85)
  6
Continuous
 62
     7
100
AcDbLine
 10
165.0764398458
 20
565.4761958204
 30
0.0
 11
158.7716985861
 21
565.5312587681
 31
0.0
  0
LINE
  5
C9
330
BA
100
AcDbEntity
  8
$DDT_AUDIT_GENERATED_(85)
  6
Continuous
 62
     7
100
AcDbLine
 10
158.7716985861
 20
495.5343420412
 30
0.0
 11
165.076439846
 21
495.5894049889
 31
0.0
  0
LINE
  5
CA
330
BA
100
AcDbEntity
  8
$DDT_AUDIT_GENERATED_(91)
  6
Continuous
 62
     7
100
AcDbLine
 10
203.1546809058
 20
539.3377615565
 30
0.0
 11
203.1546809058
 21
521.7283369445
 31
0.0
  0
LINE
  5
CB
330
BA
100
AcDbEntity
  8
$DDT_AUDIT_GENERATED_(91)
  6
Continuous
 62
     7
100
AcDbLine
 10
203.1546809058
 20
539.3377615565
 30
0.0
 11
203.1546809058
 21
542.9892434888
 31
0.0
  0
LINE
  5
CC
330
BA
100
AcDbEntity
  8
$DDT_AUDIT_GENERATED_(91)
  6
Continuous
 62
     7
100
AcDbLine
 10
203.1546809058
 20
518.0770517598
 30
0.0
 11
203.1546809058
 21
521.7283369445
 31
0.0
  0
ARC
  5
CD
330
BA
100
AcDbEntity
  8
$DDT_AUDIT_GENERATED_(91)
  6
Continuous
 62
     7
100
AcDbCircle
 10
206.6055408543
 20
593.9754216385
 30
0.0
 40
54.60854619984539
100
AcDbArc
 50
222.1268776571
 51
265.0668469198
  0
ARC
  5
CE
330
BA
100
AcDbEntity
  8
$DDT_AUDIT_GENERATED_(91)
  6
Continuous
 62
     7
100
AcDbCircle
 10
207.6251031995
 20
465.8905744216
 30
0.0
 40
55.89935153684036
100
AcDbArc
 50
95.8689866774
 51
137.9682884896
  0
ARC
  5
CF
330
BA
100
AcDbEntity
  8
$DDT_AUDIT_GENERATED_(91)
  6
Continuous
 62
     7
100
AcDbCircle
 10
198.7030038486
 20
584.9234365747
 30
0.0
 40
38.90256146542435
100
AcDbArc
 50
227.1573707243
 51
239.631903344
  0
ARC
  5
D0
330
BA
100
AcDbEntity
  8
$DDT_AUDIT_GENERATED_(91)
  6
Continuous
 62
     7
100
AcDbCircle
 10
230.3602007233
 20
626.2937942249
 30
0.0
 40
90.89378774207546
100
AcDbArc
 50
225.0005437774
 51
230.2655953746
  0
ARC
  5
D1
330
BA
100
AcDbEntity
  8
$DDT_AUDIT_GENERATED_(91)
  6
Continuous
 62
     7
100
AcDbCircle
 10
204.7840906398
 20
588.1075028214
 30
0.0
 40
44.85524614575366
100
AcDbArc
 50
235.1208028896
 51
267.5449006334
  0
SPLINE
  5
D2
330
BA
100
AcDbEntity
  8
$DDT_AUDIT_GENERATED_(91)
  6
Continuous
 62
     7
100
AcDbSpline
210
0.0
220
0.0
230
1.0
 70
     8
 71
     3
 72
    36
 73
    32
 74
     0
 42
0.0000000002364544
 43
0.0000000001
 40
0.0
 40
0.0
 40
0.0
 40
0.0
 40
0.0669597065469394
 40
0.1363453670165313
 40
0.2010002065928269
 40
0.261217605553154
 40
0.3172691745710531
 40
0.3694048895191105
 40
0.4178533479261666
 40
0.4699913556552862
 40
0.5176870892282059
 40
0.5611989156968263
 40
0.6007508665209008
 40
0.6365349188152928
 40
0.6687135532602575
 40
0.7027577407797102
 40
0.7319941612255009
 40
0.7565704840112231
 40
0.7771529385641793
 40
0.7943097814728279
 40
0.8110139282412125
 40
0.8143745912347289
 40
0.8184108197294864
 40
0.8251113142465198
 40
0.8345189729339718
 40
0.8512454665201205
 40
0.8727111161894827
 40
0.8988695274520422
 40
0.9296813970219377
 40
0.9651254467188528
 40
1.0
 40
1.0
 40
1.0
 40
1.0
 10
166.089195535613
 20
499.0447228609133
 30
0.0
 10
166.8293695047508
 20
499.7726952916444
 30
0.0
 10
168.1027384141536
 20
501.0194064147152
 30
0.0
 10
170.2412137769166
 20
502.9644935730522
 30
0.0
 10
172.3108264495713
 20
504.7359211093994
 30
0.0
 10
174.3028418622732
 20
506.3342645279776
 30
0.0
 10
176.2002131770355
 20
507.7598111490407
 30
0.0
 10
178.0070383608101
 20
509.0295215322177
 30
0.0
 10
179.8067954605827
 20
510.2109915032275
 30
0.0
 10
181.5920329046616
 20
511.2987188476581
 30
0.0
 10
183.3542592466647
 20
512.2878750839194
 30
0.0
 10
184.9920457921363
 20
513.1339215313086
 30
0.0
 10
186.5053812432902
 20
513.8529055238041
 30
0.0
 10
187.8942759058592
 20
514.4596795262881
 30
0.0
 10
189.2285156283844
 20
514.9959297145895
 30
0.0
 10
190.4916518780701
 20
515.460097227757
 30
0.0
 10
191.6663134277297
 20
515.852582638194
 30
0.0
 10
192.6692517939869
 20
516.1589787812939
 30
0.0
 10
193.514831576921
 20
516.3968359716225
 30
0.0
 10
194.2573793657918
 20
516.5906032329759
 30
0.0
 10
194.7672540101931
 20
516.7143067474818
 30
0.0
 10
195.0981907627722
 20
516.7909807609182
 30
0.0
 10
195.291935500581
 20
516.8350892938058
 30
0.0
 10
195.5691349700869
 20
516.8965766629033
 30
0.0
 10
196.0217805439109
 20
516.9930042633764
 30
0.0
 10
196.679909756902
 20
517.1238074469196
 30
0.0
 10
197.5727252666175
 20
517.2825482311752
 30
0.0
 10
198.6673074798033
 20
517.4484777454835
 30
0.0
 10
199.9543172960092
 20
517.6025448135205
 30
0.0
 10
201.403786058824
 20
517.7258642041596
 30
0.0
 10
202.3221941348008
 20
517.7563646532789
 30
0.0
 10
202.86265237603
 20
517.77286600136
 30
0.0
  0
ARC
  5
D3
330
BA
100
AcDbEntity
  8
$DDT_AUDIT_GENERATED_(91)
  6
Continuous
 62
     7
100
AcDbCircle
 10
202.8546809058
 20
542.989244043
 30
0.0
 40
0.2999999999999411
100
AcDbArc
 50
0.0000000935
 51
88.9913902082
  0
ARC
  5
D4
330
BA
100
AcDbEntity
  8
$DDT_AUDIT_GENERATED_(91)
  6
Continuous
 62
     7
100
AcDbCircle
 10
202.8546809058
 20
518.0770512783
 30
0.0
 40
0.3000000000000017
100
AcDbArc
 50
271.7583770036
 51
359.9999999065
  0
ARC
  5
D5
330
BA
100
AcDbEntity
  8
$DDT_AUDIT_GENERATED_(91)
  6
Continuous
 62
     7
100
AcDbCircle
 10
165.8719073239
 20
499.2577885675
 30
0.0
 40
0.3000000000001614
100
AcDbArc
 50
180.000004787
 51
315.7279945863
  0
ARC
  5
D6
330
BA
100
AcDbEntity
  8
$DDT_AUDIT_GENERATED_(91)
  6
Continuous
 62
     7
100
AcDbCircle
 10
165.8719073239
 20
561.808506439
 30
0.0
 40
0.2999999999999688
100
AcDbArc
 50
44.5038089963
 51
179.9999952568
  0
LINE
  5
D7
330
BA
100
AcDbEntity
  8
$DDT_AUDIT_GENERATED_(A3)
  6
Continuous
 62
     7
100
AcDbLine
 10
454.0719073239
 20
490.0328004291
 30
0.0
 11
433.0719073239
 21
490.0328004291
 31
0.0
  0
LINE
  5
D8
330
BA
100
AcDbEntity
  8
$DDT_AUDIT_GENERATED_(A3)
  6
Continuous
 62
     7
100
AcDbLine
 10
434.2944073239
 20
478.0328004291
 30
0.0
 11
452.8494073239
 21
478.0328004291
 31
0.0
  0
LINE
  5
D9
330
BA
100
AcDbEntity
  8
$DDT_AUDIT_GENERATED_(A3)
  6
Continuous
 62
     7
100
AcDbLine
 10
433.0944073239
 20
479.2328004291
 30
0.0
 11
454.0494073239
 21
479.2328004291
 31
0.0
  0
LINE
  5
DA
330
BA
100
AcDbEntity
  8
$DDT_AUDIT_GENERATED_(A3)
  6
Continuous
 62
     7
100
AcDbLine
 10
403.0719073239
 20
541.0328004291
 30
0.0
 11
203.1546809058
 21
541.0328004291
 31
0.0
  0
LINE
  5
DB
330
BA
100
AcDbEntity
  8
$DDT_AUDIT_GENERATED_(A3)
  6
Continuous
 62
     7
100
AcDbLine
 10
203.1546809058
 20
520.0328004291
 30
0.0
 11
403.0719073239
 21
520.0328004291
 31
0.0
  0
ARC
  5
DC
330
BA
100
AcDbEntity
  8
$DDT_AUDIT_GENERATED_(A3)
  6
Continuous
 62
     7
100
AcDbCircle
 10
403.0719073239
 20
490.0328004291
 30
0.0
 40
30.00000000000001
100
AcDbArc
 50
0.0
 51
90.0
  0
ARC
  5
DD
330
BA
100
AcDbEntity
  8
$DDT_AUDIT_GENERATED_(A3)
  6
Continuous
 62
     7
100
AcDbCircle
 10
403.0719073239
 20
490.0328004291
 30
0.0
 40
50.99999999999999
100
AcDbArc
 50
0.0
 51
90.0
  0
LINE
  5
DE
330
BA
100
AcDbEntity
  8
$DDT_AUDIT_GENERATED_(A3)
  6
Continuous
 62
     7
100
AcDbLine
 10
454.0494073239
 20
487.5328004291
 30
0.0
 11
454.0494073239
 21
490.0328004291
 31
0.0
  0
LINE
  5
DF
330
BA
100
AcDbEntity
  8
$DDT_AUDIT_GENERATED_(A3)
  6
Continuous
 62
     7
100
AcDbLine
 10
433.0944073239
 20
490.0328004291
 30
0.0
 11
433.0944073239
 21
487.5328004291
 31
0.0
  0
LINE
  5
E0
330
BA
100
AcDbEntity
  8
$DDT_AUDIT_GENERATED_(A3)
  6
Continuous
 62
     7
100
AcDbLine
 10
454.0494073239
 20
479.2328004291
 30
0.0
 11
454.0494073239
 21
487.5328004291
 31
0.0
  0
LINE
  5
E1
330
BA
100
AcDbEntity
  8
$DDT_AUDIT_GENERATED_(A3)
  6
Continuous
 62
     7
100
AcDbLine
 10
433.0944073239
 20
487.5328004291
 30
0.0
 11
433.0944073239
 21
479.2328004291
 31
0.0
  0
LINE
  5
E2
330
BA
100
AcDbEntity
  8
$DDT_AUDIT_GENERATED_(A3)
  6
Continuous
 62
     7
100
AcDbLine
 10
433.0944073239
 20
479.2328004291
 30
0.0
 11
434.2944073239
 21
478.0328004291
 31
0.0
  0
LINE
  5
E3
330
BA
100
AcDbEntity
  8
$DDT_AUDIT_GENERATED_(A3)
  6
Continuous
 62
     7
100
AcDbLine
 10
452.8494073239
 20
478.0328004291
 30
0.0
 11
454.0494073239
 21
479.2328004291
 31
0.0
  0
LINE
  5
E4
330
BA
100
AcDbEntity
  8
$DDT_AUDIT_GENERATED_(A3)
  6
Continuous
 62
     7
100
AcDbLine
 10
434.2564073239
 20
478.0708004291
 30
0.0
 11
434.2564073239
 21
487.5328004291
 31
0.0
  0
LINE
  5
E5
330
BA
100
AcDbEntity
  8
$DDT_AUDIT_GENERATED_(A3)
  6
Continuous
 62
     7
100
AcDbLine
 10
452.8874073239
 20
478.0708004291
 30
0.0
 11
452.8874073239
 21
487.5328004291
 31
0.0
  0
LINE
  5
E6
330
BA
100
AcDbEntity
  8
$DDT_AUDIT_GENERATED_(A3)
  6
Continuous
 62
     7
100
AcDbLine
 10
454.0494073239
 20
487.5328004291
 30
0.0
 11
433.0944073239
 21
487.5328004291
 31
0.0
  0
LINE
  5
E7
330
BA
100
AcDbEntity
  8
$DDT_AUDIT_GENERATED_(B3)
  6
Continuous
 62
     7
100
AcDbLine
 10
172.1219073239
 20
556.5052454569
 30
0.0
 11
178.736198461
 21
551.5210195821
 31
0.0
  0
ENDBLK
  5
E9
330
BA
100
AcDbEntity
  8
0
100
AcDbBlockEnd
  0
BLOCK
  5
10B
330
EA
100
AcDbEntity
  8
0
100
AcDbBlockBegin
  2
SE2
 70
     0
 10
0.0
 20
0.0
 30
0.0
  3
SE2
  1

  0
LINE
  5
EC
330
EA
100
AcDbEntity
  8
$DDT_AUDIT_GENERATED_(85)
  6
Continuous
 62
     7
100
AcDbLine
 10
12.9429454484
 20
395.3456367312
 30
0.0
 11
12.899660899
 21
401.6502087378
 31
0.0
  0
LINE
  5
ED
330
EA
100
AcDbEntity
  8
$DDT_AUDIT_GENERATED_(85)
  6
Continuous
 62
     7
100
AcDbLine
 10
77.4291610249
 20
394.85
 30
0.0
 11
72.5558736006
 21
394.85
 31
0.0
  0
LINE
  5
EE
330
EA
100
AcDbEntity
  8
$DDT_AUDIT_GENERATED_(85)
  6
Continuous
 62
     7
100
AcDbLine
 10
72.5558736006
 20
394.85
 30
0.0
 11
13.4160837056
 21
394.85
 31
0.0
  0
LINE
  5
EF
330
EA
100
AcDbEntity
  8
$DDT_AUDIT_GENERATED_(85)
  6
Continuous
 62
     7
100
AcDbLine
 10
8.5425674644
 20
394.85
 30
0.0
 11
13.416088791
 21
394.85
 31
0.0
  0
LINE
  5
F0
330
EA
100
AcDbEntity
  8
$DDT_AUDIT_GENERATED_(85)
  6
Continuous
 62
     7
100
AcDbLine
 10
73.0722979814
 20
401.6502087378
 30
0.0
 11
73.0290129799
 21
395.3456367323
 31
0.0
  0
LINE
  5
F1
330
EA
100
AcDbEntity
  8
$DDT_AUDIT_GENERATED_(85)
  6
Continuous
 62
     7
100
AcDbLine
 10
72.7609716528
 20
401.6502087378
 30
0.0
 11
13.2109918358
 21
401.6502087378
 31
0.0
  0
LINE
  5
F2
330
EA
100
AcDbEntity
  8
$DDT_AUDIT_GENERATED_(85)
  6
Continuous
 62
     7
100
AcDbLine
 10
13.2109918358
 20
401.6502087378
 30
0.0
 11
12.899660899
 21
401.6502087378
 31
0.0
  0
LINE
  5
F3
330
EA
100
AcDbEntity
  8
$DDT_AUDIT_GENERATED_(85)
  6
Continuous
 62
     7
100
AcDbLine
 10
7.9875223805
 20
401.6502087378
 30
0.0
 11
12.8996634603
 21
401.6502087378
 31
0.0
  0
LINE
  5
F4
330
EA
100
AcDbEntity
  8
$DDT_AUDIT_GENERATED_(85)
  6
Continuous
 62
     7
100
AcDbLine
 10
77.983190296
 20
401.6502087378
 30
0.0
 11
73.0722979814
 21
401.6502087378
 31
0.0
  0
LINE
  5
F5
330
EA
100
AcDbEntity
  8
$DDT_AUDIT_GENERATED_(85)
  6
Continuous
 62
     7
100
AcDbLine
 10
73.0722979814
 20
401.6502087378
 30
0.0
 11
72.7609716528
 21
401.6502087378
 31
0.0
  0
ARC
  5
F6
330
EA
100
AcDbEntity
  8
$DDT_AUDIT_GENERATED_(85)
  6
Continuous
 62
     7
100
AcDbCircle
 10
77.4291635759
 20
395.35
 30
0.0
 40
0.4999999999984452
100
AcDbArc
 50
269.9999908893
 51
359.8519858868
  0
ARC
  5
F7
330
EA
100
AcDbEntity
  8
$DDT_AUDIT_GENERATED_(85)
  6
Continuous
 62
     7
100
AcDbCircle
 10
8.5425648116
 20
395.35
 30
0.0
 40
0.4999999999999945
100
AcDbArc
 50
180.8455002843
 51
270.0000035804
  0
LINE
  5
F8
330
EA
100
AcDbEntity
  8
$DDT_AUDIT_GENERATED_(85)
  6
Continuous
 62
     7
100
AcDbLine
 10
77.9291445265
 20
395.3456367108
 30
0.0
 11
77.9841636931
 21
401.6502087379
 31
0.0
  0
LINE
  5
F9
330
EA
100
AcDbEntity
  8
$DDT_AUDIT_GENERATED_(85)
  6
Continuous
 62
     7
100
AcDbLine
 10
7.9875223805
 20
401.6502087378
 30
0.0
 11
8.0425853282
 21
395.3454674782
 31
0.0
  0
LINE
  5
FA
330
EA
100
AcDbEntity
  8
$DDT_AUDIT_GENERATED_(91)
  6
Continuous
 62
     7
100
AcDbLine
 10
30.5312523781
 20
357.2672264181
 30
0.0
 11
34.1826483374
 21
357.2672264181
 31
0.0
  0
LINE
  5
FB
330
EA
100
AcDbEntity
  8
$DDT_AUDIT_GENERATED_(91)
  6
Continuous
 62
     7
100
AcDbLine
 10
51.792159697
 20
357.2672264181
 30
0.0
 11
34.1826483374
 21
357.2672264181
 31
0.0
  0
LINE
  5
FC
330
EA
100
AcDbEntity
  8
$DDT_AUDIT_GENERATED_(91)
  6
Continuous
 62
     7
100
AcDbLine
 10
51.792159697
 20
357.2672264181
 30
0.0
 11
55.4434441075
 21
357.2672264181
 31
0.0
  0
ARC
  5
FD
330
EA
100
AcDbEntity
  8
$DDT_AUDIT_GENERATED_(91)
  6
Continuous
 62
     7
100
AcDbCircle
 10
-21.6549356021
 20
352.7969945213
 30
0.0
 40
55.89901565049401
100
AcDbArc
 50
5.8684138412
 51
47.9683789792
  0
ARC
  5
FE
330
EA
100
AcDbEntity
  8
$DDT_AUDIT_GENERATED_(91)
  6
Continuous
 62
     7
100
AcDbCircle
 10
107.8507172268
 20
352.6847208833
 30
0.0
 40
56.1304915751383
100
AcDbArc
 50
132.1225020438
 51
174.0406637902
  0
SPLINE
  5
FF
330
EA
100
AcDbEntity
  8
$DDT_AUDIT_GENERATED_(91)
  6
Continuous
 62
     7
100
AcDbSpline
210
0.0
220
0.0
230
1.0
 70
     8
 71
     3
 72
    25
 73
    21
 74
     0
 42
0.0000000002364292
 43
0.0000000001
 40
0.0
 40
0.0
 40
0.0
 40
0.0
 40
0.0304942108704519
 40
0.0688743564832181
 40
0.1100235012380034
 40
0.1540682458226728
 40
0.2011696195879321
 40
0.2515261672854688
 40
0.3053764418768838
 40
0.3630007878231606
 40
0.418103209552568
 40
0.4767562456978635
 40
0.5392491799685176
 40
0.6058982115551967
 40
0.6770456361240934
 40
0.7363431888421811
 40
0.7988328449803941
 40
0.8647121322976832
 40
0.9341871281431585
 40
1.0
 40
1.0
 40
1.0
 40
1.0
 10
55.74709386000239
 20
357.5593165160209
 30
0.0
 10
55.76097698750884
 20
358.0318911018564
 30
0.0
 10
55.7898192720161
 20
358.9341139983359
 30
0.0
 10
55.91893547133306
 20
360.5134634114828
 30
0.0
 10
56.13192976742872
 20
362.232168171347
 30
0.0
 10
56.44743697521286
 20
364.0737554741403
 30
0.0
 10
56.87848069255608
 20
366.0208975515162
 30
0.0
 10
57.44276948302571
 20
368.0787122114633
 30
0.0
 10
58.15780793227178
 20
370.2456305068911
 30
0.0
 10
59.0085439847435
 20
372.4350681927058
 30
0.0
 10
59.99373816565574
 20
374.6414624139986
 30
0.0
 10
61.11182194834003
 20
376.8607471927332
 30
0.0
 10
62.41145020055379
 20
379.1676727536683
 30
0.0
 10
63.908365371206
 20
381.5621128327139
 30
0.0
 10
65.48554427768005
 20
383.8503877498122
 30
0.0
 10
67.11375574628761
 20
386.0277764541007
 30
0.0
 10
68.77033091113336
 20
388.0951366160371
 30
0.0
 10
70.57474872182503
 20
390.2023133371782
 30
0.0
 10
72.52268528386108
 20
392.3417528747968
 30
0.0
 10
73.76016997782277
 20
393.6053687203207
 30
0.0
 10
74.4757267174618
 20
394.3327627609601
 30
0.0
  0
SPLINE
  5
100
330
EA
100
AcDbEntity
  8
$DDT_AUDIT_GENERATED_(91)
  6
Continuous
 62
     7
100
AcDbSpline
210
0.0
220
0.0
230
1.0
 70
     8
 71
     3
 72
    37
 73
    33
 74
     0
 42
0.0000000002364466
 43
0.0000000001
 40
0.0
 40
0.0
 40
0.0
 40
0.0
 40
0.0509618892277978
 40
0.1045951990759759
 40
0.153685107232682
 40
0.1984652402432869
 40
0.2391460295867499
 40
0.2759157079591913
 40
0.3089413861763885
 40
0.3383701912292663
 40
0.3722324150992293
 40
0.4001823470870174
 40
0.4224250392007273
 40
0.4393784316887909
 40
0.4532417249317775
 40
0.4645227350235207
 40
0.4713111133378428
 40
0.4785656828394473
 40
0.490196872066951
 40
0.5062629101709788
 40
0.526676662550119
 40
0.5513313879543373
 40
0.5801045444010168
 40
0.6128627165704106
 40
0.6541120115368801
 40
0.6999981240800939
 40
0.7503539401529655
 40
0.8050542675731702
 40
0.851042065583583
 40
0.899684680618456
 40
0.9510371763742842
 40
1.0
 40
1.0
 40
1.0
 40
1.0
 10
11.4997026110662
 20
394.3334222942523
 30
0.0
 10
12.05457951170497
 20
393.7709152754865
 30
0.0
 10
13.01313902943133
 20
392.7959596705772
 30
0.0
 10
14.5176112326538
 20
391.1764423742537
 30
0.0
 10
15.89163030299201
 20
389.6304302777994
 30
0.0
 10
17.12093938345367
 20
388.1828134973763
 30
0.0
 10
18.20720111228356
 20
386.8461932562967
 30
0.0
 10
19.16431797936731
 20
385.6176334253397
 30
0.0
 10
20.00221149649018
 20
384.4978054632109
 30
0.0
 10
20.79567798997295
 20
383.3961735814624
 30
0.0
 10
21.52724426353263
 20
382.3383841434457
 30
0.0
 10
22.18202954734112
 20
381.3509583937072
 30
0.0
 10
22.69205417467516
 20
380.5536920054199
 30
0.0
 10
23.08671967060389
 20
379.9184272089991
 30
0.0
 10
23.39448248682053
 20
379.4111126961812
 30
0.0
 10
23.62453095881139
 20
379.0242550551681
 30
0.0
 10
23.80499303866892
 20
378.716297276189
 30
0.0
 10
23.98637606951862
 20
378.4031634379126
 30
0.0
 10
24.23038651403309
 20
377.9751938427415
 30
0.0
 10
24.56026007735749
 20
377.3827029637454
 30
0.0
 10
24.9691063208538
 20
376.6241544844478
 30
0.0
 10
25.4470012287597
 20
375.6995029918615
 30
0.0
 10
25.98184265459651
 20
374.6086805434845
 30
0.0
 10
26.58666854468528
 20
373.292115911967
 30
0.0
 10
27.24351331917167
 20
371.7347069445232
 30
0.0
 10
27.92684506576112
 20
369.9207155513452
 30
0.0
 10
28.5867315568855
 20
367.8970503873399
 30
0.0
 10
29.1416295537754
 20
365.8414381746234
 30
0.0
 10
29.58514614010941
 20
363.780203008431
 30
0.0
 10
29.91430360727181
 20
361.7592579481614
 30
0.0
 10
30.14886752246147
 20
359.628652933259
 30
0.0
 10
30.19915064515946
 20
358.3177247732497
 30
0.0
 10
30.22534670875853
 20
357.5590428270428
 30
0.0
  0
ARC
  5
101
330
EA
100
AcDbEntity
  8
$DDT_AUDIT_GENERATED_(91)
  6
Continuous
 62
     7
100
AcDbCircle
 10
30.5312518892
 20
357.5672264181
 30
0.0
 40
0.3000000000000017
100
AcDbArc
 50
181.7583365728
 51
269.999999922
  0
ARC
  5
102
330
EA
100
AcDbEntity
  8
$DDT_AUDIT_GENERATED_(91)
  6
Continuous
 62
     7
100
AcDbCircle
 10
55.4434446539
 20
357.5672264181
 30
0.0
 40
0.2999999999999563
100
AcDbArc
 50
270.0000000774
 51
358.9911228474
  0
ARC
  5
103
330
EA
100
AcDbEntity
  8
$DDT_AUDIT_GENERATED_(91)
  6
Continuous
 62
     7
100
AcDbCircle
 10
74.2627170221
 20
394.55
 30
0.0
 40
0.2999999999999671
100
AcDbArc
 50
314.5037833399
 51
89.9999952165
  0
ARC
  5
104
330
EA
100
AcDbEntity
  8
$DDT_AUDIT_GENERATED_(91)
  6
Continuous
 62
     7
100
AcDbCircle
 10
11.7119991505
 20
394.55
 30
0.0
 40
0.3000000000001571
100
AcDbArc
 50
90.000004576
 51
225.7279238203
  0
ARC
  5
105
330
EA
100
AcDbEntity
  8
$DDT_AUDIT_GENERATED_(A3)
  6
Continuous
 62
     7
100
AcDbCircle
 10
42.9873481647
 20
116.85
 30
0.0
 40
10.5
100
AcDbArc
 50
180.0
 51
0.0
  0
LINE
  5
106
330
EA
100
AcDbEntity
  8
$DDT_AUDIT_GENERATED_(A3)
  6
Continuous
 62
     7
100
AcDbLine
 10
53.4873481647
 20
157.35
 30
0.0
 11
53.4873481647
 21
357.2672264181
 31
0.0
  0
LINE
  5
107
330
EA
100
AcDbEntity
  8
$DDT_AUDIT_GENERATED_(A3)
  6
Continuous
 62
     7
100
AcDbLine
 10
32.4873481647
 20
357.2672264181
 30
0.0
 11
32.4873481647
 21
157.35
 31
0.0
  0
LINE
  5
108
330
EA
100
AcDbEntity
  8
$DDT_AUDIT_GENERATED_(A3)
  6
Continuous
 62
     7
100
AcDbLine
 10
32.4873481647
 20
157.35
 30
0.0
 11
32.4873481647
 21
116.85
 31
0.0
  0
LINE
  5
109
330
EA
100
AcDbEntity
  8
$DDT_AUDIT_GENERATED_(A3)
  6
Continuous
 62
     7
100
AcDbLine
 10
53.4873481647
 20
116.85
 30
0.0
 11
53.4873481647
 21
157.35
 31
0.0
  0
CIRCLE
  5
10A
330
EA
100
AcDbEntity
  8
$DDT_AUDIT_GENERATED_(B3)
  6
Continuous
 62
     7
100
AcDbCircle
 10
42.9873481647
 20
384.85
 30
0.0
 40
3.449999999999998
  0
ENDBLK
  5
10C
330
EA
100
AcDbEntity
  8
0
100
AcDbBlockEnd
  0
ENDSEC
  0
SECTION
  2
ENTITIES
  0
INSERT
  5
5F
330
1F
100
AcDbEntity
  8
Default
100
AcDbBlockReference
  2
SEANNOT_GROUP
 10
0.0
 20
0.0
 30
0.0
  0
INSERT
  5
66
330
1F
100
AcDbEntity
  8
Default
100
AcDbBlockReference
  2
SEANNOT_GROUP1
 10
0.0
 20
0.0
 30
0.0
  0
INSERT
  5
6C
330
1F
100
AcDbEntity
  8
Default
100
AcDbBlockReference
  2
SEANNOT_GROUP2
 10
0.0
 20
0.0
 30
0.0
  0
INSERT
  5
72
330
1F
100
AcDbEntity
  8
Default
100
AcDbBlockReference
  2
SEANNOT_GROUP3
 10
0.0
 20
0.0
 30
0.0
  0
INSERT
  5
78
330
1F
100
AcDbEntity
  8
Default
100
AcDbBlockReference
  2
SEANNOT_GROUP4
 10
0.0
 20
0.0
 30
0.0
  0
INSERT
  5
7E
330
1F
100
AcDbEntity
  8
Default
100
AcDbBlockReference
  2
SEANNOT_GROUP5
 10
0.0
 20
0.0
 30
0.0
  0
INSERT
  5
84
330
1F
100
AcDbEntity
  8
Default
100
AcDbBlockReference
  2
SE
 10
0.0
 20
0.0
 30
0.0
  0
INSERT
  5
BB
330
1F
100
AcDbEntity
  8
Default
100
AcDbBlockReference
  2
SE1
 10
0.0
 20
0.0
 30
0.0
  0
INSERT
  5
EB
330
1F
100
AcDbEntity
  8
Default
100
AcDbBlockReference
  2
SE2
 10
0.0
 20
0.0
 30
0.0
  0
TEXT
  5
10E
330
1F
100
AcDbEntity
  8
Default
  6
Continuous
 62
     7
100
AcDbText
 10
5.9362635081
 20
53.4225120485
 30
0.0
 40
10.0
  1
Grohe AG^J
  7
SEACAD_seiso_ttf
 11
5.9362635081
 21
63.4225120485
 31
0.0
100
AcDbText
 73
     3
  0
TEXT
  5
10F
330
1F
100
AcDbEntity
  8
Default
  6
Continuous
 62
     7
100
AcDbText
 10
5.9362635081
 20
37.0588756849
 30
0.0
 40
10.0
  1
 
  7
SEACAD_seiso_ttf
 11
5.9362635081
 21
47.0588756849
 31
0.0
100
AcDbText
 73
     3
  0
TEXT
  5
110
330
1F
100
AcDbEntity
  8
Default
  6
Continuous
 62
     7
100
AcDbText
 10
5.9362635081
 20
20.6952393213
 30
0.0
 40
10.0
  1
ecn:
  7
SEACAD_seiso_ttf
 11
5.9362635081
 21
30.6952393213
 31
0.0
100
AcDbText
 73
     3
  0
TEXT
  5
111
330
1F
100
AcDbEntity
  8
Default
  6
Continuous
 62
     7
100
AcDbText
 10
5.9362635081
 20
4.3316029576
 30
0.0
 40
10.0
  1
unit: mm
  7
SEACAD_seiso_ttf
 11
5.9362635081
 21
14.3316029576
 31
0.0
100
AcDbText
 73
     3
  0
LINE
  5
112
330
1F
100
AcDbEntity
  8
Default
  6
Continuous
 62
     7
100
AcDbLine
 10
0.0
 20
0.0
 30
0.0
 11
100.0
 21
0.0
 31
0.0
  0
LINE
  5
113
330
1F
100
AcDbEntity
  8
Default
  6
Continuous
 62
     7
100
AcDbLine
 10
0.0
 20
0.0
 30
0.0
 11
0.0
 21
100.0
 31
0.0
  0
TEXT
  5
114
330
1F
100
AcDbEntity
  8
Default
  6
Continuous
 62
     7
100
AcDbText
 10
24.3923665681
 20
-18.2375342018
 30
0.0
 40
10.0
  1
100 mm
  7
SEACAD_seiso_ttf
 11
24.3923665681
 21
-8.2375342018
 31
0.0
100
AcDbText
 73
     3
  0
TEXT
  5
115
330
1F
100
AcDbEntity
  8
Default
  6
Continuous
 62
     7
100
AcDbText
 10
-7.6150308803
 20
24.6231930421
 30
0.0
 40
10.0
  1
100 mm
 50
90.0
  7
SEACAD_seiso_ttf
 11
-17.6150308803
 21
24.6231930421
 31
0.0
100
AcDbText
 73
     3
  0
TEXT
  5
116
330
1F
100
AcDbEntity
  8
Default
  6
Continuous
 62
     7
100
AcDbText
 10
28.4878128572
 20
20.0907663715
 30
0.0
 40
10.0
  1
226817
  7
SEACAD_seiso_ttf
 11
28.4878128572
 21
30.0907663715
 31
0.0
100
AcDbText
 73
     3
  0
TEXT
  5
117
330
1F
100
AcDbEntity
  8
Default
  6
Continuous
 62
     7
100
AcDbText
 10
5.9012241913
 20
36.7242780188
 30
0.0
 40
10.0
  1
27986000
  7
SEACAD_seiso_ttf
 11
5.9012241913
 21
46.7242780188
 31
0.0
100
AcDbText
 73
     3
  0
ENDSEC
  0
SECTION
  2
OBJECTS
  0
DICTIONARY
  5
C
330
0
100
AcDbDictionary
281
     1
  3
ACAD_GROUP
350
D
  3
ACAD_LAYOUT
350
1A
  3
ACAD_MLEADERSTYLE
350
11B
  3
ACAD_MLINESTYLE
350
17
  3
ACAD_PLOTSETTINGS
350
19
  3
ACAD_PLOTSTYLENAME
350
E
  3
ACAD_SCALELIST
350
3B
  3
ACAD_TABLESTYLE
350
11A
  3
ACAD_VISUALSTYLE
350
2A
  3
AcDbVariableDictionary
350
118
  0
DICTIONARY
  5
D
102
{ACAD_REACTORS
330
C
102
}
330
C
100
AcDbDictionary
281
     1
  0
DICTIONARY
  5
1A
102
{ACAD_REACTORS
330
C
102
}
330
C
100
AcDbDictionary
281
     1
  3
Layout1
350
1E
  3
Model
350
22
  0
DICTIONARY
  5
11B
102
{ACAD_REACTORS
330
C
102
}
330
C
100
AcDbDictionary
281
     1
  0
DICTIONARY
  5
17
102
{ACAD_REACTORS
330
C
102
}
330
C
100
AcDbDictionary
281
     1
  3
Standard
350
18
  0
DICTIONARY
  5
19
102
{ACAD_REACTORS
330
C
102
}
330
C
100
AcDbDictionary
281
     1
  0
ACDBDICTIONARYWDFLT
  5
E
102
{ACAD_REACTORS
330
C
102
}
330
C
100
AcDbDictionary
281
     1
  3
Normal
350
F
100
AcDbDictionaryWithDefault
340
F
  0
DICTIONARY
  5
3B
102
{ACAD_REACTORS
330
C
102
}
330
C
100
AcDbDictionary
281
     1
  3
A0
350
3C
  3
A1
350
3D
  3
A2
350
3E
  3
A3
350
3F
  3
A4
350
40
  3
A5
350
41
  3
A6
350
42
  3
A7
350
43
  3
A8
350
44
  3
A9
350
45
  3
B0
350
46
  3
B1
350
47
  3
B2
350
48
  3
B3
350
49
  3
B4
350
4A
  3
B5
350
4B
  3
B6
350
4C
  3
B7
350
4D
  3
B8
350
4E
  3
B9
350
4F
  3
C0
350
50
  3
C1
350
51
  3
C2
350
52
  3
C3
350
53
  3
C4
350
54
  3
C5
350
55
  3
C6
350
56
  3
C7
350
57
  3
C8
350
58
  3
C9
350
59
  3
D0
350
5A
  3
D1
350
5B
  3
D2
350
5C
  0
DICTIONARY
  5
11A
102
{ACAD_REACTORS
330
C
102
}
330
C
100
AcDbDictionary
281
     1
  0
DICTIONARY
  5
2A
102
{ACAD_REACTORS
330
C
102
}
330
C
100
AcDbDictionary
281
     1
  3
2dWireframe
350
2F
  3
3D Hidden
350
31
  3
3dWireframe
350
30
  3
Basic
350
32
  3
Brighten
350
36
  3
ColorChange
350
3A
  3
Conceptual
350
34
  3
Dim
350
35
  3
Facepattern
350
39
  3
Flat
350
2B
  3
FlatWithEdges
350
2C
  3
Gouraud
350
2D
  3
GouraudWithEdges
350
2E
  3
Linepattern
350
38
  3
Realistic
350
33
  3
Thicken
350
37
  0
DICTIONARY
  5
118
102
{ACAD_REACTORS
330
C
102
}
330
C
100
AcDbDictionary
281
     1
  3
CANNOSCALE
350
119
  3
PSOLHEIGHT
350
11D
  3
PSOLWIDTH
350
11C
  0
LAYOUT
  5
1E
102
{ACAD_REACTORS
330
1A
102
}
330
1A
100
AcDbPlotSettings
  1

  2
none_device
  4

  6

 40
0.0
 41
0.0
 42
0.0
 43
0.0
 44
0.0
 45
0.0
 46
0.0
 47
0.0
 48
0.0
 49
0.0
140
0.0
141
0.0
142
1.0
143
1.0
 70
   688
 72
     0
 73
     0
 74
     5
  7

 75
    16
147
1.0
148
0.0
149
0.0
100
AcDbLayout
  1
Layout1
 70
     1
 71
     1
 10
0.0
 20
0.0
 11
3000.0
 21
4500.0
 12
0.0
 22
0.0
 32
0.0
 14
0.0
 24
0.0
 34
0.0
 15
3000.0
 25
4500.0
 35
0.0
146
0.0
 13
0.0
 23
0.0
 33
0.0
 16
1.0
 26
0.0
 36
0.0
 17
0.0
 27
1.0
 37
0.0
 76
     0
330
1B
  0
LAYOUT
  5
22
102
{ACAD_REACTORS
330
1A
102
}
330
1A
100
AcDbPlotSettings
  1

  2
none_device
  4

  6

 40
0.0
 41
0.0
 42
0.0
 43
0.0
 44
0.0
 45
0.0
 46
0.0
 47
0.0
 48
0.0
 49
0.0
140
0.0
141
0.0
142
1.0
143
1.0
 70
  1712
 72
     0
 73
     0
 74
     0
  7

 75
     0
147
1.0
148
0.0
149
0.0
100
AcDbLayout
  1
Model
 70
     1
 71
     0
 10
0.0
 20
0.0
 11
3000.0
 21
4500.0
 12
0.0
 22
0.0
 32
0.0
 14
0.0
 24
0.0
 34
0.0
 15
3000.0
 25
4500.0
 35
0.0
146
0.0
 13
0.0
 23
0.0
 33
0.0
 16
1.0
 26
0.0
 36
0.0
 17
0.0
 27
1.0
 37
0.0
 76
     0
330
1F
331
29
  0
MLINESTYLE
  5
18
102
{ACAD_REACTORS
330
17
102
}
330
17
100
AcDbMlineStyle
  2
Standard
 70
     0
  3

 62
   256
 51
90.0
 52
90.0
 71
     2
 49
0.5
 62
   256
  6
BYLAYER
 49
-0.5
 62
   256
  6
BYLAYER
  0
ACDBPLACEHOLDER
  5
F
102
{ACAD_REACTORS
330
E
102
}
330
E
  0
SCALE
  5
3C
102
{ACAD_REACTORS
330
3B
102
}
330
3B
100
AcDbScale
 70
     0
300
1:1
140
1.0
141
1.0
290
     1
  0
SCALE
  5
3D
102
{ACAD_REACTORS
330
3B
102
}
330
3B
100
AcDbScale
 70
     0
300
1:2
140
1.0
141
2.0
290
     0
  0
SCALE
  5
3E
102
{ACAD_REACTORS
330
3B
102
}
330
3B
100
AcDbScale
 70
     0
300
1:4
140
1.0
141
4.0
290
     0
  0
SCALE
  5
3F
102
{ACAD_REACTORS
330
3B
102
}
330
3B
100
AcDbScale
 70
     0
300
1:5
140
1.0
141
5.0
290
     0
  0
SCALE
  5
40
102
{ACAD_REACTORS
330
3B
102
}
330
3B
100
AcDbScale
 70
     0
300
1:8
140
1.0
141
8.0
290
     0
  0
SCALE
  5
41
102
{ACAD_REACTORS
330
3B
102
}
330
3B
100
AcDbScale
 70
     0
300
1:10
140
1.0
141
10.0
290
     0
  0
SCALE
  5
42
102
{ACAD_REACTORS
330
3B
102
}
330
3B
100
AcDbScale
 70
     0
300
1:16
140
1.0
141
16.0
290
     0
  0
SCALE
  5
43
102
{ACAD_REACTORS
330
3B
102
}
330
3B
100
AcDbScale
 70
     0
300
1:20
140
1.0
141
20.0
290
     0
  0
SCALE
  5
44
102
{ACAD_REACTORS
330
3B
102
}
330
3B
100
AcDbScale
 70
     0
300
1:30
140
1.0
141
30.0
290
     0
  0
SCALE
  5
45
102
{ACAD_REACTORS
330
3B
102
}
330
3B
100
AcDbScale
 70
     0
300
1:40
140
1.0
141
40.0
290
     0
  0
SCALE
  5
46
102
{ACAD_REACTORS
330
3B
102
}
330
3B
100
AcDbScale
 70
     0
300
1:50
140
1.0
141
50.0
290
     0
  0
SCALE
  5
47
102
{ACAD_REACTORS
330
3B
102
}
330
3B
100
AcDbScale
 70
     0
300
1:100
140
1.0
141
100.0
290
     0
  0
SCALE
  5
48
102
{ACAD_REACTORS
330
3B
102
}
330
3B
100
AcDbScale
 70
     0
300
2:1
140
2.0
141
1.0
290
     0
  0
SCALE
  5
49
102
{ACAD_REACTORS
330
3B
102
}
330
3B
100
AcDbScale
 70
     0
300
4:1
140
4.0
141
1.0
290
     0
  0
SCALE
  5
4A
102
{ACAD_REACTORS
330
3B
102
}
330
3B
100
AcDbScale
 70
     0
300
8:1
140
8.0
141
1.0
290
     0
  0
SCALE
  5
4B
102
{ACAD_REACTORS
330
3B
102
}
330
3B
100
AcDbScale
 70
     0
300
10:1
140
10.0
141
1.0
290
     0
  0
SCALE
  5
4C
102
{ACAD_REACTORS
330
3B
102
}
330
3B
100
AcDbScale
 70
     0
300
100:1
140
100.0
141
1.0
290
     0
  0
SCALE
  5
4D
102
{ACAD_REACTORS
330
3B
102
}
330
3B
100
AcDbScale
 70
     0
300
1/128" = 1'-0"
140
0.0078125
141
12.0
290
     0
  0
SCALE
  5
4E
102
{ACAD_REACTORS
330
3B
102
}
330
3B
100
AcDbScale
 70
     0
300
1/64" = 1'-0"
140
0.015625
141
12.0
290
     0
  0
SCALE
  5
4F
102
{ACAD_REACTORS
330
3B
102
}
330
3B
100
AcDbScale
 70
     0
300
1/32" = 1'-0"
140
0.03125
141
12.0
290
     0
  0
SCALE
  5
50
102
{ACAD_REACTORS
330
3B
102
}
330
3B
100
AcDbScale
 70
     0
300
1/16" = 1'-0"
140
0.0625
141
12.0
290
     0
  0
SCALE
  5
51
102
{ACAD_REACTORS
330
3B
102
}
330
3B
100
AcDbScale
 70
     0
300
3/32" = 1'-0"
140
0.09375
141
12.0
290
     0
  0
SCALE
  5
52
102
{ACAD_REACTORS
330
3B
102
}
330
3B
100
AcDbScale
 70
     0
300
1/8" = 1'-0"
140
0.125
141
12.0
290
     0
  0
SCALE
  5
53
102
{ACAD_REACTORS
330
3B
102
}
330
3B
100
AcDbScale
 70
     0
300
3/16" = 1'-0"
140
0.1875
141
12.0
290
     0
  0
SCALE
  5
54
102
{ACAD_REACTORS
330
3B
102
}
330
3B
100
AcDbScale
 70
     0
300
1/4" = 1'-0"
140
0.25
141
12.0
290
     0
  0
SCALE
  5
55
102
{ACAD_REACTORS
330
3B
102
}
330
3B
100
AcDbScale
 70
     0
300
3/8" = 1'-0"
140
0.375
141
12.0
290
     0
  0
SCALE
  5
56
102
{ACAD_REACTORS
330
3B
102
}
330
3B
100
AcDbScale
 70
     0
300
1/2" = 1'-0"
140
0.5
141
12.0
290
     0
  0
SCALE
  5
57
102
{ACAD_REACTORS
330
3B
102
}
330
3B
100
AcDbScale
 70
     0
300
3/4" = 1'-0"
140
0.75
141
12.0
290
     0
  0
SCALE
  5
58
102
{ACAD_REACTORS
330
3B
102
}
330
3B
100
AcDbScale
 70
     0
300
1" = 1'-0"
140
1.0
141
12.0
290
     0
  0
SCALE
  5
59
102
{ACAD_REACTORS
330
3B
102
}
330
3B
100
AcDbScale
 70
     0
300
1-1/2" = 1'-0"
140
1.5
141
12.0
290
     0
  0
SCALE
  5
5A
102
{ACAD_REACTORS
330
3B
102
}
330
3B
100
AcDbScale
 70
     0
300
3" = 1'-0"
140
3.0
141
12.0
290
     0
  0
SCALE
  5
5B
102
{ACAD_REACTORS
330
3B
102
}
330
3B
100
AcDbScale
 70
     0
300
6" = 1'-0"
140
6.0
141
12.0
290
     0
  0
SCALE
  5
5C
102
{ACAD_REACTORS
330
3B
102
}
330
3B
100
AcDbScale
 70
     0
300
1'-0" = 1'-0"
140
12.0
141
12.0
290
     0
  0
VISUALSTYLE
  5
2F
102
{ACAD_REACTORS
330
2A
102
}
330
2A
100
AcDbVisualStyle
  2
2dWireframe
 70
     4
 71
     0
 72
     2
 73
     0
 90
        0
 40
-0.6
 41
-30.0
 62
     5
 63
     7
 74
     1
 91
        4
 64
     7
 65
   257
 75
     1
175
     1
 42
1.0
 92
        0
 66
   257
 43
1.0
 76
     1
 77
     6
 78
     2
 67
     7
 79
     5
170
     0
171
     0
290
     0
174
     0
 93
        1
 44
0.0
173
     0
291
     0
 45
0.0
1001
ACAD
1000
AcDbSavedByObjectVersion
1070
     0
  0
VISUALSTYLE
  5
31
102
{ACAD_REACTORS
330
2A
102
}
330
2A
100
AcDbVisualStyle
  2
3D Hidden
 70
     6
 71
     1
 72
     2
 73
     2
 90
        0
 40
-0.6
 41
-30.0
 62
     5
 63
     7
 74
     2
 91
        2
 64
     7
 65
   257
 75
     2
175
     1
 42
40.0
 92
        0
 66
   257
 43
1.0
 76
     1
 77
     6
 78
     2
 67
     7
 79
     3
170
     0
171
     0
290
     0
174
     0
 93
        1
 44
0.0
173
     0
291
     0
 45
0.0
1001
ACAD
1000
AcDbSavedByObjectVersion
1070
     0
  0
VISUALSTYLE
  5
30
102
{ACAD_REACTORS
330
2A
102
}
330
2A
100
AcDbVisualStyle
  2
3dWireframe
 70
     5
 71
     0
 72
     2
 73
     0
 90
        0
 40
-0.6
 41
-30.0
 62
     5
 63
     7
 74
     1
 91
        4
 64
     7
 65
   257
 75
     1
175
     1
 42
1.0
 92
        0
 66
   257
 43
1.0
 76
     1
 77
     6
 78
     2
 67
     7
 79
     5
170
     0
171
     0
290
     0
174
     0
 93
        1
 44
0.0
173
     0
291
     0
 45
0.0
1001
ACAD
1000
AcDbSavedByObjectVersion
1070
     0
  0
VISUALSTYLE
  5
32
102
{ACAD_REACTORS
330
2A
102
}
330
2A
100
AcDbVisualStyle
  2
Basic
 70
     7
 71
     1
 72
     0
 73
     1
 90
        0
 40
-0.6
 41
-30.0
 62
     5
 63
     7
 74
     0
 91
        4
 64
     7
 65
   257
 75
     1
175
     1
 42
1.0
 92
        8
 66
     7
 43
1.0
 76
     1
 77
     6
 78
     2
 67
     7
 79
     5
170
     0
171
     0
290
     0
174
     0
 93
        1
 44
0.0
173
     0
291
     1
 45
0.0
1001
ACAD
1000
AcDbSavedByObjectVersion
1070
     0
  0
VISUALSTYLE
  5
36
102
{ACAD_REACTORS
330
2A
102
}
330
2A
100
AcDbVisualStyle
  2
Brighten
 70
    12
 71
     2
 72
     2
 73
     0
 90
        0
 40
-0.6
 41
-30.0
 62
     5
 63
     7
 74
     1
 91
        4
 64
     7
 65
   257
 75
     1
175
     1
 42
1.0
 92
        8
 66
     7
 43
1.0
 76
     1
 77
     6
 78
     2
 67
     7
 79
     5
170
     0
171
     0
290
     0
174
     0
 93
        1
 44
50.0
173
     0
291
     1
 45
0.0
1001
ACAD
1000
AcDbSavedByObjectVersion
1070
     0
  0
VISUALSTYLE
  5
3A
102
{ACAD_REACTORS
330
2A
102
}
330
2A
100
AcDbVisualStyle
  2
ColorChange
 70
    16
 71
     2
 72
     2
 73
     3
 90
        0
 40
-0.6
 41
-30.0
 62
     5
 63
     8
 74
     1
 91
        4
 64
     7
 65
   257
 75
     1
175
     1
 42
1.0
 92
        8
 66
     8
 43
1.0
 76
     1
 77
     6
 78
     2
 67
     7
 79
     5
170
     0
171
     0
290
     0
174
     0
 93
        1
 44
0.0
173
     0
291
     1
 45
0.0
1001
ACAD
1000
AcDbSavedByObjectVersion
1070
     0
  0
VISUALSTYLE
  5
34
102
{ACAD_REACTORS
330
2A
102
}
330
2A
100
AcDbVisualStyle
  2
Conceptual
 70
     9
 71
     3
 72
     2
 73
     0
 90
        0
 40
-0.6
 41
-30.0
 62
     5
 63
     7
 74
     2
 91
        2
 64
     7
 65
   257
 75
     1
175
     1
 42
40.0
 92
        8
 66
     7
 43
1.0
 76
     1
 77
     6
 78
     2
 67
     7
 79
     3
170
     0
171
     0
290
     0
174
     0
 93
        1
 44
0.0
173
     0
291
     0
 45
0.0
1001
ACAD
1000
AcDbSavedByObjectVersion
1070
     0
  0
VISUALSTYLE
  5
35
102
{ACAD_REACTORS
330
2A
102
}
330
2A
100
AcDbVisualStyle
  2
Dim
 70
    11
 71
     2
 72
     2
 73
     0
 90
        0
 40
-0.6
 41
-30.0
 62
     5
 63
     7
 74
     1
 91
        4
 64
     7
 65
   257
 75
     1
175
     1
 42
1.0
 92
        8
 66
     7
 43
1.0
 76
     1
 77
     6
 78
     2
 67
     7
 79
     5
170
     0
171
     0
290
     0
174
     0
 93
        1
 44
-50.0
173
     0
291
     1
 45
0.0
1001
ACAD
1000
AcDbSavedByObjectVersion
1070
     0
  0
VISUALSTYLE
  5
39
102
{ACAD_REACTORS
330
2A
102
}
330
2A
100
AcDbVisualStyle
  2
Facepattern
 70
    15
 71
     2
 72
     2
 73
     0
 90
        0
 40
-0.6
 41
-30.0
 62
     5
 63
     7
 74
     1
 91
        4
 64
     7
 65
   257
 75
     1
175
     1
 42
1.0
 92
        8
 66
     7
 43
1.0
 76
     1
 77
     6
 78
     2
 67
     7
 79
     5
170
     0
171
     0
290
     0
174
     0
 93
        1
 44
0.0
173
     0
291
     1
 45
0.0
1001
ACAD
1000
AcDbSavedByObjectVersion
1070
     0
  0
VISUALSTYLE
  5
2B
102
{ACAD_REACTORS
330
2A
102
}
330
2A
100
AcDbVisualStyle
  2
Flat
 70
     0
 71
     2
 72
     1
 73
     1
 90
        2
 40
-0.6
 41
30.0
 62
     5
 63
     7
 74
     0
 91
        4
 64
     7
 65
   257
 75
     1
175
     1
 42
1.0
 92
        8
 66
     7
 43
1.0
 76
     1
 77
     6
 78
     2
 67
     7
 79
     5
170
     0
171
     0
290
     0
174
     0
 93
       13
 44
0.0
173
     0
291
     1
 45
0.0
1001
ACAD
1000
AcDbSavedByObjectVersion
1070
     0
  0
VISUALSTYLE
  5
2C
102
{ACAD_REACTORS
330
2A
102
}
330
2A
100
AcDbVisualStyle
  2
FlatWithEdges
 70
     1
 71
     2
 72
     1
 73
     1
 90
        2
 40
-0.6
 41
30.0
 62
     5
 63
     7
 74
     1
 91
        4
 64
     7
 65
   257
 75
     1
175
     1
 42
1.0
 92
        0
 66
   257
 43
1.0
 76
     1
 77
     6
 78
     2
 67
     7
 79
     5
170
     0
171
     0
290
     0
174
     0
 93
       13
 44
0.0
173
     0
291
     1
 45
0.0
1001
ACAD
1000
AcDbSavedByObjectVersion
1070
     0
  0
VISUALSTYLE
  5
2D
102
{ACAD_REACTORS
330
2A
102
}
330
2A
100
AcDbVisualStyle
  2
Gouraud
 70
     2
 71
     2
 72
     2
 73
     1
 90
        2
 40
-0.6
 41
30.0
 62
     5
 63
     7
 74
     0
 91
        4
 64
     7
 65
   257
 75
     1
175
     1
 42
1.0
 92
        0
 66
     7
 43
1.0
 76
     1
 77
     6
 78
     2
 67
     7
 79
     5
170
     0
171
     0
290
     0
174
     0
 93
       13
 44
0.0
173
     0
291
     1
 45
0.0
1001
ACAD
1000
AcDbSavedByObjectVersion
1070
     0
  0
VISUALSTYLE
  5
2E
102
{ACAD_REACTORS
330
2A
102
}
330
2A
100
AcDbVisualStyle
  2
GouraudWithEdges
 70
     3
 71
     2
 72
     2
 73
     1
 90
        2
 40
-0.6
 41
30.0
 62
     5
 63
     7
 74
     1
 91
        4
 64
     7
 65
   257
 75
     1
175
     1
 42
1.0
 92
        0
 66
   257
 43
1.0
 76
     1
 77
     6
 78
     2
 67
     7
 79
     5
170
     0
171
     0
290
     0
174
     0
 93
       13
 44
0.0
173
     0
291
     1
 45
0.0
1001
ACAD
1000
AcDbSavedByObjectVersion
1070
     0
  0
VISUALSTYLE
  5
38
102
{ACAD_REACTORS
330
2A
102
}
330
2A
100
AcDbVisualStyle
  2
Linepattern
 70
    14
 71
     2
 72
     2
 73
     0
 90
        0
 40
-0.6
 41
-30.0
 62
     5
 63
     7
 74
     1
 91
        4
 64
     7
 65
   257
 75
     7
175
     7
 42
1.0
 92
        8
 66
     7
 43
1.0
 76
     1
 77
     6
 78
     2
 67
     7
 79
     5
170
     0
171
     0
290
     0
174
     0
 93
        1
 44
0.0
173
     0
291
     1
 45
0.0
1001
ACAD
1000
AcDbSavedByObjectVersion
1070
     0
  0
VISUALSTYLE
  5
33
102
{ACAD_REACTORS
330
2A
102
}
330
2A
100
AcDbVisualStyle
  2
Realistic
 70
     8
 71
     2
 72
     2
 73
     0
 90
        0
 40
-0.6
 41
-30.0
 62
     5
 63
     7
 74
     1
 91
        0
 64
     7
 65
   257
 75
     1
175
     1
 42
1.0
 92
        8
 66
     8
 43
1.0
 76
     1
 77
     6
 78
     2
 67
     7
 79
     5
170
     0
171
     0
290
     0
174
     0
 93
       13
 44
0.0
173
     0
291
     0
 45
0.0
1001
ACAD
1000
AcDbSavedByObjectVersion
1070
     0
  0
VISUALSTYLE
  5
37
102
{ACAD_REACTORS
330
2A
102
}
330
2A
100
AcDbVisualStyle
  2
Thicken
 70
    13
 71
     2
 72
     2
 73
     0
 90
        0
 40
-0.6
 41
-30.0
 62
     5
 63
     7
 74
     1
 91
        4
 64
     7
 65
   257
 75
     1
175
     1
 42
1.0
 92
       12
 66
     7
 43
1.0
 76
     1
 77
     6
 78
     2
 67
     7
 79
     5
170
     0
171
     0
290
     0
174
     0
 93
        1
 44
0.0
173
     0
291
     1
 45
0.0
1001
ACAD
1000
AcDbSavedByObjectVersion
1070
     0
  0
DICTIONARYVAR
  5
119
102
{ACAD_REACTORS
330
118
102
}
330
118
100
DictionaryVariables
280
     0
  1
1:1
  0
DICTIONARYVAR
  5
11D
102
{ACAD_REACTORS
330
118
102
}
330
118
100
DictionaryVariables
280
     0
  1
80.000000
  0
DICTIONARYVAR
  5
11C
102
{ACAD_REACTORS
330
118
102
}
330
118
100
DictionaryVariables
280
     0
  1
5.000000
  0
ENDSEC
  0
EOF
