  0
SECTION
  2
HEADER
  9
$ACADVER
  1
AC1015
  9
$ACADMAINTVER
 70
     6
  9
$DWGCODEPAGE
  3
ANSI_1252
  9
$INSBASE
 10
0.0
 20
0.0
 30
0.0
  9
$EXTMIN
 10
0.0
 20
0.0
 30
0.0
  9
$EXTMAX
 10
3000.0
 20
4500.0
 30
0.0
  9
$LIMMIN
 10
0.0
 20
0.0
  9
$LIMMAX
 10
3000.0
 20
4500.0
  9
$ORTHOMODE
 70
     0
  9
$REGENMODE
 70
     1
  9
$FILLMODE
 70
     1
  9
$QTEXTMODE
 70
     0
  9
$MIRRTEXT
 70
     1
  9
$LTSCALE
 40
1.0
  9
$ATTMODE
 70
     1
  9
$TEXTSIZE
 40
2.5
  9
$TRACEWID
 40
1.0
  9
$TEXTSTYLE
  7
Standard
  9
$CLAYER
  8
0
  9
$CELTYPE
  6
ByLayer
  9
$CECOLOR
 62
   256
  9
$CELTSCALE
 40
1.0
  9
$DISPSILH
 70
     0
  9
$DIMSCALE
 40
1.0
  9
$DIMASZ
 40
2.5
  9
$DIMEXO
 40
0.625
  9
$DIMDLI
 40
3.75
  9
$DIMRND
 40
0.0
  9
$DIMDLE
 40
0.0
  9
$DIMEXE
 40
1.25
  9
$DIMTP
 40
0.0
  9
$DIMTM
 40
0.0
  9
$DIMTXT
 40
2.5
  9
$DIMCEN
 40
2.5
  9
$DIMTSZ
 40
0.0
  9
$DIMTOL
 70
     0
  9
$DIMLIM
 70
     0
  9
$DIMTIH
 70
     0
  9
$DIMTOH
 70
     0
  9
$DIMSE1
 70
     0
  9
$DIMSE2
 70
     0
  9
$DIMTAD
 70
     1
  9
$DIMZIN
 70
     8
  9
$DIMBLK
  1

  9
$DIMASO
 70
     1
  9
$DIMSHO
 70
     1
  9
$DIMPOST
  1

  9
$DIMAPOST
  1

  9
$DIMALT
 70
     0
  9
$DIMALTD
 70
     3
  9
$DIMALTF
 40
0.0393700787
  9
$DIMLFAC
 40
1.0
  9
$DIMTOFL
 70
     1
  9
$DIMTVP
 40
0.0
  9
$DIMTIX
 70
     0
  9
$DIMSOXD
 70
     0
  9
$DIMSAH
 70
     0
  9
$DIMBLK1
  1

  9
$DIMBLK2
  1

  9
$DIMSTYLE
  2
ISO-25
  9
$DIMCLRD
 70
     0
  9
$DIMCLRE
 70
     0
  9
$DIMCLRT
 70
     0
  9
$DIMTFAC
 40
1.0
  9
$DIMGAP
 40
0.625
  9
$DIMJUST
 70
     0
  9
$DIMSD1
 70
     0
  9
$DIMSD2
 70
     0
  9
$DIMTOLJ
 70
     0
  9
$DIMTZIN
 70
     8
  9
$DIMALTZ
 70
     0
  9
$DIMALTTZ
 70
     0
  9
$DIMUPT
 70
     0
  9
$DIMDEC
 70
     2
  9
$DIMTDEC
 70
     2
  9
$DIMALTU
 70
     2
  9
$DIMALTTD
 70
     3
  9
$DIMTXSTY
  7
Standard
  9
$DIMAUNIT
 70
     0
  9
$DIMADEC
 70
     0
  9
$DIMALTRND
 40
0.0
  9
$DIMAZIN
 70
     0
  9
$DIMDSEP
 70
    44
  9
$DIMATFIT
 70
     3
  9
$DIMFRAC
 70
     0
  9
$DIMLDRBLK
  1

  9
$DIMLUNIT
 70
     2
  9
$DIMLWD
 70
    -2
  9
$DIMLWE
 70
    -2
  9
$DIMTMOVE
 70
     0
  9
$LUNITS
 70
     2
  9
$LUPREC
 70
     4
  9
$SKETCHINC
 40
1.0
  9
$FILLETRAD
 40
10.0
  9
$AUNITS
 70
     0
  9
$AUPREC
 70
     0
  9
$MENU
  1
.
  9
$ELEVATION
 40
0.0
  9
$PELEVATION
 40
0.0
  9
$THICKNESS
 40
0.0
  9
$LIMCHECK
 70
     0
  9
$CHAMFERA
 40
10.0
  9
$CHAMFERB
 40
10.0
  9
$CHAMFERC
 40
20.0
  9
$CHAMFERD
 40
0.0
  9
$SKPOLY
 70
     0
  9
$TDCREATE
 40
2456248.478889711
  9
$TDUCREATE
 40
2456248.437223044
  9
$TDUPDATE
 40
2456248.478889722
  9
$TDUUPDATE
 40
2456248.437223055
  9
$TDINDWG
 40
0.0000000116
  9
$TDUSRTIMER
 40
0.0000000116
  9
$USRTIMER
 70
     1
  9
$ANGBASE
 50
0.0
  9
$ANGDIR
 70
     0
  9
$PDMODE
 70
     0
  9
$PDSIZE
 40
0.0
  9
$PLINEWID
 40
0.0
  9
$SPLFRAME
 70
     0
  9
$SPLINETYPE
 70
     6
  9
$SPLINESEGS
 70
     8
  9
$HANDSEED
  5
460
  9
$SURFTAB1
 70
     6
  9
$SURFTAB2
 70
     6
  9
$SURFTYPE
 70
     6
  9
$SURFU
 70
     6
  9
$SURFV
 70
     6
  9
$UCSBASE
  2

  9
$UCSNAME
  2

  9
$UCSORG
 10
0.0
 20
0.0
 30
0.0
  9
$UCSXDIR
 10
1.0
 20
0.0
 30
0.0
  9
$UCSYDIR
 10
0.0
 20
1.0
 30
0.0
  9
$UCSORTHOREF
  2

  9
$UCSORTHOVIEW
 70
     0
  9
$UCSORGTOP
 10
0.0
 20
0.0
 30
0.0
  9
$UCSORGBOTTOM
 10
0.0
 20
0.0
 30
0.0
  9
$UCSORGLEFT
 10
0.0
 20
0.0
 30
0.0
  9
$UCSORGRIGHT
 10
0.0
 20
0.0
 30
0.0
  9
$UCSORGFRONT
 10
0.0
 20
0.0
 30
0.0
  9
$UCSORGBACK
 10
0.0
 20
0.0
 30
0.0
  9
$PUCSBASE
  2

  9
$PUCSNAME
  2

  9
$PUCSORG
 10
0.0
 20
0.0
 30
0.0
  9
$PUCSXDIR
 10
1.0
 20
0.0
 30
0.0
  9
$PUCSYDIR
 10
0.0
 20
1.0
 30
0.0
  9
$PUCSORTHOREF
  2

  9
$PUCSORTHOVIEW
 70
     0
  9
$PUCSORGTOP
 10
0.0
 20
0.0
 30
0.0
  9
$PUCSORGBOTTOM
 10
0.0
 20
0.0
 30
0.0
  9
$PUCSORGLEFT
 10
0.0
 20
0.0
 30
0.0
  9
$PUCSORGRIGHT
 10
0.0
 20
0.0
 30
0.0
  9
$PUCSORGFRONT
 10
0.0
 20
0.0
 30
0.0
  9
$PUCSORGBACK
 10
0.0
 20
0.0
 30
0.0
  9
$USERI1
 70
     0
  9
$USERI2
 70
     0
  9
$USERI3
 70
     0
  9
$USERI4
 70
     0
  9
$USERI5
 70
     0
  9
$USERR1
 40
0.0
  9
$USERR2
 40
0.0
  9
$USERR3
 40
0.0
  9
$USERR4
 40
0.0
  9
$USERR5
 40
0.0
  9
$WORLDVIEW
 70
     1
  9
$SHADEDGE
 70
     3
  9
$SHADEDIF
 70
    70
  9
$TILEMODE
 70
     1
  9
$MAXACTVP
 70
    64
  9
$PINSBASE
 10
0.0
 20
0.0
 30
0.0
  9
$PLIMCHECK
 70
     0
  9
$PEXTMIN
 10
0.0
 20
0.0
 30
0.0
  9
$PEXTMAX
 10
3000.0
 20
4500.0
 30
0.0
  9
$PLIMMIN
 10
0.0
 20
0.0
  9
$PLIMMAX
 10
3000.0
 20
4500.0
  9
$UNITMODE
 70
     0
  9
$VISRETAIN
 70
     1
  9
$PLINEGEN
 70
     0
  9
$PSLTSCALE
 70
     1
  9
$TREEDEPTH
 70
  3020
  9
$CMLSTYLE
  2
Standard
  9
$CMLJUST
 70
     0
  9
$CMLSCALE
 40
20.0
  9
$PROXYGRAPHICS
 70
     1
  9
$MEASUREMENT
 70
     1
  9
$CELWEIGHT
370
    -1
  9
$ENDCAPS
280
     0
  9
$JOINSTYLE
280
     0
  9
$LWDISPLAY
290
     0
  9
$INSUNITS
 70
     4
  9
$HYPERLINKBASE
  1

  9
$STYLESHEET
  1

  9
$XEDIT
290
     1
  9
$CEPSNTYPE
380
     0
  9
$PSTYLEMODE
290
     1
  9
$FINGERPRINTGUID
  2
{411158BF-2766-4A03-BC15-7CEE61ADA5B6}
  9
$VERSIONGUID
  2
{FAEB1C32-E019-11D5-929B-00C0DF256EC4}
  9
$EXTNAMES
290
     1
  9
$PSVPSCALE
 40
0.0
  9
$OLESTARTUP
290
     0
  0
ENDSEC
  0
SECTION
  2
CLASSES
  0
CLASS
  1
ACDBDICTIONARYWDFLT
  2
AcDbDictionaryWithDefault
  3
ObjectDBX Classes
 90
        0
280
     0
281
     0
  0
CLASS
  1
VISUALSTYLE
  2
AcDbVisualStyle
  3
ObjectDBX Classes
 90
     4095
280
     0
281
     0
  0
CLASS
  1
SCALE
  2
AcDbScale
  3
ObjectDBX Classes
 90
     1153
280
     0
281
     0
  0
CLASS
  1
DICTIONARYVAR
  2
AcDbDictionaryVar
  3
ObjectDBX Classes
 90
        0
280
     0
281
     0
  0
CLASS
  1
ACDBPLACEHOLDER
  2
AcDbPlaceHolder
  3
ObjectDBX Classes
 90
        0
280
     0
281
     0
  0
CLASS
  1
LAYOUT
  2
AcDbLayout
  3
ObjectDBX Classes
 90
        0
280
     0
281
     0
  0
ENDSEC
  0
SECTION
  2
TABLES
  0
TABLE
  2
VPORT
  5
8
330
0
100
AcDbSymbolTable
 70
     1
  0
VPORT
  5
29
330
8
100
AcDbSymbolTableRecord
100
AcDbViewportTableRecord
  2
*Active
 70
     0
 10
0.0
 20
0.0
 11
1.0
 21
1.0
 12
344.1869158879
 22
148.5
 13
0.0
 23
0.0
 14
10.0
 24
10.0
 15
10.0
 25
10.0
 16
0.0
 26
0.0
 36
1.0
 17
0.0
 27
0.0
 37
0.0
 40
297.0
 41
1.9729729729
 42
50.0
 43
0.0
 44
0.0
 50
0.0
 51
0.0
 71
     0
 72
   100
 73
     1
 74
     3
 75
     0
 76
     0
 77
     0
 78
     0
281
     0
 65
     1
110
0.0
120
0.0
130
0.0
111
1.0
121
0.0
131
0.0
112
0.0
122
1.0
132
0.0
 79
     0
146
0.0
  0
ENDTAB
  0
TABLE
  2
LTYPE
  5
5
330
0
100
AcDbSymbolTable
 70
     2
  0
LTYPE
  5
14
330
5
100
AcDbSymbolTableRecord
100
AcDbLinetypeTableRecord
  2
ByBlock
 70
     0
  3

 72
    65
 73
     0
 40
0.0
  0
LTYPE
  5
15
330
5
100
AcDbSymbolTableRecord
100
AcDbLinetypeTableRecord
  2
ByLayer
 70
     0
  3

 72
    65
 73
     0
 40
0.0
  0
LTYPE
  5
16
330
5
100
AcDbSymbolTableRecord
100
AcDbLinetypeTableRecord
  2
Continuous
 70
     0
  3
Solid line
 72
    65
 73
     0
 40
0.0
  0
LTYPE
  5
6B
330
5
100
AcDbSymbolTableRecord
100
AcDbLinetypeTableRecord
  2
CENTER2
 70
     0
  3
Center (.5x) ___ _ ___ _ ___ _ ___ _ ___ _ ___
 72
    65
 73
     4
 40
28.575
 49
19.05
 74
     4
 75
     0
340
0
 46
0.0
 50
0.0
 44
0.0
 45
0.0
 49
-3.175
 74
     4
 75
     0
340
0
 46
0.0
 50
0.0
 44
0.0
 45
0.0
 49
3.175
 74
     4
 75
     0
340
0
 46
0.0
 50
0.0
 44
0.0
 45
0.0
 49
-3.175
 74
     4
 75
     0
340
0
 46
0.0
 50
0.0
 44
0.0
 45
0.0
  0
ENDTAB
  0
TABLE
  2
LAYER
  5
2
330
0
100
AcDbSymbolTable
 70
     5
  0
LAYER
  5
10
330
2
100
AcDbSymbolTableRecord
100
AcDbLayerTableRecord
  2
0
 70
     0
 62
     7
  6
Continuous
370
    -3
390
F
  0
LAYER
  5
5D
330
2
100
AcDbSymbolTableRecord
100
AcDbLayerTableRecord
  2
Default
 70
     0
 62
     7
  6
Continuous
370
    -3
390
F
  0
LAYER
  5
7F
330
2
100
AcDbSymbolTableRecord
100
AcDbLayerTableRecord
  2
DV1_Default
 70
     0
 62
     7
  6
Continuous
370
    -3
390
F
  0
LAYER
  5
1CC
330
2
100
AcDbSymbolTableRecord
100
AcDbLayerTableRecord
  2
DV2_Default
 70
     0
 62
     7
  6
Continuous
370
    -3
390
F
  0
LAYER
  5
2DC
330
2
100
AcDbSymbolTableRecord
100
AcDbLayerTableRecord
  2
DV3_Default
 70
     0
 62
     7
  6
Continuous
370
    -3
390
F
  0
ENDTAB
  0
TABLE
  2
STYLE
  5
3
330
0
100
AcDbSymbolTable
 70
     2
  0
STYLE
  5
11
330
3
100
AcDbSymbolTableRecord
100
AcDbTextStyleTableRecord
  2
Standard
 70
     0
 40
0.0
 41
1.0
 50
0.0
 71
     0
 42
2.5
  3
txt
  4

  0
STYLE
  5
44F
330
3
100
AcDbSymbolTableRecord
100
AcDbTextStyleTableRecord
  2
SEACAD_seiso_ttf
 70
     0
 40
0.0
 41
1.0
 50
0.0
 71
     0
 42
0.2
  3
seiso.ttf
  4

  0
ENDTAB
  0
TABLE
  2
VIEW
  5
6
330
0
100
AcDbSymbolTable
 70
     0
  0
ENDTAB
  0
TABLE
  2
UCS
  5
7
330
0
100
AcDbSymbolTable
 70
     0
  0
ENDTAB
  0
TABLE
  2
APPID
  5
9
330
0
100
AcDbSymbolTable
 70
     1
  0
APPID
  5
12
330
9
100
AcDbSymbolTableRecord
100
AcDbRegAppTableRecord
  2
ACAD
 70
     0
  0
ENDTAB
  0
TABLE
  2
DIMSTYLE
  5
A
330
0
100
AcDbSymbolTable
 70
     1
100
AcDbDimStyleTable
  0
DIMSTYLE
105
27
330
A
100
AcDbSymbolTableRecord
100
AcDbDimStyleTableRecord
  2
ISO-25
 70
     0
 41
2.5
 42
0.625
 43
3.75
 44
1.25
 73
     0
 74
     0
 77
     1
 78
     8
140
2.5
141
2.5
143
0.0393700787
147
0.625
171
     3
172
     1
271
     2
272
     2
274
     3
278
    44
283
     0
284
     8
340
11
  0
ENDTAB
  0
TABLE
  2
BLOCK_RECORD
  5
1
330
0
100
AcDbSymbolTable
 70
     7
  0
BLOCK_RECORD
  5
1F
330
1
100
AcDbSymbolTableRecord
100
AcDbBlockTableRecord
  2
*Model_Space
340
22
  0
BLOCK_RECORD
  5
1B
330
1
100
AcDbSymbolTableRecord
100
AcDbBlockTableRecord
  2
*Paper_Space
340
1E
  0
BLOCK_RECORD
  5
69
330
1
100
AcDbSymbolTableRecord
100
AcDbBlockTableRecord
  2
SEANNOT_GROUP
340
0
102
{BLKREFS
331
6A
102
}
  0
BLOCK_RECORD
  5
71
330
1
100
AcDbSymbolTableRecord
100
AcDbBlockTableRecord
  2
SEANNOT_GROUP1
340
0
102
{BLKREFS
331
72
102
}
  0
BLOCK_RECORD
  5
77
330
1
100
AcDbSymbolTableRecord
100
AcDbBlockTableRecord
  2
SEANNOT_GROUP2
340
0
102
{BLKREFS
331
78
102
}
  0
BLOCK_RECORD
  5
7D
330
1
100
AcDbSymbolTableRecord
100
AcDbBlockTableRecord
  2
SE
340
0
102
{BLKREFS
331
7E
102
}
  0
BLOCK_RECORD
  5
1CA
330
1
100
AcDbSymbolTableRecord
100
AcDbBlockTableRecord
  2
SE1
340
0
102
{BLKREFS
331
1CB
102
}
  0
BLOCK_RECORD
  5
2DA
330
1
100
AcDbSymbolTableRecord
100
AcDbBlockTableRecord
  2
SE2
340
0
102
{BLKREFS
331
2DB
102
}
  0
ENDTAB
  0
ENDSEC
  0
SECTION
  2
BLOCKS
  0
BLOCK
  5
20
330
1F
100
AcDbEntity
  8
0
100
AcDbBlockBegin
  2
*Model_Space
 70
     0
 10
0.0
 20
0.0
 30
0.0
  3
*Model_Space
  1

  0
ENDBLK
  5
21
330
1F
100
AcDbEntity
  8
0
100
AcDbBlockEnd
  0
BLOCK
  5
1C
330
1B
100
AcDbEntity
 67
     1
  8
0
100
AcDbBlockBegin
  2
*Paper_Space
 70
     0
 10
0.0
 20
0.0
 30
0.0
  3
*Paper_Space
  1

  0
ENDBLK
  5
1D
330
1B
100
AcDbEntity
 67
     1
  8
0
100
AcDbBlockEnd
  0
BLOCK
  5
6E
330
69
100
AcDbEntity
  8
0
100
AcDbBlockBegin
  2
SEANNOT_GROUP
 70
     0
 10
0.0
 20
0.0
 30
0.0
  3
SEANNOT_GROUP
  1

  0
LINE
  5
6C
330
69
100
AcDbEntity
  8
Default
  6
CENTER2
 62
     7
100
AcDbLine
 10
115.9248748234
 20
164.336983955
 30
0.0
 11
75.9248757175
 21
164.336983955
 31
0.0
  0
LINE
  5
6D
330
69
100
AcDbEntity
  8
Default
  6
CENTER2
 62
     7
100
AcDbLine
 10
95.9248752704
 20
184.336983508
 30
0.0
 11
95.9248752704
 21
144.3369844021
 31
0.0
  0
ENDBLK
  5
6F
330
69
100
AcDbEntity
  8
0
100
AcDbBlockEnd
  0
BLOCK
  5
75
330
71
100
AcDbEntity
  8
0
100
AcDbBlockBegin
  2
SEANNOT_GROUP1
 70
     0
 10
0.0
 20
0.0
 30
0.0
  3
SEANNOT_GROUP1
  1

  0
LINE
  5
73
330
71
100
AcDbEntity
  8
Default
  6
CENTER2
 62
     7
100
AcDbLine
 10
115.9248786853
 20
401.0873185543
 30
0.0
 11
75.9248795793
 21
401.0873185543
 31
0.0
  0
LINE
  5
74
330
71
100
AcDbEntity
  8
Default
  6
CENTER2
 62
     7
100
AcDbLine
 10
95.9248791323
 20
421.0873181072
 30
0.0
 11
95.9248791323
 21
381.0873190013
 31
0.0
  0
ENDBLK
  5
76
330
71
100
AcDbEntity
  8
0
100
AcDbBlockEnd
  0
BLOCK
  5
7B
330
77
100
AcDbEntity
  8
0
100
AcDbBlockBegin
  2
SEANNOT_GROUP2
 70
     0
 10
0.0
 20
0.0
 30
0.0
  3
SEANNOT_GROUP2
  1

  0
LINE
  5
79
330
77
100
AcDbEntity
  8
Default
  6
CENTER2
 62
     7
100
AcDbLine
 10
268.1587175989
 20
402.0658274545
 30
0.0
 11
228.1587184929
 21
402.0658274545
 31
0.0
  0
LINE
  5
7A
330
77
100
AcDbEntity
  8
Default
  6
CENTER2
 62
     7
100
AcDbLine
 10
248.1587180459
 20
422.0658270075
 30
0.0
 11
248.1587180459
 21
382.0658279015
 31
0.0
  0
ENDBLK
  5
7C
330
77
100
AcDbEntity
  8
0
100
AcDbBlockEnd
  0
BLOCK
  5
1C8
330
7D
100
AcDbEntity
  8
0
100
AcDbBlockBegin
  2
SE
 70
     0
 10
0.0
 20
0.0
 30
0.0
  3
SE
  1

  0
LINE
  5
80
330
7D
100
AcDbEntity
  8
DV1_Default
  6
Continuous
 62
     7
100
AcDbLine
 10
296.145841655
 20
405.5872769982
 30
0.0
 11
296.145841655
 21
405.2223484108
 31
0.0
  0
ARC
  5
81
330
7D
100
AcDbEntity
  8
DV1_Default
  6
Continuous
 62
     7
100
AcDbCircle
 10
296.6452585516
 20
405.1630967415
 30
0.0
 40
0.4994886797898368
100
AcDbArc
 50
138.7122454673
 51
179.9020750276
  0
LINE
  5
82
330
7D
100
AcDbEntity
  8
DV1_Default
  6
Continuous
 62
     7
100
AcDbLine
 10
306.1456996475
 20
396.1347552265
 30
0.0
 11
306.1456994981
 21
405.163944996
 31
0.0
  0
LINE
  5
83
330
7D
100
AcDbEntity
  8
DV1_Default
  6
Continuous
 62
     7
100
AcDbLine
 10
296.1456995477
 20
405.1639504238
 30
0.0
 11
296.1456995477
 21
405.1347769649
 31
0.0
  0
LINE
  5
84
330
7D
100
AcDbEntity
  8
DV1_Default
  6
Continuous
 62
     7
100
AcDbLine
 10
296.1458416543
 20
404.7880042052
 30
0.0
 11
296.1458416543
 21
405.0883770035
 31
0.0
  0
ARC
  5
85
330
7D
100
AcDbEntity
  8
DV1_Default
  6
Continuous
 62
     7
100
AcDbCircle
 10
296.2456995477
 20
405.1347769422
 30
0.0
 40
0.0999999999999942
100
AcDbArc
 50
179.9999870079
 51
186.8410800508
  0
ARC
  5
86
330
7D
100
AcDbEntity
  8
DV1_Default
  6
Continuous
 62
     7
100
AcDbCircle
 10
296.6458416538
 20
405.5872507005
 30
0.0
 40
0.4999999995134004
100
AcDbArc
 50
120.5999828076
 51
179.996986529
  0
ARC
  5
87
330
7D
100
AcDbEntity
  8
DV1_Default
  6
Continuous
 62
     7
100
AcDbCircle
 10
305.6456995477
 20
405.5873012455
 30
0.0
 40
0.4999999995120019
100
AcDbArc
 50
0.0
 51
90.0189607345
  0
LINE
  5
88
330
7D
100
AcDbEntity
  8
DV1_Default
  6
Continuous
 62
     7
100
AcDbLine
 10
306.1456995472
 20
405.1639631976
 30
0.0
 11
306.1456995472
 21
405.5873012455
 31
0.0
  0
LINE
  5
89
330
7D
100
AcDbEntity
  8
DV1_Default
  6
Continuous
 62
     7
100
AcDbLine
 10
305.6487056371
 20
406.08724211
 30
0.0
 11
299.1313618623
 21
406.08724211
 31
0.0
  0
LINE
  5
8A
330
7D
100
AcDbEntity
  8
DV1_Default
  6
Continuous
 62
     7
100
AcDbLine
 10
306.1456995479
 20
405.0962064459
 30
0.0
 11
306.1456995477
 21
253.6940468853
 31
0.0
  0
LINE
  5
8B
330
7D
100
AcDbEntity
  8
DV1_Default
  6
Continuous
 62
     7
100
AcDbLine
 10
306.1456995477
 20
227.5733395038
 30
0.0
 11
306.1456995477
 21
228.6115070637
 31
0.0
  0
LINE
  5
8C
330
7D
100
AcDbEntity
  8
DV1_Default
  6
Continuous
 62
     7
100
AcDbLine
 10
296.1456995477
 20
253.6940489597
 30
0.0
 11
296.1456995477
 21
405.0962063669
 31
0.0
  0
ARC
  5
8D
330
7D
100
AcDbEntity
  8
DV1_Default
  6
Continuous
 62
     7
100
AcDbCircle
 10
305.6456995484
 20
405.0962064482
 30
0.0
 40
0.4999999996749965
100
AcDbArc
 50
0.0
 51
89.9999996241
  0
ARC
  5
8E
330
7D
100
AcDbEntity
  8
DV1_Default
  6
Continuous
 62
     7
100
AcDbCircle
 10
305.6456995436
 20
227.573295733
 30
0.0
 40
0.5000000004462121
100
AcDbArc
 50
270.0000004733
 51
338.8848649503
  0
ARC
  5
8F
330
7D
100
AcDbEntity
  8
DV1_Default
  6
Continuous
 62
     7
100
AcDbCircle
 10
915.0509635087
 20
239.9317026787
 30
0.0
 40
609.0678976456996
100
AcDbArc
 50
178.708368472
 51
181.1795955117
  0
ARC
  5
90
330
7D
100
AcDbEntity
  8
DV1_Default
  6
Continuous
 62
     7
100
AcDbCircle
 10
296.6456995486
 20
405.0962064095
 30
0.0
 40
0.500000238307501
100
AcDbArc
 50
90.0000004091
 51
180.0008003727
  0
LINE
  5
91
330
7D
100
AcDbEntity
  8
DV1_Default
  6
Continuous
 62
     7
100
AcDbLine
 10
305.6456995517
 20
405.5962068861
 30
0.0
 11
296.6456995451
 21
405.5962068861
 31
0.0
  0
LINE
  5
92
330
7D
100
AcDbEntity
  8
DV1_Default
  6
Continuous
 62
     7
100
AcDbLine
 10
296.6456995477
 20
227.0732969823
 30
0.0
 11
305.6456995477
 21
227.0732969823
 31
0.0
  0
ARC
  5
93
330
7D
100
AcDbEntity
  8
DV1_Default
  6
Continuous
 62
     7
100
AcDbCircle
 10
-63.0348393952
 20
240.1782721122
 30
0.0
 40
359.4413276899987
100
AcDbArc
 50
357.9616839771
 51
2.1497420872
  0
ARC
  5
94
330
7D
100
AcDbEntity
  8
DV1_Default
  6
Continuous
 62
     7
100
AcDbCircle
 10
296.6456995532
 20
227.5732953675
 30
0.0
 40
0.5000000006246463
100
AcDbArc
 50
201.0506981377
 51
269.9999993668
  0
LINE
  5
95
330
7D
100
AcDbEntity
  8
DV1_Default
  6
Continuous
 62
     7
100
AcDbLine
 10
295.6456996253
 20
396.7872428148
 30
0.0
 11
295.6456996236
 21
396.2148775171
 31
0.0
  0
LINE
  5
96
330
7D
100
AcDbEntity
  8
DV1_Default
  6
Continuous
 62
     7
100
AcDbLine
 10
295.6456990156
 20
401.087311666
 30
0.0
 11
295.6456996253
 21
396.7872428148
 31
0.0
  0
LINE
  5
97
330
7D
100
AcDbEntity
  8
DV1_Default
  6
Continuous
 62
     7
100
AcDbLine
 10
295.6456994687
 20
404.4872402614
 30
0.0
 11
295.6456990156
 21
401.087311666
 31
0.0
  0
LINE
  5
98
330
7D
100
AcDbEntity
  8
DV1_Default
  6
Continuous
 62
     7
100
AcDbLine
 10
295.6456994547
 20
405.402284412
 30
0.0
 11
295.6456994716
 21
404.4872421739
 31
0.0
  0
ARC
  5
99
330
7D
100
AcDbEntity
  8
DV1_Default
  6
Continuous
 62
     7
100
AcDbCircle
 10
296.6621423326
 20
405.4173720884
 30
0.0
 40
1.016554781588526
100
AcDbArc
 50
91.0709273437
 51
180.8501667696
  0
LINE
  5
9A
330
7D
100
AcDbEntity
  8
DV1_Default
  6
Continuous
 62
     7
100
AcDbLine
 10
298.3438884664
 20
406.4337065218
 30
0.0
 11
296.6431428018
 21
406.4337064903
 31
0.0
  0
ARC
  5
9B
330
7D
100
AcDbEntity
  8
DV1_Default
  6
Continuous
 62
     7
100
AcDbCircle
 10
298.3593369951
 20
406.9605597895
 30
0.0
 40
0.5270363322603554
100
AcDbArc
 50
268.320301197
 51
301.3309270666
  0
ARC
  5
9C
330
7D
100
AcDbEntity
  8
DV1_Default
  6
Continuous
 62
     7
100
AcDbCircle
 10
298.52285104
 20
406.6991468407
 30
0.0
 40
0.2187509781107776
100
AcDbArc
 50
300.3511392591
 51
0.6718843636
  0
ARC
  5
9D
330
7D
100
AcDbEntity
  8
DV1_Default
  6
Continuous
 62
     7
100
AcDbCircle
 10
187.6662529075
 20
405.7838067195
 30
0.0
 40
111.0791267021021
100
AcDbArc
 50
0.47347056
 51
1.7082448329
  0
ARC
  5
9E
330
7D
100
AcDbEntity
  8
DV1_Default
  6
Continuous
 62
     7
100
AcDbCircle
 10
298.3806421274
 20
409.0852707184
 30
0.0
 40
0.3155244391957012
100
AcDbArc
 50
1.7823379195
 51
35.4658002936
  0
ARC
  5
9F
330
7D
100
AcDbEntity
  8
DV1_Default
  6
Continuous
 62
     7
100
AcDbCircle
 10
298.3366252091
 20
409.049179751
 30
0.0
 40
0.372335096566658
100
AcDbArc
 50
36.0590827102
 51
90.8527908034
  0
LINE
  5
A0
330
7D
100
AcDbEntity
  8
DV1_Default
  6
Continuous
 62
     7
100
AcDbLine
 10
291.0132774824
 20
409.4214762717
 30
0.0
 11
298.3310835754
 21
409.4214736059
 31
0.0
  0
ARC
  5
A1
330
7D
100
AcDbEntity
  8
DV1_Default
  6
Continuous
 62
     7
100
AcDbCircle
 10
291.0095626493
 20
409.0701181676
 30
0.0
 40
0.3513777415728544
100
AcDbArc
 50
89.3942467134
 51
147.1825937038
  0
ARC
  5
A2
330
7D
100
AcDbEntity
  8
DV1_Default
  6
Continuous
 62
     7
100
AcDbCircle
 10
291.0011934388
 20
409.0735767382
 30
0.0
 40
0.3424736964317704
100
AcDbArc
 50
146.9100249356
 51
180.0033626981
  0
LINE
  5
A3
330
7D
100
AcDbEntity
  8
DV1_Default
  6
Continuous
 62
     7
100
AcDbLine
 10
290.6587198921
 20
401.087310817
 30
0.0
 11
290.658719743
 21
409.0735566383
 31
0.0
  0
LINE
  5
A4
330
7D
100
AcDbEntity
  8
DV1_Default
  6
Continuous
 62
     7
100
AcDbLine
 10
290.6587200401
 20
393.1010435786
 30
0.0
 11
290.6587198921
 21
401.087310817
 31
0.0
  0
ARC
  5
A5
330
7D
100
AcDbEntity
  8
DV1_Default
  6
Continuous
 62
     7
100
AcDbCircle
 10
291.0011975569
 20
393.1010222193
 30
0.0
 40
0.3424775175416936
100
AcDbArc
 50
179.996426635
 51
213.089152532
  0
ARC
  5
A6
330
7D
100
AcDbEntity
  8
DV1_Default
  6
Continuous
 62
     7
100
AcDbCircle
 10
291.0099636358
 20
393.1052214461
 30
0.0
 40
0.3521167535849462
100
AcDbArc
 50
212.882894251
 51
270.5398496994
  0
LINE
  5
A7
330
7D
100
AcDbEntity
  8
DV1_Default
  6
Continuous
 62
     7
100
AcDbLine
 10
296.1456995477
 20
392.7531189805
 30
0.0
 11
291.0132812852
 21
392.7531203224
 31
0.0
  0
ARC
  5
A8
330
7D
100
AcDbEntity
  8
DV1_Default
  6
Continuous
 62
     7
100
AcDbCircle
 10
296.6545188547
 20
396.2134298431
 30
0.0
 40
1.008820269888514
100
AcDbArc
 50
179.9177795697
 51
239.7104034735
  0
LINE
  5
A9
330
7D
100
AcDbEntity
  8
DV1_Default
  6
Continuous
 62
     7
100
AcDbLine
 10
296.1456995435
 20
396.2481656257
 30
0.0
 11
296.1456996207
 21
396.307497661
 31
0.0
  0
LINE
  5
AA
330
7D
100
AcDbEntity
  8
DV1_Default
  6
Continuous
 62
     7
100
AcDbLine
 10
296.1456996207
 20
396.307497661
 30
0.0
 11
296.1456996174
 21
396.4872419246
 31
0.0
  0
LINE
  5
AB
330
7D
100
AcDbEntity
  8
DV1_Default
  6
Continuous
 62
     7
100
AcDbLine
 10
296.1456994568
 20
405.14969852
 30
0.0
 11
296.1456994536
 21
405.3199900019
 31
0.0
  0
SPLINE
  5
AC
330
7D
100
AcDbEntity
  8
DV1_Default
  6
Continuous
 62
     7
100
AcDbSpline
210
0.0
220
0.0
230
1.0
 70
     8
 71
     3
 72
     8
 73
     4
 74
     0
 42
0.0000004912862795
 43
0.0000000001
 40
0.0
 40
0.0
 40
0.0
 40
0.0
 40
1.0
 40
1.0
 40
1.0
 40
1.0
 10
296.135849348491
 20
405.3363178431725
 30
0.0
 10
296.1423043990051
 20
405.3310402202665
 30
0.0
 10
296.1456940466153
 20
405.3255800613001
 30
0.0
 10
296.1456994536297
 20
405.3199900019411
 30
0.0
  0
LINE
  5
AD
330
7D
100
AcDbEntity
  8
DV1_Default
  6
Continuous
 62
     7
100
AcDbLine
 10
296.1516137089
 20
396.7872425286
 30
0.0
 11
295.925366526
 21
396.7872418463
 31
0.0
  0
LINE
  5
AE
330
7D
100
AcDbEntity
  8
DV1_Default
  6
Continuous
 62
     7
100
AcDbLine
 10
295.9253669537
 20
396.7872419205
 30
0.0
 11
295.6457011841
 21
396.7872419154
 31
0.0
  0
ARC
  5
AF
330
7D
100
AcDbEntity
  8
DV1_Default
  6
Continuous
 62
     7
100
AcDbCircle
 10
296.2359074888
 20
396.9261890005
 30
0.0
 40
0.3402087613061806
100
AcDbArc
 50
179.8695855264
 51
204.1054527025
  0
LINE
  5
B0
330
7D
100
AcDbEntity
  8
DV1_Default
  6
Continuous
 62
     7
100
AcDbLine
 10
295.8956996088
 20
396.92696337
 30
0.0
 11
295.8957013221
 21
401.0873104012
 31
0.0
  0
LINE
  5
B1
330
7D
100
AcDbEntity
  8
DV1_Default
  6
Continuous
 62
     7
100
AcDbLine
 10
296.1456994613
 20
404.7872419246
 30
0.0
 11
296.1456996152
 21
396.4872419246
 31
0.0
  0
LINE
  5
B2
330
7D
100
AcDbEntity
  8
DV1_Default
  6
Continuous
 62
     7
100
AcDbLine
 10
295.6456994687
 20
404.4872419154
 30
0.0
 11
295.9217911868
 21
404.4872419205
 31
0.0
  0
LINE
  5
B3
330
7D
100
AcDbEntity
  8
DV1_Default
  6
Continuous
 62
     7
100
AcDbLine
 10
295.9217911868
 20
404.4872419879
 30
0.0
 11
296.1517302712
 21
404.4872413289
 31
0.0
  0
LINE
  5
B4
330
7D
100
AcDbEntity
  8
DV1_Default
  6
Continuous
 62
     7
100
AcDbLine
 10
296.1456994536
 20
405.3199900019
 30
0.0
 11
296.1456998193
 21
405.7634128533
 31
0.0
  0
LINE
  5
B5
330
7D
100
AcDbEntity
  8
DV1_Default
  6
Continuous
 62
     7
100
AcDbLine
 10
290.1587198042
 20
406.0872831061
 30
0.0
 11
290.1587198131
 21
405.5872876942
 31
0.0
  0
LINE
  5
B6
330
7D
100
AcDbEntity
  8
DV1_Default
  6
Continuous
 62
     7
100
AcDbLine
 10
290.1587198042
 20
406.0872831061
 30
0.0
 11
290.1587198114
 21
406.0872005208
 31
0.0
  0
LINE
  5
B7
330
7D
100
AcDbEntity
  8
DV1_Default
  6
Continuous
 62
     7
100
AcDbLine
 10
290.1587198211
 20
405.5871959327
 30
0.0
 11
290.1587198114
 21
406.0872005208
 31
0.0
  0
LINE
  5
B8
330
7D
100
AcDbEntity
  8
DV1_Default
  6
Continuous
 62
     7
100
AcDbLine
 10
290.1587199968
 20
396.0872005212
 30
0.0
 11
290.1587199879
 21
396.5871959331
 31
0.0
  0
LINE
  5
B9
330
7D
100
AcDbEntity
  8
DV1_Default
  6
Continuous
 62
     7
100
AcDbLine
 10
290.1587199968
 20
396.0872005212
 30
0.0
 11
290.1587199896
 21
396.0872831065
 31
0.0
  0
LINE
  5
BA
330
7D
100
AcDbEntity
  8
DV1_Default
  6
Continuous
 62
     7
100
AcDbLine
 10
290.15871998
 20
396.5872876945
 30
0.0
 11
290.1587199896
 21
396.0872831065
 31
0.0
  0
LINE
  5
BB
330
7D
100
AcDbEntity
  8
DV1_Default
  6
Continuous
 62
     7
100
AcDbLine
 10
290.1587200479
 20
392.7984334198
 30
0.0
 11
290.1587200446
 21
392.9681718482
 31
0.0
  0
LINE
  5
BC
330
7D
100
AcDbEntity
  8
DV1_Default
  6
Continuous
 62
     7
100
AcDbLine
 10
290.1587200446
 20
392.9681718482
 30
0.0
 11
290.1587200396
 21
393.2490347983
 31
0.0
  0
LINE
  5
BD
330
7D
100
AcDbEntity
  8
DV1_Default
  6
Continuous
 62
     7
100
AcDbLine
 10
290.1587198917
 20
401.0873060564
 30
0.0
 11
290.158720038
 21
393.2489718225
 31
0.0
  0
LINE
  5
BE
330
7D
100
AcDbEntity
  8
DV1_Default
  6
Continuous
 62
     7
100
AcDbLine
 10
290.1587197486
 20
408.9259701428
 30
0.0
 11
290.1587197435
 21
409.2064137325
 31
0.0
  0
LINE
  5
BF
330
7D
100
AcDbEntity
  8
DV1_Default
  6
Continuous
 62
     7
100
AcDbLine
 10
290.1587197435
 20
409.2064137325
 30
0.0
 11
290.1587197406
 21
409.3764711958
 31
0.0
  0
LINE
  5
C0
330
7D
100
AcDbEntity
  8
DV1_Default
  6
Continuous
 62
     7
100
AcDbLine
 10
290.1587197518
 20
409.3764861849
 30
0.0
 11
290.1587197231
 21
410.5873641637
 31
0.0
  0
LINE
  5
C1
330
7D
100
AcDbEntity
  8
DV1_Default
  6
Continuous
 62
     7
100
AcDbLine
 10
290.1587197533
 20
409.3763072903
 30
0.0
 11
290.1587197566
 21
409.2062105351
 31
0.0
  0
LINE
  5
C2
330
7D
100
AcDbEntity
  8
DV1_Default
  6
Continuous
 62
     7
100
AcDbLine
 10
290.1587197566
 20
409.2062105351
 30
0.0
 11
290.1587197622
 21
408.9254042279
 31
0.0
  0
LINE
  5
C3
330
7D
100
AcDbEntity
  8
DV1_Default
  6
Continuous
 62
     7
100
AcDbLine
 10
290.1587198228
 20
405.5872876942
 30
0.0
 11
290.1587197605
 21
408.9254671978
 31
0.0
  0
LINE
  5
C4
330
7D
100
AcDbEntity
  8
DV1_Default
  6
Continuous
 62
     7
100
AcDbLine
 10
290.1587200525
 20
393.2484665979
 30
0.0
 11
290.1587200575
 21
392.9680231093
 31
0.0
  0
LINE
  5
C5
330
7D
100
AcDbEntity
  8
DV1_Default
  6
Continuous
 62
     7
100
AcDbLine
 10
290.1587200575
 20
392.9680231093
 30
0.0
 11
290.1587200608
 21
392.7981477123
 31
0.0
  0
LINE
  5
C6
330
7D
100
AcDbEntity
  8
DV1_Default
  6
Continuous
 62
     7
100
AcDbLine
 10
290.1587200781
 20
391.6122494694
 30
0.0
 11
290.158720075
 21
391.8329496773
 31
0.0
  0
LINE
  5
C7
330
7D
100
AcDbEntity
  8
DV1_Default
  6
Continuous
 62
     7
100
AcDbLine
 10
290.1587200737
 20
391.9259749013
 30
0.0
 11
290.1587200615
 21
392.7979907605
 31
0.0
  0
LINE
  5
C8
330
7D
100
AcDbEntity
  8
DV1_Default
  6
Continuous
 62
     7
100
AcDbLine
 10
290.1587200771
 20
391.6121662292
 30
0.0
 11
290.1587200767
 21
391.5870370972
 31
0.0
  0
LINE
  5
C9
330
7D
100
AcDbEntity
  8
DV1_Default
  6
Continuous
 62
     7
100
AcDbLine
 10
290.6587200552
 20
392.3206934861
 30
0.0
 11
290.6587200854
 21
391.0870760168
 31
0.0
  0
ARC
  5
CA
330
7D
100
AcDbEntity
  8
DV1_Default
  6
Continuous
 62
     7
100
AcDbCircle
 10
290.6569759516
 20
392.8329014594
 30
0.0
 40
0.512210942655163
100
AcDbArc
 50
226.6097778015
 51
270.1950953447
  0
ARC
  5
CB
330
7D
100
AcDbEntity
  8
DV1_Default
  6
Continuous
 62
     7
100
AcDbCircle
 10
290.6250889788
 20
392.7999654675
 30
0.0
 40
0.4663717567866535
100
AcDbArc
 50
180.1994566505
 51
226.6768784791
  0
SPLINE
  5
CC
330
7D
100
AcDbEntity
  8
DV1_Default
  6
Continuous
 62
     7
100
AcDbSpline
210
0.0
220
0.0
230
1.0
 70
     8
 71
     3
 72
    13
 73
     9
 74
     0
 42
0.0000000523452553
 43
0.0000000001
 40
0.0
 40
0.0
 40
0.0
 40
0.0
 40
0.0895784396399984
 40
0.2510860486143419
 40
0.3727218872656651
 40
0.5016997502931939
 40
0.7629050459828804
 40
1.0
 40
1.0
 40
1.0
 40
1.0
 10
290.1587200553454
 20
393.24900361657
 30
0.0
 10
290.1589644585666
 20
393.2455134182364
 30
0.0
 10
290.159649532094
 20
393.2357294034311
 30
0.0
 10
290.166420060208
 20
393.2211770255562
 30
0.0
 10
290.1794012644793
 20
393.2055262725277
 30
0.0
 10
290.2020303362044
 20
393.1869082046644
 30
0.0
 10
290.2406380295237
 20
393.1653220809254
 30
0.0
 10
290.2842384928532
 20
393.1510446990951
 30
0.0
 10
290.3051057231632
 20
393.1442881231837
 30
0.0
  0
ARC
  5
CD
330
7D
100
AcDbEntity
  8
DV1_Default
  6
Continuous
 62
     7
100
AcDbCircle
 10
290.639901365
 20
394.4145511098
 30
0.0
 40
1.313642332249448
100
AcDbArc
 50
255.2346761974
 51
270.8208227701
  0
ARC
  5
CE
330
7D
100
AcDbEntity
  8
DV1_Default
  6
Continuous
 62
     7
100
AcDbCircle
 10
290.6399394105
 20
407.759852115
 30
0.0
 40
1.313838755501539
100
AcDbArc
 50
89.1809722229
 51
104.7647956871
  0
SPLINE
  5
CF
330
7D
100
AcDbEntity
  8
DV1_Default
  6
Continuous
 62
     7
100
AcDbSpline
210
0.0
220
0.0
230
1.0
 70
     8
 71
     3
 72
     8
 73
     4
 74
     0
 42
0.0000000495100345
 43
0.0000000001
 40
0.0
 40
0.0
 40
0.0
 40
0.0
 40
1.0
 40
1.0
 40
1.0
 40
1.0
 10
290.1587197485707
 20
408.9259985419392
 30
0.0
 10
290.1587762760612
 20
408.966728475856
 30
0.0
 10
290.2147298147947
 20
409.003600287821
 30
0.0
 10
290.3051054182953
 20
409.0303081249557
 30
0.0
  0
LINE
  5
D0
330
7D
100
AcDbEntity
  8
DV1_Default
  6
Continuous
 62
     7
100
AcDbLine
 10
290.1587197486
 20
408.9260274461
 30
0.0
 11
290.1587198929
 21
401.0873060561
 31
0.0
  0
ARC
  5
D1
330
7D
100
AcDbEntity
  8
DV1_Default
  6
Continuous
 62
     7
100
AcDbCircle
 10
290.6250821229
 20
409.374618859
 30
0.0
 40
0.4663663070664924
100
AcDbArc
 50
133.3226491935
 51
179.764959588
  0
ARC
  5
D2
330
7D
100
AcDbEntity
  8
DV1_Default
  6
Continuous
 62
     7
100
AcDbCircle
 10
290.6569787106
 20
409.3416768762
 30
0.0
 40
0.5122164469576214
100
AcDbArc
 50
89.8052517395
 51
133.3901140746
  0
LINE
  5
D3
330
7D
100
AcDbEntity
  8
DV1_Default
  6
Continuous
 62
     7
100
AcDbLine
 10
290.6587197301
 20
409.8538903643
 30
0.0
 11
290.6587197147
 21
411.0873608384
 31
0.0
  0
LINE
  5
D4
330
7D
100
AcDbEntity
  8
DV1_Default
  6
Continuous
 62
     7
100
AcDbLine
 10
290.1587200525
 20
393.2484092888
 30
0.0
 11
290.158719991
 21
396.5872876945
 31
0.0
  0
LINE
  5
D5
330
7D
100
AcDbEntity
  8
DV1_Default
  6
Continuous
 62
     7
100
AcDbLine
 10
291.0132809727
 20
392.430661478
 30
0.0
 11
296.1456995477
 21
392.4306588764
 31
0.0
  0
ARC
  5
D6
330
7D
100
AcDbEntity
  8
DV1_Default
  6
Continuous
 62
     7
100
AcDbCircle
 10
290.9859063536
 20
391.6942370609
 30
0.0
 40
0.736933030816628
100
AcDbArc
 50
87.8711619475
 51
111.6300107289
  0
SPLINE
  5
D7
330
7D
100
AcDbEntity
  8
DV1_Default
  6
Continuous
 62
     7
100
AcDbSpline
210
0.0
220
0.0
230
1.0
 70
     8
 71
     3
 72
    13
 73
     9
 74
     0
 42
0.0000001173371078
 43
0.0000000001
 40
0.0
 40
0.0
 40
0.0
 40
0.0
 40
0.2499951788262607
 40
0.4999967792091072
 40
0.6249975794005305
 40
0.7499983795919537
 40
0.8749991797833769
 40
1.0
 40
1.0
 40
1.0
 40
1.0
 10
290.6587200552438
 20
392.3206934861383
 30
0.0
 10
290.6587201212762
 20
392.3259387628248
 30
0.0
 10
290.6610981137926
 20
392.3361404811378
 30
0.0
 10
290.6698961054005
 20
392.3486340059419
 30
0.0
 10
290.680358364986
 20
392.3583790738504
 30
0.0
 10
290.6898990799677
 20
392.3655389263509
 30
0.0
 10
290.7011159283702
 20
392.3725256559301
 30
0.0
 10
290.7096992861315
 20
392.3770518053296
 30
0.0
 10
290.7142643591783
 20
392.3792778763071
 30
0.0
  0
SPLINE
  5
D8
330
7D
100
AcDbEntity
  8
DV1_Default
  6
Continuous
 62
     7
100
AcDbSpline
210
0.0
220
0.0
230
1.0
 70
     8
 71
     3
 72
     8
 73
     4
 74
     0
 42
0.0000011541776591
 43
0.0000000001
 40
0.0
 40
0.0
 40
0.0
 40
0.0
 40
1.0
 40
1.0
 40
1.0
 40
1.0
 10
296.1413353670176
 20
405.7565834819633
 30
0.0
 10
296.1442998378208
 20
405.7589103283901
 30
0.0
 10
296.145700560056
 20
405.7612096415567
 30
0.0
 10
296.1456998193183
 20
405.7634128533367
 30
0.0
  0
SPLINE
  5
D9
330
7D
100
AcDbEntity
  8
DV1_Default
  6
Continuous
 62
     7
100
AcDbSpline
210
0.0
220
0.0
230
1.0
 70
     8
 71
     3
 72
     9
 73
     5
 74
     0
 42
0.0000001443012777
 43
0.0000000001
 40
0.0
 40
0.0
 40
0.0
 40
0.0
 40
0.9283590496288152
 40
1.0
 40
1.0
 40
1.0
 40
1.0
 10
296.1456994536297
 20
405.3199900019411
 30
0.0
 10
296.1448630288235
 20
405.3412200903873
 30
0.0
 10
296.1439620600526
 20
405.3640884929245
 30
0.0
 10
296.1409261582926
 20
405.3873723089561
 30
0.0
 10
296.140698021507
 20
405.3890426517879
 30
0.0
  0
LINE
  5
DA
330
7D
100
AcDbEntity
  8
DV1_Default
  6
Continuous
 62
     7
100
AcDbLine
 10
298.3439018098
 20
406.0205355398
 30
0.0
 11
298.3439018065
 21
406.0185736542
 31
0.0
  0
SPLINE
  5
DB
330
7D
100
AcDbEntity
  8
DV1_Default
  6
Continuous
 62
     7
100
AcDbSpline
210
0.0
220
0.0
230
1.0
 70
     8
 71
     3
 72
    12
 73
     8
 74
     0
 42
0.0000000429915897
 43
0.0000000001
 40
0.0
 40
0.0
 40
0.0
 40
0.0
 40
0.0963913873719862
 40
0.2614483721065046
 40
0.4994638355689678
 40
0.823937498558051
 40
1.0
 40
1.0
 40
1.0
 40
1.0
 10
299.0035713497596
 20
406.1746955860018
 30
0.0
 10
298.9998478962701
 20
406.1666707882593
 30
0.0
 10
298.9958223699705
 20
406.1425343820072
 30
0.0
 10
298.9771084080813
 20
406.1013414288622
 30
0.0
 10
298.9425439404374
 20
406.0535370471412
 30
0.0
 10
298.8991494863628
 20
406.0254426145931
 30
0.0
 10
298.8670993656586
 20
406.0243872029299
 30
0.0
 10
298.8558167795653
 20
406.0240069954254
 30
0.0
  0
ARC
  5
DC
330
7D
100
AcDbEntity
  8
DV1_Default
  6
Continuous
 62
     7
100
AcDbCircle
 10
187.5646218351
 20
405.8824193345
 30
0.0
 40
111.6719279419395
100
AcDbArc
 50
0.377699751
 51
1.5872255241
  0
ARC
  5
DD
330
7D
100
AcDbEntity
  8
DV1_Default
  6
Continuous
 62
     7
100
AcDbCircle
 10
298.3577202211
 20
410.5463904151
 30
0.0
 40
0.8029051588317739
100
AcDbArc
 50
268.0988493339
 51
290.2536894832
  0
SPLINE
  5
DE
330
7D
100
AcDbEntity
  8
DV1_Default
  6
Continuous
 62
     7
100
AcDbSpline
210
0.0
220
0.0
230
1.0
 70
    12
 71
     3
 72
    13
 73
     9
 74
     0
 42
0.000000115365196
 43
0.0000000001
 40
0.0
 40
0.0
 40
0.0
 40
0.0
 40
0.2499999910272
 40
0.5000000086169
 40
0.625000006168
 40
0.7500000037191
 40
0.8750000012701
 40
1.0
 40
1.0
 40
1.0
 40
1.0
 10
298.6963039035673
 20
409.8495170197
 30
0.0
 41
1.0
 10
298.6957738851773
 20
409.8445027396183
 30
0.0
 41
1.0
 10
298.692398996136
 20
409.8345637771511
 30
0.0
 41
1.0
 10
298.6824933041689
 20
409.8224989111242
 30
0.0
 41
1.0
 10
298.6712165448587
 20
409.8131307137588
 30
0.0
 41
1.0
 10
298.6610978682785
 20
409.8062657397772
 30
0.0
 41
1.0
 10
298.6493330865256
 20
409.7995803692541
 30
0.0
 41
1.0
 10
298.6404025296848
 20
409.7952557453617
 30
0.0
 41
1.0
 10
298.6356678975289
 20
409.7931296480552
 30
0.0
 41
1.0
  0
ARC
  5
DF
330
7D
100
AcDbEntity
  8
DV1_Default
  6
Continuous
 62
     7
100
AcDbCircle
 10
301.3074191959
 20
409.2694009967
 30
0.0
 40
2.118183463150713
100
AcDbArc
 50
176.1754901222
 51
180.7760504746
  0
ARC
  5
E0
330
7D
100
AcDbEntity
  8
DV1_Default
  6
Continuous
 62
     7
100
AcDbCircle
 10
307.5808622377
 20
409.2433652421
 30
0.0
 40
8.391432629442033
100
AcDbArc
 50
180.0181170692
 51
181.8286217188
  0
ARC
  5
E1
330
7D
100
AcDbEntity
  8
DV1_Default
  6
Continuous
 62
     7
100
AcDbCircle
 10
283.1503175448
 20
410.7261343412
 30
0.0
 40
16.09748493871082
100
AcDbArc
 50
355.3126922617
 51
359.8757985973
  0
ARC
  5
E2
330
7D
100
AcDbEntity
  8
DV1_Default
  6
Continuous
 62
     7
100
AcDbCircle
 10
300.0019751761
 20
406.6127946117
 30
0.0
 40
0.7678734857357563
100
AcDbArc
 50
179.5692829998
 51
191.8449419887
  0
SPLINE
  5
E3
330
7D
100
AcDbEntity
  8
DV1_Default
  6
Continuous
 62
     7
100
AcDbSpline
210
0.0
220
0.0
230
1.0
 70
     8
 71
     3
 72
    12
 73
     8
 74
     0
 42
0.0000001015806582
 43
0.0000000001
 40
0.0
 40
0.0
 40
0.0
 40
0.0
 40
0.2499992288487668
 40
0.4999994703931974
 40
0.749999711937628
 40
0.8749998327098434
 40
1.0
 40
1.0
 40
1.0
 40
1.0
 10
299.2953815625113
 20
406.3761552037145
 30
0.0
 10
299.2922278553558
 20
406.3749290984983
 30
0.0
 10
299.2850456436934
 20
406.3759648909147
 30
0.0
 10
299.2733031687305
 20
406.3889391063474
 30
0.0
 10
299.2633745852939
 20
406.410031125181
 30
0.0
 10
299.2557713555998
 20
406.4335317404218
 30
0.0
 10
299.2521563693344
 20
406.4475676623541
 30
0.0
 10
299.2504522632537
 20
406.4551779832957
 30
0.0
  0
LINE
  5
E4
330
7D
100
AcDbEntity
  8
DV1_Default
  6
Continuous
 62
     7
100
AcDbLine
 10
298.8558167796
 20
406.0240069954
 30
0.0
 11
298.9141271986
 21
406.027328389
 31
0.0
  0
SPLINE
  5
E5
330
7D
100
AcDbEntity
  8
DV1_Default
  6
Continuous
 62
     7
100
AcDbSpline
210
0.0
220
0.0
230
1.0
 70
    12
 71
     3
 72
     8
 73
     4
 74
     0
 42
0.0000000380037142
 43
0.0000000001
 40
0.0
 40
0.0
 40
0.0
 40
0.0
 40
1.0
 40
1.0
 40
1.0
 40
1.0
 10
299.0929483739912
 20
406.1690316572264
 30
0.0
 41
1.058641246506334
 10
299.0606454276222
 20
406.0755751865466
 30
0.0
 41
0.9619860668254809
 10
298.9931733599579
 20
406.023681339659
 30
0.0
 41
0.9848144970059
 10
298.9141271986395
 20
406.0273283891044
 30
0.0
 41
1.127126537047591
  0
ARC
  5
E6
330
7D
100
AcDbEntity
  8
DV1_Default
  6
Continuous
 62
     7
100
AcDbCircle
 10
299.0678264615
 20
406.4806253524
 30
0.0
 40
0.3126047686245766
100
AcDbArc
 50
258.1384521173
 51
274.6094414787
  0
SPLINE
  5
E7
330
7D
100
AcDbEntity
  8
DV1_Default
  6
Continuous
 62
     7
100
AcDbSpline
210
0.0
220
0.0
230
1.0
 70
     8
 71
     3
 72
    13
 73
     9
 74
     0
 42
0.0000001173432216
 43
0.0000000001
 40
0.0
 40
0.0
 40
0.0
 40
0.0
 40
0.1250006911061279
 40
0.2500014120100313
 40
0.3750021329139348
 40
0.5000028538178383
 40
0.7500042956256452
 40
1.0
 40
1.0
 40
1.0
 40
1.0
 10
290.714262066354
 20
409.7953099603653
 30
0.0
 10
290.7096971563955
 20
409.7975358874436
 30
0.0
 10
290.7011141010919
 20
409.802061745404
 30
0.0
 10
290.6898976537865
 20
409.8090480129206
 30
0.0
 10
290.6803572774414
 20
409.8162073849175
 30
0.0
 10
290.6698953859423
 20
409.825951788911
 30
0.0
 10
290.6610976956283
 20
409.838444453258
 30
0.0
 10
290.6587197884014
 20
409.8486454491228
 30
0.0
 10
290.6587197300771
 20
409.8538903643375
 30
0.0
  0
ARC
  5
E8
330
7D
100
AcDbEntity
  8
DV1_Default
  6
Continuous
 62
     7
100
AcDbCircle
 10
290.9856458452
 20
410.4788961974
 30
0.0
 40
0.7354857570818084
100
AcDbArc
 50
248.3469192706
 51
272.1530130497
  0
LINE
  5
E9
330
7D
100
AcDbEntity
  8
DV1_Default
  6
Continuous
 62
     7
100
AcDbLine
 10
298.3310836415
 20
409.7439272155
 30
0.0
 11
291.0132768123
 21
409.7439296481
 31
0.0
  0
ARC
  5
EA
330
7D
100
AcDbEntity
  8
DV1_Default
  6
Continuous
 62
     7
100
AcDbCircle
 10
284.9995414722
 20
411.160119002
 30
0.0
 40
13.7593373332701
100
AcDbArc
 50
354.5341804123
 51
359.6967284494
  0
ARC
  5
EB
330
7D
100
AcDbEntity
  8
DV1_Default
  6
Continuous
 62
     7
100
AcDbCircle
 10
290.6587556587
 20
391.5870726822
 30
0.0
 40
0.5000355832763551
100
AcDbArc
 50
180.0040787714
 51
270.0180142787
  0
ARC
  5
EC
330
7D
100
AcDbEntity
  8
DV1_Default
  6
Continuous
 62
     7
100
AcDbCircle
 10
290.6587553064
 20
410.587364173
 30
0.0
 40
0.5000355832765004
100
AcDbArc
 50
90.0260927522
 51
180.0000010623
  0
LINE
  5
ED
330
7D
100
AcDbEntity
  8
DV1_Default
  6
Continuous
 62
     7
100
AcDbLine
 10
290.6587200827
 20
391.0871149312
 30
0.0
 11
296.1456995477
 21
391.0871150329
 31
0.0
  0
LINE
  5
EE
330
7D
100
AcDbEntity
  8
DV1_Default
  6
Continuous
 62
     7
100
AcDbLine
 10
296.148981768
 20
395.7527471844
 30
0.0
 11
296.1489162181
 21
395.7385536921
 31
0.0
  0
ARC
  5
EF
330
7D
100
AcDbEntity
  8
DV1_Default
  6
Continuous
 62
     7
100
AcDbCircle
 10
296.4003915267
 20
405.7615849044
 30
0.0
 40
0.2590986053912059
100
AcDbArc
 50
89.4746491285
 51
181.6771939869
  0
LINE
  5
F0
330
7D
100
AcDbEntity
  8
DV1_Default
  6
Continuous
 62
     7
100
AcDbLine
 10
296.1357272309
 20
405.3312869689
 30
0.0
 11
296.1485352923
 21
405.3893744784
 31
0.0
  0
LINE
  5
F1
330
7D
100
AcDbEntity
  8
DV1_Default
  6
Continuous
 62
     7
100
AcDbLine
 10
296.3986675417
 20
406.0203074107
 30
0.0
 11
296.6446862411
 21
406.019013204
 31
0.0
  0
LINE
  5
F2
330
7D
100
AcDbEntity
  8
DV1_Default
  6
Continuous
 62
     7
100
AcDbLine
 10
296.6376941143
 20
406.0185931719
 30
0.0
 11
298.3493293005
 21
406.0185932036
 31
0.0
  0
ARC
  5
F3
330
7D
100
AcDbEntity
  8
DV1_Default
  6
Continuous
 62
     7
100
AcDbCircle
 10
298.4404051655
 20
427.5040259182
 30
0.0
 40
21.48371541949572
100
AcDbArc
 50
269.7348615932
 51
270.9870912076
  0
LINE
  5
F4
330
7D
100
AcDbEntity
  8
DV1_Default
  6
Continuous
 62
     7
100
AcDbLine
 10
298.8065997766
 20
406.0230454065
 30
0.0
 11
298.8844472585
 21
406.0260314743
 31
0.0
  0
ARC
  5
F5
330
7D
100
AcDbEntity
  8
DV1_Default
  6
Continuous
 62
     7
100
AcDbCircle
 10
271.1608106424
 20
405.1032415612
 30
0.0
 40
28.63717633308875
100
AcDbArc
 50
2.9874703759
 51
11.3022616173
  0
ARC
  5
F6
330
7D
100
AcDbEntity
  8
DV1_Default
  6
Continuous
 62
     7
100
AcDbCircle
 10
298.9049853777
 20
406.7360787172
 30
0.0
 40
0.7072451583935825
100
AcDbArc
 50
273.7203834821
 51
288.349525456
  0
ARC
  5
F7
330
7D
100
AcDbEntity
  8
DV1_Default
  6
Continuous
 62
     7
100
AcDbCircle
 10
298.6280543573
 20
407.6726501521
 30
0.0
 40
1.68337379674717
100
AcDbArc
 50
289.4667196003
 51
307.881806824
  0
ARC
  5
F8
330
7D
100
AcDbEntity
  8
DV1_Default
  6
Continuous
 62
     7
100
AcDbCircle
 10
298.6276975801
 20
407.6741932713
 30
0.0
 40
1.684802580783741
100
AcDbArc
 50
287.1675256581
 51
307.8706614683
  0
ARC
  5
F9
330
7D
100
AcDbEntity
  8
DV1_Default
  6
Continuous
 62
     7
100
AcDbCircle
 10
299.5024135038
 20
406.5382889534
 30
0.0
 40
0.2512418745133017
100
AcDbArc
 50
309.3853714793
 51
348.9345599446
  0
LINE
  5
FA
330
7D
100
AcDbEntity
  8
DV1_Default
  6
Continuous
 62
     7
100
AcDbLine
 10
299.7483718761
 20
406.4870169961
 30
0.0
 11
299.7573960994
 21
406.6201629328
 31
0.0
  0
LINE
  5
FB
330
7D
100
AcDbEntity
  8
DV1_Default
  6
Continuous
 62
     7
100
AcDbLine
 10
298.7586860097
 20
411.0873220742
 30
0.0
 11
290.6587197119
 21
411.087321924
 31
0.0
  0
ARC
  5
FC
330
7D
100
AcDbEntity
  8
DV1_Default
  6
Continuous
 62
     7
100
AcDbCircle
 10
298.7587772775
 20
410.5873983512
 30
0.0
 40
0.4998916295872234
100
AcDbArc
 50
11.9891976023
 51
90.0104550446
  0
LINE
  5
FD
330
7D
100
AcDbEntity
  8
DV1_Default
  6
Continuous
 62
     7
100
AcDbLine
 10
248.1587176261
 20
410.9121911699
 30
0.0
 11
248.1587175948
 21
411.5440369807
 31
0.0
  0
LINE
  5
FE
330
7D
100
AcDbEntity
  8
DV1_Default
  6
Continuous
 62
     7
100
AcDbLine
 10
248.1587175948
 20
411.5440369807
 30
0.0
 11
248.1587175671
 21
412.1213872508
 31
0.0
  0
LINE
  5
FF
330
7D
100
AcDbEntity
  8
DV1_Default
  6
Continuous
 62
     7
100
AcDbLine
 10
248.1587184905
 20
393.7194637962
 30
0.0
 11
248.1587184649
 21
394.2194637953
 31
0.0
  0
LINE
  5
100
330
7D
100
AcDbEntity
  8
DV1_Default
  6
Continuous
 62
     7
100
AcDbLine
 10
248.1587183966
 20
395.6027462354
 30
0.0
 11
248.1587183906
 21
395.7194637593
 31
0.0
  0
LINE
  5
101
330
7D
100
AcDbEntity
  8
DV1_Default
  6
Continuous
 62
     7
100
AcDbLine
 10
248.1587184617
 20
393.719463763
 30
0.0
 11
248.1587183597
 21
395.7194637593
 31
0.0
  0
LINE
  5
102
330
7D
100
AcDbEntity
  8
DV1_Default
  6
Continuous
 62
     7
100
AcDbLine
 10
248.1587177321
 20
408.4121911497
 30
0.0
 11
248.1587183597
 21
395.7194637593
 31
0.0
  0
LINE
  5
103
330
7D
100
AcDbEntity
  8
DV1_Default
  6
Continuous
 62
     7
100
AcDbLine
 10
248.1587177321
 20
408.4121911497
 30
0.0
 11
248.1587176364
 21
410.4121911534
 31
0.0
  0
LINE
  5
104
330
7D
100
AcDbEntity
  8
DV1_Default
  6
Continuous
 62
     7
100
AcDbLine
 10
248.15871765
 20
410.412191169
 30
0.0
 11
248.1587176261
 21
410.9121911699
 31
0.0
  0
SPLINE
  5
105
330
7D
100
AcDbEntity
  8
DV1_Default
  6
Continuous
 62
     7
100
AcDbSpline
210
0.0
220
0.0
230
1.0
 70
    12
 71
     3
 72
    13
 73
     9
 74
     0
 42
0.0000003325832974
 43
0.0000000001
 40
0.0
 40
0.0
 40
0.0
 40
0.0
 40
0.2500000017968
 40
0.5000000006148
 40
0.6250000000238
 40
0.7499999994328
 40
0.8749999988417999
 40
1.0
 40
1.0
 40
1.0
 40
1.0
 10
288.3587187191308
 20
410.528458821249
 30
0.0
 41
1.0
 10
288.3587187191865
 20
410.5264316252211
 30
0.0
 41
1.0
 10
288.359423474683
 20
410.5225301456234
 30
0.0
 41
1.0
 10
288.3621367273624
 20
410.5179230795256
 30
0.0
 41
1.0
 10
288.3654764177389
 20
410.5143336875591
 30
0.0
 41
1.0
 10
288.3685780437851
 20
410.5116727140733
 30
0.0
 41
1.0
 10
288.372296644671
 20
410.5090269757632
 30
0.0
 41
1.0
 10
288.3751851410483
 20
410.5072598998844
 30
0.0
 41
1.0
 10
288.376740256367
 20
410.5063738581223
 30
0.0
 41
1.0
  0
ARC
  5
106
330
7D
100
AcDbEntity
  8
DV1_Default
  6
Continuous
 62
     7
100
AcDbCircle
 10
288.4807707248
 20
410.7366994995
 30
0.0
 40
0.2527295777420313
100
AcDbArc
 50
245.6928810952
 51
272.6765128138
  0
LINE
  5
107
330
7D
100
AcDbEntity
  8
DV1_Default
  6
Continuous
 62
     7
100
AcDbLine
 10
289.8248670212
 20
410.4842456736
 30
0.0
 11
288.4925724311
 21
410.4842456242
 31
0.0
  0
ARC
  5
108
330
7D
100
AcDbEntity
  8
DV1_Default
  6
Continuous
 62
     7
100
AcDbCircle
 10
289.8366866439
 20
410.7365951406
 30
0.0
 40
0.2526261209322123
100
AcDbArc
 50
267.3183223901
 51
294.3126451303
  0
SPLINE
  5
109
330
7D
100
AcDbEntity
  8
DV1_Default
  6
Continuous
 62
     7
100
AcDbSpline
210
0.0
220
0.0
230
1.0
 70
    12
 71
     3
 72
    13
 73
     9
 74
     0
 42
0.0000003325734488
 43
0.0000000001
 40
0.0
 40
0.0
 40
0.0
 40
0.0
 40
0.1250000013461
 40
0.2500000009438
 40
0.3750000005415
 40
0.5000000001393
 40
0.7499999993347001
 40
1.0
 40
1.0
 40
1.0
 40
1.0
 10
289.9406967322171
 20
410.5063738155196
 30
0.0
 41
1.0
 10
289.9422518887883
 20
410.507259886434
 30
0.0
 41
1.0
 10
289.945140485321
 20
410.5090270153891
 30
0.0
 41
1.0
 10
289.9488591755351
 20
410.511672839828
 30
0.0
 41
1.0
 10
289.9519608867888
 20
410.5143338963998
 30
0.0
 41
1.0
 10
289.9553006641324
 20
410.5179234000088
 30
0.0
 41
1.0
 10
289.958013997693
 20
410.5225306077769
 30
0.0
 41
1.0
 10
289.9587187489965
 20
410.5264322081248
 30
0.0
 41
1.0
 10
289.9587187489308
 20
410.5284594674888
 30
0.0
 41
1.0
  0
LINE
  5
10A
330
7D
100
AcDbEntity
  8
DV1_Default
  6
Continuous
 62
     7
100
AcDbLine
 10
289.9587187781
 20
410.528459257
 30
0.0
 11
289.9587187058
 21
412.0864459177
 31
0.0
  0
LINE
  5
10B
330
7D
100
AcDbEntity
  8
DV1_Default
  6
Continuous
 62
     7
100
AcDbLine
 10
288.358718676
 20
412.0864458583
 30
0.0
 11
288.3587187483
 21
410.5284586108
 31
0.0
  0
LINE
  5
10C
330
7D
100
AcDbEntity
  8
DV1_Default
  6
Continuous
 62
     7
100
AcDbLine
 10
288.1587186866
 20
411.8872783455
 30
0.0
 11
288.1587187585
 21
410.3392524575
 31
0.0
  0
LINE
  5
10D
330
7D
100
AcDbEntity
  8
DV1_Default
  6
Continuous
 62
     7
100
AcDbLine
 10
288.1587187285
 20
410.2733551593
 30
0.0
 11
288.1587187295
 21
410.3392526663
 31
0.0
  0
LINE
  5
10E
330
7D
100
AcDbEntity
  8
DV1_Default
  6
Continuous
 62
     7
100
AcDbLine
 10
288.1587187356
 20
410.1678457812
 30
0.0
 11
288.1587187285
 21
410.2733551593
 31
0.0
  0
ARC
  5
10F
330
7D
100
AcDbEntity
  8
DV1_Default
  6
Continuous
 62
     7
100
AcDbCircle
 10
288.4775926221
 20
410.2339605003
 30
0.0
 40
0.1188817552807338
100
AcDbArc
 50
148.0312428891
 51
180.6589778698
  0
ARC
  5
110
330
7D
100
AcDbEntity
  8
DV1_Default
  6
Continuous
 62
     7
100
AcDbCircle
 10
288.4907660857
 20
410.2273075656
 30
0.0
 40
0.1335863616084975
100
AcDbArc
 50
89.2252250003
 51
148.6020593487
  0
LINE
  5
111
330
7D
100
AcDbEntity
  8
DV1_Default
  6
Continuous
 62
     7
100
AcDbLine
 10
288.4925724355
 20
410.360881714
 30
0.0
 11
289.8248670256
 21
410.3608817633
 31
0.0
  0
LINE
  5
112
330
7D
100
AcDbEntity
  8
DV1_Default
  6
Continuous
 62
     7
100
AcDbLine
 10
290.1587187817
 20
410.3392531147
 30
0.0
 11
290.1587187099
 21
411.8872784196
 31
0.0
  0
LINE
  5
113
330
7D
100
AcDbEntity
  8
DV1_Default
  6
Continuous
 62
     7
100
AcDbLine
 10
290.1587187583
 20
410.2733549395
 30
0.0
 11
290.1587187528
 21
410.3392533235
 31
0.0
  0
LINE
  5
114
330
7D
100
AcDbEntity
  8
DV1_Default
  6
Continuous
 62
     7
100
AcDbLine
 10
290.1587187588
 20
410.1678441516
 30
0.0
 11
290.1587187583
 21
410.2733549395
 31
0.0
  0
LINE
  5
115
330
7D
100
AcDbEntity
  8
DV1_Default
  6
Continuous
 62
     7
100
AcDbLine
 10
290.1587187588
 20
410.1678441516
 30
0.0
 11
290.1587194322
 21
392.0072340591
 31
0.0
  0
LINE
  5
116
330
7D
100
AcDbEntity
  8
DV1_Default
  6
Continuous
 62
     7
100
AcDbLine
 10
290.1587194396
 20
391.9017240498
 30
0.0
 11
290.1587194322
 21
392.0072340591
 31
0.0
  0
LINE
  5
117
330
7D
100
AcDbEntity
  8
DV1_Default
  6
Continuous
 62
     7
100
AcDbLine
 10
290.1587194389
 20
391.8358253087
 30
0.0
 11
290.1587194396
 21
391.9017240498
 31
0.0
  0
LINE
  5
118
330
7D
100
AcDbEntity
  8
DV1_Default
  6
Continuous
 62
     7
100
AcDbLine
 10
290.1587194389
 20
391.8358253087
 30
0.0
 11
290.1587195108
 21
390.2878000038
 31
0.0
  0
LINE
  5
119
330
7D
100
AcDbEntity
  8
DV1_Default
  6
Continuous
 62
     7
100
AcDbLine
 10
289.9587194491
 20
391.6466191515
 30
0.0
 11
289.9587195214
 21
390.0886324909
 31
0.0
  0
SPLINE
  5
11A
330
7D
100
AcDbEntity
  8
DV1_Default
  6
Continuous
 62
     7
100
AcDbSpline
210
0.0
220
0.0
230
1.0
 70
    12
 71
     3
 72
    13
 73
     9
 74
     0
 42
0.0000003325653134
 43
0.0000000001
 40
0.0
 40
0.0
 40
0.0
 40
0.0
 40
0.2500000011091
 40
0.5000000007392
 40
0.6250000005543
 40
0.7500000003694
 40
0.8750000001844
 40
1.0
 40
1.0
 40
1.0
 40
1.0
 10
289.9587194490789
 20
391.6466191515378
 30
0.0
 41
1.0
 10
289.9587194489943
 20
391.6486464526519
 30
0.0
 41
1.0
 10
289.9580146430414
 20
391.6525481335219
 30
0.0
 41
1.0
 10
289.9553012310391
 20
391.6571554347849
 30
0.0
 41
1.0
 10
289.9519613430294
 20
391.6607450086638
 30
0.0
 41
1.0
 10
289.9488595362783
 20
391.663406116586
 30
0.0
 41
1.0
 10
289.945140716138
 20
391.666051987278
 30
0.0
 41
1.0
 10
289.9422520605443
 20
391.667819153193
 30
0.0
 41
1.0
 10
289.9406968557773
 20
391.6687052392756
 30
0.0
 41
1.0
  0
ARC
  5
11B
330
7D
100
AcDbEntity
  8
DV1_Default
  6
Continuous
 62
     7
100
AcDbCircle
 10
289.8366687294
 20
391.4383867402
 30
0.0
 40
0.2527221044262639
100
AcDbArc
 50
65.6926984731
 51
92.6764342896
  0
LINE
  5
11C
330
7D
100
AcDbEntity
  8
DV1_Default
  6
Continuous
 62
     7
100
AcDbLine
 10
288.492573128
 20
391.6908331172
 30
0.0
 11
289.8248677181
 21
391.6908331666
 31
0.0
  0
ARC
  5
11D
330
7D
100
AcDbEntity
  8
DV1_Default
  6
Continuous
 62
     7
100
AcDbCircle
 10
288.48075334
 20
391.4384745487
 30
0.0
 40
0.2526352202051824
100
AcDbArc
 50
87.3183815188
 51
114.3121413188
  0
SPLINE
  5
11E
330
7D
100
AcDbEntity
  8
DV1_Default
  6
Continuous
 62
     7
100
AcDbSpline
210
0.0
220
0.0
230
1.0
 70
    12
 71
     3
 72
    13
 73
     9
 74
     0
 42
0.0000003325751616
 43
0.0000000001
 40
0.0
 40
0.0
 40
0.0
 40
0.0
 40
0.1249999996229
 40
0.2499999992454
 40
0.3749999988678
 40
0.4999999984903
 40
0.7499999977351
 40
1.0
 40
1.0
 40
1.0
 40
1.0
 10
288.3767415298273
 20
391.6687050806623
 30
0.0
 41
1.0
 10
288.3751863664543
 20
391.6678190235024
 30
0.0
 41
1.0
 10
288.3722978112679
 20
391.6660519102383
 30
0.0
 41
1.0
 10
288.3685790808584
 20
391.6634061251253
 30
0.0
 41
1.0
 10
288.3654773596994
 20
391.6607450998301
 30
0.0
 41
1.0
 10
288.3621375591891
 20
391.6571556371006
 30
0.0
 41
1.0
 10
288.3594242287414
 20
391.6525484771064
 30
0.0
 41
1.0
 10
288.3587194191842
 20
391.648646916884
 30
0.0
 41
1.0
 10
288.3587194192789
 20
391.646619679107
 30
0.0
 41
1.0
  0
LINE
  5
11F
330
7D
100
AcDbEntity
  8
DV1_Default
  6
Continuous
 62
     7
100
AcDbLine
 10
288.3587194916
 20
390.0886324316
 30
0.0
 11
288.3587194193
 21
391.6466196791
 31
0.0
  0
LINE
  5
120
330
7D
100
AcDbEntity
  8
DV1_Default
  6
Continuous
 62
     7
100
AcDbLine
 10
288.1587194876
 20
390.2877999296
 30
0.0
 11
288.1587194157
 21
391.8358258176
 31
0.0
  0
LINE
  5
121
330
7D
100
AcDbEntity
  8
DV1_Default
  6
Continuous
 62
     7
100
AcDbLine
 10
288.1587194157
 20
391.8358258176
 30
0.0
 11
288.1587194097
 21
391.9017236817
 31
0.0
  0
LINE
  5
122
330
7D
100
AcDbEntity
  8
DV1_Default
  6
Continuous
 62
     7
100
AcDbLine
 10
288.1587194097
 20
391.9017236817
 30
0.0
 11
288.158719409
 21
392.0072322812
 31
0.0
  0
LINE
  5
123
330
7D
100
AcDbEntity
  8
DV1_Default
  6
Continuous
 62
     7
100
AcDbLine
 10
288.158719409
 20
392.0072322812
 30
0.0
 11
288.1587187356
 21
410.1678457812
 31
0.0
  0
LINE
  5
124
330
7D
100
AcDbEntity
  8
DV1_Default
  6
Continuous
 62
     7
100
AcDbLine
 10
288.3587194078
 20
391.9424848502
 30
0.0
 11
288.3587187296
 21
410.2325932318
 31
0.0
  0
ARC
  5
125
330
7D
100
AcDbEntity
  8
DV1_Default
  6
Continuous
 62
     7
100
AcDbCircle
 10
288.4907330962
 20
391.9477105917
 30
0.0
 40
0.1335262370242045
100
AcDbArc
 50
211.3829283105
 51
270.7895760398
  0
ARC
  5
126
330
7D
100
AcDbEntity
  8
DV1_Default
  6
Continuous
 62
     7
100
AcDbCircle
 10
288.4775915893
 20
391.9411174453
 30
0.0
 40
0.1188800459603733
100
AcDbArc
 50
179.3409469611
 51
211.9684756011
  0
LINE
  5
127
330
7D
100
AcDbEntity
  8
DV1_Default
  6
Continuous
 62
     7
100
AcDbLine
 10
289.8248677133
 20
391.8141970827
 30
0.0
 11
288.4925731232
 21
391.8141970333
 31
0.0
  0
ARC
  5
128
330
7D
100
AcDbEntity
  8
DV1_Default
  6
Continuous
 62
     7
100
AcDbCircle
 10
289.8266736851
 20
391.9477682082
 30
0.0
 40
0.1335833339262125
100
AcDbArc
 50
269.2253695752
 51
328.6029442908
  0
ARC
  5
129
330
7D
100
AcDbEntity
  8
DV1_Default
  6
Continuous
 62
     7
100
AcDbCircle
 10
289.8398434714
 20
391.9411190613
 30
0.0
 40
0.1188838323013392
100
AcDbArc
 50
328.0316123554
 51
0.6591084045
  0
LINE
  5
12A
330
7D
100
AcDbEntity
  8
DV1_Default
  6
Continuous
 62
     7
100
AcDbLine
 10
289.9587187594
 20
410.232591576
 30
0.0
 11
289.9587194376
 21
391.9424866246
 31
0.0
  0
ARC
  5
12B
330
7D
100
AcDbEntity
  8
DV1_Default
  6
Continuous
 62
     7
100
AcDbCircle
 10
289.8398410817
 20
410.2339589853
 30
0.0
 40
0.1188855418946325
100
AcDbArc
 50
359.3409752865
 51
31.9686776252
  0
ARC
  5
12C
330
7D
100
AcDbEntity
  8
DV1_Default
  6
Continuous
 62
     7
100
AcDbCircle
 10
289.8267064433
 20
410.2273715359
 30
0.0
 40
0.1335228979847571
100
AcDbArc
 50
31.3825801448
 51
90.7893343118
  0
LINE
  5
12D
330
7D
100
AcDbEntity
  8
DV1_Default
  6
Continuous
 62
     7
100
AcDbLine
 10
289.9587187057
 20
412.0870731942
 30
0.0
 11
288.3587186759
 21
412.0870731349
 31
0.0
  0
SPLINE
  5
12E
330
7D
100
AcDbEntity
  8
DV1_Default
  6
Continuous
 62
     7
100
AcDbSpline
210
0.0
220
0.0
230
1.0
 70
     8
 71
     3
 72
    11
 73
     7
 74
     0
 42
0.000000042115138
 43
0.0000000001
 40
0.0
 40
0.0
 40
0.0
 40
0.0
 40
0.2580033592988898
 40
0.5069622618328227
 40
0.7529151520576803
 40
1.0
 40
1.0
 40
1.0
 40
1.0
 10
288.3587186759577
 20
412.086445654029
 30
0.0
 10
288.3365999897186
 20
412.0847995427209
 30
0.0
 10
288.2994509486536
 20
412.0811685386156
 30
0.0
 10
288.2449795934435
 20
412.0544606428069
 30
0.0
 10
288.2005820149693
 20
412.0144515189872
 30
0.0
 10
288.1834898136613
 20
411.9824666189059
 30
0.0
 10
288.1738993273793
 20
411.96351373012
 30
0.0
  0
ARC
  5
12F
330
7D
100
AcDbEntity
  8
DV1_Default
  6
Continuous
 62
     7
100
AcDbCircle
 10
288.9509933725
 20
411.8417170997
 30
0.0
 40
0.7865809302869958
100
AcDbArc
 50
171.0923006446
 51
181.4151264925
  0
ARC
  5
130
330
7D
100
AcDbEntity
  8
DV1_Default
  6
Continuous
 62
     7
100
AcDbCircle
 10
290.7292854195
 20
411.7065876305
 30
0.0
 40
2.568269681623857
100
AcDbArc
 50
176.2744401747
 51
182.0176753926
  0
ARC
  5
131
330
7D
100
AcDbEntity
  8
DV1_Default
  6
Continuous
 62
     7
100
AcDbCircle
 10
286.6360772756
 20
411.6826815026
 30
0.0
 40
3.518685538265472
100
AcDbArc
 50
358.7752631132
 51
4.5777430463
  0
SPLINE
  5
132
330
7D
100
AcDbEntity
  8
DV1_Default
  6
Continuous
 62
     7
100
AcDbSpline
210
0.0
220
0.0
230
1.0
 70
     8
 71
     3
 72
    11
 73
     7
 74
     0
 42
0.000000042115138
 43
0.0000000001
 40
0.0
 40
0.0
 40
0.0
 40
0.0
 40
0.2470848479519095
 40
0.4930377381819607
 40
0.7419966407125715
 40
1.0
 40
1.0
 40
1.0
 40
1.0
 10
290.1435380634404
 20
411.963513803149
 30
0.0
 10
290.1339475757529
 20
411.9824666912239
 30
0.0
 10
290.1168553720734
 20
412.0144515900376
 30
0.0
 10
290.0724577906355
 20
412.0544607105667
 30
0.0
 10
290.0179864334488
 20
412.0811686023383
 30
0.0
 10
289.9808373921167
 20
412.0847996036896
 30
0.0
 10
289.9587187057573
 20
412.0864457133578
 30
0.0
  0
LINE
  5
133
330
7D
100
AcDbEntity
  8
DV1_Default
  6
Continuous
 62
     7
100
AcDbLine
 10
288.3587194917
 20
390.088005155
 30
0.0
 11
289.9587195215
 21
390.0880052144
 31
0.0
  0
ARC
  5
134
330
7D
100
AcDbEntity
  8
DV1_Default
  6
Continuous
 62
     7
100
AcDbCircle
 10
291.6813624744
 20
390.4923968554
 30
0.0
 40
3.518687098529102
100
AcDbArc
 50
178.7752660011
 51
184.5777405741
  0
SPLINE
  5
135
330
7D
100
AcDbEntity
  8
DV1_Default
  6
Continuous
 62
     7
100
AcDbSpline
210
0.0
220
0.0
230
1.0
 70
     8
 71
     3
 72
    11
 73
     7
 74
     0
 42
0.000000042115138
 43
0.0000000001
 40
0.0
 40
0.0
 40
0.0
 40
0.0
 40
0.2470848479521897
 40
0.4930377381820789
 40
0.7419966407123051
 40
1.0
 40
1.0
 40
1.0
 40
1.0
 10
288.1739001339597
 20
390.2115645461108
 30
0.0
 10
288.1834906216476
 20
390.1926116580362
 30
0.0
 10
288.2005828253278
 20
390.160626759223
 30
0.0
 10
288.2449804067662
 20
390.1206176386947
 30
0.0
 10
288.299451763953
 20
390.0939097469238
 30
0.0
 10
288.3366008052849
 20
390.0902787455729
 30
0.0
 10
288.3587194916443
 20
390.0886326359048
 30
0.0
  0
SPLINE
  5
136
330
7D
100
AcDbEntity
  8
DV1_Default
  6
Continuous
 62
     7
100
AcDbSpline
210
0.0
220
0.0
230
1.0
 70
     8
 71
     3
 72
    11
 73
     7
 74
     0
 42
0.000000042115138
 43
0.0000000001
 40
0.0
 40
0.0
 40
0.0
 40
0.0
 40
0.2580033592902538
 40
0.5069622618229578
 40
0.7529151520519345
 40
1.0
 40
1.0
 40
1.0
 40
1.0
 10
289.9587195214488
 20
390.0886326952354
 30
0.0
 10
289.9808382076861
 20
390.0902788065445
 30
0.0
 10
290.0179872487488
 20
390.0939098106513
 30
0.0
 10
290.0724586039548
 20
390.1206177064618
 30
0.0
 10
290.1168561824261
 20
390.1606268302818
 30
0.0
 10
290.1339483837336
 20
390.1926117303624
 30
0.0
 10
290.1435388700154
 20
390.2115646191481
 30
0.0
  0
ARC
  5
137
330
7D
100
AcDbEntity
  8
DV1_Default
  6
Continuous
 62
     7
100
AcDbCircle
 10
287.5881587479
 20
390.4684908399
 30
0.0
 40
2.568263731399163
100
AcDbArc
 50
356.2745244714
 51
2.0176821832
  0
ARC
  5
138
330
7D
100
AcDbEntity
  8
DV1_Default
  6
Continuous
 62
     7
100
AcDbCircle
 10
289.3664432987
 20
390.3333612024
 30
0.0
 40
0.7865824488994995
100
AcDbArc
 50
351.0923266938
 51
1.4151197773
  0
LINE
  5
139
330
7D
100
AcDbEntity
  8
DV1_Default
  6
Continuous
 62
     7
100
AcDbLine
 10
253.158718834
 20
384.2352446697
 30
0.0
 11
253.1587185569
 21
382.3231440661
 31
0.0
  0
LINE
  5
13A
330
7D
100
AcDbEntity
  8
DV1_Default
  6
Continuous
 62
     7
100
AcDbLine
 10
253.1587185317
 20
382.1495007504
 30
0.0
 11
253.1587185311
 21
382.1449524433
 31
0.0
  0
LINE
  5
13B
330
7D
100
AcDbEntity
  8
DV1_Default
  6
Continuous
 62
     7
100
AcDbLine
 10
253.1587187499
 20
384.3875336839
 30
0.0
 11
253.158718834
 21
384.2352446697
 31
0.0
  0
LINE
  5
13C
330
7D
100
AcDbEntity
  8
DV1_Default
  6
Continuous
 62
     7
100
AcDbLine
 10
253.1587187417
 20
384.4970744353
 30
0.0
 11
253.1587187498
 21
384.3875339333
 31
0.0
  0
LINE
  5
13D
330
7D
100
AcDbEntity
  8
DV1_Default
  6
Continuous
 62
     7
100
AcDbLine
 10
253.1587187324
 20
384.6230960085
 30
0.0
 11
253.1587187417
 21
384.4970744651
 31
0.0
  0
LINE
  5
13E
330
7D
100
AcDbEntity
  8
DV1_Default
  6
Continuous
 62
     7
100
AcDbLine
 10
253.1587187078
 20
384.9566823036
 30
0.0
 11
253.1587187324
 21
384.623096021
 31
0.0
  0
LINE
  5
13F
330
7D
100
AcDbEntity
  8
DV1_Default
  6
Continuous
 62
     7
100
AcDbLine
 10
253.1587170181
 20
401.0872334208
 30
0.0
 11
253.1587187078
 21
384.9566823036
 31
0.0
  0
LINE
  5
140
330
7D
100
AcDbEntity
  8
DV1_Default
  6
Continuous
 62
     7
100
AcDbLine
 10
253.1587162904
 20
417.5519699851
 30
0.0
 11
253.1587163879
 21
417.2180784399
 31
0.0
  0
LINE
  5
141
330
7D
100
AcDbEntity
  8
DV1_Default
  6
Continuous
 62
     7
100
AcDbLine
 10
253.158716281
 20
417.678071799
 30
0.0
 11
253.1587162903
 21
417.5519697952
 31
0.0
  0
LINE
  5
142
330
7D
100
AcDbEntity
  8
DV1_Default
  6
Continuous
 62
     7
100
AcDbLine
 10
253.1587162729
 20
417.7875491069
 30
0.0
 11
253.158716281
 21
417.6780717692
 31
0.0
  0
LINE
  5
143
330
7D
100
AcDbEntity
  8
DV1_Default
  6
Continuous
 62
     7
100
AcDbLine
 10
253.1587162617
 20
417.939551361
 30
0.0
 11
253.1587162729
 21
417.7875490905
 31
0.0
  0
LINE
  5
144
330
7D
100
AcDbEntity
  8
DV1_Default
  6
Continuous
 62
     7
100
AcDbLine
 10
253.1587157283
 20
419.9513862195
 30
0.0
 11
253.1587157484
 21
419.8755742704
 31
0.0
  0
LINE
  5
145
330
7D
100
AcDbEntity
  8
DV1_Default
  6
Continuous
 62
     7
100
AcDbLine
 10
253.1587157772
 20
419.7672322226
 30
0.0
 11
253.1587158427
 21
419.5199035366
 31
0.0
  0
LINE
  5
146
330
7D
100
AcDbEntity
  8
DV1_Default
  6
Continuous
 62
     7
100
AcDbLine
 10
253.158715847
 20
419.5037023416
 30
0.0
 11
253.1587162617
 21
417.939551361
 31
0.0
  0
LINE
  5
147
330
7D
100
AcDbEntity
  8
DV1_Default
  6
Continuous
 62
     7
100
AcDbLine
 10
253.615554157
 20
381.4008960583
 30
0.0
 11
253.4087189713
 21
381.4008961948
 31
0.0
  0
ARC
  5
148
330
7D
100
AcDbEntity
  8
DV1_Default
  6
Continuous
 62
     7
100
AcDbCircle
 10
253.4087189528
 20
381.6508963645
 30
0.0
 40
0.2499999999944463
100
AcDbArc
 50
190.8660393418
 51
270.0000042491
  0
LINE
  5
149
330
7D
100
AcDbEntity
  8
DV1_Default
  6
Continuous
 62
     7
100
AcDbLine
 10
253.6155512371
 20
420.7735846989
 30
0.0
 11
253.4087160514
 21
420.7735845317
 31
0.0
  0
LINE
  5
14A
330
7D
100
AcDbEntity
  8
DV1_Default
  6
Continuous
 62
     7
100
AcDbLine
 10
253.4087160514
 20
420.7735845317
 30
0.0
 11
253.4087160521
 21
420.7639605088
 31
0.0
  0
ARC
  5
14B
330
7D
100
AcDbEntity
  8
DV1_Default
  6
Continuous
 62
     7
100
AcDbCircle
 10
253.40871607
 20
420.523584362
 30
0.0
 40
0.2499999999944463
100
AcDbArc
 50
90.0000042491
 51
167.6253196297
  0
ARC
  5
14C
330
7D
100
AcDbEntity
  8
DV1_Default
  6
Continuous
 62
     7
100
AcDbCircle
 10
253.6585152168
 20
381.8929658925
 30
0.0
 40
0.4939416709822667
100
AcDbArc
 50
265.0103390328
 51
296.9550550007
  0
ARC
  5
14D
330
7D
100
AcDbEntity
  8
DV1_Default
  6
Continuous
 62
     7
100
AcDbCircle
 10
2575.6069310971
 20
366.58218484
 30
0.0
 40
2321.772138180568
100
AcDbArc
 50
179.5688035619
 51
179.6330291409
  0
SPLINE
  5
14E
330
7D
100
AcDbEntity
  8
DV1_Default
  6
Continuous
 62
     7
100
AcDbSpline
210
0.0
220
0.0
230
1.0
 70
     8
 71
     3
 72
    10
 73
     6
 74
     0
 42
0.0000001220436826
 43
0.0000000001
 40
0.0
 40
0.0
 40
0.0
 40
0.0
 40
0.329939847154063
 40
0.6598591533594435
 40
1.0
 40
1.0
 40
1.0
 40
1.0
 10
253.9384706721408
 20
384.1255744705027
 30
0.0
 10
253.93083552103
 20
384.1165613272893
 30
0.0
 10
253.9157410551388
 20
384.0982345868594
 30
0.0
 10
253.9029601160454
 20
384.074333062185
 30
0.0
 10
253.9013041605537
 20
384.0617368915051
 30
0.0
 10
253.9005424407547
 20
384.0552070099781
 30
0.0
  0
ARC
  5
14F
330
7D
100
AcDbEntity
  8
DV1_Default
  6
Continuous
 62
     7
100
AcDbCircle
 10
254.7882548714
 20
383.25441184
 30
0.0
 40
1.216987064085357
100
AcDbArc
 50
112.6950053582
 51
134.28828081
  0
SPLINE
  5
150
330
7D
100
AcDbEntity
  8
DV1_Default
  6
Continuous
 62
     7
100
AcDbSpline
210
0.0
220
0.0
230
1.0
 70
     8
 71
     3
 72
    14
 73
    10
 74
     0
 42
0.0000000231463684
 43
0.0000000001
 40
0.0
 40
0.0
 40
0.0
 40
0.0
 40
0.0838024404249755
 40
0.1676743656330425
 40
0.2529440660893049
 40
0.5013097737057107
 40
0.7511234756316552
 40
0.8765327640354584
 40
1.0
 40
1.0
 40
1.0
 40
1.0
 10
253.9384685986241
 20
384.7489954563563
 30
0.0
 10
253.9448544422033
 20
384.7389653679728
 30
0.0
 10
253.9578068625518
 20
384.7187992520646
 30
0.0
 10
253.9821393672879
 20
384.6929758583361
 30
0.0
 10
254.0271962070849
 20
384.6567420915348
 30
0.0
 10
254.1030483573815
 20
384.6251848206004
 30
0.0
 10
254.1928908319204
 20
384.6219002736948
 30
0.0
 10
254.2654995816864
 20
384.6351208120198
 30
0.0
 10
254.3009627186204
 20
384.6488630087676
 30
0.0
 10
254.3187133997823
 20
384.6555910367831
 30
0.0
  0
ARC
  5
151
330
7D
100
AcDbEntity
  8
DV1_Default
  6
Continuous
 62
     7
100
AcDbCircle
 10
254.1875121658
 20
384.8917513108
 30
0.0
 40
0.2870573676658749
100
AcDbArc
 50
178.5853092387
 51
209.8220416331
  0
ARC
  5
152
330
7D
100
AcDbEntity
  8
DV1_Default
  6
Continuous
 62
     7
100
AcDbCircle
 10
7202.8919991518
 20
400.7750894555
 30
0.0
 40
6949.009592942926
100
AcDbArc
 50
179.9974262664
 51
180.1309025356
  0
ARC
  5
153
330
7D
100
AcDbEntity
  8
DV1_Default
  6
Continuous
 62
     7
100
AcDbCircle
 10
7199.6964710135
 20
401.4039989733
 30
0.0
 40
6945.814065016524
100
AcDbArc
 50
179.8690749696
 51
180.0026129351
  0
ARC
  5
154
330
7D
100
AcDbEntity
  8
DV1_Default
  6
Continuous
 62
     7
100
AcDbCircle
 10
254.1910975109
 20
417.2818450595
 30
0.0
 40
0.2906230121933855
100
AcDbArc
 50
150.3736977509
 51
181.2162444845
  0
SPLINE
  5
155
330
7D
100
AcDbEntity
  8
DV1_Default
  6
Continuous
 62
     7
100
AcDbSpline
210
0.0
220
0.0
230
1.0
 70
     8
 71
     3
 72
    15
 73
    11
 74
     0
 42
0.0000000232035892
 43
0.0000000001
 40
0.0
 40
0.0
 40
0.0
 40
0.0
 40
0.1346448924005794
 40
0.2663640769774284
 40
0.3986554084246836
 40
0.5350089608536535
 40
0.6592333401505975
 40
0.781293743046856
 40
0.8930691549044515
 40
1.0
 40
1.0
 40
1.0
 40
1.0
 10
254.3187076235442
 20
417.518873586283
 30
0.0
 10
254.2993381184255
 20
417.5263356568913
 30
0.0
 10
254.2613315204272
 20
417.541274616239
 30
0.0
 10
254.2030477292907
 20
417.5513396683522
 30
0.0
 10
254.1454129406515
 20
417.5514275159204
 30
0.0
 10
254.0909843062907
 20
417.5414680088282
 30
0.0
 10
254.0410499453856
 20
417.5230586047344
 30
0.0
 10
253.9989251052294
 20
417.4969087048171
 30
0.0
 10
253.9633730943982
 20
417.4650072168151
 30
0.0
 10
253.9465874365728
 20
417.4384483896192
 30
0.0
 10
253.9384682005939
 20
417.4255119199761
 30
0.0
  0
ARC
  5
156
330
7D
100
AcDbEntity
  8
DV1_Default
  6
Continuous
 62
     7
100
AcDbCircle
 10
254.7819874323
 20
418.9105468059
 30
0.0
 40
1.205793436580293
100
AcDbArc
 50
225.6085230257
 51
247.4053675549
  0
SPLINE
  5
157
330
7D
100
AcDbEntity
  8
DV1_Default
  6
Continuous
 62
     7
100
AcDbSpline
210
0.0
220
0.0
230
1.0
 70
     8
 71
     3
 72
    10
 73
     6
 74
     0
 42
0.0000001220026263
 43
0.0000000001
 40
0.0
 40
0.0
 40
0.0
 40
0.0
 40
0.345498964860415
 40
0.6753315617696298
 40
1.0
 40
1.0
 40
1.0
 40
1.0
 10
253.9005398344217
 20
418.1192834341369
 30
0.0
 10
253.9013316830061
 20
418.1126434049096
 30
0.0
 10
253.9030336736393
 20
418.099929720254
 30
0.0
 10
253.9156927561722
 20
418.0760697020661
 30
0.0
 10
253.9308564324774
 20
418.0578181237721
 30
0.0
 10
253.9384661310589
 20
418.0489148508016
 30
0.0
  0
ARC
  5
158
330
7D
100
AcDbEntity
  8
DV1_Default
  6
Continuous
 62
     7
100
AcDbCircle
 10
2554.7762728793
 20
435.4475360374
 30
0.0
 40
2300.940983000869
100
AcDbArc
 50
180.3666884655
 51
180.4314952591
  0
ARC
  5
159
330
7D
100
AcDbEntity
  8
DV1_Default
  6
Continuous
 62
     7
100
AcDbCircle
 10
253.6585123699
 20
420.2815148713
 30
0.0
 40
0.4939416708168456
100
AcDbArc
 50
63.0449534899
 51
94.9896694689
  0
LINE
  5
15A
330
7D
100
AcDbEntity
  8
DV1_Default
  6
Continuous
 62
     7
100
AcDbLine
 10
254.2701312197
 20
381.6466183111
 30
0.0
 11
253.8823213346
 21
381.4528711791
 31
0.0
  0
LINE
  5
15B
330
7D
100
AcDbEntity
  8
DV1_Default
  6
Continuous
 62
     7
100
AcDbLine
 10
287.6589758304
 20
391.1654423945
 30
0.0
 11
287.6588815989
 21
391.0888678345
 31
0.0
  0
ARC
  5
15C
330
7D
100
AcDbEntity
  8
DV1_Default
  6
Continuous
 62
     7
100
AcDbCircle
 10
287.74087382
 20
330.3477314088
 30
0.0
 40
60.74119176487169
100
AcDbArc
 50
90.0773414138
 51
116.8957880222
  0
ARC
  5
15D
330
7D
100
AcDbEntity
  8
DV1_Default
  6
Continuous
 62
     7
100
AcDbCircle
 10
278.4849727818
 20
338.8037424587
 30
0.0
 40
49.21252265665739
100
AcDbArc
 50
111.7317928932
 51
119.47518146
  0
LINE
  5
15E
330
7D
100
AcDbEntity
  8
DV1_Default
  6
Continuous
 62
     7
100
AcDbLine
 10
287.6588815989
 20
391.0888678345
 30
0.0
 11
287.658975827
 21
391.1654421429
 31
0.0
  0
LINE
  5
15F
330
7D
100
AcDbEntity
  8
DV1_Default
  6
Continuous
 62
     7
100
AcDbLine
 10
287.658975827
 20
391.1654421429
 30
0.0
 11
287.6603976397
 21
392.3208757397
 31
0.0
  0
SPLINE
  5
160
330
7D
100
AcDbEntity
  8
DV1_Default
  6
Continuous
 62
     7
100
AcDbSpline
210
0.0
220
0.0
230
1.0
 70
     8
 71
     3
 72
    11
 73
     7
 74
     0
 42
0.0000001147368041
 43
0.0000000001
 40
0.0
 40
0.0
 40
0.0
 40
0.0
 40
0.2517542477178491
 40
0.5035287645746491
 40
0.7534364542524566
 40
1.0
 40
1.0
 40
1.0
 40
1.0
 10
287.660397639706
 20
392.3208757397297
 30
0.0
 10
287.6597990917673
 20
392.3259971662299
 30
0.0
 10
287.658600471501
 20
392.3365873747948
 30
0.0
 10
287.6473259335392
 20
392.3522017484453
 30
0.0
 10
287.6302414368189
 20
392.3672787686358
 30
0.0
 10
287.6130530853149
 20
392.3765114152047
 30
0.0
 10
287.6045157859151
 20
392.3812938556527
 30
0.0
  0
ARC
  5
161
330
7D
100
AcDbEntity
  8
DV1_Default
  6
Continuous
 62
     7
100
AcDbCircle
 10
287.3599945525
 20
391.7817352404
 30
0.0
 40
0.6475037967208195
100
AcDbArc
 50
67.8126254867
 51
92.5430961931
  0
ARC
  5
162
330
7D
100
AcDbEntity
  8
DV1_Default
  6
Continuous
 62
     7
100
AcDbCircle
 10
288.2096061183
 20
317.1223107013
 30
0.0
 40
75.3114127648328
100
AcDbArc
 50
90.6682442922
 51
116.7443316566
  0
ARC
  5
163
330
7D
100
AcDbEntity
  8
DV1_Default
  6
Continuous
 62
     7
100
AcDbCircle
 10
288.0979971376
 20
318.2684489751
 30
0.0
 40
74.48686220376885
100
AcDbArc
 50
90.5897857222
 51
116.9680243851
  0
ARC
  5
164
330
7D
100
AcDbEntity
  8
DV1_Default
  6
Continuous
 62
     7
100
AcDbCircle
 10
287.330151963
 20
393.0720331675
 30
0.0
 40
0.3206702114588724
100
AcDbArc
 50
270.1988833478
 51
328.8269585592
  0
ARC
  5
165
330
7D
100
AcDbEntity
  8
DV1_Default
  6
Continuous
 62
     7
100
AcDbCircle
 10
287.3025669186
 20
393.0980677707
 30
0.0
 40
0.3578377054698571
100
AcDbArc
 50
327.5464441913
 51
0.3594542181
  0
SPLINE
  5
166
330
7D
100
AcDbEntity
  8
DV1_Default
  6
Continuous
 62
     7
100
AcDbSpline
210
0.0
220
0.0
230
1.0
 70
     8
 71
     3
 72
    22
 73
    18
 74
     0
 42
0.0000000012520455
 43
0.0000000001
 40
0.0
 40
0.0
 40
0.0
 40
0.0
 40
0.0697453800054745
 40
0.1389266779430713
 40
0.2075727907458478
 40
0.275712609989284
 40
0.3433749922987191
 40
0.4105887287421516
 40
0.4773825133617982
 40
0.5437849110122998
 40
0.6098243246861212
 40
0.6755289625172415
 40
0.7409268046623071
 40
0.8060455702638643
 40
0.8709126847028591
 40
0.9355552473472228
 40
1.0
 40
1.0
 40
1.0
 40
1.0
 10
287.6603975820638
 20
393.100312707957
 30
0.0
 10
287.6603343496358
 20
393.280774803647
 30
0.0
 10
287.6602069260333
 20
393.6403460517046
 30
0.0
 10
287.6600304657712
 20
394.1814309912845
 30
0.0
 10
287.659865631196
 20
394.7209027591526
 30
0.0
 10
287.6597133224786
 20
395.259046049301
 30
0.0
 10
287.6595732490276
 20
395.7957851055567
 30
0.0
 10
287.6594455021169
 20
396.3311396456496
 30
0.0
 10
287.6593301373986
 20
396.8651040653235
 30
0.0
 10
287.6592272837484
 20
397.3976794633747
 30
0.0
 10
287.659137116381
 20
397.9288651494992
 30
0.0
 10
287.6590598519094
 20
398.4586609006712
 30
0.0
 10
287.6589957897328
 20
398.9870663649329
 30
0.0
 10
287.6589451479018
 20
399.5140812218114
 30
0.0
 10
287.6589086701735
 20
400.039705145758
 30
0.0
 10
287.6588853692046
 20
400.5639378069707
 30
0.0
 10
287.6588823877623
 20
400.9129859135141
 30
0.0
 10
287.6588808255018
 20
401.0872425317389
 30
0.0
  0
SPLINE
  5
167
330
7D
100
AcDbEntity
  8
DV1_Default
  6
Continuous
 62
     7
100
AcDbSpline
210
0.0
220
0.0
230
1.0
 70
     8
 71
     3
 72
    22
 73
    18
 74
     0
 42
0.0000000012520467
 43
0.0000000001
 40
0.0
 40
0.0
 40
0.0
 40
0.0
 40
0.0644448396127578
 40
0.1290874771168523
 40
0.1939546543320503
 40
0.2590734706128727
 40
0.3244713512964517
 40
0.3901760154509352
 40
0.4562154431279036
 40
0.5226178423256111
 40
0.5894116158702435
 40
0.6566253284197968
 40
0.7242876737897607
 40
0.7924274427916818
 40
0.8610734917651597
 40
0.9302547119711545
 40
1.0
 40
1.0
 40
1.0
 40
1.0
 10
287.6588808255018
 20
401.0872425317389
 30
0.0
 10
287.6588823623847
 20
401.261499210795
 30
0.0
 10
287.6588852929935
 20
401.6105474057633
 30
0.0
 10
287.6589085171216
 20
402.1347801508987
 30
0.0
 10
287.6589449174944
 20
402.6604040597653
 30
0.0
 10
287.6589954814539
 20
403.187418802669
 30
0.0
 10
287.6590594652917
 20
403.7158240540455
 30
0.0
 10
287.6591366509922
 20
404.2456194934406
 30
0.0
 10
287.6592267391945
 20
404.7768047689071
 30
0.0
 10
287.659329513323
 20
405.3093796574325
 30
0.0
 10
287.6594447982001
 20
405.8433434687279
 30
0.0
 10
287.6595724649868
 20
406.3786973015982
 30
0.0
 10
287.6597124580682
 20
406.9154355518251
 30
0.0
 10
287.6598646862023
 20
407.4535779370613
 30
0.0
 10
287.6600294400315
 20
407.9930487015224
 30
0.0
 10
287.660205819361
 20
408.5341325377266
 30
0.0
 10
287.6603331892913
 20
408.8937030263801
 30
0.0
 10
287.6603963947768
 20
409.0741647233411
 30
0.0
  0
ARC
  5
168
330
7D
100
AcDbEntity
  8
DV1_Default
  6
Continuous
 62
     7
100
AcDbCircle
 10
287.302550597
 20
409.0764095109
 30
0.0
 40
0.357852838527034
100
AcDbArc
 50
359.6405849556
 51
32.4541069197
  0
ARC
  5
169
330
7D
100
AcDbEntity
  8
DV1_Default
  6
Continuous
 62
     7
100
AcDbCircle
 10
287.3301978499
 20
409.1025010007
 30
0.0
 40
0.3206025919837853
100
AcDbArc
 50
31.1707731069
 51
89.8096418376
  0
ARC
  5
16A
330
7D
100
AcDbEntity
  8
DV1_Default
  6
Continuous
 62
     7
100
AcDbCircle
 10
288.283188092
 20
484.6612216856
 30
0.0
 40
75.2441415777913
100
AcDbArc
 50
243.167076681
 51
269.2751230402
  0
ARC
  5
16B
330
7D
100
AcDbEntity
  8
DV1_Default
  6
Continuous
 62
     7
100
AcDbCircle
 10
288.0417348874
 20
484.3639127991
 30
0.0
 40
74.62141743486438
100
AcDbArc
 50
243.1329667157
 51
269.4544782035
  0
ARC
  5
16C
330
7D
100
AcDbEntity
  8
DV1_Default
  6
Continuous
 62
     7
100
AcDbCircle
 10
287.3582231791
 20
410.4029004004
 30
0.0
 40
0.6575756338311923
100
AcDbArc
 50
267.6503211228
 51
291.9965542669
  0
SPLINE
  5
16D
330
7D
100
AcDbEntity
  8
DV1_Default
  6
Continuous
 62
     7
100
AcDbSpline
210
0.0
220
0.0
230
1.0
 70
     8
 71
     3
 72
    11
 73
     7
 74
     0
 42
0.0000001147431991
 43
0.0000000001
 40
0.0
 40
0.0
 40
0.0
 40
0.0
 40
0.2467452019127556
 40
0.4967361034485592
 40
0.7484117188391407
 40
1.0
 40
1.0
 40
1.0
 40
1.0
 10
287.6045186801712
 20
409.7931920764179
 30
0.0
 10
287.6130601046339
 20
409.7979779074174
 30
0.0
 10
287.630253269654
 20
409.8072155083854
 30
0.0
 10
287.6473375937205
 20
409.8222952181612
 30
0.0
 10
287.6586048873627
 20
409.8379051437034
 30
0.0
 10
287.6597997516755
 20
409.8484892107982
 30
0.0
 10
287.660396342111
 20
409.8536068614019
 30
0.0
  0
LINE
  5
16E
330
7D
100
AcDbEntity
  8
DV1_Default
  6
Continuous
 62
     7
100
AcDbLine
 10
287.6603963421
 20
409.8536068614
 30
0.0
 11
287.6589743556
 21
411.0090434117
 31
0.0
  0
LINE
  5
16F
330
7D
100
AcDbEntity
  8
DV1_Default
  6
Continuous
 62
     7
100
AcDbLine
 10
287.6589743556
 20
411.0090434117
 30
0.0
 11
287.6588801159
 21
411.085617972
 31
0.0
  0
ARC
  5
170
330
7D
100
AcDbEntity
  8
DV1_Default
  6
Continuous
 62
     7
100
AcDbCircle
 10
288.7289157013
 20
478.8505444757
 30
0.0
 40
67.77337412439506
100
AcDbArc
 50
239.0585315232
 51
269.0953516605
  0
ARC
  5
171
330
7D
100
AcDbEntity
  8
DV1_Default
  6
Continuous
 62
     7
100
AcDbCircle
 10
287.6588652719
 20
391.5887209014
 30
0.0
 40
0.4998530671532185
100
AcDbArc
 50
270.0018714875
 51
0.034030207
  0
ARC
  5
172
330
7D
100
AcDbEntity
  8
DV1_Default
  6
Continuous
 62
     7
100
AcDbCircle
 10
287.4108865481
 20
394.1005133216
 30
0.0
 40
1.551468534231615
100
AcDbArc
 50
267.0709244604
 51
290.5163309482
  0
LINE
  5
173
330
7D
100
AcDbEntity
  8
DV1_Default
  6
Continuous
 62
     7
100
AcDbLine
 10
288.1587175162
 20
401.0872435348
 30
0.0
 11
288.1587181014
 21
393.2477156585
 31
0.0
  0
LINE
  5
174
330
7D
100
AcDbEntity
  8
DV1_Default
  6
Continuous
 62
     7
100
AcDbLine
 10
288.1587169386
 20
408.9267599788
 30
0.0
 11
288.1587175162
 21
401.0872435348
 31
0.0
  0
LINE
  5
175
330
7D
100
AcDbEntity
  8
DV1_Default
  6
Continuous
 62
     7
100
AcDbLine
 10
288.1587168421
 20
410.585468097
 30
0.0
 11
288.1587168479
 21
410.4764747666
 31
0.0
  0
LINE
  5
176
330
7D
100
AcDbEntity
  8
DV1_Default
  6
Continuous
 62
     7
100
AcDbLine
 10
288.1587169067
 20
409.3757474348
 30
0.0
 11
288.1587169184
 21
409.2065900967
 31
0.0
  0
LINE
  5
177
330
7D
100
AcDbEntity
  8
DV1_Default
  6
Continuous
 62
     7
100
AcDbLine
 10
288.1587169184
 20
409.2065900967
 30
0.0
 11
288.1587169386
 21
408.9267599788
 31
0.0
  0
LINE
  5
178
330
7D
100
AcDbEntity
  8
DV1_Default
  6
Continuous
 62
     7
100
AcDbLine
 10
288.1587181014
 20
393.2477156585
 30
0.0
 11
288.1587181227
 21
392.9678962677
 31
0.0
  0
LINE
  5
179
330
7D
100
AcDbEntity
  8
DV1_Default
  6
Continuous
 62
     7
100
AcDbLine
 10
288.1587181227
 20
392.9678962677
 30
0.0
 11
288.1587181361
 21
392.7987419324
 31
0.0
  0
ARC
  5
17A
330
7D
100
AcDbEntity
  8
DV1_Default
  6
Continuous
 62
     7
100
AcDbCircle
 10
253.4095360442
 20
420.5131985249
 30
0.0
 40
0.2507620500248979
100
AcDbArc
 50
90.1873575612
 51
158.89091328
  0
LINE
  5
17B
330
7D
100
AcDbEntity
  8
DV1_Default
  6
Continuous
 62
     7
100
AcDbLine
 10
253.1628635429
 20
420.529941224
 30
0.0
 11
253.1628390866
 21
420.4892510457
 31
0.0
  0
SPLINE
  5
17C
330
7D
100
AcDbEntity
  8
DV1_Default
  6
Continuous
 62
     7
100
AcDbSpline
210
0.0
220
0.0
230
1.0
 70
     8
 71
     3
 72
    10
 73
     6
 74
     0
 42
0.0000000154777109
 43
0.0000000001
 40
0.0
 40
0.0
 40
0.0
 40
0.0
 40
0.2534947437645941
 40
0.5038437622795668
 40
1.0
 40
1.0
 40
1.0
 40
1.0
 10
287.6539999446187
 20
391.1651756647938
 30
0.0
 10
287.7105346552652
 20
391.1752315090724
 30
0.0
 10
287.8040746628569
 20
391.1939509270845
 30
0.0
 10
287.9907975176375
 20
391.3085446282141
 30
0.0
 10
288.0641313332557
 20
391.4420257304546
 30
0.0
 10
288.120367375798
 20
391.5501697940348
 30
0.0
  0
SPLINE
  5
17D
330
7D
100
AcDbEntity
  8
DV1_Default
  6
Continuous
 62
     7
100
AcDbSpline
210
0.0
220
0.0
230
1.0
 70
     8
 71
     3
 72
     8
 73
     4
 74
     0
 42
0.0000002340858696
 43
0.0000000001
 40
0.0
 40
0.0
 40
0.0
 40
0.0
 40
1.0
 40
1.0
 40
1.0
 40
1.0
 10
288.1306641228115
 20
391.4586461393563
 30
0.0
 10
288.1378296608764
 20
391.4562562315671
 30
0.0
 10
288.1436776274888
 20
391.4665171669089
 30
0.0
 10
288.1482080226486
 20
391.4894289453816
 30
0.0
  0
SPLINE
  5
17E
330
7D
100
AcDbEntity
  8
DV1_Default
  6
Continuous
 62
     7
100
AcDbSpline
210
0.0
220
0.0
230
1.0
 70
     8
 71
     3
 72
    10
 73
     6
 74
     0
 42
0.0000000154777142
 43
0.0000000001
 40
0.0
 40
0.0
 40
0.0
 40
0.0
 40
0.2534947465130831
 40
0.503843765010967
 40
1.0
 40
1.0
 40
1.0
 40
1.0
 10
287.6539999321684
 20
391.1651754155363
 30
0.0
 10
287.7105346392941
 20
391.1752312449464
 30
0.0
 10
287.8040746412918
 20
391.1939506379235
 30
0.0
 10
287.9907974871974
 20
391.3085442730375
 30
0.0
 10
288.0641313046001
 20
391.4420253259127
 30
0.0
 10
288.1203673470729
 20
391.550169348236
 30
0.0
  0
ARC
  5
17F
330
7D
100
AcDbEntity
  8
DV1_Default
  6
Continuous
 62
     7
100
AcDbCircle
 10
282.5462614488
 20
390.6812781264
 30
0.0
 40
5.698553737446491
100
AcDbArc
 50
9.9737545144
 51
11.9942256139
  0
SPLINE
  5
180
330
7D
100
AcDbEntity
  8
DV1_Default
  6
Continuous
 62
     7
100
AcDbSpline
210
0.0
220
0.0
230
1.0
 70
     8
 71
     3
 72
     8
 73
     4
 74
     0
 42
0.0000002340858291
 43
0.0000000001
 40
0.0
 40
0.0
 40
0.0
 40
0.0
 40
1.0
 40
1.0
 40
1.0
 40
1.0
 10
288.1306639580039
 20
391.4586455147727
 30
0.0
 10
288.1378295065998
 20
391.4562555870681
 30
0.0
 10
288.1436774916368
 20
391.4665165073356
 30
0.0
 10
288.148207913115
 20
391.4894282755753
 30
0.0
  0
SPLINE
  5
181
330
7D
100
AcDbEntity
  8
DV1_Default
  6
Continuous
 62
     7
100
AcDbSpline
210
0.0
220
0.0
230
1.0
 70
     8
 71
     3
 72
     8
 73
     4
 74
     0
 42
0.0000000117353919
 43
0.0000000001
 40
0.0
 40
0.0
 40
0.0
 40
0.0
 40
1.0
 40
1.0
 40
1.0
 40
1.0
 10
288.1483962579824
 20
391.8520818769408
 30
0.0
 10
288.1485758242644
 20
392.0553867213868
 30
0.0
 10
288.1487539076722
 20
392.3394277381028
 30
0.0
 10
288.1489305082061
 20
392.7042049270888
 30
0.0
  0
SPLINE
  5
182
330
7D
100
AcDbEntity
  8
DV1_Default
  6
Continuous
 62
     7
100
AcDbSpline
210
0.0
220
0.0
230
1.0
 70
     8
 71
     3
 72
    10
 73
     6
 74
     0
 42
0.0000000154777124
 43
0.0000000001
 40
0.0
 40
0.0
 40
0.0
 40
0.0
 40
0.4961562359698243
 40
0.7465052544837885
 40
1.0
 40
1.0
 40
1.0
 40
1.0
 10
288.1203659325201
 20
410.6243161511657
 30
0.0
 10
288.0641298737487
 20
410.7324601885635
 30
0.0
 10
287.9907960370343
 20
410.8659412593728
 30
0.0
 10
287.8040731741967
 20
410.9805349099879
 30
0.0
 10
287.7105331692691
 20
410.9992543080885
 30
0.0
 10
287.65399846052
 20
411.0093101404365
 30
0.0
  0
LINE
  5
183
330
7D
100
AcDbEntity
  8
DV1_Default
  6
Continuous
 62
     7
100
AcDbLine
 10
248.1587184279
 20
382.6017419817
 30
0.0
 11
248.1587174935
 21
401.0872429974
 31
0.0
  0
LINE
  5
184
330
7D
100
AcDbEntity
  8
DV1_Default
  6
Continuous
 62
     7
100
AcDbLine
 10
248.158717511
 20
401.0872429974
 30
0.0
 11
248.1587167288
 21
419.5728024315
 31
0.0
  0
LINE
  5
185
330
7D
100
AcDbEntity
  8
DV1_Default
  6
Continuous
 62
     7
100
AcDbLine
 10
248.1587166021
 20
419.5729028632
 30
0.0
 11
248.1587165943
 21
419.7330299404
 31
0.0
  0
LINE
  5
186
330
7D
100
AcDbEntity
  8
DV1_Default
  6
Continuous
 62
     7
100
AcDbLine
 10
248.1587165943
 20
419.7330299252
 30
0.0
 11
248.1587165862
 21
419.8989424202
 31
0.0
  0
LINE
  5
187
330
7D
100
AcDbEntity
  8
DV1_Default
  6
Continuous
 62
     7
100
AcDbLine
 10
248.1587165862
 20
419.8989424048
 30
0.0
 11
248.1587165788
 21
420.0521749497
 31
0.0
  0
LINE
  5
188
330
7D
100
AcDbEntity
  8
DV1_Default
  6
Continuous
 62
     7
100
AcDbLine
 10
248.1587165788
 20
420.0521750156
 30
0.0
 11
248.1587165762
 21
420.1100323987
 31
0.0
  0
LINE
  5
189
330
7D
100
AcDbEntity
  8
DV1_Default
  6
Continuous
 62
     7
100
AcDbLine
 10
248.1587165762
 20
420.1100325129
 30
0.0
 11
248.1587165737
 21
420.1657259181
 31
0.0
  0
LINE
  5
18A
330
7D
100
AcDbEntity
  8
DV1_Default
  6
Continuous
 62
     7
100
AcDbLine
 10
248.1587166007
 20
420.1657005921
 30
0.0
 11
248.1587164465
 21
423.3354895155
 31
0.0
  0
LINE
  5
18B
330
7D
100
AcDbEntity
  8
DV1_Default
  6
Continuous
 62
     7
100
AcDbLine
 10
248.1587186465
 20
378.8389904323
 30
0.0
 11
248.1587185869
 21
382.0086641482
 31
0.0
  0
LINE
  5
18C
330
7D
100
AcDbEntity
  8
DV1_Default
  6
Continuous
 62
     7
100
AcDbLine
 10
248.1587184603
 20
382.0083727254
 30
0.0
 11
248.1587184573
 21
382.0638001623
 31
0.0
  0
LINE
  5
18D
330
7D
100
AcDbEntity
  8
DV1_Default
  6
Continuous
 62
     7
100
AcDbLine
 10
248.1587184573
 20
382.0638002061
 30
0.0
 11
248.1587184541
 21
382.1217446089
 31
0.0
  0
LINE
  5
18E
330
7D
100
AcDbEntity
  8
DV1_Default
  6
Continuous
 62
     7
100
AcDbLine
 10
248.1587184541
 20
382.1217446527
 30
0.0
 11
248.1587184463
 21
382.2751431754
 31
0.0
  0
LINE
  5
18F
330
7D
100
AcDbEntity
  8
DV1_Default
  6
Continuous
 62
     7
100
AcDbLine
 10
248.1587184463
 20
382.2751431524
 30
0.0
 11
248.158718438
 21
382.440807795
 31
0.0
  0
LINE
  5
190
330
7D
100
AcDbEntity
  8
DV1_Default
  6
Continuous
 62
     7
100
AcDbLine
 10
248.158718438
 20
382.4408077553
 30
0.0
 11
248.15871843
 21
382.6017068149
 31
0.0
  0
LINE
  5
191
330
7D
100
AcDbEntity
  8
DV1_Default
  6
Continuous
 62
     7
100
AcDbLine
 10
253.1587164589
 20
423.0857923716
 30
0.0
 11
253.1587164993
 21
422.0692853989
 31
0.0
  0
LINE
  5
192
330
7D
100
AcDbEntity
  8
DV1_Default
  6
Continuous
 62
     7
100
AcDbLine
 10
253.1587165097
 20
421.8056464612
 30
0.0
 11
253.1587165843
 21
419.9295349987
 31
0.0
  0
LINE
  5
193
330
7D
100
AcDbEntity
  8
DV1_Default
  6
Continuous
 62
     7
100
AcDbLine
 10
253.1587165843
 20
419.9295349987
 30
0.0
 11
253.1587165935
 21
419.7603902044
 31
0.0
  0
LINE
  5
194
330
7D
100
AcDbEntity
  8
DV1_Default
  6
Continuous
 62
     7
100
AcDbLine
 10
253.1587165935
 20
419.7603902044
 30
0.0
 11
253.1587165969
 21
419.490282708
 31
0.0
  0
LINE
  5
195
330
7D
100
AcDbEntity
  8
DV1_Default
  6
Continuous
 62
     7
100
AcDbLine
 10
253.1587165969
 20
419.490282708
 30
0.0
 11
253.1587175114
 21
401.0872400798
 31
0.0
  0
LINE
  5
196
330
7D
100
AcDbEntity
  8
DV1_Default
  6
Continuous
 62
     7
100
AcDbLine
 10
253.1587175113
 20
401.0872400798
 30
0.0
 11
253.1587184249
 21
382.6842093898
 31
0.0
  0
LINE
  5
197
330
7D
100
AcDbEntity
  8
DV1_Default
  6
Continuous
 62
     7
100
AcDbLine
 10
253.158718425
 20
382.6842093898
 30
0.0
 11
253.1587184399
 21
382.4140884955
 31
0.0
  0
LINE
  5
198
330
7D
100
AcDbEntity
  8
DV1_Default
  6
Continuous
 62
     7
100
AcDbLine
 10
253.1587184399
 20
382.4140884955
 30
0.0
 11
253.1587184391
 21
382.2448954004
 31
0.0
  0
LINE
  5
199
330
7D
100
AcDbEntity
  8
DV1_Default
  6
Continuous
 62
     7
100
AcDbLine
 10
253.1587184391
 20
382.2448954004
 30
0.0
 11
253.1587186341
 21
379.0886880706
 31
0.0
  0
ARC
  5
19A
330
7D
100
AcDbEntity
  8
DV1_Default
  6
Continuous
 62
     7
100
AcDbCircle
 10
252.6592415694
 20
423.0861718771
 30
0.0
 40
0.499475033654357
100
AcDbArc
 50
359.9564661565
 51
12.1096008069
  0
LINE
  5
19B
330
7D
100
AcDbEntity
  8
DV1_Default
  6
Continuous
 62
     7
100
AcDbLine
 10
252.6587165619
 20
420.402220478
 30
0.0
 11
252.6587164346
 21
423.5740391178
 31
0.0
  0
LINE
  5
19C
330
7D
100
AcDbEntity
  8
DV1_Default
  6
Continuous
 62
     7
100
AcDbLine
 10
252.6587165977
 20
419.653154521
 30
0.0
 11
252.6587175106
 21
401.0872423191
 31
0.0
  0
LINE
  5
19D
330
7D
100
AcDbEntity
  8
DV1_Default
  6
Continuous
 62
     7
100
AcDbLine
 10
252.6587184336
 20
382.5213212319
 30
0.0
 11
252.6587175106
 21
401.0872423191
 31
0.0
  0
LINE
  5
19E
330
7D
100
AcDbEntity
  8
DV1_Default
  6
Continuous
 62
     7
100
AcDbLine
 10
252.6587184718
 20
381.772256918
 30
0.0
 11
252.6587186588
 21
378.5888337581
 31
0.0
  0
ARC
  5
19F
330
7D
100
AcDbEntity
  8
DV1_Default
  6
Continuous
 62
     7
100
AcDbCircle
 10
252.6592437446
 20
379.0883085158
 30
0.0
 40
0.4994750337082106
100
AcDbArc
 50
269.9397663477
 51
0.0435395017
  0
ARC
  5
1A0
330
7D
100
AcDbEntity
  8
DV1_Default
  6
Continuous
 62
     7
100
AcDbCircle
 10
248.4087186465
 20
378.8389907872
 30
0.0
 40
0.249999999999997
100
AcDbArc
 50
180.0000813239
 51
270.0000028327
  0
LINE
  5
1A1
330
7D
100
AcDbEntity
  8
DV1_Default
  6
Continuous
 62
     7
100
AcDbLine
 10
248.4087164346
 20
423.5737475346
 30
0.0
 11
248.4087164342
 21
423.585489299
 31
0.0
  0
ARC
  5
1A2
330
7D
100
AcDbEntity
  8
DV1_Default
  6
Continuous
 62
     7
100
AcDbCircle
 10
248.4087164465
 20
423.3354891853
 30
0.0
 40
0.2500000000000032
100
AcDbArc
 50
90.0000028327
 51
179.9999243416
  0
LINE
  5
1A3
330
7D
100
AcDbEntity
  8
DV1_Default
  6
Continuous
 62
     7
100
AcDbLine
 10
252.6587164342
 20
423.5854897379
 30
0.0
 11
248.6587164342
 21
423.5854895402
 31
0.0
  0
LINE
  5
1A4
330
7D
100
AcDbEntity
  8
DV1_Default
  6
Continuous
 62
     7
100
AcDbLine
 10
248.658739743
 20
420.4020333956
 30
0.0
 11
248.6587164342
 21
423.5854895402
 31
0.0
  0
SPLINE
  5
1A5
330
7D
100
AcDbEntity
  8
DV1_Default
  6
Continuous
 62
     7
100
AcDbSpline
210
0.0
220
0.0
230
1.0
 70
     8
 71
     3
 72
    11
 73
     7
 74
     0
 42
0.0000001304458741
 43
0.0000000001
 40
0.0
 40
0.0
 40
0.0
 40
0.0
 40
0.2482057766048305
 40
0.4945239374414911
 40
0.7436179877738976
 40
1.0
 40
1.0
 40
1.0
 40
1.0
 10
248.7050964914864
 20
420.3461445491865
 30
0.0
 10
248.6979709001138
 20
420.3504930748946
 30
0.0
 10
248.6837739078089
 20
420.3590209313831
 30
0.0
 10
248.6695486441308
 20
420.372873265259
 30
0.0
 10
248.6604295186988
 20
420.3873114736036
 30
0.0
 10
248.6593083896936
 20
420.397169091483
 30
0.0
 10
248.65873974297
 20
420.40203339556
 30
0.0
  0
ARC
  5
1A6
330
7D
100
AcDbEntity
  8
DV1_Default
  6
Continuous
 62
     7
100
AcDbCircle
 10
248.9800099123
 20
420.9700164274
 30
0.0
 40
0.6817576617314837
100
AcDbArc
 50
246.2189823856
 51
270.0130859512
  0
LINE
  5
1A7
330
7D
100
AcDbEntity
  8
DV1_Default
  6
Continuous
 62
     7
100
AcDbLine
 10
249.0159781888
 20
420.2880394525
 30
0.0
 11
248.9801656209
 21
420.2883267412
 31
0.0
  0
LINE
  5
1A8
330
7D
100
AcDbEntity
  8
DV1_Default
  6
Continuous
 62
     7
100
AcDbLine
 10
252.3014551561
 20
420.2881246847
 30
0.0
 11
249.0159781888
 21
420.2880394525
 31
0.0
  0
ARC
  5
1A9
330
7D
100
AcDbEntity
  8
DV1_Default
  6
Continuous
 62
     7
100
AcDbCircle
 10
252.3273038814
 20
421.0109301124
 30
0.0
 40
0.7234047968845461
100
AcDbArc
 50
267.9522693134
 51
293.2280008336
  0
SPLINE
  5
1AA
330
7D
100
AcDbEntity
  8
DV1_Default
  6
Continuous
 62
     7
100
AcDbSpline
210
0.0
220
0.0
230
1.0
 70
    12
 71
     3
 72
    10
 73
     6
 74
     0
 42
0.0000001300228078
 43
0.0000000001
 40
0.0
 40
0.0
 40
0.0
 40
0.0
 40
0.3333333333333
 40
0.6666666666667
 40
1.0
 40
1.0
 40
1.0
 40
1.0
 10
252.6587165619112
 20
420.4022204779685
 30
0.0
 41
1.0
 10
252.6586251492842
 20
420.3953715233158
 30
0.0
 41
1.0
 10
252.6550781764687
 20
420.3820830532073
 30
0.0
 41
1.0
 10
252.638882858241
 20
420.3628472384806
 30
0.0
 41
1.0
 10
252.6224009060656
 20
420.3515286697364
 30
0.0
 41
1.0
 10
252.6126082589182
 20
420.3461625497519
 30
0.0
 41
1.0
  0
LINE
  5
1AB
330
7D
100
AcDbEntity
  8
DV1_Default
  6
Continuous
 62
     7
100
AcDbLine
 10
249.0159768729
 20
419.981752996
 30
0.0
 11
252.3014551541
 21
419.9818373244
 31
0.0
  0
ARC
  5
1AC
330
7D
100
AcDbEntity
  8
DV1_Default
  6
Continuous
 62
     7
100
AcDbCircle
 10
252.3060319562
 20
419.6163644408
 30
0.0
 40
0.3653678632840239
100
AcDbArc
 50
32.9547988471
 51
90.7177351241
  0
ARC
  5
1AD
330
7D
100
AcDbEntity
  8
DV1_Default
  6
Continuous
 62
     7
100
AcDbCircle
 10
252.3546334109
 20
419.6541363243
 30
0.0
 40
0.3040847718359542
100
AcDbArc
 50
359.8150078782
 51
31.9643549272
  0
ARC
  5
1AE
330
7D
100
AcDbEntity
  8
DV1_Default
  6
Continuous
 62
     7
100
AcDbCircle
 10
249.0121673916
 20
419.6149674681
 30
0.0
 40
0.3668547401173802
100
AcDbArc
 50
91.8728711348
 51
146.9359601414
  0
ARC
  5
1AF
330
7D
100
AcDbEntity
  8
DV1_Default
  6
Continuous
 62
     7
100
AcDbCircle
 10
248.9567215437
 20
419.6560906581
 30
0.0
 40
0.2979816877839376
100
AcDbArc
 50
147.7462195418
 51
180.4232598041
  0
LINE
  5
1B0
330
7D
100
AcDbEntity
  8
DV1_Default
  6
Continuous
 62
     7
100
AcDbLine
 10
248.6587175106
 20
401.0872431744
 30
0.0
 11
248.6587479866
 21
419.6538894048
 31
0.0
  0
LINE
  5
1B1
330
7D
100
AcDbEntity
  8
DV1_Default
  6
Continuous
 62
     7
100
AcDbLine
 10
248.6587416147
 20
382.5205452686
 30
0.0
 11
248.6587175106
 21
401.0872431744
 31
0.0
  0
ARC
  5
1B2
330
7D
100
AcDbEntity
  8
DV1_Default
  6
Continuous
 62
     7
100
AcDbCircle
 10
248.95743265
 20
382.5186974766
 30
0.0
 40
0.2986967507744697
100
AcDbArc
 50
179.6455557207
 51
212.3511831027
  0
ARC
  5
1B3
330
7D
100
AcDbEntity
  8
DV1_Default
  6
Continuous
 62
     7
100
AcDbCircle
 10
249.0147237108
 20
382.5615854447
 30
0.0
 40
0.3700869738508603
100
AcDbArc
 50
213.2141994151
 51
264.6423048823
  0
LINE
  5
1B4
330
7D
100
AcDbEntity
  8
DV1_Default
  6
Continuous
 62
     7
100
AcDbLine
 10
249.0159800718
 20
382.1922690731
 30
0.0
 11
248.9801675039
 21
382.1930916292
 31
0.0
  0
LINE
  5
1B5
330
7D
100
AcDbEntity
  8
DV1_Default
  6
Continuous
 62
     7
100
AcDbLine
 10
252.3014570391
 20
382.192512727
 30
0.0
 11
249.0159800718
 21
382.1922690731
 31
0.0
  0
ARC
  5
1B6
330
7D
100
AcDbEntity
  8
DV1_Default
  6
Continuous
 62
     7
100
AcDbCircle
 10
252.3047897033
 20
382.5599682933
 30
0.0
 40
0.3674226008801783
100
AcDbArc
 50
269.4802981356
 51
326.9067519476
  0
ARC
  5
1B7
330
7D
100
AcDbEntity
  8
DV1_Default
  6
Continuous
 62
     7
100
AcDbCircle
 10
252.3546395513
 20
382.5203391718
 30
0.0
 40
0.3040804681289824
100
AcDbArc
 50
328.0340522988
 51
0.1850430987
  0
LINE
  5
1B8
330
7D
100
AcDbEntity
  8
DV1_Default
  6
Continuous
 62
     7
100
AcDbLine
 10
249.0159787568
 20
381.8858581874
 30
0.0
 11
252.3014570381
 21
381.8858879662
 31
0.0
  0
ARC
  5
1B9
330
7D
100
AcDbEntity
  8
DV1_Default
  6
Continuous
 62
     7
100
AcDbCircle
 10
252.3338777931
 20
381.1909428298
 30
0.0
 40
0.695654104163415
100
AcDbArc
 50
66.379167782
 51
92.6712191624
  0
SPLINE
  5
1BA
330
7D
100
AcDbEntity
  8
DV1_Default
  6
Continuous
 62
     7
100
AcDbSpline
210
0.0
220
0.0
230
1.0
 70
    12
 71
     3
 72
    10
 73
     6
 74
     0
 42
0.000000130030305
 43
0.0000000001
 40
0.0
 40
0.0
 40
0.0
 40
0.0
 40
0.3333333333333
 40
0.6666666666667
 40
1.0
 40
1.0
 40
1.0
 40
1.0
 10
252.6126140010275
 20
381.8283130197818
 30
0.0
 41
1.0
 10
252.6224161424499
 20
381.8229391873462
 30
0.0
 41
1.0
 10
252.6389102595941
 20
381.8116105280902
 30
0.0
 41
1.0
 10
252.6550863285657
 20
381.7923767539361
 30
0.0
 41
1.0
 10
252.6586295226635
 20
381.7790984212851
 30
0.0
 41
1.0
 10
252.6587184717965
 20
381.7722569180384
 30
0.0
 41
1.0
  0
ARC
  5
1BB
330
7D
100
AcDbEntity
  8
DV1_Default
  6
Continuous
 62
     7
100
AcDbCircle
 10
248.9800889259
 20
381.2084726872
 30
0.0
 40
0.6778562546973214
100
AcDbArc
 50
88.3015751057
 51
113.9683086019
  0
SPLINE
  5
1BC
330
7D
100
AcDbEntity
  8
DV1_Default
  6
Continuous
 62
     7
100
AcDbSpline
210
0.0
220
0.0
230
1.0
 70
     8
 71
     3
 72
    10
 73
     6
 74
     0
 42
0.0000001307746193
 43
0.0000000001
 40
0.0
 40
0.0
 40
0.0
 40
0.0
 40
0.3415156384590278
 40
0.6712261119573609
 40
1.0
 40
1.0
 40
1.0
 40
1.0
 10
248.6587498606366
 20
381.7722880603991
 30
0.0
 10
248.6597832136484
 20
381.7785299841007
 30
0.0
 10
248.6618141997396
 20
381.7915617703821
 30
0.0
 10
248.6772911909506
 20
381.8105839177895
 30
0.0
 10
248.6955874121041
 20
381.8219891270706
 30
0.0
 10
248.7047225109922
 20
381.827877594773
 30
0.0
  0
LINE
  5
1BD
330
7D
100
AcDbEntity
  8
DV1_Default
  6
Continuous
 62
     7
100
AcDbLine
 10
248.6587186588
 20
378.5889904571
 30
0.0
 11
248.6587498606
 21
381.7722880604
 31
0.0
  0
LINE
  5
1BE
330
7D
100
AcDbEntity
  8
DV1_Default
  6
Continuous
 62
     7
100
AcDbLine
 10
252.6587186588
 20
378.5889906548
 30
0.0
 11
248.6587186588
 21
378.5889904571
 31
0.0
  0
LINE
  5
1BF
330
7D
100
AcDbEntity
  8
DV1_Default
  6
Continuous
 62
     7
100
AcDbLine
 10
248.6587186588
 20
378.5889904571
 30
0.0
 11
248.4087186588
 21
378.5889906735
 31
0.0
  0
LINE
  5
1C0
330
7D
100
AcDbEntity
  8
DV1_Default
  6
Continuous
 62
     7
100
AcDbLine
 10
248.6587164342
 20
423.5854895402
 30
0.0
 11
248.4087164342
 21
423.585489299
 31
0.0
  0
LINE
  5
1C1
330
7D
100
AcDbEntity
  8
DV1_Default
  6
Continuous
 62
     7
100
AcDbLine
 10
253.1455696973
 20
423.1903587943
 30
0.0
 11
253.0768156075
 21
423.3128392765
 31
0.0
  0
ARC
  5
1C2
330
7D
100
AcDbEntity
  8
DV1_Default
  6
Continuous
 62
     7
100
AcDbCircle
 10
-2691.2291279492
 20
421.1929792757
 30
0.0
 40
2944.378364464115
100
AcDbArc
 50
359.9772266965
 51
0.0378735922
  0
ARC
  5
1C3
330
7D
100
AcDbEntity
  8
DV1_Default
  6
Continuous
 62
     7
100
AcDbCircle
 10
252.658003586
 20
423.0733314248
 30
0.0
 40
0.5008038387507088
100
AcDbArc
 50
22.4711934187
 51
89.9184448465
  0
LINE
  5
1C4
330
7D
100
AcDbEntity
  8
DV1_Default
  6
Continuous
 62
     7
100
AcDbLine
 10
248.1668626211
 20
423.319161394
 30
0.0
 11
248.1756182999
 21
423.3164389328
 31
0.0
  0
ARC
  5
1C5
330
7D
100
AcDbEntity
  8
DV1_Default
  6
Continuous
 62
     7
100
AcDbCircle
 10
248.4097180716
 20
423.3228259205
 30
0.0
 40
0.2509299914506683
100
AcDbArc
 50
90.2287084988
 51
158.8960364377
  0
LINE
  5
1C6
330
7D
100
AcDbEntity
  8
DV1_Default
  6
Continuous
 62
     7
100
AcDbLine
 10
248.1976323295
 20
423.4217325083
 30
0.0
 11
248.1643460255
 21
423.3817583598
 31
0.0
  0
ARC
  5
1C7
330
7D
100
AcDbEntity
  8
DV1_Default
  6
Continuous
 62
     7
100
AcDbCircle
 10
253.4087183954
 20
384.9590546999
 30
0.0
 40
0.2500000000000006
100
AcDbArc
 50
162.1619167363
 51
180.0000028327
  0
ENDBLK
  5
1C9
330
7D
100
AcDbEntity
  8
0
100
AcDbBlockEnd
  0
BLOCK
  5
2D8
330
1CA
100
AcDbEntity
  8
0
100
AcDbBlockBegin
  2
SE1
 70
     0
 10
0.0
 20
0.0
 30
0.0
  3
SE1
  1

  0
ARC
  5
1CD
330
1CA
100
AcDbEntity
  8
DV2_Default
  6
Continuous
 62
     7
100
AcDbCircle
 10
84.424876024
 20
405.1639615318
 30
0.0
 40
0.5000000000000019
100
AcDbArc
 50
94.2124275187
 51
179.9999973919
  0
LINE
  5
1CE
330
1CA
100
AcDbEntity
  8
DV2_Default
  6
Continuous
 62
     7
100
AcDbLine
 10
83.924876024
 20
405.1639615545
 30
0.0
 11
83.9248760739
 21
400.6347769743
 31
0.0
  0
LINE
  5
1CF
330
1CA
100
AcDbEntity
  8
DV2_Default
  6
Continuous
 62
     7
100
AcDbLine
 10
83.9248760739
 20
400.6347769743
 30
0.0
 11
83.924875613
 21
396.1347770105
 31
0.0
  0
ARC
  5
1D0
330
1CA
100
AcDbEntity
  8
DV2_Default
  6
Continuous
 62
     7
100
AcDbCircle
 10
95.9248761327
 20
249.1246947374
 30
0.0
 40
156.9624392436875
100
AcDbArc
 50
85.7849635653
 51
94.2150356963
  0
ARC
  5
1D1
330
1CA
100
AcDbEntity
  8
DV2_Default
  6
Continuous
 62
     7
100
AcDbCircle
 10
107.4248773531
 20
405.1639614433
 30
0.0
 40
0.5000000000000021
100
AcDbArc
 50
0.0011459341
 51
85.7874684808
  0
LINE
  5
1D2
330
1CA
100
AcDbEntity
  8
DV2_Default
  6
Continuous
 62
     7
100
AcDbLine
 10
107.9248777641
 20
396.1347712968
 30
0.0
 11
107.9248775593
 21
400.6347768882
 31
0.0
  0
LINE
  5
1D3
330
1CA
100
AcDbEntity
  8
DV2_Default
  6
Continuous
 62
     7
100
AcDbLine
 10
107.9248775593
 20
400.6347768882
 30
0.0
 11
107.9248773531
 21
405.1639714435
 31
0.0
  0
ARC
  5
1D4
330
1CA
100
AcDbEntity
  8
DV2_Default
  6
Continuous
 62
     7
100
AcDbCircle
 10
84.424875613
 20
396.1347769877
 30
0.0
 40
0.500000000000001
100
AcDbArc
 50
179.9999973919
 51
274.5020498565
  0
ARC
  5
1D5
330
1CA
100
AcDbEntity
  8
DV2_Default
  6
Continuous
 62
     7
100
AcDbCircle
 10
95.9247763174
 20
250.189468568
 30
0.0
 40
145.8976427188169
100
AcDbArc
 50
85.4945416975
 51
94.505378403
  0
ARC
  5
1D6
330
1CA
100
AcDbEntity
  8
DV2_Default
  6
Continuous
 62
     7
100
AcDbCircle
 10
107.4248777641
 20
396.1347613105
 30
0.0
 40
0.5000000000000024
100
AcDbArc
 50
265.4981910263
 51
0.0011443371
  0
LINE
  5
1D7
330
1CA
100
AcDbEntity
  8
DV2_Default
  6
Continuous
 62
     7
100
AcDbLine
 10
83.8248758512
 20
396.0611862389
 30
0.0
 11
83.8248758512
 21
405.0962065554
 31
0.0
  0
ARC
  5
1D8
330
1CA
100
AcDbEntity
  8
DV2_Default
  6
Continuous
 62
     7
100
AcDbCircle
 10
83.3248758512
 20
405.0962068861
 30
0.0
 40
0.4999999999999993
100
AcDbArc
 50
0.0
 51
94.6144491483
  0
SPLINE
  5
1D9
330
1CA
100
AcDbEntity
  8
DV2_Default
  6
Continuous
 62
     7
100
AcDbSpline
210
0.0
220
0.0
230
1.0
 70
    12
 71
     3
 72
    82
 73
    78
 74
     0
 42
0.0000000000495544
 43
0.0000000001
 40
0.0
 40
0.0
 40
0.0
 40
0.0
 40
0.0266050901576469
 40
0.0525385090010102
 40
0.0761546137050195
 40
0.0977020556806807
 40
0.1173937402556235
 40
0.1354161091500734
 40
0.1519311315549234
 40
0.1670807366419052
 40
0.1809943927115489
 40
0.1937921687821444
 40
0.2055737151909524
 40
0.2164055233867435
 40
0.2263515067615618
 40
0.2354736991818306
 40
0.2438275677402321
 40
0.2514660250654304
 40
0.2584406982104757
 40
0.2647390449786891
 40
0.2703254963670855
 40
0.2752960612453175
 40
0.2797780998483144
 40
0.2838408994627849
 40
0.2875342106403041
 40
0.290960928855674
 40
0.2941878363678864
 40
0.2971304912643876
 40
0.2997727552517004
 40
0.3022283249086019
 40
0.3046232230506641
 40
0.3070852251949185
 40
0.3097434973703498
 40
0.3127008906725504
 40
0.3159272323373567
 40
0.3193761792066339
 40
0.3231804982432134
 40
0.3273755369572131
 40
0.3319935056488981
 40
0.337077637930669
 40
0.3426585100412541
 40
0.3487526555928395
 40
0.3553703878152663
 40
0.3625205992788407
 40
0.3702576581609127
 40
0.3786654174028932
 40
0.3877687424337676
 40
0.3975685070926191
 40
0.4081666816241475
 40
0.4196751445637454
 40
0.4321998339996717
 40
0.4458344774287539
 40
0.4606742935176973
 40
0.4768397190317533
 40
0.4944680027261151
 40
0.513736703579652
 40
0.5348721224012933
 40
0.5581946078566502
 40
0.5839989264526102
 40
0.6124916234381058
 40
0.6439071338536287
 40
0.6791198015784484
 40
0.7183471309534883
 40
0.7557918818586139
 40
0.7885566121436999
 40
0.817695908757361
 40
0.8437326596559959
 40
0.8671578208285627
 40
0.8883263132968613
 40
0.9075222794094713
 40
0.9249859792156595
 40
0.9409136542836483
 40
0.955447830319134
 40
0.9686581312818956
 40
0.9806105599177453
 40
0.991371316205503
 40
1.0
 40
1.0
 40
1.0
 40
1.0
 10
83.28465073918365
 20
405.5945857596687
 30
0.0
 41
1.171572876157151
 10
81.50281909918237
 20
405.4507699688392
 30
0.0
 41
1.171572876157151
 10
77.9887613349497
 20
405.1069738364709
 30
0.0
 41
1.171572876157151
 10
72.91496211985039
 20
404.4392295737636
 30
0.0
 41
1.171572876157151
 10
68.20003819633546
 20
403.6687206435669
 30
0.0
 41
1.171572876157151
 10
63.92069791550293
 20
402.845350469004
 30
0.0
 41
1.171572876157151
 10
60.03098185937348
 20
401.9940017432455
 30
0.0
 41
1.171572876157151
 10
56.49053355372172
 20
401.133530000556
 30
0.0
 41
1.171572876157151
 10
53.26382085489939
 20
400.2779024402443
 30
0.0
 41
1.171572876157151
 10
50.3193562151089
 20
399.4373741527897
 30
0.0
 41
1.171572876157151
 10
47.62873242010045
 20
398.6192257345017
 30
0.0
 41
1.171572876157151
 10
45.16667210310711
 20
397.8285005721067
 30
0.0
 41
1.171572876157151
 10
42.91233146721759
 20
397.0690385066175
 30
0.0
 41
1.171572876157151
 10
40.8487936251948
 20
396.3439941246637
 30
0.0
 41
1.171572876157151
 10
38.9618230896312
 20
395.6558818422913
 30
0.0
 41
1.171572876157151
 10
37.23813228065382
 20
395.006377987349
 30
0.0
 41
1.171572876157151
 10
35.66532005113147
 20
394.3961818421748
 30
0.0
 41
1.171572876157151
 10
34.23210272366821
 20
393.8252448975878
 30
0.0
 41
1.171572876157151
 10
32.93144478991081
 20
393.2946692469953
 30
0.0
 41
1.171572876157151
 10
31.76214722553246
 20
392.8092215900706
 30
0.0
 41
1.171572876157151
 10
30.71792923582083
 20
392.3652837768912
 30
0.0
 41
1.171572876157151
 10
29.79083714766054
 20
391.9516584620922
 30
0.0
 41
1.171572876157151
 10
28.96445572247472
 20
391.5608816186481
 30
0.0
 41
1.171572876157151
 10
28.22332420484464
 20
391.1859886079044
 30
0.0
 41
1.171572876157151
 10
27.55541505338688
 20
390.8206007315547
 30
0.0
 41
1.171572876157151
 10
26.94831195013539
 20
390.459681111628
 30
0.0
 41
1.171572876157151
 10
26.39715180124487
 20
390.1024246296996
 30
0.0
 41
1.171572876157151
 10
25.90408313081172
 20
389.7540587650005
 30
0.0
 41
1.171572876157151
 10
25.46604216649211
 20
389.4198625584315
 30
0.0
 41
1.171572876157151
 10
25.06851816822343
 20
389.0944725735808
 30
0.0
 41
1.171572876157151
 10
24.69114463913261
 20
388.763922051963
 30
0.0
 41
1.171572876157151
 10
24.31498761453511
 20
388.4107906109025
 30
0.0
 41
1.171572876157151
 10
23.92475911672146
 20
388.0158018319731
 30
0.0
 41
1.171572876157151
 10
23.51660978981808
 20
387.56525655527
 30
0.0
 41
1.171572876157151
 10
23.0954129098838
 20
387.0556356076277
 30
0.0
 41
1.171572876157151
 10
22.66372791695356
 20
386.4814997661048
 30
0.0
 41
1.171572876157151
 10
22.22253744223172
 20
385.8340796323811
 30
0.0
 41
1.171572876157151
 10
21.77149663587608
 20
385.0991558413395
 30
0.0
 41
1.171572876157151
 10
21.31449042126417
 20
384.2702361043766
 30
0.0
 41
1.171572876157151
 10
20.85087304506598
 20
383.3425126480424
 30
0.0
 41
1.171572876157151
 10
20.37702017737629
 20
382.3144518983823
 30
0.0
 41
1.171572876157151
 10
19.88422896483066
 20
381.1845666665118
 30
0.0
 41
1.171572876157151
 10
19.37022725948284
 20
379.9515969605044
 30
0.0
 41
1.171572876157151
 10
18.82458148529306
 20
378.6154310097521
 30
0.0
 41
1.171572876157151
 10
18.24195006161149
 20
377.1633194244552
 30
0.0
 41
1.171572876157151
 10
17.62473420328629
 20
375.5834535307144
 30
0.0
 41
1.171572876157151
 10
16.97461051913127
 20
373.867849174643
 30
0.0
 41
1.171572876157151
 10
16.29246868054607
 20
372.0071692652512
 30
0.0
 41
1.171572876157151
 10
15.57802315704611
 20
369.9864763745178
 30
0.0
 41
1.171572876157151
 10
14.82988588505159
 20
367.7836626254379
 30
0.0
 41
1.171572876157151
 10
14.04921166490915
 20
365.3766296643191
 30
0.0
 41
1.171572876157151
 10
13.23951922662971
 20
362.7439611161045
 30
0.0
 41
1.171572876157151
 10
12.40615596720157
 20
359.8630466589228
 30
0.0
 41
1.171572876157151
 10
11.55620287389254
 20
356.7081102589818
 30
0.0
 41
1.171572876157151
 10
10.69879589877347
 20
353.2476607325022
 30
0.0
 41
1.171572876157151
 10
9.845875718382539
 20
349.4429276233963
 30
0.0
 41
1.171572876157151
 10
9.013240843940409
 20
345.2426867252958
 30
0.0
 41
1.171572876157151
 10
8.223645819946974
 20
340.5878204020395
 30
0.0
 41
1.171572876157151
 10
7.510308454487177
 20
335.420864459027
 30
0.0
 41
1.171572876157151
 10
6.918219544320412
 20
329.6912049371829
 30
0.0
 41
1.171572876157151
 10
6.505888384780486
 20
323.3115209113216
 30
0.0
 41
1.171572876157151
 10
6.349999999999994
 20
316.1984905741292
 30
0.0
 41
1.171572876157151
 10
6.544670374948145
 20
308.6800390755836
 30
0.0
 41
1.171572876157151
 10
7.098073364147972
 20
301.3450267128504
 30
0.0
 41
1.171572876157151
 10
7.896392900632335
 20
294.7159750113547
 30
0.0
 41
1.171572876157151
 10
8.830991653734078
 20
288.8805671462652
 30
0.0
 41
1.171572876157151
 10
9.844896581599539
 20
283.6970426580057
 30
0.0
 41
1.171572876157151
 10
10.89724629861796
 20
279.0693240676907
 30
0.0
 41
1.171572876157151
 10
11.96070258999107
 20
274.917378672746
 30
0.0
 41
1.171572876157151
 10
13.01508622308099
 20
271.1780222694832
 30
0.0
 41
1.171572876157151
 10
14.04667029206971
 20
267.7990816314991
 30
0.0
 41
1.171572876157151
 10
15.04606338989306
 20
264.7385148626802
 30
0.0
 41
1.171572876157151
 10
16.00525786250238
 20
261.9659553663856
 30
0.0
 41
1.171572876157151
 10
16.91682524110862
 20
259.459905682503
 30
0.0
 41
1.171572876157151
 10
17.77381331826154
 20
257.2040697307862
 30
0.0
 41
1.171572876157151
 10
18.54634579013435
 20
255.2456180271597
 30
0.0
 41
1.171572876157151
 10
19.03718395787285
 20
254.039244171834
 30
0.0
 41
1.171572876157151
 10
19.25813748690365
 20
253.5034316455397
 30
0.0
 41
1.171572876157151
  0
SPLINE
  5
1DA
330
1CA
100
AcDbEntity
  8
DV2_Default
  6
Continuous
 62
     7
100
AcDbSpline
210
0.0
220
0.0
230
1.0
 70
    12
 71
     3
 72
    92
 73
    88
 74
     0
 42
0.0000000000589301
 43
0.0000000001
 40
0.0
 40
0.0
 40
0.0
 40
0.0
 40
0.0062934732833036
 40
0.0134200938227041
 40
0.0197747159643286
 40
0.0254568356760208
 40
0.0305743574931792
 40
0.0352309933327928
 40
0.0395642116883424
 40
0.0441298894459065
 40
0.0487211342850752
 40
0.0532349242707688
 40
0.0577099741158154
 40
0.0623597023578242
 40
0.0674737946393746
 40
0.0733434367965378
 40
0.0797853279805885
 40
0.0857227573463692
 40
0.0912941667449785
 40
0.0967938178524692
 40
0.1026922690369838
 40
0.1094925223757338
 40
0.1170928292442062
 40
0.1253282952915798
 40
0.134331890918486
 40
0.1442495854478424
 40
0.1550654840167355
 40
0.1667817934930197
 40
0.1795142959067789
 40
0.1933059462257789
 40
0.2082512360604834
 40
0.2244993593341073
 40
0.2422048075742961
 40
0.2615321606824533
 40
0.2826293604284285
 40
0.3056020123615141
 40
0.3308336417642858
 40
0.3586833544512432
 40
0.387603362404925
 40
0.4147301938084468
 40
0.4386925164599618
 40
0.4613888901795757
 40
0.4846578564058712
 40
0.5098337452323365
 40
0.5374280241028208
 40
0.5679295947699012
 40
0.6010591606250186
 40
0.634353144448328
 40
0.6644870662051284
 40
0.6910948509313372
 40
0.714753517054045
 40
0.7359980736382521
 40
0.7551751811702581
 40
0.7724848602396145
 40
0.7880716052269554
 40
0.8021080036832057
 40
0.8147910595264084
 40
0.8262933493284706
 40
0.8366940666033508
 40
0.8461001708307311
 40
0.8546756103978241
 40
0.8624919837044462
 40
0.8695766183284562
 40
0.8760373258317304
 40
0.8819861456427933
 40
0.8875023362415844
 40
0.8925404213120761
 40
0.8969540429775518
 40
0.9008852477556769
 40
0.9045101871615671
 40
0.9080053394775411
 40
0.9115330325435875
 40
0.9152249189307397
 40
0.91917575157551
 40
0.9232955173583158
 40
0.9275642219967679
 40
0.9321764831131022
 40
0.9370831178348636
 40
0.9423215193142037
 40
0.9479369961329794
 40
0.9541302788203984
 40
0.9612040405149356
 40
0.9689303467661589
 40
0.9769878360862331
 40
0.9852499865914465
 40
0.9934002488374505
 40
1.0
 40
1.0
 40
1.0
 40
1.0
 10
19.25813748690365
 20
253.5034316455397
 30
0.0
 41
1.171575911101408
 10
19.39341977305894
 20
253.1753305498974
 30
0.0
 41
1.171575911101408
 10
19.68390344646728
 20
252.4763685231527
 30
0.0
 41
1.171575911101408
 10
20.12079978531213
 20
251.4485109744855
 30
0.0
 41
1.171575911101408
 10
20.56132441221732
 20
250.4564693547208
 30
0.0
 41
1.171575911101408
 10
20.97791014683198
 20
249.5751777591579
 30
0.0
 41
1.171575911101408
 10
21.37846906403426
 20
248.7902045964385
 30
0.0
 41
1.171575911101408
 10
21.77024803096822
 20
248.0850112812616
 30
0.0
 41
1.171575911101408
 10
22.17372641695355
 20
247.4207360330632
 30
0.0
 41
1.171575911101408
 10
22.60486154774219
 20
246.7764265777478
 30
0.0
 41
1.171575911101408
 10
23.07460573756874
 20
246.1449323989096
 30
0.0
 41
1.171575911101408
 10
23.5745232916163
 20
245.5425537103055
 30
0.0
 41
1.171575911101408
 10
24.10923943913638
 20
244.965508306395
 30
0.0
 41
1.171575911101408
 10
24.70063958491093
 20
244.3953968345732
 30
0.0
 41
1.171575911101408
 10
25.38596662803586
 20
243.8096545257289
 30
0.0
 41
1.171575911101408
 10
26.18956519620944
 20
243.2083643960789
 30
0.0
 41
1.171575911101408
 10
27.06911882059121
 20
242.6375775596805
 30
0.0
 41
1.171575911101408
 10
27.96174060445461
 20
242.1284742997388
 30
0.0
 41
1.171575911101408
 10
28.82425310675681
 20
241.6844528644383
 30
0.0
 41
1.171575911101408
 10
29.69538655149946
 20
241.2702875173782
 30
0.0
 41
1.171575911101408
 10
30.63671414976667
 20
240.8493335782302
 30
0.0
 41
1.171575911101408
 10
31.69135555955949
 20
240.3984234423523
 30
0.0
 41
1.171575911101408
 10
32.86998362027868
 20
239.9079237442175
 30
0.0
 41
1.171575911101408
 10
34.16701264802145
 20
239.3786621610853
 30
0.0
 41
1.171575911101408
 10
35.58970279558677
 20
238.8114345988506
 30
0.0
 41
1.171575911101408
 10
37.15297677734695
 20
238.2039865098847
 30
0.0
 41
1.171575911101408
 10
38.86524697445299
 20
237.5577134440135
 30
0.0
 41
1.171575911101408
 10
40.73343761628352
 20
236.8751838767761
 30
0.0
 41
1.171575911101408
 10
42.76778686495478
 20
236.158662220609
 30
0.0
 41
1.171575911101408
 10
44.98367244263447
 20
235.4097666118302
 30
0.0
 41
1.171575911101408
 10
47.39854503698351
 20
234.6308955984179
 30
0.0
 41
1.171575911101408
 10
50.03620076265727
 20
233.8243937960441
 30
0.0
 41
1.171575911101408
 10
52.92465373887687
 20
232.9939418183535
 30
0.0
 41
1.171575911101408
 10
56.09229236280372
 20
232.1462946890192
 30
0.0
 41
1.171575911101408
 10
59.56522122502768
 20
231.2924779218526
 30
0.0
 41
1.171575911101408
 10
63.38176858984546
 20
230.4447481181391
 30
0.0
 41
1.171575911101408
 10
67.59219983552347
 20
229.6187945694082
 30
0.0
 41
1.171575911101408
 10
72.1550396271094
 20
228.8542370018899
 30
0.0
 41
1.171575911101408
 10
76.84480157147264
 20
228.2119912928295
 30
0.0
 41
1.171575911101408
 10
81.33351763187208
 20
227.732996008215
 30
0.0
 41
1.171575911101408
 10
85.48351728827146
 20
227.4045986338072
 30
0.0
 41
1.171575911101408
 10
89.42308958478208
 20
227.1920694155555
 30
0.0
 41
1.171575911101408
 10
93.43519923060761
 20
227.0751915117522
 30
0.0
 41
1.171575911101408
 10
97.72541745826821
 20
227.0624130920122
 30
0.0
 41
1.171575911101408
 10
102.42231723588
 20
227.182249693961
 30
0.0
 41
1.171575911101408
 10
107.5613318277505
 20
227.4746136001524
 30
0.0
 41
1.171575911101408
 10
113.0077540894482
 20
227.971525894771
 30
0.0
 41
1.171575911101408
 10
118.4124775591201
 20
228.6584091817839
 30
0.0
 41
1.171575911101408
 10
123.4275511438604
 20
229.467273855622
 30
0.0
 41
1.171575911101408
 10
127.8822592254871
 20
230.3219913262041
 30
0.0
 41
1.171575911101408
 10
131.8231638393966
 20
231.1847783822112
 30
0.0
 41
1.171575911101408
 10
135.3357481248981
 20
232.0387187753279
 30
0.0
 41
1.171575911101408
 10
138.4838128917485
 20
232.8725069590556
 30
0.0
 41
1.171575911101408
 10
141.3090767230267
 20
233.6762269056524
 30
0.0
 41
1.171575911101408
 10
143.8432220798451
 20
234.4419495840093
 30
0.0
 41
1.171575911101408
 10
146.1172281533843
 20
235.1652705696021
 30
0.0
 41
1.171575911101408
 10
148.1629865195405
 20
235.8453582642225
 30
0.0
 41
1.171575911101408
 10
150.006817674976
 20
236.4822709325997
 30
0.0
 41
1.171575911101408
 10
151.6697908041384
 20
237.0762728892874
 30
0.0
 41
1.171575911101408
 10
153.1721525496171
 20
237.6288808022737
 30
0.0
 41
1.171575911101408
 10
154.5333924930483
 20
238.1427193321444
 30
0.0
 41
1.171575911101408
 10
155.7684952870214
 20
238.6198135119546
 30
0.0
 41
1.171575911101408
 10
156.8892871008422
 20
239.0617209384402
 30
0.0
 41
1.171575911101408
 10
157.909530595653
 20
239.4713974002272
 30
0.0
 41
1.171575911101408
 10
158.8455053912899
 20
239.8534914503329
 30
0.0
 41
1.171575911101408
 10
159.7053294247264
 20
240.2096768903718
 30
0.0
 41
1.171575911101408
 10
160.4839911100066
 20
240.5373609618058
 30
0.0
 41
1.171575911101408
 10
161.1788699901904
 20
240.8363619254106
 30
0.0
 41
1.171575911101408
 10
161.7986147107526
 20
241.1108421306069
 30
0.0
 41
1.171575911101408
 10
162.3685177120234
 20
241.3722538981595
 30
0.0
 41
1.171575911101408
 10
162.9146289114126
 20
241.6333402898516
 30
0.0
 41
1.171575911101408
 10
163.4601424598235
 20
241.9072105090865
 30
0.0
 41
1.171575911101408
 10
164.023151486455
 20
242.206855754975
 30
0.0
 41
1.171575911101408
 10
164.6077711482175
 20
242.5405816930147
 30
0.0
 41
1.171575911101408
 10
165.2094220569822
 20
242.9134403390824
 30
0.0
 41
1.171575911101408
 10
165.8274754229099
 20
243.3335208417191
 30
0.0
 41
1.171575911101408
 10
166.4615234501017
 20
243.8113265336425
 30
0.0
 41
1.171575911101408
 10
167.1113803521377
 20
244.3605895242946
 30
0.0
 41
1.171575911101408
 10
167.7681762942048
 20
244.9895529352396
 30
0.0
 41
1.171575911101408
 10
168.4313423584158
 20
245.7159519788854
 30
0.0
 41
1.171575911101408
 10
169.1060580620997
 20
246.5700325744272
 30
0.0
 41
1.171575911101408
 10
169.7818349066975
 20
247.5707312515725
 30
0.0
 41
1.171575911101408
 10
170.4351001933931
 20
248.7055318649275
 30
0.0
 41
1.171575911101408
 10
171.0486334617668
 20
249.930951157412
 30
0.0
 41
1.171575911101408
 10
171.6203557982744
 20
251.1953146009577
 30
0.0
 41
1.171575911101408
 10
172.1302092658918
 20
252.3911831530052
 30
0.0
 41
1.171575911101408
 10
172.4495643983089
 20
253.1593606550794
 30
0.0
 41
1.171575911101408
 10
172.5914342712937
 20
253.5034310503397
 30
0.0
 41
1.171575911101408
  0
SPLINE
  5
1DB
330
1CA
100
AcDbEntity
  8
DV2_Default
  6
Continuous
 62
     7
100
AcDbSpline
210
0.0
220
0.0
230
1.0
 70
    12
 71
     3
 72
    31
 73
    27
 74
     0
 42
0.0000000000771458
 43
0.0000000001
 40
0.0
 40
0.0
 40
0.0
 40
0.0
 40
0.06250000316056
 40
0.1250000036751
 40
0.1875000041896
 40
0.2500000047042
 40
0.3125000052187
 40
0.3750000057332
 40
0.4062500059905
 40
0.4218750061192
 40
0.4257812561513
 40
0.4296875061835
 40
0.4375000062478
 40
0.5000000067623
 40
0.5625000072769
 40
0.6250000077914
 40
0.6875000083059
 40
0.7500000088205
 40
0.812500009335
 40
0.8437500095923
 40
0.8476562596243999
 40
0.8515625096566
 40
0.8593750097209
 40
0.8750000098495999
 40
0.9375000103641
 40
1.0
 40
1.0
 40
1.0
 40
1.0
 10
172.5914342712937
 20
253.5034310503397
 30
0.0
 41
1.0
 10
173.6278249449936
 20
256.0166588564397
 30
0.0
 41
1.0
 10
175.5822182284337
 20
261.0712901405396
 30
0.0
 41
1.0
 10
178.1525368891836
 20
268.7391427014397
 30
0.0
 41
1.0
 10
180.3545216478337
 20
276.4945060433397
 30
0.0
 41
1.0
 10
182.1800734385137
 20
284.3391996889397
 30
0.0
 41
1.0
 10
183.6199472254437
 20
292.2753285971397
 30
0.0
 41
1.0
 10
184.4896901796637
 20
298.9668544002397
 30
0.0
 41
1.0
 10
184.9199542369737
 20
303.6932433822997
 30
0.0
 41
1.0
 10
185.0775833564737
 20
305.8974373052897
 30
0.0
 41
1.0
 10
185.1421763462037
 20
306.9168484034797
 30
0.0
 41
1.0
 10
185.1830107175437
 20
307.5962252789597
 30
0.0
 41
1.0
 10
185.3611195753936
 20
310.8215164870697
 30
0.0
 41
1.0
 10
185.5100835092636
 20
316.5745355634297
 30
0.0
 41
1.0
 10
185.3020505096536
 20
324.6505429080397
 30
0.0
 41
1.0
 10
184.6822229075737
 20
332.6812293470397
 30
0.0
 41
1.0
 10
183.6560657867636
 20
340.6670571339997
 30
0.0
 41
1.0
 10
182.2280316608237
 20
348.6083740456097
 30
0.0
 41
1.0
 10
180.7060063291037
 20
355.1893067024697
 30
0.0
 41
1.0
 10
179.6001324452837
 20
359.2851272392696
 30
0.0
 41
1.0
 10
179.1346282276536
 20
360.9209206990697
 30
0.0
 41
1.0
 10
178.9465138574137
 20
361.5745105746697
 30
0.0
 41
1.0
 10
178.6122592329536
 20
362.7165511756897
 30
0.0
 41
1.0
 10
177.5301650191937
 20
366.2947404150997
 30
0.0
 41
1.0
 10
175.5887655615637
 20
372.0902243324297
 30
0.0
 41
1.0
 10
173.6284510082137
 20
377.1595706153897
 30
0.0
 41
1.0
 10
172.5914353203636
 20
379.6743141372797
 30
0.0
 41
1.0
  0
SPLINE
  5
1DC
330
1CA
100
AcDbEntity
  8
DV2_Default
  6
Continuous
 62
     7
100
AcDbSpline
210
0.0
220
0.0
230
1.0
 70
    12
 71
     3
 72
    58
 73
    54
 74
     0
 42
0.0000000001385277
 43
0.0000000001
 40
0.0
 40
0.0
 40
0.0
 40
0.0
 40
0.0139311532340582
 40
0.0301774931084892
 40
0.0447904032232546
 40
0.0578461820580327
 40
0.069607872243431
 40
0.0803973041101344
 40
0.0903669296559147
 40
0.0995085345379297
 40
0.1078155656523022
 40
0.1153029922421106
 40
0.121991030811057
 40
0.1279161671590742
 40
0.1331380811623158
 40
0.1377281131215647
 40
0.141825767627191
 40
0.1456003267735171
 40
0.1492183274371076
 40
0.1528359952551102
 40
0.156598279055661
 40
0.1606475251665246
 40
0.1651242224169736
 40
0.1701072213466588
 40
0.1756043753235549
 40
0.1816225396549444
 40
0.1882058515663686
 40
0.195421342631492
 40
0.2033343830848298
 40
0.2119934189746187
 40
0.2214733089309492
 40
0.2319581542080923
 40
0.2436563159134571
 40
0.2567834930298712
 40
0.2716149448254798
 40
0.2884865469165738
 40
0.3074537898976429
 40
0.3279522614597071
 40
0.3500952810889862
 40
0.3741137714315182
 40
0.4002028498260404
 40
0.428432949719983
 40
0.4590910144558243
 40
0.4926044648052173
 40
0.5295414412494588
 40
0.5705552129740228
 40
0.6163049848870908
 40
0.6671680803167868
 40
0.7229399025305948
 40
0.7837592938795778
 40
0.8504077898568392
 40
0.9236505815575722
 40
1.0
 40
1.0
 40
1.0
 40
1.0
 10
172.5914353203636
 20
379.6743141372797
 30
0.0
 41
1.171575855834665
 10
172.4640899066266
 20
379.9831620461074
 30
0.0
 41
1.171575855834665
 10
172.186415323802
 20
380.651557222161
 30
0.0
 41
1.171575855834665
 10
171.7663682011134
 20
381.6417210121044
 30
0.0
 41
1.171575855834665
 10
171.3390872408891
 20
382.608985996685
 30
0.0
 41
1.171575855834665
 10
170.9351807198685
 20
383.4714716683172
 30
0.0
 41
1.171575855834665
 10
170.5473991528927
 20
384.2421749123091
 30
0.0
 41
1.171575855834665
 10
170.1690086355743
 20
384.9360666622118
 30
0.0
 41
1.171575855834665
 10
169.7969626061219
 20
385.562419769778
 30
0.0
 41
1.171575855834665
 10
169.4329708219879
 20
386.124368870182
 30
0.0
 41
1.171575855834665
 10
169.0817876973069
 20
386.6228781936186
 30
0.0
 41
1.171575855834665
 10
168.7480395297071
 20
387.0606546784811
 30
0.0
 41
1.171575855834665
 10
168.4358596989946
 20
387.4415135657266
 30
0.0
 41
1.171575855834665
 10
168.1479447371011
 20
387.7705455847342
 30
0.0
 41
1.171575855834665
 10
167.8855441512136
 20
388.0534174348297
 30
0.0
 41
1.171575855834665
 10
167.6472719563187
 20
388.2974277025339
 30
0.0
 41
1.171575855834665
 10
167.428859259416
 20
388.5111424940017
 30
0.0
 41
1.171575855834665
 10
167.2234705009899
 20
388.7039705079648
 30
0.0
 41
1.171575855834665
 10
167.0231811898786
 20
388.8848835899815
 30
0.0
 41
1.171575855834665
 10
166.8198058513229
 20
389.061783946451
 30
0.0
 41
1.171575855834665
 10
166.6050829562509
 20
389.2415483480962
 30
0.0
 41
1.171575855834665
 10
166.3705187674676
 20
389.4301697019898
 30
0.0
 41
1.171575855834665
 10
166.1084706720006
 20
389.6319203939531
 30
0.0
 41
1.171575855834665
 10
165.8134965221414
 20
389.8484797748886
 30
0.0
 41
1.171575855834665
 10
165.482587320711
 20
390.0791508267987
 30
0.0
 41
1.171575855834665
 10
165.1135914071099
 20
390.3224664557991
 30
0.0
 41
1.171575855834665
 10
164.7031781075676
 20
390.5777639284151
 30
0.0
 41
1.171575855834665
 10
164.2468416410712
 20
390.844855044909
 30
0.0
 41
1.171575855834665
 10
163.7402658705186
 20
391.1235428680874
 30
0.0
 41
1.171575855834665
 10
163.179058978924
 20
391.4139253810357
 30
0.0
 41
1.171575855834665
 10
162.5566379984826
 20
391.717711629196
 30
0.0
 41
1.171575855834665
 10
161.8630243890914
 20
392.0387791603618
 30
0.0
 41
1.171575855834665
 10
161.0854985704113
 20
392.3827457971187
 30
0.0
 41
1.171575855834665
 10
160.2093172214242
 20
392.757150269051
 30
0.0
 41
1.171575855834665
 10
159.2169526737623
 20
393.1713663611606
 30
0.0
 41
1.171575855834665
 10
158.09276803538
 20
393.6325971442949
 30
0.0
 41
1.171575855834665
 10
156.8391671471463
 20
394.1366342371954
 30
0.0
 41
1.171575855834665
 10
155.4640371466712
 20
394.6771570937635
 30
0.0
 41
1.171575855834665
 10
153.9712372889832
 20
395.2494023289609
 30
0.0
 41
1.171575855834665
 10
152.3475684553448
 20
395.8547060314566
 30
0.0
 41
1.171575855834665
 10
150.5805498598076
 20
396.4932407340936
 30
0.0
 41
1.171575855834665
 10
148.6562154396802
 20
397.1647520045441
 30
0.0
 41
1.171575855834665
 10
146.5550684929805
 20
397.869693670162
 30
0.0
 41
1.171575855834665
 10
144.2458717322526
 20
398.6105729693926
 30
0.0
 41
1.171575855834665
 10
141.688398395596
 20
399.3899461972809
 30
0.0
 41
1.171575855834665
 10
138.836292882679
 20
400.2082846524588
 30
0.0
 41
1.171575855834665
 10
135.6467525595741
 20
401.0601541297763
 30
0.0
 41
1.171575855834665
 10
132.0962515510592
 20
401.929966255147
 30
0.0
 41
1.171575855834665
 10
128.1733832137072
 20
402.7952340473124
 30
0.0
 41
1.171575855834665
 10
123.8577072080195
 20
403.6319105912896
 30
0.0
 41
1.171575855834665
 10
119.1062619868136
 20
404.4142801689456
 30
0.0
 41
1.171575855834665
 10
113.9630326339473
 20
405.0962057141508
 30
0.0
 41
1.171575855834665
 10
110.3907731762248
 20
405.4472162013019
 30
0.0
 41
1.171575855834665
 10
108.5651013335537
 20
405.5945714853277
 30
0.0
 41
1.171575855834665
  0
ARC
  5
1DD
330
1CA
100
AcDbEntity
  8
DV2_Default
  6
Continuous
 62
     7
100
AcDbCircle
 10
108.5248758512
 20
405.0961923334
 30
0.0
 40
0.5000000000000011
100
AcDbArc
 50
85.3855111234
 51
180.0000113385
  0
LINE
  5
1DE
330
1CA
100
AcDbEntity
  8
DV2_Default
  6
Continuous
 62
     7
100
AcDbLine
 10
108.0248758512
 20
405.0961922344
 30
0.0
 11
108.0248758512
 21
396.0611540887
 31
0.0
  0
ARC
  5
1DF
330
1CA
100
AcDbEntity
  8
DV2_Default
  6
Continuous
 62
     7
100
AcDbCircle
 10
108.5248758512
 20
396.0611541815
 30
0.0
 40
0.4999999999999954
100
AcDbArc
 50
180.0000106344
 51
265.0699438261
  0
SPLINE
  5
1E0
330
1CA
100
AcDbEntity
  8
DV2_Default
  6
Continuous
 62
     7
100
AcDbSpline
210
0.0
220
0.0
230
1.0
 70
    12
 71
     3
 72
    49
 73
    45
 74
     0
 42
0.0000000001598274
 43
0.0000000001
 40
0.0
 40
0.0
 40
0.0
 40
0.0
 40
0.0619967017233448
 40
0.1230542142322849
 40
0.1788610828305716
 40
0.2300039930570071
 40
0.2771945521638021
 40
0.3202950053679953
 40
0.3587987107617447
 40
0.3941350437615854
 40
0.4287522331411467
 40
0.4642431467838175
 40
0.5010764275121946
 40
0.5390569751562448
 40
0.5758800327345268
 40
0.609035127155649
 40
0.6382714223745033
 40
0.6644727307324667
 40
0.6884181580955728
 40
0.710160909756866
 40
0.7298094017551292
 40
0.7476914227508717
 40
0.7640312351819005
 40
0.7788193788588372
 40
0.7921799155682908
 40
0.804326929633556
 40
0.8154962219477252
 40
0.8259336338249839
 40
0.835821692079431
 40
0.8450604258654902
 40
0.85448633321756
 40
0.863599037464306
 40
0.8721066390861316
 40
0.8802426644108933
 40
0.8883342629632258
 40
0.8968259046700254
 40
0.9061742630523016
 40
0.9168278908816895
 40
0.9289329573259598
 40
0.9423741893912079
 40
0.9569353885378861
 40
0.9722856164190274
 40
0.9881991711228187
 40
1.0
 40
1.0
 40
1.0
 40
1.0
 10
108.4819060539637
 20
395.5630038833657
 30
0.0
 41
1.17157307000826
 10
109.7747153452913
 20
395.4514875109922
 30
0.0
 41
1.17157307000826
 10
112.3379335409234
 20
395.1961696939872
 30
0.0
 41
1.17157307000826
 10
116.0525886651242
 20
394.7279674914637
 30
0.0
 41
1.17157307000826
 10
119.5299934310253
 20
394.202580610382
 30
0.0
 41
1.17157307000826
 10
122.7088555044076
 20
393.6495790198693
 30
0.0
 41
1.17157307000826
 10
125.6148039546453
 20
393.0830775045021
 30
0.0
 41
1.17157307000826
 10
128.2511189371685
 20
392.5184587531312
 30
0.0
 41
1.17157307000826
 10
130.6360170130206
 20
391.9663378596049
 30
0.0
 41
1.17157307000826
 10
132.8401111533271
 20
391.4215734081843
 30
0.0
 41
1.17157307000826
 10
134.975446245845
 20
390.8621957438659
 30
0.0
 41
1.17157307000826
 10
137.133104660419
 20
390.2650261875316
 30
0.0
 41
1.17157307000826
 10
139.3497683705083
 20
389.6177446125895
 30
0.0
 41
1.17157307000826
 10
141.5835715311743
 20
388.9303286736799
 30
0.0
 41
1.17157307000826
 10
143.7341199981276
 20
388.234807239489
 30
0.0
 41
1.17157307000826
 10
145.7019113034144
 20
387.5696029534223
 30
0.0
 41
1.17157307000826
 10
147.4520309887882
 20
386.955207163471
 30
0.0
 41
1.17157307000826
 10
149.0145240156315
 20
386.388655743832
 30
0.0
 41
1.17157307000826
 10
150.4247653936762
 20
385.8626024913818
 30
0.0
 41
1.17157307000826
 10
151.7024963062492
 20
385.3739179687759
 30
0.0
 41
1.17157307000826
 10
152.8582501849588
 20
384.9218407094156
 30
0.0
 41
1.17157307000826
 10
153.9061335617916
 20
384.5043090256058
 30
0.0
 41
1.17157307000826
 10
154.8536527423814
 20
384.116605271371
 30
0.0
 41
1.17157307000826
 10
155.7039898946055
 20
383.7505343870459
 30
0.0
 41
1.17157307000826
 10
156.4615997277746
 20
383.3995619716681
 30
0.0
 41
1.17157307000826
 10
157.1367328025972
 20
383.0575836790835
 30
0.0
 41
1.17157307000826
 10
157.7424332154644
 20
382.7191408473721
 30
0.0
 41
1.17157307000826
 10
158.2912511558552
 20
382.3794694959163
 30
0.0
 41
1.17157307000826
 10
158.789567875667
 20
382.0375203882502
 30
0.0
 41
1.17157307000826
 10
159.2536414810526
 20
381.6851582739043
 30
0.0
 41
1.17157307000826
 10
159.6871778728127
 20
381.3209525020525
 30
0.0
 41
1.17157307000826
 10
160.0905931667714
 20
380.9457254561849
 30
0.0
 41
1.17157307000826
 10
160.4569200370533
 20
380.5702068699279
 30
0.0
 41
1.17157307000826
 10
160.7919481733826
 20
380.1937803558284
 30
0.0
 41
1.17157307000826
 10
161.1102438157341
 20
379.8030086273667
 30
0.0
 41
1.17157307000826
 10
161.4263995387132
 20
379.3785089586671
 30
0.0
 41
1.17157307000826
 10
161.7533930393715
 20
378.8962867697626
 30
0.0
 41
1.17157307000826
 10
162.0972615612272
 20
378.335153658225
 30
0.0
 41
1.17157307000826
 10
162.456462509081
 20
377.6829790024433
 30
0.0
 41
1.17157307000826
 10
162.824519397548
 20
376.94088587044
 30
0.0
 41
1.17157307000826
 10
163.1952868345039
 20
376.1213891891294
 30
0.0
 41
1.17157307000826
 10
163.5667928429395
 20
375.2418084915087
 30
0.0
 41
1.17157307000826
 10
163.9049633368033
 20
374.4073232487311
 30
0.0
 41
1.17157307000826
 10
164.1195472257798
 20
373.8682400840818
 30
0.0
 41
1.17157307000826
 10
164.2104604517937
 20
373.6384637457297
 30
0.0
 41
1.17157307000826
  0
ELLIPSE
  5
1E1
330
1CA
100
AcDbEntity
  8
DV2_Default
  6
Continuous
 62
     7
100
AcDbEllipse
 10
-935.8229035147
 20
316.587904071
 30
0.0
 11
-1111.263182922592
 21
-0.00111967822199377
 31
0.0
210
0.0
220
0.0
230
1.0
 40
0.3620284546
 41
2.999307230509582
 42
3.283877355004307
  0
SPLINE
  5
1E2
330
1CA
100
AcDbEntity
  8
DV2_Default
  6
Continuous
 62
     7
100
AcDbSpline
210
0.0
220
0.0
230
1.0
 70
    12
 71
     3
 72
   169
 73
   165
 74
     0
 42
0.0000000000352207
 43
0.0000000001
 40
0.0
 40
0.0
 40
0.0
 40
0.0
 40
0.003796223394713
 40
0.0079542719823794
 40
0.0117715456324125
 40
0.0152928551961731
 40
0.0185568342871008
 40
0.0215491851109575
 40
0.0242573779045409
 40
0.0266930642484078
 40
0.0288838856763793
 40
0.0308504834529366
 40
0.0326052802185468
 40
0.0341896017430525
 40
0.0356794853679457
 40
0.0371543734217765
 40
0.038706980960367
 40
0.0404398051181995
 40
0.042400629828816
 40
0.0445415735198981
 40
0.0468673944299987
 40
0.0494095462130809
 40
0.0522025708498389
 40
0.0553272308917375
 40
0.0588865520605446
 40
0.0628282751523462
 40
0.0670716898559702
 40
0.0716714648222184
 40
0.0766603342953937
 40
0.0820621032259528
 40
0.0879101018618523
 40
0.0942612628461846
 40
0.1011488833392904
 40
0.108591723638477
 40
0.1166697041061598
 40
0.125480641234768
 40
0.1351361702442689
 40
0.1457659756896831
 40
0.1574954793251174
 40
0.1704293209193149
 40
0.1845780677988962
 40
0.1995425370357757
 40
0.2139452608122141
 40
0.2268373947202029
 40
0.2381001349768669
 40
0.2486511911884529
 40
0.2594718058928797
 40
0.2713835446037304
 40
0.2844961790328805
 40
0.2981226075003289
 40
0.3111270456916559
 40
0.3227987283399539
 40
0.3331571489544226
 40
0.3423709967931673
 40
0.3506688335284517
 40
0.3581810132925851
 40
0.3649389184889545
 40
0.3709772393554566
 40
0.3764158971116483
 40
0.3814289500615418
 40
0.3861911564098968
 40
0.3908804533043779
 40
0.3957081729300728
 40
0.400906863868406
 40
0.4067096358486325
 40
0.4133032579648866
 40
0.4205250971501356
 40
0.4280538965380071
 40
0.435575139498431
 40
0.4428105766825888
 40
0.4494926770914156
 40
0.4554427347255503
 40
0.4607503844490432
 40
0.4655267037618539
 40
0.4698115040844932
 40
0.4738619580969002
 40
0.478103996869693
 40
0.4824114121174917
 40
0.4866072861227702
 40
0.4906598814024565
 40
0.494655895882726
 40
0.4984833675502464
 40
0.5022131236428801
 40
0.5058138394853443
 40
0.5092437635957099
 40
0.5126549399343895
 40
0.5163348878564616
 40
0.5201847234128819
 40
0.5240266877249802
 40
0.5277394029497186
 40
0.5313934948479139
 40
0.5353620239029377
 40
0.5396647668243957
 40
0.5443155278446369
 40
0.5493602089793918
 40
0.5547950173297079
 40
0.5606762597545351
 40
0.5671064479927792
 40
0.5741890223515023
 40
0.5820338606236444
 40
0.5907579843428206
 40
0.600461494628284
 40
0.6111045350412203
 40
0.6226527636692539
 40
0.6354223380011875
 40
0.6493805888148301
 40
0.6634140238245166
 40
0.6763833903118349
 40
0.6876957990727113
 40
0.6977290984923802
 40
0.7067731802945548
 40
0.7148494515336948
 40
0.7220318965809142
 40
0.7286158430553284
 40
0.7349397980223777
 40
0.7413404923075743
 40
0.7481492303806666
 40
0.7557009848446194
 40
0.7642777731208621
 40
0.7739784241758386
 40
0.7847575495141843
 40
0.7958648001798169
 40
0.8064436349405782
 40
0.8164515838522396
 40
0.8262186179545962
 40
0.8367395506476082
 40
0.8488048079887843
 40
0.8613935844444904
 40
0.8732930677735941
 40
0.8839194119913327
 40
0.8931932334217421
 40
0.901434283190788
 40
0.9088888010912852
 40
0.9156592388248112
 40
0.9218341394117442
 40
0.9274696508152407
 40
0.9325935916306999
 40
0.9372638800554791
 40
0.9415471945824346
 40
0.9453540448065247
 40
0.9486882172872795
 40
0.9516458130317101
 40
0.954295668725682
 40
0.9566836075009356
 40
0.9588573105037919
 40
0.9608453391952343
 40
0.9626353913526562
 40
0.9642477308682891
 40
0.9656892722936673
 40
0.9670192373483849
 40
0.9683207725298395
 40
0.9696740267195796
 40
0.9711611328943183
 40
0.9728152373125503
 40
0.9746109652302817
 40
0.9765554507415579
 40
0.9786816996942955
 40
0.9810243452512528
 40
0.9836290691279965
 40
0.9865194927928074
 40
0.9897015156999205
 40
0.9931808818303897
 40
0.9969628730715535
 40
1.0
 40
1.0
 40
1.0
 40
1.0
 10
164.2104616926237
 20
259.5392737243397
 30
0.0
 41
1.171573267982289
 10
164.0779301364662
 20
259.2042584360337
 30
0.0
 41
1.171573267982289
 10
163.7982793513144
 20
258.5032683561966
 30
0.0
 41
1.171573267982289
 10
163.3750684334897
 20
257.4726603456104
 30
0.0
 41
1.171573267982289
 10
162.9400883320452
 20
256.4809525954383
 30
0.0
 41
1.171573267982289
 10
162.5068439269474
 20
255.5868562676724
 30
0.0
 41
1.171573267982289
 10
162.0686394644655
 20
254.7873932641706
 30
0.0
 41
1.171573267982289
 10
161.6265231100988
 20
254.082083858172
 30
0.0
 41
1.171573267982289
 10
161.1878127951305
 20
253.4696425311175
 30
0.0
 41
1.171573267982289
 10
160.7604746969225
 20
252.9433765032725
 30
0.0
 41
1.171573267982289
 10
160.3504863389966
 20
252.4933646567851
 30
0.0
 41
1.171573267982289
 10
159.9625046556054
 20
252.109505745558
 30
0.0
 41
1.171573267982289
 10
159.5986808661081
 20
251.7815199468609
 30
0.0
 41
1.171573267982289
 10
159.2553757130776
 20
251.4966390476877
 30
0.0
 41
1.171573267982289
 10
158.9220629385449
 20
251.2401243857519
 30
0.0
 41
1.171573267982289
 10
158.5821585323795
 20
250.99660644391
 30
0.0
 41
1.171573267982289
 10
158.2150985975832
 20
250.751748471825
 30
0.0
 41
1.171573267982289
 10
157.8008217646135
 20
250.4953890308018
 30
0.0
 41
1.171573267982289
 10
157.3292125796027
 20
250.2259250942777
 30
0.0
 41
1.171573267982289
 10
156.7982453870893
 20
249.9463353196043
 30
0.0
 41
1.171573267982289
 10
156.2079157963614
 20
249.6588457812092
 30
0.0
 41
1.171573267982289
 10
155.5520878356294
 20
249.3612266713585
 30
0.0
 41
1.171573267982289
 10
154.8182480928983
 20
249.0471748657964
 30
0.0
 41
1.171573267982289
 10
153.9882562536145
 20
248.7068689344741
 30
0.0
 41
1.171573267982289
 10
153.0520575102744
 20
248.3327905877013
 30
0.0
 41
1.171573267982289
 10
152.0147329042948
 20
247.9252640093846
 30
0.0
 41
1.171573267982289
 10
150.8826116963227
 20
247.4892863496388
 30
0.0
 41
1.171573267982289
 10
149.6543823236425
 20
247.0264702939373
 30
0.0
 41
1.171573267982289
 10
148.3193836939064
 20
246.5354729605684
 30
0.0
 41
1.171573267982289
 10
146.8686936101506
 20
246.0161263796719
 30
0.0
 41
1.171573267982289
 10
145.2910781508652
 20
245.468097922763
 30
0.0
 41
1.171573267982289
 10
143.5742566641651
 20
244.8915222592261
 30
0.0
 41
1.171573267982289
 10
141.707061093323
 20
244.2878679190335
 30
0.0
 41
1.171573267982289
 10
139.6760589307192
 20
243.6589043613333
 30
0.0
 41
1.171573267982289
 10
137.4617253059466
 20
243.0058936057507
 30
0.0
 41
1.171573267982289
 10
135.0357179834327
 20
242.3295651706441
 30
0.0
 41
1.171573267982289
 10
132.3646845559387
 20
241.632106169981
 30
0.0
 41
1.171573267982289
 10
129.4122145917315
 20
240.918609970768
 30
0.0
 41
1.171573267982289
 10
126.1420671214447
 20
240.1986729848792
 30
0.0
 41
1.171573267982289
 10
122.528781153333
 20
239.4891393486585
 30
0.0
 41
1.171573267982289
 10
118.5961244024714
 20
238.8199287544545
 30
0.0
 41
1.171573267982289
 10
114.5085650387269
 20
238.2397811963082
 30
0.0
 41
1.171573267982289
 10
110.5248966383341
 20
237.7881614516631
 30
0.0
 41
1.171573267982289
 10
106.880736423339
 20
237.4719501359695
 30
0.0
 41
1.171573267982289
 10
103.5949507588151
 20
237.2642632746278
 30
0.0
 41
1.171573267982289
 10
100.5018874324838
 20
237.1346316375082
 30
0.0
 41
1.171573267982289
 10
97.34523905392422
 20
237.0682279095465
 30
0.0
 41
1.171573267982289
 10
93.94484829492913
 20
237.072218130216
 30
0.0
 41
1.171573267982289
 10
90.27940739766393
 20
237.1661417189208
 30
0.0
 41
1.171573267982289
 10
86.51408713623363
 20
237.3609538876865
 30
0.0
 41
1.171573267982289
 10
82.89136387793222
 20
237.6425502273886
 30
0.0
 41
1.171573267982289
 10
79.58485067230464
 20
237.9790761410596
 30
0.0
 41
1.171573267982289
 10
76.64311787451
 20
238.3415474767265
 30
0.0
 41
1.171573267982289
 10
74.02554527448413
 20
238.7138639255903
 30
0.0
 41
1.171573267982289
 10
71.68115936763763
 20
239.0871523371261
 30
0.0
 41
1.171573267982289
 10
69.57209980844767
 20
239.4552768220582
 30
0.0
 41
1.171573267982289
 10
67.67878445999881
 20
239.8118848152684
 30
0.0
 41
1.171573267982289
 10
65.98270157443716
 20
240.1523122764625
 30
0.0
 41
1.171573267982289
 10
64.45225582768877
 20
240.4764399942374
 30
0.0
 41
1.171573267982289
 10
63.04317545416158
 20
240.7890535550144
 30
0.0
 41
1.171573267982289
 10
61.70620056044
 20
241.098249445417
 30
0.0
 41
1.171573267982289
 10
60.38901775295734
 20
241.4148371258499
 30
0.0
 41
1.171573267982289
 10
59.03441876672172
 20
241.7527971265042
 30
0.0
 41
1.171573267982289
 10
57.5806455952311
 20
242.1294816014717
 30
0.0
 41
1.171573267982289
 10
55.96886277424593
 20
242.5640920771479
 30
0.0
 41
1.171573267982289
 10
54.17716068814764
 20
243.0684534310393
 30
0.0
 41
1.171573267982289
 10
52.23460703941147
 20
243.6408991542716
 30
0.0
 41
1.171573267982289
 10
50.21544605448106
 20
244.2642925618829
 30
0.0
 41
1.171573267982289
 10
48.20329116996012
 20
244.9142989423942
 30
0.0
 41
1.171573267982289
 10
46.27558385275462
 20
245.5639752123741
 30
0.0
 41
1.171573267982289
 10
44.49633554348571
 20
246.1870302968314
 30
0.0
 41
1.171573267982289
 10
42.89574700898245
 20
246.7665974465817
 30
0.0
 41
1.171573267982289
 10
41.47008358036717
 20
247.2979560662093
 30
0.0
 41
1.171573267982289
 10
40.19643641905691
 20
247.784685011884
 30
0.0
 41
1.171573267982289
 10
39.0376230853458
 20
248.2375348577309
 30
0.0
 41
1.171573267982289
 10
37.92864315206015
 20
248.679038057634
 30
0.0
 41
1.171573267982289
 10
36.82484291247838
 20
249.1310246697657
 30
0.0
 41
1.171573267982289
 10
35.72527537112468
 20
249.6130505240689
 30
0.0
 41
1.171573267982289
 10
34.67107419600845
 20
250.1334572061633
 30
0.0
 41
1.171573267982289
 10
33.68449931508273
 20
250.7043978505843
 30
0.0
 41
1.171573267982289
 10
32.78060246545361
 20
251.3327333231268
 30
0.0
 41
1.171573267982289
 10
31.96344539801199
 20
252.0207611346161
 30
0.0
 41
1.171573267982289
 10
31.24092619416963
 20
252.7561353067025
 30
0.0
 41
1.171573267982289
 10
30.61093502267913
 20
253.5263090592219
 30
0.0
 41
1.171573267982289
 10
30.06158066543759
 20
254.3230498397552
 30
0.0
 41
1.171573267982289
 10
29.56428566665509
 20
255.1659588201183
 30
0.0
 41
1.171573267982289
 10
29.09820808097638
 20
256.0764600769866
 30
0.0
 41
1.171573267982289
 10
28.65561723710315
 20
257.0494694967622
 30
0.0
 41
1.171573267982289
 10
28.23828304494361
 20
258.0427181185072
 30
0.0
 41
1.171573267982289
 10
27.84086160882998
 20
259.0282210030512
 30
0.0
 41
1.171573267982289
 10
27.44497026642788
 20
260.0285407736688
 30
0.0
 41
1.171573267982289
 10
27.0349763453443
 20
261.0832261461019
 30
0.0
 41
1.171573267982289
 10
26.59846645143465
 20
262.2290986775596
 30
0.0
 41
1.171573267982289
 10
26.13476939722999
 20
263.4738128247822
 30
0.0
 41
1.171573267982289
 10
25.64441057053317
 20
264.823165776456
 30
0.0
 41
1.171573267982289
 10
25.12697846008441
 20
266.2868210388913
 30
0.0
 41
1.171573267982289
 10
24.5809007944051
 20
267.8796840746671
 30
0.0
 41
1.171573267982289
 10
24.00237628616939
 20
269.6265716572783
 30
0.0
 41
1.171573267982289
 10
23.38763392859625
 20
271.5575560684764
 30
0.0
 41
1.171573267982289
 10
22.73459378576306
 20
273.7045356593994
 30
0.0
 41
1.171573267982289
 10
22.04388844303191
 20
276.0996747703387
 30
0.0
 41
1.171573267982289
 10
21.32299421875736
 20
278.7619999691634
 30
0.0
 41
1.171573267982289
 10
20.58550721693392
 20
281.6968616453105
 30
0.0
 41
1.171573267982289
 10
19.84213055594314
 20
284.9294457240678
 30
0.0
 41
1.171573267982289
 10
19.10758969576588
 20
288.4858455576016
 30
0.0
 41
1.171573267982289
 10
18.41986823173163
 20
292.2914307436027
 30
0.0
 41
1.171573267982289
 10
17.82992996673813
 20
296.1324930987659
 30
0.0
 41
1.171573267982289
 10
17.37072311735559
 20
299.7383170303856
 30
0.0
 41
1.171573267982289
 10
17.03490710370262
 20
302.9762771864611
 30
0.0
 41
1.171573267982289
 10
16.79669907986553
 20
305.8492919997825
 30
0.0
 41
1.171573267982289
 10
16.63141584295624
 20
308.4198152825498
 30
0.0
 41
1.171573267982289
 10
16.521839196665
 20
310.7225695681122
 30
0.0
 41
1.171573267982289
 10
16.45415248968821
 20
312.7934316329786
 30
0.0
 41
1.171573267982289
 10
16.4174925920693
 20
314.6988099439704
 30
0.0
 41
1.171573267982289
 10
16.40534898638758
 20
316.5303393426643
 30
0.0
 41
1.171573267982289
 10
16.41609812546341
 20
318.3832023520924
 30
0.0
 41
1.171573267982289
 10
16.45293064874555
 20
320.3522269688001
 30
0.0
 41
1.171573267982289
 10
16.52411190806634
 20
322.5268712450408
 30
0.0
 41
1.171573267982289
 10
16.64276364556761
 20
324.9741638400699
 30
0.0
 41
1.171573267982289
 10
16.82517959831278
 20
327.7244892887089
 30
0.0
 41
1.171573267982289
 10
17.0828192189839
 20
330.7098762462863
 30
0.0
 41
1.171573267982289
 10
17.41237892206052
 20
333.7720312428369
 30
0.0
 41
1.171573267982289
 10
17.79625422348111
 20
336.7541219922617
 30
0.0
 41
1.171573267982289
 10
18.2198558246086
 20
339.6023746575278
 30
0.0
 41
1.171573267982289
 10
18.69575801735757
 20
342.4368228552095
 30
0.0
 41
1.171573267982289
 10
19.26153252869403
 20
345.453607884251
 30
0.0
 41
1.171573267982289
 10
19.94540479801762
 20
348.7200115240113
 30
0.0
 41
1.171573267982289
 10
20.73277896389564
 20
352.0975794736866
 30
0.0
 41
1.171573267982289
 10
21.56095941051063
 20
355.3246707927405
 30
0.0
 41
1.171573267982289
 10
22.3695905334039
 20
358.2314731438735
 30
0.0
 41
1.171573267982289
 10
23.13019561321383
 20
360.7909414721921
 30
0.0
 41
1.171573267982289
 10
23.83962551901739
 20
363.0514101889079
 30
0.0
 41
1.171573267982289
 10
24.50533959157163
 20
365.0764807401793
 30
0.0
 41
1.171573267982289
 10
25.1320501036179
 20
366.9078849611806
 30
0.0
 41
1.171573267982289
 10
25.72104880471464
 20
368.569688791971
 30
0.0
 41
1.171573267982289
 10
26.27276174954356
 20
370.0788899345046
 30
0.0
 41
1.171573267982289
 10
26.78769518983723
 20
371.4494980681056
 30
0.0
 41
1.171573267982289
 10
27.26750534643997
 20
372.6961598192725
 30
0.0
 41
1.171573267982289
 10
27.71078321833046
 20
373.823098042547
 30
0.0
 41
1.171573267982289
 10
28.11384900042849
 20
374.8290757438391
 30
0.0
 41
1.171573267982289
 10
28.47891692047591
 20
375.711749924839
 30
0.0
 41
1.171573267982289
 10
28.81565730811383
 20
376.4841612579622
 30
0.0
 41
1.171573267982289
 10
29.1335168788513
 20
377.163997899138
 30
0.0
 41
1.171573267982289
 10
29.43840467304208
 20
377.7655234530398
 30
0.0
 41
1.171573267982289
 10
29.7336453934686
 20
378.2997573012231
 30
0.0
 41
1.171573267982289
 10
30.01934483873143
 20
378.7734237370558
 30
0.0
 41
1.171573267982289
 10
30.29376150221089
 20
379.1911521975029
 30
0.0
 41
1.171573267982289
 10
30.55376813203326
 20
379.5565387136838
 30
0.0
 41
1.171573267982289
 10
30.80024015949803
 20
379.87831220914
 30
0.0
 41
1.171573267982289
 10
31.03881332040033
 20
380.1693083173344
 30
0.0
 41
1.171573267982289
 10
31.28109563555563
 20
380.4462031985989
 30
0.0
 41
1.171573267982289
 10
31.54216372737721
 20
380.7254734474431
 30
0.0
 41
1.171573267982289
 10
31.83602386124183
 20
381.0182844708236
 30
0.0
 41
1.171573267982289
 10
32.17120293935806
 20
381.3270840637147
 30
0.0
 41
1.171573267982289
 10
32.55171832069517
 20
381.6487687634445
 30
0.0
 41
1.171573267982289
 10
32.9812828865543
 20
381.9800429987001
 30
0.0
 41
1.171573267982289
 10
33.46809904131429
 20
382.320340047184
 30
0.0
 41
1.171573267982289
 10
34.02367039336007
 20
382.6703948884141
 30
0.0
 41
1.171573267982289
 10
34.65896604815333
 20
383.0298219539425
 30
0.0
 41
1.171573267982289
 10
35.382115128782
 20
383.3976806486044
 30
0.0
 41
1.171573267982289
 10
36.19658328039032
 20
383.7738646452742
 30
0.0
 41
1.171573267982289
 10
37.10251593753382
 20
384.1613803395321
 30
0.0
 41
1.171573267982289
 10
38.00600157447834
 20
384.5291417056491
 30
0.0
 41
1.171573267982289
 10
38.6070625017307
 20
384.7686006103947
 30
0.0
 41
1.171573267982289
 10
38.87508665374365
 20
384.8746372287697
 30
0.0
 41
1.171573267982289
  0
ELLIPSE
  5
1E3
330
1CA
100
AcDbEntity
  8
DV2_Default
  6
Continuous
 62
     7
100
AcDbEllipse
 10
96.1711751668
 20
-724.1636106226
 30
0.0
 11
0.0
 21
1119.799843182059
 31
0.0
210
0.0
220
0.0
230
1.0
 40
1.0
 41
0.0114338375886727
 42
0.0516169705640857
  0
ARC
  5
1E4
330
1CA
100
AcDbEntity
  8
DV2_Default
  6
Continuous
 62
     7
100
AcDbCircle
 10
83.3248758512
 20
396.0611867956
 30
0.0
 40
0.500000368347879
100
AcDbArc
 50
274.9299332837
 51
359.9999362038
  0
LINE
  5
1E5
330
1CA
100
AcDbEntity
  8
DV2_Default
  6
Continuous
 62
     7
100
AcDbLine
 10
83.9248760265
 20
404.9372420173
 30
0.0
 11
83.8248758512
 21
404.9372420173
 31
0.0
  0
LINE
  5
1E6
330
1CA
100
AcDbEntity
  8
DV2_Default
  6
Continuous
 62
     7
100
AcDbLine
 10
83.8248758512
 20
396.3372420173
 30
0.0
 11
83.9248756338
 21
396.3372420173
 31
0.0
  0
LINE
  5
1E7
330
1CA
100
AcDbEntity
  8
DV2_Default
  6
Continuous
 62
     7
100
AcDbLine
 10
107.9248777549
 20
396.3372420173
 30
0.0
 11
108.0248758512
 21
396.3372420173
 31
0.0
  0
LINE
  5
1E8
330
1CA
100
AcDbEntity
  8
DV2_Default
  6
Continuous
 62
     7
100
AcDbLine
 10
108.0248758512
 20
404.9372420173
 30
0.0
 11
107.9248773634
 21
404.9372420173
 31
0.0
  0
LINE
  5
1E9
330
1CA
100
AcDbEntity
  8
DV2_Default
  6
Continuous
 62
     7
100
AcDbLine
 10
86.6047698428
 20
395.1576765597
 30
0.0
 11
86.6289242859
 21
395.0533525254
 31
0.0
  0
LINE
  5
1EA
330
1CA
100
AcDbEntity
  8
DV2_Default
  6
Continuous
 62
     7
100
AcDbLine
 10
86.6289101809
 20
395.0533492331
 30
0.0
 11
87.1648871841
 21
393.0798011752
 31
0.0
  0
ARC
  5
1EB
330
1CA
100
AcDbEntity
  8
DV2_Default
  6
Continuous
 62
     7
100
AcDbCircle
 10
114.4467405262
 20
401.5249377464
 30
0.0
 40
28.55904822010852
100
AcDbArc
 50
197.1999851064
 51
197.5653492262
  0
SPLINE
  5
1EC
330
1CA
100
AcDbEntity
  8
DV2_Default
  6
Continuous
 62
     7
100
AcDbSpline
210
0.0
220
0.0
230
1.0
 70
     8
 71
     3
 72
     8
 73
     4
 74
     0
 42
0.0000000418491656
 43
0.0000000001
 40
0.0
 40
0.0
 40
0.0
 40
0.0
 40
1.0
 40
1.0
 40
1.0
 40
1.0
 10
87.39046299768881
 20
392.5529857429632
 30
0.0
 10
87.33466180890909
 20
392.6087920363581
 30
0.0
 10
87.29236323717448
 20
392.6780071323444
 30
0.0
 10
87.26814730625712
 20
392.7531184087022
 30
0.0
  0
ARC
  5
1ED
330
1CA
100
AcDbEntity
  8
DV2_Default
  6
Continuous
 62
     7
100
AcDbCircle
 10
115.034124003
 20
401.7076529597
 30
0.0
 40
29.17418638020849
100
AcDbArc
 50
197.5593148352
 51
197.8745245751
  0
ARC
  5
1EE
330
1CA
100
AcDbEntity
  8
DV2_Default
  6
Continuous
 62
     7
100
AcDbCircle
 10
112.5827642959
 20
401.0160007312
 30
0.0
 40
26.66113610489488
100
AcDbArc
 50
168.2753994749
 51
169.6673974477
  0
ARC
  5
1EF
330
1CA
100
AcDbEntity
  8
DV2_Default
  6
Continuous
 62
     7
100
AcDbCircle
 10
114.2168627567
 20
400.6927394153
 30
0.0
 40
28.32705168734762
100
AcDbArc
 50
167.7528879789
 51
168.1486116986
  0
LINE
  5
1F0
330
1CA
100
AcDbEntity
  8
DV2_Default
  6
Continuous
 62
     7
100
AcDbLine
 10
87.1651240012
 20
409.0950868242
 30
0.0
 11
86.5344914077
 21
406.7017103286
 31
0.0
  0
ARC
  5
1F1
330
1CA
100
AcDbEntity
  8
DV2_Default
  6
Continuous
 62
     7
100
AcDbCircle
 10
114.6996496397
 20
400.5695672758
 30
0.0
 40
28.82419307506105
100
AcDbArc
 50
162.4350144606
 51
162.7958983159
  0
ARC
  5
1F2
330
1CA
100
AcDbEntity
  8
DV2_Default
  6
Continuous
 62
     7
100
AcDbCircle
 10
115.2236912696
 20
400.4061329363
 30
0.0
 40
29.37312391179553
100
AcDbArc
 50
162.1259969735
 51
162.1663919885
  0
ARC
  5
1F3
330
1CA
100
AcDbEntity
  8
DV2_Default
  6
Continuous
 62
     7
100
AcDbCircle
 10
115.1186855561
 20
400.4393719293
 30
0.0
 40
29.26298313231498
100
AcDbArc
 50
162.1851632835
 51
162.4555857002
  0
ARC
  5
1F4
330
1CA
100
AcDbEntity
  8
DV2_Default
  6
Continuous
 62
     7
100
AcDbCircle
 10
125.2678287799
 20
404.9370549171
 30
0.0
 40
39.90534367076253
100
AcDbArc
 50
197.2536351096
 51
197.5349871008
  0
ARC
  5
1F5
330
1CA
100
AcDbEntity
  8
DV2_Default
  6
Continuous
 62
     7
100
AcDbCircle
 10
87.4331284998
 20
395.37036263
 30
0.0
 40
0.8552271213559411
100
AcDbArc
 50
190.9849444822
 51
194.3999816032
  0
LINE
  5
1F6
330
1CA
100
AcDbEntity
  8
DV2_Default
  6
Continuous
 62
     7
100
AcDbLine
 10
86.5630764565
 20
395.3423265076
 30
0.0
 11
86.573052653
 21
395.2976074892
 31
0.0
  0
ARC
  5
1F7
330
1CA
100
AcDbEntity
  8
DV2_Default
  6
Continuous
 62
     7
100
AcDbCircle
 10
113.4291521659
 20
401.3140441966
 30
0.0
 40
27.52176295556921
100
AcDbArc
 50
191.7619519654
 51
192.5318126962
  0
SPLINE
  5
1F8
330
1CA
100
AcDbEntity
  8
DV2_Default
  6
Continuous
 62
     7
100
AcDbSpline
210
0.0
220
0.0
230
1.0
 70
    12
 71
     3
 72
     8
 73
     4
 74
     0
 42
0.0000000012282094
 43
0.0000000001
 40
0.0
 40
0.0
 40
0.0
 40
0.0
 40
1.0
 40
1.0
 40
1.0
 40
1.0
 10
95.92476006496621
 20
391.087076016824
 30
0.0
 41
1.0
 10
98.5868299915212
 20
391.0870901675581
 30
0.0
 41
1.0
 10
101.24890633822
 20
391.4982749693091
 30
0.0
 41
1.0
 10
103.9110272306698
 20
392.3205464880032
 30
0.0
 41
1.0
  0
ARC
  5
1F9
330
1CA
100
AcDbEntity
  8
DV2_Default
  6
Continuous
 62
     7
100
AcDbCircle
 10
96.0008285757
 20
418.0471836416
 30
0.0
 40
26.96021493900523
100
AcDbArc
 50
252.5997569178
 51
269.838339182
  0
ARC
  5
1FA
330
1CA
100
AcDbEntity
  8
DV2_Default
  6
Continuous
 62
     7
100
AcDbCircle
 10
92.0750245431
 20
430.4301666381
 30
0.0
 40
39.9053142777345
100
AcDbArc
 50
287.2536352106
 51
287.5349884477
  0
ARC
  5
1FB
330
1CA
100
AcDbEntity
  8
DV2_Default
  6
Continuous
 62
     7
100
AcDbCircle
 10
95.1130069948
 20
420.7985217569
 30
0.0
 40
29.80591381638806
100
AcDbArc
 50
287.5594504735
 51
287.869501891
  0
ARC
  5
1FC
330
1CA
100
AcDbEntity
  8
DV2_Default
  6
Continuous
 62
     7
100
AcDbCircle
 10
95.0507929238
 20
420.9957376417
 30
0.0
 40
30.01271000172502
100
AcDbArc
 50
287.1979013535
 51
287.5590993622
  0
ARC
  5
1FD
330
1CA
100
AcDbEntity
  8
DV2_Default
  6
Continuous
 62
     7
100
AcDbCircle
 10
95.9250037035
 20
417.5684734147
 30
0.0
 40
26.48080071777464
100
AcDbArc
 50
252.4154262924
 51
255.1505346826
  0
ARC
  5
1FE
330
1CA
100
AcDbEntity
  8
DV2_Default
  6
Continuous
 62
     7
100
AcDbCircle
 10
95.9250037035
 20
417.5684734147
 30
0.0
 40
26.48080071777464
100
AcDbArc
 50
267.8866595162
 51
272.1123924537
  0
ARC
  5
1FF
330
1CA
100
AcDbEntity
  8
DV2_Default
  6
Continuous
 62
     7
100
AcDbCircle
 10
96.799333414
 20
420.9959012867
 30
0.0
 40
30.0128982364057
100
AcDbArc
 50
252.4400054134
 51
252.8010497978
  0
ARC
  5
200
330
1CA
100
AcDbEntity
  8
DV2_Default
  6
Continuous
 62
     7
100
AcDbCircle
 10
96.8249940129
 20
421.0751607763
 30
0.0
 40
30.09620627465512
100
AcDbArc
 50
252.1317498411
 51
252.4389546776
  0
ARC
  5
201
330
1CA
100
AcDbEntity
  8
DV2_Default
  6
Continuous
 62
     7
100
AcDbCircle
 10
104.1055863847
 20
392.9063086338
 30
0.0
 40
0.4999079501348007
100
AcDbArc
 50
294.6846129695
 51
308.7472103008
  0
SPLINE
  5
202
330
1CA
100
AcDbEntity
  8
DV2_Default
  6
Continuous
 62
     7
100
AcDbSpline
210
0.0
220
0.0
230
1.0
 70
     8
 71
     3
 72
     8
 73
     4
 74
     0
 42
0.0000000418484728
 43
0.0000000001
 40
0.0
 40
0.0
 40
0.0
 40
0.0
 40
1.0
 40
1.0
 40
1.0
 40
1.0
 10
104.5814067761611
 20
392.7529615996376
 30
0.0
 10
104.5571911979607
 20
392.6778488613913
 30
0.0
 10
104.5148898699845
 20
392.6086338215879
 30
0.0
 10
104.4590859232833
 20
392.5528284709561
 30
0.0
  0
ARC
  5
203
330
1CA
100
AcDbEntity
  8
DV2_Default
  6
Continuous
 62
     7
100
AcDbCircle
 10
104.1055922003
 20
392.9063133009
 30
0.0
 40
0.4999093289317062
100
AcDbArc
 50
287.8651160186
 51
308.7472103008
  0
ARC
  5
204
330
1CA
100
AcDbEntity
  8
DV2_Default
  6
Continuous
 62
     7
100
AcDbCircle
 10
104.3583833165
 20
395.3833155973
 30
0.0
 40
0.9147525898010188
100
AcDbArc
 50
345.7070598216
 51
348.9057334164
  0
LINE
  5
205
330
1CA
100
AcDbEntity
  8
DV2_Default
  6
Continuous
 62
     7
100
AcDbLine
 10
105.2206747235
 20
395.0532026933
 30
0.0
 11
105.2448207997
 21
395.1574818334
 31
0.0
  0
LINE
  5
206
330
1CA
100
AcDbEntity
  8
DV2_Default
  6
Continuous
 62
     7
100
AcDbLine
 10
104.6846711425
 20
393.0796416544
 30
0.0
 11
105.2206888275
 21
395.0531994011
 31
0.0
  0
ARC
  5
207
330
1CA
100
AcDbEntity
  8
DV2_Default
  6
Continuous
 62
     7
100
AcDbCircle
 10
77.4025976857
 20
401.5253947064
 30
0.0
 40
28.55944079403194
100
AcDbArc
 50
342.4335476013
 51
342.7989640072
  0
ARC
  5
208
330
1CA
100
AcDbEntity
  8
DV2_Default
  6
Continuous
 62
     7
100
AcDbCircle
 10
76.6263799303
 20
401.7681851503
 30
0.0
 40
29.37273874905521
100
AcDbArc
 50
342.1259947249
 51
342.4390154421
  0
ARC
  5
209
330
1CA
100
AcDbEntity
  8
DV2_Default
  6
Continuous
 62
     7
100
AcDbCircle
 10
66.582465209
 20
404.9374315086
 30
0.0
 40
39.90480055466355
100
AcDbArc
 50
342.4639522878
 51
342.7453095769
  0
ARC
  5
20A
330
1CA
100
AcDbEntity
  8
DV2_Default
  6
Continuous
 62
     7
100
AcDbCircle
 10
76.253595219
 20
400.2881049179
 30
0.0
 40
29.76389270300091
100
AcDbArc
 50
17.5603145185
 51
17.8698330903
  0
ARC
  5
20B
330
1CA
100
AcDbEntity
  8
DV2_Default
  6
Continuous
 62
     7
100
AcDbCircle
 10
77.1503410776
 20
400.5700040929
 30
0.0
 40
28.82388368404392
100
AcDbArc
 50
17.2030500073
 51
17.563880998
  0
LINE
  5
20C
330
1CA
100
AcDbEntity
  8
DV2_Default
  6
Continuous
 62
     7
100
AcDbLine
 10
105.3153158324
 20
406.7015411904
 30
0.0
 11
104.6847276497
 21
409.0949267324
 31
0.0
  0
ARC
  5
20D
330
1CA
100
AcDbEntity
  8
DV2_Default
  6
Continuous
 62
     7
100
AcDbCircle
 10
77.6310758309
 20
400.6926979504
 30
0.0
 40
28.32885073443832
100
AcDbArc
 50
11.8508109974
 51
12.2460579583
  0
ARC
  5
20E
330
1CA
100
AcDbEntity
  8
DV2_Default
  6
Continuous
 62
     7
100
AcDbCircle
 10
79.2676238007
 20
401.0164277494
 30
0.0
 40
26.66044097608731
100
AcDbArc
 50
10.3315810956
 51
11.6782183764
  0
ARC
  5
20F
330
1CA
100
AcDbEntity
  8
DV2_Default
  6
Continuous
 62
     7
100
AcDbCircle
 10
87.7439683715
 20
392.9064587816
 30
0.0
 40
0.4999092300973424
100
AcDbArc
 50
224.9973794507
 51
245.2986758941
  0
ARC
  5
210
330
1CA
100
AcDbEntity
  8
DV2_Default
  6
Continuous
 62
     7
100
AcDbCircle
 10
86.8487383107
 20
406.4091177902
 30
0.0
 40
0.3692513572240828
100
AcDbArc
 50
164.0839947362
 51
177.6759863397
  0
SPLINE
  5
211
330
1CA
100
AcDbEntity
  8
DV2_Default
  6
Continuous
 62
     7
100
AcDbSpline
210
0.0
220
0.0
230
1.0
 70
     8
 71
     3
 72
     8
 73
     4
 74
     0
 42
0.0000000418481073
 43
0.0000000001
 40
0.0
 40
0.0
 40
0.0
 40
0.0
 40
1.0
 40
1.0
 40
1.0
 40
1.0
 10
87.2682974975464
 20
409.4214736058995
 30
0.0
 10
87.29251297901592
 20
409.496587086463
 30
0.0
 10
87.33481454852588
 20
409.565802837856
 30
0.0
 10
87.39062138883283
 20
409.621606252124
 30
0.0
  0
ARC
  5
212
330
1CA
100
AcDbEntity
  8
DV2_Default
  6
Continuous
 62
     7
100
AcDbCircle
 10
96.7235352109
 20
381.4173169651
 30
0.0
 40
29.7624702575201
100
AcDbArc
 50
107.5585450154
 51
107.8698477405
  0
ARC
  5
213
330
1CA
100
AcDbEntity
  8
DV2_Default
  6
Continuous
 62
     7
100
AcDbCircle
 10
87.7441126988
 20
409.2681238377
 30
0.0
 40
0.4999093302769256
100
AcDbArc
 50
107.8654910134
 51
127.0311364716
  0
ARC
  5
214
330
1CA
100
AcDbEntity
  8
DV2_Default
  6
Continuous
 62
     7
100
AcDbCircle
 10
96.7991735121
 20
381.1778623668
 30
0.0
 40
30.01358704686651
100
AcDbArc
 50
107.1979058021
 51
107.558307444
  0
ARC
  5
215
330
1CA
100
AcDbEntity
  8
DV2_Default
  6
Continuous
 62
     7
100
AcDbCircle
 10
95.0501366714
 20
381.1777844322
 30
0.0
 40
30.01368550116476
100
AcDbArc
 50
72.4407182465
 51
72.8010420173
  0
SPLINE
  5
216
330
1CA
100
AcDbEntity
  8
DV2_Default
  6
Continuous
 62
     7
100
AcDbSpline
210
0.0
220
0.0
230
1.0
 70
     8
 71
     3
 72
     8
 73
     4
 74
     0
 42
0.0000000418482898
 43
0.0000000001
 40
0.0
 40
0.0
 40
0.0
 40
0.0
 40
1.0
 40
1.0
 40
1.0
 40
1.0
 10
104.2591084519458
 20
409.7437732091969
 30
0.0
 10
104.334221561811
 20
409.7195576791303
 30
0.0
 10
104.4034369578089
 20
409.6772562299954
 30
0.0
 10
104.4592401328822
 20
409.6214496283643
 30
0.0
  0
ARC
  5
217
330
1CA
100
AcDbEntity
  8
DV2_Default
  6
Continuous
 62
     7
100
AcDbCircle
 10
95.2409823132
 20
381.779680278
 30
0.0
 40
29.3822581249289
100
AcDbArc
 50
72.1260339511
 51
72.4414316364
  0
ARC
  5
218
330
1CA
100
AcDbEntity
  8
DV2_Default
  6
Continuous
 62
     7
100
AcDbCircle
 10
104.1057577169
 20
409.26795832
 30
0.0
 40
0.4999093302781074
100
AcDbArc
 50
17.8652926024
 51
37.2972678598
  0
SPLINE
  5
219
330
1CA
100
AcDbEntity
  8
DV2_Default
  6
Continuous
 62
     7
100
AcDbSpline
210
0.0
220
0.0
230
1.0
 70
     8
 71
     3
 72
    13
 73
     9
 74
     0
 42
0.0000001440586339
 43
0.0000000001
 40
0.0
 40
0.0
 40
0.0
 40
0.0
 40
0.0565556833968288
 40
0.3291433000375318
 40
0.5604116037141164
 40
0.749716925874916
 40
0.896435248477993
 40
0.9999999999999999
 40
0.9999999999999999
 40
0.9999999999999999
 40
0.9999999999999999
 10
104.1615824976812
 20
409.767296727065
 30
0.0
 10
104.1603785067033
 20
409.7680044687335
 30
0.0
 10
104.1533757161265
 20
409.772052196389
 30
0.0
 10
104.1414944393765
 20
409.77825326586
 30
0.0
 10
104.1268624634819
 20
409.78479824813
 30
0.0
 10
104.1149114283996
 20
409.7894777106694
 30
0.0
 10
104.1056525410921
 20
409.7927453689935
 30
0.0
 10
104.1003714075563
 20
409.7944524245061
 30
0.0
 10
104.0981861248179
 20
409.7951587878124
 30
0.0
  0
ARC
  5
21A
330
1CA
100
AcDbEntity
  8
DV2_Default
  6
Continuous
 62
     7
100
AcDbCircle
 10
95.9247012157
 20
384.6059636365
 30
0.0
 40
26.48080082168462
100
AcDbArc
 50
72.415422173
 51
107.5835260602
  0
SPLINE
  5
21B
330
1CA
100
AcDbEntity
  8
DV2_Default
  6
Continuous
 62
     7
100
AcDbSpline
210
0.0
220
0.0
230
1.0
 70
     8
 71
     3
 72
    13
 73
     9
 74
     0
 42
0.0000001438132718
 43
0.0000000001
 40
0.0
 40
0.0
 40
0.0
 40
0.0
 40
0.0580943289405687
 40
0.3302443448873214
 40
0.5611390038210431
 40
0.7501356363425784
 40
0.8966111921227178
 40
1.0
 40
1.0
 40
1.0
 40
1.0
 10
87.24483416636268
 20
409.3240505236652
 30
0.0
 10
87.24410529638327
 20
409.3228117585845
 30
0.0
 10
87.24003559873424
 20
409.3157741959046
 30
0.0
 10
87.23381667741427
 20
409.3038584925183
 30
0.0
 10
87.22727194534502
 20
409.2892268192623
 30
0.0
 10
87.2225927250995
 20
409.2772762100173
 30
0.0
 10
87.21932530161084
 20
409.2680178746527
 30
0.0
 10
87.21761838303092
 20
409.2627371511075
 30
0.0
 10
87.21691209472738
 20
409.2605520947712
 30
0.0
  0
ARC
  5
21C
330
1CA
100
AcDbEntity
  8
DV2_Default
  6
Continuous
 62
     7
100
AcDbCircle
 10
83.6076570314
 20
400.2645671647
 30
0.0
 40
22.21846532963398
100
AcDbArc
 50
347.3149899116
 51
348.3227392817
  0
ARC
  5
21D
330
1CA
100
AcDbEntity
  8
DV2_Default
  6
Continuous
 62
     7
100
AcDbCircle
 10
87.8251021046
 20
409.2178506932
 30
0.0
 40
0.5884839586224992
100
AcDbArc
 50
136.960904943
 51
150.4472071434
  0
ARC
  5
21E
330
1CA
100
AcDbEntity
  8
DV2_Default
  6
Continuous
 62
     7
100
AcDbCircle
 10
98.1398314001
 20
405.5710546756
 30
0.0
 40
11.52418870380712
100
AcDbArc
 50
160.2270995934
 51
160.9551651572
  0
ARC
  5
21F
330
1CA
100
AcDbEntity
  8
DV2_Default
  6
Continuous
 62
     7
100
AcDbCircle
 10
87.4209283253
 20
409.4280847064
 30
0.0
 40
0.1398942731873345
100
AcDbArc
 50
119.8236706965
 51
159.8203237482
  0
ARC
  5
220
330
1CA
100
AcDbEntity
  8
DV2_Default
  6
Continuous
 62
     7
100
AcDbCircle
 10
92.0744703281
 20
397.0230116351
 30
0.0
 40
13.4788584649562
100
AcDbArc
 50
109.0202428556
 51
109.6416576459
  0
ARC
  5
221
330
1CA
100
AcDbEntity
  8
DV2_Default
  6
Continuous
 62
     7
100
AcDbCircle
 10
87.5842105907
 20
409.5916469387
 30
0.0
 40
0.1395978721899845
100
AcDbArc
 50
110.2032273782
 51
150.3476121113
  0
ARC
  5
222
330
1CA
100
AcDbEntity
  8
DV2_Default
  6
Continuous
 62
     7
100
AcDbCircle
 10
87.7962118835
 20
409.1845149836
 30
0.0
 40
0.5916461256469744
100
AcDbArc
 50
119.5893004501
 51
132.9980841374
  0
SPLINE
  5
223
330
1CA
100
AcDbEntity
  8
DV2_Default
  6
Continuous
 62
     7
100
AcDbSpline
210
0.0
220
0.0
230
1.0
 70
     8
 71
     3
 72
     8
 73
     4
 74
     0
 42
0.0000001535042721
 43
0.0000000001
 40
0.0
 40
0.0
 40
0.0
 40
0.0
 40
1.0
 40
1.0
 40
1.0
 40
1.0
 10
87.55904281692658
 20
409.7094019480034
 30
0.0
 10
87.56207547616388
 20
409.7273417835171
 30
0.0
 10
87.57676012807006
 20
409.7401763792869
 30
0.0
 10
87.60309677264509
 20
409.7479057353126
 30
0.0
  0
ARC
  5
224
330
1CA
100
AcDbEntity
  8
DV2_Default
  6
Continuous
 62
     7
100
AcDbCircle
 10
99.7455338539
 20
396.9355485753
 30
0.0
 40
13.57110910923227
100
AcDbArc
 50
70.3633137402
 51
70.9802867513
  0
ARC
  5
225
330
1CA
100
AcDbEntity
  8
DV2_Default
  6
Continuous
 62
     7
100
AcDbCircle
 10
104.2657936193
 20
409.5916337409
 30
0.0
 40
0.1394085361825755
100
AcDbArc
 50
29.6179411045
 51
69.7851859877
  0
ARC
  5
226
330
1CA
100
AcDbEntity
  8
DV2_Default
  6
Continuous
 62
     7
100
AcDbCircle
 10
93.6330427363
 20
405.5441011436
 30
0.0
 40
11.60569722626133
100
AcDbArc
 50
19.0457624503
 51
19.7687359856
  0
ARC
  5
227
330
1CA
100
AcDbEntity
  8
DV2_Default
  6
Continuous
 62
     7
100
AcDbCircle
 10
104.4289031631
 20
409.4278999351
 30
0.0
 40
0.1399295555402356
100
AcDbArc
 50
20.1831433129
 51
60.17036041
  0
ARC
  5
228
330
1CA
100
AcDbEntity
  8
DV2_Default
  6
Continuous
 62
     7
100
AcDbCircle
 10
104.0248282296
 20
409.2177718771
 30
0.0
 40
0.588380575547588
100
AcDbArc
 50
29.5493192906
 51
43.0381490283
  0
SPLINE
  5
229
330
1CA
100
AcDbEntity
  8
DV2_Default
  6
Continuous
 62
     7
100
AcDbSpline
210
0.0
220
0.0
230
1.0
 70
     8
 71
     3
 72
     8
 73
     4
 74
     0
 42
0.0000001534250588
 43
0.0000000001
 40
0.0
 40
0.0
 40
0.0
 40
0.0
 40
1.0
 40
1.0
 40
1.0
 40
1.0
 10
104.5471230516733
 20
409.4535676178692
 30
0.0
 10
104.5648121746585
 20
409.4506880409881
 30
0.0
 10
104.5775802488832
 20
409.4359399389082
 30
0.0
 10
104.5854272743474
 20
409.4093233116296
 30
0.0
  0
ARC
  5
22A
330
1CA
100
AcDbEntity
  8
DV2_Default
  6
Continuous
 62
     7
100
AcDbCircle
 10
105.130945603
 20
410.2953023293
 30
0.0
 40
0.199999999999642
100
AcDbArc
 50
60.0358044944
 51
70.8589560501
  0
ARC
  5
22B
330
1CA
100
AcDbEntity
  8
DV2_Default
  6
Continuous
 62
     7
100
AcDbCircle
 10
105.130945603
 20
410.2953023293
 30
0.0
 40
0.1999999999995612
100
AcDbArc
 50
19.1410412218
 51
44.999998636
  0
LINE
  5
22C
330
1CA
100
AcDbEntity
  8
DV2_Default
  6
Continuous
 62
     7
100
AcDbLine
 10
105.3420165947
 20
410.2969025434
 30
0.0
 11
105.3198884573
 21
410.3608813159
 31
0.0
  0
LINE
  5
22D
330
1CA
100
AcDbEntity
  8
DV2_Default
  6
Continuous
 62
     7
100
AcDbLine
 10
105.3420165947
 20
410.2969025434
 30
0.0
 11
105.364102246
 21
410.232591784
 31
0.0
  0
ARC
  5
22E
330
1CA
100
AcDbEntity
  8
DV2_Default
  6
Continuous
 62
     7
100
AcDbCircle
 10
79.1970973351
 20
401.0875396093
 30
0.0
 40
27.71902100151761
100
AcDbArc
 50
340.7360946309
 51
348.7725829419
  0
ARC
  5
22F
330
1CA
100
AcDbEntity
  8
DV2_Default
  6
Continuous
 62
     7
100
AcDbCircle
 10
79.1970973351
 20
401.0875396093
 30
0.0
 40
27.71902100151761
100
AcDbArc
 50
9.6298201677
 51
19.2639040507
  0
LINE
  5
230
330
1CA
100
AcDbEntity
  8
DV2_Default
  6
Continuous
 62
     7
100
AcDbLine
 10
105.3641020356
 20
391.9424868326
 30
0.0
 11
105.3420159472
 21
391.8781748089
 31
0.0
  0
LINE
  5
231
330
1CA
100
AcDbEntity
  8
DV2_Default
  6
Continuous
 62
     7
100
AcDbLine
 10
105.3198880157
 20
391.8141966353
 30
0.0
 11
105.3420159472
 21
391.8781748089
 31
0.0
  0
LINE
  5
232
330
1CA
100
AcDbEntity
  8
DV2_Default
  6
Continuous
 62
     7
100
AcDbLine
 10
105.0682343545
 20
410.528459257
 30
0.0
 11
105.1325463775
 21
410.506373168
 31
0.0
  0
LINE
  5
233
330
1CA
100
AcDbEntity
  8
DV2_Default
  6
Continuous
 62
     7
100
AcDbLine
 10
105.196524547
 20
410.484245232
 30
0.0
 11
105.1325463775
 21
410.506373168
 31
0.0
  0
LINE
  5
234
330
1CA
100
AcDbEntity
  8
DV2_Default
  6
Continuous
 62
     7
100
AcDbLine
 10
86.7138186431
 20
410.5063738155
 30
0.0
 11
86.6498398664
 21
410.4842456736
 31
0.0
  0
LINE
  5
235
330
1CA
100
AcDbEntity
  8
DV2_Default
  6
Continuous
 62
     7
100
AcDbLine
 10
86.7138186431
 20
410.5063738155
 30
0.0
 11
86.7781294031
 21
410.5284594675
 31
0.0
  0
ARC
  5
236
330
1CA
100
AcDbEntity
  8
DV2_Default
  6
Continuous
 62
     7
100
AcDbCircle
 10
95.9231815778
 20
384.3614545566
 30
0.0
 40
27.71902100152684
100
AcDbArc
 50
70.7360946309
 51
109.2639040507
  0
ARC
  5
237
330
1CA
100
AcDbEntity
  8
DV2_Default
  6
Continuous
 62
     7
100
AcDbCircle
 10
86.7154188058
 20
410.2953027677
 30
0.0
 40
0.1999999999964705
100
AcDbArc
 50
149.8258070916
 51
160.858956051
  0
ARC
  5
238
330
1CA
100
AcDbEntity
  8
DV2_Default
  6
Continuous
 62
     7
100
AcDbCircle
 10
86.7154188058
 20
410.2953027677
 30
0.0
 40
0.1999999999967105
100
AcDbArc
 50
109.1410412213
 51
134.999998636
  0
ARC
  5
239
330
1CA
100
AcDbEntity
  8
DV2_Default
  6
Continuous
 62
     7
100
AcDbCircle
 10
105.1309451624
 20
391.8797755815
 30
0.0
 40
0.199999999998153
100
AcDbArc
 50
314.9999986364
 51
329.8124469742
  0
ARC
  5
23A
330
1CA
100
AcDbEntity
  8
DV2_Default
  6
Continuous
 62
     7
100
AcDbCircle
 10
105.1309451645
 20
391.8797755321
 30
0.0
 40
0.1999999999981628
100
AcDbArc
 50
289.1410412219
 51
314.999998636
  0
ARC
  5
23B
330
1CA
100
AcDbEntity
  8
DV2_Default
  6
Continuous
 62
     7
100
AcDbCircle
 10
105.1309451645
 20
391.8797755321
 30
0.0
 40
0.1999999999977756
100
AcDbArc
 50
314.999998636
 51
329.1382744837
  0
ARC
  5
23C
330
1CA
100
AcDbEntity
  8
DV2_Default
  6
Continuous
 62
     7
100
AcDbCircle
 10
105.1309451624
 20
391.8797755815
 30
0.0
 40
0.1999999999965094
100
AcDbArc
 50
299.9404390561
 51
314.9999986364
  0
LINE
  5
23D
330
1CA
100
AcDbEntity
  8
DV2_Default
  6
Continuous
 62
     7
100
AcDbLine
 10
105.1325453226
 20
391.6687045917
 30
0.0
 11
105.1965240996
 21
391.6908327251
 31
0.0
  0
LINE
  5
23E
330
1CA
100
AcDbEntity
  8
DV2_Default
  6
Continuous
 62
     7
100
AcDbLine
 10
105.1325453226
 20
391.6687045917
 30
0.0
 11
105.0682345625
 21
391.6466189411
 31
0.0
  0
LINE
  5
23F
330
1CA
100
AcDbEntity
  8
DV2_Default
  6
Continuous
 62
     7
100
AcDbLine
 10
86.7781296111
 20
391.6466191515
 30
0.0
 11
86.7138175881
 21
391.6687052393
 31
0.0
  0
LINE
  5
240
330
1CA
100
AcDbEntity
  8
DV2_Default
  6
Continuous
 62
     7
100
AcDbLine
 10
86.649839419
 20
391.6908331666
 30
0.0
 11
86.7138175881
 21
391.6687052393
 31
0.0
  0
ARC
  5
241
330
1CA
100
AcDbEntity
  8
DV2_Default
  6
Continuous
 62
     7
100
AcDbCircle
 10
95.9231823904
 20
417.8136240826
 30
0.0
 40
27.71902128707064
100
AcDbArc
 50
250.8895572417
 51
289.2639075998
  0
ARC
  5
242
330
1CA
100
AcDbEntity
  8
DV2_Default
  6
Continuous
 62
     7
100
AcDbCircle
 10
86.7154183673
 20
391.8797759705
 30
0.0
 40
0.2000000000021957
100
AcDbArc
 50
224.9999986662
 51
238.9091862298
  0
ARC
  5
243
330
1CA
100
AcDbEntity
  8
DV2_Default
  6
Continuous
 62
     7
100
AcDbCircle
 10
86.7154183673
 20
391.8797759705
 30
0.0
 40
0.200000000003089
100
AcDbArc
 50
199.1410412224
 51
224.9999986661
  0
LINE
  5
244
330
1CA
100
AcDbEntity
  8
DV2_Default
  6
Continuous
 62
     7
100
AcDbLine
 10
86.504347371
 20
391.8781758639
 30
0.0
 11
86.5264755088
 21
391.8141970827
 31
0.0
  0
LINE
  5
245
330
1CA
100
AcDbEntity
  8
DV2_Default
  6
Continuous
 62
     7
100
AcDbLine
 10
86.504347371
 20
391.8781758639
 30
0.0
 11
86.4822617196
 21
391.9424866246
 31
0.0
  0
ARC
  5
246
330
1CA
100
AcDbEntity
  8
DV2_Default
  6
Continuous
 62
     7
100
AcDbCircle
 10
112.6492666305
 20
401.0875387993
 30
0.0
 40
27.71902100151639
100
AcDbArc
 50
160.7360946309
 51
170.370574961
  0
ARC
  5
247
330
1CA
100
AcDbEntity
  8
DV2_Default
  6
Continuous
 62
     7
100
AcDbCircle
 10
112.6492666305
 20
401.0875387993
 30
0.0
 40
27.71902100151639
100
AcDbArc
 50
191.2278016179
 51
199.2639040507
  0
LINE
  5
248
330
1CA
100
AcDbEntity
  8
DV2_Default
  6
Continuous
 62
     7
100
AcDbLine
 10
86.48226193
 20
410.232591576
 30
0.0
 11
86.5043480185
 21
410.2969035983
 31
0.0
  0
LINE
  5
249
330
1CA
100
AcDbEntity
  8
DV2_Default
  6
Continuous
 62
     7
100
AcDbLine
 10
86.5264759503
 20
410.3608817633
 30
0.0
 11
86.5043480185
 21
410.2969035983
 31
0.0
  0
ARC
  5
24A
330
1CA
100
AcDbEntity
  8
DV2_Default
  6
Continuous
 62
     7
100
AcDbCircle
 10
86.7154183652
 20
391.8797760199
 30
0.0
 40
0.2000000000016857
100
AcDbArc
 50
224.9999986358
 51
240.0188787024
  0
ARC
  5
24B
330
1CA
100
AcDbEntity
  8
DV2_Default
  6
Continuous
 62
     7
100
AcDbCircle
 10
86.7154183652
 20
391.8797760199
 30
0.0
 40
0.2000000000009289
100
AcDbArc
 50
210.2195016124
 51
224.9999986358
  0
ARC
  5
24C
330
1CA
100
AcDbEntity
  8
DV2_Default
  6
Continuous
 62
     7
100
AcDbCircle
 10
99.6923030271
 20
408.3576543249
 30
0.0
 40
5.970165990201944
100
AcDbArc
 50
19.8503693881
 51
19.9647251135
  0
ARC
  5
24D
330
1CA
100
AcDbEntity
  8
DV2_Default
  6
Continuous
 62
     7
100
AcDbCircle
 10
104.2063303048
 20
409.8059286416
 30
0.0
 40
1.2363403613093
100
AcDbArc
 50
24.5597469705
 51
30.6154674904
  0
ARC
  5
24E
330
1CA
100
AcDbEntity
  8
DV2_Default
  6
Continuous
 62
     7
100
AcDbCircle
 10
104.6414900536
 20
409.3705464974
 30
0.0
 40
1.236502991937211
100
AcDbArc
 50
59.3845848586
 51
65.4396964452
  0
ARC
  5
24F
330
1CA
100
AcDbEntity
  8
DV2_Default
  6
Continuous
 62
     7
100
AcDbCircle
 10
88.8944581343
 20
404.1353013266
 30
0.0
 40
6.730793984400704
100
AcDbArc
 50
109.6933983324
 51
109.7914219062
  0
ARC
  5
250
330
1CA
100
AcDbEntity
  8
DV2_Default
  6
Continuous
 62
     7
100
AcDbCircle
 10
87.2049194779
 20
409.3704448493
 30
0.0
 40
1.236613847386477
100
AcDbArc
 50
114.560422041
 51
120.6148028287
  0
ARC
  5
251
330
1CA
100
AcDbEntity
  8
DV2_Default
  6
Continuous
 62
     7
100
AcDbCircle
 10
99.6096815247
 20
393.8445753723
 30
0.0
 40
6.057121153699121
100
AcDbArc
 50
340.0621803354
 51
340.8269167613
  0
ARC
  5
252
330
1CA
100
AcDbEntity
  8
DV2_Default
  6
Continuous
 62
     7
100
AcDbCircle
 10
87.6399321501
 20
409.8059741248
 30
0.0
 40
1.23622966515548
100
AcDbArc
 50
149.3839198381
 51
155.4403707151
  0
ARC
  5
253
330
1CA
100
AcDbEntity
  8
DV2_Default
  6
Continuous
 62
     7
100
AcDbCircle
 10
102.9268001836
 20
398.1169058578
 30
0.0
 40
6.811890546184288
100
AcDbArc
 50
289.0970944788
 51
289.7694046275
  0
ARC
  5
254
330
1CA
100
AcDbEntity
  8
DV2_Default
  6
Continuous
 62
     7
100
AcDbCircle
 10
88.8580019027
 20
397.9329910818
 30
0.0
 40
6.617957374942506
100
AcDbArc
 50
250.1918249009
 51
250.8856400007
  0
ARC
  5
255
330
1CA
100
AcDbEntity
  8
DV2_Default
  6
Continuous
 62
     7
100
AcDbCircle
 10
92.2458940366
 20
393.8483576824
 30
0.0
 40
6.067063169942465
100
AcDbArc
 50
199.1782819707
 51
199.9421191097
  0
ARC
  5
256
330
1CA
100
AcDbEntity
  8
DV2_Default
  6
Continuous
 62
     7
100
AcDbCircle
 10
62.7530685884
 20
401.2432443605
 30
0.0
 40
52.85838275849103
100
AcDbArc
 50
341.9669034677
 51
342.0870771173
  0
ARC
  5
257
330
1CA
100
AcDbEntity
  8
DV2_Default
  6
Continuous
 62
     7
100
AcDbCircle
 10
62.8980972543
 20
401.2201719255
 30
0.0
 40
52.71329165633808
100
AcDbArc
 50
341.9420182691
 51
353.0059835573
  0
ARC
  5
258
330
1CA
100
AcDbEntity
  8
DV2_Default
  6
Continuous
 62
     7
100
AcDbCircle
 10
111.4449290534
 20
385.3655607493
 30
0.0
 40
1.643307551954021
100
AcDbArc
 50
327.1036847282
 51
342.8190630505
  0
LINE
  5
259
330
1CA
100
AcDbEntity
  8
DV2_Default
  6
Continuous
 62
     7
100
AcDbLine
 10
112.8248601573
 20
384.4729571083
 30
0.0
 11
112.82469392
 21
384.4727359684
 31
0.0
  0
LINE
  5
25A
330
1CA
100
AcDbEntity
  8
DV2_Default
  6
Continuous
 62
     7
100
AcDbLine
 10
112.6919139798
 20
384.3195476748
 30
0.0
 11
112.8246939214
 21
384.4727359703
 31
0.0
  0
LINE
  5
25B
330
1CA
100
AcDbEntity
  8
DV2_Default
  6
Continuous
 62
     7
100
AcDbLine
 10
112.6920778203
 20
384.3197121568
 30
0.0
 11
112.8248597004
 21
384.4729565004
 31
0.0
  0
LINE
  5
25C
330
1CA
100
AcDbEntity
  8
DV2_Default
  6
Continuous
 62
     7
100
AcDbLine
 10
112.5389704469
 20
384.1868689932
 30
0.0
 11
112.6919090582
 21
384.3198792865
 31
0.0
  0
LINE
  5
25D
330
1CA
100
AcDbEntity
  8
DV2_Default
  6
Continuous
 62
     7
100
AcDbLine
 10
112.538969111
 20
384.1868679863
 30
0.0
 11
112.5388721441
 21
384.1867948947
 31
0.0
  0
LINE
  5
25E
330
1CA
100
AcDbEntity
  8
DV2_Default
  6
Continuous
 62
     7
100
AcDbLine
 10
112.5966248144
 20
384.2370098396
 30
0.0
 11
112.6917455868
 21
384.3197157009
 31
0.0
  0
ARC
  5
25F
330
1CA
100
AcDbEntity
  8
DV2_Default
  6
Continuous
 62
     7
100
AcDbCircle
 10
111.6388304393
 20
385.5835933252
 30
0.0
 40
1.661372953653755
100
AcDbArc
 50
287.2620335713
 51
302.7996241445
  0
LINE
  5
260
330
1CA
100
AcDbEntity
  8
DV2_Default
  6
Continuous
 62
     7
100
AcDbLine
 10
112.1318782439
 20
383.996901566
 30
0.0
 11
112.1317865855
 21
383.9968721501
 31
0.0
  0
ARC
  5
261
330
1CA
100
AcDbEntity
  8
DV2_Default
  6
Continuous
 62
     7
100
AcDbCircle
 10
95.7781313066
 20
434.2024030679
 30
0.0
 40
52.80171093744026
100
AcDbArc
 50
270.1592399509
 51
288.0423031101
  0
ARC
  5
262
330
1CA
100
AcDbEntity
  8
DV2_Default
  6
Continuous
 62
     7
100
AcDbCircle
 10
96.0808809854
 20
434.259048763
 30
0.0
 40
52.85838275842896
100
AcDbArc
 50
269.6038522658
 51
269.8309075152
  0
LINE
  5
263
330
1CA
100
AcDbEntity
  8
DV2_Default
  6
Continuous
 62
     7
100
AcDbLine
 10
79.3105937178
 20
384.1872572085
 30
0.0
 11
79.3103725935
 21
384.1874234315
 31
0.0
  0
LINE
  5
264
330
1CA
100
AcDbEntity
  8
DV2_Default
  6
Continuous
 62
     7
100
AcDbLine
 10
79.1571842999
 20
384.3202033717
 30
0.0
 11
79.3103725954
 21
384.1874234301
 31
0.0
  0
LINE
  5
265
330
1CA
100
AcDbEntity
  8
DV2_Default
  6
Continuous
 62
     7
100
AcDbLine
 10
79.1573487664
 20
384.3200395454
 30
0.0
 11
79.31059311
 21
384.1872576654
 31
0.0
  0
LINE
  5
266
330
1CA
100
AcDbEntity
  8
DV2_Default
  6
Continuous
 62
     7
100
AcDbLine
 10
79.0245056027
 20
384.4731469187
 30
0.0
 11
79.157515896
 21
384.3202083074
 31
0.0
  0
LINE
  5
267
330
1CA
100
AcDbEntity
  8
DV2_Default
  6
Continuous
 62
     7
100
AcDbLine
 10
79.0245045958
 20
384.4731482547
 30
0.0
 11
79.0244315196
 21
384.4732452074
 31
0.0
  0
LINE
  5
268
330
1CA
100
AcDbEntity
  8
DV2_Default
  6
Continuous
 62
     7
100
AcDbLine
 10
79.0746464632
 20
384.4154925386
 30
0.0
 11
79.1573523259
 21
384.3203717647
 31
0.0
  0
ARC
  5
269
330
1CA
100
AcDbEntity
  8
DV2_Default
  6
Continuous
 62
     7
100
AcDbCircle
 10
80.4212299424
 20
385.3732869307
 30
0.0
 40
1.661372962564045
100
AcDbArc
 50
197.2620336233
 51
212.7996241234
  0
ARC
  5
26A
330
1CA
100
AcDbEntity
  8
DV2_Default
  6
Continuous
 62
     7
100
AcDbCircle
 10
129.040039684
 20
401.2339860615
 30
0.0
 40
52.8017109446447
100
AcDbArc
 50
187.0054609786
 51
198.0423031101
  0
SPLINE
  5
26B
330
1CA
100
AcDbEntity
  8
DV2_Default
  6
Continuous
 62
     7
100
AcDbSpline
210
0.0
220
0.0
230
1.0
 70
     8
 71
     3
 72
    15
 73
    11
 74
     0
 42
0.0000000321862215
 43
0.0000000001
 40
0.0
 40
0.0
 40
0.0
 40
0.0
 40
0.1346448923548967
 40
0.2663640769136165
 40
0.3986554083753973
 40
0.5350089608541627
 40
0.6592333401512286
 40
0.7812937430450063
 40
0.8930691549147732
 40
1.0
 40
1.0
 40
1.0
 40
1.0
 10
112.3565101408305
 20
417.7973111646577
 30
0.0
 10
112.3639722129401
 20
417.8057156172103
 30
0.0
 10
112.3789111752358
 20
417.8228779878535
 30
0.0
 10
112.3889762318598
 20
417.8534806466748
 30
0.0
 10
112.3890640838839
 20
417.8870173154516
 30
0.0
 10
112.3791045809985
 20
417.9220053307989
 30
0.0
 10
112.3606951807654
 20
417.9571442947699
 30
0.0
 10
112.3345452841029
 20
417.9902443975031
 30
0.0
 10
112.30264379885
 20
418.0213624428225
 30
0.0
 10
112.2760849729507
 20
418.0397605413638
 30
0.0
 10
112.2631485039364
 20
418.0489063345689
 30
0.0
  0
ARC
  5
26C
330
1CA
100
AcDbEntity
  8
DV2_Default
  6
Continuous
 62
     7
100
AcDbCircle
 10
1219.0146428881
 20
-690.8525933808
 30
0.0
 40
1566.066216243845
100
AcDbArc
 50
134.9484725299
 51
135.3290650608
  0
ARC
  5
26D
330
1CA
100
AcDbEntity
  8
DV2_Default
  6
Continuous
 62
     7
100
AcDbCircle
 10
1220.7480387009
 20
1494.7501827835
 30
0.0
 40
1568.510308852976
100
AcDbArc
 50
224.676317223
 51
225.0511812632
  0
ARC
  5
26E
330
1CA
100
AcDbEntity
  8
DV2_Default
  6
Continuous
 62
     7
100
AcDbCircle
 10
-996.0142014753
 20
-722.0017906478
 30
0.0
 40
1566.065162518273
100
AcDbArc
 50
44.9484730263
 51
45.3268082563
  0
SPLINE
  5
26F
330
1CA
100
AcDbEntity
  8
DV2_Default
  6
Continuous
 62
     7
100
AcDbSpline
210
0.0
220
0.0
230
1.0
 70
     8
 71
     3
 72
    25
 73
    21
 74
     0
 42
0.0000000013778599
 43
0.0000000001
 40
0.0
 40
0.0
 40
0.0
 40
0.0
 40
0.0278716323321168
 40
0.0557567179283418
 40
0.1120968549296789
 40
0.1696303989966126
 40
0.2284569526962316
 40
0.2883392274415326
 40
0.3498511972910669
 40
0.4146035023382542
 40
0.4834622639695424
 40
0.5549111499392132
 40
0.6263339494638288
 40
0.6960602465382485
 40
0.7632792511147557
 40
0.8273929730347337
 40
0.8881042199126054
 40
0.945463490100293
 40
0.9728272360758319
 40
1.0
 40
1.0
 40
1.0
 40
1.0
 10
95.92487564077786
 20
384.5185962621863
 30
0.0
 10
96.01737481288188
 20
384.5176531645386
 30
0.0
 10
96.20241780520753
 20
384.5157659353803
 30
0.0
 10
96.57073829528363
 20
384.4952699060125
 30
0.0
 10
97.0239160670661
 20
384.4455273637478
 30
0.0
 10
97.53225277522243
 20
384.344664022466
 30
0.0
 10
97.98709926445737
 20
384.2032947739481
 30
0.0
 10
98.37048545213672
 20
384.0229397127642
 30
0.0
 10
98.66992851140105
 20
383.8048893792978
 30
0.0
 10
98.8725485866785
 20
383.5492835550699
 30
0.0
 10
98.95978619466726
 20
383.2602257234157
 30
0.0
 10
98.91593661085008
 20
382.9511645227887
 30
0.0
 10
98.73741731377211
 20
382.642058360267
 30
0.0
 10
98.4365914633587
 20
382.3530834021305
 30
0.0
 10
98.03406570698881
 20
382.100563581968
 30
0.0
 10
97.55455996507523
 20
381.8971814518208
 30
0.0
 10
97.02643951818331
 20
381.7509155132395
 30
0.0
 10
96.56339293298223
 20
381.6792107104714
 30
0.0
 10
96.196065177778
 20
381.650490262166
 30
0.0
 10
96.01506167543891
 20
381.6479059447837
 30
0.0
 10
95.92487685331733
 20
381.6466349147165
 30
0.0
  0
SPLINE
  5
270
330
1CA
100
AcDbEntity
  8
DV2_Default
  6
Continuous
 62
     7
100
AcDbSpline
210
0.0
220
0.0
230
1.0
 70
     8
 71
     3
 72
    12
 73
     8
 74
     0
 42
0.0000000024621639
 43
0.0000000001
 40
0.0
 40
0.0
 40
0.0
 40
0.0
 40
0.1623540689909142
 40
0.1623540689909142
 40
0.5811770344954571
 40
0.5811770344954571
 40
1.0
 40
1.0
 40
1.0
 40
1.0
 10
98.5056043348917
 20
383.9181992633075
 30
0.0
 10
98.60251768840777
 20
383.7883146229309
 30
0.0
 10
98.66093583291688
 20
383.6443184878406
 30
0.0
 10
98.70267266156254
 20
383.0815381362378
 30
0.0
 10
98.3691237054949
 20
382.6315455083968
 30
0.0
 10
97.28717197479999
 20
382.0237080433627
 30
0.0
 10
96.56911337839408
 20
381.87003772312
 30
0.0
 10
95.92487468314363
 20
381.870433656776
 30
0.0
  0
SPLINE
  5
271
330
1CA
100
AcDbEntity
  8
DV2_Default
  6
Continuous
 62
     7
100
AcDbSpline
210
0.0
220
0.0
230
1.0
 70
     8
 71
     3
 72
    12
 73
     8
 74
     0
 42
0.0000000024618369
 43
0.0000000001
 40
0.0
 40
0.0
 40
0.0
 40
0.0
 40
0.4187926421417966
 40
0.4187926421417966
 40
0.8375852842835932
 40
0.8375852842835932
 40
1.0
 40
1.0
 40
1.0
 40
1.0
 10
95.92487468314363
 20
381.870433656776
 30
0.0
 10
95.27887430848183
 20
381.8700350106812
 30
0.0
 10
94.56171857292553
 20
382.0239447499547
 30
0.0
 10
93.47989526609159
 20
382.6321929960956
 30
0.0
 10
93.14688365069081
 20
383.0823651311933
 30
0.0
 10
93.18893361365168
 20
383.6447274989778
 30
0.0
 10
93.24747822611262
 20
383.7887050846318
 30
0.0
 10
93.34450453955823
 20
383.9185800329755
 30
0.0
  0
SPLINE
  5
272
330
1CA
100
AcDbEntity
  8
DV2_Default
  6
Continuous
 62
     7
100
AcDbSpline
210
0.0
220
0.0
230
1.0
 70
     8
 71
     3
 72
    25
 73
    21
 74
     0
 42
0.0000000013778632
 43
0.0000000001
 40
0.0
 40
0.0
 40
0.0
 40
0.0
 40
0.0272213428885749
 40
0.0546369400923215
 40
0.1120286316905291
 40
0.1727345991204445
 40
0.2368492052460839
 40
0.3041174433717989
 40
0.3739005557142298
 40
0.4452839275297805
 40
0.516647999868803
 40
0.5855126277518895
 40
0.6503030311146489
 40
0.7117480768456818
 40
0.7715290461344633
 40
0.8303438183858537
 40
0.8879225844640248
 40
0.9442967777048742
 40
0.9721610590105858
 40
1.0
 40
1.0
 40
1.0
 40
1.0
 10
95.92487685331733
 20
381.6466349147165
 30
0.0
 10
95.83453073907167
 20
381.6479110938867
 30
0.0
 10
95.6531937915912
 20
381.6505058848528
 30
0.0
 10
95.28544260829031
 20
381.6793094288374
 30
0.0
 10
94.82220508570367
 20
381.7511502553891
 30
0.0
 10
94.29414166496076
 20
381.8975492591084
 30
0.0
 10
93.81469684193841
 20
382.1010648712743
 30
0.0
 10
93.41219474681533
 20
382.3537971904431
 30
0.0
 10
93.11165420573535
 20
382.6429320135709
 30
0.0
 10
92.93355956438981
 20
382.9519569037011
 30
0.0
 10
92.89001543952651
 20
383.2608326324496
 30
0.0
 10
92.97750526987049
 20
383.5498003946599
 30
0.0
 10
93.1802976917774
 20
383.8053372304325
 30
0.0
 10
93.47972769887969
 20
384.023177979704
 30
0.0
 10
93.86279756438361
 20
384.2033205328739
 30
0.0
 10
94.31743143906736
 20
384.3446530405535
 30
0.0
 10
94.82597099552535
 20
384.4455602012968
 30
0.0
 10
95.27935942361191
 20
384.4952939308226
 30
0.0
 10
95.647618151478
 20
384.5157819703307
 30
0.0
 10
95.83248451059993
 20
384.5176586423131
 30
0.0
 10
95.92487564077786
 20
384.5185962621863
 30
0.0
  0
ARC
  5
273
330
1CA
100
AcDbEntity
  8
DV2_Default
  6
Continuous
 62
     7
100
AcDbCircle
 10
1189.6298575083
 20
-723.7775166732
 30
0.0
 40
1568.569446965481
100
AcDbArc
 50
134.6762598171
 51
135.0511907701
  0
ARC
  5
274
330
1CA
100
AcDbEntity
  8
DV2_Default
  6
Continuous
 62
     7
100
AcDbCircle
 10
-1027.1321806963
 20
1492.9938507038
 30
0.0
 40
1566.019595140666
100
AcDbArc
 50
314.9484843276
 51
315.3267504873
  0
ARC
  5
275
330
1CA
100
AcDbEntity
  8
DV2_Default
  6
Continuous
 62
     7
100
AcDbCircle
 10
-1028.9373785871
 20
-692.6152191018
 30
0.0
 40
1568.565895495188
100
AcDbArc
 50
44.6733525907
 51
45.0511903834
  0
ARC
  5
276
330
1CA
100
AcDbEntity
  8
DV2_Default
  6
Continuous
 62
     7
100
AcDbCircle
 10
1187.8322200626
 20
1524.1450102673
 30
0.0
 40
1566.020616893854
100
AcDbArc
 50
224.948483827
 51
225.3290212896
  0
ARC
  5
277
330
1CA
100
AcDbEntity
  8
DV2_Default
  6
Continuous
 62
     7
100
AcDbCircle
 10
-997.735543934
 20
1525.9079001669
 30
0.0
 40
1568.506756752696
100
AcDbArc
 50
314.6718306979
 51
315.0511808766
  0
SPLINE
  5
278
330
1CA
100
AcDbEntity
  8
DV2_Default
  6
Continuous
 62
     7
100
AcDbSpline
210
0.0
220
0.0
230
1.0
 70
     8
 71
     3
 72
    12
 73
     8
 74
     0
 42
0.0000000056599001
 43
0.0000000001
 40
0.0
 40
0.0
 40
0.0
 40
0.0
 40
0.1359739628296677
 40
0.4162914197084502
 40
0.712300424543727
 40
0.8564547670043561
 40
1.0
 40
1.0
 40
1.0
 40
1.0
 10
94.20200338694875
 20
384.272491385312
 30
0.0
 10
94.26567503114336
 20
384.2453367029967
 30
0.0
 10
94.46855093789256
 20
384.1660614098042
 30
0.0
 10
94.85445257027477
 20
384.0534397703843
 30
0.0
 10
95.28790993327719
 20
383.9809541559371
 30
0.0
 10
95.65216691267683
 20
383.950097529065
 30
0.0
 10
95.83410086691809
 20
383.9472404605686
 30
0.0
 10
95.92487642360405
 20
383.9458149506991
 30
0.0
  0
SPLINE
  5
279
330
1CA
100
AcDbEntity
  8
DV2_Default
  6
Continuous
 62
     7
100
AcDbSpline
210
0.0
220
0.0
230
1.0
 70
     8
 71
     3
 72
    12
 73
     8
 74
     0
 42
0.0000000056577743
 43
0.0000000001
 40
0.0
 40
0.0
 40
0.0
 40
0.0
 40
0.1419959523212229
 40
0.284600044759371
 40
0.5772178895311594
 40
0.8548527870634978
 40
1.0
 40
1.0
 40
1.0
 40
1.0
 10
95.92487642360405
 20
383.9458149506991
 30
0.0
 10
96.01471241123629
 20
383.9472115816246
 30
0.0
 10
96.19476913597528
 20
383.9500108247263
 30
0.0
 10
96.55524188488354
 20
383.9802231939281
 30
0.0
 10
96.98475877551276
 20
384.0512562653569
 30
0.0
 10
97.37376644853022
 20
384.1634447100895
 30
0.0
 10
97.58040325130446
 20
384.2437510116227
 30
0.0
 10
97.64838439994323
 20
384.2727589374163
 30
0.0
  0
ARC
  5
27A
330
1CA
100
AcDbEntity
  8
DV2_Default
  6
Continuous
 62
     7
100
AcDbCircle
 10
62.8379608839
 20
400.9456671431
 30
0.0
 40
52.77348267937307
100
AcDbArc
 50
4.2330616877
 51
18.1538499684
  0
ARC
  5
27B
330
1CA
100
AcDbEntity
  8
DV2_Default
  6
Continuous
 62
     7
100
AcDbCircle
 10
62.7596682612
 20
401.2413485498
 30
0.0
 40
52.8517873563407
100
AcDbArc
 50
341.8595852777
 51
353.0014995268
  0
ARC
  5
27C
330
1CA
100
AcDbEntity
  8
DV2_Default
  6
Continuous
 62
     7
100
AcDbCircle
 10
110.9287852416
 20
385.5707559506
 30
0.0
 40
2.198773937523483
100
AcDbArc
 50
332.6461483174
 51
341.737809
  0
ARC
  5
27D
330
1CA
100
AcDbEntity
  8
DV2_Default
  6
Continuous
 62
     7
100
AcDbCircle
 10
111.4400474241
 20
386.0867834219
 30
0.0
 40
2.202459137650468
100
AcDbArc
 50
288.2636926759
 51
297.3337658124
  0
ARC
  5
27E
330
1CA
100
AcDbEntity
  8
DV2_Default
  6
Continuous
 62
     7
100
AcDbCircle
 10
95.7833037475
 20
434.1741564766
 30
0.0
 40
52.77348266917905
100
AcDbArc
 50
270.0463401105
 51
288.15384997
  0
ARC
  5
27F
330
1CA
100
AcDbEntity
  8
DV2_Default
  6
Continuous
 62
     7
100
AcDbCircle
 10
96.0789851541
 20
434.252449107
 30
0.0
 40
52.85178735394643
100
AcDbArc
 50
251.8595852737
 51
269.9401456368
  0
ARC
  5
280
330
1CA
100
AcDbEntity
  8
DV2_Default
  6
Continuous
 62
     7
100
AcDbCircle
 10
80.4083925146
 20
386.0833320226
 30
0.0
 40
2.1987738241472
100
AcDbArc
 50
242.6461478122
 51
251.7378090996
  0
ARC
  5
281
330
1CA
100
AcDbEntity
  8
DV2_Default
  6
Continuous
 62
     7
100
AcDbCircle
 10
79.9081762528
 20
384.9545233705
 30
0.0
 40
0.9716713420802731
100
AcDbArc
 50
219.9599851988
 51
236.6002781484
  0
ARC
  5
282
330
1CA
100
AcDbEntity
  8
DV2_Default
  6
Continuous
 62
     7
100
AcDbCircle
 10
79.7864864914
 20
385.0666128273
 30
0.0
 40
0.964772476206353
100
AcDbArc
 50
213.3864097449
 51
230.1384452117
  0
ARC
  5
283
330
1CA
100
AcDbEntity
  8
DV2_Default
  6
Continuous
 62
     7
100
AcDbCircle
 10
80.9244201675
 20
385.5720700004
 30
0.0
 40
2.202459288683651
100
AcDbArc
 50
198.2636928289
 51
207.3337651352
  0
ARC
  5
284
330
1CA
100
AcDbEntity
  8
DV2_Default
  6
Continuous
 62
     7
100
AcDbCircle
 10
129.0117930487
 20
401.2288136155
 30
0.0
 40
52.77348263672444
100
AcDbArc
 50
187.003636925
 51
198.1538499713
  0
ARC
  5
285
330
1CA
100
AcDbEntity
  8
DV2_Default
  6
Continuous
 62
     7
100
AcDbCircle
 10
129.090085718
 20
400.933132217
 30
0.0
 40
52.85178736082709
100
AcDbArc
 50
161.8595852751
 51
175.7435044415
  0
ARC
  5
286
330
1CA
100
AcDbEntity
  8
DV2_Default
  6
Continuous
 62
     7
100
AcDbCircle
 10
80.9209690363
 20
416.6037246954
 30
0.0
 40
2.198774263022038
100
AcDbArc
 50
152.6461498332
 51
161.737808452
  0
ARC
  5
287
330
1CA
100
AcDbEntity
  8
DV2_Default
  6
Continuous
 62
     7
100
AcDbCircle
 10
79.7921601145
 20
417.1039410187
 30
0.0
 40
0.9716715104838283
100
AcDbArc
 50
129.9599878214
 51
146.6002801109
  0
ARC
  5
288
330
1CA
100
AcDbEntity
  8
DV2_Default
  6
Continuous
 62
     7
100
AcDbCircle
 10
79.9042495326
 20
417.2256307367
 30
0.0
 40
0.9647726479698491
100
AcDbArc
 50
123.3864078258
 51
140.1384425692
  0
ARC
  5
289
330
1CA
100
AcDbEntity
  8
DV2_Default
  6
Continuous
 62
     7
100
AcDbCircle
 10
80.4097067609
 20
416.0876968043
 30
0.0
 40
2.202459716050252
100
AcDbArc
 50
108.2636934628
 51
117.3337631727
  0
ARC
  5
28A
330
1CA
100
AcDbEntity
  8
DV2_Default
  6
Continuous
 62
     7
100
AcDbCircle
 10
96.06645023
 20
368.0003242628
 30
0.0
 40
52.77348269652149
100
AcDbArc
 50
90.0463401928
 51
108.153849962
  0
ARC
  5
28B
330
1CA
100
AcDbEntity
  8
DV2_Default
  6
Continuous
 62
     7
100
AcDbCircle
 10
95.7707688214
 20
367.9220316507
 30
0.0
 40
52.8517873627132
100
AcDbArc
 50
71.859585279
 51
89.9401456601
  0
ARC
  5
28C
330
1CA
100
AcDbEntity
  8
DV2_Default
  6
Continuous
 62
     7
100
AcDbCircle
 10
111.4413612601
 20
416.0911482296
 30
0.0
 40
2.198774374622098
100
AcDbArc
 50
62.6461503346
 51
71.7378083564
  0
ARC
  5
28D
330
1CA
100
AcDbEntity
  8
DV2_Default
  6
Continuous
 62
     7
100
AcDbCircle
 10
111.9415776501
 20
417.2199572891
 30
0.0
 40
0.9716714673912306
100
AcDbArc
 50
39.9599879092
 51
56.6002806315
  0
ARC
  5
28E
330
1CA
100
AcDbEntity
  8
DV2_Default
  6
Continuous
 62
     7
100
AcDbCircle
 10
112.0632673199
 20
417.1078678193
 30
0.0
 40
0.9647726763937954
100
AcDbArc
 50
33.386408517
 51
50.1384428871
  0
ARC
  5
28F
330
1CA
100
AcDbEntity
  8
DV2_Default
  6
Continuous
 62
     7
100
AcDbCircle
 10
110.9253335489
 20
416.6024106631
 30
0.0
 40
2.202459566120968
100
AcDbArc
 50
18.2636933113
 51
27.3337638469
  0
ARC
  5
290
330
1CA
100
AcDbEntity
  8
DV2_Default
  6
Continuous
 62
     7
100
AcDbCircle
 10
61.6402517267
 20
400.9067582344
 30
0.0
 40
56.78331852836819
100
AcDbArc
 50
3.6165051265
 51
19.2772262625
  0
ARC
  5
291
330
1CA
100
AcDbEntity
  8
DV2_Default
  6
Continuous
 62
     7
100
AcDbCircle
 10
61.6515147759
 20
401.2657870019
 30
0.0
 40
56.77204943026845
100
AcDbArc
 50
340.7208699872
 51
353.0489356293
  0
LINE
  5
292
330
1CA
100
AcDbEntity
  8
DV2_Default
  6
Continuous
 62
     7
100
AcDbLine
 10
115.1838041722
 20
382.3593641489
 30
0.0
 11
115.2398602761
 21
382.5213258718
 31
0.0
  0
ARC
  5
293
330
1CA
100
AcDbEntity
  8
DV2_Default
  6
Continuous
 62
     7
100
AcDbCircle
 10
112.0407344218
 20
383.3596106235
 30
0.0
 40
3.29839058715987
100
AcDbArc
 50
339.2832826667
 51
342.3469156401
  0
LINE
  5
294
330
1CA
100
AcDbEntity
  8
DV2_Default
  6
Continuous
 62
     7
100
AcDbLine
 10
115.1262588325
 20
382.1927272376
 30
0.0
 11
115.1262292108
 21
382.192643033
 31
0.0
  0
ARC
  5
295
330
1CA
100
AcDbEntity
  8
DV2_Default
  6
Continuous
 62
     7
100
AcDbCircle
 10
120.5639396549
 20
380.3871146898
 30
0.0
 40
5.729829616624091
100
AcDbArc
 50
159.8665701989
 51
161.6303065449
  0
ARC
  5
296
330
1CA
100
AcDbEntity
  8
DV2_Default
  6
Continuous
 62
     7
100
AcDbCircle
 10
106.7408314047
 20
385.3607999687
 30
0.0
 40
8.961012690879235
100
AcDbArc
 50
340.430886539
 51
341.5213156894
  0
LINE
  5
297
330
1CA
100
AcDbEntity
  8
DV2_Default
  6
Continuous
 62
     7
100
AcDbLine
 10
115.2398572794
 20
419.6531591609
 30
0.0
 11
115.1837993535
 21
419.8151260245
 31
0.0
  0
SPLINE
  5
298
330
1CA
100
AcDbEntity
  8
DV2_Default
  6
Continuous
 62
     7
100
AcDbSpline
210
0.0
220
0.0
230
1.0
 70
     8
 71
     3
 72
     8
 73
     4
 74
     0
 42
0.0000001504416645
 43
0.0000000001
 40
0.0
 40
0.0
 40
0.0
 40
0.0
 40
0.9999999999999999
 40
0.9999999999999999
 40
0.9999999999999999
 40
0.9999999999999999
 10
115.1837993534934
 20
419.8151260244588
 30
0.0
 10
115.17683069956
 20
419.8351699391736
 30
0.0
 10
115.1677701087565
 20
419.8547446493121
 30
0.0
 10
115.1548100441192
 20
419.874563565963
 30
0.0
  0
ARC
  5
299
330
1CA
100
AcDbEntity
  8
DV2_Default
  6
Continuous
 62
     7
100
AcDbCircle
 10
95.7463301905
 20
366.813877968
 30
0.0
 40
56.77204943690624
100
AcDbArc
 50
70.7208699877
 51
89.8198036223
  0
ARC
  5
29A
330
1CA
100
AcDbEntity
  8
DV2_Default
  6
Continuous
 62
     7
100
AcDbCircle
 10
96.1053589574
 20
366.802614936
 30
0.0
 40
56.78331851748988
100
AcDbArc
 50
90.1821089352
 51
109.2772262637
  0
ARC
  5
29B
330
1CA
100
AcDbEntity
  8
DV2_Default
  6
Continuous
 62
     7
100
AcDbCircle
 10
130.1982392249
 20
400.9086933895
 30
0.0
 40
56.77204943567961
100
AcDbArc
 50
160.7208699876
 51
176.3940172005
  0
ARC
  5
29C
330
1CA
100
AcDbEntity
  8
DV2_Default
  6
Continuous
 62
     7
100
AcDbCircle
 10
130.2095022604
 20
401.2677221565
 30
0.0
 40
56.78331851978757
100
AcDbArc
 50
186.9527854986
 51
199.2772262635
  0
SPLINE
  5
29D
330
1CA
100
AcDbEntity
  8
DV2_Default
  6
Continuous
 62
     7
100
AcDbSpline
210
0.0
220
0.0
230
1.0
 70
     8
 71
     3
 72
     8
 73
     4
 74
     0
 42
0.0000001507419452
 43
0.0000000001
 40
0.0
 40
0.0
 40
0.0
 40
0.0
 40
1.0
 40
1.0
 40
1.0
 40
1.0
 10
115.1548870366409
 20
382.3000364198981
 30
0.0
 10
115.1678088867012
 20
382.3198182965
 30
0.0
 10
115.1768485857583
 20
382.3393578080189
 30
0.0
 10
115.1838041721739
 20
382.3593641488689
 30
0.0
  0
SPLINE
  5
29E
330
1CA
100
AcDbEntity
  8
DV2_Default
  6
Continuous
 62
     7
100
AcDbSpline
210
0.0
220
0.0
230
1.0
 70
     8
 71
     3
 72
     8
 73
     4
 74
     0
 42
0.0000000442670343
 43
0.0000000001
 40
0.0
 40
0.0
 40
0.0
 40
0.0
 40
1.0
 40
1.0
 40
1.0
 40
1.0
 10
115.125853899605
 20
382.1928123232833
 30
0.0
 10
115.1015203976611
 20
382.122260283984
 30
0.0
 10
115.0607927525103
 20
382.0575161217464
 30
0.0
 10
115.0077503131556
 20
382.0048008122571
 30
0.0
  0
LINE
  5
29F
330
1CA
100
AcDbEntity
  8
DV2_Default
  6
Continuous
 62
     7
100
AcDbLine
 10
114.81960445
 20
381.8863556727
 30
0.0
 11
114.8198479467
 21
381.8864407801
 31
0.0
  0
LINE
  5
2A0
330
1CA
100
AcDbEntity
  8
DV2_Default
  6
Continuous
 62
     7
100
AcDbLine
 10
114.8198479467
 20
381.8864407801
 30
0.0
 11
114.8190253889
 21
381.8861532878
 31
0.0
  0
LINE
  5
2A1
330
1CA
100
AcDbEntity
  8
DV2_Default
  6
Continuous
 62
     7
100
AcDbLine
 10
114.8196486126
 20
381.8863707888
 30
0.0
 11
114.8190258718
 21
381.8861523524
 31
0.0
  0
ARC
  5
2A2
330
1CA
100
AcDbEntity
  8
DV2_Default
  6
Continuous
 62
     7
100
AcDbCircle
 10
114.6544684243
 20
382.3582983697
 30
0.0
 40
0.4999999999599973
100
AcDbArc
 50
289.287169075
 51
340.6678852261
  0
ARC
  5
2A3
330
1CA
100
AcDbEntity
  8
DV2_Default
  6
Continuous
 62
     7
100
AcDbCircle
 10
94.0437360805
 20
441.1077191824
 30
0.0
 40
62.75991273970045
100
AcDbArc
 50
289.1710285656
 51
289.3317589301
  0
ARC
  5
2A4
330
1CA
100
AcDbEntity
  8
DV2_Default
  6
Continuous
 62
     7
100
AcDbCircle
 10
94.0979355722
 20
440.9520557701
 30
0.0
 40
62.59508354818497
100
AcDbArc
 50
289.0144848253
 51
289.1709594024
  0
ARC
  5
2A5
330
1CA
100
AcDbEntity
  8
DV2_Default
  6
Continuous
 62
     7
100
AcDbCircle
 10
97.7500900895
 20
440.9444851624
 30
0.0
 40
62.58776568475394
100
AcDbArc
 50
250.8290089634
 51
250.9847528868
  0
ARC
  5
2A6
330
1CA
100
AcDbEntity
  8
DV2_Default
  6
Continuous
 62
     7
100
AcDbCircle
 10
97.8066826355
 20
441.1070673234
 30
0.0
 40
62.75991577991481
100
AcDbArc
 50
250.6678695332
 51
250.8289505602
  0
ARC
  5
2A7
330
1CA
100
AcDbEntity
  8
DV2_Default
  6
Continuous
 62
     7
100
AcDbCircle
 10
77.195935388
 20
382.3576485666
 30
0.0
 40
0.4999999999600405
100
AcDbArc
 50
199.287169075
 51
250.6678852272
  0
ARC
  5
2A8
330
1CA
100
AcDbEntity
  8
DV2_Default
  6
Continuous
 62
     7
100
AcDbCircle
 10
135.9453561985
 20
402.9683809096
 30
0.0
 40
62.75991273739226
100
AcDbArc
 50
199.1710285656
 51
199.3317589301
  0
ARC
  5
2A9
330
1CA
100
AcDbEntity
  8
DV2_Default
  6
Continuous
 62
     7
100
AcDbCircle
 10
135.7896920925
 20
402.9141811776
 30
0.0
 40
62.59508281172243
100
AcDbArc
 50
199.0144848242
 51
199.1709594032
  0
SPLINE
  5
2AA
330
1CA
100
AcDbEntity
  8
DV2_Default
  6
Continuous
 62
     7
100
AcDbSpline
210
0.0
220
0.0
230
1.0
 70
    12
 71
     3
 72
    12
 73
     8
 74
     0
 42
0.0000000010437245
 43
0.0000000001
 40
0.0
 40
0.0
 40
0.0
 40
0.0
 40
0.0382518429552381
 40
0.3155939718687779
 40
0.5671944476769166
 40
0.7969194287438407
 40
1.0
 40
1.0
 40
1.0
 40
1.0
 10
117.6271958011665
 20
391.786666618577
 30
0.0
 41
1.171601688536943
 10
117.6065625055517
 20
391.6662555587466
 30
0.0
 41
1.171601688536943
 10
117.4331021527866
 20
390.6733725940381
 30
0.0
 41
1.171601688536943
 10
117.0736764224613
 20
388.8975366814288
 30
0.0
 41
1.171601688536943
 10
116.489519858232
 20
386.5458676268848
 30
0.0
 41
1.171601688536943
 10
115.880663619173
 20
384.4467398539147
 30
0.0
 41
1.171601688536943
 10
115.4507583967179
 20
383.1332835796352
 30
0.0
 41
1.171601688536943
 10
115.2398109032845
 20
382.5202228941178
 30
0.0
 41
1.171601688536943
  0
ARC
  5
2AB
330
1CA
100
AcDbEntity
  8
DV2_Default
  6
Continuous
 62
     7
100
AcDbCircle
 10
56.0676320963
 20
402.9124529823
 30
0.0
 40
62.58776540254313
100
AcDbArc
 50
340.8290089599
 51
340.9847528839
  0
ARC
  5
2AC
330
1CA
100
AcDbEntity
  8
DV2_Default
  6
Continuous
 62
     7
100
AcDbCircle
 10
55.9050488548
 20
402.9690459011
 30
0.0
 40
62.75991664074203
100
AcDbArc
 50
340.6678695342
 51
340.828950559
  0
LINE
  5
2AD
330
1CA
100
AcDbEntity
  8
DV2_Default
  6
Continuous
 62
     7
100
AcDbLine
 10
115.1844333843
 20
382.3592979228
 30
0.0
 11
115.1844524527
 21
382.3593527531
 31
0.0
  0
LINE
  5
2AE
330
1CA
100
AcDbEntity
  8
DV2_Default
  6
Continuous
 62
     7
100
AcDbLine
 10
115.2402175099
 20
382.5204566847
 30
0.0
 11
115.2401023333
 21
382.52012246
 31
0.0
  0
SPLINE
  5
2AF
330
1CA
100
AcDbEntity
  8
DV2_Default
  6
Continuous
 62
     7
100
AcDbSpline
210
0.0
220
0.0
230
1.0
 70
     8
 71
     3
 72
     8
 73
     4
 74
     0
 42
0.000000044275901
 43
0.0000000001
 40
0.0
 40
0.0
 40
0.0
 40
0.0
 40
1.0
 40
1.0
 40
1.0
 40
1.0
 10
114.8193404570204
 20
420.2886393132081
 30
0.0
 10
114.8897952978725
 20
420.2639220085081
 30
0.0
 10
114.954576007462
 20
420.2231809807457
 30
0.0
 10
115.007371984619
 20
420.1703850098089
 30
0.0
  0
SPLINE
  5
2B0
330
1CA
100
AcDbEntity
  8
DV2_Default
  6
Continuous
 62
     7
100
AcDbSpline
210
0.0
220
0.0
230
1.0
 70
     8
 71
     3
 72
     8
 73
     4
 74
     0
 42
0.0000000441938788
 43
0.0000000001
 40
0.0
 40
0.0
 40
0.0
 40
0.0
 40
1.0
 40
1.0
 40
1.0
 40
1.0
 10
115.007371984619
 20
420.1703850098089
 30
0.0
 10
115.0602643319681
 20
420.1174926686912
 30
0.0
 10
115.1010568003608
 20
420.0525712971647
 30
0.0
 10
115.1256240963869
 20
419.9819195504376
 30
0.0
  0
SPLINE
  5
2B1
330
1CA
100
AcDbEntity
  8
DV2_Default
  6
Continuous
 62
     7
100
AcDbSpline
210
0.0
220
0.0
230
1.0
 70
     8
 71
     3
 72
     8
 73
     4
 74
     0
 42
0.0000001507333346
 43
0.0000000001
 40
0.0
 40
0.0
 40
0.0
 40
0.0
 40
1.0
 40
1.0
 40
1.0
 40
1.0
 10
114.7120839231884
 20
420.3172481832292
 30
0.0
 10
114.6923009705772
 20
420.3301711282054
 30
0.0
 10
114.6727604462581
 20
420.3392114151403
 30
0.0
 10
114.6527530430868
 20
420.3461673684325
 30
0.0
  0
LINE
  5
2B2
330
1CA
100
AcDbEntity
  8
DV2_Default
  6
Continuous
 62
     7
100
AcDbLine
 10
114.6527530431
 20
420.3461673684
 30
0.0
 11
114.4907913224
 21
420.4022234747
 31
0.0
  0
LINE
  5
2B3
330
1CA
100
AcDbEntity
  8
DV2_Default
  6
Continuous
 62
     7
100
AcDbLine
 10
77.3589580332
 20
420.402220478
 30
0.0
 11
77.1969911675
 21
420.3461625498
 31
0.0
  0
SPLINE
  5
2B4
330
1CA
100
AcDbEntity
  8
DV2_Default
  6
Continuous
 62
     7
100
AcDbSpline
210
0.0
220
0.0
230
1.0
 70
     8
 71
     3
 72
     8
 73
     4
 74
     0
 42
0.0000001504407686
 43
0.0000000001
 40
0.0
 40
0.0
 40
0.0
 40
0.0
 40
1.0
 40
1.0
 40
1.0
 40
1.0
 10
77.19699116749663
 20
420.3461625497519
 30
0.0
 10
77.17694714178258
 20
420.3391938584834
 30
0.0
 10
77.15737232590006
 20
420.3301332067795
 30
0.0
 10
77.13755329665523
 20
420.3171730271143
 30
0.0
  0
SPLINE
  5
2B5
330
1CA
100
AcDbEntity
  8
DV2_Default
  6
Continuous
 62
     7
100
AcDbSpline
210
0.0
220
0.0
230
1.0
 70
     8
 71
     3
 72
     8
 73
     4
 74
     0
 42
0.0000000441938788
 43
0.0000000001
 40
0.0
 40
0.0
 40
0.0
 40
0.0
 40
1.0
 40
1.0
 40
1.0
 40
1.0
 10
76.84173216725965
 20
420.1697351649972
 30
0.0
 10
76.89462450837728
 20
420.2226275123463
 30
0.0
 10
76.95954587990386
 20
420.2634199807389
 30
0.0
 10
77.03019762663097
 20
420.287987276765
 30
0.0
  0
SPLINE
  5
2B6
330
1CA
100
AcDbEntity
  8
DV2_Default
  6
Continuous
 62
     7
100
AcDbSpline
210
0.0
220
0.0
230
1.0
 70
     8
 71
     3
 72
     8
 73
     4
 74
     0
 42
0.000000044275901
 43
0.0000000001
 40
0.0
 40
0.0
 40
0.0
 40
0.0
 40
1.0
 40
1.0
 40
1.0
 40
1.0
 10
76.72347786386044
 20
419.9817036373985
 30
0.0
 10
76.74819516856043
 20
420.0521584782506
 30
0.0
 10
76.78893619632282
 20
420.1169391878402
 30
0.0
 10
76.84173216725965
 20
420.1697351649972
 30
0.0
  0
SPLINE
  5
2B7
330
1CA
100
AcDbEntity
  8
DV2_Default
  6
Continuous
 62
     7
100
AcDbSpline
210
0.0
220
0.0
230
1.0
 70
     8
 71
     3
 72
     8
 73
     4
 74
     0
 42
0.0000001507343601
 43
0.0000000001
 40
0.0
 40
0.0
 40
0.0
 40
0.0
 40
0.9999999999999999
 40
0.9999999999999999
 40
0.9999999999999999
 40
0.9999999999999999
 10
76.69486876507285
 20
419.8744467440986
 30
0.0
 10
76.68194595120218
 20
419.8546639197882
 30
0.0
 10
76.67290573392621
 20
419.8351235160128
 30
0.0
 10
76.6659498235231
 20
419.8151162393454
 30
0.0
  0
LINE
  5
2B8
330
1CA
100
AcDbEntity
  8
DV2_Default
  6
Continuous
 62
     7
100
AcDbLine
 10
76.6659498235
 20
419.8151162393
 30
0.0
 11
76.6098937194
 21
419.653154521
 31
0.0
  0
ARC
  5
2B9
330
1CA
100
AcDbEntity
  8
DV2_Default
  6
Continuous
 62
     7
100
AcDbCircle
 10
95.0491683348
 20
388.8038864008
 30
0.0
 40
19.48025208703227
100
AcDbArc
 50
198.8171643195
 51
199.3203200047
  0
ARC
  5
2BA
330
1CA
100
AcDbEntity
  8
DV2_Default
  6
Continuous
 62
     7
100
AcDbCircle
 10
100.2298196577
 20
390.4953425511
 30
0.0
 40
24.9290432929635
100
AcDbArc
 50
199.0495401289
 51
199.4530508305
  0
LINE
  5
2BB
330
1CA
100
AcDbEntity
  8
DV2_Default
  6
Continuous
 62
     7
100
AcDbLine
 10
76.7240777674
 20
382.1922690731
 30
0.0
 11
76.723790277
 21
382.1930916292
 31
0.0
  0
LINE
  5
2BC
330
1CA
100
AcDbEntity
  8
DV2_Default
  6
Continuous
 62
     7
100
AcDbLine
 10
76.6659546422
 20
382.3593543638
 30
0.0
 11
76.7241299003
 21
382.192560807
 31
0.0
  0
LINE
  5
2BD
330
1CA
100
AcDbEntity
  8
DV2_Default
  6
Continuous
 62
     7
100
AcDbLine
 10
76.6098967162
 20
382.5213212319
 30
0.0
 11
76.6659546422
 21
382.3593543638
 31
0.0
  0
SPLINE
  5
2BE
330
1CA
100
AcDbEntity
  8
DV2_Default
  6
Continuous
 62
     7
100
AcDbSpline
210
0.0
220
0.0
230
1.0
 70
     8
 71
     3
 72
     8
 73
     4
 74
     0
 42
0.0000001504471669
 43
0.0000000001
 40
0.0
 40
0.0
 40
0.0
 40
0.0
 40
1.0
 40
1.0
 40
1.0
 40
1.0
 10
76.6659546422036
 20
382.3593543637551
 30
0.0
 10
76.67292306034054
 20
382.3393111305209
 30
0.0
 10
76.68198327385838
 20
382.3197370700742
 30
0.0
 10
76.69494263633514
 20
382.2999188435709
 30
0.0
  0
SPLINE
  5
2BF
330
1CA
100
AcDbEntity
  8
DV2_Default
  6
Continuous
 62
     7
100
AcDbSpline
210
0.0
220
0.0
230
1.0
 70
     8
 71
     3
 72
     8
 73
     4
 74
     0
 42
0.0000000441938788
 43
0.0000000001
 40
0.0
 40
0.0
 40
0.0
 40
0.0
 40
1.0
 40
1.0
 40
1.0
 40
1.0
 10
76.84238201207135
 20
382.0040953476379
 30
0.0
 10
76.78948966472227
 20
382.0569876887554
 30
0.0
 10
76.74869719632959
 20
382.1219090602821
 30
0.0
 10
76.7241299003035
 20
382.1925608070092
 30
0.0
  0
SPLINE
  5
2C0
330
1CA
100
AcDbEntity
  8
DV2_Default
  6
Continuous
 62
     7
100
AcDbSpline
210
0.0
220
0.0
230
1.0
 70
     8
 71
     3
 72
     8
 73
     4
 74
     0
 42
0.000000044275901
 43
0.0000000001
 40
0.0
 40
0.0
 40
0.0
 40
0.0
 40
1.0
 40
1.0
 40
1.0
 40
1.0
 10
77.03041353966998
 20
381.8858410442386
 30
0.0
 10
76.95995869881791
 20
381.9105583489386
 30
0.0
 10
76.89517798922834
 20
381.951299376701
 30
0.0
 10
76.84238201207135
 20
382.0040953476379
 30
0.0
  0
LINE
  5
2C1
330
1CA
100
AcDbEntity
  8
DV2_Default
  6
Continuous
 62
     7
100
AcDbLine
 10
76.7240078071
 20
382.1924683782
 30
0.0
 11
76.7237893415
 21
382.1930911464
 31
0.0
  0
SPLINE
  5
2C2
330
1CA
100
AcDbEntity
  8
DV2_Default
  6
Continuous
 62
     7
100
AcDbSpline
210
0.0
220
0.0
230
1.0
 70
     8
 71
     3
 72
     8
 73
     4
 74
     0
 42
0.0000001507427318
 43
0.0000000001
 40
0.0
 40
0.0
 40
0.0
 40
0.0
 40
1.0
 40
1.0
 40
1.0
 40
1.0
 10
77.13767351163655
 20
381.8572299687272
 30
0.0
 10
77.1574552897697
 20
381.8443082193182
 30
0.0
 10
77.17699470881776
 20
381.8352685735457
 30
0.0
 10
77.19700095261022
 20
381.8283130197818
 30
0.0
  0
SPLINE
  5
2C3
330
1CA
100
AcDbEntity
  8
DV2_Default
  6
Continuous
 62
     7
100
AcDbSpline
210
0.0
220
0.0
230
1.0
 70
     8
 71
     3
 72
    13
 73
     9
 74
     0
 42
0.0000000566116236
 43
0.0000000001
 40
0.0
 40
0.0
 40
0.0
 40
0.0
 40
0.12716634205119
 40
0.2460272560300771
 40
0.4986721053952475
 40
0.7520298281036719
 40
0.8749584806137164
 40
1.0
 40
1.0
 40
1.0
 40
1.0
 10
77.03041353966998
 20
381.8858410442386
 30
0.0
 10
77.03087004732286
 20
381.8863329631055
 30
0.0
 10
77.03161765112834
 20
381.8860706545231
 30
0.0
 10
77.04298775524057
 20
381.8820825922111
 30
0.0
 10
77.07160393667512
 20
381.8720525319374
 30
0.0
 10
77.1160235697378
 20
381.8565218926344
 30
0.0
 10
77.1599393161109
 20
381.8412061445546
 30
0.0
 10
77.1845770971486
 20
381.8326350717477
 30
0.0
 10
77.19700095261022
 20
381.8283130197818
 30
0.0
  0
LINE
  5
2C4
330
1CA
100
AcDbEntity
  8
DV2_Default
  6
Continuous
 62
     7
100
AcDbLine
 10
77.1970009526
 20
381.8283130198
 30
0.0
 11
77.3589626732
 21
381.772256918
 31
0.0
  0
ARC
  5
2C5
330
1CA
100
AcDbEntity
  8
DV2_Default
  6
Continuous
 62
     7
100
AcDbCircle
 10
75.2247445506
 20
376.4481577529
 30
0.0
 40
5.729850474842218
100
AcDbArc
 50
69.8665705947
 51
71.6303007087
  0
ARC
  5
2C6
330
1CA
100
AcDbEntity
  8
DV2_Default
  6
Continuous
 62
     7
100
AcDbCircle
 10
80.1984346311
 20
390.2712785949
 30
0.0
 40
8.961005306113607
100
AcDbArc
 50
250.4308856387
 51
251.5213157064
  0
ARC
  5
2C7
330
1CA
100
AcDbEntity
  8
DV2_Default
  6
Continuous
 62
     7
100
AcDbCircle
 10
96.1044853465
 20
435.3733926639
 30
0.0
 40
56.78468626569577
100
AcDbArc
 50
250.7234094542
 51
269.818771566
  0
ARC
  5
2C8
330
1CA
100
AcDbEntity
  8
DV2_Default
  6
Continuous
 62
     7
100
AcDbCircle
 10
95.7454652242
 20
435.369844102
 30
0.0
 40
56.78113707992975
100
AcDbArc
 50
270.1810349844
 51
289.2776814061
  0
ARC
  5
2C9
330
1CA
100
AcDbEntity
  8
DV2_Default
  6
Continuous
 62
     7
100
AcDbCircle
 10
108.2082434569
 20
400.211493615
 30
0.0
 40
19.48021224213427
100
AcDbArc
 50
288.8171643101
 51
289.3203210329
  0
ARC
  5
2CA
330
1CA
100
AcDbEntity
  8
DV2_Default
  6
Continuous
 62
     7
100
AcDbCircle
 10
106.5169068424
 20
405.3917997667
 30
0.0
 40
24.92863816365317
100
AcDbArc
 50
289.0495397397
 51
289.4530570382
  0
LINE
  5
2CB
330
1CA
100
AcDbEntity
  8
DV2_Default
  6
Continuous
 62
     7
100
AcDbLine
 10
114.6527628282
 20
381.8283178385
 30
0.0
 11
114.8195563701
 21
381.8864930807
 31
0.0
  0
LINE
  5
2CC
330
1CA
100
AcDbEntity
  8
DV2_Default
  6
Continuous
 62
     7
100
AcDbLine
 10
114.4907959623
 20
381.7722599148
 30
0.0
 11
114.6527628282
 21
381.8283178385
 31
0.0
  0
SPLINE
  5
2CD
330
1CA
100
AcDbEntity
  8
DV2_Default
  6
Continuous
 62
     7
100
AcDbSpline
210
0.0
220
0.0
230
1.0
 70
     8
 71
     3
 72
     8
 73
     4
 74
     0
 42
0.0000001504478518
 43
0.0000000001
 40
0.0
 40
0.0
 40
0.0
 40
0.0
 40
1.0
 40
1.0
 40
1.0
 40
1.0
 10
114.6527628282004
 20
381.8283178384721
 30
0.0
 10
114.6728059765379
 20
381.835286228341
 30
0.0
 10
114.6923799561176
 20
381.8443463954833
 30
0.0
 10
114.7121980964701
 20
381.8573056699676
 30
0.0
  0
LINE
  5
2CE
330
1CA
100
AcDbEntity
  8
DV2_Default
  6
Continuous
 62
     7
100
AcDbLine
 10
77.3580936902
 20
381.7718994929
 30
0.0
 11
77.3577594783
 21
381.7720146575
 31
0.0
  0
LINE
  5
2CF
330
1CA
100
AcDbEntity
  8
DV2_Default
  6
Continuous
 62
     7
100
AcDbLine
 10
77.196934926
 20
381.8276836207
 30
0.0
 11
77.1969897714
 21
381.8276645381
 31
0.0
  0
ARC
  5
2D0
330
1CA
100
AcDbEntity
  8
DV2_Default
  6
Continuous
 62
     7
100
AcDbCircle
 10
162.8478013893
 20
365.7211418225
 30
0.0
 40
50.49231512473713
100
AcDbArc
 50
160.8316510821
 51
161.0519094002
  0
ARC
  5
2D1
330
1CA
100
AcDbEntity
  8
DV2_Default
  6
Continuous
 62
     7
100
AcDbCircle
 10
103.299367781
 20
415.7912667252
 30
0.0
 40
12.53893245698693
100
AcDbArc
 50
19.0049183882
 51
19.9282085692
  0
ARC
  5
2D2
330
1CA
100
AcDbEntity
  8
DV2_Default
  6
Continuous
 62
     7
100
AcDbCircle
 10
110.4307515199
 20
408.0818144562
 30
0.0
 40
12.96285667642982
100
AcDbArc
 50
69.7979537871
 51
70.7144302183
  0
ARC
  5
2D3
330
1CA
100
AcDbEntity
  8
DV2_Default
  6
Continuous
 62
     7
100
AcDbCircle
 10
81.4293854969
 20
408.0322137761
 30
0.0
 40
13.01307237215518
100
AcDbArc
 50
109.2571897688
 51
110.1675981572
  0
ARC
  5
2D4
330
1CA
100
AcDbEntity
  8
DV2_Default
  6
Continuous
 62
     7
100
AcDbCircle
 10
89.8675884174
 20
415.3102185241
 30
0.0
 40
13.94104471305777
100
AcDbArc
 50
160.0540984507
 51
160.8892737825
  0
ARC
  5
2D5
330
1CA
100
AcDbEntity
  8
DV2_Default
  6
Continuous
 62
     7
100
AcDbCircle
 10
28.4142366244
 20
365.4949419423
 30
0.0
 40
51.12175535066275
100
AcDbArc
 50
18.9732532528
 51
19.1913802199
  0
ARC
  5
2D6
330
1CA
100
AcDbEntity
  8
DV2_Default
  6
Continuous
 62
     7
100
AcDbCircle
 10
66.0278344347
 20
349.6545736236
 30
0.0
 40
34.06522636051918
100
AcDbArc
 50
70.9656895891
 51
71.2861035717
  0
ARC
  5
2D7
330
1CA
100
AcDbEntity
  8
DV2_Default
  6
Continuous
 62
     7
100
AcDbCircle
 10
126.0179760548
 20
349.0792262917
 30
0.0
 40
34.67308957895018
100
AcDbArc
 50
108.7154301816
 51
109.0302793455
  0
ENDBLK
  5
2D9
330
1CA
100
AcDbEntity
  8
0
100
AcDbBlockEnd
  0
BLOCK
  5
44D
330
2DA
100
AcDbEntity
  8
0
100
AcDbBlockBegin
  2
SE2
 70
     0
 10
0.0
 20
0.0
 30
0.0
  3
SE2
  1

  0
ARC
  5
2DD
330
2DA
100
AcDbEntity
  8
DV3_Default
  6
Continuous
 62
     7
100
AcDbCircle
 10
107.4248773531
 20
115.8500019824
 30
0.0
 40
0.4999999999999952
100
AcDbArc
 50
0.0011474246
 51
90.0026635312
  0
LINE
  5
2DE
330
2DA
100
AcDbEntity
  8
DV3_Default
  6
Continuous
 62
     7
100
AcDbLine
 10
84.4249025293
 20
116.3498598751
 30
0.0
 11
86.4346017255
 21
116.3498598751
 31
0.0
  0
LINE
  5
2DF
330
2DA
100
AcDbEntity
  8
DV3_Default
  6
Continuous
 62
     7
100
AcDbLine
 10
105.414376993
 20
116.3498598751
 30
0.0
 11
107.4248522562
 21
116.3498598751
 31
0.0
  0
ARC
  5
2E0
330
2DA
100
AcDbEntity
  8
DV3_Default
  6
Continuous
 62
     7
100
AcDbCircle
 10
84.424876024
 20
115.8500019824
 30
0.0
 40
0.4999999999999707
100
AcDbArc
 50
89.9984766741
 51
180.000000007
  0
LINE
  5
2E1
330
2DA
100
AcDbEntity
  8
DV3_Default
  6
Continuous
 62
     7
100
AcDbLine
 10
83.924876024
 20
115.8500019823
 30
0.0
 11
83.924876024
 21
106.8500019824
 31
0.0
  0
ARC
  5
2E2
330
2DA
100
AcDbEntity
  8
DV3_Default
  6
Continuous
 62
     7
100
AcDbCircle
 10
84.424876024
 20
106.8500019824
 30
0.0
 40
0.4999999999998981
100
AcDbArc
 50
180.0
 51
270.0013768236
  0
LINE
  5
2E3
330
2DA
100
AcDbEntity
  8
DV3_Default
  6
Continuous
 62
     7
100
AcDbLine
 10
107.4248632147
 20
106.3500021757
 30
0.0
 11
84.4248885321
 21
106.3500021757
 31
0.0
  0
LINE
  5
2E4
330
2DA
100
AcDbEntity
  8
DV3_Default
  6
Continuous
 62
     7
100
AcDbLine
 10
107.9248773531
 20
106.8500119925
 30
0.0
 11
107.9248773531
 21
115.8500119955
 31
0.0
  0
ARC
  5
2E5
330
2DA
100
AcDbEntity
  8
DV3_Default
  6
Continuous
 62
     7
100
AcDbCircle
 10
107.4248773531
 20
106.8500019824
 30
0.0
 40
0.4999999999998775
100
AcDbArc
 50
269.9984811498
 51
0.0011470659
  0
LINE
  5
2E6
330
2DA
100
AcDbEntity
  8
DV3_Default
  6
Continuous
 62
     7
100
AcDbLine
 10
15.9529199705
 20
106.3500019824
 30
0.0
 11
14.4549576858
 21
106.3500019824
 31
0.0
  0
LINE
  5
2E7
330
2DA
100
AcDbEntity
  8
DV3_Default
  6
Continuous
 62
     7
100
AcDbLine
 10
12.8556764641
 20
106.3500019824
 30
0.0
 11
6.9097545033
 21
106.3500019824
 31
0.0
  0
LINE
  5
2E8
330
2DA
100
AcDbEntity
  8
DV3_Default
  6
Continuous
 62
     7
100
AcDbLine
 10
172.129193701
 20
106.3500019824
 30
0.0
 11
176.6468875081
 21
106.3500019824
 31
0.0
  0
LINE
  5
2E9
330
2DA
100
AcDbEntity
  8
DV3_Default
  6
Continuous
 62
     7
100
AcDbLine
 10
183.8538814572
 20
106.3500019824
 30
0.0
 11
184.9403124552
 21
106.3500019824
 31
0.0
  0
LINE
  5
2EA
330
2DA
100
AcDbEntity
  8
DV3_Default
  6
Continuous
 62
     7
100
AcDbLine
 10
172.1291943813
 20
106.3500019824
 30
0.0
 11
108.5248761731
 21
106.3500019824
 31
0.0
  0
ARC
  5
2EB
330
2DA
100
AcDbEntity
  8
DV3_Default
  6
Continuous
 62
     7
100
AcDbCircle
 10
83.3248758512
 20
106.8500019824
 30
0.0
 40
0.5000000001599975
100
AcDbArc
 50
270.0
 51
0.0
  0
ARC
  5
2EC
330
2DA
100
AcDbEntity
  8
DV3_Default
  6
Continuous
 62
     7
100
AcDbCircle
 10
108.5248758512
 20
106.8500019824
 30
0.0
 40
0.5000000000001041
100
AcDbArc
 50
179.9999999828
 51
270.000036887
  0
ARC
  5
2ED
330
2DA
100
AcDbEntity
  8
DV3_Default
  6
Continuous
 62
     7
100
AcDbCircle
 10
83.3248758512
 20
115.8500019824
 30
0.0
 40
0.5000000000003144
100
AcDbArc
 50
0.0
 51
90.0000642056
  0
LINE
  5
2EE
330
2DA
100
AcDbEntity
  8
DV3_Default
  6
Continuous
 62
     7
100
AcDbLine
 10
108.5248758512
 20
116.3500019824
 30
0.0
 11
172.129194935
 21
116.3500019824
 31
0.0
  0
LINE
  5
2EF
330
2DA
100
AcDbEntity
  8
DV3_Default
  6
Continuous
 62
     7
100
AcDbLine
 10
184.94032407
 20
116.3500019824
 30
0.0
 11
184.416554798
 21
116.3500019824
 31
0.0
  0
LINE
  5
2F0
330
2DA
100
AcDbEntity
  8
DV3_Default
  6
Continuous
 62
     7
100
AcDbLine
 10
178.3406295889
 20
116.3500019824
 30
0.0
 11
175.9136303637
 21
116.3500019824
 31
0.0
  0
LINE
  5
2F1
330
2DA
100
AcDbEntity
  8
DV3_Default
  6
Continuous
 62
     7
100
AcDbLine
 10
6.9101307418
 20
116.3500019824
 30
0.0
 11
13.8727316203
 21
116.3500019824
 31
0.0
  0
LINE
  5
2F2
330
2DA
100
AcDbEntity
  8
DV3_Default
  6
Continuous
 62
     7
100
AcDbLine
 10
15.2893383468
 20
116.3500019824
 30
0.0
 11
21.8258616046
 21
116.3500019824
 31
0.0
  0
LINE
  5
2F3
330
2DA
100
AcDbEntity
  8
DV3_Default
  6
Continuous
 62
     7
100
AcDbLine
 10
22.548438719
 20
116.3500019824
 30
0.0
 11
61.1122838251
 21
116.3500019824
 31
0.0
  0
LINE
  5
2F4
330
2DA
100
AcDbEntity
  8
DV3_Default
  6
Continuous
 62
     7
100
AcDbLine
 10
62.3845646943
 20
116.3500019824
 30
0.0
 11
83.3248752909
 21
116.3500019824
 31
0.0
  0
LINE
  5
2F5
330
2DA
100
AcDbEntity
  8
DV3_Default
  6
Continuous
 62
     7
100
AcDbLine
 10
83.8248758512
 20
106.8500019829
 30
0.0
 11
83.8248758512
 21
115.8500019818
 31
0.0
  0
LINE
  5
2F6
330
2DA
100
AcDbEntity
  8
DV3_Default
  6
Continuous
 62
     7
100
AcDbLine
 10
108.0248758512
 20
115.8500019822
 30
0.0
 11
108.0248758512
 21
106.8500019825
 31
0.0
  0
ARC
  5
2F7
330
2DA
100
AcDbEntity
  8
DV3_Default
  6
Continuous
 62
     7
100
AcDbCircle
 10
108.5248758512
 20
115.8500019824
 30
0.0
 40
0.5000000000000004
100
AcDbArc
 50
90.0
 51
180.0000000172
  0
ARC
  5
2F8
330
2DA
100
AcDbEntity
  8
DV3_Default
  6
Continuous
 62
     7
100
AcDbCircle
 10
6.9093877148
 20
106.8502814289
 30
0.0
 40
0.5000028258030035
100
AcDbArc
 50
180.0320220328
 51
249.0609215772
  0
ARC
  5
2F9
330
2DA
100
AcDbEntity
  8
DV3_Default
  6
Continuous
 62
     7
100
AcDbCircle
 10
13.9132478572
 20
4465.7732452587
 30
0.0
 40
4359.419217147932
100
AcDbArc
 50
269.9069442813
 51
269.921052304
  0
SPLINE
  5
2FA
330
2DA
100
AcDbEntity
  8
DV3_Default
  6
Continuous
 62
     7
100
AcDbSpline
210
0.0
220
0.0
230
1.0
 70
     8
 71
     3
 72
    40
 73
    36
 74
     0
 42
0.0000000007759116
 43
0.0000000001
 40
0.0
 40
0.0
 40
0.0
 40
0.0
 40
0.0225731973109996
 40
0.0548811471547513
 40
0.0848508800948619
 40
0.1124823973761176
 40
0.137775881628055
 40
0.160731369676687
 40
0.1813488613305591
 40
0.199628373038182
 40
0.2195147705248454
 40
0.2387435564179591
 40
0.2581631813605544
 40
0.2777736466579606
 40
0.2975749570237579
 40
0.3575259730377473
 40
0.4178231164915436
 40
0.4781199939667459
 40
0.5241653230308562
 40
0.5702106759394506
 40
0.6157864227288278
 40
0.65893288225338
 40
0.6994340006280464
 40
0.711926846389199
 40
0.7262023737879392
 40
0.7425294636927735
 40
0.7609082556683769
 40
0.7813389255255642
 40
0.803821685230007
 40
0.8283567843142152
 40
0.8577161631267153
 40
0.8895596543259848
 40
0.9238877492850193
 40
0.9607009992671734
 40
1.0
 40
1.0
 40
1.0
 40
1.0
 10
172.2084402443053
 20
106.3579466735871
 30
0.0
 10
172.4114622558773
 20
106.3579466735535
 30
0.0
 10
172.8286637043193
 20
106.3579466734847
 30
0.0
 10
173.5123648800139
 20
106.357946673375
 30
0.0
 10
174.1986409717066
 20
106.3579466732685
 30
0.0
 10
174.8186319764018
 20
106.3579466731772
 30
0.0
 10
175.3705839920324
 20
106.3579466731022
 30
0.0
 10
175.8595942622105
 20
106.357946673043
 30
0.0
 10
176.2887893708509
 20
106.3579466730001
 30
0.0
 10
176.6881871376935
 20
106.3579466729698
 30
0.0
 10
177.0699352951576
 20
106.3579466729617
 30
0.0
 10
177.4506209430686
 20
106.3579466729548
 30
0.0
 10
177.8209504451035
 20
106.3579466729516
 30
0.0
 10
178.1861286234941
 20
106.3579466729321
 30
0.0
 10
178.7877954030287
 20
106.3579466730053
 30
0.0
 10
179.5925028309235
 20
106.3579466719859
 30
0.0
 10
180.5439498614061
 20
106.357946676286
 30
0.0
 10
181.3411147369743
 20
106.3579466615417
 30
0.0
 10
182.0036779880619
 20
106.3579467042339
 30
0.0
 10
182.5496782808158
 20
106.3579465552713
 30
0.0
 10
183.032435908726
 20
106.357947097229
 30
0.0
 10
183.4468194100248
 20
106.3579452205826
 30
0.0
 10
183.7208490328451
 20
106.3579502638878
 30
0.0
 10
183.8972151485232
 20
106.3579427953666
 30
0.0
 10
184.0063026982633
 20
106.3581317497964
 30
0.0
 10
184.1245443176405
 20
106.3584830463631
 30
0.0
 10
184.2500727898319
 20
106.3590212780744
 30
0.0
 10
184.3799176011759
 20
106.3597603394697
 30
0.0
 10
184.5107893871943
 20
106.360724465134
 30
0.0
 10
184.6438853007643
 20
106.3619882982382
 30
0.0
 10
184.773618423685
 20
106.3636178164563
 30
0.0
 10
184.8932850159203
 20
106.3656995557042
 30
0.0
 10
184.9921901267984
 20
106.3682351889634
 30
0.0
 10
185.0671207441652
 20
106.3713736019182
 30
0.0
 10
185.0857427318724
 20
106.3736418877733
 30
0.0
 10
185.0961340450858
 20
106.375043960021
 30
0.0
  0
SPLINE
  5
2FB
330
2DA
100
AcDbEntity
  8
DV3_Default
  6
Continuous
 62
     7
100
AcDbSpline
210
0.0
220
0.0
230
1.0
 70
     8
 71
     3
 72
    17
 73
    13
 74
     0
 42
0.0000000102694529
 43
0.0000000001
 40
0.0
 40
0.0
 40
0.0
 40
0.0
 40
0.0174449174803427
 40
0.0875718493436407
 40
0.1655294838722266
 40
0.2513192484645033
 40
0.3449428109167458
 40
0.4569789903093296
 40
0.5784993369448067
 40
0.7095071608622617
 40
0.8500060956714077
 40
1.0
 40
1.0
 40
1.0
 40
1.0
 10
184.1707075294383
 20
106.3586837386188
 30
0.0
 10
184.1812673312579
 20
106.3587443690904
 30
0.0
 10
184.2338932544452
 20
106.3590637427883
 30
0.0
 10
184.3296737229285
 20
106.3598036472708
 30
0.0
 10
184.4557091062322
 20
106.3611254794643
 30
0.0
 10
184.5827622311259
 20
106.362897225888
 30
0.0
 10
184.7118841956749
 20
106.3652893847887
 30
0.0
 10
184.8375037459735
 20
106.3684742112613
 30
0.0
 10
184.9529063188739
 20
106.3726825046776
 30
0.0
 10
185.0475083767421
 20
106.3779787657921
 30
0.0
 10
185.1179272203453
 20
106.3847299322839
 30
0.0
 10
185.1337985888786
 20
106.3897764895846
 30
0.0
 10
185.1425094731649
 20
106.3929004379949
 30
0.0
  0
ARC
  5
2FC
330
2DA
100
AcDbEntity
  8
DV3_Default
  6
Continuous
 62
     7
100
AcDbCircle
 10
184.940362484
 20
106.8500224168
 30
0.0
 40
0.5000001887113614
100
AcDbArc
 50
291.1792705723
 51
359.9976583842
  0
ARC
  5
2FD
330
2DA
100
AcDbEntity
  8
DV3_Default
  6
Continuous
 62
     7
100
AcDbCircle
 10
26.8127895331
 20
-811.1698482575
 30
0.0
 40
917.6049508905422
100
AcDbArc
 50
89.3730045975
 51
90.4268894507
  0
ARC
  5
2FE
330
2DA
100
AcDbEntity
  8
DV3_Default
  6
Continuous
 62
     7
100
AcDbCircle
 10
26.8127895331
 20
-811.1698482575
 30
0.0
 40
917.6049508905422
100
AcDbArc
 50
89.2562499962
 51
89.3115191445
  0
SPLINE
  5
2FF
330
2DA
100
AcDbEntity
  8
DV3_Default
  6
Continuous
 62
     7
100
AcDbSpline
210
0.0
220
0.0
230
1.0
 70
     8
 71
     3
 72
    11
 73
     7
 74
     0
 42
0.0000000007090859
 43
0.0000000001
 40
0.0
 40
0.0
 40
0.0
 40
0.0
 40
0.1424082688532603
 40
0.3279719183297324
 40
0.6644543924355304
 40
1.0
 40
1.0
 40
1.0
 40
1.0
 10
38.70372348818259
 20
106.3577962948554
 30
0.0
 10
39.36259811966192
 20
106.3577962991715
 30
0.0
 10
40.8838969749627
 20
106.3577963059691
 30
0.0
 10
43.98211368855184
 20
106.3577963072393
 30
0.0
 10
48.01441740114955
 20
106.3577963104873
 30
0.0
 10
51.20566478787017
 20
106.3577963100044
 30
0.0
 10
52.80638705647807
 20
106.3577963099044
 30
0.0
  0
SPLINE
  5
300
330
2DA
100
AcDbEntity
  8
DV3_Default
  6
Continuous
 62
     7
100
AcDbSpline
210
0.0
220
0.0
230
1.0
 70
    24
 71
     3
 72
    14
 73
    10
 74
     0
 42
0.00000000035104
 43
0.0000000001
 40
0.0
 40
0.0
 40
0.0
 40
0.0
 40
0.0998812261461415
 40
0.2725126623723461
 40
0.4451471301870684
 40
0.6062762607507216
 40
0.7674076237537759
 40
0.9285411121047137
 40
1.0
 40
1.0
 40
1.0
 40
1.0
 10
54.83342916623069
 20
106.3577963098398
 30
0.0
 10
55.76283264064431
 20
106.3577963098324
 30
0.0
 10
58.30502850547864
 20
106.3577963098725
 30
0.0
 10
62.48490774977084
 20
106.3577963097867
 30
0.0
 10
67.27512276867058
 20
106.357796309753
 30
0.0
 10
71.98557871560382
 20
106.3577963097094
 30
0.0
 10
76.61001642908829
 20
106.3577963096764
 30
0.0
 10
80.392263602679
 20
106.357796309654
 30
0.0
 10
82.63176049325068
 20
106.3577963096432
 30
0.0
 10
83.32021428164121
 20
106.3577963096401
 30
0.0
  0
ARC
  5
301
330
2DA
100
AcDbEntity
  8
DV3_Default
  6
Continuous
 62
     7
100
AcDbCircle
 10
14.2857185567
 20
-2558.4654033719
 30
0.0
 40
2674.813150070364
100
AcDbArc
 50
90.1154578935
 51
90.1601848936
  0
ARC
  5
302
330
2DA
100
AcDbEntity
  8
DV3_Default
  6
Continuous
 62
     7
100
AcDbCircle
 10
6.9093373364
 20
115.8496874167
 30
0.0
 40
0.500004410041817
100
AcDbArc
 50
110.7372637996
 51
179.963953745
  0
LINE
  5
303
330
2DA
100
AcDbEntity
  8
DV3_Default
  6
Continuous
 62
     7
100
AcDbLine
 10
6.4093891588
 20
115.8500019824
 30
0.0
 11
6.4093891588
 21
106.8500019823
 31
0.0
  0
LINE
  5
304
330
2DA
100
AcDbEntity
  8
DV3_Default
  6
Continuous
 62
     7
100
AcDbLine
 10
185.4403625437
 20
106.8500019824
 30
0.0
 11
185.4403625437
 21
115.8500019824
 31
0.0
  0
ARC
  5
305
330
2DA
100
AcDbEntity
  8
DV3_Default
  6
Continuous
 62
     7
100
AcDbCircle
 10
184.9403624999
 20
115.8499815648
 30
0.0
 40
0.5000001855700521
100
AcDbArc
 50
0.0023396773
 51
68.8187143769
  0
ARC
  5
306
330
2DA
100
AcDbEntity
  8
DV3_Default
  6
Continuous
 62
     7
100
AcDbCircle
 10
179.0049761723
 20
237.6888243961
 30
0.0
 40
121.5367956292641
100
AcDbArc
 50
266.7955940371
 51
272.8946376963
  0
LINE
  5
307
330
2DA
100
AcDbEntity
  8
DV3_Default
  6
Continuous
 62
     7
100
AcDbLine
 10
83.924876024
 20
115.650001992
 30
0.0
 11
83.8248758512
 21
115.650001992
 31
0.0
  0
LINE
  5
308
330
2DA
100
AcDbEntity
  8
DV3_Default
  6
Continuous
 62
     7
100
AcDbLine
 10
83.8248758512
 20
107.050001992
 30
0.0
 11
83.924876024
 21
107.050001992
 31
0.0
  0
LINE
  5
309
330
2DA
100
AcDbEntity
  8
DV3_Default
  6
Continuous
 62
     7
100
AcDbLine
 10
107.9248773531
 20
107.0500019728
 30
0.0
 11
108.0248758512
 21
107.0500019727
 31
0.0
  0
LINE
  5
30A
330
2DA
100
AcDbEntity
  8
DV3_Default
  6
Continuous
 62
     7
100
AcDbLine
 10
108.0248758512
 20
115.6500019727
 30
0.0
 11
107.9248773531
 21
115.6500019728
 31
0.0
  0
ARC
  5
30B
330
2DA
100
AcDbEntity
  8
DV3_Default
  6
Continuous
 62
     7
100
AcDbCircle
 10
86.0569724304
 20
124.7482989354
 30
0.0
 40
11.00454939270852
100
AcDbArc
 50
272.4869694263
 51
275.7794882692
  0
SPLINE
  5
30C
330
2DA
100
AcDbEntity
  8
DV3_Default
  6
Continuous
 62
     7
100
AcDbSpline
210
0.0
220
0.0
230
1.0
 70
    12
 71
     3
 72
    13
 73
     9
 74
     0
 42
0.0000001198375641
 43
0.0000000001
 40
0.0
 40
0.0
 40
0.0
 40
0.0
 40
0.1249999968975
 40
0.249999986229
 40
0.3749999755605
 40
0.499999964892
 40
0.7499999435549
 40
1.0
 40
1.0
 40
1.0
 40
1.0
 10
87.21937668736796
 20
113.858076738995
 30
0.0
 41
1.0
 10
87.21732850414757
 20
113.8535065602567
 30
0.0
 41
1.0
 10
87.21316526950764
 20
113.8448905713258
 30
0.0
 41
1.0
 10
87.20673550215014
 20
113.8335508242529
 30
0.0
 41
1.0
 10
87.20013620260728
 20
113.8238065820892
 30
0.0
 41
1.0
 10
87.19113260878908
 20
113.8129565540042
 30
0.0
 41
1.0
 10
87.17952681140082
 20
113.8034388350152
 30
0.0
 41
1.0
 10
87.16996892119988
 20
113.8001989927317
 30
0.0
 41
1.0
 10
87.16513194265656
 20
113.7996876156361
 30
0.0
 41
1.0
  0
ARC
  5
30D
330
2DA
100
AcDbEntity
  8
DV3_Default
  6
Continuous
 62
     7
100
AcDbCircle
 10
86.4536067352
 20
114.1374599455
 30
0.0
 40
0.8151432976081449
100
AcDbArc
 50
339.9560278572
 51
1.9092683773
  0
LINE
  5
30E
330
2DA
100
AcDbEntity
  8
DV3_Default
  6
Continuous
 62
     7
100
AcDbLine
 10
87.2682998607
 20
121.4824240477
 30
0.0
 11
87.2682974975
 21
114.1646179547
 31
0.0
  0
ARC
  5
30F
330
2DA
100
AcDbEntity
  8
DV3_Default
  6
Continuous
 62
     7
100
AcDbCircle
 10
86.5354173135
 20
121.5103948943
 30
0.0
 40
0.7334161139480386
100
AcDbArc
 50
357.8143373461
 51
21.6885917354
  0
SPLINE
  5
310
330
2DA
100
AcDbEntity
  8
DV3_Default
  6
Continuous
 62
     7
100
AcDbSpline
210
0.0
220
0.0
230
1.0
 70
     8
 71
     3
 72
    13
 73
     9
 74
     0
 42
0.0000001173373812
 43
0.0000000001
 40
0.0
 40
0.0
 40
0.0
 40
0.0
 40
0.2499908470852971
 40
0.4999938980515444
 40
0.624995423534668
 40
0.7499969490177916
 40
0.8749984745009152
 40
1.0
 40
1.0
 40
1.0
 40
1.0
 10
87.15832787096473
 20
121.8369817871424
 30
0.0
 10
87.16357303806903
 20
121.836981671369
 30
0.0
 10
87.1737746649892
 20
121.8346036482367
 30
0.0
 10
87.18626811791496
 20
121.8258057258472
 30
0.0
 10
87.1960132215794
 20
121.8153434550893
 30
0.0
 10
87.20317310033312
 20
121.8058027317344
 30
0.0
 10
87.21015985428036
 20
121.7945858762252
 30
0.0
 10
87.21468601819353
 20
121.7860025149695
 30
0.0
 10
87.21691209472738
 20
121.7814374358725
 30
0.0
  0
LINE
  5
311
330
2DA
100
AcDbEntity
  8
DV3_Default
  6
Continuous
 62
     7
100
AcDbLine
 10
85.9247100443
 20
121.836981638
 30
0.0
 11
87.158327871
 21
121.8369817871
 31
0.0
  0
LINE
  5
312
330
2DA
100
AcDbEntity
  8
DV3_Default
  6
Continuous
 62
     7
100
AcDbLine
 10
85.9247302412
 20
116.8500025406
 30
0.0
 11
85.9247302409
 21
116.6000002377
 31
0.0
  0
ARC
  5
313
330
2DA
100
AcDbEntity
  8
DV3_Default
  6
Continuous
 62
     7
100
AcDbCircle
 10
85.6747490027
 20
116.6000019989
 30
0.0
 40
0.249999998900759
100
AcDbArc
 50
269.9999891689
 51
359.9995890631
  0
LINE
  5
314
330
2DA
100
AcDbEntity
  8
DV3_Default
  6
Continuous
 62
     7
100
AcDbLine
 10
85.8833956915
 20
116.3500020922
 30
0.0
 11
84.8248758464
 21
116.3500020608
 31
0.0
  0
LINE
  5
315
330
2DA
100
AcDbEntity
  8
DV3_Default
  6
Continuous
 62
     7
100
AcDbLine
 10
85.6747489554
 20
116.3500020016
 30
0.0
 11
85.8833956915
 21
116.3500020922
 31
0.0
  0
SPLINE
  5
316
330
2DA
100
AcDbEntity
  8
DV3_Default
  6
Continuous
 62
     7
100
AcDbSpline
210
0.0
220
0.0
230
1.0
 70
    12
 71
     3
 72
     8
 73
     4
 74
     0
 42
0.0000001930054589
 43
0.0000000001
 40
0.0
 40
0.0
 40
0.0
 40
0.0
 40
1.0
 40
1.0
 40
1.0
 40
1.0
 10
85.88339569147409
 20
116.3500020922253
 30
0.0
 41
1.171573197980906
 10
85.90044894984966
 20
116.3500020672915
 30
0.0
 41
1.139130987479333
 10
85.91763060700553
 20
116.3517689181061
 30
0.0
 41
1.111289569968512
 10
85.93473256250999
 20
116.3554158658387
 30
0.0
 41
1.088048945448443
  0
LINE
  5
317
330
2DA
100
AcDbEntity
  8
DV3_Default
  6
Continuous
 62
     7
100
AcDbLine
 10
87.9386776704
 20
121.8369818
 30
0.0
 11
95.9249448445
 21
121.8369818154
 31
0.0
  0
LINE
  5
318
330
2DA
100
AcDbEntity
  8
DV3_Default
  6
Continuous
 62
     7
100
AcDbLine
 10
95.9249448445
 20
121.8369818154
 30
0.0
 11
103.9111915416
 21
121.8369817865
 31
0.0
  0
LINE
  5
319
330
2DA
100
AcDbEntity
  8
DV3_Default
  6
Continuous
 62
     7
100
AcDbLine
 10
104.6915240401
 20
121.8369817704
 30
0.0
 11
105.9249948659
 21
121.836981622
 31
0.0
  0
SPLINE
  5
31A
330
2DA
100
AcDbEntity
  8
DV3_Default
  6
Continuous
 62
     7
100
AcDbSpline
210
0.0
220
0.0
230
1.0
 70
     8
 71
     3
 72
    13
 73
     9
 74
     0
 42
0.0000001173437417
 43
0.0000000001
 40
0.0
 40
0.0
 40
0.0
 40
0.0
 40
0.1250014326478115
 40
0.2500028604236477
 40
0.3750042881994838
 40
0.50000571597532
 40
0.7500085715269923
 40
1.0
 40
1.0
 40
1.0
 40
1.0
 10
104.6329439866971
 20
121.7814394389496
 30
0.0
 10
104.6351699161572
 20
121.7860043410481
 30
0.0
 10
104.6396957724776
 20
121.7945873925297
 30
0.0
 10
104.6466820413489
 20
121.8058038418598
 30
0.0
 10
104.6538414136137
 20
121.8153442185566
 30
0.0
 10
104.6635858166256
 20
121.8258061080086
 30
0.0
 10
104.6760783675739
 20
121.8346037190219
 30
0.0
 10
104.686279244468
 20
121.8369816508128
 30
0.0
 10
104.6915240401436
 20
121.836981770396
 30
0.0
  0
ARC
  5
31B
330
2DA
100
AcDbEntity
  8
DV3_Default
  6
Continuous
 62
     7
100
AcDbCircle
 10
105.3121150089
 20
121.5108156933
 30
0.0
 40
0.7311022425866027
100
AcDbArc
 50
158.2746042322
 51
182.2255948719
  0
LINE
  5
31C
330
2DA
100
AcDbEntity
  8
DV3_Default
  6
Continuous
 62
     7
100
AcDbLine
 10
104.5815616258
 20
114.164618056
 30
0.0
 11
104.5815642599
 21
121.4824239294
 31
0.0
  0
ARC
  5
31D
330
2DA
100
AcDbEntity
  8
DV3_Default
  6
Continuous
 62
     7
100
AcDbCircle
 10
105.3947110121
 20
114.1372074593
 30
0.0
 40
0.8136112494566273
100
AcDbArc
 50
178.0693374753
 51
200.0658303819
  0
SPLINE
  5
31E
330
2DA
100
AcDbEntity
  8
DV3_Default
  6
Continuous
 62
     7
100
AcDbSpline
210
0.0
220
0.0
230
1.0
 70
    12
 71
     3
 72
    13
 73
     9
 74
     0
 42
0.0000001198710157
 43
0.0000000001
 40
0.0
 40
0.0
 40
0.0
 40
0.0
 40
0.2500000141853
 40
0.5000000094593
 40
0.6250000070963
 40
0.7500000047334
 40
0.8750000023704001
 40
1.0
 40
1.0
 40
1.0
 40
1.0
 10
104.6847197080431
 20
113.7996876217905
 30
0.0
 41
1.0
 10
104.6798839016306
 20
113.8001989059138
 30
0.0
 41
1.0
 10
104.6703282904309
 20
113.8034377719925
 30
0.0
 41
1.0
 10
104.6587251262883
 20
113.81295237786
 30
0.0
 41
1.0
 10
104.6497234725444
 20
113.8237988384792
 30
0.0
 41
1.0
 10
104.6431255375187
 20
113.8335398767534
 30
0.0
 41
1.0
 10
104.6366970350444
 20
113.8448759061265
 30
0.0
 41
1.0
 10
104.6325345688957
 20
113.853489086654
 30
0.0
 41
1.0
 10
104.6304867512123
 20
113.8580577783556
 30
0.0
 41
1.0
  0
ARC
  5
31F
330
2DA
100
AcDbEntity
  8
DV3_Default
  6
Continuous
 62
     7
100
AcDbCircle
 10
105.792825849
 20
124.7470975564
 30
0.0
 40
11.00334874006601
100
AcDbArc
 50
264.2201582732
 51
267.5128057365
  0
LINE
  5
320
330
2DA
100
AcDbEntity
  8
DV3_Default
  6
Continuous
 62
     7
100
AcDbLine
 10
105.3717005309
 20
115.8525825103
 30
0.0
 11
105.3717005296
 21
114.1518030562
 31
0.0
  0
LINE
  5
321
330
2DA
100
AcDbEntity
  8
DV3_Default
  6
Continuous
 62
     7
100
AcDbLine
 10
105.9810560852
 20
116.3500048822
 30
0.0
 11
105.9538540646
 21
116.3500052884
 31
0.0
  0
LINE
  5
322
330
2DA
100
AcDbEntity
  8
DV3_Default
  6
Continuous
 62
     7
100
AcDbLine
 10
105.9663557365
 20
116.3500052034
 30
0.0
 11
107.0248758464
 21
116.350002043
 31
0.0
  0
ARC
  5
323
330
2DA
100
AcDbEntity
  8
DV3_Default
  6
Continuous
 62
     7
100
AcDbCircle
 10
107.0248758464
 20
116.2500020505
 30
0.0
 40
0.0999999999942089
100
AcDbArc
 50
89.9999999543
 51
93.0556338719
  0
ARC
  5
324
330
2DA
100
AcDbEntity
  8
DV3_Default
  6
Continuous
 62
     7
100
AcDbCircle
 10
106.1749060919
 20
116.5998463096
 30
0.0
 40
0.2498443419148524
100
AcDbArc
 50
179.964559071
 51
259.3862312953
  0
LINE
  5
325
330
2DA
100
AcDbEntity
  8
DV3_Default
  6
Continuous
 62
     7
100
AcDbLine
 10
105.9254792784
 20
116.8500039972
 30
0.0
 11
105.9252048833
 21
116.6000008971
 31
0.0
  0
LINE
  5
326
330
2DA
100
AcDbEntity
  8
DV3_Default
  6
Continuous
 62
     7
100
AcDbLine
 10
86.4675474344
 20
115.8524817701
 30
0.0
 11
86.4705338393
 21
115.8524817333
 31
0.0
  0
LINE
  5
327
330
2DA
100
AcDbEntity
  8
DV3_Default
  6
Continuous
 62
     7
100
AcDbLine
 10
86.4638382529
 20
116.0780112661
 30
0.0
 11
86.4726493026
 21
115.977347848
 31
0.0
  0
ARC
  5
328
330
2DA
100
AcDbEntity
  8
DV3_Default
  6
Continuous
 62
     7
100
AcDbCircle
 10
86.4984650446
 20
125.9937648655
 30
0.0
 40
12.73984057623325
100
AcDbArc
 50
271.9861747424
 51
274.9790737343
  0
ARC
  5
329
330
2DA
100
AcDbEntity
  8
DV3_Default
  6
Continuous
 62
     7
100
AcDbCircle
 10
87.9598738151
 20
114.1600543924
 30
0.0
 40
0.3691532190897242
100
AcDbArc
 50
179.2916877983
 51
234.3632212699
  0
ARC
  5
32A
330
2DA
100
AcDbEntity
  8
DV3_Default
  6
Continuous
 62
     7
100
AcDbCircle
 10
87.9354105993
 20
114.1284454867
 30
0.0
 40
0.3292137055103884
100
AcDbArc
 50
234.6182142549
 51
268.1812687327
  0
ARC
  5
32B
330
2DA
100
AcDbEntity
  8
DV3_Default
  6
Continuous
 62
     7
100
AcDbCircle
 10
87.7614452585
 20
104.4667043043
 30
0.0
 40
8.839571440240835
100
AcDbArc
 50
88.1662086528
 51
89.9438671608
  0
ARC
  5
32C
330
2DA
100
AcDbEntity
  8
DV3_Default
  6
Continuous
 62
     7
100
AcDbCircle
 10
87.7414323687
 20
111.1959859356
 30
0.0
 40
2.110480352137619
100
AcDbArc
 50
89.2215540768
 51
93.7287902377
  0
ARC
  5
32D
330
2DA
100
AcDbEntity
  8
DV3_Default
  6
Continuous
 62
     7
100
AcDbCircle
 10
95.9249291815
 20
654.1638873981
 30
0.0
 40
540.9195478289253
100
AcDbArc
 50
269.1652326322
 51
270.8347673055
  0
ARC
  5
32E
330
2DA
100
AcDbEntity
  8
DV3_Default
  6
Continuous
 62
     7
100
AcDbCircle
 10
95.9249005479
 20
193.2460532804
 30
0.0
 40
80.51492394612349
100
AcDbArc
 50
263.8115023713
 51
276.1884999409
  0
SPLINE
  5
32F
330
2DA
100
AcDbEntity
  8
DV3_Default
  6
Continuous
 62
     7
100
AcDbSpline
210
0.0
220
0.0
230
1.0
 70
     8
 71
     3
 72
    14
 73
    10
 74
     0
 42
0.0000001768224393
 43
0.0000000001
 40
0.0
 40
0.0
 40
0.0
 40
0.0
 40
0.1250000000000103
 40
0.1250000000000103
 40
0.2500000000000207
 40
0.2500000000000207
 40
0.5000000000000263
 40
0.5000000000000263
 40
1.0
 40
1.0
 40
1.0
 40
1.0
 10
104.9097988399561
 20
113.2615781550061
 30
0.0
 10
104.9021743996348
 20
113.259086676714
 30
0.0
 10
104.9030467446311
 20
113.2589244028903
 30
0.0
 10
104.9029253564759
 20
113.2582198196677
 30
0.0
 10
104.9024976248967
 20
113.2578006632892
 30
0.0
 10
104.9001253935713
 20
113.2563606414525
 30
0.0
 10
104.8971079199229
 20
113.2551607379358
 30
0.0
 10
104.8847133502831
 20
113.2511815584144
 30
0.0
 10
104.8718164819751
 20
113.2480462192192
 30
0.0
 10
104.8580793683118
 20
113.2452489612681
 30
0.0
  0
ARC
  5
330
330
2DA
100
AcDbEntity
  8
DV3_Default
  6
Continuous
 62
     7
100
AcDbCircle
 10
105.3513344112
 20
125.9924674219
 30
0.0
 40
12.7385436838958
100
AcDbArc
 50
265.0206437711
 51
268.0136510355
  0
ARC
  5
331
330
2DA
100
AcDbEntity
  8
DV3_Default
  6
Continuous
 62
     7
100
AcDbCircle
 10
104.1084221219
 20
111.1961416956
 30
0.0
 40
2.110324599862848
100
AcDbArc
 50
86.2710714294
 51
90.7784990622
  0
ARC
  5
332
330
2DA
100
AcDbEntity
  8
DV3_Default
  6
Continuous
 62
     7
100
AcDbCircle
 10
104.0884105992
 20
104.4668345799
 30
0.0
 40
8.839441161508008
100
AcDbArc
 50
90.056141497
 51
91.8338059553
  0
ARC
  5
333
330
2DA
100
AcDbEntity
  8
DV3_Default
  6
Continuous
 62
     7
100
AcDbCircle
 10
103.914455392
 20
114.1284405063
 30
0.0
 40
0.3292087308920892
100
AcDbArc
 50
271.818729053
 51
305.3739677731
  0
ARC
  5
334
330
2DA
100
AcDbEntity
  8
DV3_Default
  6
Continuous
 62
     7
100
AcDbCircle
 10
103.88997065
 20
114.1600560666
 30
0.0
 40
0.3691659933608408
100
AcDbArc
 50
305.6319239533
 51
0.7080892778
  0
ARC
  5
335
330
2DA
100
AcDbEntity
  8
DV3_Default
  6
Continuous
 62
     7
100
AcDbCircle
 10
104.8249230521
 20
113.7378451707
 30
0.0
 40
0.483770782119383
100
AcDbArc
 50
280.1046303394
 51
320.8530405243
  0
LINE
  5
336
330
2DA
100
AcDbEntity
  8
DV3_Default
  6
Continuous
 62
     7
100
AcDbLine
 10
87.2454877509
 20
113.2008152898
 30
0.0
 11
87.2538552775
 21
113.2096996244
 31
0.0
  0
LINE
  5
337
330
2DA
100
AcDbEntity
  8
DV3_Default
  6
Continuous
 62
     7
100
AcDbLine
 10
104.259111259
 20
121.4824250234
 30
0.0
 11
104.2591084519
 21
114.1646182845
 31
0.0
  0
ARC
  5
338
330
2DA
100
AcDbEntity
  8
DV3_Default
  6
Continuous
 62
     7
100
AcDbCircle
 10
103.9065906708
 20
121.485514623
 30
0.0
 40
0.3525324434525636
100
AcDbArc
 50
359.4978525001
 51
57.0789295986
  0
ARC
  5
339
330
2DA
100
AcDbEntity
  8
DV3_Default
  6
Continuous
 62
     7
100
AcDbCircle
 10
103.9112111436
 20
121.4945093982
 30
0.0
 40
0.3424723887987777
100
AcDbArc
 50
56.9099573309
 51
90.0032794147
  0
ARC
  5
33A
330
2DA
100
AcDbEntity
  8
DV3_Default
  6
Continuous
 62
     7
100
AcDbCircle
 10
87.9386562793
 20
121.4945023738
 30
0.0
 40
0.3424794268859652
100
AcDbArc
 50
89.9964213406
 51
123.0890728283
  0
ARC
  5
33B
330
2DA
100
AcDbEntity
  8
DV3_Default
  6
Continuous
 62
     7
100
AcDbCircle
 10
87.9428568547
 20
121.4857363039
 30
0.0
 40
0.3521193892840903
100
AcDbArc
 50
122.883002912
 51
180.5388590014
  0
LINE
  5
33C
330
2DA
100
AcDbEntity
  8
DV3_Default
  6
Continuous
 62
     7
100
AcDbLine
 10
87.5907488042
 20
114.1646178886
 30
0.0
 11
87.590753038
 21
121.4824247178
 31
0.0
  0
ARC
  5
33D
330
2DA
100
AcDbEntity
  8
DV3_Default
  6
Continuous
 62
     7
100
AcDbCircle
 10
95.9249331747
 20
598.6267148727
 30
0.0
 40
484.8933151572515
100
AcDbArc
 50
269.0546675792
 51
270.9453323583
  0
ARC
  5
33E
330
2DA
100
AcDbEntity
  8
DV3_Default
  6
Continuous
 62
     7
100
AcDbCircle
 10
84.8248758464
 20
116.2500020682
 30
0.0
 40
0.0999999999942106
100
AcDbArc
 50
86.9441756909
 51
89.9999999543
  0
LINE
  5
33F
330
2DA
100
AcDbEntity
  8
DV3_Default
  6
Continuous
 62
     7
100
AcDbLine
 10
85.9247489587
 20
121.8369816407
 30
0.0
 11
85.9247489547
 21
116.8500020276
 31
0.0
  0
ARC
  5
340
330
2DA
100
AcDbEntity
  8
DV3_Default
  6
Continuous
 62
     7
100
AcDbCircle
 10
86.4247067097
 20
121.8369460551
 30
0.0
 40
0.5000355832784492
100
AcDbArc
 50
89.9999999543
 51
180.0180131769
  0
ARC
  5
341
330
2DA
100
AcDbEntity
  8
DV3_Default
  6
Continuous
 62
     7
100
AcDbCircle
 10
105.4249982005
 20
121.83694604
 30
0.0
 40
0.5000355832769972
100
AcDbArc
 50
0.0260916428
 51
89.9999999543
  0
LINE
  5
342
330
2DA
100
AcDbEntity
  8
DV3_Default
  6
Continuous
 62
     7
100
AcDbLine
 10
105.9249559475
 20
116.8500038936
 30
0.0
 11
105.9249559515
 21
121.8369816248
 31
0.0
  0
ARC
  5
343
330
2DA
100
AcDbEntity
  8
DV3_Default
  6
Continuous
 62
     7
100
AcDbCircle
 10
117.4918429573
 20
115.8175368546
 30
0.0
 40
12.11255066925339
100
AcDbArc
 50
178.8359731598
 51
179.8732925483
  0
ARC
  5
344
330
2DA
100
AcDbEntity
  8
DV3_Default
  6
Continuous
 62
     7
100
AcDbCircle
 10
110.5544424713
 20
115.630578107
 30
0.0
 40
5.190419827941994
100
AcDbArc
 50
171.0712156816
 51
175.1036824976
  0
ARC
  5
345
330
2DA
100
AcDbEntity
  8
DV3_Default
  6
Continuous
 62
     7
100
AcDbCircle
 10
81.2962938853
 20
115.630666512
 30
0.0
 40
5.189478464650054
100
AcDbArc
 50
4.8961393688
 51
8.929386132
  0
LINE
  5
346
330
2DA
100
AcDbEntity
  8
DV3_Default
  6
Continuous
 62
     7
100
AcDbLine
 10
86.4713803751
 20
115.9772739025
 30
0.0
 11
86.4704783581
 21
115.8443029624
 31
0.0
  0
LINE
  5
347
330
2DA
100
AcDbEntity
  8
DV3_Default
  6
Continuous
 62
     7
100
AcDbLine
 10
86.4675474343
 20
115.8580074218
 30
0.0
 11
86.467547433
 21
114.1463722356
 31
0.0
  0
ARC
  5
348
330
2DA
100
AcDbEntity
  8
DV3_Default
  6
Continuous
 62
     7
100
AcDbCircle
 10
91.0627048559
 20
114.1376110967
 30
0.0
 40
4.594344426188981
100
AcDbArc
 50
179.794903209
 51
184.9512753755
  0
ARC
  5
349
330
2DA
100
AcDbEntity
  8
DV3_Default
  6
Continuous
 62
     7
100
AcDbCircle
 10
87.2348334733
 20
113.8866955837
 30
0.0
 40
0.7631088180918392
100
AcDbArc
 50
191.5817255174
 51
215.6395454448
  0
ARC
  5
34A
330
2DA
100
AcDbEntity
  8
DV3_Default
  6
Continuous
 62
     7
100
AcDbCircle
 10
104.6168133463
 20
113.8859206062
 30
0.0
 40
0.7612153462762213
100
AcDbArc
 50
324.3091983931
 51
348.3966298507
  0
ARC
  5
34B
330
2DA
100
AcDbEntity
  8
DV3_Default
  6
Continuous
 62
     7
100
AcDbCircle
 10
100.8030163551
 20
114.1370353109
 30
0.0
 40
4.57842505089643
100
AcDbArc
 50
355.0302160547
 51
0.21304106
  0
LINE
  5
34C
330
2DA
100
AcDbEntity
  8
DV3_Default
  6
Continuous
 62
     7
100
AcDbLine
 10
105.3822538502
 20
114.1446516026
 30
0.0
 11
105.3822538516
 21
115.8577106849
 31
0.0
  0
ARC
  5
34D
330
2DA
100
AcDbEntity
  8
DV3_Default
  6
Continuous
 62
     7
100
AcDbCircle
 10
87.1091311023
 20
113.9271329051
 30
0.0
 40
0.6935114397683547
100
AcDbArc
 50
224.4121697781
 51
256.8701364056
  0
ARC
  5
34E
330
2DA
100
AcDbEntity
  8
DV3_Default
  6
Continuous
 62
     7
100
AcDbCircle
 10
88.6263919889
 20
121.8726551206
 30
0.0
 40
8.777990302277116
100
AcDbArc
 50
258.6613111597
 51
260.9960703087
  0
ARC
  5
34F
330
2DA
100
AcDbEntity
  8
DV3_Default
  6
Continuous
 62
     7
100
AcDbCircle
 10
103.5609436342
 20
119.925353465
 30
0.0
 40
6.806237945058872
100
AcDbArc
 50
278.7953792767
 51
281.3542015976
  0
ARC
  5
350
330
2DA
100
AcDbEntity
  8
DV3_Default
  6
Continuous
 62
     7
100
AcDbCircle
 10
105.1155156193
 20
113.5797663487
 30
0.0
 40
0.1834546396303474
100
AcDbArc
 50
291.1867952993
 51
310.5387127229
  0
SPLINE
  5
351
330
2DA
100
AcDbEntity
  8
DV3_Default
  6
Continuous
 62
     7
100
AcDbSpline
210
0.0
220
0.0
230
1.0
 70
     8
 71
     3
 72
    11
 73
     7
 74
     0
 42
0.0000001356853755
 43
0.0000000001
 40
0.0
 40
0.0
 40
0.0
 40
0.0
 40
0.1033191110160405
 40
0.2182194113344997
 40
0.474998258332318
 40
1.0
 40
1.0
 40
1.0
 40
1.0
 10
104.9209209986235
 20
113.257280785156
 30
0.0
 10
104.9283683441883
 20
113.2589549335104
 30
0.0
 10
104.9416348514038
 20
113.2619415107783
 30
0.0
 10
104.9619755734686
 20
113.2679037489208
 30
0.0
 10
104.9830066882317
 20
113.2754393941761
 30
0.0
 10
104.9795779705262
 20
113.2777852354236
 30
0.0
 10
104.9750215032449
 20
113.2792193852909
 30
0.0
  0
LINE
  5
352
330
2DA
100
AcDbEntity
  8
DV3_Default
  6
Continuous
 62
     7
100
AcDbLine
 10
100.924874603
 20
159.8369834516
 30
0.0
 11
90.9248763241
 21
159.8369834675
 31
0.0
  0
LINE
  5
353
330
2DA
100
AcDbEntity
  8
DV3_Default
  6
Continuous
 62
     7
100
AcDbLine
 10
100.9248739421
 20
159.8369840486
 30
0.0
 11
90.9248763018
 21
159.8369840646
 31
0.0
  0
LINE
  5
354
330
2DA
100
AcDbEntity
  8
DV3_Default
  6
Continuous
 62
     7
100
AcDbLine
 10
90.4248763133
 20
164.3369839353
 30
0.0
 11
90.9248763122
 21
164.336983963
 31
0.0
  0
LINE
  5
355
330
2DA
100
AcDbEntity
  8
DV3_Default
  6
Continuous
 62
     7
100
AcDbLine
 10
90.9248763122
 20
164.336983963
 30
0.0
 11
100.9248742286
 21
164.336983947
 31
0.0
  0
LINE
  5
356
330
2DA
100
AcDbEntity
  8
DV3_Default
  6
Continuous
 62
     7
100
AcDbLine
 10
100.9248744886
 20
164.336983947
 30
0.0
 11
101.4248744897
 21
164.3369839177
 31
0.0
  0
LINE
  5
357
330
2DA
100
AcDbEntity
  8
DV3_Default
  6
Continuous
 62
     7
100
AcDbLine
 10
101.4248740155
 20
164.3369838859
 30
0.0
 11
101.9248735161
 21
164.3369838631
 31
0.0
  0
LINE
  5
358
330
2DA
100
AcDbEntity
  8
DV3_Default
  6
Continuous
 62
     7
100
AcDbLine
 10
101.9248735161
 20
164.336983862
 30
0.0
 11
110.4248740462
 21
164.3369838432
 31
0.0
  0
LINE
  5
359
330
2DA
100
AcDbEntity
  8
DV3_Default
  6
Continuous
 62
     7
100
AcDbLine
 10
110.4248740462
 20
164.3369838432
 30
0.0
 11
112.424874169
 21
164.3369837497
 31
0.0
  0
LINE
  5
35A
330
2DA
100
AcDbEntity
  8
DV3_Default
  6
Continuous
 62
     7
100
AcDbLine
 10
79.424876319
 20
164.336983798
 30
0.0
 11
81.4248763154
 21
164.3369838937
 31
0.0
  0
LINE
  5
35B
330
2DA
100
AcDbEntity
  8
DV3_Default
  6
Continuous
 62
     7
100
AcDbLine
 10
89.9248763154
 20
164.3369838801
 30
0.0
 11
81.4248763154
 21
164.3369838937
 31
0.0
  0
LINE
  5
35C
330
2DA
100
AcDbEntity
  8
DV3_Default
  6
Continuous
 62
     7
100
AcDbLine
 10
89.9248763154
 20
164.3369838801
 30
0.0
 11
90.4248763144
 21
164.336983904
 31
0.0
  0
LINE
  5
35D
330
2DA
100
AcDbEntity
  8
DV3_Default
  6
Continuous
 62
     7
100
AcDbLine
 10
106.9220886987
 20
124.1369824287
 30
0.0
 11
105.3641014512
 21
124.1369820921
 31
0.0
  0
LINE
  5
35E
330
2DA
100
AcDbEntity
  8
DV3_Default
  6
Continuous
 62
     7
100
AcDbLine
 10
106.7229211936
 20
124.3369824258
 30
0.0
 11
105.1748953056
 21
124.3369820915
 31
0.0
  0
LINE
  5
35F
330
2DA
100
AcDbEntity
  8
DV3_Default
  6
Continuous
 62
     7
100
AcDbLine
 10
105.1089980074
 20
124.3369827723
 30
0.0
 11
105.1748955144
 21
124.3369827649
 31
0.0
  0
LINE
  5
360
330
2DA
100
AcDbEntity
  8
DV3_Default
  6
Continuous
 62
     7
100
AcDbLine
 10
105.0034886293
 20
124.3369827716
 30
0.0
 11
105.1089980074
 21
124.3369827723
 31
0.0
  0
ARC
  5
361
330
2DA
100
AcDbEntity
  8
DV3_Default
  6
Continuous
 62
     7
100
AcDbCircle
 10
105.0696033346
 20
124.0181088882
 30
0.0
 40
0.11888175630055
100
AcDbArc
 50
58.0312401163
 51
90.6589749261
  0
ARC
  5
362
330
2DA
100
AcDbEntity
  8
DV3_Default
  6
Continuous
 62
     7
100
AcDbCircle
 10
105.062950399
 20
124.0049354241
 30
0.0
 40
0.1335863634630276
100
AcDbArc
 50
359.225222916
 51
58.6020566833
  0
ARC
  5
363
330
2DA
100
AcDbEntity
  8
DV3_Default
  6
Continuous
 62
     7
100
AcDbCircle
 10
105.5723423204
 20
124.0149307619
 30
0.0
 40
0.2527295629965534
100
AcDbArc
 50
155.6928781288
 51
182.676510925
  0
SPLINE
  5
364
330
2DA
100
AcDbEntity
  8
DV3_Default
  6
Continuous
 62
     7
100
AcDbSpline
210
0.0
220
0.0
230
1.0
 70
    12
 71
     3
 72
    13
 73
     9
 74
     0
 42
0.0000003325833109
 43
0.0000000001
 40
0.0
 40
0.0
 40
0.0
 40
0.0
 40
0.2500000017638001
 40
0.5000000005928
 40
0.6250000000074
 40
0.7499999994219
 40
0.8749999988363999
 40
1.0
 40
1.0
 40
1.0
 40
1.0
 10
105.3641016616568
 20
124.1369827703245
 30
0.0
 41
1.0
 10
105.3620744656288
 20
124.1369827705574
 30
0.0
 41
1.0
 10
105.3581729860009
 20
124.136278015616
 30
0.0
 41
1.0
 10
105.3535659197971
 20
124.1335647635811
 30
0.0
 41
1.0
 10
105.3499765276995
 20
124.1302250737142
 30
0.0
 41
1.0
 10
105.3473155540917
 20
124.1271234480454
 30
0.0
 41
1.0
 10
105.3446698156378
 20
124.1234048475346
 30
0.0
 41
1.0
 10
105.3429027396453
 20
124.1205163513976
 30
0.0
 41
1.0
 10
105.342016697823
 20
124.1189612362143
 30
0.0
 41
1.0
  0
ARC
  5
365
330
2DA
100
AcDbEntity
  8
DV3_Default
  6
Continuous
 62
     7
100
AcDbCircle
 10
105.5722379375
 20
122.6590148426
 30
0.0
 40
0.2526261345427583
100
AcDbArc
 50
177.318320445
 51
204.3126422207
  0
SPLINE
  5
366
330
2DA
100
AcDbEntity
  8
DV3_Default
  6
Continuous
 62
     7
100
AcDbSpline
210
0.0
220
0.0
230
1.0
 70
    12
 71
     3
 72
    13
 73
     9
 74
     0
 42
0.000000332573435
 43
0.0000000001
 40
0.0
 40
0.0
 40
0.0
 40
0.0
 40
0.1249999998186
 40
0.2499999996368
 40
0.3749999994549
 40
0.4999999992731
 40
0.7499999989094
 40
1.0
 40
1.0
 40
1.0
 40
1.0
 10
105.3420165947185
 20
122.5550047603844
 30
0.0
 41
1.0
 10
105.3429026655608
 20
122.5534496037076
 30
0.0
 41
1.0
 10
105.3446697944561
 20
122.5505610068346
 30
0.0
 41
1.0
 10
105.3473156187192
 20
122.5468423162954
 30
0.0
 41
1.0
 10
105.349976675163
 20
122.5437406046842
 30
0.0
 41
1.0
 10
105.353566178661
 20
122.5404008268011
 30
0.0
 41
1.0
 10
105.3581733863071
 20
122.537687492616
 30
0.0
 41
1.0
 10
105.3620749866367
 20
122.5369827407473
 30
0.0
 41
1.0
 10
105.3641022460007
 20
122.5369827405244
 30
0.0
 41
1.0
  0
LINE
  5
367
330
2DA
100
AcDbEntity
  8
DV3_Default
  6
Continuous
 62
     7
100
AcDbLine
 10
105.3641020356
 20
122.5369820623
 30
0.0
 11
106.9220886962
 21
122.5369823989
 31
0.0
  0
LINE
  5
368
330
2DA
100
AcDbEntity
  8
DV3_Default
  6
Continuous
 62
     7
100
AcDbLine
 10
105.3198884573
 20
122.6708344745
 30
0.0
 11
105.3198884594
 21
124.0031290646
 31
0.0
  0
LINE
  5
369
330
2DA
100
AcDbEntity
  8
DV3_Default
  6
Continuous
 62
     7
100
AcDbLine
 10
105.1965245492
 20
124.0031290694
 30
0.0
 11
105.196524547
 21
122.6708344793
 31
0.0
  0
LINE
  5
36A
330
2DA
100
AcDbEntity
  8
DV3_Default
  6
Continuous
 62
     7
100
AcDbLine
 10
105.1089977097
 20
122.3369827424
 30
0.0
 11
105.1748960943
 21
122.3369827417
 31
0.0
  0
LINE
  5
36B
330
2DA
100
AcDbEntity
  8
DV3_Default
  6
Continuous
 62
     7
100
AcDbLine
 10
105.0034869224
 20
122.3369827483
 30
0.0
 11
105.1089977097
 21
122.3369827424
 31
0.0
  0
ARC
  5
36C
330
2DA
100
AcDbEntity
  8
DV3_Default
  6
Continuous
 62
     7
100
AcDbCircle
 10
105.0696017699
 20
122.6558604291
 30
0.0
 40
0.1188855413663371
100
AcDbArc
 50
269.3409723964
 51
301.9686747652
  0
ARC
  5
36D
330
2DA
100
AcDbEntity
  8
DV3_Default
  6
Continuous
 62
     7
100
AcDbCircle
 10
105.0630143177
 20
122.6689950685
 30
0.0
 40
0.1335228998123779
100
AcDbArc
 50
301.3825783775
 51
0.7893313206
  0
ARC
  5
36E
330
2DA
100
AcDbEntity
  8
DV3_Default
  6
Continuous
 62
     7
100
AcDbCircle
 10
86.7767602826
 20
124.0181106287
 30
0.0
 40
0.1188800467722787
100
AcDbArc
 50
89.3409454614
 51
121.9684739526
  0
ARC
  5
36F
330
2DA
100
AcDbEntity
  8
DV3_Default
  6
Continuous
 62
     7
100
AcDbCircle
 10
86.7833534289
 20
124.0049691205
 30
0.0
 40
0.133526238943609
100
AcDbArc
 50
121.3829265587
 51
180.7895737009
  0
LINE
  5
370
330
2DA
100
AcDbEntity
  8
DV3_Default
  6
Continuous
 62
     7
100
AcDbLine
 10
86.6498398664
 20
122.6708345089
 30
0.0
 11
86.6498398685
 21
124.003129099
 31
0.0
  0
ARC
  5
371
330
2DA
100
AcDbEntity
  8
DV3_Default
  6
Continuous
 62
     7
100
AcDbCircle
 10
86.7834109899
 20
122.6690285316
 30
0.0
 40
0.1335833320128189
100
AcDbArc
 50
179.2253672346
 51
238.6029425468
  0
ARC
  5
372
330
2DA
100
AcDbEntity
  8
DV3_Default
  6
Continuous
 62
     7
100
AcDbCircle
 10
86.7767618429
 20
122.6558587463
 30
0.0
 40
0.1188838311922518
100
AcDbArc
 50
238.0316106746
 51
270.6591069227
  0
LINE
  5
373
330
2DA
100
AcDbEntity
  8
DV3_Default
  6
Continuous
 62
     7
100
AcDbLine
 10
105.0682343545
 20
122.536982752
 30
0.0
 11
86.7781294031
 21
122.5369827812
 31
0.0
  0
LINE
  5
374
330
2DA
100
AcDbEntity
  8
DV3_Default
  6
Continuous
 62
     7
100
AcDbLine
 10
86.7781276906
 20
124.136982811
 30
0.0
 11
105.0682360721
 21
124.1369827818
 31
0.0
  0
LINE
  5
375
330
2DA
100
AcDbEntity
  8
DV3_Default
  6
Continuous
 62
     7
100
AcDbLine
 10
86.8428751293
 20
124.3369828006
 30
0.0
 11
105.0034886293
 21
124.3369827716
 31
0.0
  0
LINE
  5
376
330
2DA
100
AcDbEntity
  8
DV3_Default
  6
Continuous
 62
     7
100
AcDbLine
 10
86.7373665298
 20
124.3369828016
 30
0.0
 11
86.8428751293
 21
124.3369828006
 31
0.0
  0
LINE
  5
377
330
2DA
100
AcDbEntity
  8
DV3_Default
  6
Continuous
 62
     7
100
AcDbLine
 10
86.6714686657
 20
124.3369827945
 30
0.0
 11
86.7373665298
 21
124.3369828016
 31
0.0
  0
SPLINE
  5
378
330
2DA
100
AcDbEntity
  8
DV3_Default
  6
Continuous
 62
     7
100
AcDbSpline
210
0.0
220
0.0
230
1.0
 70
    12
 71
     3
 72
    13
 73
     9
 74
     0
 42
0.0000003325751753
 43
0.0000000001
 40
0.0
 40
0.0
 40
0.0
 40
0.0
 40
0.1249999996263
 40
0.2499999992521
 40
0.3749999988778
 40
0.4999999985036
 40
0.7499999977552
 40
1.0
 40
1.0
 40
1.0
 40
1.0
 10
86.504347920358
 20
124.1189606913441
 30
0.0
 41
1.0
 10
86.50346186325929
 20
124.1205158546602
 30
0.0
 41
1.0
 10
86.50169475010678
 20
124.1234044097329
 30
0.0
 41
1.0
 10
86.49904896513672
 20
124.1271231399721
 30
0.0
 41
1.0
 10
86.49638793996246
 20
124.1302248609594
 30
0.0
 41
1.0
 10
86.4927984773621
 20
124.1335646612378
 30
0.0
 41
1.0
 10
86.48819131747385
 20
124.1362779913774
 30
0.0
 41
1.0
 10
86.48428975727877
 20
124.1369828006912
 30
0.0
 41
1.0
 10
86.48226251950173
 20
124.1369828004748
 30
0.0
 41
1.0
  0
ARC
  5
379
330
2DA
100
AcDbEntity
  8
DV3_Default
  6
Continuous
 62
     7
100
AcDbCircle
 10
86.2741173993
 20
124.0149488932
 30
0.0
 40
0.2526352053944152
100
AcDbArc
 50
357.318378959
 51
24.3121398559
  0
LINE
  5
37A
330
2DA
100
AcDbEntity
  8
DV3_Default
  6
Continuous
 62
     7
100
AcDbLine
 10
86.5264759525
 20
124.0031290946
 30
0.0
 11
86.5264759503
 21
122.6708345045
 31
0.0
  0
LINE
  5
37B
330
2DA
100
AcDbEntity
  8
DV3_Default
  6
Continuous
 62
     7
100
AcDbLine
 10
105.0034869224
 20
122.3369827483
 30
0.0
 11
86.8428768298
 21
122.3369827773
 31
0.0
  0
LINE
  5
37C
330
2DA
100
AcDbEntity
  8
DV3_Default
  6
Continuous
 62
     7
100
AcDbLine
 10
86.7373668206
 20
122.3369827718
 30
0.0
 11
86.8428768298
 21
122.3369827773
 31
0.0
  0
LINE
  5
37D
330
2DA
100
AcDbEntity
  8
DV3_Default
  6
Continuous
 62
     7
100
AcDbLine
 10
86.6714680795
 20
122.3369827713
 30
0.0
 11
86.7373668206
 21
122.3369827718
 31
0.0
  0
LINE
  5
37E
330
2DA
100
AcDbEntity
  8
DV3_Default
  6
Continuous
 62
     7
100
AcDbLine
 10
86.6714680795
 20
122.3369827713
 30
0.0
 11
85.1234427746
 21
122.336982437
 31
0.0
  0
LINE
  5
37F
330
2DA
100
AcDbEntity
  8
DV3_Default
  6
Continuous
 62
     7
100
AcDbLine
 10
86.7373662547
 20
122.3369820905
 30
0.0
 11
86.6714678707
 21
122.3369820978
 31
0.0
  0
LINE
  5
380
330
2DA
100
AcDbEntity
  8
DV3_Default
  6
Continuous
 62
     7
100
AcDbLine
 10
86.8428770426
 20
122.3369820912
 30
0.0
 11
86.7373662547
 21
122.3369820905
 31
0.0
  0
LINE
  5
381
330
2DA
100
AcDbEntity
  8
DV3_Default
  6
Continuous
 62
     7
100
AcDbLine
 10
86.8428770426
 20
122.3369820912
 30
0.0
 11
87.7236577038
 21
122.3369820898
 31
0.0
  0
LINE
  5
382
330
2DA
100
AcDbEntity
  8
DV3_Default
  6
Continuous
 62
     7
100
AcDbLine
 10
87.7532146098
 20
122.3369820898
 30
0.0
 11
90.9248345588
 21
122.3369820847
 31
0.0
  0
LINE
  5
383
330
2DA
100
AcDbEntity
  8
DV3_Default
  6
Continuous
 62
     7
100
AcDbLine
 10
100.9249171437
 20
122.3369820687
 30
0.0
 11
105.0034871352
 21
122.3369820622
 31
0.0
  0
LINE
  5
384
330
2DA
100
AcDbEntity
  8
DV3_Default
  6
Continuous
 62
     7
100
AcDbLine
 10
105.1089971444
 20
122.3369820612
 30
0.0
 11
105.0034871352
 21
122.3369820622
 31
0.0
  0
LINE
  5
385
330
2DA
100
AcDbEntity
  8
DV3_Default
  6
Continuous
 62
     7
100
AcDbLine
 10
105.1748958855
 20
122.3369820683
 30
0.0
 11
105.1089971444
 21
122.3369820612
 31
0.0
  0
LINE
  5
386
330
2DA
100
AcDbEntity
  8
DV3_Default
  6
Continuous
 62
     7
100
AcDbLine
 10
105.1748958855
 20
122.3369820683
 30
0.0
 11
106.7229211904
 21
122.3369824025
 31
0.0
  0
LINE
  5
387
330
2DA
100
AcDbEntity
  8
DV3_Default
  6
Continuous
 62
     7
100
AcDbLine
 10
85.1234427778
 20
124.3369824602
 30
0.0
 11
86.6714686657
 21
124.3369827945
 31
0.0
  0
LINE
  5
388
330
2DA
100
AcDbEntity
  8
DV3_Default
  6
Continuous
 62
     7
100
AcDbLine
 10
84.924275272
 20
124.1369824639
 30
0.0
 11
86.4822625195
 21
124.1369828005
 31
0.0
  0
LINE
  5
389
330
2DA
100
AcDbEntity
  8
DV3_Default
  6
Continuous
 62
     7
100
AcDbLine
 10
86.48226193
 20
122.5369827707
 30
0.0
 11
84.9242752694
 21
122.536982434
 31
0.0
  0
SPLINE
  5
38A
330
2DA
100
AcDbEntity
  8
DV3_Default
  6
Continuous
 62
     7
100
AcDbSpline
210
0.0
220
0.0
230
1.0
 70
    12
 71
     3
 72
    13
 73
     9
 74
     0
 42
0.0000003325652999
 43
0.0000000001
 40
0.0
 40
0.0
 40
0.0
 40
0.0
 40
0.2500000011095
 40
0.5000000007395
 40
0.6250000005545
 40
0.7500000003695
 40
0.8750000001845
 40
1.0
 40
1.0
 40
1.0
 40
1.0
 10
86.48226193004969
 20
122.5369827706647
 30
0.0
 41
1.0
 10
86.48428923116373
 20
122.5369827708811
 30
0.0
 41
1.0
 10
86.48819091205905
 20
122.5376875770873
 30
0.0
 41
1.0
 10
86.49279821342799
 20
122.5404009893878
 30
0.0
 41
1.0
 10
86.49638778743501
 20
122.5437408776294
 30
0.0
 41
1.0
 10
86.4990488954762
 20
122.5468426845621
 30
0.0
 41
1.0
 10
86.50169476631211
 20
122.5505615048728
 30
0.0
 41
1.0
 10
86.50346193233885
 20
122.5534501605702
 30
0.0
 41
1.0
 10
86.50434801848053
 20
122.5550053653942
 30
0.0
 41
1.0
  0
ARC
  5
38B
330
2DA
100
AcDbEntity
  8
DV3_Default
  6
Continuous
 62
     7
100
AcDbCircle
 10
86.2740295086
 20
122.6590335037
 30
0.0
 40
0.252722119272237
100
AcDbArc
 50
335.6926970092
 51
2.6764317307
  0
ARC
  5
38C
330
2DA
100
AcDbEntity
  8
DV3_Default
  6
Continuous
 62
     7
100
AcDbCircle
 10
106.7220515661
 20
124.1372221317
 30
0.0
 40
0.2000370718996601
100
AcDbArc
 50
359.9313428727
 51
67.3280961833
  0
ARC
  5
38D
330
2DA
100
AcDbEntity
  8
DV3_Default
  6
Continuous
 62
     7
100
AcDbCircle
 10
106.6773597276
 20
123.5447154384
 30
0.0
 40
0.7865733051610482
100
AcDbArc
 50
81.0921828712
 51
91.415128662
  0
ARC
  5
38E
330
2DA
100
AcDbEntity
  8
DV3_Default
  6
Continuous
 62
     7
100
AcDbCircle
 10
106.5422309319
 20
121.7663860331
 30
0.0
 40
2.568299206207816
100
AcDbArc
 50
85.1085708043
 51
92.0176605002
  0
LINE
  5
38F
330
2DA
100
AcDbEntity
  8
DV3_Default
  6
Continuous
 62
     7
100
AcDbLine
 10
106.9227159728
 20
122.5369823989
 30
0.0
 11
106.9227159753
 21
124.1369824287
 31
0.0
  0
ARC
  5
390
330
2DA
100
AcDbEntity
  8
DV3_Default
  6
Continuous
 62
     7
100
AcDbCircle
 10
106.5183249445
 20
125.8596758157
 30
0.0
 40
3.518737366838884
100
AcDbArc
 50
268.7752719439
 51
274.5776613045
  0
ARC
  5
391
330
2DA
100
AcDbEntity
  8
DV3_Default
  6
Continuous
 62
     7
100
AcDbCircle
 10
106.7220515636
 20
122.5367426966
 30
0.0
 40
0.2000370719006709
100
AcDbArc
 50
292.6719036322
 51
0.0686569424
  0
ARC
  5
392
330
2DA
100
AcDbEntity
  8
DV3_Default
  6
Continuous
 62
     7
100
AcDbCircle
 10
85.3280401021
 20
120.814391433
 30
0.0
 40
3.518635273422168
100
AcDbArc
 50
88.7752527387
 51
94.5778178816
  0
ARC
  5
393
330
2DA
100
AcDbEntity
  8
DV3_Default
  6
Continuous
 62
     7
100
AcDbCircle
 10
85.1243124046
 20
124.1372221662
 30
0.0
 40
0.2000370719089204
100
AcDbArc
 50
112.6719036353
 51
180.0686569415
  0
LINE
  5
394
330
2DA
100
AcDbEntity
  8
DV3_Default
  6
Continuous
 62
     7
100
AcDbLine
 10
84.9236479954
 20
124.1369824639
 30
0.0
 11
84.9236479929
 21
122.536982434
 31
0.0
  0
ARC
  5
395
330
2DA
100
AcDbEntity
  8
DV3_Default
  6
Continuous
 62
     7
100
AcDbCircle
 10
85.124312402
 20
122.5367427311
 30
0.0
 40
0.2000370718954895
100
AcDbArc
 50
179.9313428744
 51
247.3280961853
  0
ARC
  5
396
330
2DA
100
AcDbEntity
  8
DV3_Default
  6
Continuous
 62
     7
100
AcDbCircle
 10
85.3041342627
 20
124.9075135268
 30
0.0
 40
2.568234207541742
100
AcDbArc
 50
268.4809490803
 51
272.0176926434
  0
ARC
  5
397
330
2DA
100
AcDbEntity
  8
DV3_Default
  6
Continuous
 62
     7
100
AcDbCircle
 10
85.1690038142
 20
123.1292663443
 30
0.0
 40
0.7865900742385731
100
AcDbArc
 50
261.092440036
 51
271.4151131752
  0
LINE
  5
398
330
2DA
100
AcDbEntity
  8
DV3_Default
  6
Continuous
 62
     7
100
AcDbLine
 10
115.6112213078
 20
158.8801487702
 30
0.0
 11
115.6112211566
 21
159.0869840179
 31
0.0
  0
LINE
  5
399
330
2DA
100
AcDbEntity
  8
DV3_Default
  6
Continuous
 62
     7
100
AcDbLine
 10
76.2385326673
 20
158.8801488959
 30
0.0
 11
76.2385328197
 21
159.0869840195
 31
0.0
  0
ARC
  5
39A
330
2DA
100
AcDbEntity
  8
DV3_Default
  6
Continuous
 62
     7
100
AcDbCircle
 10
76.4885329894
 20
159.0869840187
 30
0.0
 40
0.249999999994574
100
AcDbArc
 50
102.4170115851
 51
179.9999998171
  0
LINE
  5
39B
330
2DA
100
AcDbEntity
  8
DV3_Default
  6
Continuous
 62
     7
100
AcDbLine
 10
115.6112211566
 20
159.0869840179
 30
0.0
 11
115.6015916445
 21
159.0869840224
 31
0.0
  0
ARC
  5
39C
330
2DA
100
AcDbEntity
  8
DV3_Default
  6
Continuous
 62
     7
100
AcDbCircle
 10
130.2705748723
 20
-2140.3561026735
 30
0.0
 40
2299.016458795711
100
AcDbArc
 50
90.3666316167
 51
90.4314926603
  0
ARC
  5
39D
330
2DA
100
AcDbEntity
  8
DV3_Default
  6
Continuous
 62
     7
100
AcDbCircle
 10
115.119151477
 20
158.8371876754
 30
0.0
 40
0.4939416707191919
100
AcDbArc
 50
333.0449490568
 51
4.9896650422
  0
ARC
  5
39E
330
2DA
100
AcDbEntity
  8
DV3_Default
  6
Continuous
 62
     7
100
AcDbCircle
 10
76.7306024982
 20
158.837187798
 30
0.0
 40
0.4939416710527547
100
AcDbArc
 50
175.0103346051
 51
206.9550505685
  0
ARC
  5
39F
330
2DA
100
AcDbEntity
  8
DV3_Default
  6
Continuous
 62
     7
100
AcDbCircle
 10
61.4338836091
 20
-2161.2136342035
 30
0.0
 40
2319.874493192576
100
AcDbArc
 50
89.5687981536
 51
89.6330762685
  0
SPLINE
  5
3A0
330
2DA
100
AcDbEntity
  8
DV3_Default
  6
Continuous
 62
     7
100
AcDbSpline
210
0.0
220
0.0
230
1.0
 70
     8
 71
     3
 72
    10
 73
     6
 74
     0
 42
0.0000001220436889
 43
0.0000000001
 40
0.0
 40
0.0
 40
0.0
 40
0.0
 40
0.3299398470581031
 40
0.6598591532711806
 40
1.0
 40
1.0
 40
1.0
 40
1.0
 10
78.96321105447298
 20
158.5572333295003
 30
0.0
 10
78.95419791185218
 20
158.5648684802546
 30
0.0
 10
78.93587117259399
 20
158.5799629454674
 30
0.0
 10
78.91196964890909
 20
158.5927438827856
 30
0.0
 10
78.89937347835013
 20
158.5943998366914
 30
0.0
 10
78.89284359687225
 20
158.595161555696
 30
0.0
  0
ARC
  5
3A1
330
2DA
100
AcDbEntity
  8
DV3_Default
  6
Continuous
 62
     7
100
AcDbCircle
 10
78.0920485296
 20
157.7074493029
 30
0.0
 40
1.216986867888042
100
AcDbArc
 50
22.6949997556
 51
44.2882784653
  0
SPLINE
  5
3A2
330
2DA
100
AcDbEntity
  8
DV3_Default
  6
Continuous
 62
     7
100
AcDbSpline
210
0.0
220
0.0
230
1.0
 70
     8
 71
     3
 72
    14
 73
    10
 74
     0
 42
0.0000000231463675
 43
0.0000000001
 40
0.0
 40
0.0
 40
0.0
 40
0.0
 40
0.0838024404904042
 40
0.1676743656984373
 40
0.2529440660860677
 40
0.5013097737059126
 40
0.7511234756307565
 40
0.8765327640710839
 40
1.0
 40
1.0
 40
1.0
 40
1.0
 10
79.5866320403267
 20
158.5572353990352
 30
0.0
 10
79.5766019514435
 20
158.5508495557121
 30
0.0
 10
79.55643583453116
 20
158.5378971359122
 30
0.0
 10
79.530612438918
 20
158.5135646315741
 30
0.0
 10
79.49437866863471
 20
158.468507791886
 30
0.0
 10
79.46282139182837
 20
158.3926556401678
 30
0.0
 10
79.45953683798882
 20
158.3028131620841
 30
0.0
 10
79.47275737068682
 20
158.2302044086058
 30
0.0
 10
79.48649956469664
 20
158.1947412694683
 30
0.0
 10
79.49322759134024
 20
158.1769905872456
 30
0.0
  0
ARC
  5
3A3
330
2DA
100
AcDbEntity
  8
DV3_Default
  6
Continuous
 62
     7
100
AcDbCircle
 10
79.7293878828
 20
158.3081918299
 30
0.0
 40
0.2870573634393421
100
AcDbArc
 50
88.5853062385
 51
119.8220393585
  0
ARC
  5
3A4
330
2DA
100
AcDbEntity
  8
DV3_Default
  6
Continuous
 62
     7
100
AcDbCircle
 10
95.6121992461
 20
-6790.3350851306
 30
0.0
 40
6948.948381869033
100
AcDbArc
 50
89.9974219023
 51
90.1308993451
  0
ARC
  5
3A5
330
2DA
100
AcDbEntity
  8
DV3_Default
  6
Continuous
 62
     7
100
AcDbCircle
 10
96.2411035572
 20
-6787.1252827034
 30
0.0
 40
6945.738579605806
100
AcDbArc
 50
89.8690691582
 51
90.0026085772
  0
ARC
  5
3A6
330
2DA
100
AcDbEntity
  8
DV3_Default
  6
Continuous
 62
     7
100
AcDbCircle
 10
112.1194816168
 20
158.3046039805
 30
0.0
 40
0.2906230067393294
100
AcDbArc
 50
60.3736911024
 51
91.2162386778
  0
SPLINE
  5
3A7
330
2DA
100
AcDbEntity
  8
DV3_Default
  6
Continuous
 62
     7
100
AcDbSpline
210
0.0
220
0.0
230
1.0
 70
     8
 71
     3
 72
    15
 73
    11
 74
     0
 42
0.0000000232035884
 43
0.0000000001
 40
0.0
 40
0.0
 40
0.0
 40
0.0
 40
0.1346448923548967
 40
0.2663640769136165
 40
0.3986554083753973
 40
0.5350089608541627
 40
0.6592333401512286
 40
0.7812937430450063
 40
0.8930691549147732
 40
1.0
 40
1.0
 40
1.0
 40
1.0
 10
112.3565101408305
 20
158.1769938213947
 30
0.0
 10
112.3639722129401
 20
158.196363326526
 30
0.0
 10
112.3789111752358
 20
158.2343699245763
 30
0.0
 10
112.3889762318598
 20
158.2926537171006
 30
0.0
 10
112.3890640838839
 20
158.3502885081204
 30
0.0
 10
112.3791045809985
 20
158.404717145744
 30
0.0
 10
112.3606951807654
 20
158.4546515105742
 30
0.0
 10
112.3345452841029
 20
158.4967763551026
 30
0.0
 10
112.30264379885
 20
158.5323283706101
 30
0.0
 10
112.2760849729507
 20
158.5491140317947
 30
0.0
 10
112.2631485039364
 20
158.5572332694213
 30
0.0
  0
ARC
  5
3A8
330
2DA
100
AcDbEntity
  8
DV3_Default
  6
Continuous
 62
     7
100
AcDbCircle
 10
113.7481831541
 20
157.7137139834
 30
0.0
 40
1.205793241396768
100
AcDbArc
 50
135.6085164809
 51
157.4053643143
  0
SPLINE
  5
3A9
330
2DA
100
AcDbEntity
  8
DV3_Default
  6
Continuous
 62
     7
100
AcDbSpline
210
0.0
220
0.0
230
1.0
 70
     8
 71
     3
 72
    10
 73
     6
 74
     0
 42
0.0000001220026325
 43
0.0000000001
 40
0.0
 40
0.0
 40
0.0
 40
0.0
 40
0.3454989650179829
 40
0.6753315619192805
 40
1.0
 40
1.0
 40
1.0
 40
1.0
 10
112.9569200210413
 20
158.5951615270504
 30
0.0
 10
112.9502799917452
 20
158.5943696803072
 30
0.0
 10
112.937566306957
 20
158.5926676932527
 30
0.0
 10
112.9137062877903
 20
158.5800086161978
 30
0.0
 10
112.8954547083235
 20
158.5648449433614
 30
0.0
 10
112.8865514347722
 20
158.5572352464906
 30
0.0
  0
ARC
  5
3AA
330
2DA
100
AcDbEntity
  8
DV3_Default
  6
Continuous
 62
     7
100
AcDbCircle
 10
179.2015501916
 20
124.4539605389
 30
0.0
 40
74.62142088374377
100
AcDbArc
 50
153.1329629124
 51
179.4544736019
  0
ARC
  5
3AB
330
2DA
100
AcDbEntity
  8
DV3_Default
  6
Continuous
 62
     7
100
AcDbCircle
 10
105.2405344765
 20
125.1374782254
 30
0.0
 40
0.6575757108304899
100
AcDbArc
 50
177.650317269
 51
201.9965484828
  0
SPLINE
  5
3AC
330
2DA
100
AcDbEntity
  8
DV3_Default
  6
Continuous
 62
     7
100
AcDbSpline
210
0.0
220
0.0
230
1.0
 70
     8
 71
     3
 72
    11
 73
     7
 74
     0
 42
0.0000001147431888
 43
0.0000000001
 40
0.0
 40
0.0
 40
0.0
 40
0.0
 40
0.2467452031987845
 40
0.4967361034604167
 40
0.7484117196359674
 40
1.0
 40
1.0
 40
1.0
 40
1.0
 10
104.6308260561979
 20
124.8911827570943
 30
0.0
 10
104.6356118865614
 20
124.8826413311786
 30
0.0
 10
104.6448494861996
 20
124.8654481633441
 30
0.0
 10
104.6599291946721
 20
124.8483638346823
 30
0.0
 10
104.675539119319
 20
124.8370965363366
 30
0.0
 10
104.6861231863202
 20
124.8359016687534
 30
0.0
 10
104.6912408368596
 20
124.8353050766944
 30
0.0
  0
LINE
  5
3AD
330
2DA
100
AcDbEntity
  8
DV3_Default
  6
Continuous
 62
     7
100
AcDbLine
 10
104.6912408369
 20
124.8353050767
 30
0.0
 11
105.8466773888
 21
124.8367264422
 31
0.0
  0
LINE
  5
3AE
330
2DA
100
AcDbEntity
  8
DV3_Default
  6
Continuous
 62
     7
100
AcDbLine
 10
105.8466773888
 20
124.8367264422
 30
0.0
 11
105.9232519476
 21
124.8368206408
 31
0.0
  0
ARC
  5
3AF
330
2DA
100
AcDbEntity
  8
DV3_Default
  6
Continuous
 62
     7
100
AcDbCircle
 10
173.6881783685
 20
123.7667798136
 30
0.0
 40
67.77337412436896
100
AcDbArc
 50
149.0585270911
 51
179.0953472285
  0
LINE
  5
3B0
330
2DA
100
AcDbEntity
  8
DV3_Default
  6
Continuous
 62
     7
100
AcDbLine
 10
86.003076372
 20
124.8367264319
 30
0.0
 11
85.9265018101
 21
124.8368207046
 31
0.0
  0
ARC
  5
3B1
330
2DA
100
AcDbEntity
  8
DV3_Default
  6
Continuous
 62
     7
100
AcDbCircle
 10
18.1615753824
 20
123.7667803101
 30
0.0
 40
67.77337412439451
100
AcDbArc
 50
0.9046524057
 51
30.941472543
  0
LINE
  5
3B2
330
2DA
100
AcDbEntity
  8
DV3_Default
  6
Continuous
 62
     7
100
AcDbLine
 10
85.9265018101
 20
124.8368207046
 30
0.0
 11
86.0035204652
 21
124.8367259592
 31
0.0
  0
LINE
  5
3B3
330
2DA
100
AcDbEntity
  8
DV3_Default
  6
Continuous
 62
     7
100
AcDbLine
 10
86.0035204652
 20
124.8367259592
 30
0.0
 11
87.1585097152
 21
124.8353051353
 31
0.0
  0
SPLINE
  5
3B4
330
2DA
100
AcDbEntity
  8
DV3_Default
  6
Continuous
 62
     7
100
AcDbSpline
210
0.0
220
0.0
230
1.0
 70
     8
 71
     3
 72
    11
 73
     7
 74
     0
 42
0.0000001147367938
 43
0.0000000001
 40
0.0
 40
0.0
 40
0.0
 40
0.0
 40
0.2517542483525104
 40
0.5035287645868756
 40
0.7534364542915928
 40
1.0
 40
1.0
 40
1.0
 40
1.0
 10
87.15850971518738
 20
124.8353051353173
 30
0.0
 10
87.16363114174703
 20
124.8359036840788
 30
0.0
 10
87.17422135040506
 20
124.8371023059537
 30
0.0
 10
87.18983572492812
 20
124.8483768462898
 30
0.0
 10
87.20491274642136
 20
124.8654613453099
 30
0.0
 10
87.21414539432338
 20
124.8826496981698
 30
0.0
 10
87.21892783543298
 20
124.8911869982222
 30
0.0
  0
ARC
  5
3B5
330
2DA
100
AcDbEntity
  8
DV3_Default
  6
Continuous
 62
     7
100
AcDbCircle
 10
86.6193691613
 20
125.1357082927
 30
0.0
 40
0.6475038742895877
100
AcDbArc
 50
337.8126224564
 51
2.5430911331
  0
ARC
  5
3B6
330
2DA
100
AcDbEntity
  8
DV3_Default
  6
Continuous
 62
     7
100
AcDbCircle
 10
11.9599411489
 20
124.2861022381
 30
0.0
 40
75.31141625295317
100
AcDbArc
 50
0.6682400272
 51
26.7443265985
  0
ARC
  5
3B7
330
2DA
100
AcDbEntity
  8
DV3_Default
  6
Continuous
 62
     7
100
AcDbCircle
 10
13.1060796074
 20
124.3977111864
 30
0.0
 40
74.48686551520386
100
AcDbArc
 50
0.5897814384
 51
26.968019346
  0
ARC
  5
3B8
330
2DA
100
AcDbEntity
  8
DV3_Default
  6
Continuous
 62
     7
100
AcDbCircle
 10
87.9096671604
 20
125.1655508004
 30
0.0
 40
0.3206702033479602
100
AcDbArc
 50
180.1988787032
 51
238.8269549434
  0
ARC
  5
3B9
330
2DA
100
AcDbEntity
  8
DV3_Default
  6
Continuous
 62
     7
100
AcDbCircle
 10
87.9357017655
 20
125.1931358459
 30
0.0
 40
0.3578376997998911
100
AcDbArc
 50
237.5464407588
 51
270.3594511224
  0
SPLINE
  5
3BA
330
2DA
100
AcDbEntity
  8
DV3_Default
  6
Continuous
 62
     7
100
AcDbSpline
210
0.0
220
0.0
230
1.0
 70
     8
 71
     3
 72
    22
 73
    18
 74
     0
 42
0.0000000012520455
 43
0.0000000001
 40
0.0
 40
0.0
 40
0.0
 40
0.0
 40
0.0697452988698967
 40
0.1389265280701071
 40
0.2075725842658755
 40
0.2757123587913286
 40
0.3433747080573549
 40
0.4105884229447749
 40
0.477382197336203
 40
0.5437845959544773
 40
0.6098240216882084
 40
0.6755286825955311
 40
0.740926558785238
 40
0.8060453693799041
 40
0.8709125397681913
 40
0.9355551693531535
 40
1.0
 40
1.0
 40
1.0
 40
1.0
 10
87.93794668341464
 20
124.8353051879832
 30
0.0
 10
88.1184085689157
 20
124.8353684102217
 30
0.0
 10
88.47797942868611
 20
124.8354958135058
 30
0.0
 10
89.01906382541996
 20
124.8356722420263
 30
0.0
 10
89.55853514133676
 20
124.8358370441637
 30
0.0
 10
90.09667806986803
 20
124.8359893196841
 30
0.0
 10
90.6334168549756
 20
124.8361293592455
 30
0.0
 10
91.16877121436376
 20
124.8362570716063
 30
0.0
 10
91.70273554378612
 20
124.8363724011562
 30
0.0
 10
92.23531094204024
 20
124.8364752190592
 30
0.0
 10
92.76649671882451
 20
124.8365653501411
 30
0.0
 10
93.29629265111467
 20
124.8366425778293
 30
0.0
 10
93.82469838695377
 20
124.8367066027644
 30
0.0
 10
94.3517136058689
 20
124.8367572069384
 30
0.0
 10
94.87733798231096
 20
124.8367936466262
 30
0.0
 10
95.4015711864766
 20
124.8368169092434
 30
0.0
 10
95.75061968524463
 20
124.83681986482
 30
0.0
 10
95.9248765145255
 20
124.836821414162
 30
0.0
  0
SPLINE
  5
3BB
330
2DA
100
AcDbEntity
  8
DV3_Default
  6
Continuous
 62
     7
100
AcDbSpline
210
0.0
220
0.0
230
1.0
 70
     8
 71
     3
 72
    22
 73
    18
 74
     0
 42
0.0000000012520467
 43
0.0000000001
 40
0.0
 40
0.0
 40
0.0
 40
0.0
 40
0.0644448428371158
 40
0.1290874831088293
 40
0.1939546626374272
 40
0.2590734807788339
 40
0.3244713628704488
 40
0.3901760279795421
 40
0.4562154561556631
 40
0.5226178553938776
 40
0.589411628516024
 40
0.6566253401745953
 40
0.7242876841784291
 40
0.7924274513312791
 40
0.8610734979638253
 40
0.9302547153269966
 40
1.0
 40
1.0
 40
1.0
 40
1.0
 10
95.9248765145255
 20
124.836821414162
 30
0.0
 10
96.09913320214508
 20
124.8368198637219
 30
0.0
 10
96.44818141300506
 20
124.8368169059461
 30
0.0
 10
96.97241418009662
 20
124.8367936400764
 30
0.0
 10
97.49803810717701
 20
124.8367571971576
 30
0.0
 10
98.02505286455126
 20
124.8367065897726
 30
0.0
 10
98.55345812665553
 20
124.8366425616408
 30
0.0
 10
99.08325357303542
 20
124.8365653307653
 30
0.0
 10
99.61443885174387
 20
124.8364751965008
 30
0.0
 10
100.1470137397684
 20
124.8363723754153
 30
0.0
 10
100.6809775468203
 20
124.8362570426788
 30
0.0
 10
101.2163313717044
 20
124.836129327123
 30
0.0
 10
101.7530696102031
 20
124.8359892843546
 30
0.0
 10
102.2912119799677
 20
124.835837005611
 30
0.0
 10
102.8306827252197
 20
124.8356722002308
 30
0.0
 10
103.3717665384535
 20
124.8354957684454
 30
0.0
 10
103.7313370107039
 20
124.8353683629732
 30
0.0
 10
103.9117986987987
 20
124.8353051396367
 30
0.0
  0
ARC
  5
3BC
330
2DA
100
AcDbEntity
  8
DV3_Default
  6
Continuous
 62
     7
100
AcDbCircle
 10
103.9140435222
 20
125.1931509317
 30
0.0
 40
0.3578528330856606
100
AcDbArc
 50
269.640579198
 51
302.4541014774
  0
ARC
  5
3BD
330
2DA
100
AcDbEntity
  8
DV3_Default
  6
Continuous
 62
     7
100
AcDbCircle
 10
103.94013501
 20
125.1655036733
 30
0.0
 40
0.3206025837069951
100
AcDbArc
 50
301.1707678418
 51
359.809637635
  0
ARC
  5
3BE
330
2DA
100
AcDbEntity
  8
DV3_Default
  6
Continuous
 62
     7
100
AcDbCircle
 10
179.4988592311
 20
124.2125072884
 30
0.0
 40
75.24414519952592
100
AcDbArc
 50
153.167072901
 51
179.2751184151
  0
LINE
  5
3BF
330
2DA
100
AcDbEntity
  8
DV3_Default
  6
Continuous
 62
     7
100
AcDbLine
 10
101.0776863636
 20
124.3369833218
 30
0.0
 11
103.7644041591
 21
124.3369833439
 31
0.0
  0
LINE
  5
3C0
330
2DA
100
AcDbEntity
  8
DV3_Default
  6
Continuous
 62
     7
100
AcDbLine
 10
88.0853598388
 20
124.3369833939
 30
0.0
 11
90.7737594693
 21
124.3369833546
 31
0.0
  0
ARC
  5
3C1
330
2DA
100
AcDbEntity
  8
DV3_Default
  6
Continuous
 62
     7
100
AcDbCircle
 10
86.426354877
 20
124.8368369929
 30
0.0
 40
0.4998530671269398
100
AcDbArc
 50
242.6183448175
 51
256.5523187746
  0
ARC
  5
3C2
330
2DA
100
AcDbEntity
  8
DV3_Default
  6
Continuous
 62
     7
100
AcDbCircle
 10
86.426354877
 20
124.8368369929
 30
0.0
 40
0.4998530671269398
100
AcDbArc
 50
180.0018670524
 51
234.9465159571
  0
LINE
  5
3C3
330
2DA
100
AcDbEntity
  8
DV3_Default
  6
Continuous
 62
     7
100
AcDbLine
 10
95.9248774717
 20
124.336984688
 30
0.0
 11
88.0853495954
 21
124.3369846234
 31
0.0
  0
LINE
  5
3C4
330
2DA
100
AcDbEntity
  8
DV3_Default
  6
Continuous
 62
     7
100
AcDbLine
 10
104.0442240336
 20
124.3369845598
 30
0.0
 11
103.7643939157
 21
124.3369845733
 31
0.0
  0
LINE
  5
3C5
330
2DA
100
AcDbEntity
  8
DV3_Default
  6
Continuous
 62
     7
100
AcDbLine
 10
104.2133813717
 20
124.3369845386
 30
0.0
 11
104.0442240336
 21
124.3369845598
 31
0.0
  0
LINE
  5
3C6
330
2DA
100
AcDbEntity
  8
DV3_Default
  6
Continuous
 62
     7
100
AcDbLine
 10
88.0853495954
 20
124.3369846234
 30
0.0
 11
87.8055302046
 21
124.3369846117
 31
0.0
  0
LINE
  5
3C7
330
2DA
100
AcDbEntity
  8
DV3_Default
  6
Continuous
 62
     7
100
AcDbLine
 10
87.8055302046
 20
124.3369846117
 30
0.0
 11
87.6363758693
 21
124.3369845915
 31
0.0
  0
LINE
  5
3C8
330
2DA
100
AcDbEntity
  8
DV3_Default
  6
Continuous
 62
     7
100
AcDbLine
 10
87.6363723828
 20
124.3369834287
 30
0.0
 11
87.8055297209
 21
124.3369834074
 31
0.0
  0
LINE
  5
3C9
330
2DA
100
AcDbEntity
  8
DV3_Default
  6
Continuous
 62
     7
100
AcDbLine
 10
87.8055297209
 20
124.3369834074
 30
0.0
 11
88.0853598388
 21
124.3369833939
 31
0.0
  0
LINE
  5
3CA
330
2DA
100
AcDbEntity
  8
DV3_Default
  6
Continuous
 62
     7
100
AcDbLine
 10
103.7644041591
 20
124.3369833439
 30
0.0
 11
104.0442235499
 21
124.3369833555
 31
0.0
  0
LINE
  5
3CB
330
2DA
100
AcDbEntity
  8
DV3_Default
  6
Continuous
 62
     7
100
AcDbLine
 10
104.0442235499
 20
124.3369833555
 30
0.0
 11
104.2133778852
 21
124.3369833758
 31
0.0
  0
LINE
  5
3CC
330
2DA
100
AcDbEntity
  8
DV3_Default
  6
Continuous
 62
     7
100
AcDbLine
 10
101.3248768271
 20
124.3369835659
 30
0.0
 11
100.9249171453
 21
124.3369835672
 31
0.0
  0
LINE
  5
3CD
330
2DA
100
AcDbEntity
  8
DV3_Default
  6
Continuous
 62
     7
100
AcDbLine
 10
90.7748758481
 20
124.3369835996
 30
0.0
 11
90.5248768271
 21
124.3369836004
 31
0.0
  0
LINE
  5
3CE
330
2DA
100
AcDbEntity
  8
DV3_Default
  6
Continuous
 62
     7
100
AcDbLine
 10
90.5248771487
 20
124.3369844013
 30
0.0
 11
101.3248771487
 21
124.3369843668
 31
0.0
  0
ARC
  5
3CF
330
2DA
100
AcDbEntity
  8
DV3_Default
  6
Continuous
 62
     7
100
AcDbCircle
 10
76.4989188089
 20
159.0861707685
 30
0.0
 40
0.2507548893327012
100
AcDbArc
 50
111.2183862311
 51
180.298212771
  0
ARC
  5
3D0
330
2DA
100
AcDbEntity
  8
DV3_Default
  6
Continuous
 62
     7
100
AcDbCircle
 10
115.3508373313
 20
159.0861727471
 30
0.0
 40
0.2507529626783095
100
AcDbArc
 50
359.7014600825
 51
68.7544146121
  0
SPLINE
  5
3D1
330
2DA
100
AcDbEntity
  8
DV3_Default
  6
Continuous
 62
     7
100
AcDbSpline
210
0.0
220
0.0
230
1.0
 70
     8
 71
     3
 72
    10
 73
     6
 74
     0
 42
0.0000000154777181
 43
0.0000000001
 40
0.0
 40
0.0
 40
0.0
 40
0.0
 40
0.496156223065354
 40
0.7465052412936102
 40
1.0
 40
1.0
 40
1.0
 40
1.0
 10
105.4619503969023
 20
124.3753350587736
 30
0.0
 10
105.570094366477
 20
124.4315710954776
 30
0.0
 10
105.7035753663964
 20
124.5049049152511
 30
0.0
 10
105.8181689315272
 20
124.691627749944
 30
0.0
 10
105.8368883010171
 20
124.7851677422087
 30
0.0
 10
105.8469441160913
 20
124.8417024429582
 30
0.0
  0
LINE
  5
3D2
330
2DA
100
AcDbEntity
  8
DV3_Default
  6
Continuous
 62
     7
100
AcDbLine
 10
84.5205276816
 20
159.336984507
 30
0.0
 11
83.8644059099
 21
159.3369845563
 31
0.0
  0
LINE
  5
3D3
330
2DA
100
AcDbEntity
  8
DV3_Default
  6
Continuous
 62
     7
100
AcDbLine
 10
83.8353015774
 20
159.3369845585
 30
0.0
 11
81.9530410146
 21
159.3369846997
 31
0.0
  0
LINE
  5
3D4
330
2DA
100
AcDbEntity
  8
DV3_Default
  6
Continuous
 62
     7
100
AcDbLine
 10
84.5205276817
 20
159.3369833794
 30
0.0
 11
83.8643975467
 21
159.3369833579
 31
0.0
  0
LINE
  5
3D5
330
2DA
100
AcDbEntity
  8
DV3_Default
  6
Continuous
 62
     7
100
AcDbLine
 10
83.8339431486
 20
159.3369833569
 30
0.0
 11
81.9530438981
 21
159.3369832953
 31
0.0
  0
LINE
  5
3D6
330
2DA
100
AcDbEntity
  8
DV3_Default
  6
Continuous
 62
     7
100
AcDbLine
 10
73.8143558214
 20
164.3369840531
 30
0.0
 11
76.8463011793
 21
164.3369848013
 31
0.0
  0
LINE
  5
3D7
330
2DA
100
AcDbEntity
  8
DV3_Default
  6
Continuous
 62
     7
100
AcDbLine
 10
76.8460097565
 20
164.336984928
 30
0.0
 11
76.9014371933
 21
164.3369849358
 31
0.0
  0
LINE
  5
3D8
330
2DA
100
AcDbEntity
  8
DV3_Default
  6
Continuous
 62
     7
100
AcDbLine
 10
76.9014372371
 20
164.3369849358
 30
0.0
 11
76.95938164
 21
164.3369849439
 31
0.0
  0
LINE
  5
3D9
330
2DA
100
AcDbEntity
  8
DV3_Default
  6
Continuous
 62
     7
100
AcDbLine
 10
76.9593816838
 20
164.3369849439
 30
0.0
 11
77.1127802065
 21
164.3369849513
 31
0.0
  0
LINE
  5
3DA
330
2DA
100
AcDbEntity
  8
DV3_Default
  6
Continuous
 62
     7
100
AcDbLine
 10
77.1127801835
 20
164.3369849513
 30
0.0
 11
77.278444826
 21
164.3369849539
 31
0.0
  0
LINE
  5
3DB
330
2DA
100
AcDbEntity
  8
DV3_Default
  6
Continuous
 62
     7
100
AcDbLine
 10
77.2784447863
 20
164.3369849539
 30
0.0
 11
77.4393438459
 21
164.3369849564
 31
0.0
  0
LINE
  5
3DC
330
2DA
100
AcDbEntity
  8
DV3_Default
  6
Continuous
 62
     7
100
AcDbLine
 10
77.4393527391
 20
164.3369849294
 30
0.0
 11
95.924880028
 21
164.3369850836
 31
0.0
  0
LINE
  5
3DD
330
2DA
100
AcDbEntity
  8
DV3_Default
  6
Continuous
 62
     7
100
AcDbLine
 10
95.924880028
 20
164.3369850836
 30
0.0
 11
114.4104394626
 21
164.3369847707
 31
0.0
  0
LINE
  5
3DE
330
2DA
100
AcDbEntity
  8
DV3_Default
  6
Continuous
 62
     7
100
AcDbLine
 10
114.4105398942
 20
164.3369848974
 30
0.0
 11
114.5706669715
 21
164.3369848944
 31
0.0
  0
LINE
  5
3DF
330
2DA
100
AcDbEntity
  8
DV3_Default
  6
Continuous
 62
     7
100
AcDbLine
 10
114.5706669562
 20
164.3369848944
 30
0.0
 11
114.7365794513
 21
164.3369848912
 31
0.0
  0
LINE
  5
3E0
330
2DA
100
AcDbEntity
  8
DV3_Default
  6
Continuous
 62
     7
100
AcDbLine
 10
114.7365794359
 20
164.3369848912
 30
0.0
 11
114.8898119808
 21
164.3369848834
 31
0.0
  0
LINE
  5
3E1
330
2DA
100
AcDbEntity
  8
DV3_Default
  6
Continuous
 62
     7
100
AcDbLine
 10
114.8898120467
 20
164.3369848834
 30
0.0
 11
114.9476694298
 21
164.3369848751
 31
0.0
  0
LINE
  5
3E2
330
2DA
100
AcDbEntity
  8
DV3_Default
  6
Continuous
 62
     7
100
AcDbLine
 10
114.9476695439
 20
164.3369848751
 30
0.0
 11
115.0033629492
 21
164.3369848671
 31
0.0
  0
LINE
  5
3E3
330
2DA
100
AcDbEntity
  8
DV3_Default
  6
Continuous
 62
     7
100
AcDbLine
 10
115.0032613632
 20
164.3369848692
 30
0.0
 11
118.114869707
 21
164.3369839822
 31
0.0
  0
LINE
  5
3E4
330
2DA
100
AcDbEntity
  8
DV3_Default
  6
Continuous
 62
     7
100
AcDbLine
 10
101.060380919
 20
164.3369826981
 30
0.0
 11
101.4453465924
 21
164.3369827098
 31
0.0
  0
LINE
  5
3E5
330
2DA
100
AcDbEntity
  8
DV3_Default
  6
Continuous
 62
     7
100
AcDbLine
 10
112.4242338514
 20
164.3369830431
 30
0.0
 11
112.6472344153
 21
164.3369830499
 31
0.0
  0
LINE
  5
3E6
330
2DA
100
AcDbEntity
  8
DV3_Default
  6
Continuous
 62
     7
100
AcDbLine
 10
112.6472344153
 20
164.3369830499
 30
0.0
 11
114.2708516367
 21
164.3369831276
 31
0.0
  0
LINE
  5
3E7
330
2DA
100
AcDbEntity
  8
DV3_Default
  6
Continuous
 62
     7
100
AcDbLine
 10
77.5789043423
 20
164.3369831861
 30
0.0
 11
79.2025217548
 21
164.3369831033
 31
0.0
  0
LINE
  5
3E8
330
2DA
100
AcDbEntity
  8
DV3_Default
  6
Continuous
 62
     7
100
AcDbLine
 10
79.2025217548
 20
164.3369831032
 30
0.0
 11
81.8772531195
 21
164.3369831105
 31
0.0
  0
LINE
  5
3E9
330
2DA
100
AcDbEntity
  8
DV3_Default
  6
Continuous
 62
     7
100
AcDbLine
 10
89.924806708
 20
164.3369831325
 30
0.0
 11
90.4635814537
 21
164.336983134
 31
0.0
  0
LINE
  5
3EA
330
2DA
100
AcDbEntity
  8
DV3_Default
  6
Continuous
 62
     7
100
AcDbLine
 10
109.8967115795
 20
159.3369846521
 30
0.0
 11
108.0571665083
 21
159.3369845569
 31
0.0
  0
LINE
  5
3EB
330
2DA
100
AcDbEntity
  8
DV3_Default
  6
Continuous
 62
     7
100
AcDbLine
 10
107.9853503541
 20
159.3369845531
 30
0.0
 11
107.3292263144
 21
159.3369845192
 31
0.0
  0
LINE
  5
3EC
330
2DA
100
AcDbEntity
  8
DV3_Default
  6
Continuous
 62
     7
100
AcDbLine
 10
105.6948770282
 20
159.3369845845
 30
0.0
 11
106.1111396074
 21
159.3369845672
 31
0.0
  0
LINE
  5
3ED
330
2DA
100
AcDbEntity
  8
DV3_Default
  6
Continuous
 62
     7
100
AcDbLine
 10
106.1649303201
 20
159.3369845649
 30
0.0
 11
107.3292263176
 21
159.3369845165
 31
0.0
  0
LINE
  5
3EE
330
2DA
100
AcDbEntity
  8
DV3_Default
  6
Continuous
 62
     7
100
AcDbLine
 10
88.1548768873
 20
159.3369846309
 30
0.0
 11
103.694877087
 21
159.3369846499
 31
0.0
  0
LINE
  5
3EF
330
2DA
100
AcDbEntity
  8
DV3_Default
  6
Continuous
 62
     7
100
AcDbLine
 10
84.5205276816
 20
159.336984507
 30
0.0
 11
85.6737364301
 21
159.3369845585
 31
0.0
  0
LINE
  5
3F0
330
2DA
100
AcDbEntity
  8
DV3_Default
  6
Continuous
 62
     7
100
AcDbLine
 10
85.7494840217
 20
159.3369845619
 30
0.0
 11
86.154877026
 21
159.33698458
 31
0.0
  0
LINE
  5
3F1
330
2DA
100
AcDbEntity
  8
DV3_Default
  6
Continuous
 62
     7
100
AcDbLine
 10
114.7671717746
 20
159.3369848646
 30
0.0
 11
114.5980269802
 21
159.336984877
 31
0.0
  0
LINE
  5
3F2
330
2DA
100
AcDbEntity
  8
DV3_Default
  6
Continuous
 62
     7
100
AcDbLine
 10
114.5980269802
 20
159.336984877
 30
0.0
 11
114.3279194838
 21
159.3369848954
 31
0.0
  0
LINE
  5
3F3
330
2DA
100
AcDbEntity
  8
DV3_Default
  6
Continuous
 62
     7
100
AcDbLine
 10
114.3279194838
 20
159.3369848954
 30
0.0
 11
95.9248768556
 21
159.3369850712
 31
0.0
  0
LINE
  5
3F4
330
2DA
100
AcDbEntity
  8
DV3_Default
  6
Continuous
 62
     7
100
AcDbLine
 10
95.9248768556
 20
159.3369850712
 30
0.0
 11
77.5218461657
 21
159.3369849458
 31
0.0
  0
LINE
  5
3F5
330
2DA
100
AcDbEntity
  8
DV3_Default
  6
Continuous
 62
     7
100
AcDbLine
 10
77.5218461657
 20
159.3369849458
 30
0.0
 11
77.2517252714
 21
159.3369849366
 31
0.0
  0
LINE
  5
3F6
330
2DA
100
AcDbEntity
  8
DV3_Default
  6
Continuous
 62
     7
100
AcDbLine
 10
77.2517252714
 20
159.3369849366
 30
0.0
 11
77.0825321762
 21
159.3369849332
 31
0.0
  0
LINE
  5
3F7
330
2DA
100
AcDbEntity
  8
DV3_Default
  6
Continuous
 62
     7
100
AcDbLine
 10
77.0825822194
 20
159.3369831051
 30
0.0
 11
77.2517270137
 21
159.3369830902
 31
0.0
  0
LINE
  5
3F8
330
2DA
100
AcDbEntity
  8
DV3_Default
  6
Continuous
 62
     7
100
AcDbLine
 10
77.2517270137
 20
159.3369830902
 30
0.0
 11
77.5218345101
 21
159.336983091
 31
0.0
  0
LINE
  5
3F9
330
2DA
100
AcDbEntity
  8
DV3_Default
  6
Continuous
 62
     7
100
AcDbLine
 10
77.5218345101
 20
159.336983091
 30
0.0
 11
78.9865216577
 21
159.3369830755
 31
0.0
  0
LINE
  5
3FA
330
2DA
100
AcDbEntity
  8
DV3_Default
  6
Continuous
 62
     7
100
AcDbLine
 10
79.0513028644
 20
159.3369830748
 30
0.0
 11
79.6930914318
 21
159.336983068
 31
0.0
  0
LINE
  5
3FB
330
2DA
100
AcDbEntity
  8
DV3_Default
  6
Continuous
 62
     7
100
AcDbLine
 10
79.8845126025
 20
159.336983066
 30
0.0
 11
83.8375233195
 21
159.3369830241
 31
0.0
  0
LINE
  5
3FC
330
2DA
100
AcDbEntity
  8
DV3_Default
  6
Continuous
 62
     7
100
AcDbLine
 10
83.8611106589
 20
159.3369830238
 30
0.0
 11
84.5182877412
 21
159.3369830169
 31
0.0
  0
LINE
  5
3FD
330
2DA
100
AcDbEntity
  8
DV3_Default
  6
Continuous
 62
     7
100
AcDbLine
 10
107.332397933
 20
159.3369829753
 30
0.0
 11
107.9874568903
 21
159.3369829798
 31
0.0
  0
LINE
  5
3FE
330
2DA
100
AcDbEntity
  8
DV3_Default
  6
Continuous
 62
     7
100
AcDbLine
 10
108.0547697257
 20
159.3369829803
 30
0.0
 11
108.3588283774
 21
159.3369829824
 31
0.0
  0
LINE
  5
3FF
330
2DA
100
AcDbEntity
  8
DV3_Default
  6
Continuous
 62
     7
100
AcDbLine
 10
108.4442435402
 20
159.336982983
 30
0.0
 11
112.5745342291
 21
159.3369830117
 31
0.0
  0
LINE
  5
400
330
2DA
100
AcDbEntity
  8
DV3_Default
  6
Continuous
 62
     7
100
AcDbLine
 10
112.7422943556
 20
159.3369830129
 30
0.0
 11
114.3279078283
 21
159.3369830239
 31
0.0
  0
LINE
  5
401
330
2DA
100
AcDbEntity
  8
DV3_Default
  6
Continuous
 62
     7
100
AcDbLine
 10
114.3279078283
 20
159.3369830239
 30
0.0
 11
114.5980287226
 21
159.3369830306
 31
0.0
  0
LINE
  5
402
330
2DA
100
AcDbEntity
  8
DV3_Default
  6
Continuous
 62
     7
100
AcDbLine
 10
114.5980287226
 20
159.3369830306
 30
0.0
 11
114.7672218177
 21
159.3369830533
 31
0.0
  0
LINE
  5
403
330
2DA
100
AcDbEntity
  8
DV3_Default
  6
Continuous
 62
     7
100
AcDbLine
 10
81.9530438981
 20
159.3369832755
 30
0.0
 11
80.281712727
 21
159.3369833417
 31
0.0
  0
LINE
  5
404
330
2DA
100
AcDbEntity
  8
DV3_Default
  6
Continuous
 62
     7
100
AcDbLine
 10
78.4266287839
 20
159.3369840115
 30
0.0
 11
80.281712727
 21
159.3369833403
 31
0.0
  0
LINE
  5
405
330
2DA
100
AcDbEntity
  8
DV3_Default
  6
Continuous
 62
     7
100
AcDbLine
 10
78.4266287839
 20
159.3369840115
 30
0.0
 11
79.3794728194
 21
159.3369843014
 31
0.0
  0
LINE
  5
406
330
2DA
100
AcDbEntity
  8
DV3_Default
  6
Continuous
 62
     7
100
AcDbLine
 10
79.4792920866
 20
159.3369843318
 30
0.0
 11
80.2817112283
 21
159.3369845759
 31
0.0
  0
LINE
  5
407
330
2DA
100
AcDbEntity
  8
DV3_Default
  6
Continuous
 62
     7
100
AcDbLine
 10
80.2817112283
 20
159.3369846728
 30
0.0
 11
81.9530410146
 21
159.3369847026
 31
0.0
  0
LINE
  5
408
330
2DA
100
AcDbEntity
  8
DV3_Default
  6
Continuous
 62
     7
100
AcDbLine
 10
86.1548768948
 20
159.3369847529
 30
0.0
 11
86.4048767812
 21
159.3369847662
 31
0.0
  0
LINE
  5
409
330
2DA
100
AcDbEntity
  8
DV3_Default
  6
Continuous
 62
     7
100
AcDbLine
 10
86.4048767812
 20
159.3369847657
 30
0.0
 11
87.9048768873
 21
159.3369847622
 31
0.0
  0
LINE
  5
40A
330
2DA
100
AcDbEntity
  8
DV3_Default
  6
Continuous
 62
     7
100
AcDbLine
 10
87.9048768873
 20
159.3369847622
 30
0.0
 11
88.1548768948
 21
159.3369847505
 31
0.0
  0
LINE
  5
40B
330
2DA
100
AcDbEntity
  8
DV3_Default
  6
Continuous
 62
     7
100
AcDbLine
 10
103.6948771002
 20
159.3369847252
 30
0.0
 11
103.9448771076
 21
159.3369847371
 31
0.0
  0
LINE
  5
40C
330
2DA
100
AcDbEntity
  8
DV3_Default
  6
Continuous
 62
     7
100
AcDbLine
 10
105.4448771076
 20
159.3369847347
 30
0.0
 11
103.9448771076
 21
159.3369847371
 31
0.0
  0
LINE
  5
40D
330
2DA
100
AcDbEntity
  8
DV3_Default
  6
Continuous
 62
     7
100
AcDbLine
 10
105.4448771076
 20
159.3369847347
 30
0.0
 11
105.6948771002
 21
159.336984722
 31
0.0
  0
LINE
  5
40E
330
2DA
100
AcDbEntity
  8
DV3_Default
  6
Continuous
 62
     7
100
AcDbLine
 10
109.8967115795
 20
159.3369846521
 30
0.0
 11
111.5680427666
 21
159.3369846276
 31
0.0
  0
LINE
  5
40F
330
2DA
100
AcDbEntity
  8
DV3_Default
  6
Continuous
 62
     7
100
AcDbLine
 10
113.4231252126
 20
159.3369839557
 30
0.0
 11
112.7503509511
 21
159.3369841993
 31
0.0
  0
LINE
  5
410
330
2DA
100
AcDbEntity
  8
DV3_Default
  6
Continuous
 62
     7
100
AcDbLine
 10
112.5920506438
 20
159.3369842567
 30
0.0
 11
112.4709452873
 21
159.3369843005
 31
0.0
  0
LINE
  5
411
330
2DA
100
AcDbEntity
  8
DV3_Default
  6
Continuous
 62
     7
100
AcDbLine
 10
112.3707853127
 20
159.3369843368
 30
0.0
 11
111.5680427666
 21
159.3369846276
 31
0.0
  0
LINE
  5
412
330
2DA
100
AcDbEntity
  8
DV3_Default
  6
Continuous
 62
     7
100
AcDbLine
 10
113.4231252126
 20
159.3369839557
 30
0.0
 11
112.7503509029
 21
159.3369837154
 31
0.0
  0
LINE
  5
413
330
2DA
100
AcDbEntity
  8
DV3_Default
  6
Continuous
 62
     7
100
AcDbLine
 10
112.5920506566
 20
159.3369836588
 30
0.0
 11
112.4709453505
 21
159.3369836156
 31
0.0
  0
LINE
  5
414
330
2DA
100
AcDbEntity
  8
DV3_Default
  6
Continuous
 62
     7
100
AcDbLine
 10
112.3707849026
 20
159.3369835798
 30
0.0
 11
111.5680412679
 21
159.3369832931
 31
0.0
  0
LINE
  5
415
330
2DA
100
AcDbEntity
  8
DV3_Default
  6
Continuous
 62
     7
100
AcDbLine
 10
111.5680412679
 20
159.3369832931
 30
0.0
 11
109.8967100819
 21
159.3369832266
 31
0.0
  0
LINE
  5
416
330
2DA
100
AcDbEntity
  8
DV3_Default
  6
Continuous
 62
     7
100
AcDbLine
 10
109.8967100819
 20
159.3369832578
 30
0.0
 11
108.057166392
 21
159.3369833536
 31
0.0
  0
LINE
  5
417
330
2DA
100
AcDbEntity
  8
DV3_Default
  6
Continuous
 62
     7
100
AcDbLine
 10
107.9853564353
 20
159.3369833573
 30
0.0
 11
107.3292263173
 21
159.3369833915
 31
0.0
  0
LINE
  5
418
330
2DA
100
AcDbEntity
  8
DV3_Default
  6
Continuous
 62
     7
100
AcDbLine
 10
115.2398572794
 20
159.8369848707
 30
0.0
 11
118.4116759022
 21
159.8369839511
 31
0.0
  0
ARC
  5
419
330
2DA
100
AcDbEntity
  8
DV3_Default
  6
Continuous
 62
     7
100
AcDbCircle
 10
117.9238086785
 20
159.8364588379
 30
0.0
 40
0.4994750336540277
100
AcDbArc
 50
269.9564632334
 51
282.0799037661
  0
LINE
  5
41A
330
2DA
100
AcDbEntity
  8
DV3_Default
  6
Continuous
 62
     7
100
AcDbLine
 10
118.4231265393
 20
159.8369839477
 30
0.0
 11
118.4231265457
 21
163.8369839477
 31
0.0
  0
LINE
  5
41B
330
2DA
100
AcDbEntity
  8
DV3_Default
  6
Continuous
 62
     7
100
AcDbLine
 10
115.2396704011
 20
163.8369616897
 30
0.0
 11
118.4231265457
 21
163.8369839477
 31
0.0
  0
SPLINE
  5
41C
330
2DA
100
AcDbEntity
  8
DV3_Default
  6
Continuous
 62
     7
100
AcDbSpline
210
0.0
220
0.0
230
1.0
 70
     8
 71
     3
 72
    11
 73
     7
 74
     0
 42
0.0000001304458812
 43
0.0000000001
 40
0.0
 40
0.0
 40
0.0
 40
0.0
 40
0.2482057766359756
 40
0.494523937484442
 40
0.7436179878068444
 40
1.0
 40
1.0
 40
1.0
 40
1.0
 10
115.1837815523455
 20
163.7906049517407
 30
0.0
 10
115.1881300784189
 20
163.7977305423031
 30
0.0
 10
115.1966579356329
 20
163.8119275329978
 30
0.0
 10
115.2105102702355
 20
163.8261527940568
 30
0.0
 10
115.2249484790454
 20
163.835271916755
 30
0.0
 10
115.2348060969816
 20
163.8363930438895
 30
0.0
 10
115.2396704010949
 20
163.8369616896691
 30
0.0
  0
ARC
  5
41D
330
2DA
100
AcDbEntity
  8
DV3_Default
  6
Continuous
 62
     7
100
AcDbCircle
 10
115.8076533594
 20
163.5156915112
 30
0.0
 40
0.68175760459806
100
AcDbArc
 50
156.2189784522
 51
180.0130833744
  0
LINE
  5
41E
330
2DA
100
AcDbEntity
  8
DV3_Default
  6
Continuous
 62
     7
100
AcDbLine
 10
115.1256762397
 20
163.4797232654
 30
0.0
 11
115.1259637303
 21
163.5155358332
 31
0.0
  0
LINE
  5
41F
330
2DA
100
AcDbEntity
  8
DV3_Default
  6
Continuous
 62
     7
100
AcDbLine
 10
115.1257615043
 20
160.194246298
 30
0.0
 11
115.1256762397
 21
163.4797232654
 31
0.0
  0
ARC
  5
420
330
2DA
100
AcDbEntity
  8
DV3_Default
  6
Continuous
 62
     7
100
AcDbCircle
 10
115.8485669841
 20
160.1683975385
 30
0.0
 40
0.7234048501804484
100
AcDbArc
 50
177.9522667519
 51
203.2279970158
  0
SPLINE
  5
421
330
2DA
100
AcDbEntity
  8
DV3_Default
  6
Continuous
 62
     7
100
AcDbSpline
210
0.0
220
0.0
230
1.0
 70
    12
 71
     3
 72
    10
 73
     6
 74
     0
 42
0.0000001300228008
 43
0.0000000001
 40
0.0
 40
0.0
 40
0.0
 40
0.0
 40
0.3333333333333
 40
0.6666666666667
 40
1.0
 40
1.0
 40
1.0
 40
1.0
 10
115.2398572793568
 20
159.8369848706812
 30
0.0
 41
1.0
 10
115.2330083247087
 20
159.8370762846087
 30
0.0
 41
1.0
 10
115.2197198547814
 20
159.8406232599453
 30
0.0
 41
1.0
 10
115.2004840408813
 20
159.8568185818121
 30
0.0
 41
1.0
 10
115.1891654729782
 20
159.8733005361247
 30
0.0
 41
1.0
 10
115.1837993534934
 20
159.8830931842844
 30
0.0
 41
1.0
  0
LINE
  5
422
330
2DA
100
AcDbEntity
  8
DV3_Default
  6
Continuous
 62
     7
100
AcDbLine
 10
114.4907913224
 20
159.8369849089
 30
0.0
 11
95.9248791323
 21
159.8369850959
 31
0.0
  0
LINE
  5
423
330
2DA
100
AcDbEntity
  8
DV3_Default
  6
Continuous
 62
     7
100
AcDbLine
 10
77.3589580332
 20
159.8369849682
 30
0.0
 11
95.9248791323
 21
159.8369850959
 31
0.0
  0
LINE
  5
424
330
2DA
100
AcDbEntity
  8
DV3_Default
  6
Continuous
 62
     7
100
AcDbLine
 10
76.6098937194
 20
159.8369849324
 30
0.0
 11
73.4380920507
 21
159.8369840229
 31
0.0
  0
ARC
  5
425
330
2DA
100
AcDbEntity
  8
DV3_Default
  6
Continuous
 62
     7
100
AcDbCircle
 10
73.9259453171
 20
159.8364589082
 30
0.0
 40
0.499475033708516
100
AcDbArc
 50
179.9397634235
 51
270.0435365786
  0
ARC
  5
426
330
2DA
100
AcDbEntity
  8
DV3_Default
  6
Continuous
 62
     7
100
AcDbCircle
 10
73.6766278055
 20
164.0869840191
 30
0.0
 40
0.2499999999999242
100
AcDbArc
 50
90.0000783997
 51
179.9999999085
  0
LINE
  5
427
330
2DA
100
AcDbEntity
  8
DV3_Default
  6
Continuous
 62
     7
100
AcDbLine
 10
118.4115315332
 20
164.0869839511
 30
0.0
 11
118.4231263173
 21
164.0869839477
 31
0.0
  0
ARC
  5
428
330
2DA
100
AcDbEntity
  8
DV3_Default
  6
Continuous
 62
     7
100
AcDbCircle
 10
118.1731262036
 20
164.0869839481
 30
0.0
 40
0.2500000000000751
100
AcDbArc
 50
0.0
 51
89.9999214174
  0
LINE
  5
429
330
2DA
100
AcDbEntity
  8
DV3_Default
  6
Continuous
 62
     7
100
AcDbLine
 10
118.4231265457
 20
163.8369839477
 30
0.0
 11
118.4231263173
 21
164.0869839477
 31
0.0
  0
LINE
  5
42A
330
2DA
100
AcDbEntity
  8
DV3_Default
  6
Continuous
 62
     7
100
AcDbLine
 10
114.8193897822
 20
163.4797246116
 30
0.0
 11
114.819474144
 21
160.1942463303
 31
0.0
  0
ARC
  5
42B
330
2DA
100
AcDbEntity
  8
DV3_Default
  6
Continuous
 62
     7
100
AcDbCircle
 10
114.4540012672
 20
160.1896695459
 30
0.0
 40
0.3653678563469285
100
AcDbArc
 50
302.9547953292
 51
0.7177323717
  0
ARC
  5
42C
330
2DA
100
AcDbEntity
  8
DV3_Default
  6
Continuous
 62
     7
100
AcDbCircle
 10
114.4917731466
 20
160.1410680919
 30
0.0
 40
0.3040847680349477
100
AcDbArc
 50
269.8150039401
 51
301.9643512597
  0
ARC
  5
42D
330
2DA
100
AcDbEntity
  8
DV3_Default
  6
Continuous
 62
     7
100
AcDbCircle
 10
114.4526044484
 20
163.4835341104
 30
0.0
 40
0.3668547474075937
100
AcDbArc
 50
1.8728683598
 51
56.9359566063
  0
ARC
  5
42E
330
2DA
100
AcDbEntity
  8
DV3_Default
  6
Continuous
 62
     7
100
AcDbCircle
 10
114.4937276433
 20
163.5389799594
 30
0.0
 40
0.2979816912327031
100
AcDbArc
 50
57.7462158648
 51
90.4232558845
  0
LINE
  5
42F
330
2DA
100
AcDbEntity
  8
DV3_Default
  6
Continuous
 62
     7
100
AcDbLine
 10
95.9248801912
 20
163.8369850959
 30
0.0
 11
114.4915264104
 21
163.8369535201
 31
0.0
  0
LINE
  5
430
330
2DA
100
AcDbEntity
  8
DV3_Default
  6
Continuous
 62
     7
100
AcDbLine
 10
77.3581822741
 20
163.8369617871
 30
0.0
 11
95.9248801912
 21
163.8369850959
 31
0.0
  0
ARC
  5
431
330
2DA
100
AcDbEntity
  8
DV3_Default
  6
Continuous
 62
     7
100
AcDbCircle
 10
77.3563344721
 20
163.5382707484
 30
0.0
 40
0.298696754231491
100
AcDbArc
 50
89.6455537949
 51
122.3511809332
  0
ARC
  5
432
330
2DA
100
AcDbEntity
  8
DV3_Default
  6
Continuous
 62
     7
100
AcDbCircle
 10
77.3992224394
 20
163.4809796821
 30
0.0
 40
0.370086981317009
100
AcDbArc
 50
123.2141970988
 51
174.6423018603
  0
LINE
  5
433
330
2DA
100
AcDbEntity
  8
DV3_Default
  6
Continuous
 62
     7
100
AcDbLine
 10
77.0299066312
 20
163.4797233413
 30
0.0
 11
77.0307286183
 21
163.5155359092
 31
0.0
  0
LINE
  5
434
330
2DA
100
AcDbEntity
  8
DV3_Default
  6
Continuous
 62
     7
100
AcDbLine
 10
77.0301495467
 20
160.194246374
 30
0.0
 11
77.0299066312
 21
163.4797233413
 31
0.0
  0
ARC
  5
435
330
2DA
100
AcDbEntity
  8
DV3_Default
  6
Continuous
 62
     7
100
AcDbCircle
 10
77.3976051058
 20
160.1909136901
 30
0.0
 40
0.3674225939272057
100
AcDbArc
 50
179.480295049
 51
236.9067496127
  0
ARC
  5
436
330
2DA
100
AcDbEntity
  8
DV3_Default
  6
Continuous
 62
     7
100
AcDbCircle
 10
77.3579759834
 20
160.1410638466
 30
0.0
 40
0.3040804642162943
100
AcDbArc
 50
238.0340501118
 51
270.1850411908
  0
LINE
  5
437
330
2DA
100
AcDbEntity
  8
DV3_Default
  6
Continuous
 62
     7
100
AcDbLine
 10
76.7234952452
 20
163.4797246572
 30
0.0
 11
76.7235247859
 21
160.194246376
 31
0.0
  0
ARC
  5
438
330
2DA
100
AcDbEntity
  8
DV3_Default
  6
Continuous
 62
     7
100
AcDbCircle
 10
76.0285795953
 20
160.161825659
 30
0.0
 40
0.6956541564719093
100
AcDbArc
 50
336.379165795
 51
2.6712158258
  0
SPLINE
  5
439
330
2DA
100
AcDbEntity
  8
DV3_Default
  6
Continuous
 62
     7
100
AcDbSpline
210
0.0
220
0.0
230
1.0
 70
    12
 71
     3
 72
    10
 73
     6
 74
     0
 42
0.000000130030298
 43
0.0000000001
 40
0.0
 40
0.0
 40
0.0
 40
0.0
 40
0.3333333333333
 40
0.6666666666667
 40
1.0
 40
1.0
 40
1.0
 40
1.0
 10
76.6659498235231
 20
159.8830894080073
 30
0.0
 41
1.0
 10
76.66057599058719
 20
159.8732872661197
 30
0.0
 41
1.0
 10
76.64924733048936
 20
159.8567931479928
 30
0.0
 41
1.0
 10
76.6300135555097
 20
159.8406170773456
 30
0.0
 41
1.0
 10
76.61673522267793
 20
159.8370738820839
 30
0.0
 41
1.0
 10
76.6098937194266
 20
159.8369849323502
 30
0.0
 41
1.0
  0
ARC
  5
43A
330
2DA
100
AcDbEntity
  8
DV3_Default
  6
Continuous
 62
     7
100
AcDbCircle
 10
76.0461097293
 20
163.5156145258
 30
0.0
 40
0.6778562017613782
100
AcDbArc
 50
358.3015717937
 51
23.9683066509
  0
SPLINE
  5
43B
330
2DA
100
AcDbEntity
  8
DV3_Default
  6
Continuous
 62
     7
100
AcDbSpline
210
0.0
220
0.0
230
1.0
 70
     8
 71
     3
 72
    10
 73
     6
 74
     0
 42
0.0000001307746263
 43
0.0000000001
 40
0.0
 40
0.0
 40
0.0
 40
0.0
 40
0.341515638419699
 40
0.6712261119192847
 40
1.0
 40
1.0
 40
1.0
 40
1.0
 10
76.60992506592348
 20
163.8369535435438
 30
0.0
 10
76.61616698957113
 20
163.8359201911394
 30
0.0
 10
76.62919877574862
 20
163.8338892061905
 30
0.0
 10
76.64822092236746
 20
163.818412216636
 30
0.0
 10
76.65962613071716
 20
163.8001159964723
 30
0.0
 10
76.66551459796106
 20
163.7909808980648
 30
0.0
  0
LINE
  5
43C
330
2DA
100
AcDbEntity
  8
DV3_Default
  6
Continuous
 62
     7
100
AcDbLine
 10
73.4266274626
 20
163.8369840195
 30
0.0
 11
76.6099250659
 21
163.8369535435
 31
0.0
  0
LINE
  5
43D
330
2DA
100
AcDbEntity
  8
DV3_Default
  6
Continuous
 62
     7
100
AcDbLine
 10
73.4266274562
 20
159.8369840195
 30
0.0
 11
73.4266274626
 21
163.8369840195
 31
0.0
  0
LINE
  5
43E
330
2DA
100
AcDbEntity
  8
DV3_Default
  6
Continuous
 62
     7
100
AcDbLine
 10
73.4266274626
 20
163.8369840195
 30
0.0
 11
73.4266276918
 21
164.0869840195
 31
0.0
  0
LINE
  5
43F
330
2DA
100
AcDbEntity
  8
DV3_Default
  6
Continuous
 62
     7
100
AcDbLine
 10
118.0277413261
 20
159.3500736819
 30
0.0
 11
118.1501886966
 21
159.418695956
 31
0.0
  0
ARC
  5
440
330
2DA
100
AcDbEntity
  8
DV3_Default
  6
Continuous
 62
     7
100
AcDbCircle
 10
116.0311904817
 20
2820.1096128167
 30
0.0
 40
2660.763224362679
100
AcDbArc
 50
269.974781649
 51
270.0418974499
  0
ARC
  5
441
330
2DA
100
AcDbEntity
  8
DV3_Default
  6
Continuous
 62
     7
100
AcDbCircle
 10
117.910964763
 20
159.8377001346
 30
0.0
 40
0.5008073059065558
100
AcDbArc
 50
292.4240499512
 51
359.9180696462
  0
ARC
  5
442
330
2DA
100
AcDbEntity
  8
DV3_Default
  6
Continuous
 62
     7
100
AcDbCircle
 10
73.9387857814
 20
159.8376969519
 30
0.0
 40
0.5008038556906467
100
AcDbArc
 50
180.0815585822
 51
247.5298363166
  0
LINE
  5
443
330
2DA
100
AcDbEntity
  8
DV3_Default
  6
Continuous
 62
     7
100
AcDbLine
 10
73.6992840826
 20
159.4188809074
 30
0.0
 11
73.8217600791
 21
159.3501302085
 31
0.0
  0
ARC
  5
444
330
2DA
100
AcDbEntity
  8
DV3_Default
  6
Continuous
 62
     7
100
AcDbCircle
 10
75.8184116436
 20
3098.2733518648
 30
0.0
 40
2938.926888724775
100
AcDbArc
 50
269.962070335
 51
270.0228297518
  0
LINE
  5
445
330
2DA
100
AcDbEntity
  8
DV3_Default
  6
Continuous
 62
     7
100
AcDbLine
 10
73.7698416099
 20
164.3328798585
 30
0.0
 11
73.678894468
 21
164.3328336054
 31
0.0
  0
LINE
  5
446
330
2DA
100
AcDbEntity
  8
DV3_Default
  6
Continuous
 62
     7
100
AcDbLine
 10
73.6303602606
 20
164.3313547651
 30
0.0
 11
73.5903842365
 21
164.2980680767
 31
0.0
  0
ARC
  5
447
330
2DA
100
AcDbEntity
  8
DV3_Default
  6
Continuous
 62
     7
100
AcDbCircle
 10
73.6892915901
 20
164.0859818919
 30
0.0
 40
0.2509305042228058
100
AcDbArc
 50
111.1041411255
 51
179.771167579
  0
LINE
  5
448
330
2DA
100
AcDbEntity
  8
DV3_Default
  6
Continuous
 62
     7
100
AcDbLine
 10
73.6956767064
 20
164.3200819754
 30
0.0
 11
73.6929536605
 21
164.328838039
 31
0.0
  0
LINE
  5
449
330
2DA
100
AcDbEntity
  8
DV3_Default
  6
Continuous
 62
     7
100
AcDbLine
 10
118.1573598246
 20
164.3285922569
 30
0.0
 11
118.1553837411
 21
164.3201310361
 31
0.0
  0
ARC
  5
44A
330
2DA
100
AcDbEntity
  8
DV3_Default
  6
Continuous
 62
     7
100
AcDbCircle
 10
118.1606139641
 20
164.0859868282
 30
0.0
 40
0.250925834156585
100
AcDbArc
 50
0.2276930439
 51
68.926625311
  0
LINE
  5
44B
330
2DA
100
AcDbEntity
  8
DV3_Default
  6
Continuous
 62
     7
100
AcDbLine
 10
118.2598517403
 20
164.2981375127
 30
0.0
 11
118.2193494913
 21
164.3313623572
 31
0.0
  0
LINE
  5
44C
330
2DA
100
AcDbEntity
  8
DV3_Default
  6
Continuous
 62
     7
100
AcDbLine
 10
118.1714359208
 20
164.3328361416
 30
0.0
 11
118.1569786439
 21
164.3328441065
 31
0.0
  0
ENDBLK
  5
44E
330
2DA
100
AcDbEntity
  8
0
100
AcDbBlockEnd
  0
ENDSEC
  0
SECTION
  2
ENTITIES
  0
LINE
  5
5E
330
1F
100
AcDbEntity
  8
Default
  6
Continuous
 62
     7
100
AcDbLine
 10
105.2838146692
 20
395.3855927166
 30
0.0
 11
105.2560409406
 21
395.2072954549
 31
0.0
  0
LINE
  5
5F
330
1F
100
AcDbEntity
  8
Default
  6
Continuous
 62
     7
100
AcDbLine
 10
86.573052653
 20
395.2976074892
 30
0.0
 11
86.5935714586
 21
395.2073982056
 31
0.0
  0
LINE
  5
60
330
1F
100
AcDbEntity
  8
Default
  6
Continuous
 62
     7
100
AcDbLine
 10
86.469392579
 20
395.7803950342
 30
0.0
 11
86.4875449006
 21
395.6911388306
 31
0.0
  0
LINE
  5
61
330
1F
100
AcDbEntity
  8
Default
  6
Continuous
 62
     7
100
AcDbLine
 10
13.8881318007
 20
116.3500019824
 30
0.0
 11
15.1840247175
 21
116.3500019824
 31
0.0
  0
LINE
  5
62
330
1F
100
AcDbEntity
  8
Default
  6
Continuous
 62
     7
100
AcDbLine
 10
21.7812977486
 20
116.3500019824
 30
0.0
 11
22.8415737714
 21
116.3500019824
 31
0.0
  0
LINE
  5
63
330
1F
100
AcDbEntity
  8
Default
  6
Continuous
 62
     7
100
AcDbLine
 10
61.0704148172
 20
116.3500019824
 30
0.0
 11
62.5430204044
 21
116.3500019824
 31
0.0
  0
LINE
  5
64
330
1F
100
AcDbEntity
  8
Default
  6
Continuous
 62
     7
100
AcDbLine
 10
95.945210922
 20
106.3577963096
 30
0.0
 11
53.0005361989
 21
106.3577963096
 31
0.0
  0
LINE
  5
65
330
1F
100
AcDbEntity
  8
Default
  6
Continuous
 62
     7
100
AcDbLine
 10
12.8198576809
 20
106.3500019824
 30
0.0
 11
14.4134407725
 21
106.3500019824
 31
0.0
  0
LINE
  5
66
330
1F
100
AcDbEntity
  8
Default
  6
Continuous
 62
     7
100
AcDbLine
 10
15.9007849913
 20
106.3500019824
 30
0.0
 11
14.3159773552
 21
106.3500019824
 31
0.0
  0
LINE
  5
67
330
1F
100
AcDbEntity
  8
Default
  6
Continuous
 62
     7
100
AcDbLine
 10
15.9007849913
 20
106.3474089018
 30
0.0
 11
19.9378621565
 21
106.4005283382
 31
0.0
  0
LINE
  5
68
330
1F
100
AcDbEntity
  8
Default
  6
Continuous
 62
     7
100
AcDbLine
 10
36.8495982766
 20
106.3808637133
 30
0.0
 11
37.8476630412
 21
106.3670735266
 31
0.0
  0
INSERT
  5
6A
330
1F
100
AcDbEntity
  8
Default
100
AcDbBlockReference
  2
SEANNOT_GROUP
 10
0.0
 20
0.0
 30
0.0
  0
LINE
  5
70
330
1F
100
AcDbEntity
  8
Default
  6
Continuous
 62
     7
100
AcDbLine
 10
95.9248791323
 20
401.0873185543
 30
0.0
 11
97.383573398
 21
401.0873185543
 31
0.0
  0
INSERT
  5
72
330
1F
100
AcDbEntity
  8
Default
100
AcDbBlockReference
  2
SEANNOT_GROUP1
 10
0.0
 20
0.0
 30
0.0
  0
INSERT
  5
78
330
1F
100
AcDbEntity
  8
Default
100
AcDbBlockReference
  2
SEANNOT_GROUP2
 10
0.0
 20
0.0
 30
0.0
  0
INSERT
  5
7E
330
1F
100
AcDbEntity
  8
Default
100
AcDbBlockReference
  2
SE
 10
0.0
 20
0.0
 30
0.0
  0
INSERT
  5
1CB
330
1F
100
AcDbEntity
  8
Default
100
AcDbBlockReference
  2
SE1
 10
0.0
 20
0.0
 30
0.0
  0
INSERT
  5
2DB
330
1F
100
AcDbEntity
  8
Default
100
AcDbBlockReference
  2
SE2
 10
0.0
 20
0.0
 30
0.0
  0
TEXT
  5
450
330
1F
100
AcDbEntity
  8
Default
  6
Continuous
 62
     7
100
AcDbText
 10
5.9362635081
 20
53.4225120485
 30
0.0
 40
10.0
  1
Grohe AG^J
  7
SEACAD_seiso_ttf
 11
5.9362635081
 21
63.4225120485
 31
0.0
100
AcDbText
 73
     3
  0
TEXT
  5
451
330
1F
100
AcDbEntity
  8
Default
  6
Continuous
 62
     7
100
AcDbText
 10
5.9362635081
 20
37.0588756849
 30
0.0
 40
10.0
  1
 
  7
SEACAD_seiso_ttf
 11
5.9362635081
 21
47.0588756849
 31
0.0
100
AcDbText
 73
     3
  0
TEXT
  5
452
330
1F
100
AcDbEntity
  8
Default
  6
Continuous
 62
     7
100
AcDbText
 10
5.9362635081
 20
20.6952393213
 30
0.0
 40
10.0
  1
ecn:
  7
SEACAD_seiso_ttf
 11
5.9362635081
 21
30.6952393213
 31
0.0
100
AcDbText
 73
     3
  0
TEXT
  5
453
330
1F
100
AcDbEntity
  8
Default
  6
Continuous
 62
     7
100
AcDbText
 10
5.9362635081
 20
4.3316029576
 30
0.0
 40
10.0
  1
unit: mm
  7
SEACAD_seiso_ttf
 11
5.9362635081
 21
14.3316029576
 31
0.0
100
AcDbText
 73
     3
  0
LINE
  5
454
330
1F
100
AcDbEntity
  8
Default
  6
Continuous
 62
     7
100
AcDbLine
 10
0.0
 20
0.0
 30
0.0
 11
100.0
 21
0.0
 31
0.0
  0
LINE
  5
455
330
1F
100
AcDbEntity
  8
Default
  6
Continuous
 62
     7
100
AcDbLine
 10
0.0
 20
0.0
 30
0.0
 11
0.0
 21
100.0
 31
0.0
  0
TEXT
  5
456
330
1F
100
AcDbEntity
  8
Default
  6
Continuous
 62
     7
100
AcDbText
 10
24.3923665681
 20
-18.2375342018
 30
0.0
 40
10.0
  1
100 mm
  7
SEACAD_seiso_ttf
 11
24.3923665681
 21
-8.2375342018
 31
0.0
100
AcDbText
 73
     3
  0
TEXT
  5
457
330
1F
100
AcDbEntity
  8
Default
  6
Continuous
 62
     7
100
AcDbText
 10
-7.6150308803
 20
24.6231930421
 30
0.0
 40
10.0
  1
100 mm
 50
90.0
  7
SEACAD_seiso_ttf
 11
-17.6150308803
 21
24.6231930421
 31
0.0
100
AcDbText
 73
     3
  0
TEXT
  5
458
330
1F
100
AcDbEntity
  8
Default
  6
Continuous
 62
     7
100
AcDbText
 10
28.4878128572
 20
20.0907663715
 30
0.0
 40
10.0
  1
227068
  7
SEACAD_seiso_ttf
 11
28.4878128572
 21
30.0907663715
 31
0.0
100
AcDbText
 73
     3
  0
TEXT
  5
459
330
1F
100
AcDbEntity
  8
Default
  6
Continuous
 62
     7
100
AcDbText
 10
5.9012241913
 20
36.7242780188
 30
0.0
 40
10.0
  1
40630000
  7
SEACAD_seiso_ttf
 11
5.9012241913
 21
46.7242780188
 31
0.0
100
AcDbText
 73
     3
  0
ENDSEC
  0
SECTION
  2
OBJECTS
  0
DICTIONARY
  5
C
330
0
100
AcDbDictionary
281
     1
  3
ACAD_GROUP
350
D
  3
ACAD_LAYOUT
350
1A
  3
ACAD_MLEADERSTYLE
350
45D
  3
ACAD_MLINESTYLE
350
17
  3
ACAD_PLOTSETTINGS
350
19
  3
ACAD_PLOTSTYLENAME
350
E
  3
ACAD_SCALELIST
350
3B
  3
ACAD_TABLESTYLE
350
45C
  3
ACAD_VISUALSTYLE
350
2A
  3
AcDbVariableDictionary
350
45A
  0
DICTIONARY
  5
D
102
{ACAD_REACTORS
330
C
102
}
330
C
100
AcDbDictionary
281
     1
  0
DICTIONARY
  5
1A
102
{ACAD_REACTORS
330
C
102
}
330
C
100
AcDbDictionary
281
     1
  3
Layout1
350
1E
  3
Model
350
22
  0
DICTIONARY
  5
45D
102
{ACAD_REACTORS
330
C
102
}
330
C
100
AcDbDictionary
281
     1
  0
DICTIONARY
  5
17
102
{ACAD_REACTORS
330
C
102
}
330
C
100
AcDbDictionary
281
     1
  3
Standard
350
18
  0
DICTIONARY
  5
19
102
{ACAD_REACTORS
330
C
102
}
330
C
100
AcDbDictionary
281
     1
  0
ACDBDICTIONARYWDFLT
  5
E
102
{ACAD_REACTORS
330
C
102
}
330
C
100
AcDbDictionary
281
     1
  3
Normal
350
F
100
AcDbDictionaryWithDefault
340
F
  0
DICTIONARY
  5
3B
102
{ACAD_REACTORS
330
C
102
}
330
C
100
AcDbDictionary
281
     1
  3
A0
350
3C
  3
A1
350
3D
  3
A2
350
3E
  3
A3
350
3F
  3
A4
350
40
  3
A5
350
41
  3
A6
350
42
  3
A7
350
43
  3
A8
350
44
  3
A9
350
45
  3
B0
350
46
  3
B1
350
47
  3
B2
350
48
  3
B3
350
49
  3
B4
350
4A
  3
B5
350
4B
  3
B6
350
4C
  3
B7
350
4D
  3
B8
350
4E
  3
B9
350
4F
  3
C0
350
50
  3
C1
350
51
  3
C2
350
52
  3
C3
350
53
  3
C4
350
54
  3
C5
350
55
  3
C6
350
56
  3
C7
350
57
  3
C8
350
58
  3
C9
350
59
  3
D0
350
5A
  3
D1
350
5B
  3
D2
350
5C
  0
DICTIONARY
  5
45C
102
{ACAD_REACTORS
330
C
102
}
330
C
100
AcDbDictionary
281
     1
  0
DICTIONARY
  5
2A
102
{ACAD_REACTORS
330
C
102
}
330
C
100
AcDbDictionary
281
     1
  3
2dWireframe
350
2F
  3
3D Hidden
350
31
  3
3dWireframe
350
30
  3
Basic
350
32
  3
Brighten
350
36
  3
ColorChange
350
3A
  3
Conceptual
350
34
  3
Dim
350
35
  3
Facepattern
350
39
  3
Flat
350
2B
  3
FlatWithEdges
350
2C
  3
Gouraud
350
2D
  3
GouraudWithEdges
350
2E
  3
Linepattern
350
38
  3
Realistic
350
33
  3
Thicken
350
37
  0
DICTIONARY
  5
45A
102
{ACAD_REACTORS
330
C
102
}
330
C
100
AcDbDictionary
281
     1
  3
CANNOSCALE
350
45B
  3
PSOLHEIGHT
350
45F
  3
PSOLWIDTH
350
45E
  0
LAYOUT
  5
1E
102
{ACAD_REACTORS
330
1A
102
}
330
1A
100
AcDbPlotSettings
  1

  2
none_device
  4

  6

 40
0.0
 41
0.0
 42
0.0
 43
0.0
 44
0.0
 45
0.0
 46
0.0
 47
0.0
 48
0.0
 49
0.0
140
0.0
141
0.0
142
1.0
143
1.0
 70
   688
 72
     0
 73
     0
 74
     5
  7

 75
    16
147
1.0
148
0.0
149
0.0
100
AcDbLayout
  1
Layout1
 70
     1
 71
     1
 10
0.0
 20
0.0
 11
3000.0
 21
4500.0
 12
0.0
 22
0.0
 32
0.0
 14
0.0
 24
0.0
 34
0.0
 15
3000.0
 25
4500.0
 35
0.0
146
0.0
 13
0.0
 23
0.0
 33
0.0
 16
1.0
 26
0.0
 36
0.0
 17
0.0
 27
1.0
 37
0.0
 76
     0
330
1B
  0
LAYOUT
  5
22
102
{ACAD_REACTORS
330
1A
102
}
330
1A
100
AcDbPlotSettings
  1

  2
none_device
  4

  6

 40
0.0
 41
0.0
 42
0.0
 43
0.0
 44
0.0
 45
0.0
 46
0.0
 47
0.0
 48
0.0
 49
0.0
140
0.0
141
0.0
142
1.0
143
1.0
 70
  1712
 72
     0
 73
     0
 74
     0
  7

 75
     0
147
1.0
148
0.0
149
0.0
100
AcDbLayout
  1
Model
 70
     1
 71
     0
 10
0.0
 20
0.0
 11
3000.0
 21
4500.0
 12
0.0
 22
0.0
 32
0.0
 14
0.0
 24
0.0
 34
0.0
 15
3000.0
 25
4500.0
 35
0.0
146
0.0
 13
0.0
 23
0.0
 33
0.0
 16
1.0
 26
0.0
 36
0.0
 17
0.0
 27
1.0
 37
0.0
 76
     0
330
1F
331
29
  0
MLINESTYLE
  5
18
102
{ACAD_REACTORS
330
17
102
}
330
17
100
AcDbMlineStyle
  2
Standard
 70
     0
  3

 62
   256
 51
90.0
 52
90.0
 71
     2
 49
0.5
 62
   256
  6
BYLAYER
 49
-0.5
 62
   256
  6
BYLAYER
  0
ACDBPLACEHOLDER
  5
F
102
{ACAD_REACTORS
330
E
102
}
330
E
  0
SCALE
  5
3C
102
{ACAD_REACTORS
330
3B
102
}
330
3B
100
AcDbScale
 70
     0
300
1:1
140
1.0
141
1.0
290
     1
  0
SCALE
  5
3D
102
{ACAD_REACTORS
330
3B
102
}
330
3B
100
AcDbScale
 70
     0
300
1:2
140
1.0
141
2.0
290
     0
  0
SCALE
  5
3E
102
{ACAD_REACTORS
330
3B
102
}
330
3B
100
AcDbScale
 70
     0
300
1:4
140
1.0
141
4.0
290
     0
  0
SCALE
  5
3F
102
{ACAD_REACTORS
330
3B
102
}
330
3B
100
AcDbScale
 70
     0
300
1:5
140
1.0
141
5.0
290
     0
  0
SCALE
  5
40
102
{ACAD_REACTORS
330
3B
102
}
330
3B
100
AcDbScale
 70
     0
300
1:8
140
1.0
141
8.0
290
     0
  0
SCALE
  5
41
102
{ACAD_REACTORS
330
3B
102
}
330
3B
100
AcDbScale
 70
     0
300
1:10
140
1.0
141
10.0
290
     0
  0
SCALE
  5
42
102
{ACAD_REACTORS
330
3B
102
}
330
3B
100
AcDbScale
 70
     0
300
1:16
140
1.0
141
16.0
290
     0
  0
SCALE
  5
43
102
{ACAD_REACTORS
330
3B
102
}
330
3B
100
AcDbScale
 70
     0
300
1:20
140
1.0
141
20.0
290
     0
  0
SCALE
  5
44
102
{ACAD_REACTORS
330
3B
102
}
330
3B
100
AcDbScale
 70
     0
300
1:30
140
1.0
141
30.0
290
     0
  0
SCALE
  5
45
102
{ACAD_REACTORS
330
3B
102
}
330
3B
100
AcDbScale
 70
     0
300
1:40
140
1.0
141
40.0
290
     0
  0
SCALE
  5
46
102
{ACAD_REACTORS
330
3B
102
}
330
3B
100
AcDbScale
 70
     0
300
1:50
140
1.0
141
50.0
290
     0
  0
SCALE
  5
47
102
{ACAD_REACTORS
330
3B
102
}
330
3B
100
AcDbScale
 70
     0
300
1:100
140
1.0
141
100.0
290
     0
  0
SCALE
  5
48
102
{ACAD_REACTORS
330
3B
102
}
330
3B
100
AcDbScale
 70
     0
300
2:1
140
2.0
141
1.0
290
     0
  0
SCALE
  5
49
102
{ACAD_REACTORS
330
3B
102
}
330
3B
100
AcDbScale
 70
     0
300
4:1
140
4.0
141
1.0
290
     0
  0
SCALE
  5
4A
102
{ACAD_REACTORS
330
3B
102
}
330
3B
100
AcDbScale
 70
     0
300
8:1
140
8.0
141
1.0
290
     0
  0
SCALE
  5
4B
102
{ACAD_REACTORS
330
3B
102
}
330
3B
100
AcDbScale
 70
     0
300
10:1
140
10.0
141
1.0
290
     0
  0
SCALE
  5
4C
102
{ACAD_REACTORS
330
3B
102
}
330
3B
100
AcDbScale
 70
     0
300
100:1
140
100.0
141
1.0
290
     0
  0
SCALE
  5
4D
102
{ACAD_REACTORS
330
3B
102
}
330
3B
100
AcDbScale
 70
     0
300
1/128" = 1'-0"
140
0.0078125
141
12.0
290
     0
  0
SCALE
  5
4E
102
{ACAD_REACTORS
330
3B
102
}
330
3B
100
AcDbScale
 70
     0
300
1/64" = 1'-0"
140
0.015625
141
12.0
290
     0
  0
SCALE
  5
4F
102
{ACAD_REACTORS
330
3B
102
}
330
3B
100
AcDbScale
 70
     0
300
1/32" = 1'-0"
140
0.03125
141
12.0
290
     0
  0
SCALE
  5
50
102
{ACAD_REACTORS
330
3B
102
}
330
3B
100
AcDbScale
 70
     0
300
1/16" = 1'-0"
140
0.0625
141
12.0
290
     0
  0
SCALE
  5
51
102
{ACAD_REACTORS
330
3B
102
}
330
3B
100
AcDbScale
 70
     0
300
3/32" = 1'-0"
140
0.09375
141
12.0
290
     0
  0
SCALE
  5
52
102
{ACAD_REACTORS
330
3B
102
}
330
3B
100
AcDbScale
 70
     0
300
1/8" = 1'-0"
140
0.125
141
12.0
290
     0
  0
SCALE
  5
53
102
{ACAD_REACTORS
330
3B
102
}
330
3B
100
AcDbScale
 70
     0
300
3/16" = 1'-0"
140
0.1875
141
12.0
290
     0
  0
SCALE
  5
54
102
{ACAD_REACTORS
330
3B
102
}
330
3B
100
AcDbScale
 70
     0
300
1/4" = 1'-0"
140
0.25
141
12.0
290
     0
  0
SCALE
  5
55
102
{ACAD_REACTORS
330
3B
102
}
330
3B
100
AcDbScale
 70
     0
300
3/8" = 1'-0"
140
0.375
141
12.0
290
     0
  0
SCALE
  5
56
102
{ACAD_REACTORS
330
3B
102
}
330
3B
100
AcDbScale
 70
     0
300
1/2" = 1'-0"
140
0.5
141
12.0
290
     0
  0
SCALE
  5
57
102
{ACAD_REACTORS
330
3B
102
}
330
3B
100
AcDbScale
 70
     0
300
3/4" = 1'-0"
140
0.75
141
12.0
290
     0
  0
SCALE
  5
58
102
{ACAD_REACTORS
330
3B
102
}
330
3B
100
AcDbScale
 70
     0
300
1" = 1'-0"
140
1.0
141
12.0
290
     0
  0
SCALE
  5
59
102
{ACAD_REACTORS
330
3B
102
}
330
3B
100
AcDbScale
 70
     0
300
1-1/2" = 1'-0"
140
1.5
141
12.0
290
     0
  0
SCALE
  5
5A
102
{ACAD_REACTORS
330
3B
102
}
330
3B
100
AcDbScale
 70
     0
300
3" = 1'-0"
140
3.0
141
12.0
290
     0
  0
SCALE
  5
5B
102
{ACAD_REACTORS
330
3B
102
}
330
3B
100
AcDbScale
 70
     0
300
6" = 1'-0"
140
6.0
141
12.0
290
     0
  0
SCALE
  5
5C
102
{ACAD_REACTORS
330
3B
102
}
330
3B
100
AcDbScale
 70
     0
300
1'-0" = 1'-0"
140
12.0
141
12.0
290
     0
  0
VISUALSTYLE
  5
2F
102
{ACAD_REACTORS
330
2A
102
}
330
2A
100
AcDbVisualStyle
  2
2dWireframe
 70
     4
 71
     0
 72
     2
 73
     0
 90
        0
 40
-0.6
 41
-30.0
 62
     5
 63
     7
 74
     1
 91
        4
 64
     7
 65
   257
 75
     1
175
     1
 42
1.0
 92
        0
 66
   257
 43
1.0
 76
     1
 77
     6
 78
     2
 67
     7
 79
     5
170
     0
171
     0
290
     0
174
     0
 93
        1
 44
0.0
173
     0
291
     0
 45
0.0
1001
ACAD
1000
AcDbSavedByObjectVersion
1070
     0
  0
VISUALSTYLE
  5
31
102
{ACAD_REACTORS
330
2A
102
}
330
2A
100
AcDbVisualStyle
  2
3D Hidden
 70
     6
 71
     1
 72
     2
 73
     2
 90
        0
 40
-0.6
 41
-30.0
 62
     5
 63
     7
 74
     2
 91
        2
 64
     7
 65
   257
 75
     2
175
     1
 42
40.0
 92
        0
 66
   257
 43
1.0
 76
     1
 77
     6
 78
     2
 67
     7
 79
     3
170
     0
171
     0
290
     0
174
     0
 93
        1
 44
0.0
173
     0
291
     0
 45
0.0
1001
ACAD
1000
AcDbSavedByObjectVersion
1070
     0
  0
VISUALSTYLE
  5
30
102
{ACAD_REACTORS
330
2A
102
}
330
2A
100
AcDbVisualStyle
  2
3dWireframe
 70
     5
 71
     0
 72
     2
 73
     0
 90
        0
 40
-0.6
 41
-30.0
 62
     5
 63
     7
 74
     1
 91
        4
 64
     7
 65
   257
 75
     1
175
     1
 42
1.0
 92
        0
 66
   257
 43
1.0
 76
     1
 77
     6
 78
     2
 67
     7
 79
     5
170
     0
171
     0
290
     0
174
     0
 93
        1
 44
0.0
173
     0
291
     0
 45
0.0
1001
ACAD
1000
AcDbSavedByObjectVersion
1070
     0
  0
VISUALSTYLE
  5
32
102
{ACAD_REACTORS
330
2A
102
}
330
2A
100
AcDbVisualStyle
  2
Basic
 70
     7
 71
     1
 72
     0
 73
     1
 90
        0
 40
-0.6
 41
-30.0
 62
     5
 63
     7
 74
     0
 91
        4
 64
     7
 65
   257
 75
     1
175
     1
 42
1.0
 92
        8
 66
     7
 43
1.0
 76
     1
 77
     6
 78
     2
 67
     7
 79
     5
170
     0
171
     0
290
     0
174
     0
 93
        1
 44
0.0
173
     0
291
     1
 45
0.0
1001
ACAD
1000
AcDbSavedByObjectVersion
1070
     0
  0
VISUALSTYLE
  5
36
102
{ACAD_REACTORS
330
2A
102
}
330
2A
100
AcDbVisualStyle
  2
Brighten
 70
    12
 71
     2
 72
     2
 73
     0
 90
        0
 40
-0.6
 41
-30.0
 62
     5
 63
     7
 74
     1
 91
        4
 64
     7
 65
   257
 75
     1
175
     1
 42
1.0
 92
        8
 66
     7
 43
1.0
 76
     1
 77
     6
 78
     2
 67
     7
 79
     5
170
     0
171
     0
290
     0
174
     0
 93
        1
 44
50.0
173
     0
291
     1
 45
0.0
1001
ACAD
1000
AcDbSavedByObjectVersion
1070
     0
  0
VISUALSTYLE
  5
3A
102
{ACAD_REACTORS
330
2A
102
}
330
2A
100
AcDbVisualStyle
  2
ColorChange
 70
    16
 71
     2
 72
     2
 73
     3
 90
        0
 40
-0.6
 41
-30.0
 62
     5
 63
     8
 74
     1
 91
        4
 64
     7
 65
   257
 75
     1
175
     1
 42
1.0
 92
        8
 66
     8
 43
1.0
 76
     1
 77
     6
 78
     2
 67
     7
 79
     5
170
     0
171
     0
290
     0
174
     0
 93
        1
 44
0.0
173
     0
291
     1
 45
0.0
1001
ACAD
1000
AcDbSavedByObjectVersion
1070
     0
  0
VISUALSTYLE
  5
34
102
{ACAD_REACTORS
330
2A
102
}
330
2A
100
AcDbVisualStyle
  2
Conceptual
 70
     9
 71
     3
 72
     2
 73
     0
 90
        0
 40
-0.6
 41
-30.0
 62
     5
 63
     7
 74
     2
 91
        2
 64
     7
 65
   257
 75
     1
175
     1
 42
40.0
 92
        8
 66
     7
 43
1.0
 76
     1
 77
     6
 78
     2
 67
     7
 79
     3
170
     0
171
     0
290
     0
174
     0
 93
        1
 44
0.0
173
     0
291
     0
 45
0.0
1001
ACAD
1000
AcDbSavedByObjectVersion
1070
     0
  0
VISUALSTYLE
  5
35
102
{ACAD_REACTORS
330
2A
102
}
330
2A
100
AcDbVisualStyle
  2
Dim
 70
    11
 71
     2
 72
     2
 73
     0
 90
        0
 40
-0.6
 41
-30.0
 62
     5
 63
     7
 74
     1
 91
        4
 64
     7
 65
   257
 75
     1
175
     1
 42
1.0
 92
        8
 66
     7
 43
1.0
 76
     1
 77
     6
 78
     2
 67
     7
 79
     5
170
     0
171
     0
290
     0
174
     0
 93
        1
 44
-50.0
173
     0
291
     1
 45
0.0
1001
ACAD
1000
AcDbSavedByObjectVersion
1070
     0
  0
VISUALSTYLE
  5
39
102
{ACAD_REACTORS
330
2A
102
}
330
2A
100
AcDbVisualStyle
  2
Facepattern
 70
    15
 71
     2
 72
     2
 73
     0
 90
        0
 40
-0.6
 41
-30.0
 62
     5
 63
     7
 74
     1
 91
        4
 64
     7
 65
   257
 75
     1
175
     1
 42
1.0
 92
        8
 66
     7
 43
1.0
 76
     1
 77
     6
 78
     2
 67
     7
 79
     5
170
     0
171
     0
290
     0
174
     0
 93
        1
 44
0.0
173
     0
291
     1
 45
0.0
1001
ACAD
1000
AcDbSavedByObjectVersion
1070
     0
  0
VISUALSTYLE
  5
2B
102
{ACAD_REACTORS
330
2A
102
}
330
2A
100
AcDbVisualStyle
  2
Flat
 70
     0
 71
     2
 72
     1
 73
     1
 90
        2
 40
-0.6
 41
30.0
 62
     5
 63
     7
 74
     0
 91
        4
 64
     7
 65
   257
 75
     1
175
     1
 42
1.0
 92
        8
 66
     7
 43
1.0
 76
     1
 77
     6
 78
     2
 67
     7
 79
     5
170
     0
171
     0
290
     0
174
     0
 93
       13
 44
0.0
173
     0
291
     1
 45
0.0
1001
ACAD
1000
AcDbSavedByObjectVersion
1070
     0
  0
VISUALSTYLE
  5
2C
102
{ACAD_REACTORS
330
2A
102
}
330
2A
100
AcDbVisualStyle
  2
FlatWithEdges
 70
     1
 71
     2
 72
     1
 73
     1
 90
        2
 40
-0.6
 41
30.0
 62
     5
 63
     7
 74
     1
 91
        4
 64
     7
 65
   257
 75
     1
175
     1
 42
1.0
 92
        0
 66
   257
 43
1.0
 76
     1
 77
     6
 78
     2
 67
     7
 79
     5
170
     0
171
     0
290
     0
174
     0
 93
       13
 44
0.0
173
     0
291
     1
 45
0.0
1001
ACAD
1000
AcDbSavedByObjectVersion
1070
     0
  0
VISUALSTYLE
  5
2D
102
{ACAD_REACTORS
330
2A
102
}
330
2A
100
AcDbVisualStyle
  2
Gouraud
 70
     2
 71
     2
 72
     2
 73
     1
 90
        2
 40
-0.6
 41
30.0
 62
     5
 63
     7
 74
     0
 91
        4
 64
     7
 65
   257
 75
     1
175
     1
 42
1.0
 92
        0
 66
     7
 43
1.0
 76
     1
 77
     6
 78
     2
 67
     7
 79
     5
170
     0
171
     0
290
     0
174
     0
 93
       13
 44
0.0
173
     0
291
     1
 45
0.0
1001
ACAD
1000
AcDbSavedByObjectVersion
1070
     0
  0
VISUALSTYLE
  5
2E
102
{ACAD_REACTORS
330
2A
102
}
330
2A
100
AcDbVisualStyle
  2
GouraudWithEdges
 70
     3
 71
     2
 72
     2
 73
     1
 90
        2
 40
-0.6
 41
30.0
 62
     5
 63
     7
 74
     1
 91
        4
 64
     7
 65
   257
 75
     1
175
     1
 42
1.0
 92
        0
 66
   257
 43
1.0
 76
     1
 77
     6
 78
     2
 67
     7
 79
     5
170
     0
171
     0
290
     0
174
     0
 93
       13
 44
0.0
173
     0
291
     1
 45
0.0
1001
ACAD
1000
AcDbSavedByObjectVersion
1070
     0
  0
VISUALSTYLE
  5
38
102
{ACAD_REACTORS
330
2A
102
}
330
2A
100
AcDbVisualStyle
  2
Linepattern
 70
    14
 71
     2
 72
     2
 73
     0
 90
        0
 40
-0.6
 41
-30.0
 62
     5
 63
     7
 74
     1
 91
        4
 64
     7
 65
   257
 75
     7
175
     7
 42
1.0
 92
        8
 66
     7
 43
1.0
 76
     1
 77
     6
 78
     2
 67
     7
 79
     5
170
     0
171
     0
290
     0
174
     0
 93
        1
 44
0.0
173
     0
291
     1
 45
0.0
1001
ACAD
1000
AcDbSavedByObjectVersion
1070
     0
  0
VISUALSTYLE
  5
33
102
{ACAD_REACTORS
330
2A
102
}
330
2A
100
AcDbVisualStyle
  2
Realistic
 70
     8
 71
     2
 72
     2
 73
     0
 90
        0
 40
-0.6
 41
-30.0
 62
     5
 63
     7
 74
     1
 91
        0
 64
     7
 65
   257
 75
     1
175
     1
 42
1.0
 92
        8
 66
     8
 43
1.0
 76
     1
 77
     6
 78
     2
 67
     7
 79
     5
170
     0
171
     0
290
     0
174
     0
 93
       13
 44
0.0
173
     0
291
     0
 45
0.0
1001
ACAD
1000
AcDbSavedByObjectVersion
1070
     0
  0
VISUALSTYLE
  5
37
102
{ACAD_REACTORS
330
2A
102
}
330
2A
100
AcDbVisualStyle
  2
Thicken
 70
    13
 71
     2
 72
     2
 73
     0
 90
        0
 40
-0.6
 41
-30.0
 62
     5
 63
     7
 74
     1
 91
        4
 64
     7
 65
   257
 75
     1
175
     1
 42
1.0
 92
       12
 66
     7
 43
1.0
 76
     1
 77
     6
 78
     2
 67
     7
 79
     5
170
     0
171
     0
290
     0
174
     0
 93
        1
 44
0.0
173
     0
291
     1
 45
0.0
1001
ACAD
1000
AcDbSavedByObjectVersion
1070
     0
  0
DICTIONARYVAR
  5
45B
102
{ACAD_REACTORS
330
45A
102
}
330
45A
100
DictionaryVariables
280
     0
  1
1:1
  0
DICTIONARYVAR
  5
45F
102
{ACAD_REACTORS
330
45A
102
}
330
45A
100
DictionaryVariables
280
     0
  1
80.000000
  0
DICTIONARYVAR
  5
45E
102
{ACAD_REACTORS
330
45A
102
}
330
45A
100
DictionaryVariables
280
     0
  1
5.000000
  0
ENDSEC
  0
EOF
