  0
SECTION
  2
HEADER
  9
$ACADVER
  1
AC1015
  9
$ACADMAINTVER
 70
     6
  9
$DWGCODEPAGE
  3
ANSI_1252
  9
$INSBASE
 10
0.0
 20
0.0
 30
0.0
  9
$EXTMIN
 10
0.0
 20
0.0
 30
0.0
  9
$EXTMAX
 10
3000.0
 20
4500.0
 30
0.0
  9
$LIMMIN
 10
0.0
 20
0.0
  9
$LIMMAX
 10
3000.0
 20
4500.0
  9
$ORTHOMODE
 70
     0
  9
$REGENMODE
 70
     1
  9
$FILLMODE
 70
     1
  9
$QTEXTMODE
 70
     0
  9
$MIRRTEXT
 70
     1
  9
$LTSCALE
 40
1.0
  9
$ATTMODE
 70
     1
  9
$TEXTSIZE
 40
2.5
  9
$TRACEWID
 40
1.0
  9
$TEXTSTYLE
  7
Standard
  9
$CLAYER
  8
0
  9
$CELTYPE
  6
ByLayer
  9
$CECOLOR
 62
   256
  9
$CELTSCALE
 40
1.0
  9
$DISPSILH
 70
     0
  9
$DIMSCALE
 40
1.0
  9
$DIMASZ
 40
2.5
  9
$DIMEXO
 40
0.625
  9
$DIMDLI
 40
3.75
  9
$DIMRND
 40
0.0
  9
$DIMDLE
 40
0.0
  9
$DIMEXE
 40
1.25
  9
$DIMTP
 40
0.0
  9
$DIMTM
 40
0.0
  9
$DIMTXT
 40
2.5
  9
$DIMCEN
 40
2.5
  9
$DIMTSZ
 40
0.0
  9
$DIMTOL
 70
     0
  9
$DIMLIM
 70
     0
  9
$DIMTIH
 70
     0
  9
$DIMTOH
 70
     0
  9
$DIMSE1
 70
     0
  9
$DIMSE2
 70
     0
  9
$DIMTAD
 70
     1
  9
$DIMZIN
 70
     8
  9
$DIMBLK
  1

  9
$DIMASO
 70
     1
  9
$DIMSHO
 70
     1
  9
$DIMPOST
  1

  9
$DIMAPOST
  1

  9
$DIMALT
 70
     0
  9
$DIMALTD
 70
     3
  9
$DIMALTF
 40
0.0393700787
  9
$DIMLFAC
 40
1.0
  9
$DIMTOFL
 70
     1
  9
$DIMTVP
 40
0.0
  9
$DIMTIX
 70
     0
  9
$DIMSOXD
 70
     0
  9
$DIMSAH
 70
     0
  9
$DIMBLK1
  1

  9
$DIMBLK2
  1

  9
$DIMSTYLE
  2
ISO-25
  9
$DIMCLRD
 70
     0
  9
$DIMCLRE
 70
     0
  9
$DIMCLRT
 70
     0
  9
$DIMTFAC
 40
1.0
  9
$DIMGAP
 40
0.625
  9
$DIMJUST
 70
     0
  9
$DIMSD1
 70
     0
  9
$DIMSD2
 70
     0
  9
$DIMTOLJ
 70
     0
  9
$DIMTZIN
 70
     8
  9
$DIMALTZ
 70
     0
  9
$DIMALTTZ
 70
     0
  9
$DIMUPT
 70
     0
  9
$DIMDEC
 70
     2
  9
$DIMTDEC
 70
     2
  9
$DIMALTU
 70
     2
  9
$DIMALTTD
 70
     3
  9
$DIMTXSTY
  7
Standard
  9
$DIMAUNIT
 70
     0
  9
$DIMADEC
 70
     0
  9
$DIMALTRND
 40
0.0
  9
$DIMAZIN
 70
     0
  9
$DIMDSEP
 70
    44
  9
$DIMATFIT
 70
     3
  9
$DIMFRAC
 70
     0
  9
$DIMLDRBLK
  1

  9
$DIMLUNIT
 70
     2
  9
$DIMLWD
 70
    -2
  9
$DIMLWE
 70
    -2
  9
$DIMTMOVE
 70
     0
  9
$LUNITS
 70
     2
  9
$LUPREC
 70
     4
  9
$SKETCHINC
 40
1.0
  9
$FILLETRAD
 40
10.0
  9
$AUNITS
 70
     0
  9
$AUPREC
 70
     0
  9
$MENU
  1
.
  9
$ELEVATION
 40
0.0
  9
$PELEVATION
 40
0.0
  9
$THICKNESS
 40
0.0
  9
$LIMCHECK
 70
     0
  9
$CHAMFERA
 40
10.0
  9
$CHAMFERB
 40
10.0
  9
$CHAMFERC
 40
20.0
  9
$CHAMFERD
 40
0.0
  9
$SKPOLY
 70
     0
  9
$TDCREATE
 40
2456232.312257616
  9
$TDUCREATE
 40
2456232.270590949
  9
$TDUPDATE
 40
2456232.312257627
  9
$TDUUPDATE
 40
2456232.270590961
  9
$TDINDWG
 40
0.0000000116
  9
$TDUSRTIMER
 40
0.0000000116
  9
$USRTIMER
 70
     1
  9
$ANGBASE
 50
0.0
  9
$ANGDIR
 70
     0
  9
$PDMODE
 70
     0
  9
$PDSIZE
 40
0.0
  9
$PLINEWID
 40
0.0
  9
$SPLFRAME
 70
     0
  9
$SPLINETYPE
 70
     6
  9
$SPLINESEGS
 70
     8
  9
$HANDSEED
  5
174
  9
$SURFTAB1
 70
     6
  9
$SURFTAB2
 70
     6
  9
$SURFTYPE
 70
     6
  9
$SURFU
 70
     6
  9
$SURFV
 70
     6
  9
$UCSBASE
  2

  9
$UCSNAME
  2

  9
$UCSORG
 10
0.0
 20
0.0
 30
0.0
  9
$UCSXDIR
 10
1.0
 20
0.0
 30
0.0
  9
$UCSYDIR
 10
0.0
 20
1.0
 30
0.0
  9
$UCSORTHOREF
  2

  9
$UCSORTHOVIEW
 70
     0
  9
$UCSORGTOP
 10
0.0
 20
0.0
 30
0.0
  9
$UCSORGBOTTOM
 10
0.0
 20
0.0
 30
0.0
  9
$UCSORGLEFT
 10
0.0
 20
0.0
 30
0.0
  9
$UCSORGRIGHT
 10
0.0
 20
0.0
 30
0.0
  9
$UCSORGFRONT
 10
0.0
 20
0.0
 30
0.0
  9
$UCSORGBACK
 10
0.0
 20
0.0
 30
0.0
  9
$PUCSBASE
  2

  9
$PUCSNAME
  2

  9
$PUCSORG
 10
0.0
 20
0.0
 30
0.0
  9
$PUCSXDIR
 10
1.0
 20
0.0
 30
0.0
  9
$PUCSYDIR
 10
0.0
 20
1.0
 30
0.0
  9
$PUCSORTHOREF
  2

  9
$PUCSORTHOVIEW
 70
     0
  9
$PUCSORGTOP
 10
0.0
 20
0.0
 30
0.0
  9
$PUCSORGBOTTOM
 10
0.0
 20
0.0
 30
0.0
  9
$PUCSORGLEFT
 10
0.0
 20
0.0
 30
0.0
  9
$PUCSORGRIGHT
 10
0.0
 20
0.0
 30
0.0
  9
$PUCSORGFRONT
 10
0.0
 20
0.0
 30
0.0
  9
$PUCSORGBACK
 10
0.0
 20
0.0
 30
0.0
  9
$USERI1
 70
     0
  9
$USERI2
 70
     0
  9
$USERI3
 70
     0
  9
$USERI4
 70
     0
  9
$USERI5
 70
     0
  9
$USERR1
 40
0.0
  9
$USERR2
 40
0.0
  9
$USERR3
 40
0.0
  9
$USERR4
 40
0.0
  9
$USERR5
 40
0.0
  9
$WORLDVIEW
 70
     1
  9
$SHADEDGE
 70
     3
  9
$SHADEDIF
 70
    70
  9
$TILEMODE
 70
     1
  9
$MAXACTVP
 70
    64
  9
$PINSBASE
 10
0.0
 20
0.0
 30
0.0
  9
$PLIMCHECK
 70
     0
  9
$PEXTMIN
 10
0.0
 20
0.0
 30
0.0
  9
$PEXTMAX
 10
3000.0
 20
4500.0
 30
0.0
  9
$PLIMMIN
 10
0.0
 20
0.0
  9
$PLIMMAX
 10
3000.0
 20
4500.0
  9
$UNITMODE
 70
     0
  9
$VISRETAIN
 70
     1
  9
$PLINEGEN
 70
     0
  9
$PSLTSCALE
 70
     1
  9
$TREEDEPTH
 70
  3020
  9
$CMLSTYLE
  2
Standard
  9
$CMLJUST
 70
     0
  9
$CMLSCALE
 40
20.0
  9
$PROXYGRAPHICS
 70
     1
  9
$MEASUREMENT
 70
     1
  9
$CELWEIGHT
370
    -1
  9
$ENDCAPS
280
     0
  9
$JOINSTYLE
280
     0
  9
$LWDISPLAY
290
     0
  9
$INSUNITS
 70
     4
  9
$HYPERLINKBASE
  1

  9
$STYLESHEET
  1

  9
$XEDIT
290
     1
  9
$CEPSNTYPE
380
     0
  9
$PSTYLEMODE
290
     1
  9
$FINGERPRINTGUID
  2
{22D86CC1-02B3-4B1B-B78A-AFD5676FF5A0}
  9
$VERSIONGUID
  2
{FAEB1C32-E019-11D5-929B-00C0DF256EC4}
  9
$EXTNAMES
290
     1
  9
$PSVPSCALE
 40
0.0
  9
$OLESTARTUP
290
     0
  0
ENDSEC
  0
SECTION
  2
CLASSES
  0
CLASS
  1
ACDBDICTIONARYWDFLT
  2
AcDbDictionaryWithDefault
  3
ObjectDBX Classes
 90
        0
280
     0
281
     0
  0
CLASS
  1
VISUALSTYLE
  2
AcDbVisualStyle
  3
ObjectDBX Classes
 90
     4095
280
     0
281
     0
  0
CLASS
  1
SCALE
  2
AcDbScale
  3
ObjectDBX Classes
 90
     1153
280
     0
281
     0
  0
CLASS
  1
DICTIONARYVAR
  2
AcDbDictionaryVar
  3
ObjectDBX Classes
 90
        0
280
     0
281
     0
  0
CLASS
  1
ACDBPLACEHOLDER
  2
AcDbPlaceHolder
  3
ObjectDBX Classes
 90
        0
280
     0
281
     0
  0
CLASS
  1
LAYOUT
  2
AcDbLayout
  3
ObjectDBX Classes
 90
        0
280
     0
281
     0
  0
ENDSEC
  0
SECTION
  2
TABLES
  0
TABLE
  2
VPORT
  5
8
330
0
100
AcDbSymbolTable
 70
     1
  0
VPORT
  5
29
330
8
100
AcDbSymbolTableRecord
100
AcDbViewportTableRecord
  2
*Active
 70
     0
 10
0.0
 20
0.0
 11
1.0
 21
1.0
 12
344.1869158879
 22
148.5
 13
0.0
 23
0.0
 14
10.0
 24
10.0
 15
10.0
 25
10.0
 16
0.0
 26
0.0
 36
1.0
 17
0.0
 27
0.0
 37
0.0
 40
297.0
 41
1.9729729729
 42
50.0
 43
0.0
 44
0.0
 50
0.0
 51
0.0
 71
     0
 72
   100
 73
     1
 74
     3
 75
     0
 76
     0
 77
     0
 78
     0
281
     0
 65
     1
110
0.0
120
0.0
130
0.0
111
1.0
121
0.0
131
0.0
112
0.0
122
1.0
132
0.0
 79
     0
146
0.0
  0
ENDTAB
  0
TABLE
  2
LTYPE
  5
5
330
0
100
AcDbSymbolTable
 70
     2
  0
LTYPE
  5
14
330
5
100
AcDbSymbolTableRecord
100
AcDbLinetypeTableRecord
  2
ByBlock
 70
     0
  3

 72
    65
 73
     0
 40
0.0
  0
LTYPE
  5
15
330
5
100
AcDbSymbolTableRecord
100
AcDbLinetypeTableRecord
  2
ByLayer
 70
     0
  3

 72
    65
 73
     0
 40
0.0
  0
LTYPE
  5
16
330
5
100
AcDbSymbolTableRecord
100
AcDbLinetypeTableRecord
  2
Continuous
 70
     0
  3
Solid line
 72
    65
 73
     0
 40
0.0
  0
LTYPE
  5
60
330
5
100
AcDbSymbolTableRecord
100
AcDbLinetypeTableRecord
  2
CENTER2
 70
     0
  3
Center (.5x) ___ _ ___ _ ___ _ ___ _ ___ _ ___
 72
    65
 73
     4
 40
28.575
 49
19.05
 74
     4
 75
     0
340
0
 46
0.0
 50
0.0
 44
0.0
 45
0.0
 49
-3.175
 74
     4
 75
     0
340
0
 46
0.0
 50
0.0
 44
0.0
 45
0.0
 49
3.175
 74
     4
 75
     0
340
0
 46
0.0
 50
0.0
 44
0.0
 45
0.0
 49
-3.175
 74
     4
 75
     0
340
0
 46
0.0
 50
0.0
 44
0.0
 45
0.0
  0
ENDTAB
  0
TABLE
  2
LAYER
  5
2
330
0
100
AcDbSymbolTable
 70
     6
  0
LAYER
  5
10
330
2
100
AcDbSymbolTableRecord
100
AcDbLayerTableRecord
  2
0
 70
     0
 62
     7
  6
Continuous
370
    -3
390
F
  0
LAYER
  5
5D
330
2
100
AcDbSymbolTableRecord
100
AcDbLayerTableRecord
  2
Default
 70
     0
 62
     7
  6
Continuous
370
    -3
390
F
  0
LAYER
  5
73
330
2
100
AcDbSymbolTableRecord
100
AcDbLayerTableRecord
  2
404240038_GEH_HA
 70
     0
 62
     7
  6
Continuous
370
    -3
390
F
  0
LAYER
  5
90
330
2
100
AcDbSymbolTableRecord
100
AcDbLayerTableRecord
  2
A4241953_ROSETTE
 70
     0
 62
     7
  6
Continuous
370
    -3
390
F
  0
LAYER
  5
BB
330
2
100
AcDbSymbolTableRecord
100
AcDbLayerTableRecord
  2
A4241962_EINSATZ
 70
     0
 62
     7
  6
Continuous
370
    -3
390
F
  0
LAYER
  5
D6
330
2
100
AcDbSymbolTableRecord
100
AcDbLayerTableRecord
  2
DV1_Default
 70
     0
 62
     7
  6
Continuous
370
    -3
390
F
  0
ENDTAB
  0
TABLE
  2
STYLE
  5
3
330
0
100
AcDbSymbolTable
 70
     2
  0
STYLE
  5
11
330
3
100
AcDbSymbolTableRecord
100
AcDbTextStyleTableRecord
  2
Standard
 70
     0
 40
0.0
 41
1.0
 50
0.0
 71
     0
 42
2.5
  3
txt
  4

  0
STYLE
  5
163
330
3
100
AcDbSymbolTableRecord
100
AcDbTextStyleTableRecord
  2
SEACAD_seiso_ttf
 70
     0
 40
0.0
 41
1.0
 50
0.0
 71
     0
 42
0.2
  3
seiso.ttf
  4

  0
ENDTAB
  0
TABLE
  2
VIEW
  5
6
330
0
100
AcDbSymbolTable
 70
     0
  0
ENDTAB
  0
TABLE
  2
UCS
  5
7
330
0
100
AcDbSymbolTable
 70
     0
  0
ENDTAB
  0
TABLE
  2
APPID
  5
9
330
0
100
AcDbSymbolTable
 70
     1
  0
APPID
  5
12
330
9
100
AcDbSymbolTableRecord
100
AcDbRegAppTableRecord
  2
ACAD
 70
     0
  0
ENDTAB
  0
TABLE
  2
DIMSTYLE
  5
A
330
0
100
AcDbSymbolTable
 70
     1
100
AcDbDimStyleTable
  0
DIMSTYLE
105
27
330
A
100
AcDbSymbolTableRecord
100
AcDbDimStyleTableRecord
  2
ISO-25
 70
     0
 41
2.5
 42
0.625
 43
3.75
 44
1.25
 73
     0
 74
     0
 77
     1
 78
     8
140
2.5
141
2.5
143
0.0393700787
147
0.625
171
     3
172
     1
271
     2
272
     2
274
     3
278
    44
283
     0
284
     8
340
11
  0
ENDTAB
  0
TABLE
  2
BLOCK_RECORD
  5
1
330
0
100
AcDbSymbolTable
 70
     7
  0
BLOCK_RECORD
  5
1F
330
1
100
AcDbSymbolTableRecord
100
AcDbBlockTableRecord
  2
*Model_Space
340
22
  0
BLOCK_RECORD
  5
1B
330
1
100
AcDbSymbolTableRecord
100
AcDbBlockTableRecord
  2
*Paper_Space
340
1E
  0
BLOCK_RECORD
  5
5E
330
1
100
AcDbSymbolTableRecord
100
AcDbBlockTableRecord
  2
SEANNOT_GROUP
340
0
102
{BLKREFS
331
5F
102
}
  0
BLOCK_RECORD
  5
65
330
1
100
AcDbSymbolTableRecord
100
AcDbBlockTableRecord
  2
SEANNOT_GROUP1
340
0
102
{BLKREFS
331
66
102
}
  0
BLOCK_RECORD
  5
6B
330
1
100
AcDbSymbolTableRecord
100
AcDbBlockTableRecord
  2
SEANNOT_GROUP2
340
0
102
{BLKREFS
331
6C
102
}
  0
BLOCK_RECORD
  5
71
330
1
100
AcDbSymbolTableRecord
100
AcDbBlockTableRecord
  2
SE
340
0
102
{BLKREFS
331
72
102
}
  0
BLOCK_RECORD
  5
DB
330
1
100
AcDbSymbolTableRecord
100
AcDbBlockTableRecord
  2
SE1
340
0
102
{BLKREFS
331
DC
102
}
  0
BLOCK_RECORD
  5
120
330
1
100
AcDbSymbolTableRecord
100
AcDbBlockTableRecord
  2
SE2
340
0
102
{BLKREFS
331
121
102
}
  0
ENDTAB
  0
ENDSEC
  0
SECTION
  2
BLOCKS
  0
BLOCK
  5
20
330
1F
100
AcDbEntity
  8
0
100
AcDbBlockBegin
  2
*Model_Space
 70
     0
 10
0.0
 20
0.0
 30
0.0
  3
*Model_Space
  1

  0
ENDBLK
  5
21
330
1F
100
AcDbEntity
  8
0
100
AcDbBlockEnd
  0
BLOCK
  5
1C
330
1B
100
AcDbEntity
 67
     1
  8
0
100
AcDbBlockBegin
  2
*Paper_Space
 70
     0
 10
0.0
 20
0.0
 30
0.0
  3
*Paper_Space
  1

  0
ENDBLK
  5
1D
330
1B
100
AcDbEntity
 67
     1
  8
0
100
AcDbBlockEnd
  0
BLOCK
  5
63
330
5E
100
AcDbEntity
  8
0
100
AcDbBlockBegin
  2
SEANNOT_GROUP
 70
     0
 10
0.0
 20
0.0
 30
0.0
  3
SEANNOT_GROUP
  1

  0
LINE
  5
61
330
5E
100
AcDbEntity
  8
Default
  6
CENTER2
 62
     7
100
AcDbLine
 10
218.5127696178
 20
261.6754294241
 30
0.0
 11
178.5127705118
 21
261.6754294241
 31
0.0
  0
LINE
  5
62
330
5E
100
AcDbEntity
  8
Default
  6
CENTER2
 62
     7
100
AcDbLine
 10
198.5127700648
 20
281.675428977
 30
0.0
 11
198.5127700648
 21
241.6754298711
 31
0.0
  0
ENDBLK
  5
64
330
5E
100
AcDbEntity
  8
0
100
AcDbBlockEnd
  0
BLOCK
  5
69
330
65
100
AcDbEntity
  8
0
100
AcDbBlockBegin
  2
SEANNOT_GROUP1
 70
     0
 10
0.0
 20
0.0
 30
0.0
  3
SEANNOT_GROUP1
  1

  0
LINE
  5
67
330
65
100
AcDbEntity
  8
Default
  6
CENTER2
 62
     7
100
AcDbLine
 10
114.1504230995
 20
156.5955566163
 30
0.0
 11
74.1504239936
 21
156.5955566163
 31
0.0
  0
LINE
  5
68
330
65
100
AcDbEntity
  8
Default
  6
CENTER2
 62
     7
100
AcDbLine
 10
94.1504235466
 20
176.5955561693
 30
0.0
 11
94.1504235466
 21
136.5955570634
 31
0.0
  0
ENDBLK
  5
6A
330
65
100
AcDbEntity
  8
0
100
AcDbBlockEnd
  0
BLOCK
  5
6F
330
6B
100
AcDbEntity
  8
0
100
AcDbBlockBegin
  2
SEANNOT_GROUP2
 70
     0
 10
0.0
 20
0.0
 30
0.0
  3
SEANNOT_GROUP2
  1

  0
LINE
  5
6D
330
6B
100
AcDbEntity
  8
Default
  6
CENTER2
 62
     7
100
AcDbLine
 10
114.1504359154
 20
261.6754461449
 30
0.0
 11
74.1504368095
 21
261.6754461449
 31
0.0
  0
LINE
  5
6E
330
6B
100
AcDbEntity
  8
Default
  6
CENTER2
 62
     7
100
AcDbLine
 10
94.1504363624
 20
281.6754456979
 30
0.0
 11
94.1504363624
 21
241.6754465919
 31
0.0
  0
ENDBLK
  5
70
330
6B
100
AcDbEntity
  8
0
100
AcDbBlockEnd
  0
BLOCK
  5
D9
330
71
100
AcDbEntity
  8
0
100
AcDbBlockBegin
  2
SE
 70
     0
 10
0.0
 20
0.0
 30
0.0
  3
SE
  1

  0
SPLINE
  5
74
330
71
100
AcDbEntity
  8
404240038_GEH_HA
  6
Continuous
 62
     7
100
AcDbSpline
210
0.0
220
0.0
230
1.0
 70
    11
 71
     3
 72
    22
 73
    18
 74
     0
 42
0.0000000006504503
 43
0.0000000001
 40
0.0
 40
0.0
 40
0.0
 40
0.0
 40
0.125
 40
0.125
 40
0.25
 40
0.25
 40
0.375
 40
0.375
 40
0.5
 40
0.5
 40
0.625
 40
0.625
 40
0.75
 40
0.75
 40
0.875
 40
0.875
 40
1.0
 40
1.0
 40
1.0
 40
1.0
 10
94.48929671348132
 20
236.4284508484465
 30
0.0
 10
93.6007878692202
 20
236.4579413155113
 30
0.0
 10
92.69416958974328
 20
236.3679046086033
 30
0.0
 10
91.38545646961624
 20
235.9875193106757
 30
0.0
 10
90.98517618704429
 20
235.6955487855511
 30
0.0
 10
90.84268943498677
 20
235.0382028563902
 30
0.0
 10
91.08452327986753
 20
234.6804248038824
 30
0.0
 10
92.12915115992016
 20
234.0798432861353
 30
0.0
 10
92.93060223109605
 20
233.8556678677489
 30
0.0
 10
94.68683540460302
 20
233.7653952638832
 30
0.0
 10
95.59520017692056
 20
233.9093883821608
 30
0.0
 10
96.89730126602471
 20
234.4222782401475
 30
0.0
 10
97.2967210326996
 20
234.7736685156212
 30
0.0
 10
97.47023632926499
 20
235.4501851282118
 30
0.0
 10
97.23913719146098
 20
235.7758324415649
 30
0.0
 10
96.19577433385926
 20
236.2500336024436
 30
0.0
 10
95.37780555774245
 20
236.3989603813817
 30
0.0
 10
94.48929671348132
 20
236.4284508484465
 30
0.0
  0
ARC
  5
75
330
71
100
AcDbEntity
  8
404240038_GEH_HA
  6
Continuous
 62
     7
100
AcDbCircle
 10
67.5531553682
 20
261.6754338212
 30
0.0
 40
44.34823708247919
100
AcDbArc
 50
340.3987698976
 51
19.6012484861
  0
SPLINE
  5
76
330
71
100
AcDbEntity
  8
404240038_GEH_HA
  6
Continuous
 62
     7
100
AcDbSpline
210
0.0
220
0.0
230
1.0
 70
     8
 71
     3
 72
    12
 73
     8
 74
     0
 42
0.0000000007242348
 43
0.0000000001
 40
0.0
 40
0.0
 40
0.0
 40
0.0
 40
0.4999999999999999
 40
0.4999999999999999
 40
0.7499999999999999
 40
0.7499999999999999
 40
1.0
 40
1.0
 40
1.0
 40
1.0
 10
111.2616297909207
 20
279.0456821536436
 30
0.0
 10
112.2823588971934
 20
280.0634020923152
 30
0.0
 10
113.6522784730068
 20
281.4341396074157
 30
0.0
 10
116.1227339509959
 20
283.9068030818639
 30
0.0
 10
117.0154925494218
 20
284.8004826615326
 30
0.0
 10
118.9267172199549
 20
286.7134210190974
 30
0.0
 10
119.9451634310668
 20
287.7326623820124
 30
0.0
 10
121.0231277149681
 20
288.8111854271893
 30
0.0
  0
SPLINE
  5
77
330
71
100
AcDbEntity
  8
404240038_GEH_HA
  6
Continuous
 62
     7
100
AcDbSpline
210
0.0
220
0.0
230
1.0
 70
     8
 71
     3
 72
    20
 73
    16
 74
     0
 42
0.000000000176682
 43
0.0000000001
 40
0.0
 40
0.0
 40
0.0
 40
0.0
 40
0.0625
 40
0.0625
 40
0.1250000000000001
 40
0.1250000000000001
 40
0.1875000000000001
 40
0.1875000000000001
 40
0.2500000000000002
 40
0.2500000000000002
 40
0.3125000000000002
 40
0.3125000000000002
 40
0.3750000000000002
 40
0.3750000000000002
 40
0.3928745148781599
 40
0.3928745148781599
 40
0.3928745148781599
 40
0.3928745148781599
 10
102.780429311891
 20
278.5800434309025
 30
0.0
 10
101.654820541565
 20
278.7719641594379
 30
0.0
 10
100.4430076576911
 20
278.9395106127898
 30
0.0
 10
97.84419515235227
 20
279.190131416001
 30
0.0
 10
96.47639657049261
 20
279.2701202400823
 30
0.0
 10
93.72636562777302
 20
279.3197263949745
 30
0.0
 10
92.31939583169309
 20
279.2889532953383
 30
0.0
 10
89.63446095278823
 20
279.1259042837519
 30
0.0
 10
88.3170942440636
 20
278.9912158619925
 30
0.0
 10
85.9069718071751
 20
278.6588593007732
 30
0.0
 10
84.78542457342894
 20
278.4577054707497
 30
0.0
 10
82.82165564672876
 20
278.0571446307758
 30
0.0
 10
81.97640460774504
 20
277.8579708009007
 30
0.0
 10
81.08565471374284
 20
277.6590604854977
 30
0.0
 10
80.90207818269107
 20
277.6190254801339
 30
0.0
 10
80.73304018841458
 20
277.5841683293212
 30
0.0
  0
ARC
  5
78
330
71
100
AcDbEntity
  8
404240038_GEH_HA
  6
Continuous
 62
     7
100
AcDbCircle
 10
532.2520447686
 20
743.8348287334
 30
0.0
 40
650.5728813414181
100
AcDbArc
 50
224.3804835666
 51
225.8763947039
  0
ARC
  5
79
330
71
100
AcDbEntity
  8
404240038_GEH_HA
  6
Continuous
 62
     7
100
AcDbCircle
 10
94.3283189927
 20
235.7799199637
 30
0.0
 40
43.62669753323979
100
AcDbArc
 50
70.3073669812
 51
78.8290414584
  0
ARC
  5
7A
330
71
100
AcDbEntity
  8
404240038_GEH_HA
  6
Continuous
 62
     7
100
AcDbCircle
 10
122.4327180262
 20
261.6754721424
 30
0.0
 40
45.41815727958998
100
AcDbArc
 50
161.1231065615
 51
198.8770107766
  0
SPLINE
  5
7B
330
71
100
AcDbEntity
  8
404240038_GEH_HA
  6
Continuous
 62
     7
100
AcDbSpline
210
0.0
220
0.0
230
1.0
 70
     8
 71
     3
 72
    12
 73
     8
 74
     0
 42
0.0000000007242346
 43
0.0000000001
 40
0.0
 40
0.0
 40
0.0
 40
0.0
 40
0.25
 40
0.25
 40
0.4999999999999999
 40
0.4999999999999999
 40
1.0
 40
1.0
 40
1.0
 40
1.0
 10
121.0231286685559
 20
234.539691416158
 30
0.0
 10
119.9451655204507
 20
235.6182157090875
 30
0.0
 10
118.9267203201707
 20
236.6374582297089
 30
0.0
 10
117.0154973942652
 20
238.5503987076329
 30
0.0
 10
116.1227395295344
 20
239.4440792500742
 30
0.0
 10
113.6522857616401
 20
241.9167452654953
 30
0.0
 10
112.2823666592756
 20
243.2874840120337
 30
0.0
 10
111.2616371424643
 20
244.3052044828958
 30
0.0
  0
SPLINE
  5
7C
330
71
100
AcDbEntity
  8
404240038_GEH_HA
  6
Continuous
 62
     7
100
AcDbSpline
210
0.0
220
0.0
230
1.0
 70
     8
 71
     3
 72
    16
 73
    12
 74
     0
 42
0.0000000002221251
 43
0.0000000001
 40
0.6368268108225068
 40
0.6368268108225068
 40
0.6368268108225068
 40
0.6368268108225068
 40
0.750000000000001
 40
0.750000000000001
 40
0.8125000000000008
 40
0.8125000000000008
 40
0.8750000000000004
 40
0.8750000000000004
 40
0.9375000000000002
 40
0.9375000000000002
 40
1.0
 40
1.0
 40
1.0
 40
1.0
 10
82.87821350366364
 20
245.1387892662985
 30
0.0
 10
83.89353138464313
 20
244.9618059068019
 30
0.0
 10
85.27647503389518
 20
244.6931934097402
 30
0.0
 10
87.79146728772594
 20
244.3475951680394
 30
0.0
 10
88.74143172701382
 20
244.2391973806179
 30
0.0
 10
90.75247900522182
 20
244.0713610257805
 30
0.0
 10
91.8089242942961
 20
244.013195727256
 30
0.0
 10
93.921954657291
 20
243.9620019799316
 30
0.0
 10
95.00707457558737
 20
243.9683982186949
 30
0.0
 10
97.11766088640951
 20
244.0444217931683
 30
0.0
 10
98.14363222218776
 20
244.1129709798003
 30
0.0
 10
99.13986000825925
 20
244.2072316358474
 30
0.0
  0
ARC
  5
7D
330
71
100
AcDbEntity
  8
404240038_GEH_HA
  6
Continuous
 62
     7
100
AcDbCircle
 10
443.426565797
 20
-131.2594821897
 30
0.0
 40
524.6855423867851
100
AcDbArc
 50
133.944123917
 51
135.7989754227
  0
ARC
  5
7E
330
71
100
AcDbEntity
  8
404240038_GEH_HA
  6
Continuous
 62
     7
100
AcDbCircle
 10
94.255158774
 20
287.8269201154
 30
0.0
 40
43.89234021098711
100
AcDbArc
 50
276.3895822053
 51
289.6699615449
  0
ARC
  5
7F
330
71
100
AcDbEntity
  8
404240038_GEH_HA
  6
Continuous
 62
     7
100
AcDbCircle
 10
-388.007880142
 20
699.7759756915
 30
0.0
 40
650.5732957343571
100
AcDbArc
 50
314.3804839764
 51
315.8763941587
  0
ARC
  5
80
330
71
100
AcDbEntity
  8
404240038_GEH_HA
  6
Continuous
 62
     7
100
AcDbCircle
 10
124.3929631289
 20
261.6754450172
 30
0.0
 40
47.75598538393209
100
AcDbArc
 50
161.9031210277
 51
198.0968913859
  0
ARC
  5
81
330
71
100
AcDbEntity
  8
404240038_GEH_HA
  6
Continuous
 62
     7
100
AcDbCircle
 10
-298.7828451097
 20
-87.5990493321
 30
0.0
 40
524.6851536612446
100
AcDbArc
 50
43.9441231608
 51
45.7989760435
  0
ARC
  5
82
330
71
100
AcDbEntity
  8
404240038_GEH_HA
  6
Continuous
 62
     7
100
AcDbCircle
 10
6253.9834820206
 20
6379.7819278593
 30
0.0
 40
8681.630708491768
100
AcDbArc
 50
224.9664388564
 51
225.0573153859
  0
ARC
  5
83
330
71
100
AcDbEntity
  8
404240038_GEH_HA
  6
Continuous
 62
     7
100
AcDbCircle
 10
6251.0183609466
 20
-5853.4748851894
 30
0.0
 40
8677.443735485933
100
AcDbArc
 50
134.9426151157
 51
135.0337850227
  0
ARC
  5
84
330
71
100
AcDbEntity
  8
404240038_GEH_HA
  6
Continuous
 62
     7
100
AcDbCircle
 10
120.8839622047
 20
234.9432726049
 30
0.0
 40
0.5000000000000071
100
AcDbArc
 50
289.0256741346
 51
340.9755038847
  0
SPLINE
  5
85
330
71
100
AcDbEntity
  8
404240038_GEH_HA
  6
Continuous
 62
     7
100
AcDbSpline
210
0.0
220
0.0
230
1.0
 70
     8
 71
     3
 72
    34
 73
    30
 74
     0
 42
0.0000000001825409
 43
0.0000000001
 40
0.0
 40
0.0
 40
0.0
 40
0.0
 40
0.0216353843515223
 40
0.0592212016644619
 40
0.0927960445015824
 40
0.1287458058535693
 40
0.1638018935689725
 40
0.2017449323202834
 40
0.2397349413804155
 40
0.2778116697072255
 40
0.3160131196755342
 40
0.354370897029997
 40
0.3924023027420858
 40
0.4306734755457399
 40
0.4691256692168025
 40
0.5076998059726863
 40
0.5463347416120261
 40
0.584961787597335
 40
0.6235030452771592
 40
0.6618959190413948
 40
0.7000791595551794
 40
0.7379987803414814
 40
0.7758792310600261
 40
0.8140451827061865
 40
0.8521067998714702
 40
0.8901017144994424
 40
0.9280685581584343
 40
0.9659310588503565
 40
1.0
 40
1.0
 40
1.0
 40
1.0
 10
67.2603751275726
 20
234.4815931770626
 30
0.0
 10
67.67178095904114
 20
234.3416922042273
 30
0.0
 10
68.62760318329192
 20
234.0178367200948
 30
0.0
 10
70.28361657412839
 20
233.4951214485572
 30
0.0
 10
72.1488307351543
 20
232.9475993942549
 30
0.0
 10
73.99929943808203
 20
232.4622318642857
 30
0.0
 10
75.9339761667882
 20
232.0024941151543
 30
0.0
 10
77.91699138331138
 20
231.5824001841198
 30
0.0
 10
79.96389119813304
 20
231.2025706412617
 30
0.0
 10
82.02449078364646
 20
230.8738717725541
 30
0.0
 10
84.09930486024538
 20
230.5959612232792
 30
0.0
 10
86.17972641472903
 20
230.3711637605125
 30
0.0
 10
88.26644734981471
 20
230.1992295801991
 30
0.0
 10
90.35853530227976
 20
230.0794375350565
 30
0.0
 10
92.46286593860354
 20
230.0115727987464
 30
0.0
 10
94.57487606178553
 20
229.9960997715112
 30
0.0
 10
96.68980905641085
 20
230.0333056589584
 30
0.0
 10
98.80255602160781
 20
230.1232528759707
 30
0.0
 10
100.907981669113
 20
230.2657504692386
 30
0.0
 10
103.00108984127
 20
230.460408426883
 30
0.0
 10
105.0773423334104
 20
230.7065395843327
 30
0.0
 10
107.1373597072188
 20
231.0044599016177
 30
0.0
 10
109.1889022896646
 20
231.3536760193074
 30
0.0
 10
111.2337946219764
 20
231.7551662313693
 30
0.0
 10
113.2688465387623
 20
232.2087148466726
 30
0.0
 10
115.2918346678273
 20
232.7144283550275
 30
0.0
 10
117.2839790889192
 20
233.2659200701348
 30
0.0
 10
119.242727113742
 20
233.8643308779937
 30
0.0
 10
120.3998824340271
 20
234.2477343041176
 30
0.0
 10
121.0490250855415
 20
234.4641511776808
 30
0.0
  0
SPLINE
  5
86
330
71
100
AcDbEntity
  8
404240038_GEH_HA
  6
Continuous
 62
     7
100
AcDbSpline
210
0.0
220
0.0
230
1.0
 70
     8
 71
     3
 72
    35
 73
    31
 74
     0
 42
0.0000000001825424
 43
0.0000000001
 40
0.0
 40
0.0
 40
0.0
 40
0.0
 40
0.022387126845581
 40
0.0615642025033407
 40
0.0967927893864413
 40
0.1292250426235273
 40
0.163767337932869
 40
0.1998712801734229
 40
0.2379200108030178
 40
0.2760785031247672
 40
0.3143307714703019
 40
0.3526570950710554
 40
0.3910372368158809
 40
0.4294506230204803
 40
0.4678765327384783
 40
0.5062883319029403
 40
0.5446109298864628
 40
0.5831883400403648
 40
0.6215984189513566
 40
0.6598768066295713
 40
0.6980605495102604
 40
0.736186637852458
 40
0.7742920192453251
 40
0.8124121553015214
 40
0.8505730810021213
 40
0.8844840869386139
 40
0.9170962021450382
 40
0.9513076976475943
 40
0.9893354033648737
 40
1.0
 40
1.0
 40
1.0
 40
1.0
 10
121.3402177148274
 20
234.7858699345112
 30
0.0
 10
121.4839645432563
 20
235.2119117742243
 30
0.0
 10
121.8183082909655
 20
236.206415776736
 30
0.0
 10
122.3615420044647
 20
237.9345051127883
 30
0.0
 10
122.905752992074
 20
239.795174905136
 30
0.0
 10
123.3853632808677
 20
241.6018855900534
 30
0.0
 10
123.8180128107887
 20
243.4329310868881
 30
0.0
 10
124.2308833746556
 20
245.3745700008966
 30
0.0
 10
124.6071771790035
 20
247.3905814650077
 30
0.0
 10
124.9389288359721
 20
249.454215098104
 30
0.0
 10
125.2192538676931
 20
251.5305573334855
 30
0.0
 10
125.4477376079119
 20
253.6173176043342
 30
0.0
 10
125.6239598261326
 20
255.7120909893717
 30
0.0
 10
125.7475929819139
 20
257.8124463447954
 30
0.0
 10
125.8184478371426
 20
259.9158238321139
 30
0.0
 10
125.8362087072498
 20
262.018660639917
 30
0.0
 10
125.8014923322234
 20
264.1240452750018
 30
0.0
 10
125.7145171161638
 20
266.2278939782253
 30
0.0
 10
125.5745944985462
 20
268.3280796119433
 30
0.0
 10
125.3823151650968
 20
270.416901719224
 30
0.0
 10
125.1377694451441
 20
272.4950327343103
 30
0.0
 10
124.8410262460995
 20
274.5631574834039
 30
0.0
 10
124.4919882438334
 20
276.621947749158
 30
0.0
 10
124.0908956955892
 20
278.6717841438401
 30
0.0
 10
123.6537597062678
 20
280.6362133318991
 30
0.0
 10
123.1967985491019
 20
282.4913466065421
 30
0.0
 10
122.7075912322626
 20
284.2683436871876
 30
0.0
 10
122.1575041125522
 20
286.0871280854187
 30
0.0
 10
121.6806254236361
 20
287.5716031198834
 30
0.0
 10
121.4112819692052
 20
288.3628943981295
 30
0.0
 10
121.3421546529989
 20
288.5656281305838
 30
0.0
  0
SPLINE
  5
87
330
71
100
AcDbEntity
  8
404240038_GEH_HA
  6
Continuous
 62
     7
100
AcDbSpline
210
0.0
220
0.0
230
1.0
 70
     8
 71
     3
 72
    16
 73
    12
 74
     0
 42
0.0000000046491361
 43
0.0000000001
 40
0.2970727122530398
 40
0.2970727122530398
 40
0.2970727122530398
 40
0.2970727122530398
 40
0.3340812104444197
 40
0.404308686742426
 40
0.4836989767837005
 40
0.5721885179752116
 40
0.6684417912366866
 40
0.7705721427423314
 40
0.8767291189264982
 40
0.9853789534871696
 40
1.0
 40
1.0
 40
1.0
 40
1.0
 10
81.4289121077517
 20
245.2764913901889
 30
0.0
 10
81.42891341561696
 20
245.2764805247458
 30
0.0
 10
81.43557372764802
 20
245.2784041972744
 30
0.0
 10
81.47732460590765
 20
245.2851213451582
 30
0.0
 10
81.57287114972351
 20
245.2900571168049
 30
0.0
 10
81.72135790981297
 20
245.2866933790045
 30
0.0
 10
81.92564868657068
 20
245.2710656146467
 30
0.0
 10
82.18626408262449
 20
245.2411505922269
 30
0.0
 10
82.5009421079705
 20
245.1959978617188
 30
0.0
 10
82.76085487157795
 20
245.1548597418668
 30
0.0
 10
82.90821590514832
 20
245.1291743051822
 30
0.0
 10
82.92858431636805
 20
245.1256207561452
 30
0.0
  0
ARC
  5
88
330
71
100
AcDbEntity
  8
404240038_GEH_HA
  6
Continuous
 62
     7
100
AcDbCircle
 10
67.4196345986
 20
234.9432795469
 30
0.0
 40
0.499999999999997
100
AcDbArc
 50
199.0256741346
 51
250.9755038847
  0
ARC
  5
89
330
71
100
AcDbEntity
  8
404240038_GEH_HA
  6
Continuous
 62
     7
100
AcDbCircle
 10
120.8839691468
 20
288.407600211
 30
0.0
 40
0.5000000000000017
100
AcDbArc
 50
19.0256741346
 51
70.9755038847
  0
SPLINE
  5
8A
330
71
100
AcDbEntity
  8
404240038_GEH_HA
  6
Continuous
 62
     7
100
AcDbSpline
210
0.0
220
0.0
230
1.0
 70
     8
 71
     3
 72
    34
 73
    30
 74
     0
 42
0.0000000001825416
 43
0.0000000001
 40
0.0
 40
0.0
 40
0.0
 40
0.0
 40
0.032246110651114
 40
0.069287897847123
 40
0.1026123835923849
 40
0.1383419715610014
 40
0.172886314703224
 40
0.2109739341832665
 40
0.2490156077891585
 40
0.2870497311429469
 40
0.32510718598356
 40
0.3632181579404309
 40
0.4014192559104366
 40
0.4397470698085043
 40
0.4782381880661409
 40
0.5169072755065748
 40
0.555333607059802
 40
0.5937153392377029
 40
0.6321117144033128
 40
0.670496953136675
 40
0.7088487386847794
 40
0.7471465969745874
 40
0.7853704120593461
 40
0.8235006128859121
 40
0.8615183534300845
 40
0.8941929409409414
 40
0.9285672395952977
 40
0.9652242195589084
 40
1.0
 40
1.0
 40
1.0
 40
1.0
 10
66.96161361559427
 20
288.565698093423
 30
0.0
 10
66.7555226751816
 20
287.951707849324
 30
0.0
 10
66.38352556078173
 20
286.8375645997736
 30
0.0
 10
65.81510473539629
 20
285.0105601865216
 30
0.0
 10
65.28327949693995
 20
283.1581661497631
 30
0.0
 10
64.8139913772858
 20
281.3225764383265
 30
0.0
 10
64.36839686203993
 20
279.3954708159866
 30
0.0
 10
63.96070715614577
 20
277.4157920852421
 30
0.0
 10
63.59208361798721
 20
275.3639874292057
 30
0.0
 10
63.2756548007915
 20
273.3039635861388
 30
0.0
 10
63.01134646019201
 20
271.2353528363442
 30
0.0
 10
62.79910973580036
 20
269.1576831091238
 30
0.0
 10
62.63893985959226
 20
267.0704040418466
 30
0.0
 10
62.53087981377378
 20
264.9728291521442
 30
0.0
 10
62.47506034497502
 20
262.8646706655654
 30
0.0
 10
62.47160978121468
 20
260.753970807936
 30
0.0
 10
62.52159451350424
 20
258.645856563668
 30
0.0
 10
62.62425938503197
 20
256.5446395641773
 30
0.0
 10
62.77962248479597
 20
254.4474121380728
 30
0.0
 10
62.98760182219902
 20
252.3552958378464
 30
0.0
 10
63.2479441266977
 20
250.2708650623179
 30
0.0
 10
63.56036280883207
 20
248.1965641238947
 30
0.0
 10
63.92427700762111
 20
246.1348507116676
 30
0.0
 10
64.33981048212253
 20
244.0878709221778
 30
0.0
 10
64.78285373527243
 20
242.1514797939214
 30
0.0
 10
65.26075749948787
 20
240.2906952262271
 30
0.0
 10
65.77799010887034
 20
238.4792740484637
 30
0.0
 10
66.359669665406
 20
236.5958091939521
 30
0.0
 10
66.74055964209383
 20
235.4477138712404
 30
0.0
 10
66.96155205990303
 20
234.7851331716449
 30
0.0
  0
SPLINE
  5
8B
330
71
100
AcDbEntity
  8
404240038_GEH_HA
  6
Continuous
 62
     7
100
AcDbSpline
210
0.0
220
0.0
230
1.0
 70
     8
 71
     3
 72
    34
 73
    30
 74
     0
 42
0.0000000001825401
 43
0.0000000001
 40
0.0
 40
0.0
 40
0.0
 40
0.0
 40
0.016836666807327
 40
0.0547096920121367
 40
0.0884925390878597
 40
0.1246913296684554
 40
0.1600783196699315
 40
0.1980042447258333
 40
0.2359793664356589
 40
0.2740435200723376
 40
0.3122348297304521
 40
0.3506029913503198
 40
0.3888113926306482
 40
0.4271669299668741
 40
0.4656327847599042
 40
0.5041720585644894
 40
0.5427474875724211
 40
0.581317255150321
 40
0.6198368360507744
 40
0.6582704659348524
 40
0.6965836512141412
 40
0.7347489978082982
 40
0.772878991451951
 40
0.8110737527430694
 40
0.849249873007147
 40
0.8873282608174899
 40
0.9252450118275809
 40
0.9629476643977428
 40
1.0
 40
1.0
 40
1.0
 40
1.0
 10
121.0441715723146
 20
288.8722299764141
 30
0.0
 10
120.7241518178352
 20
288.9815058919245
 30
0.0
 10
119.8390028968956
 20
289.2828940257235
 30
0.0
 10
118.2574375378498
 20
289.7849763538281
 30
0.0
 10
116.3816066690453
 20
290.3407495008263
 30
0.0
 10
114.5182683960627
 20
290.8349344870853
 30
0.0
 10
112.5748807401955
 20
291.3021403876999
 30
0.0
 10
110.5875482427518
 20
291.7283043165073
 30
0.0
 10
108.5423953898319
 20
292.1130674572522
 30
0.0
 10
106.4832891619736
 20
292.4467979154093
 30
0.0
 10
104.4093785779669
 20
292.7297671341927
 30
0.0
 10
102.3263309284479
 20
292.9603686235506
 30
0.0
 10
100.2351321893486
 20
293.1384088261871
 30
0.0
 10
98.13834504253634
 20
293.2640391649464
 30
0.0
 10
96.03303045970694
 20
293.3373016002976
 30
0.0
 10
93.92252658999446
 20
293.3578764368777
 30
0.0
 10
91.81027162268735
 20
293.3255694353801
 30
0.0
 10
89.6998488651203
 20
293.2403382377811
 30
0.0
 10
87.59481528237032
 20
293.1023022815421
 30
0.0
 10
85.49858990686903
 20
292.9117160802682
 30
0.0
 10
83.41427580488192
 20
292.6689834757
 30
0.0
 10
81.34227887222295
 20
292.3740962240797
 30
0.0
 10
79.28063264700468
 20
292.0271288149455
 30
0.0
 10
77.22796170253389
 20
291.6280474428145
 30
0.0
 10
75.1879446367756
 20
291.1776023963541
 30
0.0
 10
73.16137623198146
 20
290.6754949529346
 30
0.0
 10
71.16993563355292
 20
290.128421298961
 30
0.0
 10
69.16203108085526
 20
289.5197003523062
 30
0.0
 10
67.96019485772862
 20
289.1236882434693
 30
0.0
 10
67.25383762874138
 20
288.8894213913727
 30
0.0
  0
SPLINE
  5
8C
330
71
100
AcDbEntity
  8
404240038_GEH_HA
  6
Continuous
 62
     7
100
AcDbSpline
210
0.0
220
0.0
230
1.0
 70
     8
 71
     3
 72
    14
 73
    10
 74
     0
 42
0.000000006244353
 43
0.0000000001
 40
0.0
 40
0.0
 40
0.0
 40
0.0
 40
0.0168359714355264
 40
0.1454401256774365
 40
0.270752474662373
 40
0.3775408571656514
 40
0.4753687078209577
 40
0.5608214703557741
 40
0.6405008671376973
 40
0.6405008671376973
 40
0.6405008671376973
 40
0.6405008671376973
 10
80.79576798879022
 20
277.6026020753353
 30
0.0
 10
80.77826024987345
 20
277.5989239713426
 30
0.0
 10
80.64849948287886
 20
277.5716953177727
 30
0.0
 10
80.42739024362332
 20
277.5310194293959
 30
0.0
 10
80.17723637439151
 20
277.4914172530722
 30
0.0
 10
79.99201083042371
 20
277.4713709557966
 30
0.0
 10
79.86872700184306
 20
277.4659911318568
 30
0.0
 10
79.7964322481909
 20
277.4696913682629
 30
0.0
 10
79.78193504048487
 20
277.4730485467423
 30
0.0
 10
79.78211783716225
 20
277.4730261552267
 30
0.0
  0
ARC
  5
8D
330
71
100
AcDbEntity
  8
404240038_GEH_HA
  6
Continuous
 62
     7
100
AcDbCircle
 10
67.4196415407
 20
288.407607153
 30
0.0
 40
0.5000000000000158
100
AcDbArc
 50
109.0256741346
 51
160.9755038847
  0
ARC
  5
8E
330
71
100
AcDbEntity
  8
404240038_GEH_HA
  6
Continuous
 62
     7
100
AcDbCircle
 10
108.8607861217
 20
246.9664623519
 30
0.0
 40
0.5000000000000018
100
AcDbArc
 50
289.7099936865
 51
340.2893448403
  0
ARC
  5
8F
330
71
100
AcDbEntity
  8
404240038_GEH_HA
  6
Continuous
 62
     7
100
AcDbCircle
 10
108.8607793997
 20
276.384424128
 30
0.0
 40
0.5000000000000003
100
AcDbArc
 50
19.7099936865
 51
70.2893448403
  0
ARC
  5
91
330
71
100
AcDbEntity
  8
A4241953_ROSETTE
  6
Continuous
 62
     7
100
AcDbCircle
 10
151.7376723659
 20
261.6754461449
 30
0.0
 40
92.59353667610274
100
AcDbArc
 50
161.3030877912
 51
198.6969178697
  0
LINE
  5
92
330
71
100
AcDbEntity
  8
A4241953_ROSETTE
  6
Continuous
 62
     7
100
AcDbLine
 10
64.0305259546
 20
231.993473458
 30
0.0
 11
64.0615682631
 21
231.9025168642
 31
0.0
  0
LINE
  5
93
330
71
100
AcDbEntity
  8
A4241953_ROSETTE
  6
Continuous
 62
     7
100
AcDbLine
 10
64.0615682631
 20
231.9025168642
 30
0.0
 11
64.0946235233
 21
231.8060106306
 31
0.0
  0
LINE
  5
94
330
71
100
AcDbEntity
  8
A4241953_ROSETTE
  6
Continuous
 62
     7
100
AcDbLine
 10
64.0946221443
 20
291.5448700142
 30
0.0
 11
64.0615666272
 21
291.4483669274
 31
0.0
  0
LINE
  5
95
330
71
100
AcDbEntity
  8
A4241953_ROSETTE
  6
Continuous
 62
     7
100
AcDbLine
 10
64.0615666272
 20
291.4483669274
 30
0.0
 11
64.030523022
 21
291.3574101661
 31
0.0
  0
ARC
  5
96
330
71
100
AcDbEntity
  8
A4241953_ROSETTE
  6
Continuous
 62
     7
100
AcDbCircle
 10
94.1504407413
 20
204.0882019719
 30
0.0
 40
92.59353664729966
100
AcDbArc
 50
71.3030879204
 51
108.6969174987
  0
LINE
  5
97
330
71
100
AcDbEntity
  8
A4241953_ROSETTE
  6
Continuous
 62
     7
100
AcDbLine
 10
64.4684686315
 20
291.7953485481
 30
0.0
 11
64.3775116635
 21
291.7643061124
 31
0.0
  0
SPLINE
  5
98
330
71
100
AcDbEntity
  8
A4241953_ROSETTE
  6
Continuous
 62
     7
100
AcDbSpline
210
0.0
220
0.0
230
1.0
 70
    12
 71
     3
 72
     8
 73
     4
 74
     0
 42
0.0000002660383515
 43
0.0000000001
 40
0.6517213852022236
 40
0.6517213852022236
 40
0.6517213852022236
 40
0.6517213852022236
 40
1.0
 40
1.0
 40
1.0
 40
1.0
 10
64.2933873911878
 20
291.7355009593185
 30
0.0
 41
0.9451838643476146
 10
64.2850953084299
 20
291.7326562999484
 30
0.0
 41
0.9536913648649123
 10
64.28100522825088
 20
291.7312507832265
 30
0.0
 41
0.9719634100823742
 10
64.28100522825089
 20
291.7312507832265
 30
0.0
 41
1.0
  0
SPLINE
  5
99
330
71
100
AcDbEntity
  8
A4241953_ROSETTE
  6
Continuous
 62
     7
100
AcDbSpline
210
0.0
220
0.0
230
1.0
 70
    12
 71
     3
 72
     8
 73
     4
 74
     0
 42
0.0000002255176135
 43
0.0000000001
 40
0.0
 40
0.0
 40
0.0
 40
0.0
 40
0.4093144811218594
 40
0.4093144811218594
 40
0.4093144811218594
 40
0.4093144811218594
 10
124.0198646118141
 20
291.7312521621985
 30
0.0
 41
1.0
 10
124.0198646118147
 20
291.7312521621984
 30
0.0
 41
0.9670474053287199
 10
124.0141791238488
 20
291.7332060045422
 30
0.0
 41
0.9475827848469338
 10
124.0026974751
 20
291.737143843617
 30
0.0
 41
0.9416061385546416
  0
LINE
  5
9A
330
71
100
AcDbEntity
  8
A4241953_ROSETTE
  6
Continuous
 62
     7
100
AcDbLine
 10
123.9233615882
 20
291.7643076577
 30
0.0
 11
123.8324045555
 21
291.7953513555
 31
0.0
  0
ARC
  5
9B
330
71
100
AcDbEntity
  8
A4241953_ROSETTE
  6
Continuous
 62
     7
100
AcDbCircle
 10
90.6658008344
 20
308.4906547022
 30
0.0
 40
81.27307244409023
100
AcDbArc
 50
251.0560057662
 51
251.1031028799
  0
LINE
  5
9C
330
71
100
AcDbEntity
  8
A4241953_ROSETTE
  6
Continuous
 62
     7
100
AcDbLine
 10
64.3775073508
 20
231.5865720393
 30
0.0
 11
64.4684646979
 21
231.5555282345
 31
0.0
  0
ARC
  5
9D
330
71
100
AcDbEntity
  8
A4241953_ROSETTE
  6
Continuous
 62
     7
100
AcDbCircle
 10
94.1504281618
 20
319.262677748
 30
0.0
 40
92.59353665820153
100
AcDbArc
 50
251.3030881515
 51
288.6969174703
  0
LINE
  5
9E
330
71
100
AcDbEntity
  8
A4241953_ROSETTE
  6
Continuous
 62
     7
100
AcDbLine
 10
123.8324002315
 20
231.5555311468
 30
0.0
 11
123.9233572381
 21
231.5865735956
 31
0.0
  0
ARC
  5
9F
330
71
100
AcDbEntity
  8
A4241953_ROSETTE
  6
Continuous
 62
     7
100
AcDbCircle
 10
97.6335139054
 20
308.498291044
 30
0.0
 40
81.28079812173891
100
AcDbArc
 50
288.8713741847
 51
288.943282595
  0
SPLINE
  5
A0
330
71
100
AcDbEntity
  8
A4241953_ROSETTE
  6
Continuous
 62
     7
100
AcDbSpline
210
0.0
220
0.0
230
1.0
 70
    12
 71
     3
 72
     8
 73
     4
 74
     0
 42
0.0000001186206578
 43
0.0000000001
 40
0.2062427324852399
 40
0.2062427324852399
 40
0.2062427324852399
 40
0.2062427324852399
 40
1.0
 40
1.0
 40
1.0
 40
1.0
 10
124.2279438603921
 20
231.8693100268625
 30
0.0
 41
0.9604611241396959
 10
124.2137908250539
 20
231.8279621784782
 30
0.0
 41
0.9229169094713172
 10
124.2062467598048
 20
231.8060096947025
 30
0.0
 41
0.9360965347580853
 10
124.2062467598048
 20
231.8060096947025
 30
0.0
 41
1.0
  0
LINE
  5
A1
330
71
100
AcDbEntity
  8
A4241953_ROSETTE
  6
Continuous
 62
     7
100
AcDbLine
 10
124.2703458334
 20
231.993469377
 30
0.0
 11
124.2393022668
 21
231.902512752
 31
0.0
  0
ARC
  5
A2
330
71
100
AcDbEntity
  8
A4241953_ROSETTE
  6
Continuous
 62
     7
100
AcDbCircle
 10
36.519914361
 20
261.6754335427
 30
0.0
 40
92.63453578618413
100
AcDbArc
 50
341.3116693463
 51
18.6883356621
  0
LINE
  5
A3
330
71
100
AcDbEntity
  8
A4241953_ROSETTE
  6
Continuous
 62
     7
100
AcDbLine
 10
124.2393006915
 20
291.4483626972
 30
0.0
 11
124.2703432388
 21
291.357405379
 31
0.0
  0
SPLINE
  5
A4
330
71
100
AcDbEntity
  8
A4241953_ROSETTE
  6
Continuous
 62
     7
100
AcDbSpline
210
0.0
220
0.0
230
1.0
 70
    12
 71
     3
 72
     8
 73
     4
 74
     0
 42
0.0000000980291292
 43
0.0000000001
 40
0.0
 40
0.0
 40
0.0
 40
0.0
 40
1.0
 40
1.0
 40
1.0
 40
1.0
 10
124.206245380834
 20
291.5448690782675
 30
0.0
 41
1.0
 10
124.206245380834
 20
291.5448690782675
 30
0.0
 41
0.919500182423951
 10
124.2182635465415
 20
291.5098959894072
 30
0.0
 41
0.919500182423951
 10
124.2393006914661
 20
291.4483626972295
 30
0.0
 41
1.0
  0
ARC
  5
A5
330
71
100
AcDbEntity
  8
A4241953_ROSETTE
  6
Continuous
 62
     7
100
AcDbCircle
 10
64.3782789356
 20
231.9033199994
 30
0.0
 40
0.2998824873188142
100
AcDbArc
 50
198.9347807458
 51
225.0048115493
  0
ARC
  5
A6
330
71
100
AcDbEntity
  8
A4241953_ROSETTE
  6
Continuous
 62
     7
100
AcDbCircle
 10
64.3783175091
 20
231.903281928
 30
0.0
 40
0.2998827607129749
100
AcDbArc
 50
224.9944568011
 51
251.0644598979
  0
ARC
  5
A7
330
71
100
AcDbEntity
  8
A4241953_ROSETTE
  6
Continuous
 62
     7
100
AcDbCircle
 10
64.3783168719
 20
231.9032804523
 30
0.0
 40
0.2998811580999445
100
AcDbArc
 50
224.9943428743
 51
251.0644835666
  0
ARC
  5
A8
330
71
100
AcDbEntity
  8
A4241953_ROSETTE
  6
Continuous
 62
     7
100
AcDbCircle
 10
64.3782753647
 20
231.9033155268
 30
0.0
 40
0.2998766090897733
100
AcDbArc
 50
198.9341938378
 51
220.1421608772
  0
ARC
  5
A9
330
71
100
AcDbEntity
  8
A4241953_ROSETTE
  6
Continuous
 62
     7
100
AcDbCircle
 10
123.9225543071
 20
231.903284338
 30
0.0
 40
0.2998824873323864
100
AcDbArc
 50
288.9347807462
 51
315.0048115483
  0
ARC
  5
AA
330
71
100
AcDbEntity
  8
A4241953_ROSETTE
  6
Continuous
 62
     7
100
AcDbCircle
 10
123.9225923786
 20
231.9033229115
 30
0.0
 40
0.2998827607048452
100
AcDbArc
 50
314.9944568002
 51
341.0644598978
  0
ARC
  5
AB
330
71
100
AcDbEntity
  8
A4241953_ROSETTE
  6
Continuous
 62
     7
100
AcDbCircle
 10
123.9225938542
 20
231.9033222743
 30
0.0
 40
0.2998811580890772
100
AcDbArc
 50
314.9943428736
 51
341.0644835666
  0
ARC
  5
AC
330
71
100
AcDbEntity
  8
A4241953_ROSETTE
  6
Continuous
 62
     7
100
AcDbCircle
 10
123.9225587797
 20
231.9032807671
 30
0.0
 40
0.2998766090898367
100
AcDbArc
 50
288.9341938372
 51
310.1421859669
  0
ARC
  5
AD
330
71
100
AcDbEntity
  8
A4241953_ROSETTE
  6
Continuous
 62
     7
100
AcDbCircle
 10
123.9225520323
 20
291.4475992566
 30
0.0
 40
0.2998811580596827
100
AcDbArc
 50
44.9943428742
 51
71.0644835685
  0
ARC
  5
AE
330
71
100
AcDbEntity
  8
A4241953_ROSETTE
  6
Continuous
 62
     7
100
AcDbCircle
 10
123.9225899685
 20
291.4475597095
 30
0.0
 40
0.2998824053597732
100
AcDbArc
 50
18.9347807458
 51
45.0048115486
  0
ARC
  5
AF
330
71
100
AcDbEntity
  8
A4241953_ROSETTE
  6
Continuous
 62
     7
100
AcDbCircle
 10
123.922551395
 20
291.4475977809
 30
0.0
 40
0.299882760708418
100
AcDbArc
 50
44.9944568005
 51
71.0644598983
  0
ARC
  5
B0
330
71
100
AcDbEntity
  8
A4241953_ROSETTE
  6
Continuous
 62
     7
100
AcDbCircle
 10
64.378314597
 20
291.4475953709
 30
0.0
 40
0.2998824873197118
100
AcDbArc
 50
108.9347807455
 51
135.0048115487
  0
ARC
  5
B1
330
71
100
AcDbEntity
  8
A4241953_ROSETTE
  6
Continuous
 62
     7
100
AcDbCircle
 10
64.3782765256
 20
291.4475567974
 30
0.0
 40
0.2998827607089199
100
AcDbArc
 50
134.9944568005
 51
161.064459898
  0
ARC
  5
B2
330
71
100
AcDbEntity
  8
A4241953_ROSETTE
  6
Continuous
 62
     7
100
AcDbCircle
 10
64.3783101244
 20
291.4475989418
 30
0.0
 40
0.2998766090806888
100
AcDbArc
 50
108.9341938367
 51
135.0046892092
  0
SPLINE
  5
B3
330
71
100
AcDbEntity
  8
A4241953_ROSETTE
  6
Continuous
 62
     7
100
AcDbSpline
210
0.0
220
0.0
230
1.0
 70
     8
 71
     7
 72
    16
 73
     8
 74
     0
 42
0.000000064088967
 43
0.0000000001
 40
0.0
 40
0.0
 40
0.0
 40
0.0
 40
0.0
 40
0.0
 40
0.0
 40
0.0
 40
0.2145865527793324
 40
0.2145865527793324
 40
0.2145865527793324
 40
0.2145865527793324
 40
0.2145865527793324
 40
0.2145865527793324
 40
0.2145865527793324
 40
0.2145865527793324
 10
64.377507350841
 20
231.5865720392543
 30
0.0
 10
64.3731570642293
 20
231.5880593853047
 30
0.0
 10
64.36883217858541
 20
231.5896900971282
 30
0.0
 10
64.36451941927157
 20
231.5914825721059
 30
0.0
 10
64.36020882562676
 20
231.5934559715
 30
0.0
 10
64.35589304294788
 20
231.5956295576463
 30
0.0
 10
64.3515663913668
 20
231.5980217962049
 30
0.0
 10
64.34722408282471
 20
231.6006496026268
 30
0.0
  0
SPLINE
  5
B4
330
71
100
AcDbEntity
  8
A4241953_ROSETTE
  6
Continuous
 62
     7
100
AcDbSpline
210
0.0
220
0.0
230
1.0
 70
     8
 71
     7
 72
    16
 73
     8
 74
     0
 42
0.0000000638136931
 43
0.0000000001
 40
0.0
 40
0.0
 40
0.0
 40
0.0
 40
0.0
 40
0.0
 40
0.0
 40
0.0
 40
0.2287480552692456
 40
0.2287480552692456
 40
0.2287480552692456
 40
0.2287480552692456
 40
0.2287480552692456
 40
0.2287480552692456
 40
0.2287480552692456
 40
0.2287480552692456
 10
64.37751166349229
 20
291.7643061123898
 30
0.0
 10
64.37287406790408
 20
291.7627206004362
 30
0.0
 10
64.36826533805794
 20
291.7609721745096
 30
0.0
 10
64.36366939315586
 20
291.7590385497346
 30
0.0
 10
64.35907443185489
 20
291.7568964547531
 30
0.0
 10
64.3544719576397
 20
291.7545225440902
 30
0.0
 10
64.34985547686901
 20
291.7518946551943
 30
0.0
 10
64.34521945007165
 20
291.7489928171661
 30
0.0
  0
SPLINE
  5
B5
330
71
100
AcDbEntity
  8
A4241953_ROSETTE
  6
Continuous
 62
     7
100
AcDbSpline
210
0.0
220
0.0
230
1.0
 70
     8
 71
     7
 72
    16
 73
     8
 74
     0
 42
0.000000063686184
 43
0.0000000001
 40
0.7646943952898015
 40
0.7646943952898015
 40
0.7646943952898015
 40
0.7646943952898015
 40
0.7646943952898015
 40
0.7646943952898015
 40
0.7646943952898015
 40
0.7646943952898015
 40
1.0
 40
1.0
 40
1.0
 40
1.0
 40
1.0
 40
1.0
 40
1.0
 40
1.0
 10
123.9565828918239
 20
291.7484073971743
 30
0.0
 10
123.9518106587522
 20
291.7514411328634
 30
0.0
 10
123.9470599400866
 20
291.7541819774318
 30
0.0
 10
123.9423248197492
 20
291.7566513901402
 30
0.0
 10
123.9375984137094
 20
291.7588733808551
 30
0.0
 10
123.9328716793753
 20
291.7608733651282
 30
0.0
 10
123.9281319052064
 20
291.7626767049118
 30
0.0
 10
123.9233615881959
 20
291.7643076577219
 30
0.0
  0
SPLINE
  5
B6
330
71
100
AcDbEntity
  8
A4241953_ROSETTE
  6
Continuous
 62
     7
100
AcDbSpline
210
0.0
220
0.0
230
1.0
 70
     8
 71
     7
 72
    16
 73
     8
 74
     0
 42
0.0000000638632839
 43
0.0000000001
 40
0.7736569087468743
 40
0.7736569087468743
 40
0.7736569087468743
 40
0.7736569087468743
 40
0.7736569087468743
 40
0.7736569087468743
 40
0.7736569087468743
 40
0.7736569087468743
 40
1.0
 40
1.0
 40
1.0
 40
1.0
 40
1.0
 40
1.0
 40
1.0
 40
1.0
 10
124.2242019770859
 20
231.8705631771426
 30
0.0
 10
124.2270562288872
 20
231.8751490381338
 30
0.0
 10
124.2296432914393
 20
231.8797160485344
 30
0.0
 10
124.2319826010249
 20
231.8842696143648
 30
0.0
 10
124.2340956644268
 20
231.8888160879649
 30
0.0
 10
124.2360050972005
 20
231.8933637677015
 30
0.0
 10
124.2377334347283
 20
231.8979241296395
 30
0.0
 10
124.2393022668286
 20
231.9025127519577
 30
0.0
  0
SPLINE
  5
B7
330
71
100
AcDbEntity
  8
A4241953_ROSETTE
  6
Continuous
 62
     7
100
AcDbSpline
210
0.0
220
0.0
230
1.0
 70
     8
 71
     3
 72
     8
 73
     4
 74
     0
 42
0.0000010737831408
 43
0.0000000001
 40
0.0
 40
0.0
 40
0.0
 40
0.0
 40
1.0
 40
1.0
 40
1.0
 40
1.0
 10
64.33549622039881
 20
231.6009471245058
 30
0.0
 10
64.33671489314682
 20
231.6001822313667
 30
0.0
 10
64.33955712825649
 20
231.6008677458928
 30
0.0
 10
64.34402292572777
 20
231.6030036680841
 30
0.0
  0
ARC
  5
B8
330
71
100
AcDbEntity
  8
A4241953_ROSETTE
  6
Continuous
 62
     7
100
AcDbCircle
 10
64.475642761
 20
291.1112686349
 30
0.0
 40
0.6500680813863599
100
AcDbArc
 50
101.6814664172
 51
106.7433513868
  0
ARC
  5
B9
330
71
100
AcDbEntity
  8
A4241953_ROSETTE
  6
Continuous
 62
     7
100
AcDbCircle
 10
123.8252326679
 20
291.111362162
 30
0.0
 40
0.6499784493945592
100
AcDbArc
 50
73.2550623883
 51
78.3174679813
  0
SPLINE
  5
BA
330
71
100
AcDbEntity
  8
A4241953_ROSETTE
  6
Continuous
 62
     7
100
AcDbSpline
210
0.0
220
0.0
230
1.0
 70
     8
 71
     3
 72
     8
 73
     4
 74
     0
 42
0.0000010665674417
 43
0.0000000001
 40
0.0
 40
0.0
 40
0.0
 40
0.0
 40
1.0
 40
1.0
 40
1.0
 40
1.0
 10
124.2249015242711
 20
231.860426699144
 30
0.0
 10
124.2256723196115
 20
231.8616628176021
 30
0.0
 10
124.2249947985794
 20
231.8645291730971
 30
0.0
 10
124.2228689611747
 20
231.869025765629
 30
0.0
  0
SPLINE
  5
BC
330
71
100
AcDbEntity
  8
A4241962_EINSATZ
  6
Continuous
 62
     7
100
AcDbSpline
210
0.0
220
0.0
230
1.0
 70
     8
 71
     3
 72
     8
 73
     4
 74
     0
 42
0.0000000002114447
 43
0.0000000001
 40
0.9189805107953699
 40
0.9189805107953699
 40
0.9189805107953699
 40
0.9189805107953699
 40
0.9700811881865562
 40
0.9700811881865562
 40
0.9700811881865562
 40
0.9700811881865562
 10
94.57823407648551
 20
240.8581906306451
 30
0.0
 10
95.38924077216191
 20
240.8698625376632
 30
0.0
 10
96.19803297545239
 20
240.9209852906268
 30
0.0
 10
96.98834855005727
 20
241.0093700729763
 30
0.0
  0
SPLINE
  5
BD
330
71
100
AcDbEntity
  8
A4241962_EINSATZ
  6
Continuous
 62
     7
100
AcDbSpline
210
0.0
220
0.0
230
1.0
 70
     8
 71
     3
 72
     8
 73
     4
 74
     0
 42
0.0000000013377807
 43
0.0000000001
 40
0.4910733987243227
 40
0.4910733987243227
 40
0.4910733987243227
 40
0.4910733987243227
 40
0.4922266048432721
 40
0.4922266048432721
 40
0.4922266048432721
 40
0.4922266048432721
 10
79.97155573687866
 20
277.5730660726232
 30
0.0
 10
79.97140604976997
 20
277.5759067252098
 30
0.0
 10
79.97131724354088
 20
277.5787783266715
 30
0.0
 10
79.9712892919254
 20
277.5816809169319
 30
0.0
  0
SPLINE
  5
BE
330
71
100
AcDbEntity
  8
A4241962_EINSATZ
  6
Continuous
 62
     7
100
AcDbSpline
210
0.0
220
0.0
230
1.0
 70
     8
 71
     3
 72
     8
 73
     4
 74
     0
 42
0.000000001687063
 43
0.0000000001
 40
0.4977411335263137
 40
0.4977411335263137
 40
0.4977411335263137
 40
0.4977411335263137
 40
0.4984068973459921
 40
0.4984068973459921
 40
0.4984068973459921
 40
0.4984068973459921
 10
81.67246325007572
 20
245.117969842273
 30
0.0
 10
81.67236724221951
 20
245.1192883829152
 30
0.0
 10
81.67228532527912
 20
245.1206012155108
 30
0.0
 10
81.67221751095146
 20
245.1219083294944
 30
0.0
  0
ELLIPSE
  5
BF
330
71
100
AcDbEntity
  8
A4241962_EINSATZ
  6
Continuous
 62
     7
100
AcDbEllipse
 10
111.3742536801
 20
244.7733406121
 30
0.0
 11
-0.2711373676703328
 21
0.1283920864103734
 31
0.0
210
0.0
220
0.0
230
0.9999999999999999
 40
0.9386426237
 41
3.1415926535898
 42
3.192216897949072
  0
ARC
  5
C0
330
71
100
AcDbEntity
  8
A4241962_EINSATZ
  6
Continuous
 62
     7
100
AcDbCircle
 10
48.0149765698
 20
248.5459236952
 30
0.0
 40
70.39663059907136
100
AcDbArc
 50
24.7846497923
 51
25.3156300029
  0
ARC
  5
C1
330
71
100
AcDbEntity
  8
A4241962_EINSATZ
  6
Continuous
 62
     7
100
AcDbCircle
 10
48.0149765698
 20
248.5459236952
 30
0.0
 40
70.39663059907136
100
AcDbArc
 50
24.7740054597
 51
24.7791705171
  0
ELLIPSE
  5
C2
330
71
100
AcDbEntity
  8
A4241962_EINSATZ
  6
Continuous
 62
     7
100
AcDbEllipse
 10
111.3742490786
 20
278.5324772491
 30
0.0
 11
-0.2711322228885066
 21
-0.128402950556189
 31
0.0
210
0.0
220
0.0
230
1.0
 40
0.9386378679
 41
3.090970321424349
 42
3.141592653589891
  0
ARC
  5
C3
330
71
100
AcDbEntity
  8
A4241962_EINSATZ
  6
Continuous
 62
     7
100
AcDbCircle
 10
48.534299403
 20
274.5107912489
 30
0.0
 40
69.8206665612684
100
AcDbArc
 50
334.6869388178
 51
335.2330024182
  0
ELLIPSE
  5
C4
330
71
100
AcDbEntity
  8
A4241962_EINSATZ
  6
Continuous
 62
     7
100
AcDbEllipse
 10
111.6541867588
 20
245.3720319259
 30
0.0
 11
-0.272340673341559
 21
0.1258195439662255
 31
0.0
210
0.0
220
0.0
230
1.0
 40
0.9500639471
 41
3.141592653590225
 42
3.197549123651267
  0
SPLINE
  5
C5
330
71
100
AcDbEntity
  8
A4241962_EINSATZ
  6
Continuous
 62
     7
100
AcDbSpline
210
0.0
220
0.0
230
1.0
 70
     8
 71
     3
 72
    14
 73
    10
 74
     0
 42
0.0000000002973297
 43
0.0000000001
 40
0.0
 40
0.0
 40
0.0
 40
0.0
 40
0.25
 40
0.25
 40
0.5
 40
0.5
 40
0.75
 40
0.75
 40
1.0
 40
1.0
 40
1.0
 40
1.0
 10
111.9328423885809
 20
278.0449411173722
 30
0.0
 10
112.9761553870796
 20
275.4308480133285
 30
0.0
 10
113.7638620220484
 20
272.7226850641014
 30
0.0
 10
114.8135488128516
 20
267.2261293312945
 30
0.0
 10
115.0774064639784
 20
264.4057011973821
 30
0.0
 10
115.0737555792411
 20
258.8408194039735
 30
0.0
 10
114.8131968045287
 20
256.0780844465733
 30
0.0
 10
113.7657787554542
 20
250.5926992228634
 30
0.0
 10
112.9757839968325
 20
247.8751291982515
 30
0.0
 10
111.9327865336634
 20
245.2608799907855
 30
0.0
  0
ELLIPSE
  5
C6
330
71
100
AcDbEntity
  8
A4241962_EINSATZ
  6
Continuous
 62
     7
100
AcDbEllipse
 10
111.6542564738
 20
277.933754448
 30
0.0
 11
-0.2723258850354827
 21
-0.1258515488170332
 31
0.0
210
0.0
220
0.0
230
1.0
 40
0.9500517445
 41
3.08564299644112
 42
3.141592653589793
  0
LINE
  5
C7
330
71
100
AcDbEntity
  8
A4241962_EINSATZ
  6
Continuous
 62
     7
100
AcDbLine
 10
81.6635968722
 20
245.2864712017
 30
0.0
 11
81.672473475
 21
245.1170955309
 31
0.0
  0
SPLINE
  5
C8
330
71
100
AcDbEntity
  8
A4241962_EINSATZ
  6
Continuous
 62
     7
100
AcDbSpline
210
0.0
220
0.0
230
1.0
 70
     8
 71
     3
 72
    39
 73
    35
 74
     0
 42
0.0000000005188667
 43
0.0000000001
 40
0.0
 40
0.0
 40
0.0
 40
0.0
 40
0.0160015076027606
 40
0.0475355151952221
 40
0.0787267842185046
 40
0.1095639911131665
 40
0.1400544378871565
 40
0.1702239090734839
 40
0.2000420565894467
 40
0.2297459315542527
 40
0.2599369547197111
 40
0.2906156349996641
 40
0.3218038073488986
 40
0.3535023511233624
 40
0.3856904499665192
 40
0.4183252037312851
 40
0.451342310307939
 40
0.4846580881282809
 40
0.5181730283994284
 40
0.5517769157103164
 40
0.5853202430753426
 40
0.6186947503362237
 40
0.653052631032386
 40
0.6875715044878878
 40
0.7221555906187072
 40
0.7566863261117146
 40
0.7910897863990477
 40
0.8253352750221798
 40
0.8594578628098128
 40
0.8935847610914314
 40
0.9279718251354041
 40
0.9632534237192152
 40
0.9850895567844157
 40
1.0
 40
1.0
 40
1.0
 40
1.0
 10
97.6863342932436
 20
282.7272352979982
 30
0.0
 10
97.53810186913533
 20
282.7487444668767
 30
0.0
 10
97.1634697639898
 20
282.8025967490454
 30
0.0
 10
96.46793600742366
 20
282.8755613152276
 30
0.0
 10
95.6592771862671
 20
282.9381471411454
 30
0.0
 10
94.84544918480734
 20
282.974309038384
 30
0.0
 10
94.03932877295516
 20
282.9838147245038
 30
0.0
 10
93.24203342981993
 20
282.966383530871
 30
0.0
 10
92.45587590097189
 20
282.9217691164459
 30
0.0
 10
91.67691875904411
 20
282.851569894832
 30
0.0
 10
90.9010836921976
 20
282.7563887852132
 30
0.0
 10
90.12632049657806
 20
282.6363848137201
 30
0.0
 10
89.3557449533403
 20
282.4923530307931
 30
0.0
 10
88.59259754349921
 20
282.3252576892676
 30
0.0
 10
87.84058076105045
 20
282.1363186511037
 30
0.0
 10
87.103813379368
 20
281.9270458069394
 30
0.0
 10
86.38676438213076
 20
281.6992554863229
 30
0.0
 10
85.69411893811193
 20
281.4550806013336
 30
0.0
 10
85.03073606670324
 20
281.1969036042804
 30
0.0
 10
84.40133471161198
 20
280.9275540601892
 30
0.0
 10
83.81139876257784
 20
280.6495561873527
 30
0.0
 10
83.25565155371592
 20
280.3664391137185
 30
0.0
 10
82.73428625532456
 20
280.0797275182989
 30
0.0
 10
82.24893528767943
 20
279.7916550465103
 30
0.0
 10
81.80624239573869
 20
279.5078857812721
 30
0.0
 10
81.40866933800518
 20
279.2319606812162
 30
0.0
 10
81.05795104754648
 20
278.9670564371073
 30
0.0
 10
80.75497400161132
 20
278.7157109740387
 30
0.0
 10
80.49974772414271
 20
278.479417930403
 30
0.0
 10
80.29193360762731
 20
278.2586246157743
 30
0.0
 10
80.12909185736
 20
278.0489552824422
 30
0.0
 10
80.03061477560964
 20
277.8738334773824
 30
0.0
 10
79.9760678912202
 20
277.7164915383686
 30
0.0
 10
79.97583840084755
 20
277.6295239974665
 30
0.0
 10
79.9759747372821
 20
277.5877607238176
 30
0.0
  0
ARC
  5
C9
330
71
100
AcDbEntity
  8
A4241962_EINSATZ
  6
Continuous
 62
     7
100
AcDbCircle
 10
94.4987523597
 20
258.9612944905
 30
0.0
 40
23.97875353407729
100
AcDbArc
 50
70.212226314
 51
82.3608533182
  0
ARC
  5
CA
330
71
100
AcDbEntity
  8
A4241962_EINSATZ
  6
Continuous
 62
     7
100
AcDbCircle
 10
103.2304672685
 20
283.1932779587
 30
0.0
 40
1.777188871821182
100
AcDbArc
 50
249.8777493523
 51
260.0398633095
  0
SPLINE
  5
CB
330
71
100
AcDbEntity
  8
A4241962_EINSATZ
  6
Continuous
 62
     7
100
AcDbSpline
210
0.0
220
0.0
230
1.0
 70
     8
 71
     3
 72
    13
 73
     9
 74
     0
 42
0.0000000011135355
 43
0.0000000001
 40
0.0
 40
0.0
 40
0.0
 40
0.0
 40
0.1571741003957199
 40
0.3203227881519581
 40
0.4941879975413631
 40
0.6635222690425919
 40
0.8331224518254302
 40
1.0
 40
1.0
 40
1.0
 40
1.0
 10
111.4949054057382
 20
278.8181660903934
 30
0.0
 10
111.0153125760822
 20
279.0124679796845
 30
0.0
 10
110.1903358159967
 20
279.3443416930297
 30
0.0
 10
108.7744431196898
 20
279.8634535912805
 30
0.0
 10
107.3399513814358
 20
280.3337842555986
 30
0.0
 10
105.8710864848267
 20
280.7591055959863
 30
0.0
 10
104.3747565153506
 20
281.1380942642859
 30
0.0
 10
103.4607438840802
 20
281.329554587863
 30
0.0
 10
102.9227315002668
 20
281.4408533722776
 30
0.0
  0
ARC
  5
CC
330
71
100
AcDbEntity
  8
A4241962_EINSATZ
  6
Continuous
 62
     7
100
AcDbCircle
 10
111.3742490786
 20
278.5324772491
 30
0.0
 40
0.300000000000002
100
AcDbArc
 50
25.3413254131
 51
67.0564286775
  0
ARC
  5
CD
330
71
100
AcDbEntity
  8
A4241962_EINSATZ
  6
Continuous
 62
     7
100
AcDbCircle
 10
111.3742536801
 20
244.7733406121
 30
0.0
 40
0.2999999999999984
100
AcDbArc
 50
292.9436674593
 51
334.6609703596
  0
SPLINE
  5
CE
330
71
100
AcDbEntity
  8
A4241962_EINSATZ
  6
Continuous
 62
     7
100
AcDbSpline
210
0.0
220
0.0
230
1.0
 70
     8
 71
     3
 72
    17
 73
    13
 74
     0
 42
0.0000000007474713
 43
0.0000000001
 40
0.0
 40
0.0
 40
0.0
 40
0.0
 40
0.0190013771462093
 40
0.1338474321876917
 40
0.2486755001725198
 40
0.3630871582917282
 40
0.4767735610516554
 40
0.5896323176393993
 40
0.7037208806571866
 40
0.8177309273838925
 40
0.9317853514959925
 40
1.0
 40
1.0
 40
1.0
 40
1.0
 10
98.5736915208016
 20
241.2301018525334
 30
0.0
 10
98.66656651741933
 20
241.2377821072741
 30
0.0
 10
99.22784946514328
 20
241.2844464380858
 30
0.0
 10
100.3633839830265
 20
241.42963024537
 30
0.0
 10
101.8669742425905
 20
241.6597182748279
 30
0.0
 10
103.3725844756044
 20
241.9472966771248
 30
0.0
 10
104.8546199221072
 20
242.283711738429
 30
0.0
 10
106.322928453996
 20
242.671354026332
 30
0.0
 10
107.7812130968891
 20
243.11084483282
 30
0.0
 10
109.2167069806152
 20
243.598302966983
 30
0.0
 10
110.4820739232716
 20
244.0777171342408
 30
0.0
 10
111.1831074947297
 20
244.366548077246
 30
0.0
 10
111.4922016758332
 20
244.4945705791243
 30
0.0
  0
ARC
  5
CF
330
71
100
AcDbEntity
  8
A4241962_EINSATZ
  6
Continuous
 62
     7
100
AcDbCircle
 10
98.7547469171
 20
239.1976940565
 30
0.0
 40
2.034787859804729
100
AcDbArc
 50
95.0880349898
 51
100.5965723987
  0
ARC
  5
D0
330
71
100
AcDbEntity
  8
A4241962_EINSATZ
  6
Continuous
 62
     7
100
AcDbCircle
 10
94.8374957663
 20
261.6837334444
 30
0.0
 40
20.78868397507849
100
AcDbArc
 50
276.1264922029
 51
279.8065244459
  0
ARC
  5
D1
330
71
100
AcDbEntity
  8
A4241962_EINSATZ
  6
Continuous
 62
     7
100
AcDbCircle
 10
94.2009274624
 20
259.3014479783
 30
0.0
 40
18.44712451342446
100
AcDbArc
 50
267.946271471
 51
271.003584567
  0
SPLINE
  5
D2
330
71
100
AcDbEntity
  8
A4241962_EINSATZ
  6
Continuous
 62
     7
100
AcDbSpline
210
0.0
220
0.0
230
1.0
 70
     8
 71
     3
 72
    32
 73
    28
 74
     0
 42
0.0000000007693489
 43
0.0000000001
 40
0.0
 40
0.0
 40
0.0
 40
0.0
 40
0.0086352305299541
 40
0.0333751728930804
 40
0.0641487454819511
 40
0.104193152586101
 40
0.1504999575816245
 40
0.1954178635678991
 40
0.2395699382224078
 40
0.2836039374873358
 40
0.3277242883993475
 40
0.3720473963302056
 40
0.4165770535233464
 40
0.4612506908511486
 40
0.5059608270011591
 40
0.550554013077739
 40
0.5949090991672653
 40
0.6389182313098769
 40
0.6824959593756458
 40
0.725585536743841
 40
0.7681624050258204
 40
0.8102351656055122
 40
0.8518448144800463
 40
0.892759675623893
 40
0.9330443470715737
 40
0.9735472934804443
 40
1.0
 40
1.0
 40
1.0
 40
1.0
 10
81.67720242220693
 20
245.1139442027603
 30
0.0
 10
81.67726677243756
 20
245.0949624890001
 30
0.0
 10
81.67763231835673
 20
245.0324626010006
 30
0.0
 10
81.71768490593008
 20
244.9244308049319
 30
0.0
 10
81.7912336737813
 20
244.7836778977454
 30
0.0
 10
81.91877754369956
 20
244.6191966377111
 30
0.0
 10
82.10570841094716
 20
244.4293566097233
 30
0.0
 10
82.34998052533149
 20
244.2218401171384
 30
0.0
 10
82.6388559325076
 20
244.006306652914
 30
0.0
 10
82.97309463152583
 20
243.7821314393163
 30
0.0
 10
83.35345702468514
 20
243.5497999624062
 30
0.0
 10
83.77967236100312
 20
243.3110497850769
 30
0.0
 10
84.25081581502953
 20
243.0682349856099
 30
0.0
 10
84.76510539202562
 20
242.8242363039726
 30
0.0
 10
85.3198687689094
 20
242.58230479677
 30
0.0
 10
85.91176646457343
 20
242.345821135911
 30
0.0
 10
86.53699724684499
 20
242.1181194113658
 30
0.0
 10
87.19165033770925
 20
241.9023106281837
 30
0.0
 10
87.87174894075751
 20
241.7012461985558
 30
0.0
 10
88.57343553795069
 20
241.5174627025928
 30
0.0
 10
89.29303109791273
 20
241.35314497027
 30
0.0
 10
90.02742573795815
 20
241.2101749546025
 30
0.0
 10
90.7712850372394
 20
241.0902921531225
 30
0.0
 10
91.52235807152861
 20
240.9952088879095
 30
0.0
 10
92.27297269881093
 20
240.9255734936433
 30
0.0
 10
92.96160186530946
 20
240.88129445976
 30
0.0
 10
93.35599270118665
 20
240.8707853491022
 30
0.0
 10
93.53984432309555
 20
240.8661727729768
 30
0.0
  0
ARC
  5
D3
330
71
100
AcDbEntity
  8
A4241962_EINSATZ
  6
Continuous
 62
     7
100
AcDbCircle
 10
111.6542564738
 20
277.933754448
 30
0.0
 40
0.3000000000001574
100
AcDbArc
 50
21.7574797561
 51
24.8033502692
  0
ARC
  5
D4
330
71
100
AcDbEntity
  8
A4241962_EINSATZ
  6
Continuous
 62
     7
100
AcDbCircle
 10
111.6541867588
 20
245.3720319259
 30
0.0
 40
0.3000000000000034
100
AcDbArc
 50
335.2033831623
 51
338.2496637131
  0
LINE
  5
D5
330
71
100
AcDbEntity
  8
A4241962_EINSATZ
  6
Continuous
 62
     7
100
AcDbLine
 10
79.9712672403
 20
277.5780442287
 30
0.0
 11
79.976806169
 21
277.4723551744
 31
0.0
  0
LINE
  5
D7
330
71
100
AcDbEntity
  8
DV1_Default
  6
Continuous
 62
     7
100
AcDbLine
 10
94.1504363624
 20
262.6116248564
 30
0.0
 11
94.1504363624
 21
260.7392674333
 31
0.0
  0
LINE
  5
D8
330
71
100
AcDbEntity
  8
DV1_Default
  6
Continuous
 62
     7
100
AcDbLine
 10
93.2142576509
 20
261.6754461449
 30
0.0
 11
95.086615074
 21
261.6754461449
 31
0.0
  0
ENDBLK
  5
DA
330
71
100
AcDbEntity
  8
0
100
AcDbBlockEnd
  0
BLOCK
  5
11E
330
DB
100
AcDbEntity
  8
0
100
AcDbBlockBegin
  2
SE1
 70
     0
 10
0.0
 20
0.0
 30
0.0
  3
SE1
  1

  0
ARC
  5
DD
330
DB
100
AcDbEntity
  8
404240038_GEH_HA
  6
Continuous
 62
     7
100
AcDbCircle
 10
76.5521036757
 20
143.5659169948
 30
0.0
 40
53.86197645065204
100
AcDbArc
 50
270.4997907638
 51
270.4999078779
  0
LINE
  5
DE
330
DB
100
AcDbEntity
  8
404240038_GEH_HA
  6
Continuous
 62
     7
100
AcDbLine
 10
102.6834691295
 20
96.5455218666
 30
0.0
 11
108.8607793997
 21
96.5455218666
 31
0.0
  0
LINE
  5
DF
330
DB
100
AcDbEntity
  8
404240038_GEH_HA
  6
Continuous
 62
     7
100
AcDbLine
 10
111.3290357155
 20
119.5455218666
 30
0.0
 11
111.074803293
 21
119.5455218666
 31
0.0
  0
LINE
  5
E0
330
DB
100
AcDbEntity
  8
404240038_GEH_HA
  6
Continuous
 62
     7
100
AcDbLine
 10
111.074803293
 20
119.5455218666
 30
0.0
 11
102.9525727687
 21
119.5455218666
 31
0.0
  0
LINE
  5
E1
330
DB
100
AcDbEntity
  8
404240038_GEH_HA
  6
Continuous
 62
     7
100
AcDbLine
 10
102.9525727687
 20
119.5455218666
 30
0.0
 11
102.8643878892
 21
119.5455218666
 31
0.0
  0
LINE
  5
E2
330
DB
100
AcDbEntity
  8
404240038_GEH_HA
  6
Continuous
 62
     7
100
AcDbLine
 10
102.6167126182
 20
96.5455218666
 30
0.0
 11
102.6834691295
 21
96.5455218666
 31
0.0
  0
ARC
  5
E3
330
DB
100
AcDbEntity
  8
404240038_GEH_HA
  6
Continuous
 62
     7
100
AcDbCircle
 10
94.1500017452
 20
161.9165675061
 30
0.0
 40
74.21037108955534
100
AcDbArc
 50
256.6637965863
 51
283.3389489383
  0
LINE
  5
E4
330
DB
100
AcDbEntity
  8
404240038_GEH_HA
  6
Continuous
 62
     7
100
AcDbLine
 10
111.663604642
 20
90.1320126423
 30
0.0
 11
111.9020437677
 21
96.0722179206
 31
0.0
  0
ARC
  5
E5
330
DB
100
AcDbEntity
  8
404240038_GEH_HA
  6
Continuous
 62
     7
100
AcDbCircle
 10
-46.753883702
 20
91.7394927433
 30
0.0
 40
123.4015724067987
100
AcDbArc
 50
359.2732599803
 51
27.6775574993
  0
ARC
  5
E6
330
DB
100
AcDbEntity
  8
404240038_GEH_HA
  6
Continuous
 62
     7
100
AcDbCircle
 10
235.5844846962
 20
91.6850766003
 30
0.0
 40
123.8967933171287
100
AcDbArc
 50
152.4133816796
 51
166.8213331862
  0
ARC
  5
E7
330
DB
100
AcDbEntity
  8
404240038_GEH_HA
  6
Continuous
 62
     7
100
AcDbCircle
 10
114.4600634419
 20
120.0455216519
 30
0.0
 40
0.4999994897829501
100
AcDbArc
 50
269.9904916834
 51
347.0286371881
  0
ARC
  5
E8
330
DB
100
AcDbEntity
  8
404240038_GEH_HA
  6
Continuous
 62
     7
100
AcDbCircle
 10
125.3281763606
 20
149.2953478809
 30
0.0
 40
0.5000000000993361
100
AcDbArc
 50
331.9907330672
 51
90.0005344718
  0
ARC
  5
E9
330
DB
100
AcDbEntity
  8
404240038_GEH_HA
  6
Continuous
 62
     7
100
AcDbCircle
 10
62.9754273828
 20
149.2953478809
 30
0.0
 40
0.4999999998850811
100
AcDbArc
 50
89.9995198724
 51
207.9429278702
  0
ARC
  5
EA
330
DB
100
AcDbEntity
  8
404240038_GEH_HA
  6
Continuous
 62
     7
100
AcDbCircle
 10
77.1285764028
 20
90.1774767402
 30
0.0
 40
0.4847702527125203
100
AcDbArc
 50
180.3819850103
 51
258.4653843153
  0
ARC
  5
EB
330
DB
100
AcDbEntity
  8
404240038_GEH_HA
  6
Continuous
 62
     7
100
AcDbCircle
 10
111.4001835763
 20
96.0455218662
 30
0.0
 40
0.5000000003985191
100
AcDbArc
 50
357.0825899188
 51
89.998666616
  0
ARC
  5
EC
330
DB
100
AcDbEntity
  8
404240038_GEH_HA
  6
Continuous
 62
     7
100
AcDbCircle
 10
111.1706193036
 20
90.1845128161
 30
0.0
 40
0.4915170351196489
100
AcDbArc
 50
281.9681659274
 51
358.7826466601
  0
ARC
  5
ED
330
DB
100
AcDbEntity
  8
A4241953_ROSETTE
  6
Continuous
 62
     7
100
AcDbCircle
 10
64.3628237727
 20
155.1740835486
 30
0.0
 40
5.378744050379121
100
AcDbArc
 50
269.4850451172
 51
270.5102737957
  0
ARC
  5
EE
330
DB
100
AcDbEntity
  8
A4241953_ROSETTE
  6
Continuous
 62
     7
100
AcDbCircle
 10
64.4885643805
 20
164.1944028724
 30
0.0
 40
14.39906045588932
100
AcDbArc
 50
269.6902692356
 51
270.3049482022
  0
SPLINE
  5
EF
330
DB
100
AcDbEntity
  8
A4241953_ROSETTE
  6
Continuous
 62
     7
100
AcDbSpline
210
0.0
220
0.0
230
1.0
 70
     8
 71
     2
 72
    12
 73
     9
 74
     0
 42
0.0000000003380066
 43
0.0000000001
 40
0.0
 40
0.0
 40
0.0
 40
0.25
 40
0.25
 40
0.5
 40
0.5
 40
0.75
 40
0.75
 40
1.0
 40
1.0
 40
1.0
 10
94.15042558253437
 20
149.7952431065052
 30
0.0
 10
90.36794219383381
 20
149.7951375068131
 30
0.0
 10
86.60175314840649
 20
149.7951375068124
 30
0.0
 10
82.82799668573072
 20
149.7951375068116
 30
0.0
 10
79.10201146142344
 20
149.7951375068107
 30
0.0
 10
75.377397396742
 20
149.7951375068098
 30
0.0
 10
71.72537663816509
 20
149.7951375068088
 30
0.0
 10
68.09190815906784
 20
149.7951375068077
 30
0.0
 10
64.5652008606552
 20
149.7955463601246
 30
0.0
  0
ARC
  5
F0
330
DB
100
AcDbEntity
  8
A4241953_ROSETTE
  6
Continuous
 62
     7
100
AcDbCircle
 10
123.813257564
 20
164.041103925
 30
0.0
 40
14.24575854513369
100
AcDbArc
 50
269.6878914046
 51
270.3091921239
  0
ARC
  5
F1
330
DB
100
AcDbEntity
  8
A4241953_ROSETTE
  6
Continuous
 62
     7
100
AcDbCircle
 10
123.9386183189
 20
155.2665372769
 30
0.0
 40
5.471199307744755
100
AcDbArc
 50
269.492245956
 51
270.500077305
  0
SPLINE
  5
F2
330
DB
100
AcDbEntity
  8
A4241953_ROSETTE
  6
Continuous
 62
     7
100
AcDbSpline
210
0.0
220
0.0
230
1.0
 70
     8
 71
     2
 72
    10
 73
     7
 74
     0
 42
0.0000000016002858
 43
0.0000000001
 40
0.2857142857142857
 40
0.2857142857142857
 40
0.2857142857142857
 40
0.5
 40
0.5
 40
0.75
 40
0.75
 40
1.0
 40
1.0
 40
1.0
 10
128.4498585376031
 20
149.7951375068057
 30
0.0
 10
128.1492947226807
 20
149.7951375068073
 30
0.0
 10
127.6244675903825
 20
149.7951375068089
 30
0.0
 10
127.0123945971177
 20
149.7951375068107
 30
0.0
 10
126.0977895209276
 20
149.7951375068124
 30
0.0
 10
125.1878306455821
 20
149.7951375068141
 30
0.0
 10
123.9863703155164
 20
149.7955463601063
 30
0.0
  0
SPLINE
  5
F3
330
DB
100
AcDbEntity
  8
A4241953_ROSETTE
  6
Continuous
 62
     7
100
AcDbSpline
210
0.0
220
0.0
230
1.0
 70
     8
 71
     2
 72
     8
 73
     5
 74
     0
 42
0.0000000020555427
 43
0.0000000001
 40
0.0
 40
0.0
 40
0.0
 40
0.5
 40
0.5
 40
1.0
 40
1.0
 40
1.0
 10
64.31448211045219
 20
149.7955567388268
 30
0.0
 10
61.90213153462249
 20
149.7951375068024
 30
0.0
 10
60.67630184274311
 20
149.7951375067984
 30
0.0
 10
59.4500896197012
 20
149.7951375067944
 30
0.0
 10
59.45058106465093
 20
149.7952431064714
 30
0.0
  0
SPLINE
  5
F4
330
DB
100
AcDbEntity
  8
A4241953_ROSETTE
  6
Continuous
 62
     7
100
AcDbSpline
210
0.0
220
0.0
230
1.0
 70
     8
 71
     2
 72
     8
 73
     5
 74
     0
 42
0.0000000003380065
 43
0.0000000001
 40
0.0
 40
0.0
 40
0.0
 40
0.5
 40
0.5
 40
1.0
 40
1.0
 40
1.0
 10
123.7356567050966
 20
149.7955567388207
 30
0.0
 10
116.6548692507542
 20
149.7951375068159
 30
0.0
 10
109.1988485814805
 20
149.7951375068154
 30
0.0
 10
101.740504228641
 20
149.7951375068149
 30
0.0
 10
94.15042558253437
 20
149.7952431065052
 30
0.0
  0
LINE
  5
F5
330
DB
100
AcDbEntity
  8
A4241953_ROSETTE
  6
Continuous
 62
     7
100
AcDbLine
 10
129.1334731393
 20
156.5955566188
 30
0.0
 11
124.2541796801
 21
156.5955566141
 31
0.0
  0
LINE
  5
F6
330
DB
100
AcDbEntity
  8
A4241953_ROSETTE
  6
Continuous
 62
     7
100
AcDbLine
 10
123.826875874
 20
156.5955566186
 30
0.0
 11
64.4739712192
 21
156.5955566141
 31
0.0
  0
LINE
  5
F7
330
DB
100
AcDbEntity
  8
A4241953_ROSETTE
  6
Continuous
 62
     7
100
AcDbLine
 10
59.1673955598
 20
156.5955566188
 30
0.0
 11
64.0466740147
 21
156.5955566141
 31
0.0
  0
LINE
  5
F8
330
DB
100
AcDbEntity
  8
A4241953_ROSETTE
  6
Continuous
 62
     7
100
AcDbLine
 10
64.0466740147
 20
156.5955566141
 30
0.0
 11
64.1142193196
 21
156.59555662
 31
0.0
  0
LINE
  5
F9
330
DB
100
AcDbEntity
  8
A4241953_ROSETTE
  6
Continuous
 62
     7
100
AcDbLine
 10
64.1142192986
 20
156.59555662
 30
0.0
 11
64.1952946476
 21
156.5955566188
 31
0.0
  0
LINE
  5
FA
330
DB
100
AcDbEntity
  8
A4241953_ROSETTE
  6
Continuous
 62
     7
100
AcDbLine
 10
64.1952946724
 20
156.5955566196
 30
0.0
 11
64.3019760171
 21
156.5955566188
 31
0.0
  0
LINE
  5
FB
330
DB
100
AcDbEntity
  8
A4241953_ROSETTE
  6
Continuous
 62
     7
100
AcDbLine
 10
64.3019760171
 20
156.5955566188
 30
0.0
 11
64.4739712192
 21
156.5955566141
 31
0.0
  0
LINE
  5
FC
330
DB
100
AcDbEntity
  8
A4241953_ROSETTE
  6
Continuous
 62
     7
100
AcDbLine
 10
123.826875874
 20
156.5955566186
 30
0.0
 11
123.998887813
 21
156.5955566188
 31
0.0
  0
LINE
  5
FD
330
DB
100
AcDbEntity
  8
A4241953_ROSETTE
  6
Continuous
 62
     7
100
AcDbLine
 10
123.998887813
 20
156.5955566188
 30
0.0
 11
124.10557532
 21
156.5955566188
 31
0.0
  0
LINE
  5
FE
330
DB
100
AcDbEntity
  8
A4241953_ROSETTE
  6
Continuous
 62
     7
100
AcDbLine
 10
124.105575344
 20
156.5955566197
 30
0.0
 11
124.1866439967
 21
156.5955566188
 31
0.0
  0
LINE
  5
FF
330
DB
100
AcDbEntity
  8
A4241953_ROSETTE
  6
Continuous
 62
     7
100
AcDbLine
 10
124.1866439752
 20
156.59555662
 30
0.0
 11
124.2541796801
 21
156.5955566141
 31
0.0
  0
LINE
  5
100
330
DB
100
AcDbEntity
  8
A4241953_ROSETTE
  6
Continuous
 62
     7
100
AcDbLine
 10
59.1505079403
 20
156.4955514146
 30
0.0
 11
59.1505079403
 21
150.0955515519
 31
0.0
  0
LINE
  5
101
330
DB
100
AcDbEntity
  8
A4241953_ROSETTE
  6
Continuous
 62
     7
100
AcDbLine
 10
129.150360964
 20
150.095551408
 30
0.0
 11
129.150360964
 21
156.4955514602
 31
0.0
  0
SPLINE
  5
102
330
DB
100
AcDbEntity
  8
A4241953_ROSETTE
  6
Continuous
 62
     7
100
AcDbSpline
210
0.0
220
0.0
230
1.0
 70
     8
 71
     3
 72
    24
 73
    20
 74
     0
 42
0.0000000088727715
 43
0.0000000001
 40
0.0
 40
0.0
 40
0.0
 40
0.0
 40
0.0031297227722881
 40
0.0061443051178954
 40
0.0091859852772944
 40
0.0123829521563004
 40
0.019617562736162
 40
0.0284344744124196
 40
0.0583340275348103
 40
0.100831302780574
 40
0.1729239087266715
 40
0.2982467796146538
 40
0.5129039482161899
 40
0.591878022645501
 40
0.6708533774085955
 40
0.749830195664768
 40
0.8364515525950779
 40
0.9429239132345438
 40
1.0
 40
1.0
 40
1.0
 40
1.0
 10
59.15023090838572
 20
150.0953487137566
 30
0.0
 10
59.1506353736307
 20
150.0821869881662
 30
0.0
 10
59.15145754531911
 20
150.0602738425653
 30
0.0
 10
59.15767189290638
 20
150.0261512280722
 30
0.0
 10
59.16650426173449
 20
149.9961536697683
 30
0.0
 10
59.18181826384122
 20
149.9587687889532
 30
0.0
 10
59.20511819643608
 20
149.920391390758
 30
0.0
 10
59.25287323386173
 20
149.8645098813411
 30
0.0
 10
59.30386771485209
 20
149.8341373385861
 30
0.0
 10
59.33021471528111
 20
149.8227428508462
 30
0.0
 10
59.37444235280898
 20
149.8103515137524
 30
0.0
 10
59.45690821026887
 20
149.800225319163
 30
0.0
 10
59.531694854174
 20
149.8015112367684
 30
0.0
 10
59.62715138484049
 20
149.8013584968075
 30
0.0
 10
59.69655705410085
 20
149.8013457693787
 30
0.0
 10
59.776700806384
 20
149.8014486103549
 30
0.0
 10
59.87949083453998
 20
149.8009286649923
 30
0.0
 10
59.99292613759845
 20
149.7990932685159
 30
0.0
 10
60.07361570721832
 20
149.7981842248991
 30
0.0
 10
60.10698658324792
 20
149.7977920976552
 30
0.0
  0
SPLINE
  5
103
330
DB
100
AcDbEntity
  8
A4241953_ROSETTE
  6
Continuous
 62
     7
100
AcDbSpline
210
0.0
220
0.0
230
1.0
 70
     8
 71
     3
 72
    23
 73
    19
 74
     0
 42
0.0000000123999495
 43
0.0000000001
 40
0.0
 40
0.0
 40
0.0
 40
0.0
 40
0.050946333403346
 40
0.1420042259514918
 40
0.2330606900059449
 40
0.3241158845726817
 40
0.5064712721908043
 40
0.6943357973022146
 40
0.7911550608185269
 40
0.8897395952871634
 40
0.9317196265431463
 40
0.9625322752477827
 40
0.974150200580693
 40
0.9836831495398547
 40
0.987895749927448
 40
0.991903731189607
 40
0.9958760060891126
 40
1.0
 40
1.0
 40
1.0
 40
1.0
 10
128.514099383535
 20
149.8012959517865
 30
0.0
 10
128.5294139867074
 20
149.8013234279177
 30
0.0
 10
128.5655090022283
 20
149.8013895566614
 30
0.0
 10
128.6223873573894
 20
149.8013597984103
 30
0.0
 10
128.6813254985047
 20
149.801364567374
 30
0.0
 10
128.7518423056873
 20
149.8014436285285
 30
0.0
 10
128.8195877185216
 20
149.8009031699156
 30
0.0
 10
128.8870318498385
 20
149.8040558226533
 30
0.0
 10
128.9469657918553
 20
149.8161612294603
 30
0.0
 10
128.9710640170369
 20
149.8218520903489
 30
0.0
 10
129.0102828954936
 20
149.8411957227519
 30
0.0
 10
129.0547533566513
 20
149.8722913131215
 30
0.0
 10
129.0957524825507
 20
149.9204097515987
 30
0.0
 10
129.1190504643434
 20
149.958766974035
 30
0.0
 10
129.1343646706789
 20
149.996153967452
 30
0.0
 10
129.1431970031126
 20
150.0261511478466
 30
0.0
 10
129.1494113606739
 20
150.0602738629344
 30
0.0
 10
129.1502335303383
 20
150.0821869851631
 30
0.0
 10
129.1506379957119
 20
150.0953487106562
 30
0.0
  0
LINE
  5
104
330
DB
100
AcDbEntity
  8
A4241953_ROSETTE
  6
Continuous
 62
     7
100
AcDbLine
 10
129.1506377081
 20
156.4953485916
 30
0.0
 11
129.1332351729
 21
156.596225562
 31
0.0
  0
LINE
  5
105
330
DB
100
AcDbEntity
  8
A4241953_ROSETTE
  6
Continuous
 62
     7
100
AcDbLine
 10
59.1676336048
 20
156.5962252083
 30
0.0
 11
59.150231196
 21
156.4953485769
 31
0.0
  0
ARC
  5
106
330
DB
100
AcDbEntity
  8
A4241962_EINSATZ
  6
Continuous
 62
     7
100
AcDbCircle
 10
94.2250248001
 20
108.1364954209
 30
0.0
 40
14.25509955076367
100
AcDbArc
 50
53.5608060351
 51
305.2071443157
  0
ARC
  5
107
330
DB
100
AcDbEntity
  8
A4241962_EINSATZ
  6
Continuous
 62
     7
100
AcDbCircle
 10
102.8637278533
 20
119.8244093757
 30
0.0
 40
0.2789079374495463
100
AcDbArc
 50
232.0265811161
 51
270.1579217338
  0
ARC
  5
108
330
DB
100
AcDbEntity
  8
A4241962_EINSATZ
  6
Continuous
 62
     7
100
AcDbCircle
 10
102.6161595388
 20
96.2541489638
 30
0.0
 40
0.291474900040286
100
AcDbArc
 50
90.1074835442
 51
126.3061707734
  0
LINE
  5
109
330
DB
100
AcDbEntity
  8
A4241962_EINSATZ
  6
Continuous
 62
     7
100
AcDbLine
 10
102.8644965935
 20
119.5455024977
 30
0.0
 11
111.3742490786
 21
119.5455024977
 31
0.0
  0
LINE
  5
10A
330
DB
100
AcDbEntity
  8
A4241962_EINSATZ
  6
Continuous
 62
     7
100
AcDbLine
 10
111.3742490786
 20
119.5455024977
 30
0.0
 11
114.7424709053
 21
119.5455024977
 31
0.0
  0
LINE
  5
10B
330
DB
100
AcDbEntity
  8
A4241962_EINSATZ
  6
Continuous
 62
     7
100
AcDbLine
 10
109.2069654225
 20
96.545623351
 30
0.0
 11
102.6156127492
 21
96.545623351
 31
0.0
  0
LINE
  5
10C
330
DB
100
AcDbEntity
  8
A4241962_EINSATZ
  6
Continuous
 62
     7
100
AcDbLine
 10
111.8183512728
 20
96.545623351
 30
0.0
 11
109.2069654225
 21
96.545623351
 31
0.0
  0
LINE
  5
10D
330
DB
100
AcDbEntity
  8
A4241962_EINSATZ
  6
Continuous
 62
     7
100
AcDbLine
 10
101.972717974
 20
117.0455020607
 30
0.0
 11
98.1100099261
 21
117.0455020607
 31
0.0
  0
LINE
  5
10E
330
DB
100
AcDbEntity
  8
A4241962_EINSATZ
  6
Continuous
 62
     7
100
AcDbLine
 10
111.6542564738
 20
117.0455020607
 30
0.0
 11
101.972717974
 21
117.0455020607
 31
0.0
  0
LINE
  5
10F
330
DB
100
AcDbEntity
  8
A4241962_EINSATZ
  6
Continuous
 62
     7
100
AcDbLine
 10
111.6542564738
 20
117.0455020607
 30
0.0
 11
114.7756360169
 21
117.0455020607
 31
0.0
  0
ARC
  5
110
330
DB
100
AcDbEntity
  8
A4241962_EINSATZ
  6
Continuous
 62
     7
100
AcDbCircle
 10
94.0955981257
 20
107.9769201499
 30
0.0
 40
9.892851859075556
100
AcDbArc
 50
66.8007689526
 51
295.0956875292
  0
LINE
  5
111
330
DB
100
AcDbEntity
  8
A4241962_EINSATZ
  6
Continuous
 62
     7
100
AcDbLine
 10
98.4163414661
 20
99.045623788
 30
0.0
 11
101.7842326493
 21
99.045623788
 31
0.0
  0
LINE
  5
112
330
DB
100
AcDbEntity
  8
A4241962_EINSATZ
  6
Continuous
 62
     7
100
AcDbLine
 10
101.7842326493
 20
99.045623788
 30
0.0
 11
109.2454714882
 21
99.045623788
 31
0.0
  0
LINE
  5
113
330
DB
100
AcDbEntity
  8
A4241962_EINSATZ
  6
Continuous
 62
     7
100
AcDbLine
 10
109.2454714882
 20
99.045623788
 30
0.0
 11
111.9236310065
 21
99.045623788
 31
0.0
  0
ELLIPSE
  5
114
330
DB
100
AcDbEntity
  8
A4241962_EINSATZ
  6
Continuous
 62
     7
100
AcDbEllipse
 10
98.4163414661
 20
98.745623788
 30
0.0
 11
0.124150342529405
 21
-0.2731056433870546
 31
0.0
210
0.0
220
0.0
230
0.9999999999999999
 40
0.0625686274
 41
3.141592653589793
 42
3.194055417468269
  0
ELLIPSE
  5
115
330
DB
100
AcDbEntity
  8
A4241962_EINSATZ
  6
Continuous
 62
     7
100
AcDbEllipse
 10
98.1100099261
 20
117.3455020607
 30
0.0
 11
0.1151600105300655
 21
0.2770165554163082
 31
0.0
210
0.0
220
0.0
230
1.0
 40
0.1584614953
 41
3.088562126764173
 42
3.141592653589793
  0
ARC
  5
116
330
DB
100
AcDbEntity
  8
A4241962_EINSATZ
  6
Continuous
 62
     7
100
AcDbCircle
 10
329.3351524253
 20
85.7456191577
 30
0.0
 40
217.4998360760568
100
AcDbArc
 50
176.572907938
 51
177.0819330225
  0
LINE
  5
117
330
DB
100
AcDbEntity
  8
A4241962_EINSATZ
  6
Continuous
 62
     7
100
AcDbLine
 10
115.0757896708
 20
117.3393376387
 30
0.0
 11
115.0422270607
 21
119.2621382834
 31
0.0
  0
ARC
  5
118
330
DB
100
AcDbEntity
  8
A4241962_EINSATZ
  6
Continuous
 62
     7
100
AcDbCircle
 10
111.8183536498
 20
96.845623351
 30
0.0
 40
0.2999999999957348
100
AcDbArc
 50
269.9999931024
 51
356.8979179972
  0
ARC
  5
119
330
DB
100
AcDbEntity
  8
A4241962_EINSATZ
  6
Continuous
 62
     7
100
AcDbCircle
 10
114.7424717359
 20
119.2455024977
 30
0.0
 40
0.2999999999986233
100
AcDbArc
 50
1.1045635103
 51
89.9999058578
  0
ARC
  5
11A
330
DB
100
AcDbEntity
  8
A4241962_EINSATZ
  6
Continuous
 62
     7
100
AcDbCircle
 10
111.9236310253
 20
98.745623788
 30
0.0
 40
0.3000000000004889
100
AcDbArc
 50
356.303677002
 51
90.0000057879
  0
ARC
  5
11B
330
DB
100
AcDbEntity
  8
A4241962_EINSATZ
  6
Continuous
 62
     7
100
AcDbCircle
 10
114.7756363715
 20
117.3455020607
 30
0.0
 40
0.2999999999956359
100
AcDbArc
 50
270.0000249741
 51
1.4591643229
  0
ARC
  5
11C
330
DB
100
AcDbEntity
  8
A4241962_EINSATZ
  6
Continuous
 62
     7
100
AcDbCircle
 10
98.4163414661
 20
98.745623788
 30
0.0
 40
0.3000000000000017
100
AcDbArc
 50
90.0
 51
114.4459392513
  0
ARC
  5
11D
330
DB
100
AcDbEntity
  8
A4241962_EINSATZ
  6
Continuous
 62
     7
100
AcDbCircle
 10
98.1100099261
 20
117.3455020607
 30
0.0
 40
0.3000000000000081
100
AcDbArc
 50
247.426598272
 51
270.0
  0
ENDBLK
  5
11F
330
DB
100
AcDbEntity
  8
0
100
AcDbBlockEnd
  0
BLOCK
  5
161
330
120
100
AcDbEntity
  8
0
100
AcDbBlockBegin
  2
SE2
 70
     0
 10
0.0
 20
0.0
 30
0.0
  3
SE2
  1

  0
ARC
  5
122
330
120
100
AcDbEntity
  8
404240038_GEH_HA
  6
Continuous
 62
     7
100
AcDbCircle
 10
235.3510812687
 20
190.2064419459
 30
0.0
 40
48.58137182097647
100
AcDbArc
 50
107.9086737103
 51
116.1844125885
  0
ARC
  5
123
330
120
100
AcDbEntity
  8
404240038_GEH_HA
  6
Continuous
 62
     7
100
AcDbCircle
 10
250.866459976
 20
310.4618573634
 30
0.0
 40
33.03555379881381
100
AcDbArc
 50
289.4065235849
 51
289.4068129906
  0
SPLINE
  5
124
330
120
100
AcDbEntity
  8
404240038_GEH_HA
  6
Continuous
 62
     7
100
AcDbSpline
210
0.0
220
0.0
230
1.0
 70
     8
 71
     3
 72
     8
 73
     4
 74
     0
 42
0.0000000184809987
 43
0.0000000001
 40
0.5010735380573277
 40
0.5010735380573277
 40
0.5010735380573277
 40
0.5010735380573277
 40
0.5029216379248818
 40
0.5029216379248818
 40
0.5029216379248818
 40
0.5029216379248818
 10
265.4023748115579
 20
244.5455798284313
 30
0.0
 10
265.4023748731929
 20
244.5455797126788
 30
0.0
 10
265.4023748660572
 20
244.5455904636713
 30
0.0
 10
265.4023747881583
 20
244.5456120842034
 30
0.0
  0
ARC
  5
125
330
120
100
AcDbEntity
  8
404240038_GEH_HA
  6
Continuous
 62
     7
100
AcDbCircle
 10
192.9470881077
 20
261.6709554794
 30
0.0
 40
74.44921566546567
100
AcDbArc
 50
346.7092666596
 51
13.2974958856
  0
ARC
  5
126
330
120
100
AcDbEntity
  8
404240038_GEH_HA
  6
Continuous
 62
     7
100
AcDbCircle
 10
273.4446665474
 20
-30.0519422531
 30
0.0
 40
274.3453642169255
100
AcDbArc
 50
91.7776638756
 51
92.8010115938
  0
ARC
  5
127
330
120
100
AcDbEntity
  8
404240038_GEH_HA
  6
Continuous
 62
     7
100
AcDbCircle
 10
258.6003238521
 20
136.3776759452
 30
0.0
 40
107.0754626718447
100
AcDbArc
 50
103.061124891
 51
110.8951934495
  0
ARC
  5
128
330
120
100
AcDbEntity
  8
404240038_GEH_HA
  6
Continuous
 62
     7
100
AcDbCircle
 10
263.6593333225
 20
119.2150347776
 30
0.0
 40
124.914143059804
100
AcDbArc
 50
113.4639652147
 51
117.4641737313
  0
ARC
  5
129
330
120
100
AcDbEntity
  8
404240038_GEH_HA
  6
Continuous
 62
     7
100
AcDbCircle
 10
264.1151502964
 20
404.732318309
 30
0.0
 40
125.6559566146713
100
AcDbArc
 50
242.4769218891
 51
255.3003491375
  0
LINE
  5
12A
330
120
100
AcDbEntity
  8
404240038_GEH_HA
  6
Continuous
 62
     7
100
AcDbLine
 10
264.9339447137
 20
279.1892479129
 30
0.0
 11
261.830619776
 21
279.3040851641
 31
0.0
  0
ARC
  5
12B
330
120
100
AcDbEntity
  8
404240038_GEH_HA
  6
Continuous
 62
     7
100
AcDbCircle
 10
205.8129788036
 20
230.4990663864
 30
0.0
 40
0.499999992386382
100
AcDbArc
 50
179.9997677788
 51
298.004279004
  0
SPLINE
  5
12C
330
120
100
AcDbEntity
  8
404240038_GEH_HA
  6
Continuous
 62
     7
100
AcDbSpline
210
0.0
220
0.0
230
1.0
 70
     8
 71
     3
 72
    66
 73
    62
 74
     0
 42
0.0000000003701316
 43
0.0000000001
 40
0.0
 40
0.0
 40
0.0
 40
0.0
 40
0.000029364867136
 40
0.0013751964389148
 40
0.0020639723612631
 40
0.0024901666491821
 40
0.0029005024617877
 40
0.0035251468555283
 40
0.0048394866872019
 40
0.0082722691541301
 40
0.0167275912164528
 40
0.0350079456517013
 40
0.054373696240285
 40
0.0733904620742576
 40
0.0922112412756024
 40
0.110817725690743
 40
0.1302469819717868
 40
0.1497992755248257
 40
0.169602171634168
 40
0.1896577701336506
 40
0.2099406999642444
 40
0.2304049948360033
 40
0.2509887045111098
 40
0.2716182257052238
 40
0.2921876131058619
 40
0.312724508053264
 40
0.333140229800946
 40
0.3535975172490768
 40
0.3739727041931633
 40
0.3941813102992916
 40
0.4141515765757223
 40
0.4338283693628266
 40
0.4531756090862314
 40
0.4721771935180085
 40
0.4908312792508829
 40
0.5090207952637678
 40
0.5271108231603154
 40
0.5454809230243285
 40
0.5641108541517798
 40
0.5829699159939887
 40
0.6020144259285106
 40
0.6211897469978179
 40
0.640433216860676
 40
0.6596662312204151
 40
0.678810866877462
 40
0.6978710095585643
 40
0.7175470354512079
 40
0.7373083302516138
 40
0.75726962459525
 40
0.7773816207954343
 40
0.7975893316510668
 40
0.817835371646808
 40
0.8380505339149379
 40
0.8581932983863365
 40
0.8782495187178583
 40
0.8981647165580908
 40
0.9177268071184229
 40
0.9374085555705366
 40
0.9571716618289743
 40
0.9734775399583967
 40
0.9782883983037872
 40
0.9782883983037872
 40
0.9782883983037872
 40
0.9782883983037872
 10
234.3968216198459
 20
240.7062969057119
 30
0.0
 10
234.3972638150242
 20
240.7063657473826
 30
0.0
 10
234.4151301941735
 20
240.7091475004678
 30
0.0
 10
234.4434067144932
 20
240.7190134550324
 30
0.0
 10
234.4733798005894
 20
240.7303293532867
 30
0.0
 10
234.4869146719927
 20
240.736217922599
 30
0.0
 10
234.4950122423487
 20
240.739892189125
 30
0.0
 10
234.5021644475499
 20
240.7432830111613
 30
0.0
 10
234.5088597338407
 20
240.7465741245453
 30
0.0
 10
234.515147175916
 20
240.7497489766208
 30
0.0
 10
234.5311171587874
 20
240.7578909789397
 30
0.0
 10
234.5796440748865
 20
240.7828695595049
 30
0.0
 10
234.6846491326215
 20
240.8371288470355
 30
0.0
 10
234.8374437069539
 20
240.9162511875357
 30
0.0
 10
235.0347863135912
 20
241.0186428519907
 30
0.0
 10
235.27717974908
 20
241.1444498992182
 30
0.0
 10
235.5648351492201
 20
241.2921998477717
 30
0.0
 10
235.9013236665893
 20
241.4623829530474
 30
0.0
 10
236.2830622899083
 20
241.6516588487756
 30
0.0
 10
236.7102721950695
 20
241.8585457480826
 30
0.0
 10
237.1819474463272
 20
242.0808443230941
 30
0.0
 10
237.6963839145859
 20
242.3159396270166
 30
0.0
 10
238.2511620980047
 20
242.5608915200561
 30
0.0
 10
238.8429015507227
 20
242.8121860517354
 30
0.0
 10
239.4687175584143
 20
243.0671833708459
 30
0.0
 10
240.12483548905
 20
243.3206678464757
 30
0.0
 10
240.8110551661557
 20
243.56976215294
 30
0.0
 10
241.5239306044177
 20
243.8118529618579
 30
0.0
 10
242.2606265688988
 20
244.0441268396958
 30
0.0
 10
243.0150919428213
 20
244.2630354231983
 30
0.0
 10
243.7817657887668
 20
244.4654813997558
 30
0.0
 10
244.555379272356
 20
244.648783045584
 30
0.0
 10
245.3311390057117
 20
244.8107197409588
 30
0.0
 10
246.104770607718
 20
244.9494539634371
 30
0.0
 10
246.8707361159584
 20
245.0634566450954
 30
0.0
 10
247.6286817213718
 20
245.1515281879015
 30
0.0
 10
248.3831090521148
 20
245.2168348108142
 30
0.0
 10
249.1404384089949
 20
245.2613534684738
 30
0.0
 10
249.901579371552
 20
245.2859860327753
 30
0.0
 10
250.6616151348671
 20
245.2913755749296
 30
0.0
 10
251.4151833489843
 20
245.2783950139511
 30
0.0
 10
252.1565754733641
 20
245.2481682021605
 30
0.0
 10
252.8796896163124
 20
245.2020420986332
 30
0.0
 10
253.578518547713
 20
245.1417217074448
 30
0.0
 10
254.2473464876564
 20
245.0686258048139
 30
0.0
 10
254.8920843107188
 20
244.9846635479689
 30
0.0
 10
255.5115914681799
 20
244.8944453079033
 30
0.0
 10
256.1055549714343
 20
244.7984551675079
 30
0.0
 10
256.6666210653849
 20
244.6995381437447
 30
0.0
 10
257.1923369515628
 20
244.5995801725126
 30
0.0
 10
257.6789023583151
 20
244.5008892330129
 30
0.0
 10
258.1227403726359
 20
244.4058095148271
 30
0.0
 10
258.5208927909563
 20
244.316629573724
 30
0.0
 10
258.8710184577422
 20
244.2355191926051
 30
0.0
 10
259.1719643982413
 20
244.1643842008156
 30
0.0
 10
259.4204386895663
 20
244.105510806947
 30
0.0
 10
259.6171891825095
 20
244.0587169495504
 30
0.0
 10
259.7637902106527
 20
244.0237079096032
 30
0.0
 10
259.8542740181574
 20
244.0019662686574
 30
0.0
 10
259.8890062066997
 20
243.9935316609187
 30
0.0
 10
259.8944250990521
 20
243.9921654349251
 30
0.0
 10
259.8944446591757
 20
243.9921632087804
 30
0.0
  0
SPLINE
  5
12D
330
120
100
AcDbEntity
  8
404240038_GEH_HA
  6
Continuous
 62
     7
100
AcDbSpline
210
0.0
220
0.0
230
1.0
 70
     8
 71
     3
 72
    18
 73
    14
 74
     0
 42
0.0000000116215424
 43
0.0000000001
 40
0.3229954409677145
 40
0.3229954409677145
 40
0.3229954409677145
 40
0.3229954409677145
 40
0.3666318060058849
 40
0.5257876705419484
 40
0.6854994973450411
 40
0.8464071656743299
 40
0.9281492221881822
 40
0.953375952580049
 40
0.9740812809552818
 40
0.9793811485504988
 40
0.9839840794523931
 40
0.9942906712720725
 40
1.0
 40
1.0
 40
1.0
 40
1.0
 10
259.4681294772764
 20
244.0935467840833
 30
0.0
 10
259.4872240723377
 20
244.0889672627839
 30
0.0
 10
259.5731098329728
 20
244.0683822291001
 30
0.0
 10
259.7021073890115
 20
244.0374989737448
 30
0.0
 10
259.8225515222672
 20
244.0087839231358
 30
0.0
 10
259.8836567075779
 20
243.9944623993008
 30
0.0
 10
259.9005291084437
 20
243.9903736996862
 30
0.0
 10
259.9122143022493
 20
243.9879102842545
 30
0.0
 10
259.9163860305934
 20
243.9867927293824
 30
0.0
 10
259.9382533833645
 20
243.9827459772325
 30
0.0
 10
259.9648374253956
 20
243.9789000904595
 30
0.0
 10
260.0012854356112
 20
243.9750480224402
 30
0.0
 10
260.026500667452
 20
243.9771206023557
 30
0.0
 10
260.0371578653487
 20
243.977987493712
 30
0.0
  0
ARC
  5
12E
330
120
100
AcDbEntity
  8
404240038_GEH_HA
  6
Continuous
 62
     7
100
AcDbCircle
 10
205.8129787987
 20
292.8518142313
 30
0.0
 40
0.5000000008720918
100
AcDbArc
 50
61.9444585337
 51
180.0000351128
  0
ARC
  5
12F
330
120
100
AcDbEntity
  8
404240038_GEH_HA
  6
Continuous
 62
     7
100
AcDbCircle
 10
250.9294968272
 20
310.8830366429
 30
0.0
 40
33.41796326617445
100
AcDbArc
 50
235.9737416199
 51
289.0379648751
  0
ARC
  5
130
330
120
100
AcDbEntity
  8
404240038_GEH_HA
  6
Continuous
 62
     7
100
AcDbCircle
 10
264.9292373538
 20
244.6531874376
 30
0.0
 40
0.484907561477384
100
AcDbArc
 50
270.5423091984
 51
348.3172813486
  0
ARC
  5
131
330
120
100
AcDbEntity
  8
404240038_GEH_HA
  6
Continuous
 62
     7
100
AcDbCircle
 10
264.9295449509
 20
278.6979265089
 30
0.0
 40
0.4849105205578099
100
AcDbArc
 50
11.6060946484
 51
89.4968305998
  0
ARC
  5
132
330
120
100
AcDbEntity
  8
A4241953_ROSETTE
  6
Continuous
 62
     7
100
AcDbCircle
 10
199.934209426
 20
231.8878291346
 30
0.0
 40
5.378777754636344
100
AcDbArc
 50
359.4850467591
 51
0.5102721539
  0
ARC
  5
133
330
120
100
AcDbEntity
  8
A4241953_ROSETTE
  6
Continuous
 62
     7
100
AcDbCircle
 10
190.9140370155
 20
232.0135695806
 30
0.0
 40
14.39894724675923
100
AcDbArc
 50
359.6902680253
 51
0.3049494121
  0
SPLINE
  5
134
330
120
100
AcDbEntity
  8
A4241953_ROSETTE
  6
Continuous
 62
     7
100
AcDbSpline
210
0.0
220
0.0
230
1.0
 70
     8
 71
     2
 72
    12
 73
     9
 74
     0
 42
0.0000000003380066
 43
0.0000000001
 40
0.0
 40
0.0
 40
0.0
 40
0.25
 40
0.25
 40
0.5
 40
0.5
 40
0.75
 40
0.75
 40
1.0
 40
1.0
 40
1.0
 10
205.313083572381
 20
261.6754295395733
 30
0.0
 10
205.3131891720638
 20
257.8929462618425
 30
0.0
 10
205.3131891720657
 20
254.1267573345839
 30
0.0
 10
205.3131891720676
 20
250.3530009862468
 30
0.0
 10
205.3131891720694
 20
246.6270158832746
 30
0.0
 10
205.3131891720712
 20
242.9024019441572
 30
0.0
 10
205.313189172073
 20
239.2503812959413
 30
0.0
 10
205.3131891720746
 20
235.6169129363645
 30
0.0
 10
205.3127803187169
 20
232.0902057622963
 30
0.0
  0
ARC
  5
135
330
120
100
AcDbEntity
  8
A4241953_ROSETTE
  6
Continuous
 62
     7
100
AcDbCircle
 10
191.0672576748
 20
291.3382630967
 30
0.0
 40
14.2457236241994
100
AcDbArc
 50
359.687891017
 51
0.3091925113
  0
ARC
  5
136
330
120
100
AcDbEntity
  8
A4241953_ROSETTE
  6
Continuous
 62
     7
100
AcDbCircle
 10
199.8418034635
 20
291.4636236981
 30
0.0
 40
5.471185246214707
100
AcDbArc
 50
359.4922452943
 51
0.5000779663
  0
SPLINE
  5
137
330
120
100
AcDbEntity
  8
A4241953_ROSETTE
  6
Continuous
 62
     7
100
AcDbSpline
210
0.0
220
0.0
230
1.0
 70
     8
 71
     2
 72
    10
 73
     7
 74
     0
 42
0.0000000016002858
 43
0.0000000001
 40
0.2857142857142856
 40
0.2857142857142856
 40
0.2857142857142856
 40
0.5
 40
0.5
 40
0.75
 40
0.75
 40
1.0
 40
1.0
 40
1.0
 10
205.3131891720403
 20
295.9748639344646
 30
0.0
 10
205.313189172041
 20
295.6743001139168
 30
0.0
 10
205.3131891720417
 20
295.1494729727192
 30
0.0
 10
205.3131891720426
 20
294.5373999666254
 30
0.0
 10
205.3131891720437
 20
293.6227948778147
 30
0.0
 10
205.3131891720447
 20
292.712835986368
 30
0.0
 10
205.3127803187278
 20
291.5113756350838
 30
0.0
  0
SPLINE
  5
138
330
120
100
AcDbEntity
  8
A4241953_ROSETTE
  6
Continuous
 62
     7
100
AcDbSpline
210
0.0
220
0.0
230
1.0
 70
     8
 71
     2
 72
     8
 73
     5
 74
     0
 42
0.0000000003380065
 43
0.0000000001
 40
0.0
 40
0.0
 40
0.0
 40
0.5
 40
0.5
 40
1.0
 40
1.0
 40
1.0
 10
205.3127699400257
 20
291.2606623316665
 30
0.0
 10
205.31318917205
 20
284.1798761393811
 30
0.0
 10
205.313189172054
 20
276.7238565938704
 30
0.0
 10
205.313189172058
 20
269.2655103305103
 30
0.0
 10
205.313083572381
 20
261.6754295395733
 30
0.0
  0
SPLINE
  5
139
330
120
100
AcDbEntity
  8
A4241953_ROSETTE
  6
Continuous
 62
     7
100
AcDbSpline
210
0.0
220
0.0
230
1.0
 70
     8
 71
     2
 72
     8
 73
     5
 74
     0
 42
0.0000000020555425
 43
0.0000000001
 40
0.0
 40
0.0
 40
0.0
 40
0.5
 40
0.5
 40
1.0
 40
1.0
 40
1.0
 10
205.3127699400276
 20
231.8394873235595
 30
0.0
 10
205.3131891720765
 20
229.4271362437661
 30
0.0
 10
205.3131891720759
 20
228.2013064450897
 30
0.0
 10
205.3131891720754
 20
226.9750946387715
 30
0.0
 10
205.3130835723752
 20
226.9755864670259
 30
0.0
  0
LINE
  5
13A
330
120
100
AcDbEntity
  8
A4241953_ROSETTE
  6
Continuous
 62
     7
100
AcDbLine
 10
198.51277006
 20
226.6924009622
 30
0.0
 11
198.5127700648
 21
231.5716792383
 31
0.0
  0
LINE
  5
13B
330
120
100
AcDbEntity
  8
A4241953_ROSETTE
  6
Continuous
 62
     7
100
AcDbLine
 10
198.51277006
 20
296.6584787467
 30
0.0
 11
198.5127700648
 21
291.779184985
 31
0.0
  0
LINE
  5
13C
330
120
100
AcDbEntity
  8
A4241953_ROSETTE
  6
Continuous
 62
     7
100
AcDbLine
 10
198.5127700648
 20
291.3518821293
 30
0.0
 11
198.5127700648
 21
231.9989767188
 31
0.0
  0
LINE
  5
13D
330
120
100
AcDbEntity
  8
A4241953_ROSETTE
  6
Continuous
 62
     7
100
AcDbLine
 10
198.5127700648
 20
291.3518821293
 30
0.0
 11
198.5127700588
 21
291.5238932245
 31
0.0
  0
LINE
  5
13E
330
120
100
AcDbEntity
  8
A4241953_ROSETTE
  6
Continuous
 62
     7
100
AcDbLine
 10
198.5127700588
 20
291.5238932166
 30
0.0
 11
198.51277006
 21
291.6305807311
 31
0.0
  0
LINE
  5
13F
330
120
100
AcDbEntity
  8
A4241953_ROSETTE
  6
Continuous
 62
     7
100
AcDbLine
 10
198.5127700593
 20
291.6305807066
 30
0.0
 11
198.51277006
 21
291.7116493885
 31
0.0
  0
LINE
  5
140
330
120
100
AcDbEntity
  8
A4241953_ROSETTE
  6
Continuous
 62
     7
100
AcDbLine
 10
198.51277006
 20
291.7116493885
 30
0.0
 11
198.5127700648
 21
291.779184985
 31
0.0
  0
LINE
  5
141
330
120
100
AcDbEntity
  8
A4241953_ROSETTE
  6
Continuous
 62
     7
100
AcDbLine
 10
198.5127700602
 20
231.5716792383
 30
0.0
 11
198.51277006
 21
231.6392247456
 31
0.0
  0
LINE
  5
142
330
120
100
AcDbEntity
  8
A4241953_ROSETTE
  6
Continuous
 62
     7
100
AcDbLine
 10
198.51277006
 20
231.6392247456
 30
0.0
 11
198.51277006
 21
231.7203000873
 31
0.0
  0
LINE
  5
143
330
120
100
AcDbEntity
  8
A4241953_ROSETTE
  6
Continuous
 62
     7
100
AcDbLine
 10
198.5127700592
 20
231.7203000636
 30
0.0
 11
198.51277006
 21
231.8269814179
 31
0.0
  0
LINE
  5
144
330
120
100
AcDbEntity
  8
A4241953_ROSETTE
  6
Continuous
 62
     7
100
AcDbLine
 10
198.51277006
 20
231.8269814252
 30
0.0
 11
198.5127700648
 21
231.9989767188
 31
0.0
  0
LINE
  5
145
330
120
100
AcDbEntity
  8
A4241953_ROSETTE
  6
Continuous
 62
     7
100
AcDbLine
 10
205.012775127
 20
296.6753663663
 30
0.0
 11
198.6127752641
 21
296.6753663663
 31
0.0
  0
LINE
  5
146
330
120
100
AcDbEntity
  8
A4241953_ROSETTE
  6
Continuous
 62
     7
100
AcDbLine
 10
198.6127752642
 20
226.6755133427
 30
0.0
 11
205.012775127
 21
226.6755133427
 31
0.0
  0
SPLINE
  5
147
330
120
100
AcDbEntity
  8
A4241953_ROSETTE
  6
Continuous
 62
     7
100
AcDbSpline
210
0.0
220
0.0
230
1.0
 70
     8
 71
     3
 72
    23
 73
    19
 74
     0
 42
0.0000000123999493
 43
0.0000000001
 40
0.0
 40
0.0
 40
0.0
 40
0.0
 40
0.0509463067109292
 40
0.1420041983266969
 40
0.2330606614487937
 40
0.3241158550831967
 40
0.5064712411736874
 40
0.6943357721424369
 40
0.7911550424122707
 40
0.8897395861509253
 40
0.9317196217060028
 40
0.9625322733999521
 40
0.974150199702201
 40
0.9836831492605187
 40
0.9878957498119294
 40
0.9919037311597998
 40
0.9958760060881008
 40
1.0
 40
1.0
 40
1.0
 40
1.0
 10
205.3070307269541
 20
296.0391047794137
 30
0.0
 10
205.307003250837
 20
296.0544193751024
 30
0.0
 10
205.3069371221055
 20
296.0905143851635
 30
0.0
 10
205.306966880363
 20
296.1473927359255
 30
0.0
 10
205.3069621113975
 20
296.2063308795724
 30
0.0
 10
205.3068830502408
 20
296.2768476901628
 30
0.0
 10
205.3074235088918
 20
296.3445931085875
 30
0.0
 10
205.3042708558581
 20
296.4120372463383
 30
0.0
 10
205.2921654490237
 20
296.4719711922735
 30
0.0
 10
205.2864745881186
 20
296.4960694193072
 30
0.0
 10
205.2671309554879
 20
296.5352882985324
 30
0.0
 10
205.2360353650422
 20
296.5797587597941
 30
0.0
 10
205.1879169261087
 20
296.6207578857326
 30
0.0
 10
205.1495597034446
 20
296.644055867468
 30
0.0
 10
205.1121727094241
 20
296.6593700737672
 30
0.0
 10
205.0821755287405
 20
296.6682024060462
 30
0.0
 10
205.0480528132486
 20
296.6744167633922
 30
0.0
 10
205.0261396907309
 20
296.6752389328521
 30
0.0
 10
205.0129779651266
 20
296.6756433981031
 30
0.0
  0
SPLINE
  5
148
330
120
100
AcDbEntity
  8
A4241953_ROSETTE
  6
Continuous
 62
     7
100
AcDbSpline
210
0.0
220
0.0
230
1.0
 70
     8
 71
     3
 72
    24
 73
    20
 74
     0
 42
0.0000000088727712
 43
0.0000000001
 40
0.0
 40
0.0
 40
0.0
 40
0.0
 40
0.0031297226651619
 40
0.0061443049032845
 40
0.0091859849457348
 40
0.0123829516908831
 40
0.0196175619342026
 40
0.0284344731653306
 40
0.0583340246942001
 40
0.1008312976520821
 40
0.1729238998047397
 40
0.2982467641347694
 40
0.5129039216028517
 40
0.5918779919422543
 40
0.6708533426152696
 40
0.7498301567811729
 40
0.8364515253307856
 40
0.9429239384232724
 40
1.0
 40
1.0
 40
1.0
 40
1.0
 10
205.0129779650829
 20
226.6752363108084
 30
0.0
 10
205.0261396906515
 20
226.6756407760518
 30
0.0
 10
205.0480528361956
 20
226.6764629477376
 30
0.0
 10
205.0821754506219
 20
226.6826772952982
 30
0.0
 10
205.1121730088883
 20
226.6915096640959
 30
0.0
 10
205.1495578896208
 20
226.7068236661351
 30
0.0
 10
205.1879352878287
 20
226.7301235986696
 30
0.0
 10
205.2438167972489
 20
226.7778786359887
 30
0.0
 10
205.274189340181
 20
226.8288731170218
 30
0.0
 10
205.2855838279777
 20
226.8552201174149
 30
0.0
 10
205.2979751650501
 20
226.899447754262
 30
0.0
 10
205.3081013596674
 20
226.9819136100418
 30
0.0
 10
205.3068154420547
 20
227.0567002508569
 30
0.0
 10
205.3069681820141
 20
227.1521567777645
 30
0.0
 10
205.3069809094453
 20
227.2215624443697
 30
0.0
 10
205.3068780684496
 20
227.3017061985468
 30
0.0
 10
205.3073980140692
 20
227.4044962531127
 30
0.0
 10
205.3092334100682
 20
227.5179315739736
 30
0.0
 10
205.31014245315
 20
227.5986211618831
 30
0.0
 10
205.3105345799129
 20
227.631992024649
 30
0.0
  0
LINE
  5
149
330
120
100
AcDbEntity
  8
A4241953_ROSETTE
  6
Continuous
 62
     7
100
AcDbLine
 10
198.5121014705
 20
226.6926390072
 30
0.0
 11
198.612978102
 21
226.6752365984
 31
0.0
  0
LINE
  5
14A
330
120
100
AcDbEntity
  8
A4241953_ROSETTE
  6
Continuous
 62
     7
100
AcDbLine
 10
198.6129781018
 20
296.6756431105
 30
0.0
 11
198.5121014713
 21
296.658240702
 31
0.0
  0
ELLIPSE
  5
14B
330
120
100
AcDbEntity
  8
A4241962_EINSATZ
  6
Continuous
 62
     7
100
AcDbEllipse
 10
256.3627028909
 20
278.5963240935
 30
0.0
 11
0.04693391365993144
 21
-0.2963059360811433
 31
0.0
210
0.0
220
0.0
230
1.0
 40
0.7657228165
 41
3.141604376874162
 42
3.166050406684136
  0
ELLIPSE
  5
14C
330
120
100
AcDbEntity
  8
A4241962_EINSATZ
  6
Continuous
 62
     7
100
AcDbEllipse
 10
256.3627028909
 20
244.2535147453
 30
0.0
 11
0.04493409416744115
 21
0.296615790512534
 31
0.0
210
0.0
220
0.0
230
1.0
 40
0.9085684588
 41
3.120216941639396
 42
3.141592653589794
  0
ELLIPSE
  5
14D
330
120
100
AcDbEntity
  8
A4241962_EINSATZ
  6
Continuous
 62
     7
100
AcDbEllipse
 10
237.7628246182
 20
241.8917628929
 30
0.0
 11
-0.1157192395357179
 21
0.2767834128001093
 31
0.0
210
0.0
220
0.0
230
1.0
 40
0.9117216497
 41
3.141592653589846
 42
3.162125202114579
  0
LINE
  5
14E
330
120
100
AcDbEntity
  8
A4241962_EINSATZ
  6
Continuous
 62
     7
100
AcDbLine
 10
257.2870038723
 20
243.8034252777
 30
0.0
 11
259.1947939819
 21
243.9092668756
 31
0.0
  0
LINE
  5
14F
330
120
100
AcDbEntity
  8
A4241962_EINSATZ
  6
Continuous
 62
     7
100
AcDbLine
 10
235.1704891022
 20
240.85309237
 30
0.0
 11
237.0573496432
 21
241.2535839835
 31
0.0
  0
LINE
  5
150
330
120
100
AcDbEntity
  8
A4241962_EINSATZ
  6
Continuous
 62
     7
100
AcDbLine
 10
234.9326573397
 20
282.5305411934
 30
0.0
 11
233.0026610746
 21
282.9734096138
 31
0.0
  0
LINE
  5
151
330
120
100
AcDbEntity
  8
A4241962_EINSATZ
  6
Continuous
 62
     7
100
AcDbLine
 10
261.0149615679
 20
279.3162837292
 30
0.0
 11
259.1235160557
 21
279.4091770106
 31
0.0
  0
ARC
  5
152
330
120
100
AcDbEntity
  8
A4241962_EINSATZ
  6
Continuous
 62
     7
100
AcDbCircle
 10
261.0155376882
 20
279.0150345025
 30
0.0
 40
0.2933633568711646
100
AcDbArc
 50
31.4947594689
 51
87.4215329517
  0
ARC
  5
153
330
120
100
AcDbEntity
  8
A4241962_EINSATZ
  6
Continuous
 62
     7
100
AcDbCircle
 10
232.9161259081
 20
282.6825547663
 30
0.0
 40
0.2971214184753943
100
AcDbArc
 50
75.2538212958
 51
128.2657277435
  0
ARC
  5
154
330
120
100
AcDbEntity
  8
A4241962_EINSATZ
  6
Continuous
 62
     7
100
AcDbCircle
 10
235.0965825518
 20
241.1512979913
 30
0.0
 40
0.296136169518921
100
AcDbArc
 50
224.9724750393
 51
272.6706101765
  0
ARC
  5
155
330
120
100
AcDbEntity
  8
A4241962_EINSATZ
  6
Continuous
 62
     7
100
AcDbCircle
 10
259.1951590847
 20
244.2077554104
 30
0.0
 40
0.2929802893279089
100
AcDbArc
 50
270.3774967562
 51
337.1338271096
  0
ARC
  5
156
330
120
100
AcDbEntity
  8
A4241962_EINSATZ
  6
Continuous
 62
     7
100
AcDbCircle
 10
256.3627028909
 20
278.5963240934
 30
0.0
 40
0.3000000000067071
100
AcDbArc
 50
99.0006911213
 51
137.572775659
  0
ARC
  5
157
330
120
100
AcDbEntity
  8
A4241962_EINSATZ
  6
Continuous
 62
     7
100
AcDbCircle
 10
250.9162924662
 20
311.2767324065
 30
0.0
 40
32.91040607681101
100
AcDbArc
 50
241.0844175115
 51
284.2695490087
  0
ARC
  5
158
330
120
100
AcDbEntity
  8
A4241962_EINSATZ
  6
Continuous
 62
     7
100
AcDbCircle
 10
248.9176680026
 20
328.5219789624
 30
0.0
 40
50.17712982429905
100
AcDbArc
 50
278.4722366709
 51
281.7409842294
  0
ARC
  5
159
330
120
100
AcDbEntity
  8
A4241962_EINSATZ
  6
Continuous
 62
     7
100
AcDbCircle
 10
254.0582793915
 20
321.4136081222
 30
0.0
 40
43.36030630118776
100
AcDbArc
 50
243.8055836546
 51
246.8678134176
  0
ARC
  5
15A
330
120
100
AcDbEntity
  8
A4241962_EINSATZ
  6
Continuous
 62
     7
100
AcDbCircle
 10
258.5071683153
 20
330.4830228064
 30
0.0
 40
53.45092186118
100
AcDbArc
 50
246.3015572661
 51
247.3023718327
  0
ARC
  5
15B
330
120
100
AcDbEntity
  8
A4241962_EINSATZ
  6
Continuous
 62
     7
100
AcDbCircle
 10
237.7628246182
 20
280.8958317447
 30
0.0
 40
0.3000000000000017
100
AcDbArc
 50
31.4753102941
 51
67.2317486119
  0
ARC
  5
15C
330
120
100
AcDbEntity
  8
A4241962_EINSATZ
  6
Continuous
 62
     7
100
AcDbCircle
 10
256.3627028909
 20
244.2535147453
 30
0.0
 40
0.3000000000000017
100
AcDbArc
 50
231.504205233
 51
261.3858043537
  0
LINE
  5
15D
330
120
100
AcDbEntity
  8
A4241962_EINSATZ
  6
Continuous
 62
     7
100
AcDbLine
 10
237.7688598249
 20
241.5693123864
 30
0.0
 11
237.8836777443
 21
241.6171502281
 31
0.0
  0
LINE
  5
15E
330
120
100
AcDbEntity
  8
A4241962_EINSATZ
  6
Continuous
 62
     7
100
AcDbLine
 10
256.3118854059
 20
243.9577195654
 30
0.0
 11
256.457443616
 21
243.9357530747
 31
0.0
  0
ARC
  5
15F
330
120
100
AcDbEntity
  8
A4241962_EINSATZ
  6
Continuous
 62
     7
100
AcDbCircle
 10
250.9322109298
 20
212.564510522
 30
0.0
 40
31.88619823356311
100
AcDbArc
 50
78.6545310943
 51
115.6632564582
  0
ARC
  5
160
330
120
100
AcDbEntity
  8
A4241962_EINSATZ
  6
Continuous
 62
     7
100
AcDbCircle
 10
237.7628246182
 20
241.8917628929
 30
0.0
 40
0.3000000000000116
100
AcDbArc
 50
292.6891166169
 51
319.0791955158
  0
ENDBLK
  5
162
330
120
100
AcDbEntity
  8
0
100
AcDbBlockEnd
  0
ENDSEC
  0
SECTION
  2
ENTITIES
  0
INSERT
  5
5F
330
1F
100
AcDbEntity
  8
Default
100
AcDbBlockReference
  2
SEANNOT_GROUP
 10
0.0
 20
0.0
 30
0.0
  0
INSERT
  5
66
330
1F
100
AcDbEntity
  8
Default
100
AcDbBlockReference
  2
SEANNOT_GROUP1
 10
0.0
 20
0.0
 30
0.0
  0
INSERT
  5
6C
330
1F
100
AcDbEntity
  8
Default
100
AcDbBlockReference
  2
SEANNOT_GROUP2
 10
0.0
 20
0.0
 30
0.0
  0
INSERT
  5
72
330
1F
100
AcDbEntity
  8
Default
100
AcDbBlockReference
  2
SE
 10
0.0
 20
0.0
 30
0.0
  0
INSERT
  5
DC
330
1F
100
AcDbEntity
  8
Default
100
AcDbBlockReference
  2
SE1
 10
0.0
 20
0.0
 30
0.0
  0
INSERT
  5
121
330
1F
100
AcDbEntity
  8
Default
100
AcDbBlockReference
  2
SE2
 10
0.0
 20
0.0
 30
0.0
  0
TEXT
  5
164
330
1F
100
AcDbEntity
  8
Default
  6
Continuous
 62
     7
100
AcDbText
 10
5.9362635081
 20
53.4225120485
 30
0.0
 40
10.0
  1
Grohe AG^J
  7
SEACAD_seiso_ttf
 11
5.9362635081
 21
63.4225120485
 31
0.0
100
AcDbText
 73
     3
  0
TEXT
  5
165
330
1F
100
AcDbEntity
  8
Default
  6
Continuous
 62
     7
100
AcDbText
 10
5.9362635081
 20
37.0588756849
 30
0.0
 40
10.0
  1
 
  7
SEACAD_seiso_ttf
 11
5.9362635081
 21
47.0588756849
 31
0.0
100
AcDbText
 73
     3
  0
TEXT
  5
166
330
1F
100
AcDbEntity
  8
Default
  6
Continuous
 62
     7
100
AcDbText
 10
5.9362635081
 20
20.6952393213
 30
0.0
 40
10.0
  1
ecn:
  7
SEACAD_seiso_ttf
 11
5.9362635081
 21
30.6952393213
 31
0.0
100
AcDbText
 73
     3
  0
TEXT
  5
167
330
1F
100
AcDbEntity
  8
Default
  6
Continuous
 62
     7
100
AcDbText
 10
5.9362635081
 20
4.3316029576
 30
0.0
 40
10.0
  1
unit: mm
  7
SEACAD_seiso_ttf
 11
5.9362635081
 21
14.3316029576
 31
0.0
100
AcDbText
 73
     3
  0
LINE
  5
168
330
1F
100
AcDbEntity
  8
Default
  6
Continuous
 62
     7
100
AcDbLine
 10
0.0
 20
0.0
 30
0.0
 11
100.0
 21
0.0
 31
0.0
  0
LINE
  5
169
330
1F
100
AcDbEntity
  8
Default
  6
Continuous
 62
     7
100
AcDbLine
 10
0.0
 20
0.0
 30
0.0
 11
0.0
 21
100.0
 31
0.0
  0
TEXT
  5
16A
330
1F
100
AcDbEntity
  8
Default
  6
Continuous
 62
     7
100
AcDbText
 10
24.3923665681
 20
-18.2375342018
 30
0.0
 40
10.0
  1
100 mm
  7
SEACAD_seiso_ttf
 11
24.3923665681
 21
-8.2375342018
 31
0.0
100
AcDbText
 73
     3
  0
TEXT
  5
16B
330
1F
100
AcDbEntity
  8
Default
  6
Continuous
 62
     7
100
AcDbText
 10
-7.6150308803
 20
24.6231930421
 30
0.0
 40
10.0
  1
100 mm
 50
90.0
  7
SEACAD_seiso_ttf
 11
-17.6150308803
 21
24.6231930421
 31
0.0
100
AcDbText
 73
     3
  0
TEXT
  5
16C
330
1F
100
AcDbEntity
  8
Default
  6
Continuous
 62
     7
100
AcDbText
 10
28.4878128572
 20
20.0907663715
 30
0.0
 40
10.0
  1
226597
  7
SEACAD_seiso_ttf
 11
28.4878128572
 21
30.0907663715
 31
0.0
100
AcDbText
 73
     3
  0
TEXT
  5
16D
330
1F
100
AcDbEntity
  8
Default
  6
Continuous
 62
     7
100
AcDbText
 10
5.9012241913
 20
36.7242780188
 30
0.0
 40
10.0
  1
27969000
  7
SEACAD_seiso_ttf
 11
5.9012241913
 21
46.7242780188
 31
0.0
100
AcDbText
 73
     3
  0
ENDSEC
  0
SECTION
  2
OBJECTS
  0
DICTIONARY
  5
C
330
0
100
AcDbDictionary
281
     1
  3
ACAD_GROUP
350
D
  3
ACAD_LAYOUT
350
1A
  3
ACAD_MLEADERSTYLE
350
171
  3
ACAD_MLINESTYLE
350
17
  3
ACAD_PLOTSETTINGS
350
19
  3
ACAD_PLOTSTYLENAME
350
E
  3
ACAD_SCALELIST
350
3B
  3
ACAD_TABLESTYLE
350
170
  3
ACAD_VISUALSTYLE
350
2A
  3
AcDbVariableDictionary
350
16E
  0
DICTIONARY
  5
D
102
{ACAD_REACTORS
330
C
102
}
330
C
100
AcDbDictionary
281
     1
  0
DICTIONARY
  5
1A
102
{ACAD_REACTORS
330
C
102
}
330
C
100
AcDbDictionary
281
     1
  3
Layout1
350
1E
  3
Model
350
22
  0
DICTIONARY
  5
171
102
{ACAD_REACTORS
330
C
102
}
330
C
100
AcDbDictionary
281
     1
  0
DICTIONARY
  5
17
102
{ACAD_REACTORS
330
C
102
}
330
C
100
AcDbDictionary
281
     1
  3
Standard
350
18
  0
DICTIONARY
  5
19
102
{ACAD_REACTORS
330
C
102
}
330
C
100
AcDbDictionary
281
     1
  0
ACDBDICTIONARYWDFLT
  5
E
102
{ACAD_REACTORS
330
C
102
}
330
C
100
AcDbDictionary
281
     1
  3
Normal
350
F
100
AcDbDictionaryWithDefault
340
F
  0
DICTIONARY
  5
3B
102
{ACAD_REACTORS
330
C
102
}
330
C
100
AcDbDictionary
281
     1
  3
A0
350
3C
  3
A1
350
3D
  3
A2
350
3E
  3
A3
350
3F
  3
A4
350
40
  3
A5
350
41
  3
A6
350
42
  3
A7
350
43
  3
A8
350
44
  3
A9
350
45
  3
B0
350
46
  3
B1
350
47
  3
B2
350
48
  3
B3
350
49
  3
B4
350
4A
  3
B5
350
4B
  3
B6
350
4C
  3
B7
350
4D
  3
B8
350
4E
  3
B9
350
4F
  3
C0
350
50
  3
C1
350
51
  3
C2
350
52
  3
C3
350
53
  3
C4
350
54
  3
C5
350
55
  3
C6
350
56
  3
C7
350
57
  3
C8
350
58
  3
C9
350
59
  3
D0
350
5A
  3
D1
350
5B
  3
D2
350
5C
  0
DICTIONARY
  5
170
102
{ACAD_REACTORS
330
C
102
}
330
C
100
AcDbDictionary
281
     1
  0
DICTIONARY
  5
2A
102
{ACAD_REACTORS
330
C
102
}
330
C
100
AcDbDictionary
281
     1
  3
2dWireframe
350
2F
  3
3D Hidden
350
31
  3
3dWireframe
350
30
  3
Basic
350
32
  3
Brighten
350
36
  3
ColorChange
350
3A
  3
Conceptual
350
34
  3
Dim
350
35
  3
Facepattern
350
39
  3
Flat
350
2B
  3
FlatWithEdges
350
2C
  3
Gouraud
350
2D
  3
GouraudWithEdges
350
2E
  3
Linepattern
350
38
  3
Realistic
350
33
  3
Thicken
350
37
  0
DICTIONARY
  5
16E
102
{ACAD_REACTORS
330
C
102
}
330
C
100
AcDbDictionary
281
     1
  3
CANNOSCALE
350
16F
  3
PSOLHEIGHT
350
173
  3
PSOLWIDTH
350
172
  0
LAYOUT
  5
1E
102
{ACAD_REACTORS
330
1A
102
}
330
1A
100
AcDbPlotSettings
  1

  2
none_device
  4

  6

 40
0.0
 41
0.0
 42
0.0
 43
0.0
 44
0.0
 45
0.0
 46
0.0
 47
0.0
 48
0.0
 49
0.0
140
0.0
141
0.0
142
1.0
143
1.0
 70
   688
 72
     0
 73
     0
 74
     5
  7

 75
    16
147
1.0
148
0.0
149
0.0
100
AcDbLayout
  1
Layout1
 70
     1
 71
     1
 10
0.0
 20
0.0
 11
3000.0
 21
4500.0
 12
0.0
 22
0.0
 32
0.0
 14
0.0
 24
0.0
 34
0.0
 15
3000.0
 25
4500.0
 35
0.0
146
0.0
 13
0.0
 23
0.0
 33
0.0
 16
1.0
 26
0.0
 36
0.0
 17
0.0
 27
1.0
 37
0.0
 76
     0
330
1B
  0
LAYOUT
  5
22
102
{ACAD_REACTORS
330
1A
102
}
330
1A
100
AcDbPlotSettings
  1

  2
none_device
  4

  6

 40
0.0
 41
0.0
 42
0.0
 43
0.0
 44
0.0
 45
0.0
 46
0.0
 47
0.0
 48
0.0
 49
0.0
140
0.0
141
0.0
142
1.0
143
1.0
 70
  1712
 72
     0
 73
     0
 74
     0
  7

 75
     0
147
1.0
148
0.0
149
0.0
100
AcDbLayout
  1
Model
 70
     1
 71
     0
 10
0.0
 20
0.0
 11
3000.0
 21
4500.0
 12
0.0
 22
0.0
 32
0.0
 14
0.0
 24
0.0
 34
0.0
 15
3000.0
 25
4500.0
 35
0.0
146
0.0
 13
0.0
 23
0.0
 33
0.0
 16
1.0
 26
0.0
 36
0.0
 17
0.0
 27
1.0
 37
0.0
 76
     0
330
1F
331
29
  0
MLINESTYLE
  5
18
102
{ACAD_REACTORS
330
17
102
}
330
17
100
AcDbMlineStyle
  2
Standard
 70
     0
  3

 62
   256
 51
90.0
 52
90.0
 71
     2
 49
0.5
 62
   256
  6
BYLAYER
 49
-0.5
 62
   256
  6
BYLAYER
  0
ACDBPLACEHOLDER
  5
F
102
{ACAD_REACTORS
330
E
102
}
330
E
  0
SCALE
  5
3C
102
{ACAD_REACTORS
330
3B
102
}
330
3B
100
AcDbScale
 70
     0
300
1:1
140
1.0
141
1.0
290
     1
  0
SCALE
  5
3D
102
{ACAD_REACTORS
330
3B
102
}
330
3B
100
AcDbScale
 70
     0
300
1:2
140
1.0
141
2.0
290
     0
  0
SCALE
  5
3E
102
{ACAD_REACTORS
330
3B
102
}
330
3B
100
AcDbScale
 70
     0
300
1:4
140
1.0
141
4.0
290
     0
  0
SCALE
  5
3F
102
{ACAD_REACTORS
330
3B
102
}
330
3B
100
AcDbScale
 70
     0
300
1:5
140
1.0
141
5.0
290
     0
  0
SCALE
  5
40
102
{ACAD_REACTORS
330
3B
102
}
330
3B
100
AcDbScale
 70
     0
300
1:8
140
1.0
141
8.0
290
     0
  0
SCALE
  5
41
102
{ACAD_REACTORS
330
3B
102
}
330
3B
100
AcDbScale
 70
     0
300
1:10
140
1.0
141
10.0
290
     0
  0
SCALE
  5
42
102
{ACAD_REACTORS
330
3B
102
}
330
3B
100
AcDbScale
 70
     0
300
1:16
140
1.0
141
16.0
290
     0
  0
SCALE
  5
43
102
{ACAD_REACTORS
330
3B
102
}
330
3B
100
AcDbScale
 70
     0
300
1:20
140
1.0
141
20.0
290
     0
  0
SCALE
  5
44
102
{ACAD_REACTORS
330
3B
102
}
330
3B
100
AcDbScale
 70
     0
300
1:30
140
1.0
141
30.0
290
     0
  0
SCALE
  5
45
102
{ACAD_REACTORS
330
3B
102
}
330
3B
100
AcDbScale
 70
     0
300
1:40
140
1.0
141
40.0
290
     0
  0
SCALE
  5
46
102
{ACAD_REACTORS
330
3B
102
}
330
3B
100
AcDbScale
 70
     0
300
1:50
140
1.0
141
50.0
290
     0
  0
SCALE
  5
47
102
{ACAD_REACTORS
330
3B
102
}
330
3B
100
AcDbScale
 70
     0
300
1:100
140
1.0
141
100.0
290
     0
  0
SCALE
  5
48
102
{ACAD_REACTORS
330
3B
102
}
330
3B
100
AcDbScale
 70
     0
300
2:1
140
2.0
141
1.0
290
     0
  0
SCALE
  5
49
102
{ACAD_REACTORS
330
3B
102
}
330
3B
100
AcDbScale
 70
     0
300
4:1
140
4.0
141
1.0
290
     0
  0
SCALE
  5
4A
102
{ACAD_REACTORS
330
3B
102
}
330
3B
100
AcDbScale
 70
     0
300
8:1
140
8.0
141
1.0
290
     0
  0
SCALE
  5
4B
102
{ACAD_REACTORS
330
3B
102
}
330
3B
100
AcDbScale
 70
     0
300
10:1
140
10.0
141
1.0
290
     0
  0
SCALE
  5
4C
102
{ACAD_REACTORS
330
3B
102
}
330
3B
100
AcDbScale
 70
     0
300
100:1
140
100.0
141
1.0
290
     0
  0
SCALE
  5
4D
102
{ACAD_REACTORS
330
3B
102
}
330
3B
100
AcDbScale
 70
     0
300
1/128" = 1'-0"
140
0.0078125
141
12.0
290
     0
  0
SCALE
  5
4E
102
{ACAD_REACTORS
330
3B
102
}
330
3B
100
AcDbScale
 70
     0
300
1/64" = 1'-0"
140
0.015625
141
12.0
290
     0
  0
SCALE
  5
4F
102
{ACAD_REACTORS
330
3B
102
}
330
3B
100
AcDbScale
 70
     0
300
1/32" = 1'-0"
140
0.03125
141
12.0
290
     0
  0
SCALE
  5
50
102
{ACAD_REACTORS
330
3B
102
}
330
3B
100
AcDbScale
 70
     0
300
1/16" = 1'-0"
140
0.0625
141
12.0
290
     0
  0
SCALE
  5
51
102
{ACAD_REACTORS
330
3B
102
}
330
3B
100
AcDbScale
 70
     0
300
3/32" = 1'-0"
140
0.09375
141
12.0
290
     0
  0
SCALE
  5
52
102
{ACAD_REACTORS
330
3B
102
}
330
3B
100
AcDbScale
 70
     0
300
1/8" = 1'-0"
140
0.125
141
12.0
290
     0
  0
SCALE
  5
53
102
{ACAD_REACTORS
330
3B
102
}
330
3B
100
AcDbScale
 70
     0
300
3/16" = 1'-0"
140
0.1875
141
12.0
290
     0
  0
SCALE
  5
54
102
{ACAD_REACTORS
330
3B
102
}
330
3B
100
AcDbScale
 70
     0
300
1/4" = 1'-0"
140
0.25
141
12.0
290
     0
  0
SCALE
  5
55
102
{ACAD_REACTORS
330
3B
102
}
330
3B
100
AcDbScale
 70
     0
300
3/8" = 1'-0"
140
0.375
141
12.0
290
     0
  0
SCALE
  5
56
102
{ACAD_REACTORS
330
3B
102
}
330
3B
100
AcDbScale
 70
     0
300
1/2" = 1'-0"
140
0.5
141
12.0
290
     0
  0
SCALE
  5
57
102
{ACAD_REACTORS
330
3B
102
}
330
3B
100
AcDbScale
 70
     0
300
3/4" = 1'-0"
140
0.75
141
12.0
290
     0
  0
SCALE
  5
58
102
{ACAD_REACTORS
330
3B
102
}
330
3B
100
AcDbScale
 70
     0
300
1" = 1'-0"
140
1.0
141
12.0
290
     0
  0
SCALE
  5
59
102
{ACAD_REACTORS
330
3B
102
}
330
3B
100
AcDbScale
 70
     0
300
1-1/2" = 1'-0"
140
1.5
141
12.0
290
     0
  0
SCALE
  5
5A
102
{ACAD_REACTORS
330
3B
102
}
330
3B
100
AcDbScale
 70
     0
300
3" = 1'-0"
140
3.0
141
12.0
290
     0
  0
SCALE
  5
5B
102
{ACAD_REACTORS
330
3B
102
}
330
3B
100
AcDbScale
 70
     0
300
6" = 1'-0"
140
6.0
141
12.0
290
     0
  0
SCALE
  5
5C
102
{ACAD_REACTORS
330
3B
102
}
330
3B
100
AcDbScale
 70
     0
300
1'-0" = 1'-0"
140
12.0
141
12.0
290
     0
  0
VISUALSTYLE
  5
2F
102
{ACAD_REACTORS
330
2A
102
}
330
2A
100
AcDbVisualStyle
  2
2dWireframe
 70
     4
 71
     0
 72
     2
 73
     0
 90
        0
 40
-0.6
 41
-30.0
 62
     5
 63
     7
 74
     1
 91
        4
 64
     7
 65
   257
 75
     1
175
     1
 42
1.0
 92
        0
 66
   257
 43
1.0
 76
     1
 77
     6
 78
     2
 67
     7
 79
     5
170
     0
171
     0
290
     0
174
     0
 93
        1
 44
0.0
173
     0
291
     0
 45
0.0
1001
ACAD
1000
AcDbSavedByObjectVersion
1070
     0
  0
VISUALSTYLE
  5
31
102
{ACAD_REACTORS
330
2A
102
}
330
2A
100
AcDbVisualStyle
  2
3D Hidden
 70
     6
 71
     1
 72
     2
 73
     2
 90
        0
 40
-0.6
 41
-30.0
 62
     5
 63
     7
 74
     2
 91
        2
 64
     7
 65
   257
 75
     2
175
     1
 42
40.0
 92
        0
 66
   257
 43
1.0
 76
     1
 77
     6
 78
     2
 67
     7
 79
     3
170
     0
171
     0
290
     0
174
     0
 93
        1
 44
0.0
173
     0
291
     0
 45
0.0
1001
ACAD
1000
AcDbSavedByObjectVersion
1070
     0
  0
VISUALSTYLE
  5
30
102
{ACAD_REACTORS
330
2A
102
}
330
2A
100
AcDbVisualStyle
  2
3dWireframe
 70
     5
 71
     0
 72
     2
 73
     0
 90
        0
 40
-0.6
 41
-30.0
 62
     5
 63
     7
 74
     1
 91
        4
 64
     7
 65
   257
 75
     1
175
     1
 42
1.0
 92
        0
 66
   257
 43
1.0
 76
     1
 77
     6
 78
     2
 67
     7
 79
     5
170
     0
171
     0
290
     0
174
     0
 93
        1
 44
0.0
173
     0
291
     0
 45
0.0
1001
ACAD
1000
AcDbSavedByObjectVersion
1070
     0
  0
VISUALSTYLE
  5
32
102
{ACAD_REACTORS
330
2A
102
}
330
2A
100
AcDbVisualStyle
  2
Basic
 70
     7
 71
     1
 72
     0
 73
     1
 90
        0
 40
-0.6
 41
-30.0
 62
     5
 63
     7
 74
     0
 91
        4
 64
     7
 65
   257
 75
     1
175
     1
 42
1.0
 92
        8
 66
     7
 43
1.0
 76
     1
 77
     6
 78
     2
 67
     7
 79
     5
170
     0
171
     0
290
     0
174
     0
 93
        1
 44
0.0
173
     0
291
     1
 45
0.0
1001
ACAD
1000
AcDbSavedByObjectVersion
1070
     0
  0
VISUALSTYLE
  5
36
102
{ACAD_REACTORS
330
2A
102
}
330
2A
100
AcDbVisualStyle
  2
Brighten
 70
    12
 71
     2
 72
     2
 73
     0
 90
        0
 40
-0.6
 41
-30.0
 62
     5
 63
     7
 74
     1
 91
        4
 64
     7
 65
   257
 75
     1
175
     1
 42
1.0
 92
        8
 66
     7
 43
1.0
 76
     1
 77
     6
 78
     2
 67
     7
 79
     5
170
     0
171
     0
290
     0
174
     0
 93
        1
 44
50.0
173
     0
291
     1
 45
0.0
1001
ACAD
1000
AcDbSavedByObjectVersion
1070
     0
  0
VISUALSTYLE
  5
3A
102
{ACAD_REACTORS
330
2A
102
}
330
2A
100
AcDbVisualStyle
  2
ColorChange
 70
    16
 71
     2
 72
     2
 73
     3
 90
        0
 40
-0.6
 41
-30.0
 62
     5
 63
     8
 74
     1
 91
        4
 64
     7
 65
   257
 75
     1
175
     1
 42
1.0
 92
        8
 66
     8
 43
1.0
 76
     1
 77
     6
 78
     2
 67
     7
 79
     5
170
     0
171
     0
290
     0
174
     0
 93
        1
 44
0.0
173
     0
291
     1
 45
0.0
1001
ACAD
1000
AcDbSavedByObjectVersion
1070
     0
  0
VISUALSTYLE
  5
34
102
{ACAD_REACTORS
330
2A
102
}
330
2A
100
AcDbVisualStyle
  2
Conceptual
 70
     9
 71
     3
 72
     2
 73
     0
 90
        0
 40
-0.6
 41
-30.0
 62
     5
 63
     7
 74
     2
 91
        2
 64
     7
 65
   257
 75
     1
175
     1
 42
40.0
 92
        8
 66
     7
 43
1.0
 76
     1
 77
     6
 78
     2
 67
     7
 79
     3
170
     0
171
     0
290
     0
174
     0
 93
        1
 44
0.0
173
     0
291
     0
 45
0.0
1001
ACAD
1000
AcDbSavedByObjectVersion
1070
     0
  0
VISUALSTYLE
  5
35
102
{ACAD_REACTORS
330
2A
102
}
330
2A
100
AcDbVisualStyle
  2
Dim
 70
    11
 71
     2
 72
     2
 73
     0
 90
        0
 40
-0.6
 41
-30.0
 62
     5
 63
     7
 74
     1
 91
        4
 64
     7
 65
   257
 75
     1
175
     1
 42
1.0
 92
        8
 66
     7
 43
1.0
 76
     1
 77
     6
 78
     2
 67
     7
 79
     5
170
     0
171
     0
290
     0
174
     0
 93
        1
 44
-50.0
173
     0
291
     1
 45
0.0
1001
ACAD
1000
AcDbSavedByObjectVersion
1070
     0
  0
VISUALSTYLE
  5
39
102
{ACAD_REACTORS
330
2A
102
}
330
2A
100
AcDbVisualStyle
  2
Facepattern
 70
    15
 71
     2
 72
     2
 73
     0
 90
        0
 40
-0.6
 41
-30.0
 62
     5
 63
     7
 74
     1
 91
        4
 64
     7
 65
   257
 75
     1
175
     1
 42
1.0
 92
        8
 66
     7
 43
1.0
 76
     1
 77
     6
 78
     2
 67
     7
 79
     5
170
     0
171
     0
290
     0
174
     0
 93
        1
 44
0.0
173
     0
291
     1
 45
0.0
1001
ACAD
1000
AcDbSavedByObjectVersion
1070
     0
  0
VISUALSTYLE
  5
2B
102
{ACAD_REACTORS
330
2A
102
}
330
2A
100
AcDbVisualStyle
  2
Flat
 70
     0
 71
     2
 72
     1
 73
     1
 90
        2
 40
-0.6
 41
30.0
 62
     5
 63
     7
 74
     0
 91
        4
 64
     7
 65
   257
 75
     1
175
     1
 42
1.0
 92
        8
 66
     7
 43
1.0
 76
     1
 77
     6
 78
     2
 67
     7
 79
     5
170
     0
171
     0
290
     0
174
     0
 93
       13
 44
0.0
173
     0
291
     1
 45
0.0
1001
ACAD
1000
AcDbSavedByObjectVersion
1070
     0
  0
VISUALSTYLE
  5
2C
102
{ACAD_REACTORS
330
2A
102
}
330
2A
100
AcDbVisualStyle
  2
FlatWithEdges
 70
     1
 71
     2
 72
     1
 73
     1
 90
        2
 40
-0.6
 41
30.0
 62
     5
 63
     7
 74
     1
 91
        4
 64
     7
 65
   257
 75
     1
175
     1
 42
1.0
 92
        0
 66
   257
 43
1.0
 76
     1
 77
     6
 78
     2
 67
     7
 79
     5
170
     0
171
     0
290
     0
174
     0
 93
       13
 44
0.0
173
     0
291
     1
 45
0.0
1001
ACAD
1000
AcDbSavedByObjectVersion
1070
     0
  0
VISUALSTYLE
  5
2D
102
{ACAD_REACTORS
330
2A
102
}
330
2A
100
AcDbVisualStyle
  2
Gouraud
 70
     2
 71
     2
 72
     2
 73
     1
 90
        2
 40
-0.6
 41
30.0
 62
     5
 63
     7
 74
     0
 91
        4
 64
     7
 65
   257
 75
     1
175
     1
 42
1.0
 92
        0
 66
     7
 43
1.0
 76
     1
 77
     6
 78
     2
 67
     7
 79
     5
170
     0
171
     0
290
     0
174
     0
 93
       13
 44
0.0
173
     0
291
     1
 45
0.0
1001
ACAD
1000
AcDbSavedByObjectVersion
1070
     0
  0
VISUALSTYLE
  5
2E
102
{ACAD_REACTORS
330
2A
102
}
330
2A
100
AcDbVisualStyle
  2
GouraudWithEdges
 70
     3
 71
     2
 72
     2
 73
     1
 90
        2
 40
-0.6
 41
30.0
 62
     5
 63
     7
 74
     1
 91
        4
 64
     7
 65
   257
 75
     1
175
     1
 42
1.0
 92
        0
 66
   257
 43
1.0
 76
     1
 77
     6
 78
     2
 67
     7
 79
     5
170
     0
171
     0
290
     0
174
     0
 93
       13
 44
0.0
173
     0
291
     1
 45
0.0
1001
ACAD
1000
AcDbSavedByObjectVersion
1070
     0
  0
VISUALSTYLE
  5
38
102
{ACAD_REACTORS
330
2A
102
}
330
2A
100
AcDbVisualStyle
  2
Linepattern
 70
    14
 71
     2
 72
     2
 73
     0
 90
        0
 40
-0.6
 41
-30.0
 62
     5
 63
     7
 74
     1
 91
        4
 64
     7
 65
   257
 75
     7
175
     7
 42
1.0
 92
        8
 66
     7
 43
1.0
 76
     1
 77
     6
 78
     2
 67
     7
 79
     5
170
     0
171
     0
290
     0
174
     0
 93
        1
 44
0.0
173
     0
291
     1
 45
0.0
1001
ACAD
1000
AcDbSavedByObjectVersion
1070
     0
  0
VISUALSTYLE
  5
33
102
{ACAD_REACTORS
330
2A
102
}
330
2A
100
AcDbVisualStyle
  2
Realistic
 70
     8
 71
     2
 72
     2
 73
     0
 90
        0
 40
-0.6
 41
-30.0
 62
     5
 63
     7
 74
     1
 91
        0
 64
     7
 65
   257
 75
     1
175
     1
 42
1.0
 92
        8
 66
     8
 43
1.0
 76
     1
 77
     6
 78
     2
 67
     7
 79
     5
170
     0
171
     0
290
     0
174
     0
 93
       13
 44
0.0
173
     0
291
     0
 45
0.0
1001
ACAD
1000
AcDbSavedByObjectVersion
1070
     0
  0
VISUALSTYLE
  5
37
102
{ACAD_REACTORS
330
2A
102
}
330
2A
100
AcDbVisualStyle
  2
Thicken
 70
    13
 71
     2
 72
     2
 73
     0
 90
        0
 40
-0.6
 41
-30.0
 62
     5
 63
     7
 74
     1
 91
        4
 64
     7
 65
   257
 75
     1
175
     1
 42
1.0
 92
       12
 66
     7
 43
1.0
 76
     1
 77
     6
 78
     2
 67
     7
 79
     5
170
     0
171
     0
290
     0
174
     0
 93
        1
 44
0.0
173
     0
291
     1
 45
0.0
1001
ACAD
1000
AcDbSavedByObjectVersion
1070
     0
  0
DICTIONARYVAR
  5
16F
102
{ACAD_REACTORS
330
16E
102
}
330
16E
100
DictionaryVariables
280
     0
  1
1:1
  0
DICTIONARYVAR
  5
173
102
{ACAD_REACTORS
330
16E
102
}
330
16E
100
DictionaryVariables
280
     0
  1
80.000000
  0
DICTIONARYVAR
  5
172
102
{ACAD_REACTORS
330
16E
102
}
330
16E
100
DictionaryVariables
280
     0
  1
5.000000
  0
ENDSEC
  0
EOF
