  0
SECTION
  2
HEADER
  9
$ACADVER
  1
AC1015
  9
$ACADMAINTVER
 70
     6
  9
$DWGCODEPAGE
  3
ANSI_1252
  9
$INSBASE
 10
0.0
 20
0.0
 30
0.0
  9
$EXTMIN
 10
0.0
 20
0.0
 30
0.0
  9
$EXTMAX
 10
3000.0
 20
4500.0
 30
0.0
  9
$LIMMIN
 10
0.0
 20
0.0
  9
$LIMMAX
 10
3000.0
 20
4500.0
  9
$ORTHOMODE
 70
     0
  9
$REGENMODE
 70
     1
  9
$FILLMODE
 70
     1
  9
$QTEXTMODE
 70
     0
  9
$MIRRTEXT
 70
     1
  9
$LTSCALE
 40
1.0
  9
$ATTMODE
 70
     1
  9
$TEXTSIZE
 40
2.5
  9
$TRACEWID
 40
1.0
  9
$TEXTSTYLE
  7
Standard
  9
$CLAYER
  8
0
  9
$CELTYPE
  6
ByLayer
  9
$CECOLOR
 62
   256
  9
$CELTSCALE
 40
1.0
  9
$DISPSILH
 70
     0
  9
$DIMSCALE
 40
1.0
  9
$DIMASZ
 40
2.5
  9
$DIMEXO
 40
0.625
  9
$DIMDLI
 40
3.75
  9
$DIMRND
 40
0.0
  9
$DIMDLE
 40
0.0
  9
$DIMEXE
 40
1.25
  9
$DIMTP
 40
0.0
  9
$DIMTM
 40
0.0
  9
$DIMTXT
 40
2.5
  9
$DIMCEN
 40
2.5
  9
$DIMTSZ
 40
0.0
  9
$DIMTOL
 70
     0
  9
$DIMLIM
 70
     0
  9
$DIMTIH
 70
     0
  9
$DIMTOH
 70
     0
  9
$DIMSE1
 70
     0
  9
$DIMSE2
 70
     0
  9
$DIMTAD
 70
     1
  9
$DIMZIN
 70
     8
  9
$DIMBLK
  1

  9
$DIMASO
 70
     1
  9
$DIMSHO
 70
     1
  9
$DIMPOST
  1

  9
$DIMAPOST
  1

  9
$DIMALT
 70
     0
  9
$DIMALTD
 70
     3
  9
$DIMALTF
 40
0.0393700787
  9
$DIMLFAC
 40
1.0
  9
$DIMTOFL
 70
     1
  9
$DIMTVP
 40
0.0
  9
$DIMTIX
 70
     0
  9
$DIMSOXD
 70
     0
  9
$DIMSAH
 70
     0
  9
$DIMBLK1
  1

  9
$DIMBLK2
  1

  9
$DIMSTYLE
  2
ISO-25
  9
$DIMCLRD
 70
     0
  9
$DIMCLRE
 70
     0
  9
$DIMCLRT
 70
     0
  9
$DIMTFAC
 40
1.0
  9
$DIMGAP
 40
0.625
  9
$DIMJUST
 70
     0
  9
$DIMSD1
 70
     0
  9
$DIMSD2
 70
     0
  9
$DIMTOLJ
 70
     0
  9
$DIMTZIN
 70
     8
  9
$DIMALTZ
 70
     0
  9
$DIMALTTZ
 70
     0
  9
$DIMUPT
 70
     0
  9
$DIMDEC
 70
     2
  9
$DIMTDEC
 70
     2
  9
$DIMALTU
 70
     2
  9
$DIMALTTD
 70
     3
  9
$DIMTXSTY
  7
Standard
  9
$DIMAUNIT
 70
     0
  9
$DIMADEC
 70
     0
  9
$DIMALTRND
 40
0.0
  9
$DIMAZIN
 70
     0
  9
$DIMDSEP
 70
    44
  9
$DIMATFIT
 70
     3
  9
$DIMFRAC
 70
     0
  9
$DIMLDRBLK
  1

  9
$DIMLUNIT
 70
     2
  9
$DIMLWD
 70
    -2
  9
$DIMLWE
 70
    -2
  9
$DIMTMOVE
 70
     0
  9
$LUNITS
 70
     2
  9
$LUPREC
 70
     4
  9
$SKETCHINC
 40
1.0
  9
$FILLETRAD
 40
10.0
  9
$AUNITS
 70
     0
  9
$AUPREC
 70
     0
  9
$MENU
  1
.
  9
$ELEVATION
 40
0.0
  9
$PELEVATION
 40
0.0
  9
$THICKNESS
 40
0.0
  9
$LIMCHECK
 70
     0
  9
$CHAMFERA
 40
10.0
  9
$CHAMFERB
 40
10.0
  9
$CHAMFERC
 40
20.0
  9
$CHAMFERD
 40
0.0
  9
$SKPOLY
 70
     0
  9
$TDCREATE
 40
2456223.350009421
  9
$TDUCREATE
 40
2456223.266676088
  9
$TDUPDATE
 40
2456223.350009433
  9
$TDUUPDATE
 40
2456223.2666761
  9
$TDINDWG
 40
0.0000000116
  9
$TDUSRTIMER
 40
0.0000000116
  9
$USRTIMER
 70
     1
  9
$ANGBASE
 50
0.0
  9
$ANGDIR
 70
     0
  9
$PDMODE
 70
     0
  9
$PDSIZE
 40
0.0
  9
$PLINEWID
 40
0.0
  9
$SPLFRAME
 70
     0
  9
$SPLINETYPE
 70
     6
  9
$SPLINESEGS
 70
     8
  9
$HANDSEED
  5
21B
  9
$SURFTAB1
 70
     6
  9
$SURFTAB2
 70
     6
  9
$SURFTYPE
 70
     6
  9
$SURFU
 70
     6
  9
$SURFV
 70
     6
  9
$UCSBASE
  2

  9
$UCSNAME
  2

  9
$UCSORG
 10
0.0
 20
0.0
 30
0.0
  9
$UCSXDIR
 10
1.0
 20
0.0
 30
0.0
  9
$UCSYDIR
 10
0.0
 20
1.0
 30
0.0
  9
$UCSORTHOREF
  2

  9
$UCSORTHOVIEW
 70
     0
  9
$UCSORGTOP
 10
0.0
 20
0.0
 30
0.0
  9
$UCSORGBOTTOM
 10
0.0
 20
0.0
 30
0.0
  9
$UCSORGLEFT
 10
0.0
 20
0.0
 30
0.0
  9
$UCSORGRIGHT
 10
0.0
 20
0.0
 30
0.0
  9
$UCSORGFRONT
 10
0.0
 20
0.0
 30
0.0
  9
$UCSORGBACK
 10
0.0
 20
0.0
 30
0.0
  9
$PUCSBASE
  2

  9
$PUCSNAME
  2

  9
$PUCSORG
 10
0.0
 20
0.0
 30
0.0
  9
$PUCSXDIR
 10
1.0
 20
0.0
 30
0.0
  9
$PUCSYDIR
 10
0.0
 20
1.0
 30
0.0
  9
$PUCSORTHOREF
  2

  9
$PUCSORTHOVIEW
 70
     0
  9
$PUCSORGTOP
 10
0.0
 20
0.0
 30
0.0
  9
$PUCSORGBOTTOM
 10
0.0
 20
0.0
 30
0.0
  9
$PUCSORGLEFT
 10
0.0
 20
0.0
 30
0.0
  9
$PUCSORGRIGHT
 10
0.0
 20
0.0
 30
0.0
  9
$PUCSORGFRONT
 10
0.0
 20
0.0
 30
0.0
  9
$PUCSORGBACK
 10
0.0
 20
0.0
 30
0.0
  9
$USERI1
 70
     0
  9
$USERI2
 70
     0
  9
$USERI3
 70
     0
  9
$USERI4
 70
     0
  9
$USERI5
 70
     0
  9
$USERR1
 40
0.0
  9
$USERR2
 40
0.0
  9
$USERR3
 40
0.0
  9
$USERR4
 40
0.0
  9
$USERR5
 40
0.0
  9
$WORLDVIEW
 70
     1
  9
$SHADEDGE
 70
     3
  9
$SHADEDIF
 70
    70
  9
$TILEMODE
 70
     1
  9
$MAXACTVP
 70
    64
  9
$PINSBASE
 10
0.0
 20
0.0
 30
0.0
  9
$PLIMCHECK
 70
     0
  9
$PEXTMIN
 10
0.0
 20
0.0
 30
0.0
  9
$PEXTMAX
 10
3000.0
 20
4500.0
 30
0.0
  9
$PLIMMIN
 10
0.0
 20
0.0
  9
$PLIMMAX
 10
3000.0
 20
4500.0
  9
$UNITMODE
 70
     0
  9
$VISRETAIN
 70
     1
  9
$PLINEGEN
 70
     0
  9
$PSLTSCALE
 70
     1
  9
$TREEDEPTH
 70
  3020
  9
$CMLSTYLE
  2
Standard
  9
$CMLJUST
 70
     0
  9
$CMLSCALE
 40
20.0
  9
$PROXYGRAPHICS
 70
     1
  9
$MEASUREMENT
 70
     1
  9
$CELWEIGHT
370
    -1
  9
$ENDCAPS
280
     0
  9
$JOINSTYLE
280
     0
  9
$LWDISPLAY
290
     0
  9
$INSUNITS
 70
     4
  9
$HYPERLINKBASE
  1

  9
$STYLESHEET
  1

  9
$XEDIT
290
     1
  9
$CEPSNTYPE
380
     0
  9
$PSTYLEMODE
290
     1
  9
$FINGERPRINTGUID
  2
{92AFF490-E906-413F-9BBB-696D0A68294B}
  9
$VERSIONGUID
  2
{FAEB1C32-E019-11D5-929B-00C0DF256EC4}
  9
$EXTNAMES
290
     1
  9
$PSVPSCALE
 40
0.0
  9
$OLESTARTUP
290
     0
  0
ENDSEC
  0
SECTION
  2
CLASSES
  0
CLASS
  1
ACDBDICTIONARYWDFLT
  2
AcDbDictionaryWithDefault
  3
ObjectDBX Classes
 90
        0
280
     0
281
     0
  0
CLASS
  1
VISUALSTYLE
  2
AcDbVisualStyle
  3
ObjectDBX Classes
 90
     4095
280
     0
281
     0
  0
CLASS
  1
SCALE
  2
AcDbScale
  3
ObjectDBX Classes
 90
     1153
280
     0
281
     0
  0
CLASS
  1
DICTIONARYVAR
  2
AcDbDictionaryVar
  3
ObjectDBX Classes
 90
        0
280
     0
281
     0
  0
CLASS
  1
ACDBPLACEHOLDER
  2
AcDbPlaceHolder
  3
ObjectDBX Classes
 90
        0
280
     0
281
     0
  0
CLASS
  1
LAYOUT
  2
AcDbLayout
  3
ObjectDBX Classes
 90
        0
280
     0
281
     0
  0
ENDSEC
  0
SECTION
  2
TABLES
  0
TABLE
  2
VPORT
  5
8
330
0
100
AcDbSymbolTable
 70
     1
  0
VPORT
  5
29
330
8
100
AcDbSymbolTableRecord
100
AcDbViewportTableRecord
  2
*Active
 70
     0
 10
0.0
 20
0.0
 11
1.0
 21
1.0
 12
344.1869158879
 22
148.5
 13
0.0
 23
0.0
 14
10.0
 24
10.0
 15
10.0
 25
10.0
 16
0.0
 26
0.0
 36
1.0
 17
0.0
 27
0.0
 37
0.0
 40
297.0
 41
1.9729729729
 42
50.0
 43
0.0
 44
0.0
 50
0.0
 51
0.0
 71
     0
 72
   100
 73
     1
 74
     3
 75
     0
 76
     0
 77
     0
 78
     0
281
     0
 65
     1
110
0.0
120
0.0
130
0.0
111
1.0
121
0.0
131
0.0
112
0.0
122
1.0
132
0.0
 79
     0
146
0.0
  0
ENDTAB
  0
TABLE
  2
LTYPE
  5
5
330
0
100
AcDbSymbolTable
 70
     2
  0
LTYPE
  5
14
330
5
100
AcDbSymbolTableRecord
100
AcDbLinetypeTableRecord
  2
ByBlock
 70
     0
  3

 72
    65
 73
     0
 40
0.0
  0
LTYPE
  5
15
330
5
100
AcDbSymbolTableRecord
100
AcDbLinetypeTableRecord
  2
ByLayer
 70
     0
  3

 72
    65
 73
     0
 40
0.0
  0
LTYPE
  5
16
330
5
100
AcDbSymbolTableRecord
100
AcDbLinetypeTableRecord
  2
Continuous
 70
     0
  3
Solid line
 72
    65
 73
     0
 40
0.0
  0
LTYPE
  5
60
330
5
100
AcDbSymbolTableRecord
100
AcDbLinetypeTableRecord
  2
CENTER2
 70
     0
  3
Center (.5x) ___ _ ___ _ ___ _ ___ _ ___ _ ___
 72
    65
 73
     4
 40
28.575
 49
19.05
 74
     4
 75
     0
340
0
 46
0.0
 50
0.0
 44
0.0
 45
0.0
 49
-3.175
 74
     4
 75
     0
340
0
 46
0.0
 50
0.0
 44
0.0
 45
0.0
 49
3.175
 74
     4
 75
     0
340
0
 46
0.0
 50
0.0
 44
0.0
 45
0.0
 49
-3.175
 74
     4
 75
     0
340
0
 46
0.0
 50
0.0
 44
0.0
 45
0.0
  0
ENDTAB
  0
TABLE
  2
LAYER
  5
2
330
0
100
AcDbSymbolTable
 70
    13
  0
LAYER
  5
10
330
2
100
AcDbSymbolTableRecord
100
AcDbLayerTableRecord
  2
0
 70
     0
 62
     7
  6
Continuous
370
    -3
390
F
  0
LAYER
  5
5D
330
2
100
AcDbSymbolTableRecord
100
AcDbLayerTableRecord
  2
Default
 70
     0
 62
     7
  6
Continuous
370
    -3
390
F
  0
LAYER
  5
77
330
2
100
AcDbSymbolTableRecord
100
AcDbLayerTableRecord
  2
410585038_THM3_H
 70
     0
 62
     7
  6
Continuous
370
    -3
390
F
  0
LAYER
  5
A2
330
2
100
AcDbSymbolTableRecord
100
AcDbLayerTableRecord
  2
410575038_VOLUMN
 70
     0
 62
     7
  6
Continuous
370
    -3
390
F
  0
LAYER
  5
BE
330
2
100
AcDbSymbolTableRecord
100
AcDbLayerTableRecord
  2
410573038_CAP_CA
 70
     0
 62
     7
  6
Continuous
370
    -3
390
F
  0
LAYER
  5
E5
330
2
100
AcDbSymbolTableRecord
100
AcDbLayerTableRecord
  2
410577038_PUSH_B
 70
     0
 62
     7
  6
Continuous
370
    -3
390
F
  0
LAYER
  5
ED
330
2
100
AcDbSymbolTableRecord
100
AcDbLayerTableRecord
  2
410590040_ESCUTC
 70
     0
 62
     7
  6
Continuous
370
    -3
390
F
  0
LAYER
  5
F9
330
2
100
AcDbSymbolTableRecord
100
AcDbLayerTableRecord
  2
410576038_DECORA
 70
     0
 62
     7
  6
Continuous
370
    -3
390
F
  0
LAYER
  5
108
330
2
100
AcDbSymbolTableRecord
100
AcDbLayerTableRecord
  2
404006038_ELEMEN
 70
     0
 62
     7
  6
Continuous
370
    -3
390
F
  0
LAYER
  5
135
330
2
100
AcDbSymbolTableRecord
100
AcDbLayerTableRecord
  2
410580038_SLEEVE
 70
     0
 62
     7
  6
Continuous
370
    -3
390
F
  0
LAYER
  5
152
330
2
100
AcDbSymbolTableRecord
100
AcDbLayerTableRecord
  2
410579031_SLEEVE
 70
     0
 62
     7
  6
Continuous
370
    -3
390
F
  0
LAYER
  5
19C
330
2
100
AcDbSymbolTableRecord
100
AcDbLayerTableRecord
  2
DV2_Default
 70
     0
 62
     7
  6
Continuous
370
    -3
390
F
  0
LAYER
  5
205
330
2
100
AcDbSymbolTableRecord
100
AcDbLayerTableRecord
  2
DV3_Default
 70
     0
 62
     7
  6
Continuous
370
    -3
390
F
  0
ENDTAB
  0
TABLE
  2
STYLE
  5
3
330
0
100
AcDbSymbolTable
 70
     2
  0
STYLE
  5
11
330
3
100
AcDbSymbolTableRecord
100
AcDbTextStyleTableRecord
  2
Standard
 70
     0
 40
0.0
 41
1.0
 50
0.0
 71
     0
 42
2.5
  3
txt
  4

  0
STYLE
  5
20A
330
3
100
AcDbSymbolTableRecord
100
AcDbTextStyleTableRecord
  2
SEACAD_seiso_ttf
 70
     0
 40
0.0
 41
1.0
 50
0.0
 71
     0
 42
0.2
  3
seiso.ttf
  4

  0
ENDTAB
  0
TABLE
  2
VIEW
  5
6
330
0
100
AcDbSymbolTable
 70
     0
  0
ENDTAB
  0
TABLE
  2
UCS
  5
7
330
0
100
AcDbSymbolTable
 70
     0
  0
ENDTAB
  0
TABLE
  2
APPID
  5
9
330
0
100
AcDbSymbolTable
 70
     1
  0
APPID
  5
12
330
9
100
AcDbSymbolTableRecord
100
AcDbRegAppTableRecord
  2
ACAD
 70
     0
  0
ENDTAB
  0
TABLE
  2
DIMSTYLE
  5
A
330
0
100
AcDbSymbolTable
 70
     1
100
AcDbDimStyleTable
  0
DIMSTYLE
105
27
330
A
100
AcDbSymbolTableRecord
100
AcDbDimStyleTableRecord
  2
ISO-25
 70
     0
 41
2.5
 42
0.625
 43
3.75
 44
1.25
 73
     0
 74
     0
 77
     1
 78
     8
140
2.5
141
2.5
143
0.0393700787
147
0.625
171
     3
172
     1
271
     2
272
     2
274
     3
278
    44
283
     0
284
     8
340
11
  0
ENDTAB
  0
TABLE
  2
BLOCK_RECORD
  5
1
330
0
100
AcDbSymbolTable
 70
     7
  0
BLOCK_RECORD
  5
1F
330
1
100
AcDbSymbolTableRecord
100
AcDbBlockTableRecord
  2
*Model_Space
340
22
  0
BLOCK_RECORD
  5
1B
330
1
100
AcDbSymbolTableRecord
100
AcDbBlockTableRecord
  2
*Paper_Space
340
1E
  0
BLOCK_RECORD
  5
5E
330
1
100
AcDbSymbolTableRecord
100
AcDbBlockTableRecord
  2
SEANNOT_GROUP
340
0
102
{BLKREFS
331
5F
102
}
  0
BLOCK_RECORD
  5
69
330
1
100
AcDbSymbolTableRecord
100
AcDbBlockTableRecord
  2
SEANNOT_GROUP1
340
0
102
{BLKREFS
331
6A
102
}
  0
BLOCK_RECORD
  5
6F
330
1
100
AcDbSymbolTableRecord
100
AcDbBlockTableRecord
  2
SEANNOT_GROUP2
340
0
102
{BLKREFS
331
70
102
}
  0
BLOCK_RECORD
  5
75
330
1
100
AcDbSymbolTableRecord
100
AcDbBlockTableRecord
  2
SE
340
0
102
{BLKREFS
331
76
102
}
  0
BLOCK_RECORD
  5
117
330
1
100
AcDbSymbolTableRecord
100
AcDbBlockTableRecord
  2
SE1
340
0
102
{BLKREFS
331
118
102
}
  0
BLOCK_RECORD
  5
1A1
330
1
100
AcDbSymbolTableRecord
100
AcDbBlockTableRecord
  2
SE2
340
0
102
{BLKREFS
331
1A2
102
}
  0
ENDTAB
  0
ENDSEC
  0
SECTION
  2
BLOCKS
  0
BLOCK
  5
20
330
1F
100
AcDbEntity
  8
0
100
AcDbBlockBegin
  2
*Model_Space
 70
     0
 10
0.0
 20
0.0
 30
0.0
  3
*Model_Space
  1

  0
ENDBLK
  5
21
330
1F
100
AcDbEntity
  8
0
100
AcDbBlockEnd
  0
BLOCK
  5
1C
330
1B
100
AcDbEntity
 67
     1
  8
0
100
AcDbBlockBegin
  2
*Paper_Space
 70
     0
 10
0.0
 20
0.0
 30
0.0
  3
*Paper_Space
  1

  0
ENDBLK
  5
1D
330
1B
100
AcDbEntity
 67
     1
  8
0
100
AcDbBlockEnd
  0
BLOCK
  5
67
330
5E
100
AcDbEntity
  8
0
100
AcDbBlockBegin
  2
SEANNOT_GROUP
 70
     0
 10
0.0
 20
0.0
 30
0.0
  3
SEANNOT_GROUP
  1

  0
LINE
  5
61
330
5E
100
AcDbEntity
  8
Default
  6
CENTER2
 62
     7
100
AcDbLine
 10
115.358454378
 20
355.7486048376
 30
0.0
 11
75.3584552721
 21
355.7486048376
 31
0.0
  0
LINE
  5
62
330
5E
100
AcDbEntity
  8
Default
  6
CENTER2
 62
     7
100
AcDbLine
 10
95.358454825
 20
375.7486043906
 30
0.0
 11
95.358454825
 21
335.7486052846
 31
0.0
  0
LINE
  5
63
330
5E
100
AcDbEntity
  8
Default
  6
CENTER2
 62
     7
100
AcDbLine
 10
120.3584542662
 20
355.7486048376
 30
0.0
 11
95.358454825
 21
355.7486048376
 31
0.0
  0
LINE
  5
64
330
5E
100
AcDbEntity
  8
Default
  6
CENTER2
 62
     7
100
AcDbLine
 10
95.358454825
 20
380.7486042788
 30
0.0
 11
95.358454825
 21
355.7486048376
 31
0.0
  0
LINE
  5
65
330
5E
100
AcDbEntity
  8
Default
  6
CENTER2
 62
     7
100
AcDbLine
 10
70.3584553838
 20
355.7486048376
 30
0.0
 11
95.358454825
 21
355.7486048376
 31
0.0
  0
LINE
  5
66
330
5E
100
AcDbEntity
  8
Default
  6
CENTER2
 62
     7
100
AcDbLine
 10
95.358454825
 20
330.7486053964
 30
0.0
 11
95.358454825
 21
355.7486048376
 31
0.0
  0
ENDBLK
  5
68
330
5E
100
AcDbEntity
  8
0
100
AcDbBlockEnd
  0
BLOCK
  5
6D
330
69
100
AcDbEntity
  8
0
100
AcDbBlockBegin
  2
SEANNOT_GROUP1
 70
     0
 10
0.0
 20
0.0
 30
0.0
  3
SEANNOT_GROUP1
  1

  0
LINE
  5
6B
330
69
100
AcDbEntity
  8
Default
  6
CENTER2
 62
     7
100
AcDbLine
 10
268.524713245
 20
355.7486056479
 30
0.0
 11
228.524714139
 21
355.7486056479
 31
0.0
  0
LINE
  5
6C
330
69
100
AcDbEntity
  8
Default
  6
CENTER2
 62
     7
100
AcDbLine
 10
248.524713692
 20
375.7486052009
 30
0.0
 11
248.524713692
 21
335.7486060949
 31
0.0
  0
ENDBLK
  5
6E
330
69
100
AcDbEntity
  8
0
100
AcDbBlockEnd
  0
BLOCK
  5
73
330
6F
100
AcDbEntity
  8
0
100
AcDbBlockBegin
  2
SEANNOT_GROUP2
 70
     0
 10
0.0
 20
0.0
 30
0.0
  3
SEANNOT_GROUP2
  1

  0
LINE
  5
71
330
6F
100
AcDbEntity
  8
Default
  6
CENTER2
 62
     7
100
AcDbLine
 10
115.3584554694
 20
192.2305875491
 30
0.0
 11
75.3584563635
 21
192.2305875491
 31
0.0
  0
LINE
  5
72
330
6F
100
AcDbEntity
  8
Default
  6
CENTER2
 62
     7
100
AcDbLine
 10
95.3584559165
 20
212.2305871021
 30
0.0
 11
95.3584559165
 21
172.2305879962
 31
0.0
  0
ENDBLK
  5
74
330
6F
100
AcDbEntity
  8
0
100
AcDbBlockEnd
  0
BLOCK
  5
115
330
75
100
AcDbEntity
  8
0
100
AcDbBlockBegin
  2
SE
 70
     0
 10
0.0
 20
0.0
 30
0.0
  3
SE
  1

  0
ARC
  5
78
330
75
100
AcDbEntity
  8
410585038_THM3_H
  6
Continuous
 62
     7
100
AcDbCircle
 10
95.3584522343
 20
408.5007169673
 30
0.0
 40
84.74986521916708
100
AcDbArc
 50
251.2117923387
 51
288.7882069805
  0
ARC
  5
79
330
75
100
AcDbEntity
  8
410585038_THM3_H
  6
Continuous
 62
     7
100
AcDbCircle
 10
42.601138583
 20
355.7486105193
 30
0.0
 40
84.75479237063738
100
AcDbArc
 50
341.2129207512
 51
18.7868212912
  0
ARC
  5
7A
330
75
100
AcDbEntity
  8
410585038_THM3_H
  6
Continuous
 62
     7
100
AcDbCircle
 10
148.1157980951
 20
355.7486085887
 30
0.0
 40
84.75482011022991
100
AcDbArc
 50
161.2131836547
 51
198.7870695662
  0
SPLINE
  5
7B
330
75
100
AcDbEntity
  8
410585038_THM3_H
  6
Continuous
 62
     7
100
AcDbSpline
210
0.0
220
0.0
230
1.0
 70
     8
 71
     3
 72
    10
 73
     6
 74
     0
 42
0.0000000001797394
 43
0.0000000001
 40
0.0
 40
0.0
 40
0.0
 40
0.0
 40
0.2486689120128003
 40
0.2486689120128003
 40
0.3289522318903176
 40
0.3289522318903176
 40
0.3289522318903176
 40
0.3289522318903176
 10
122.6540436820973
 20
383.2301613734926
 30
0.0
 10
118.2955740792966
 20
384.7250882263413
 30
0.0
 10
113.8114087675067
 20
385.8508199173567
 30
0.0
 10
107.7982899579553
 20
386.8471467522004
 30
0.0
 10
106.3243763865639
 20
387.0514865300107
 30
0.0
 10
104.8461339059797
 20
387.2169945691812
 30
0.0
  0
SPLINE
  5
7C
330
75
100
AcDbEntity
  8
410585038_THM3_H
  6
Continuous
 62
     7
100
AcDbSpline
210
0.0
220
0.0
230
1.0
 70
     8
 71
     3
 72
    10
 73
     6
 74
     0
 42
0.0000000001797392
 43
0.0000000001
 40
0.6711068425893802
 40
0.6711068425893802
 40
0.6711068425893802
 40
0.6711068425893802
 40
0.7513310830011887
 40
0.7513310830011887
 40
1.0
 40
1.0
 40
1.0
 40
1.0
 10
85.86754990011066
 20
387.2165776977799
 30
0.0
 10
84.39040475297931
 20
387.0511288298286
 30
0.0
 10
82.91758320439374
 20
386.8469070386833
 30
0.0
 10
76.9055490354665
 20
385.8507531270741
 30
0.0
 10
72.4213610450127
 20
384.7250350716665
 30
0.0
 10
68.06286663371425
 20
383.2301591225668
 30
0.0
  0
ARC
  5
7D
330
75
100
AcDbEntity
  8
410585038_THM3_H
  6
Continuous
 62
     7
100
AcDbCircle
 10
122.556697476
 20
382.946382286
 30
0.0
 40
0.3000114237252322
100
AcDbArc
 50
18.9315170472
 51
71.0662290552
  0
ARC
  5
7E
330
75
100
AcDbEntity
  8
410585038_THM3_H
  6
Continuous
 62
     7
100
AcDbCircle
 10
68.1602093787
 20
382.9463788478
 30
0.0
 40
0.3000114237247936
100
AcDbArc
 50
108.9330721248
 51
161.067773344
  0
ARC
  5
7F
330
75
100
AcDbEntity
  8
410585038_THM3_H
  6
Continuous
 62
     7
100
AcDbCircle
 10
122.5565762499
 20
328.5504823471
 30
0.0
 40
0.300011423725917
100
AcDbArc
 50
288.9318051353
 51
341.0675040382
  0
ARC
  5
80
330
75
100
AcDbEntity
  8
410585038_THM3_H
  6
Continuous
 62
     7
100
AcDbCircle
 10
68.1603307807
 20
328.5504814657
 30
0.0
 40
0.3000114237259131
100
AcDbArc
 50
198.9317737503
 51
251.0674851234
  0
SPLINE
  5
81
330
75
100
AcDbEntity
  8
410585038_THM3_H
  6
Continuous
 62
     7
100
AcDbSpline
210
0.0
220
0.0
230
1.0
 70
     8
 71
     3
 72
    10
 73
     6
 74
     0
 42
0.0000000054304469
 43
0.0000000001
 40
0.1959681140676485
 40
0.1959681140676485
 40
0.1959681140676485
 40
0.1959681140676485
 40
0.2499999999999997
 40
0.2499999999999997
 40
0.4737958104682131
 40
0.4737958104682131
 40
0.4737958104682131
 40
0.4737958104682131
 10
104.8624623445722
 20
387.1305897237796
 30
0.0
 10
104.9218799314119
 20
387.1213178905263
 30
0.0
 10
104.9760093547694
 20
387.1125677910809
 30
0.0
 10
105.2275799165903
 20
387.0704324859198
 30
0.0
 10
105.3409162645202
 20
387.0459937513863
 30
0.0
 10
105.3626008428512
 20
387.032337691251
 30
0.0
  0
SPLINE
  5
82
330
75
100
AcDbEntity
  8
410585038_THM3_H
  6
Continuous
 62
     7
100
AcDbSpline
210
0.0
220
0.0
230
1.0
 70
     8
 71
     3
 72
    12
 73
     8
 74
     0
 42
0.0000000034841082
 43
0.0000000001
 40
0.5243800119682862
 40
0.5243800119682862
 40
0.5243800119682862
 40
0.5243800119682862
 40
0.6249999999999996
 40
0.6249999999999996
 40
0.7499999999999996
 40
0.7499999999999996
 40
1.0
 40
1.0
 40
1.0
 40
1.0
 10
105.3632051273845
 20
387.0247484210898
 30
0.0
 10
105.3542150152253
 20
387.0208348387981
 30
0.0
 10
105.3265480248201
 20
387.0191471387724
 30
0.0
 10
105.2235698336493
 20
387.0201847623497
 30
0.0
 10
105.138339679897
 20
387.024066177025
 30
0.0
 10
104.7983651827585
 20
387.0448282702199
 30
0.0
 10
104.4604115372608
 20
387.0709159484677
 30
0.0
 10
104.0020323840722
 20
387.1060060381564
 30
0.0
  0
ARC
  5
83
330
75
100
AcDbEntity
  8
410585038_THM3_H
  6
Continuous
 62
     7
100
AcDbCircle
 10
106.4515558853
 20
416.0621932688
 30
0.0
 40
29.0596101886634
100
AcDbArc
 50
264.4230548641
 51
265.1646256315
  0
ARC
  5
84
330
75
100
AcDbEntity
  8
410585038_THM3_H
  6
Continuous
 62
     7
100
AcDbCircle
 10
95.3587056729
 20
299.7833013649
 30
0.0
 40
87.74730057521433
100
AcDbArc
 50
84.5927746803
 51
95.4069924432
  0
ARC
  5
85
330
75
100
AcDbEntity
  8
410585038_THM3_H
  6
Continuous
 62
     7
100
AcDbCircle
 10
84.2664419712
 20
416.0613046543
 30
0.0
 40
29.05866983932006
100
AcDbArc
 50
274.8350588184
 51
275.576667649
  0
SPLINE
  5
86
330
75
100
AcDbEntity
  8
410585038_THM3_H
  6
Continuous
 62
     7
100
AcDbSpline
210
0.0
220
0.0
230
1.0
 70
     8
 71
     3
 72
    10
 73
     6
 74
     0
 42
0.0000000034860651
 43
0.0000000001
 40
0.0
 40
0.0
 40
0.0
 40
0.0
 40
0.25
 40
0.25
 40
0.4763067527502978
 40
0.4763067527502978
 40
0.4763067527502978
 40
0.4763067527502978
 10
86.71572673972895
 20
387.1060409367146
 30
0.0
 10
86.25732563372583
 20
387.070951646268
 30
0.0
 10
85.91956147742405
 20
387.0448810738831
 30
0.0
 10
85.48795876049714
 20
387.0185168606149
 30
0.0
 10
85.37430724778994
 20
387.0160072235021
 30
0.0
 10
85.354456035845
 20
387.0248186678537
 30
0.0
  0
SPLINE
  5
87
330
75
100
AcDbEntity
  8
410585038_THM3_H
  6
Continuous
 62
     7
100
AcDbSpline
210
0.0
220
0.0
230
1.0
 70
     8
 71
     3
 72
    12
 73
     8
 74
     0
 42
0.0000000054758066
 43
0.0000000001
 40
0.5240000017897859
 40
0.5240000017897859
 40
0.5240000017897859
 40
0.5240000017897859
 40
0.625
 40
0.625
 40
0.75
 40
0.75
 40
0.803971145769969
 40
0.803971145769969
 40
0.803971145769969
 40
0.803971145769969
 10
85.35444811572599
 20
387.0318990170082
 30
0.0
 10
85.36333126503268
 20
387.0379511681442
 30
0.0
 10
85.39102782211985
 20
387.0462102550736
 30
0.0
 10
85.49413593814434
 20
387.0693736560796
 30
0.0
 10
85.57932290096775
 20
387.0854005638633
 30
0.0
 10
85.74147817057859
 20
387.112562677176
 30
0.0
 10
85.79556202984635
 20
387.1213069850777
 30
0.0
 10
85.85492016757739
 20
387.1305713478828
 30
0.0
  0
ARC
  5
88
330
75
100
AcDbEntity
  8
410585038_THM3_H
  6
Continuous
 62
     7
100
AcDbCircle
 10
42.5895134293
 20
355.7487891985
 30
0.0
 40
82.71809058273324
100
AcDbArc
 50
341.8460444504
 51
18.1161592353
  0
ARC
  5
89
330
75
100
AcDbEntity
  8
410585038_THM3_H
  6
Continuous
 62
     7
100
AcDbCircle
 10
120.9989779681
 20
330.0401929029
 30
0.0
 40
0.2015746102328216
100
AcDbArc
 50
288.4390253709
 51
341.4898212683
  0
ARC
  5
8A
330
75
100
AcDbEntity
  8
410585038_THM3_H
  6
Continuous
 62
     7
100
AcDbCircle
 10
121.0159170986
 20
381.4056589809
 30
0.0
 40
0.2015763607015758
100
AcDbArc
 50
18.4711798202
 51
71.5268233865
  0
ARC
  5
8B
330
75
100
AcDbEntity
  8
410585038_THM3_H
  6
Continuous
 62
     7
100
AcDbCircle
 10
95.3586216201
 20
408.5342233984
 30
0.0
 40
82.77723737023994
100
AcDbArc
 50
251.871813731
 51
288.0906624168
  0
ARC
  5
8C
330
75
100
AcDbEntity
  8
410585038_THM3_H
  6
Continuous
 62
     7
100
AcDbCircle
 10
95.3586730659
 20
302.9832781753
 30
0.0
 40
82.71438348331182
100
AcDbArc
 50
71.882723026
 51
108.154915197
  0
ARC
  5
8D
330
75
100
AcDbEntity
  8
410585038_THM3_H
  6
Continuous
 62
     7
100
AcDbCircle
 10
69.6668676875
 20
330.0569987699
 30
0.0
 40
0.2015727708749714
100
AcDbArc
 50
198.4771199139
 51
251.5221334257
  0
ARC
  5
8E
330
75
100
AcDbEntity
  8
410585038_THM3_H
  6
Continuous
 62
     7
100
AcDbCircle
 10
69.6499171024
 20
381.3887891567
 30
0.0
 40
0.2015745229757982
100
AcDbArc
 50
108.5107042784
 51
161.5608267786
  0
ARC
  5
8F
330
75
100
AcDbEntity
  8
410585038_THM3_H
  6
Continuous
 62
     7
100
AcDbCircle
 10
148.1490455877
 20
355.7488156651
 30
0.0
 40
82.78196439507511
100
AcDbArc
 50
161.9106847747
 51
198.1271591704
  0
ARC
  5
90
330
75
100
AcDbEntity
  8
410585038_THM3_H
  6
Continuous
 62
     7
100
AcDbCircle
 10
95.3586238084
 20
408.5409061577
 30
0.0
 40
82.78358912291696
100
AcDbArc
 50
283.5452508349
 51
287.569004928
  0
ARC
  5
91
330
75
100
AcDbEntity
  8
410585038_THM3_H
  6
Continuous
 62
     7
100
AcDbCircle
 10
95.3586238084
 20
408.5409061577
 30
0.0
 40
82.78358912291696
100
AcDbArc
 50
257.7909761701
 51
262.4245408263
  0
ARC
  5
92
330
75
100
AcDbEntity
  8
410585038_THM3_H
  6
Continuous
 62
     7
100
AcDbCircle
 10
95.3586238084
 20
408.5409061577
 30
0.0
 40
82.78358912291696
100
AcDbArc
 50
251.873251407
 51
256.4171856838
  0
ARC
  5
93
330
75
100
AcDbEntity
  8
410585038_THM3_H
  6
Continuous
 62
     7
100
AcDbCircle
 10
148.156666833
 20
355.748818182
 30
0.0
 40
82.78920820246162
100
AcDbArc
 50
193.5818862127
 51
197.6063258793
  0
ARC
  5
94
330
75
100
AcDbEntity
  8
410585038_THM3_H
  6
Continuous
 62
     7
100
AcDbCircle
 10
148.156666833
 20
355.748818182
 30
0.0
 40
82.78920820246162
100
AcDbArc
 50
161.912324134
 51
171.0223935532
  0
ARC
  5
95
330
75
100
AcDbEntity
  8
410585038_THM3_H
  6
Continuous
 62
     7
100
AcDbCircle
 10
42.5762817113
 20
355.7487935628
 30
0.0
 40
82.73066512440073
100
AcDbArc
 50
13.5680458859
 51
17.5846837665
  0
ARC
  5
96
330
75
100
AcDbEntity
  8
410585038_THM3_H
  6
Continuous
 62
     7
100
AcDbCircle
 10
42.5762817113
 20
355.7487935628
 30
0.0
 40
82.73066512440073
100
AcDbArc
 50
341.8488967349
 51
350.97267688
  0
ARC
  5
97
330
75
100
AcDbEntity
  8
410585038_THM3_H
  6
Continuous
 62
     7
100
AcDbCircle
 10
95.3586777652
 20
302.9689706664
 30
0.0
 40
82.72798031320887
100
AcDbArc
 50
103.6063947813
 51
107.6236520396
  0
ARC
  5
98
330
75
100
AcDbEntity
  8
410585038_THM3_H
  6
Continuous
 62
     7
100
AcDbCircle
 10
95.3586777652
 20
302.9689706664
 30
0.0
 40
82.72798031320887
100
AcDbArc
 50
71.8858074834
 51
81.0099856557
  0
ARC
  5
99
330
75
100
AcDbEntity
  8
410585038_THM3_H
  6
Continuous
 62
     7
100
AcDbCircle
 10
42.6106250269
 20
355.7487822019
 30
0.0
 40
82.66873941956942
100
AcDbArc
 50
341.8417813915
 51
343.1989605594
  0
ARC
  5
9A
330
75
100
AcDbEntity
  8
410585038_THM3_H
  6
Continuous
 62
     7
100
AcDbCircle
 10
42.6106250269
 20
355.7487822019
 30
0.0
 40
82.66873941956942
100
AcDbArc
 50
16.8449920553
 51
18.1204238643
  0
ARC
  5
9B
330
75
100
AcDbEntity
  8
410585038_THM3_H
  6
Continuous
 62
     7
100
AcDbCircle
 10
95.3586663118
 20
303.0038867807
 30
0.0
 40
82.66551043310545
100
AcDbArc
 50
71.8785679033
 51
73.2356890993
  0
ARC
  5
9C
330
75
100
AcDbEntity
  8
410585038_THM3_H
  6
Continuous
 62
     7
100
AcDbCircle
 10
95.3586663118
 20
303.0038867807
 30
0.0
 40
82.66551043310545
100
AcDbArc
 50
106.8838985496
 51
108.1590713023
  0
ARC
  5
9D
330
75
100
AcDbEntity
  8
410585038_THM3_H
  6
Continuous
 62
     7
100
AcDbCircle
 10
148.1249868275
 20
355.7488077283
 30
0.0
 40
82.72980902212991
100
AcDbArc
 50
161.9057956867
 51
198.1320491609
  0
ARC
  5
9E
330
75
100
AcDbEntity
  8
410585038_THM3_H
  6
Continuous
 62
     7
100
AcDbCircle
 10
95.3586136268
 20
408.5099015304
 30
0.0
 40
82.72483207799706
100
AcDbArc
 50
251.8668673885
 51
253.2898792871
  0
ARC
  5
9F
330
75
100
AcDbEntity
  8
410585038_THM3_H
  6
Continuous
 62
     7
100
AcDbCircle
 10
95.3586136268
 20
408.5099015304
 30
0.0
 40
82.72483207799706
100
AcDbArc
 50
255.2540788633
 51
258.0110110749
  0
ARC
  5
A0
330
75
100
AcDbEntity
  8
410585038_THM3_H
  6
Continuous
 62
     7
100
AcDbCircle
 10
95.3586136268
 20
408.5099015304
 30
0.0
 40
82.72483207799706
100
AcDbArc
 50
259.4949727564
 51
262.2339975882
  0
ARC
  5
A1
330
75
100
AcDbEntity
  8
410585038_THM3_H
  6
Continuous
 62
     7
100
AcDbCircle
 10
95.3586136268
 20
408.5099015304
 30
0.0
 40
82.72483207799706
100
AcDbArc
 50
285.515137081
 51
288.0956103983
  0
LINE
  5
A3
330
75
100
AcDbEntity
  8
410575038_VOLUMN
  6
Continuous
 62
     7
100
AcDbLine
 10
91.3040491
 20
270.6618042592
 30
0.0
 11
99.4128445934
 21
270.6618042592
 31
0.0
  0
LINE
  5
A4
330
75
100
AcDbEntity
  8
410575038_VOLUMN
  6
Continuous
 62
     7
100
AcDbLine
 10
90.8451933783
 20
270.6618042592
 30
0.0
 11
90.3935898824
 21
270.6618042592
 31
0.0
  0
LINE
  5
A5
330
75
100
AcDbEntity
  8
410575038_VOLUMN
  6
Continuous
 62
     7
100
AcDbLine
 10
99.4128445934
 20
270.6618042592
 30
0.0
 11
99.5817686099
 21
270.6618042592
 31
0.0
  0
LINE
  5
A6
330
75
100
AcDbEntity
  8
410575038_VOLUMN
  6
Continuous
 62
     7
100
AcDbLine
 10
91.1351357403
 20
270.6618042592
 30
0.0
 11
91.3040491
 21
270.6618042592
 31
0.0
  0
LINE
  5
A7
330
75
100
AcDbEntity
  8
410575038_VOLUMN
  6
Continuous
 62
     7
100
AcDbLine
 10
100.3228099506
 20
270.6618042591
 30
0.0
 11
99.8716363467
 21
270.6618042591
 31
0.0
  0
ARC
  5
A8
330
75
100
AcDbEntity
  8
410575038_VOLUMN
  6
Continuous
 62
     7
100
AcDbCircle
 10
103.9770595133
 20
213.4137130883
 30
0.0
 40
110.4879435614462
100
AcDbArc
 50
92.1165868579
 51
92.542151157
  0
ARC
  5
A9
330
75
100
AcDbEntity
  8
410575038_VOLUMN
  6
Continuous
 62
     7
100
AcDbCircle
 10
87.9707378653
 20
243.6737163581
 30
0.0
 40
80.2032039836491
100
AcDbArc
 50
87.3774959502
 51
87.9637550066
  0
ARC
  5
AA
330
75
100
AcDbEntity
  8
410575038_VOLUMN
  6
Continuous
 62
     7
100
AcDbCircle
 10
146.7784548347
 20
355.7486046945
 30
0.0
 40
83.5831695810907
100
AcDbArc
 50
160.885614062
 51
199.114385938
  0
ARC
  5
AB
330
75
100
AcDbEntity
  8
410575038_VOLUMN
  6
Continuous
 62
     7
100
AcDbCircle
 10
95.3584548347
 20
304.3286046945
 30
0.0
 40
83.58316958109073
100
AcDbArc
 50
70.885614062
 51
83.4804435031
  0
ARC
  5
AC
330
75
100
AcDbEntity
  8
410575038_VOLUMN
  6
Continuous
 62
     7
100
AcDbCircle
 10
95.3584548347
 20
304.3286046945
 30
0.0
 40
83.58316958109073
100
AcDbArc
 50
96.5176678585
 51
109.114385938
  0
ARC
  5
AD
330
75
100
AcDbEntity
  8
410575038_VOLUMN
  6
Continuous
 62
     7
100
AcDbCircle
 10
43.9384548347
 20
355.7486046945
 30
0.0
 40
83.58316958109073
100
AcDbArc
 50
340.885614062
 51
19.114385938
  0
ARC
  5
AE
330
75
100
AcDbEntity
  8
410575038_VOLUMN
  6
Continuous
 62
     7
100
AcDbCircle
 10
122.6299262187
 20
328.4771428852
 30
0.0
 40
0.3000421600318151
100
AcDbArc
 50
289.1179141496
 51
314.9987071399
  0
ARC
  5
AF
330
75
100
AcDbEntity
  8
410575038_VOLUMN
  6
Continuous
 62
     7
100
AcDbCircle
 10
122.6299166439
 20
328.4771333105
 30
0.0
 40
0.300042160031683
100
AcDbArc
 50
315.0012928601
 51
340.8820858504
  0
ARC
  5
B0
330
75
100
AcDbEntity
  8
410575038_VOLUMN
  6
Continuous
 62
     7
100
AcDbCircle
 10
68.0869930254
 20
328.4771333105
 30
0.0
 40
0.3000421600315412
100
AcDbArc
 50
199.1179141495
 51
224.9987071399
  0
ARC
  5
B1
330
75
100
AcDbEntity
  8
410575038_VOLUMN
  6
Continuous
 62
     7
100
AcDbCircle
 10
68.0869834507
 20
328.4771428852
 30
0.0
 40
0.3000421600313002
100
AcDbArc
 50
225.0012928601
 51
250.8820858505
  0
ARC
  5
B2
330
75
100
AcDbEntity
  8
410575038_VOLUMN
  6
Continuous
 62
     7
100
AcDbCircle
 10
122.6299166439
 20
383.0200760785
 30
0.0
 40
0.3000421600315013
100
AcDbArc
 50
19.1179141495
 51
44.9987071399
  0
ARC
  5
B3
330
75
100
AcDbEntity
  8
410575038_VOLUMN
  6
Continuous
 62
     7
100
AcDbCircle
 10
122.6299262187
 20
383.0200665038
 30
0.0
 40
0.3000421600316273
100
AcDbArc
 50
45.0012928601
 51
70.8820858504
  0
ARC
  5
B4
330
75
100
AcDbEntity
  8
410575038_VOLUMN
  6
Continuous
 62
     7
100
AcDbCircle
 10
68.0878767538
 20
383.0195226123
 30
0.0
 40
0.3010585058833432
100
AcDbArc
 50
135.0457327606
 51
160.8376459499
  0
ARC
  5
B5
330
75
100
AcDbEntity
  8
410575038_VOLUMN
  6
Continuous
 62
     7
100
AcDbCircle
 10
68.0875369168
 20
383.0191827753
 30
0.0
 40
0.3010585058831026
100
AcDbArc
 50
109.1623540501
 51
134.9542672394
  0
ARC
  5
B6
330
75
100
AcDbEntity
  8
410575038_VOLUMN
  6
Continuous
 62
     7
100
AcDbCircle
 10
-981.4698202773
 20
318.7894019666
 30
0.0
 40
1072.626126196277
100
AcDbArc
 50
357.4450488916
 51
0.2157092693
  0
ARC
  5
B7
330
75
100
AcDbEntity
  8
410575038_VOLUMN
  6
Continuous
 62
     7
100
AcDbCircle
 10
90.3934505822
 20
270.9617200077
 30
0.0
 40
0.2999157809142332
100
AcDbArc
 50
177.4847338651
 51
270.0266118408
  0
ARC
  5
B8
330
75
100
AcDbEntity
  8
410575038_VOLUMN
  6
Continuous
 62
     7
100
AcDbCircle
 10
1164.2215493609
 20
318.586178717
 30
0.0
 40
1064.662957481564
100
AcDbArc
 50
179.7717494726
 51
182.5631301594
  0
ARC
  5
B9
330
75
100
AcDbEntity
  8
410575038_VOLUMN
  6
Continuous
 62
     7
100
AcDbCircle
 10
100.3234518923
 20
270.9617200077
 30
0.0
 40
0.2999157809140673
100
AcDbArc
 50
269.9733881589
 51
2.5152661345
  0
SPLINE
  5
BA
330
75
100
AcDbEntity
  8
410575038_VOLUMN
  6
Continuous
 62
     7
100
AcDbSpline
210
0.0
220
0.0
230
1.0
 70
     8
 71
     3
 72
    15
 73
    11
 74
     0
 42
0.0000000037977089
 43
0.0000000001
 40
0.4758956750972425
 40
0.4758956750972425
 40
0.4758956750972425
 40
0.4758956750972425
 40
0.5549750251713037
 40
0.6376487011679763
 40
0.6812708519221331
 40
0.7274146051559542
 40
0.7979670575201719
 40
0.8740358338290544
 40
0.9614773882618864
 40
1.0
 40
1.0
 40
1.0
 40
1.0
 10
90.35497270171771
 20
323.8061647576385
 30
0.0
 10
90.3548996786031
 20
323.8061352253579
 30
0.0
 10
90.36320644532026
 20
323.8047147387497
 30
0.0
 10
90.40981458854735
 20
323.7963481820782
 30
0.0
 10
90.52502874086764
 20
323.7597486165274
 30
0.0
 10
90.68364664640802
 20
323.6853220958259
 30
0.0
 10
90.87896872527249
 20
323.5364540963874
 30
0.0
 10
91.0536377588634
 20
323.294485951379
 30
0.0
 10
91.15215835963309
 20
323.0362686197776
 30
0.0
 10
91.14091473241004
 20
322.8834820677374
 30
0.0
 10
91.13632392476181
 20
322.82916482013
 30
0.0
  0
SPLINE
  5
BB
330
75
100
AcDbEntity
  8
410575038_VOLUMN
  6
Continuous
 62
     7
100
AcDbSpline
210
0.0
220
0.0
230
1.0
 70
     8
 71
     3
 72
    17
 73
    13
 74
     0
 42
0.0000000031998094
 43
0.0000000001
 40
0.0
 40
0.0
 40
0.0
 40
0.0
 40
0.0192985676214034
 40
0.0934283834637454
 40
0.1535493591802486
 40
0.2048861047983707
 40
0.2475082150454095
 40
0.2802663926227086
 40
0.3094845748873543
 40
0.3472873497657114
 40
0.4133699788113492
 40
0.4410126500450627
 40
0.4410126500450627
 40
0.4410126500450627
 40
0.4410126500450627
 10
99.57688005407888
 20
322.8314043303407
 30
0.0
 10
99.57282843269218
 20
322.8633598938448
 30
0.0
 10
99.55673474704477
 20
322.9965850092288
 30
0.0
 10
99.6366890268644
 20
323.2340120337375
 30
0.0
 10
99.78320839426065
 20
323.4711502700403
 30
0.0
 10
99.95309221442186
 20
323.6297412177106
 30
0.0
 10
100.1077293963037
 20
323.722805213516
 30
0.0
 10
100.2197012952112
 20
323.7687807802573
 30
0.0
 10
100.2916301785778
 20
323.7908761660055
 30
0.0
 10
100.3443523291422
 20
323.8033127750322
 30
0.0
 10
100.3607874121818
 20
323.8059781816946
 30
0.0
 10
100.3632826962237
 20
323.8063708199036
 30
0.0
 10
100.3633239894525
 20
323.806380026268
 30
0.0
  0
ARC
  5
BC
330
75
100
AcDbEntity
  8
410575038_VOLUMN
  6
Continuous
 62
     7
100
AcDbCircle
 10
95.3584548347
 20
407.1686046945
 30
0.0
 40
83.58318100417148
100
AcDbArc
 50
250.8853726033
 51
266.8124653029
  0
ARC
  5
BD
330
75
100
AcDbEntity
  8
410575038_VOLUMN
  6
Continuous
 62
     7
100
AcDbCircle
 10
95.3584548347
 20
407.1686046945
 30
0.0
 40
83.58318100417148
100
AcDbArc
 50
273.1090471292
 51
289.1146229369
  0
ARC
  5
BF
330
75
100
AcDbEntity
  8
410573038_CAP_CA
  6
Continuous
 62
     7
100
AcDbCircle
 10
95.2320056709
 20
407.8677890674
 30
0.0
 40
81.99209358282037
100
AcDbArc
 50
251.9837228662
 51
266.9847573289
  0
LINE
  5
C0
330
75
100
AcDbEntity
  8
410573038_CAP_CA
  6
Continuous
 62
     7
100
AcDbLine
 10
90.9190883447
 20
325.9892072879
 30
0.0
 11
91.2320069696
 21
325.9816312127
 31
0.0
  0
ARC
  5
C1
330
75
100
AcDbEntity
  8
410573038_CAP_CA
  6
Continuous
 62
     7
100
AcDbCircle
 10
95.4787487421
 20
299.2299492378
 30
0.0
 40
27.08666284669398
100
AcDbArc
 50
96.0484932514
 51
99.0202480094
  0
LINE
  5
C2
330
75
100
AcDbEntity
  8
410573038_CAP_CA
  6
Continuous
 62
     7
100
AcDbLine
 10
69.7401190314
 20
329.9393703869
 30
0.0
 11
69.8729032486
 21
329.8958754167
 31
0.0
  0
ARC
  5
C3
330
75
100
AcDbEntity
  8
410573038_CAP_CA
  6
Continuous
 62
     7
100
AcDbCircle
 10
95.6060643652
 20
302.0139892354
 30
0.0
 40
24.27942353178105
100
AcDbArc
 50
80.808596112
 51
84.1242444825
  0
LINE
  5
C4
330
75
100
AcDbEntity
  8
410573038_CAP_CA
  6
Continuous
 62
     7
100
AcDbLine
 10
99.4842915973
 20
325.9816708206
 30
0.0
 11
99.7972320377
 21
325.9892480325
 31
0.0
  0
ARC
  5
C5
330
75
100
AcDbEntity
  8
410573038_CAP_CA
  6
Continuous
 62
     7
100
AcDbCircle
 10
95.5003314578
 20
407.7858509622
 30
0.0
 40
81.90938655260629
100
AcDbArc
 50
273.0070708427
 51
288.0236189484
  0
LINE
  5
C6
330
75
100
AcDbEntity
  8
410573038_CAP_CA
  6
Continuous
 62
     7
100
AcDbLine
 10
120.8438346166
 20
329.895835921
 30
0.0
 11
120.976809642
 21
329.9393918586
 31
0.0
  0
ARC
  5
C7
330
75
100
AcDbEntity
  8
410573038_CAP_CA
  6
Continuous
 62
     7
100
AcDbCircle
 10
95.3583692028
 20
280.3327762844
 30
0.0
 40
45.86025108097752
100
AcDbArc
 50
84.854716762
 51
87.4023204669
  0
ARC
  5
C8
330
75
100
AcDbEntity
  8
410573038_CAP_CA
  6
Continuous
 62
     7
100
AcDbCircle
 10
95.3583692028
 20
280.3327762844
 30
0.0
 40
45.86025108097752
100
AcDbArc
 50
92.0940347201
 51
95.1458330277
  0
SPLINE
  5
C9
330
75
100
AcDbEntity
  8
410573038_CAP_CA
  6
Continuous
 62
     7
100
AcDbSpline
210
0.0
220
0.0
230
1.0
 70
     8
 71
     3
 72
     9
 73
     5
 74
     0
 42
0.0000000249839417
 43
0.0000000001
 40
0.0
 40
0.0
 40
0.0
 40
0.0
 40
0.2774780348821121
 40
0.4294234535279279
 40
0.4294234535279279
 40
0.4294234535279279
 40
0.4294234535279279
 10
101.2577082529552
 20
326.0800999206118
 30
0.0
 10
101.2950557210047
 20
326.0832688829439
 30
0.0
 10
101.3528544278193
 20
326.0881734656231
 30
0.0
 10
101.4087839935422
 20
326.0969362140523
 30
0.0
 10
101.4282142116382
 20
326.1006387053603
 30
0.0
  0
LINE
  5
CA
330
75
100
AcDbEntity
  8
410573038_CAP_CA
  6
Continuous
 62
     7
100
AcDbLine
 10
120.976809642
 20
329.9393918586
 30
0.0
 11
120.9808016928
 21
329.9407271738
 31
0.0
  0
ARC
  5
CB
330
75
100
AcDbEntity
  8
410573038_CAP_CA
  6
Continuous
 62
     7
100
AcDbCircle
 10
42.5399165782
 20
355.748580478
 30
0.0
 40
82.69658130051712
100
AcDbArc
 50
342.0502076019
 51
17.949794858
  0
ARC
  5
CC
330
75
100
AcDbEntity
  8
410573038_CAP_CA
  6
Continuous
 62
     7
100
AcDbCircle
 10
148.177004595
 20
355.7486162926
 30
0.0
 40
82.69659205842773
100
AcDbArc
 50
162.0502217395
 51
197.9487070557
  0
ARC
  5
CD
330
75
100
AcDbEntity
  8
410573038_CAP_CA
  6
Continuous
 62
     7
100
AcDbCircle
 10
95.3584803119
 20
302.9357582291
 30
0.0
 40
82.69116629723877
100
AcDbArc
 50
72.0490820662
 51
107.9512248806
  0
ARC
  5
CE
330
75
100
AcDbEntity
  8
410573038_CAP_CA
  6
Continuous
 62
     7
100
AcDbCircle
 10
69.8338068501
 20
330.2243581049
 30
0.0
 40
0.2999999999999942
100
AcDbArc
 50
199.0040403093
 51
250.999812135
  0
ARC
  5
CF
330
75
100
AcDbEntity
  8
410573038_CAP_CA
  6
Continuous
 62
     7
100
AcDbCircle
 10
120.8831243786
 20
330.2243803816
 30
0.0
 40
0.2999999999999889
100
AcDbArc
 50
289.001387251
 51
341.0055985285
  0
ARC
  5
D0
330
75
100
AcDbEntity
  8
410573038_CAP_CA
  6
Continuous
 62
     7
100
AcDbCircle
 10
120.8829984365
 20
381.2731687386
 30
0.0
 40
0.3000000000000012
100
AcDbArc
 50
18.9968851575
 51
71.0023501688
  0
ARC
  5
D1
330
75
100
AcDbEntity
  8
410573038_CAP_CA
  6
Continuous
 62
     7
100
AcDbCircle
 10
69.8338948444
 20
381.2731492088
 30
0.0
 40
0.3000000000000144
100
AcDbArc
 50
108.9962918746
 51
161.003145898
  0
LINE
  5
D2
330
75
100
AcDbEntity
  8
410573038_CAP_CA
  6
Continuous
 62
     7
100
AcDbLine
 10
121.1667894935
 20
330.1267376525
 30
0.0
 11
121.168114768
 21
330.1307004331
 31
0.0
  0
LINE
  5
D3
330
75
100
AcDbEntity
  8
410573038_CAP_CA
  6
Continuous
 62
     7
100
AcDbLine
 10
69.7361354737
 20
329.9407028524
 30
0.0
 11
69.7401190314
 21
329.9393703869
 31
0.0
  0
LINE
  5
D4
330
75
100
AcDbEntity
  8
410573038_CAP_CA
  6
Continuous
 62
     7
100
AcDbLine
 10
69.5488160495
 20
330.1306800214
 30
0.0
 11
69.5501581655
 21
330.1266676563
 31
0.0
  0
LINE
  5
D5
330
75
100
AcDbEntity
  8
410573038_CAP_CA
  6
Continuous
 62
     7
100
AcDbLine
 10
121.2114010132
 20
381.2343038932
 30
0.0
 11
121.1679891938
 21
381.3668473993
 31
0.0
  0
LINE
  5
D6
330
75
100
AcDbEntity
  8
410573038_CAP_CA
  6
Continuous
 62
     7
100
AcDbLine
 10
121.168114768
 20
330.1307004331
 30
0.0
 11
121.2114020875
 21
330.2628604509
 31
0.0
  0
LINE
  5
D7
330
75
100
AcDbEntity
  8
410573038_CAP_CA
  6
Continuous
 62
     7
100
AcDbLine
 10
69.5050261262
 20
330.2643832204
 30
0.0
 11
69.5488160495
 21
330.1306800214
 31
0.0
  0
LINE
  5
D8
330
75
100
AcDbEntity
  8
410573038_CAP_CA
  6
Continuous
 62
     7
100
AcDbLine
 10
69.5489049728
 20
381.3668306009
 30
0.0
 11
69.5055025179
 21
381.2343202412
 31
0.0
  0
LINE
  5
D9
330
75
100
AcDbEntity
  8
410573038_CAP_CA
  6
Continuous
 62
     7
100
AcDbLine
 10
121.1679891938
 20
381.3668473993
 30
0.0
 11
121.1666593185
 21
381.3708237641
 31
0.0
  0
LINE
  5
DA
330
75
100
AcDbEntity
  8
410573038_CAP_CA
  6
Continuous
 62
     7
100
AcDbLine
 10
120.9806572477
 20
381.5568283173
 30
0.0
 11
120.9766806903
 21
381.558158314
 31
0.0
  0
LINE
  5
DB
330
75
100
AcDbEntity
  8
410573038_CAP_CA
  6
Continuous
 62
     7
100
AcDbLine
 10
69.7402153506
 20
381.5581397076
 30
0.0
 11
69.7362427562
 21
381.556811102
 31
0.0
  0
LINE
  5
DC
330
75
100
AcDbEntity
  8
410573038_CAP_CA
  6
Continuous
 62
     7
100
AcDbLine
 10
69.8724623373
 20
381.6014551047
 30
0.0
 11
69.7402153506
 21
381.5581397076
 31
0.0
  0
LINE
  5
DD
330
75
100
AcDbEntity
  8
410573038_CAP_CA
  6
Continuous
 62
     7
100
AcDbLine
 10
120.9766806903
 20
381.558158314
 30
0.0
 11
120.8440768831
 21
381.6015917129
 31
0.0
  0
SPLINE
  5
DE
330
75
100
AcDbEntity
  8
410573038_CAP_CA
  6
Continuous
 62
     7
100
AcDbSpline
210
0.0
220
0.0
230
1.0
 70
     8
 71
     3
 72
     8
 73
     4
 74
     0
 42
0.0000000247568038
 43
0.0000000001
 40
0.7998811883449716
 40
0.7998811883449716
 40
0.7998811883449716
 40
0.7998811883449716
 40
1.0
 40
1.0
 40
1.0
 40
1.0
 10
89.37863681792818
 20
326.0874244658156
 30
0.0
 10
89.4052498922822
 20
326.0845113082203
 30
0.0
 10
89.43218858337772
 20
326.0822803734434
 30
0.0
 10
89.45912728317549
 20
326.0800495379528
 30
0.0
  0
ARC
  5
DF
330
75
100
AcDbEntity
  8
410573038_CAP_CA
  6
Continuous
 62
     7
100
AcDbCircle
 10
95.3770413498
 20
280.0408676688
 30
0.0
 40
46.12358310997597
100
AcDbArc
 50
93.4128314971
 51
95.1387556352
  0
ARC
  5
E0
330
75
100
AcDbEntity
  8
410573038_CAP_CA
  6
Continuous
 62
     7
100
AcDbCircle
 10
95.3397350519
 20
280.0414428932
 30
0.0
 40
46.12300679998226
100
AcDbArc
 50
84.8617747969
 51
86.5878264014
  0
ARC
  5
E1
330
75
100
AcDbEntity
  8
410573038_CAP_CA
  6
Continuous
 62
     7
100
AcDbCircle
 10
95.3583703829
 20
280.3767013895
 30
0.0
 40
45.78723352195515
100
AcDbArc
 50
86.5861348568
 51
93.4145262026
  0
LINE
  5
E2
330
75
100
AcDbEntity
  8
410573038_CAP_CA
  6
Continuous
 62
     7
100
AcDbLine
 10
120.9531147832
 20
330.0218572416
 30
0.0
 11
120.9484161024
 21
330.0225436397
 31
0.0
  0
ARC
  5
E3
330
75
100
AcDbEntity
  8
410573038_CAP_CA
  6
Continuous
 62
     7
100
AcDbCircle
 10
99.4794097666
 20
326.0787044417
 30
0.0
 40
0.0999999999999997
100
AcDbArc
 50
264.9758962938
 51
271.0041572932
  0
ARC
  5
E4
330
75
100
AcDbEntity
  8
410573038_CAP_CA
  6
Continuous
 62
     7
100
AcDbCircle
 10
91.2368888069
 20
326.0786648842
 30
0.0
 40
0.1000000000000016
100
AcDbArc
 50
269.030638291
 51
275.1419099357
  0
ARC
  5
E6
330
75
100
AcDbEntity
  8
410577038_PUSH_B
  6
Continuous
 62
     7
100
AcDbCircle
 10
95.3134372043
 20
325.9168206536
 30
0.0
 40
67.08204253984127
100
AcDbArc
 50
96.7194952458
 51
97.8270106995
  0
ARC
  5
E7
330
75
100
AcDbEntity
  8
410577038_PUSH_B
  6
Continuous
 62
     7
100
AcDbCircle
 10
95.3582530687
 20
325.4663537721
 30
0.0
 40
67.53465945893747
100
AcDbArc
 50
83.2868499108
 51
96.7125380108
  0
ARC
  5
E8
330
75
100
AcDbEntity
  8
410577038_PUSH_B
  6
Continuous
 62
     7
100
AcDbCircle
 10
95.4028019209
 20
325.9134996308
 30
0.0
 40
67.08537207937289
100
AcDbArc
 50
82.1728008373
 51
83.2799939779
  0
LINE
  5
E9
330
75
100
AcDbEntity
  8
410577038_PUSH_B
  6
Continuous
 62
     7
100
AcDbLine
 10
104.8419602275
 20
387.0437108915
 30
0.0
 11
104.7980113115
 21
392.0797578608
 31
0.0
  0
LINE
  5
EA
330
75
100
AcDbEntity
  8
410577038_PUSH_B
  6
Continuous
 62
     7
100
AcDbLine
 10
85.9188993305
 20
392.079802853
 30
0.0
 11
85.8749500058
 21
387.043709068
 31
0.0
  0
ARC
  5
EB
330
75
100
AcDbEntity
  8
410577038_PUSH_B
  6
Continuous
 62
     7
100
AcDbCircle
 10
86.1974945334
 20
392.0908260139
 30
0.0
 40
0.2748373570896124
100
AcDbArc
 50
124.2322090974
 51
182.3196323726
  0
ARC
  5
EC
330
75
100
AcDbEntity
  8
410577038_PUSH_B
  6
Continuous
 62
     7
100
AcDbCircle
 10
104.5148883624
 20
392.0891041885
 30
0.0
 40
0.2793601215394613
100
AcDbArc
 50
358.0845297802
 51
55.2081889205
  0
SPLINE
  5
EE
330
75
100
AcDbEntity
  8
410590040_ESCUTC
  6
Continuous
 62
     7
100
AcDbSpline
210
0.0
220
0.0
230
1.0
 70
     8
 71
     3
 72
     8
 73
     4
 74
     0
 42
0.0000000001453813
 43
0.0000000001
 40
0.0
 40
0.0
 40
0.0
 40
0.0
 40
1.0
 40
1.0
 40
1.0
 40
1.0
 10
100.6774734097671
 20
270.8019055802279
 30
0.0
 10
123.4957177575897
 20
271.3369742239129
 30
0.0
 10
146.234627056968
 20
275.3153475617632
 30
0.0
 10
167.8731040971159
 20
282.7368489386419
 30
0.0
  0
LINE
  5
EF
330
75
100
AcDbEntity
  8
410590040_ESCUTC
  6
Continuous
 62
     7
100
AcDbLine
 10
90.0394379619
 20
270.8018750565
 30
0.0
 11
90.1438319791
 21
270.8062861541
 31
0.0
  0
LINE
  5
F0
330
75
100
AcDbEntity
  8
410590040_ESCUTC
  6
Continuous
 62
     7
100
AcDbLine
 10
100.5730821311
 20
270.8063159695
 30
0.0
 11
100.6774734098
 21
270.8019055802
 31
0.0
  0
SPLINE
  5
F1
330
75
100
AcDbEntity
  8
410590040_ESCUTC
  6
Continuous
 62
     7
100
AcDbSpline
210
0.0
220
0.0
230
1.0
 70
     8
 71
     3
 72
    26
 73
    22
 74
     0
 42
0.0000000000675445
 43
0.0000000001
 40
0.0
 40
0.0
 40
0.0
 40
0.0
 40
0.2486866889291708
 40
0.2486866889291708
 40
0.3743486564744594
 40
0.3743486564744594
 40
0.4371796402471037
 40
0.4371796402471037
 40
0.4685951321334259
 40
0.4685951321334259
 40
0.4843028780765869
 40
0.4843028780765869
 40
0.4921567510481675
 40
0.4921567510481675
 40
0.4960836875339577
 40
0.4960836875339577
 40
0.4980471557768528
 40
0.4980471557768528
 40
0.5000106240197479
 40
0.5000106240197479
 40
1.0
 40
1.0
 40
1.0
 40
1.0
 10
167.8731046656322
 20
428.7603639155536
 30
0.0
 10
156.2434503347952
 20
432.749176470202
 30
0.0
 10
144.2834070503287
 20
435.7461690917694
 30
0.0
 10
126.0309543238399
 20
438.7583228684709
 30
0.0
 10
119.8617104994424
 20
439.5151477308221
 30
0.0
 10
110.5764294690343
 20
440.2681333732887
 30
0.0
 10
107.4760999098912
 20
440.4554199790909
 30
0.0
 10
102.8217430968418
 20
440.6406867365511
 30
0.0
 10
101.2696470800779
 20
440.6864984639296
 30
0.0
 10
98.94103635499829
 20
440.7312877374197
 30
0.0
 10
98.16475499663771
 20
440.7422294423336
 30
0.0
 10
97.00027864894854
 20
440.7526583540798
 30
0.0
 10
96.61211081468832
 20
440.7551373837356
 30
0.0
 10
96.02985328136737
 20
440.7573598210294
 30
0.0
 10
95.83576647326912
 20
440.7578512822656
 30
0.0
 10
95.544635790091
 20
440.7582144228526
 30
0.0
 10
95.44687979703441
 20
440.7582730742105
 30
0.0
 10
95.25434386999504
 20
440.7582659083283
 30
0.0
 10
95.1580759091123
 20
440.7582009742298
 30
0.0
 10
70.54757566881288
 20
440.7259171661041
 30
0.0
 10
46.03865390530917
 20
436.715599209508
 30
0.0
 10
22.84380716732366
 20
428.7603607857662
 30
0.0
  0
SPLINE
  5
F2
330
75
100
AcDbEntity
  8
410590040_ESCUTC
  6
Continuous
 62
     7
100
AcDbSpline
210
0.0
220
0.0
230
1.0
 70
     8
 71
     3
 72
     8
 73
     4
 74
     0
 42
0.0000000001453812
 43
0.0000000001
 40
0.0
 40
0.0
 40
0.0
 40
0.0
 40
1.0
 40
1.0
 40
1.0
 40
1.0
 10
22.84380335802289
 20
282.7368458118097
 30
0.0
 10
44.48230127312735
 20
275.3150783824469
 30
0.0
 10
67.2212109784019
 20
271.3368136822476
 30
0.0
 10
90.03943796191885
 20
270.8018750565416
 30
0.0
  0
SPLINE
  5
F3
330
75
100
AcDbEntity
  8
410590040_ESCUTC
  6
Continuous
 62
     7
100
AcDbSpline
210
0.0
220
0.0
230
1.0
 70
     8
 71
     3
 72
     8
 73
     4
 74
     0
 42
0.0000000000665056
 43
0.0000000001
 40
0.0
 40
0.0
 40
0.0
 40
0.0
 40
1.0
 40
1.0
 40
1.0
 40
1.0
 10
22.34669560827299
 20
428.2632557371508
 30
0.0
 10
6.349999999999994
 20
381.6241672756332
 30
0.0
 10
6.350590731653408
 20
329.8729578940917
 30
0.0
 10
22.34669893279741
 20
283.2339555586368
 30
0.0
  0
SPLINE
  5
F4
330
75
100
AcDbEntity
  8
410590040_ESCUTC
  6
Continuous
 62
     7
100
AcDbSpline
210
0.0
220
0.0
230
1.0
 70
     8
 71
     3
 72
     8
 73
     4
 74
     0
 42
0.0000000000665056
 43
0.0000000001
 40
0.0
 40
0.0
 40
0.0
 40
0.0
 40
1.0
 40
1.0
 40
1.0
 40
1.0
 10
168.3702138439187
 20
283.2339533638082
 30
0.0
 10
184.3669095848034
 20
329.8730417812131
 30
0.0
 10
184.3663189839077
 20
381.6242511657964
 30
0.0
 10
168.3702109143824
 20
428.2632535414178
 30
0.0
  0
SPLINE
  5
F5
330
75
100
AcDbEntity
  8
410590040_ESCUTC
  6
Continuous
 62
     7
100
AcDbSpline
210
0.0
220
0.0
230
1.0
 70
     8
 71
     3
 72
    10
 73
     6
 74
     0
 42
0.000000013621472
 43
0.0000000001
 40
0.0
 40
0.0
 40
0.0
 40
0.0
 40
0.5
 40
0.5
 40
1.0
 40
1.0
 40
1.0
 40
1.0
 10
22.84380335802289
 20
282.7368458118097
 30
0.0
 10
22.72809977678931
 20
282.7765308710051
 30
0.0
 10
22.6233188491006
 20
282.8423095579745
 30
0.0
 10
22.45250180659715
 20
283.0130069957956
 30
0.0
 10
22.38638276976923
 20
283.1182515047545
 30
0.0
 10
22.34669893279741
 20
283.2339555586368
 30
0.0
  0
SPLINE
  5
F6
330
75
100
AcDbEntity
  8
410590040_ESCUTC
  6
Continuous
 62
     7
100
AcDbSpline
210
0.0
220
0.0
230
1.0
 70
     8
 71
     3
 72
    10
 73
     6
 74
     0
 42
0.0000000136214355
 43
0.0000000001
 40
0.0
 40
0.0
 40
0.0
 40
0.0
 40
0.5
 40
0.5
 40
1.0
 40
1.0
 40
1.0
 40
1.0
 10
22.34669560827299
 20
428.2632557371508
 30
0.0
 10
22.38638077227061
 20
428.3789596249798
 30
0.0
 10
22.45215970879148
 20
428.483740806505
 30
0.0
 10
22.62285779266757
 20
428.6545580866443
 30
0.0
 10
22.72810271194278
 20
428.7206771206986
 30
0.0
 10
22.84380716732366
 20
428.7603607857662
 30
0.0
  0
SPLINE
  5
F7
330
75
100
AcDbEntity
  8
410590040_ESCUTC
  6
Continuous
 62
     7
100
AcDbSpline
210
0.0
220
0.0
230
1.0
 70
     8
 71
     3
 72
    10
 73
     6
 74
     0
 42
0.000000013621472
 43
0.0000000001
 40
0.0
 40
0.0
 40
0.0
 40
0.0
 40
0.5
 40
0.5
 40
1.0
 40
1.0
 40
1.0
 40
1.0
 10
168.3702138439187
 20
283.2339533638082
 30
0.0
 10
168.3305287847181
 20
283.1182497825881
 30
0.0
 10
168.2647500977492
 20
283.0134688549131
 30
0.0
 10
168.0940526599372
 20
282.8426518124309
 30
0.0
 10
167.9888081509874
 20
282.7765327756109
 30
0.0
 10
167.8731040971159
 20
282.7368489386419
 30
0.0
  0
SPLINE
  5
F8
330
75
100
AcDbEntity
  8
410590040_ESCUTC
  6
Continuous
 62
     7
100
AcDbSpline
210
0.0
220
0.0
230
1.0
 70
     8
 71
     3
 72
    10
 73
     6
 74
     0
 42
0.0000000136214353
 43
0.0000000001
 40
0.0
 40
0.0
 40
0.0
 40
0.0
 40
0.5
 40
0.5
 40
1.0
 40
1.0
 40
1.0
 40
1.0
 10
167.8731046656322
 20
428.7603639155536
 30
0.0
 10
167.9888086508725
 20
428.7206790293291
 30
0.0
 10
168.0935899922721
 20
428.654900343395
 30
0.0
 10
168.2644076846614
 20
428.4842026665394
 30
0.0
 10
168.330526971959
 20
428.3789579038111
 30
0.0
 10
168.3702109143824
 20
428.2632535414178
 30
0.0
  0
SPLINE
  5
FA
330
75
100
AcDbEntity
  8
410576038_DECORA
  6
Continuous
 62
     7
100
AcDbSpline
210
0.0
220
0.0
230
1.0
 70
     8
 71
     3
 72
    26
 73
    22
 74
     0
 42
0.0000000001748675
 43
0.0000000001
 40
0.0
 40
0.0
 40
0.0
 40
0.0
 40
0.1231155098882148
 40
0.1231155098882148
 40
0.248743700422598
 40
0.248743700422598
 40
0.3743718909569813
 40
0.3743718909569813
 40
0.437185986224173
 40
0.437185986224173
 40
0.5000000814913645
 40
0.5000000814913645
 40
0.6256282720257478
 40
0.6256282720257478
 40
0.751256462560131
 40
0.751256462560131
 40
0.8768846530945142
 40
0.8768846530945142
 40
0.939698748361706
 40
0.939698748361706
 40
1.0
 40
1.0
 40
1.0
 40
1.0
 10
123.5888420139054
 20
327.7011127340489
 30
0.0
 10
124.3751319618362
 20
329.9293526012586
 30
0.0
 10
125.0597979951135
 20
332.1759794599304
 30
0.0
 10
126.247308707563
 20
336.75042549559
 30
0.0
 10
126.7461392956507
 20
339.0789847947585
 30
0.0
 10
127.5463698587276
 20
343.7717720789245
 30
0.0
 10
127.8477678599156
 20
346.1360004269822
 30
0.0
 10
128.1511523781316
 20
349.7092122704753
 30
0.0
 10
128.227454424818
 20
350.9047684648311
 30
0.0
 10
128.3297920716838
 20
353.3049633994431
 30
0.0
 10
128.3557662656623
 20
354.5119393624782
 30
0.0
 10
128.3571906873368
 20
358.1192701687085
 30
0.0
 10
128.2569636865991
 20
360.5115495413561
 30
0.0
 10
127.8577314159218
 20
365.2713413622545
 30
0.0
 10
127.5587192738356
 20
367.6388529594207
 30
0.0
 10
126.7600569228911
 20
372.3488804884554
 30
0.0
 10
126.260421317119
 20
374.6913982468529
 30
0.0
 10
125.3549749312072
 20
378.1857429089833
 30
0.0
 10
125.0270081723643
 20
379.3473199170825
 30
0.0
 10
124.3357110251734
 20
381.6055323530827
 30
0.0
 10
123.9739762537996
 20
382.7043212992233
 30
0.0
 10
123.5888547100707
 20
383.7957608907971
 30
0.0
  0
SPLINE
  5
FB
330
75
100
AcDbEntity
  8
410576038_DECORA
  6
Continuous
 62
     7
100
AcDbSpline
210
0.0
220
0.0
230
1.0
 70
     8
 71
     3
 72
    14
 73
    10
 74
     0
 42
0.0000000001752589
 43
0.0000000001
 40
0.0
 40
0.0
 40
0.0
 40
0.0
 40
0.1231155099193062
 40
0.1231155099193062
 40
0.2487437004133782
 40
0.2487437004133782
 40
0.3743718909074504
 40
0.3743718909074504
 40
0.427079233283823
 40
0.427079233283823
 40
0.427079233283823
 40
0.427079233283823
 10
67.31112288350538
 20
327.5180582170836
 30
0.0
 10
69.53936272406386
 20
326.7317682335421
 30
0.0
 10
71.7859895548838
 20
326.0471021417715
 30
0.0
 10
76.36043553616163
 20
324.8595912971733
 30
0.0
 10
78.6889948088164
 20
324.3607606348931
 30
0.0
 10
83.38178204663197
 20
323.5605299284398
 30
0.0
 10
85.74601037483428
 20
323.2591318579915
 30
0.0
 10
89.12757959913371
 20
322.9720187193419
 30
0.0
 10
90.13016586149219
 20
322.9046418096089
 30
0.0
 10
91.1359432790241
 20
322.8549261559231
 30
0.0
  0
SPLINE
  5
FC
330
75
100
AcDbEntity
  8
410576038_DECORA
  6
Continuous
 62
     7
100
AcDbSpline
210
0.0
220
0.0
230
1.0
 70
     8
 71
     3
 72
    16
 73
    12
 74
     0
 42
0.0000000001746842
 43
0.0000000001
 40
0.5742232365822117
 40
0.5742232365822117
 40
0.5742232365822117
 40
0.5742232365822117
 40
0.6256282718955944
 40
0.6256282718955944
 40
0.7512564623896666
 40
0.7512564623896666
 40
0.8768846528837386
 40
0.8768846528837386
 40
0.9396987481307746
 40
0.9396987481307746
 40
1.0
 40
1.0
 40
1.0
 40
1.0
 10
99.57377441070031
 20
322.8545578132737
 30
0.0
 10
100.5517516764102
 20
322.9028333120125
 30
0.0
 10
101.5276401891521
 20
322.9678721427383
 30
0.0
 10
104.8813512215628
 20
323.2491679533457
 30
0.0
 10
107.2488628096368
 20
323.5481800757465
 30
0.0
 10
111.9588903226839
 20
324.3468423887963
 30
0.0
 10
114.3014080741629
 20
324.8464779764061
 30
0.0
 10
117.7957527293599
 20
325.7519243224629
 30
0.0
 10
118.9573297356088
 20
326.0798910658194
 30
0.0
 10
121.2155421758165
 20
326.7711881776968
 30
0.0
 10
122.3143311276671
 20
327.1329229296307
 30
0.0
 10
123.405770726657
 20
327.5180444497931
 30
0.0
  0
SPLINE
  5
FD
330
75
100
AcDbEntity
  8
410576038_DECORA
  6
Continuous
 62
     7
100
AcDbSpline
210
0.0
220
0.0
230
1.0
 70
     8
 71
     3
 72
    26
 73
    22
 74
     0
 42
0.0000000001748675
 43
0.0000000001
 40
0.0
 40
0.0
 40
0.0
 40
0.0
 40
0.1231155095101933
 40
0.1231155095101933
 40
0.2487437000426529
 40
0.2487437000426529
 40
0.3743718905751124
 40
0.3743718905751124
 40
0.4371859858413422
 40
0.4371859858413422
 40
0.5000000811075721
 40
0.5000000811075721
 40
0.6256282716400317
 40
0.6256282716400317
 40
0.7512564621724912
 40
0.7512564621724912
 40
0.876884652704951
 40
0.876884652704951
 40
0.9396987479711807
 40
0.9396987479711807
 40
1.0
 40
1.0
 40
1.0
 40
1.0
 10
67.1280683080082
 20
383.7957785059622
 30
0.0
 10
66.34177829572351
 20
381.5675386288708
 30
0.0
 10
65.65711218007702
 20
379.3209117607615
 30
0.0
 10
64.4696012928773
 20
374.7464656946227
 30
0.0
 10
63.97077061275494
 20
372.4179063742314
 30
0.0
 10
63.17053987877348
 20
367.7251190397374
 30
0.0
 10
62.86914179868353
 20
365.360890662572
 30
0.0
 10
62.56575717972296
 20
361.7876787680992
 30
0.0
 10
62.48945510234079
 20
360.5921225555342
 30
0.0
 10
62.38711740059794
 20
358.191927581939
 30
0.0
 10
62.36114318231532
 20
356.9849515969141
 30
0.0
 10
62.35971869852931
 20
353.3776207218898
 30
0.0
 10
62.45994567207079
 20
350.9853413047514
 30
0.0
 10
62.85917791004958
 20
346.2255493968271
 30
0.0
 10
63.15819004657658
 20
343.8580377571003
 30
0.0
 10
63.95685239632615
 20
339.1480101434461
 30
0.0
 10
64.45648800653359
 20
336.8054923429779
 30
0.0
 10
65.36193439370876
 20
333.311147616515
 30
0.0
 10
65.68990115209813
 20
332.1495705865237
 30
0.0
 10
66.38119829656239
 20
329.8913580985376
 30
0.0
 10
66.74293306610785
 20
328.7925691225696
 30
0.0
 10
67.12805460519688
 20
327.7011295000868
 30
0.0
  0
SPLINE
  5
FE
330
75
100
AcDbEntity
  8
410576038_DECORA
  6
Continuous
 62
     7
100
AcDbSpline
210
0.0
220
0.0
230
1.0
 70
     8
 71
     3
 72
    12
 73
     8
 74
     0
 42
0.000000000175329
 43
0.0000000001
 40
0.0
 40
0.0
 40
0.0
 40
0.0
 40
0.1231155092812878
 40
0.1231155092812878
 40
0.2487437003912369
 40
0.2487437003912369
 40
0.3347987894539191
 40
0.3347987894539191
 40
0.3347987894539191
 40
0.3347987894539191
 10
123.4057863631433
 20
383.978832194877
 30
0.0
 10
121.177546622838
 20
384.7651215240543
 30
0.0
 10
118.9309179176504
 20
385.449772271328
 30
0.0
 10
114.3564678681117
 20
386.6372427766026
 30
0.0
 10
112.0279063561643
 20
387.1360481629191
 30
0.0
 10
108.0742352792254
 20
387.8102027633711
 30
0.0
 10
106.4585910410666
 20
388.037945775704
 30
0.0
 10
104.8345539748866
 20
388.2192343585236
 30
0.0
  0
SPLINE
  5
FF
330
75
100
AcDbEntity
  8
410576038_DECORA
  6
Continuous
 62
     7
100
AcDbSpline
210
0.0
220
0.0
230
1.0
 70
     8
 71
     3
 72
    14
 73
    10
 74
     0
 42
0.0000000001745321
 43
0.0000000001
 40
0.6667616432346906
 40
0.6667616432346906
 40
0.6667616432346906
 40
0.6667616432346906
 40
0.7512564648310335
 40
0.7512564648310335
 40
0.8768846559409825
 40
0.8768846559409825
 40
0.9396987514959572
 40
0.9396987514959572
 40
1.0
 40
1.0
 40
1.0
 40
1.0
 10
85.88176428714651
 20
388.2191153732903
 30
0.0
 10
84.28656023859001
 20
388.0410263633225
 30
0.0
 10
82.69697459837742
 20
387.8178399491127
 30
0.0
 10
78.7580269746253
 20
387.1499660811775
 30
0.0
 10
76.41550691419583
 20
386.6503559511184
 30
0.0
 10
72.9211586234493
 20
385.7449403368311
 30
0.0
 10
71.75958036996211
 20
385.4169825219757
 30
0.0
 10
69.50136698868782
 20
384.7256982553977
 30
0.0
 10
68.40257818460354
 20
384.3639676017816
 30
0.0
 10
67.31113967265763
 20
383.9788468115133
 30
0.0
  0
ARC
  5
100
330
75
100
AcDbEntity
  8
410576038_DECORA
  6
Continuous
 62
     7
100
AcDbCircle
 10
67.4109922785
 20
327.8009850265
 30
0.0
 40
0.3000414190460722
100
AcDbArc
 50
199.4391652711
 51
224.9982841761
  0
ARC
  5
101
330
75
100
AcDbEntity
  8
410576038_DECORA
  6
Continuous
 62
     7
100
AcDbCircle
 10
67.4109830537
 20
327.8009942515
 30
0.0
 40
0.300041419045814
100
AcDbArc
 50
225.0007754376
 51
250.5598943425
  0
ARC
  5
102
330
75
100
AcDbEntity
  8
410576038_DECORA
  6
Continuous
 62
     7
100
AcDbCircle
 10
67.4109951168
 20
383.6959091091
 30
0.0
 40
0.3000414190642584
100
AcDbArc
 50
109.4391486091
 51
134.9982756616
  0
ARC
  5
103
330
75
100
AcDbEntity
  8
410576038_DECORA
  6
Continuous
 62
     7
100
AcDbCircle
 10
67.4110043418
 20
383.695918334
 30
0.0
 40
0.300041419064502
100
AcDbArc
 50
135.0007669255
 51
160.559893978
  0
ARC
  5
104
330
75
100
AcDbEntity
  8
410576038_DECORA
  6
Continuous
 62
     7
100
AcDbCircle
 10
123.3059152027
 20
327.800982124
 30
0.0
 40
0.3000414190475378
100
AcDbArc
 50
289.4391647747
 51
314.9982844423
  0
ARC
  5
105
330
75
100
AcDbEntity
  8
410576038_DECORA
  6
Continuous
 62
     7
100
AcDbCircle
 10
123.3059059777
 20
327.8009728991
 30
0.0
 40
0.3000414190475926
100
AcDbArc
 50
315.000775704
 51
340.5598953716
  0
ARC
  5
106
330
75
100
AcDbEntity
  8
410576038_DECORA
  6
Continuous
 62
     7
100
AcDbCircle
 10
123.305917038
 20
383.6959053608
 30
0.0
 40
0.3000414190607776
100
AcDbArc
 50
19.4391659985
 51
44.9982916149
  0
ARC
  5
107
330
75
100
AcDbEntity
  8
410576038_DECORA
  6
Continuous
 62
     7
100
AcDbCircle
 10
123.3059262628
 20
383.6958961358
 30
0.0
 40
0.3000414190611753
100
AcDbArc
 50
45.0007828783
 51
70.5599084947
  0
LINE
  5
109
330
75
100
AcDbEntity
  8
404006038_ELEMEN
  6
Continuous
 62
     7
100
AcDbLine
 10
90.8193419814
 20
270.6618038362
 30
0.0
 11
90.3676266849
 21
270.6618038362
 31
0.0
  0
LINE
  5
10A
330
75
100
AcDbEntity
  8
404006038_ELEMEN
  6
Continuous
 62
     7
100
AcDbLine
 10
91.114575199
 20
270.6618038362
 30
0.0
 11
91.2923811888
 21
270.6618038362
 31
0.0
  0
LINE
  5
10B
330
75
100
AcDbEntity
  8
404006038_ELEMEN
  6
Continuous
 62
     7
100
AcDbLine
 10
91.2923811888
 20
270.6618038362
 30
0.0
 11
99.4244987636
 21
270.6618038362
 31
0.0
  0
LINE
  5
10C
330
75
100
AcDbEntity
  8
404006038_ELEMEN
  6
Continuous
 62
     7
100
AcDbLine
 10
99.4244987636
 20
270.6618038362
 30
0.0
 11
99.6023368551
 21
270.6618038362
 31
0.0
  0
LINE
  5
10D
330
75
100
AcDbEntity
  8
404006038_ELEMEN
  6
Continuous
 62
     7
100
AcDbLine
 10
99.8975570435
 20
270.6618038362
 30
0.0
 11
100.3492812385
 21
270.6618038362
 31
0.0
  0
SPLINE
  5
10E
330
75
100
AcDbEntity
  8
404006038_ELEMEN
  6
Continuous
 62
     7
100
AcDbSpline
210
0.0
220
0.0
230
1.0
 70
     8
 71
     3
 72
    17
 73
    13
 74
     0
 42
0.0000000009116481
 43
0.0000000001
 40
0.0
 40
0.0
 40
0.0
 40
0.0
 40
0.1329302784054796
 40
0.242019220189337
 40
0.3305547381234603
 40
0.3992688193808128
 40
0.4531663999462673
 40
0.541584198956296
 40
0.6608087756177373
 40
0.7579576099401208
 40
0.8699890854379005
 40
1.0
 40
1.0
 40
1.0
 40
1.0
 10
89.99385476037419
 20
265.9357234589099
 30
0.0
 10
90.49466890124803
 20
265.7505093511961
 30
0.0
 10
91.26465839885523
 20
265.4689635070431
 30
0.0
 10
92.47513863191016
 20
265.2409293070676
 30
0.0
 10
93.43312362076279
 20
265.1006352438085
 30
0.0
 10
94.20158983244873
 20
265.0251075967374
 30
0.0
 10
94.970992178249
 20
264.9812649298019
 30
0.0
 10
95.9265942923658
 20
264.9793330209563
 30
0.0
 10
97.03929989688888
 20
265.0660372905861
 30
0.0
 10
98.22086520826137
 20
265.2364224474985
 30
0.0
 10
99.46322202535002
 20
265.471348875944
 30
0.0
 10
100.2334553120141
 20
265.7539889483575
 30
0.0
 10
100.7230529410116
 20
265.9357233591787
 30
0.0
  0
ARC
  5
10F
330
75
100
AcDbEntity
  8
404006038_ELEMEN
  6
Continuous
 62
     7
100
AcDbCircle
 10
90.1770571386
 20
266.1826790445
 30
0.0
 40
0.2999381970450299
100
AcDbArc
 50
177.3048319642
 51
246.5024916674
  0
ARC
  5
110
330
75
100
AcDbEntity
  8
404006038_ELEMEN
  6
Continuous
 62
     7
100
AcDbCircle
 10
100.539850785
 20
266.1826790445
 30
0.0
 40
0.2999381970293297
100
AcDbArc
 50
293.4975083194
 51
2.6951680316
  0
LINE
  5
111
330
75
100
AcDbEntity
  8
404006038_ELEMEN
  6
Continuous
 62
     7
100
AcDbLine
 10
90.0675494734
 20
270.3745940744
 30
0.0
 11
89.8761679805
 21
266.170972722
 31
0.0
  0
LINE
  5
112
330
75
100
AcDbEntity
  8
404006038_ELEMEN
  6
Continuous
 62
     7
100
AcDbLine
 10
100.8407399423
 20
266.1709727393
 30
0.0
 11
100.6493584501
 21
270.3745940745
 31
0.0
  0
ARC
  5
113
330
75
100
AcDbEntity
  8
404006038_ELEMEN
  6
Continuous
 62
     7
100
AcDbCircle
 10
90.3671613373
 20
270.361873191
 30
0.0
 40
0.2999306682752943
100
AcDbArc
 50
89.9775175283
 51
177.4895319527
  0
ARC
  5
114
330
75
100
AcDbEntity
  8
404006038_ELEMEN
  6
Continuous
 62
     7
100
AcDbCircle
 10
100.3497465862
 20
270.361873191
 30
0.0
 40
0.2999306682760948
100
AcDbArc
 50
2.5104680477
 51
90.0224824709
  0
ENDBLK
  5
116
330
75
100
AcDbEntity
  8
0
100
AcDbBlockEnd
  0
BLOCK
  5
19F
330
117
100
AcDbEntity
  8
0
100
AcDbBlockBegin
  2
SE1
 70
     0
 10
0.0
 20
0.0
 30
0.0
  3
SE1
  1

  0
LINE
  5
119
330
117
100
AcDbEntity
  8
410585038_THM3_H
  6
Continuous
 62
     7
100
AcDbLine
 10
301.6250699405
 20
382.9463968323
 30
0.0
 11
301.6250699405
 21
387.4459737497
 31
0.0
  0
LINE
  5
11A
330
117
100
AcDbEntity
  8
410585038_THM3_H
  6
Continuous
 62
     7
100
AcDbLine
 10
301.6250699405
 20
328.550463481
 30
0.0
 11
301.6250699405
 21
382.9463968323
 31
0.0
  0
LINE
  5
11B
330
117
100
AcDbEntity
  8
410585038_THM3_H
  6
Continuous
 62
     7
100
AcDbLine
 10
301.6250699405
 20
328.5504643622
 30
0.0
 11
301.6250699405
 21
324.0508422717
 31
0.0
  0
ARC
  5
11C
330
117
100
AcDbEntity
  8
410585038_THM3_H
  6
Continuous
 62
     7
100
AcDbCircle
 10
105.5431219533
 20
389.5321069497
 30
0.0
 40
226.1919662586261
100
AcDbArc
 50
358.2817874041
 51
359.4207130235
  0
ARC
  5
11D
330
117
100
AcDbEntity
  8
410585038_THM3_H
  6
Continuous
 62
     7
100
AcDbCircle
 10
106.1653923205
 20
321.9810020148
 30
0.0
 40
225.5694844891578
100
AcDbArc
 50
0.5767962953
 51
1.7188277245
  0
ARC
  5
11E
330
117
100
AcDbEntity
  8
410585038_THM3_H
  6
Continuous
 62
     7
100
AcDbCircle
 10
303.5292735945
 20
465.5309210595
 30
0.0
 40
81.34190506030617
100
AcDbArc
 50
285.4808792068
 51
286.4799425857
  0
SPLINE
  5
11F
330
117
100
AcDbEntity
  8
410585038_THM3_H
  6
Continuous
 62
     7
100
AcDbSpline
210
0.0
220
0.0
230
1.0
 70
     8
 71
     3
 72
    10
 73
     6
 74
     0
 42
0.0000000034612474
 43
0.0000000001
 40
0.0
 40
0.0
 40
0.0
 40
0.0
 40
0.25
 40
0.25
 40
0.4933510708420753
 40
0.4933510708420753
 40
0.4933510708420753
 40
0.4933510708420753
 10
308.0133673495204
 20
387.2911242093755
 30
0.0
 10
307.5563703000497
 20
387.4254475664693
 30
0.0
 10
307.2181117427981
 20
387.5288090377868
 30
0.0
 10
306.7704189230419
 20
387.6666213103238
 30
0.0
 10
306.6551544818374
 20
387.7028651115593
 30
0.0
 10
306.6493576377277
 20
387.7046885434139
 30
0.0
  0
ARC
  5
120
330
117
100
AcDbEntity
  8
410585038_THM3_H
  6
Continuous
 62
     7
100
AcDbCircle
 10
308.4172395817
 20
389.2677314967
 30
0.0
 40
2.017446194663114
100
AcDbArc
 50
258.4519393868
 51
269.1407702178
  0
ARC
  5
121
330
117
100
AcDbEntity
  8
410585038_THM3_H
  6
Continuous
 62
     7
100
AcDbCircle
 10
318.613491185
 20
613.7715683633
 30
0.0
 40
226.7517812706972
100
AcDbArc
 50
267.4150836634
 51
271.5803936424
  0
ELLIPSE
  5
122
330
117
100
AcDbEntity
  8
410585038_THM3_H
  6
Continuous
 62
     7
100
AcDbEllipse
 10
325.2381789311
 20
386.8415985541
 30
0.0
 11
0.07979994764521771
 21
-0.2891919230473411
 31
0.0
210
0.0
220
0.0
230
1.0
 40
0.942174894
 41
2.84746256706187
 42
3.148274804918189
  0
ARC
  5
123
330
117
100
AcDbEntity
  8
410585038_THM3_H
  6
Continuous
 62
     7
100
AcDbCircle
 10
-868.2367288558
 20
355.7600864837
 30
0.0
 40
1200.227528328577
100
AcDbArc
 50
358.7681300594
 51
1.2283089165
  0
ARC
  5
124
330
117
100
AcDbEntity
  8
410585038_THM3_H
  6
Continuous
 62
     7
100
AcDbCircle
 10
333.7086594666
 20
381.5829279213
 30
0.0
 40
1.99588392705038
100
AcDbArc
 50
177.2148892167
 51
182.7078671952
  0
ARC
  5
125
330
117
100
AcDbEntity
  8
410585038_THM3_H
  6
Continuous
 62
     7
100
AcDbCircle
 10
333.7323558738
 20
329.8613725732
 30
0.0
 40
2.021214591682385
100
AcDbArc
 50
177.2893829734
 51
182.709624357
  0
ARC
  5
126
330
117
100
AcDbEntity
  8
410585038_THM3_H
  6
Continuous
 62
     7
100
AcDbCircle
 10
250.5154559453
 20
389.0838554291
 30
0.0
 40
81.53653168641715
100
AcDbArc
 50
354.7900644171
 51
357.7010886513
  0
ARC
  5
127
330
117
100
AcDbEntity
  8
410585038_THM3_H
  6
Continuous
 62
     7
100
AcDbCircle
 10
237.6463086202
 20
321.6412324002
 30
0.0
 40
94.41730154751708
100
AcDbArc
 50
2.4280808905
 51
4.9363944908
  0
LINE
  5
128
330
117
100
AcDbEntity
  8
410585038_THM3_H
  6
Continuous
 62
     7
100
AcDbLine
 10
301.9280076301
 20
323.7508544878
 30
0.0
 11
331.4314314993
 21
324.0085247979
 31
0.0
  0
LINE
  5
129
330
117
100
AcDbEntity
  8
410585038_THM3_H
  6
Continuous
 62
     7
100
AcDbLine
 10
306.6533555683
 20
387.7047240434
 30
0.0
 11
301.9276879011
 21
387.7459643204
 31
0.0
  0
LINE
  5
12A
330
117
100
AcDbEntity
  8
410585038_THM3_H
  6
Continuous
 62
     7
100
AcDbLine
 10
331.4315093867
 20
387.488488371
 30
0.0
 11
326.6015447631
 21
387.5306388337
 31
0.0
  0
LINE
  5
12B
330
117
100
AcDbEntity
  8
410585038_THM3_H
  6
Continuous
 62
     7
100
AcDbLine
 10
331.9609730934
 20
385.7730873192
 30
0.0
 11
331.7172981115
 21
387.2229263138
 31
0.0
  0
LINE
  5
12C
330
117
100
AcDbEntity
  8
410585038_THM3_H
  6
Continuous
 62
     7
100
AcDbLine
 10
331.7180546549
 20
324.273287142
 30
0.0
 11
331.9581798307
 21
325.6812929749
 31
0.0
  0
ARC
  5
12D
330
117
100
AcDbEntity
  8
410585038_THM3_H
  6
Continuous
 62
     7
100
AcDbCircle
 10
331.4356720957
 20
387.2090482195
 30
0.0
 40
0.2791222573492631
100
AcDbArc
 50
34.5411687551
 51
91.2962981445
  0
ARC
  5
12E
330
117
100
AcDbEntity
  8
410585038_THM3_H
  6
Continuous
 62
     7
100
AcDbCircle
 10
301.9250699401
 20
387.4459713292
 30
0.0
 40
0.29999999961403
100
AcDbArc
 50
90.7064818124
 51
180.0016863339
  0
ARC
  5
12F
330
117
100
AcDbEntity
  8
410585038_THM3_H
  6
Continuous
 62
     7
100
AcDbCircle
 10
331.4311024709
 20
324.306194889
 30
0.0
 40
0.29699178462147
100
AcDbArc
 50
270.4594684094
 51
323.0492224775
  0
ARC
  5
130
330
117
100
AcDbEntity
  8
410585038_THM3_H
  6
Continuous
 62
     7
100
AcDbCircle
 10
301.9250699414
 20
324.0508446271
 30
0.0
 40
0.299999984314305
100
AcDbArc
 50
179.9983364108
 51
271.6975611078
  0
ARC
  5
131
330
117
100
AcDbEntity
  8
410585038_THM3_H
  6
Continuous
 62
     7
100
AcDbCircle
 10
306.6465095226
 20
387.4047723645
 30
0.0
 40
0.2999999999958535
100
AcDbArc
 50
72.6985861906
 51
88.6773905447
  0
ARC
  5
132
330
117
100
AcDbEntity
  8
410585038_THM3_H
  6
Continuous
 62
     7
100
AcDbCircle
 10
326.6017009352
 20
387.2306260468
 30
0.0
 40
0.2999999999976252
100
AcDbArc
 50
106.4236822102
 51
106.7742316115
  0
ARC
  5
133
330
117
100
AcDbEntity
  8
410585038_THM3_H
  6
Continuous
 62
     7
100
AcDbCircle
 10
324.8292628167
 20
389.3751473068
 30
0.0
 40
2.26833318240956
100
AcDbArc
 50
269.8140576914
 51
278.3483438273
  0
ARC
  5
134
330
117
100
AcDbEntity
  8
410585038_THM3_H
  6
Continuous
 62
     7
100
AcDbCircle
 10
331.8878585953
 20
385.7959692803
 30
0.0
 40
0.1000000000013145
100
AcDbArc
 50
357.3486008287
 51
358.6172565748
  0
LINE
  5
136
330
117
100
AcDbEntity
  8
410580038_SLEEVE
  6
Continuous
 62
     7
100
AcDbLine
 10
278.424713692
 20
328.6033327999
 30
0.0
 11
278.424713692
 21
324.0459980577
 31
0.0
  0
LINE
  5
137
330
117
100
AcDbEntity
  8
410580038_SLEEVE
  6
Continuous
 62
     7
100
AcDbLine
 10
278.424713692
 20
382.8938765891
 30
0.0
 11
278.424713692
 21
328.6033327999
 31
0.0
  0
LINE
  5
138
330
117
100
AcDbEntity
  8
410580038_SLEEVE
  6
Continuous
 62
     7
100
AcDbLine
 10
278.424713692
 20
382.8938765891
 30
0.0
 11
278.424713692
 21
387.4512113313
 31
0.0
  0
ARC
  5
139
330
117
100
AcDbEntity
  8
410580038_SLEEVE
  6
Continuous
 62
     7
100
AcDbCircle
 10
278.124713692
 20
324.0459980577
 30
0.0
 40
0.3000000000000051
100
AcDbArc
 50
270.5
 51
0.0
  0
ARC
  5
13A
330
117
100
AcDbEntity
  8
410580038_SLEEVE
  6
Continuous
 62
     7
100
AcDbCircle
 10
278.124713692
 20
387.4512113313
 30
0.0
 40
0.2999999999999947
100
AcDbArc
 50
0.0
 51
89.5
  0
LINE
  5
13B
330
117
100
AcDbEntity
  8
410575038_VOLUMN
  6
Continuous
 62
     7
100
AcDbLine
 10
295.950569657
 20
270.6618042592
 30
0.0
 11
296.5896358792
 21
270.6618042592
 31
0.0
  0
LINE
  5
13C
330
117
100
AcDbEntity
  8
410575038_VOLUMN
  6
Continuous
 62
     7
100
AcDbLine
 10
287.5703706722
 20
270.6618042592
 30
0.0
 11
295.6791665406
 21
270.6618042592
 31
0.0
  0
LINE
  5
13D
330
117
100
AcDbEntity
  8
410575038_VOLUMN
  6
Continuous
 62
     7
100
AcDbLine
 10
295.8480923474
 20
270.6618042592
 30
0.0
 11
295.950569657
 21
270.6618042592
 31
0.0
  0
LINE
  5
13E
330
117
100
AcDbEntity
  8
410575038_VOLUMN
  6
Continuous
 62
     7
100
AcDbLine
 10
295.8480923474
 20
270.6618042592
 30
0.0
 11
295.6791665406
 21
270.6618042592
 31
0.0
  0
LINE
  5
13F
330
117
100
AcDbEntity
  8
410575038_VOLUMN
  6
Continuous
 62
     7
100
AcDbLine
 10
286.6604158116
 20
270.6618042591
 30
0.0
 11
287.2989807459
 21
270.6618042592
 31
0.0
  0
LINE
  5
140
330
117
100
AcDbEntity
  8
410575038_VOLUMN
  6
Continuous
 62
     7
100
AcDbLine
 10
287.4014589434
 20
270.6618042592
 30
0.0
 11
287.2989764163
 21
270.6618042592
 31
0.0
  0
LINE
  5
141
330
117
100
AcDbEntity
  8
410575038_VOLUMN
  6
Continuous
 62
     7
100
AcDbLine
 10
287.5703706722
 20
270.6618042592
 30
0.0
 11
287.4014589434
 21
270.6618042592
 31
0.0
  0
LINE
  5
142
330
117
100
AcDbEntity
  8
410575038_VOLUMN
  6
Continuous
 62
     7
100
AcDbLine
 10
300.624713692
 20
324.0459980577
 30
0.0
 11
300.624713692
 21
328.6033327999
 31
0.0
  0
LINE
  5
143
330
117
100
AcDbEntity
  8
410575038_VOLUMN
  6
Continuous
 62
     7
100
AcDbLine
 10
300.624713692
 20
382.8938765891
 30
0.0
 11
300.624713692
 21
328.6033327999
 31
0.0
  0
LINE
  5
144
330
117
100
AcDbEntity
  8
410575038_VOLUMN
  6
Continuous
 62
     7
100
AcDbLine
 10
300.624713692
 20
387.4512113313
 30
0.0
 11
300.624713692
 21
382.8938765891
 31
0.0
  0
ARC
  5
145
330
117
100
AcDbEntity
  8
410575038_VOLUMN
  6
Continuous
 62
     7
100
AcDbCircle
 10
1359.5812531566
 20
318.5561902525
 30
0.0
 40
1063.755905587325
100
AcDbArc
 50
179.7757531095
 51
182.5637003228
  0
ARC
  5
146
330
117
100
AcDbEntity
  8
410575038_VOLUMN
  6
Continuous
 62
     7
100
AcDbCircle
 10
296.5897751794
 20
270.9617200077
 30
0.0
 40
0.2999157809195184
100
AcDbArc
 50
269.9733881581
 51
2.5152661336
  0
ARC
  5
147
330
117
100
AcDbEntity
  8
410575038_VOLUMN
  6
Continuous
 62
     7
100
AcDbCircle
 10
-782.7924738741
 20
318.7131135187
 30
0.0
 40
1070.214122759515
100
AcDbArc
 50
357.4433751051
 51
0.2096675465
  0
ARC
  5
148
330
117
100
AcDbEntity
  8
410575038_VOLUMN
  6
Continuous
 62
     7
100
AcDbCircle
 10
286.6597738693
 20
270.9617200077
 30
0.0
 40
0.2999157809140572
100
AcDbArc
 50
177.4847338652
 51
270.0266118404
  0
LINE
  5
149
330
117
100
AcDbEntity
  8
410575038_VOLUMN
  6
Continuous
 62
     7
100
AcDbLine
 10
300.3273316527
 20
387.7511999082
 30
0.0
 11
281.9273316527
 21
387.9117742756
 31
0.0
  0
LINE
  5
14A
330
117
100
AcDbEntity
  8
410575038_VOLUMN
  6
Continuous
 62
     7
100
AcDbLine
 10
296.811313521
 20
323.7153256554
 30
0.0
 11
300.3273316527
 21
323.7460094807
 31
0.0
  0
LINE
  5
14B
330
117
100
AcDbEntity
  8
410575038_VOLUMN
  6
Continuous
 62
     7
100
AcDbLine
 10
281.9273316527
 20
323.5854351134
 30
0.0
 11
286.420069966
 21
323.6246426467
 31
0.0
  0
ARC
  5
14C
330
117
100
AcDbEntity
  8
410575038_VOLUMN
  6
Continuous
 62
     7
100
AcDbCircle
 10
296.8332795618
 20
322.7154800947
 30
0.0
 40
1.000000139990711
100
AcDbArc
 50
91.1775190942
 51
179.5206290589
  0
ARC
  5
14D
330
117
100
AcDbEntity
  8
410575038_VOLUMN
  6
Continuous
 62
     7
100
AcDbCircle
 10
286.4161884582
 20
322.6245714849
 30
0.0
 40
0.9999995693636109
100
AcDbArc
 50
0.3232859733
 51
89.8411392192
  0
ARC
  5
14E
330
117
100
AcDbEntity
  8
410575038_VOLUMN
  6
Continuous
 62
     7
100
AcDbCircle
 10
300.324713692
 20
324.0459980577
 30
0.0
 40
0.3000000000000051
100
AcDbArc
 50
270.5
 51
0.0
  0
ARC
  5
14F
330
117
100
AcDbEntity
  8
410575038_VOLUMN
  6
Continuous
 62
     7
100
AcDbCircle
 10
281.924713692
 20
323.8854236903
 30
0.0
 40
0.2999999999999947
100
AcDbArc
 50
180.0
 51
270.4999999999
  0
ARC
  5
150
330
117
100
AcDbEntity
  8
410575038_VOLUMN
  6
Continuous
 62
     7
100
AcDbCircle
 10
300.324713692
 20
387.4512113313
 30
0.0
 40
0.3000000000000086
100
AcDbArc
 50
0.0
 51
89.5
  0
ARC
  5
151
330
117
100
AcDbEntity
  8
410575038_VOLUMN
  6
Continuous
 62
     7
100
AcDbCircle
 10
281.924713692
 20
387.6117856987
 30
0.0
 40
0.2999999999999983
100
AcDbArc
 50
89.5000000001
 51
180.0
  0
LINE
  5
153
330
117
100
AcDbEntity
  8
410579031_SLEEVE
  6
Continuous
 62
     7
100
AcDbLine
 10
301.2250699405
 20
382.9677876065
 30
0.0
 11
301.2250699405
 21
387.4981246599
 31
0.0
  0
LINE
  5
154
330
117
100
AcDbEntity
  8
410579031_SLEEVE
  6
Continuous
 62
     7
100
AcDbLine
 10
301.5250699405
 20
387.4982308456
 30
0.0
 11
301.5250699405
 21
382.9677876065
 31
0.0
  0
LINE
  5
155
330
117
100
AcDbEntity
  8
410579031_SLEEVE
  6
Continuous
 62
     7
100
AcDbLine
 10
301.6250699405
 20
382.8732836974
 30
0.0
 11
301.6250699405
 21
328.6239271018
 31
0.0
  0
LINE
  5
156
330
117
100
AcDbEntity
  8
410579031_SLEEVE
  6
Continuous
 62
     7
100
AcDbLine
 10
301.1250699405
 20
328.6239271018
 30
0.0
 11
301.1250699405
 21
382.8732836974
 31
0.0
  0
LINE
  5
157
330
117
100
AcDbEntity
  8
410579031_SLEEVE
  6
Continuous
 62
     7
100
AcDbLine
 10
301.2250699405
 20
328.5294222722
 30
0.0
 11
301.2250699405
 21
323.9989784708
 31
0.0
  0
LINE
  5
158
330
117
100
AcDbEntity
  8
410579031_SLEEVE
  6
Continuous
 62
     7
100
AcDbLine
 10
301.5250699405
 20
323.9990846681
 30
0.0
 11
301.5250699405
 21
328.5294222722
 31
0.0
  0
LINE
  5
159
330
117
100
AcDbEntity
  8
410579031_SLEEVE
  6
Continuous
 62
     7
100
AcDbLine
 10
301.0752881059
 20
386.0983874789
 30
0.0
 11
300.624713692
 21
386.0964214646
 31
0.0
  0
LINE
  5
15A
330
117
100
AcDbEntity
  8
410579031_SLEEVE
  6
Continuous
 62
     7
100
AcDbLine
 10
300.624713692
 20
325.4007879243
 30
0.0
 11
301.0752881059
 21
325.3988219101
 31
0.0
  0
LINE
  5
15B
330
117
100
AcDbEntity
  8
410579031_SLEEVE
  6
Continuous
 62
     7
100
AcDbLine
 10
301.5250699405
 20
387.4982349723
 30
0.0
 11
301.2250699405
 21
387.4982349723
 31
0.0
  0
LINE
  5
15C
330
117
100
AcDbEntity
  8
410579031_SLEEVE
  6
Continuous
 62
     7
100
AcDbLine
 10
301.2250699405
 20
323.9989741742
 30
0.0
 11
301.5250699405
 21
323.9989741742
 31
0.0
  0
ARC
  5
15D
330
117
100
AcDbEntity
  8
410579031_SLEEVE
  6
Continuous
 62
     7
100
AcDbCircle
 10
301.2250699417
 20
324.0989783337
 30
0.0
 40
0.0999999947547597
100
AcDbArc
 50
178.5512579608
 51
269.9999993154
  0
ARC
  5
15E
330
117
100
AcDbEntity
  8
410579031_SLEEVE
  6
Continuous
 62
     7
100
AcDbCircle
 10
301.5250699417
 20
324.0989783611
 30
0.0
 40
0.0999999988108351
100
AcDbArc
 50
276.7979885332
 51
1.419905233
  0
ARC
  5
15F
330
117
100
AcDbEntity
  8
410579031_SLEEVE
  6
Continuous
 62
     7
100
AcDbCircle
 10
301.2250699393
 20
387.3982308128
 30
0.0
 40
0.0999999988151696
100
AcDbArc
 50
96.8121210604
 51
181.4487289957
  0
ARC
  5
160
330
117
100
AcDbEntity
  8
410579031_SLEEVE
  6
Continuous
 62
     7
100
AcDbCircle
 10
301.5250699393
 20
387.3982307855
 30
0.0
 40
0.0999999947289484
100
AcDbArc
 50
358.5801061965
 51
89.9999993131
  0
LINE
  5
161
330
117
100
AcDbEntity
  8
410579031_SLEEVE
  6
Continuous
 62
     7
100
AcDbLine
 10
278.9749318575
 20
386.0983874789
 30
0.0
 11
278.424713692
 21
386.095986684
 31
0.0
  0
LINE
  5
162
330
117
100
AcDbEntity
  8
410579031_SLEEVE
  6
Continuous
 62
     7
100
AcDbLine
 10
278.424713692
 20
325.401222705
 30
0.0
 11
278.9749318575
 21
325.3988219101
 31
0.0
  0
ARC
  5
163
330
117
100
AcDbEntity
  8
410579031_SLEEVE
  6
Continuous
 62
     7
100
AcDbCircle
 10
279.1247136909
 20
387.3983908418
 30
0.0
 40
0.0999999989344918
100
AcDbArc
 50
96.1233612893
 51
181.4487421535
  0
ARC
  5
164
330
117
100
AcDbEntity
  8
410579031_SLEEVE
  6
Continuous
 62
     7
100
AcDbCircle
 10
279.1247136931
 20
324.0993243101
 30
0.0
 40
0.0999999948194271
100
AcDbArc
 50
178.5606997932
 51
269.9999993907
  0
LINE
  5
165
330
117
100
AcDbEntity
  8
410573038_CAP_CA
  6
Continuous
 62
     7
100
AcDbLine
 10
332.1560261518
 20
326.1658225215
 30
0.0
 11
332.1800007767
 21
326.2472895133
 31
0.0
  0
ARC
  5
166
330
117
100
AcDbEntity
  8
410573038_CAP_CA
  6
Continuous
 62
     7
100
AcDbCircle
 10
331.8986201478
 20
326.2512438442
 30
0.0
 40
0.271209611274648
100
AcDbArc
 50
276.2208272515
 51
341.6413464095
  0
ARC
  5
167
330
117
100
AcDbEntity
  8
410573038_CAP_CA
  6
Continuous
 62
     7
100
AcDbCircle
 10
138.0445680673
 20
355.7561780472
 30
0.0
 40
196.3549535687098
100
AcDbArc
 50
351.357088515
 51
8.6753809486
  0
ARC
  5
168
330
117
100
AcDbEntity
  8
410573038_CAP_CA
  6
Continuous
 62
     7
100
AcDbCircle
 10
331.8627322805
 20
385.3265424551
 30
0.0
 40
0.2999999186332902
100
AcDbArc
 50
9.6466069824
 51
67.4594255341
  0
ARC
  5
169
330
117
100
AcDbEntity
  8
410573038_CAP_CA
  6
Continuous
 62
     7
100
AcDbCircle
 10
332.0811622051
 20
326.2644663598
 30
0.0
 40
0.1005191967366446
100
AcDbArc
 50
270.1091099548
 51
310.1088938519
  0
ARC
  5
16A
330
117
100
AcDbEntity
  8
410573038_CAP_CA
  6
Continuous
 62
     7
100
AcDbCircle
 10
332.080888595
 20
326.2642139022
 30
0.0
 40
0.1005030710477368
100
AcDbArc
 50
310.3209146092
 51
350.3250498583
  0
LINE
  5
16B
330
117
100
AcDbEntity
  8
410577038_PUSH_B
  6
Continuous
 62
     7
100
AcDbLine
 10
307.1908110366
 20
392.7508867493
 30
0.0
 11
307.1454375055
 21
387.5515950648
 31
0.0
  0
LINE
  5
16C
330
117
100
AcDbEntity
  8
410577038_PUSH_B
  6
Continuous
 62
     7
100
AcDbLine
 10
326.1051967233
 20
387.3849989736
 30
0.0
 11
326.0583576655
 21
392.752223384
 31
0.0
  0
LINE
  5
16D
330
117
100
AcDbEntity
  8
410577038_PUSH_B
  6
Continuous
 62
     7
100
AcDbLine
 10
325.7489104085
 20
393.0010039261
 30
0.0
 11
307.4930506624
 21
393.0010039261
 31
0.0
  0
SPLINE
  5
16E
330
117
100
AcDbEntity
  8
410577038_PUSH_B
  6
Continuous
 62
     7
100
AcDbSpline
210
0.0
220
0.0
230
1.0
 70
     8
 71
     3
 72
    12
 73
     8
 74
     0
 42
0.0000000307908726
 43
0.0000000001
 40
0.0
 40
0.0
 40
0.0
 40
0.0
 40
0.044374940661442
 40
0.3847679812411982
 40
0.7222461995456884
 40
0.9897796331595455
 40
1.0
 40
1.0
 40
1.0
 40
1.0
 10
326.0558601330146
 20
392.7035122104367
 30
0.0
 10
326.056551287057
 20
392.7086430955333
 30
0.0
 10
326.0615901308685
 20
392.7469786125075
 30
0.0
 10
326.0358522126094
 20
392.8267034693537
 30
0.0
 10
325.9805272257229
 20
392.9075593133893
 30
0.0
 10
325.9273344345364
 20
392.9531243833342
 30
0.0
 10
325.9014071229512
 20
392.9635579911052
 30
0.0
 10
325.900300590527
 20
392.9640021574139
 30
0.0
  0
ARC
  5
16F
330
117
100
AcDbEntity
  8
410577038_PUSH_B
  6
Continuous
 62
     7
100
AcDbCircle
 10
307.4587974009
 20
392.7167285471
 30
0.0
 40
0.2644209758107518
100
AcDbArc
 50
116.6333734227
 51
183.1057385687
  0
ARC
  5
170
330
117
100
AcDbEntity
  8
410590040_ESCUTC
  6
Continuous
 62
     7
100
AcDbCircle
 10
316.0838513726
 20
383.9307188533
 30
0.0
 40
53.70887416977259
100
AcDbArc
 50
179.6740722776
 51
180.3259277224
  0
ARC
  5
171
330
117
100
AcDbEntity
  8
410590040_ESCUTC
  6
Continuous
 62
     7
100
AcDbCircle
 10
-7782.3329153501
 20
355.7486046945
 30
0.0
 40
8044.757060493378
100
AcDbArc
 50
359.8014589792
 51
0.1985410208
  0
LINE
  5
172
330
117
100
AcDbEntity
  8
410590040_ESCUTC
  6
Continuous
 62
     7
100
AcDbLine
 10
262.4241451427
 20
389.0002702008
 30
0.0
 11
262.3758461877
 21
384.2362407743
 31
0.0
  0
ARC
  5
173
330
117
100
AcDbEntity
  8
410590040_ESCUTC
  6
Continuous
 62
     7
100
AcDbCircle
 10
324.3917139037
 20
327.5664905357
 30
0.0
 40
62.01662029016116
100
AcDbArc
 50
179.7177339341
 51
180.2822660659
  0
LINE
  5
174
330
117
100
AcDbEntity
  8
410590040_ESCUTC
  6
Continuous
 62
     7
100
AcDbLine
 10
262.4241451427
 20
322.4969391881
 30
0.0
 11
262.3758461877
 21
327.2609686146
 31
0.0
  0
ARC
  5
175
330
117
100
AcDbEntity
  8
410590040_ESCUTC
  6
Continuous
 62
     7
100
AcDbCircle
 10
250.0206468499
 20
249.3048812177
 30
0.0
 40
21.51440546722074
100
AcDbArc
 50
88.2780963595
 51
91.3978032264
  0
LINE
  5
176
330
117
100
AcDbEntity
  8
410590040_ESCUTC
  6
Continuous
 62
     7
100
AcDbLine
 10
248.524713692
 20
270.8018750565
 30
0.0
 11
249.4958276992
 21
270.8128845529
 31
0.0
  0
LINE
  5
177
330
117
100
AcDbEntity
  8
410590040_ESCUTC
  6
Continuous
 62
     7
100
AcDbLine
 10
248.524713692
 20
440.7582694913
 30
0.0
 11
248.524713692
 21
428.7603607858
 31
0.0
  0
LINE
  5
178
330
117
100
AcDbEntity
  8
410590040_ESCUTC
  6
Continuous
 62
     7
100
AcDbLine
 10
248.524713692
 20
282.7368458118
 30
0.0
 11
248.524713692
 21
270.8018750565
 31
0.0
  0
LINE
  5
179
330
117
100
AcDbEntity
  8
410590040_ESCUTC
  6
Continuous
 62
     7
100
AcDbLine
 10
248.524713692
 20
428.2632557372
 30
0.0
 11
248.524713692
 21
283.2339555586
 31
0.0
  0
LINE
  5
17A
330
117
100
AcDbEntity
  8
410590040_ESCUTC
  6
Continuous
 62
     7
100
AcDbLine
 10
248.524713692
 20
282.7368458118
 30
0.0
 11
248.524713692
 21
283.2339555586
 31
0.0
  0
LINE
  5
17B
330
117
100
AcDbEntity
  8
410590040_ESCUTC
  6
Continuous
 62
     7
100
AcDbLine
 10
248.524713692
 20
428.2632557372
 30
0.0
 11
248.524713692
 21
428.7603607858
 31
0.0
  0
LINE
  5
17C
330
117
100
AcDbEntity
  8
410590040_ESCUTC
  6
Continuous
 62
     7
100
AcDbLine
 10
261.0427417042
 20
440.5397612842
 30
0.0
 11
248.524713692
 21
440.7582642708
 31
0.0
  0
LINE
  5
17D
330
117
100
AcDbEntity
  8
410590040_ESCUTC
  6
Continuous
 62
     7
100
AcDbLine
 10
250.8299939343
 20
270.7798157355
 30
0.0
 11
261.0427716247
 21
270.9582180788
 31
0.0
  0
ARC
  5
17E
330
117
100
AcDbEntity
  8
410590040_ESCUTC
  6
Continuous
 62
     7
100
AcDbCircle
 10
-4737.465286308
 20
355.7486046945
 30
0.0
 40
5000.0
100
AcDbArc
 50
0.3809928468
 51
0.962291793
  0
ARC
  5
17F
330
117
100
AcDbEntity
  8
410590040_ESCUTC
  6
Continuous
 62
     7
100
AcDbCircle
 10
-4737.465286308
 20
355.7486046945
 30
0.0
 40
5000.000000000001
100
AcDbArc
 50
359.0377177635
 51
359.6190080278
  0
SPLINE
  5
180
330
117
100
AcDbEntity
  8
410590040_ESCUTC
  6
Continuous
 62
     7
100
AcDbSpline
210
0.0
220
0.0
230
1.0
 70
     8
 71
     3
 72
     9
 73
     5
 74
     0
 42
0.0000000356707235
 43
0.0000000001
 40
0.0
 40
0.0
 40
0.0
 40
0.0
 40
0.2887719794000645
 40
0.482605569128698
 40
0.482605569128698
 40
0.482605569128698
 40
0.482605569128698
 10
250.6453420235207
 20
270.8132504248862
 30
0.0
 10
250.6926001730185
 20
270.8120934712981
 30
0.0
 10
250.7548189699488
 20
270.8108919598055
 30
0.0
 10
250.7798232139858
 20
270.8087700765133
 30
0.0
 10
250.7791261194728
 20
270.8088005949261
 30
0.0
  0
ARC
  5
181
330
117
100
AcDbEntity
  8
410590040_ESCUTC
  6
Continuous
 62
     7
100
AcDbCircle
 10
250.824713692
 20
271.0797692664
 30
0.0
 40
0.2999999999999988
100
AcDbArc
 50
243.7001973085
 51
271.0490033608
  0
ARC
  5
182
330
117
100
AcDbEntity
  8
410590040_ESCUTC
  6
Continuous
 62
     7
100
AcDbCircle
 10
261.0291105447
 20
271.7581014941
 30
0.0
 40
0.8000000000007503
100
AcDbArc
 50
271.3260150996
 51
1.6278314617
  0
ARC
  5
183
330
117
100
AcDbEntity
  8
410590040_ESCUTC
  6
Continuous
 62
     7
100
AcDbCircle
 10
261.0290975214
 20
439.7398829481
 30
0.0
 40
0.7999999999868436
100
AcDbArc
 50
358.4079063748
 51
89.3169202614
  0
LINE
  5
184
330
117
100
AcDbEntity
  8
410576038_DECORA
  6
Continuous
 62
     7
100
AcDbLine
 10
279.124713692
 20
388.4460630984
 30
0.0
 11
279.124713692
 21
383.6959529349
 31
0.0
  0
LINE
  5
185
330
117
100
AcDbEntity
  8
410576038_DECORA
  6
Continuous
 62
     7
100
AcDbLine
 10
279.124713692
 20
327.8009504263
 30
0.0
 11
279.124713692
 21
383.6959529349
 31
0.0
  0
LINE
  5
186
330
117
100
AcDbEntity
  8
410576038_DECORA
  6
Continuous
 62
     7
100
AcDbLine
 10
279.124713692
 20
323.0506403258
 30
0.0
 11
279.124713692
 21
327.8009504263
 31
0.0
  0
LINE
  5
187
330
117
100
AcDbEntity
  8
410576038_DECORA
  6
Continuous
 62
     7
100
AcDbLine
 10
281.624713692
 20
383.6829556232
 30
0.0
 11
281.624713692
 21
327.8139475209
 31
0.0
  0
LINE
  5
188
330
117
100
AcDbEntity
  8
410576038_DECORA
  6
Continuous
 62
     7
100
AcDbLine
 10
281.624713692
 20
383.6829556232
 30
0.0
 11
281.624713692
 21
388.4294820472
 31
0.0
  0
LINE
  5
189
330
117
100
AcDbEntity
  8
410576038_DECORA
  6
Continuous
 62
     7
100
AcDbLine
 10
281.624713692
 20
327.8139475209
 30
0.0
 11
281.624713692
 21
323.067221377
 31
0.0
  0
LINE
  5
18A
330
117
100
AcDbEntity
  8
410576038_DECORA
  6
Continuous
 62
     7
100
AcDbLine
 10
281.3273316532
 20
388.7294706348
 30
0.0
 11
279.4273316527
 21
388.7460516836
 31
0.0
  0
LINE
  5
18B
330
117
100
AcDbEntity
  8
410576038_DECORA
  6
Continuous
 62
     7
100
AcDbLine
 10
279.4273316527
 20
322.7506517404
 30
0.0
 11
281.3273316532
 21
322.7672327892
 31
0.0
  0
ARC
  5
18C
330
117
100
AcDbEntity
  8
410576038_DECORA
  6
Continuous
 62
     7
100
AcDbCircle
 10
281.324713693
 20
323.0672284129
 30
0.0
 40
0.2999999990123511
100
AcDbArc
 50
271.140132594
 51
0.0026713298
  0
ARC
  5
18D
330
117
100
AcDbEntity
  8
410576038_DECORA
  6
Continuous
 62
     7
100
AcDbCircle
 10
281.3247136919
 20
388.4294750302
 30
0.0
 40
0.299999975179909
100
AcDbArc
 50
359.9973359702
 51
90.1480147428
  0
ARC
  5
18E
330
117
100
AcDbEntity
  8
410576038_DECORA
  6
Continuous
 62
     7
100
AcDbCircle
 10
279.424713693
 20
323.0506471131
 30
0.0
 40
0.2999999757842235
100
AcDbArc
 50
179.9974040486
 51
271.160276432
  0
ARC
  5
18F
330
117
100
AcDbEntity
  8
410576038_DECORA
  6
Continuous
 62
     7
100
AcDbCircle
 10
279.4247136915
 20
388.4460563294
 30
0.0
 40
0.299999999478419
100
AcDbArc
 50
90.6249820454
 51
180.0025888472
  0
LINE
  5
190
330
117
100
AcDbEntity
  8
404006038_ELEMEN
  6
Continuous
 62
     7
100
AcDbLine
 10
287.0855982937
 20
270.6618038362
 30
0.0
 11
286.6338823202
 21
270.6618038362
 31
0.0
  0
LINE
  5
191
330
117
100
AcDbEntity
  8
404006038_ELEMEN
  6
Continuous
 62
     7
100
AcDbLine
 10
287.3808312533
 20
270.6618038362
 30
0.0
 11
287.5586354257
 21
270.6618038362
 31
0.0
  0
LINE
  5
192
330
117
100
AcDbEntity
  8
404006038_ELEMEN
  6
Continuous
 62
     7
100
AcDbLine
 10
287.5586354257
 20
270.6618038362
 30
0.0
 11
295.6907545917
 21
270.6618038362
 31
0.0
  0
LINE
  5
193
330
117
100
AcDbEntity
  8
404006038_ELEMEN
  6
Continuous
 62
     7
100
AcDbLine
 10
295.6907545917
 20
270.6618038362
 30
0.0
 11
295.8685922912
 21
270.6618038362
 31
0.0
  0
LINE
  5
194
330
117
100
AcDbEntity
  8
404006038_ELEMEN
  6
Continuous
 62
     7
100
AcDbLine
 10
296.163813015
 20
270.6618038362
 30
0.0
 11
296.6155368741
 21
270.6618038362
 31
0.0
  0
ARC
  5
195
330
117
100
AcDbEntity
  8
404006038_ELEMEN
  6
Continuous
 62
     7
100
AcDbCircle
 10
291.624709605
 20
280.7084990327
 30
0.0
 40
15.71667337854424
100
AcDbArc
 50
250.0419696067
 51
289.958030066
  0
ARC
  5
196
330
117
100
AcDbEntity
  8
404006038_ELEMEN
  6
Continuous
 62
     7
100
AcDbCircle
 10
296.8061064188
 20
266.182679073
 30
0.0
 40
0.2999381970427989
100
AcDbArc
 50
293.4975093139
 51
2.6951680322
  0
ARC
  5
197
330
117
100
AcDbEntity
  8
404006038_ELEMEN
  6
Continuous
 62
     7
100
AcDbCircle
 10
286.4433127751
 20
266.182679073
 30
0.0
 40
0.2999381970426265
100
AcDbArc
 50
177.3048319678
 51
246.5024906861
  0
LINE
  5
198
330
117
100
AcDbEntity
  8
404006038_ELEMEN
  6
Continuous
 62
     7
100
AcDbLine
 10
297.1069955769
 20
266.1709727512
 30
0.0
 11
296.9156140853
 21
270.3745940747
 31
0.0
  0
LINE
  5
199
330
117
100
AcDbEntity
  8
404006038_ELEMEN
  6
Continuous
 62
     7
100
AcDbLine
 10
286.3338051095
 20
270.3745940947
 30
0.0
 11
286.1424236178
 21
266.1709727687
 31
0.0
  0
ARC
  5
19A
330
117
100
AcDbEntity
  8
404006038_ELEMEN
  6
Continuous
 62
     7
100
AcDbCircle
 10
296.6160022214
 20
270.361873191
 30
0.0
 40
0.299930668275433
100
AcDbArc
 50
2.5104680477
 51
90.0224824712
  0
ARC
  5
19B
330
117
100
AcDbEntity
  8
404006038_ELEMEN
  6
Continuous
 62
     7
100
AcDbCircle
 10
286.6334169725
 20
270.361873191
 30
0.0
 40
0.299930668270616
100
AcDbArc
 50
89.9775175291
 51
177.4895319526
  0
LINE
  5
19D
330
117
100
AcDbEntity
  8
DV2_Default
  6
Continuous
 62
     7
100
AcDbLine
 10
262.4128720874
 20
387.8883379193
 30
0.0
 11
278.1273316527
 21
387.7511999082
 31
0.0
  0
LINE
  5
19E
330
117
100
AcDbEntity
  8
DV2_Default
  6
Continuous
 62
     7
100
AcDbLine
 10
262.4128720874
 20
323.6088714697
 30
0.0
 11
278.1273316527
 21
323.7460094807
 31
0.0
  0
ENDBLK
  5
1A0
330
117
100
AcDbEntity
  8
0
100
AcDbBlockEnd
  0
BLOCK
  5
208
330
1A1
100
AcDbEntity
  8
0
100
AcDbBlockBegin
  2
SE2
 70
     0
 10
0.0
 20
0.0
 30
0.0
  3
SE2
  1

  0
LINE
  5
1A3
330
1A1
100
AcDbEntity
  8
410585038_THM3_H
  6
Continuous
 62
     7
100
AcDbLine
 10
68.1601913938
 20
139.1302313007
 30
0.0
 11
122.5567154611
 21
139.1302313007
 31
0.0
  0
LINE
  5
1A4
330
1A1
100
AcDbEntity
  8
410585038_THM3_H
  6
Continuous
 62
     7
100
AcDbLine
 10
68.1601913938
 20
139.1302313007
 30
0.0
 11
63.6609685535
 21
139.1302313007
 31
0.0
  0
LINE
  5
1A5
330
1A1
100
AcDbEntity
  8
410585038_THM3_H
  6
Continuous
 62
     7
100
AcDbLine
 10
127.0559404658
 20
139.1302313007
 30
0.0
 11
122.5567154611
 21
139.1302313007
 31
0.0
  0
ARC
  5
1A6
330
1A1
100
AcDbEntity
  8
410585038_THM3_H
  6
Continuous
 62
     7
100
AcDbCircle
 10
61.5215603611
 20
337.6302901706
 30
0.0
 40
228.6105884256476
100
AcDbArc
 50
270.5865620168
 51
271.7132940878
  0
ARC
  5
1A7
330
1A1
100
AcDbEntity
  8
410585038_THM3_H
  6
Continuous
 62
     7
100
AcDbCircle
 10
129.194497652
 20
337.5555441977
 30
0.0
 40
228.5358385608241
100
AcDbArc
 50
268.2863531687
 51
269.4134594774
  0
ARC
  5
1A8
330
1A1
100
AcDbEntity
  8
410585038_THM3_H
  6
Continuous
 62
     7
100
AcDbCircle
 10
61.220210979
 20
203.5346420646
 30
0.0
 40
94.84403208515364
100
AcDbArc
 50
272.435986063
 51
274.9224932803
  0
ARC
  5
1A9
330
1A1
100
AcDbEntity
  8
410585038_THM3_H
  6
Continuous
 62
     7
100
AcDbCircle
 10
69.4527621941
 20
107.0239153495
 30
0.0
 40
2.018578948036741
100
AcDbArc
 50
87.2491037733
 51
92.6735570144
  0
ARC
  5
1AA
330
1A1
100
AcDbEntity
  8
410585038_THM3_H
  6
Continuous
 62
     7
100
AcDbCircle
 10
95.3711666674
 20
1323.4168672538
 30
0.0
 40
1214.651192100646
100
AcDbArc
 50
268.7818923776
 51
271.2144892138
  0
ARC
  5
1AB
330
1A1
100
AcDbEntity
  8
410585038_THM3_H
  6
Continuous
 62
     7
100
AcDbCircle
 10
121.2115392098
 20
107.0478114251
 30
0.0
 40
1.993019680245513
100
AcDbArc
 50
87.2496806454
 51
92.7476298999
  0
ARC
  5
1AC
330
1A1
100
AcDbEntity
  8
410585038_THM3_H
  6
Continuous
 62
     7
100
AcDbCircle
 10
128.7056150848
 20
190.39643573
 30
0.0
 40
81.69350911847015
100
AcDbArc
 50
264.8039851017
 51
267.6972303504
  0
ARC
  5
1AD
330
1A1
100
AcDbEntity
  8
410585038_THM3_H
  6
Continuous
 62
     7
100
AcDbCircle
 10
111.0225876379
 20
124.1342152184
 30
0.0
 40
25.26458005111004
100
AcDbArc
 50
161.3425329843
 51
198.671379667
  0
ARC
  5
1AE
330
1A1
100
AcDbEntity
  8
410585038_THM3_H
  6
Continuous
 62
     7
100
AcDbCircle
 10
87.3747273465
 20
116.1460762399
 30
0.0
 40
0.3039918394959401
100
AcDbArc
 50
199.2171398322
 51
250.8483326617
  0
ARC
  5
1AF
330
1A1
100
AcDbEntity
  8
410585038_THM3_H
  6
Continuous
 62
     7
100
AcDbCircle
 10
87.3728060825
 20
132.116675726
 30
0.0
 40
0.3039875487470547
100
AcDbArc
 50
109.1829606533
 51
160.8092591946
  0
ARC
  5
1B0
330
1A1
100
AcDbEntity
  8
410585038_THM3_H
  6
Continuous
 62
     7
100
AcDbCircle
 10
95.358877518
 20
139.8180122162
 30
0.0
 40
25.28611754378171
100
AcDbArc
 50
251.3554345776
 51
288.6445798333
  0
ARC
  5
1B1
330
1A1
100
AcDbEntity
  8
410585038_THM3_H
  6
Continuous
 62
     7
100
AcDbCircle
 10
95.3586910491
 20
108.4567854384
 30
0.0
 40
25.27525344863048
100
AcDbArc
 50
71.3408247291
 51
108.65739751
  0
ARC
  5
1B2
330
1A1
100
AcDbEntity
  8
410585038_THM3_H
  6
Continuous
 62
     7
100
AcDbCircle
 10
103.3430286979
 20
116.1460798574
 30
0.0
 40
0.3039949823760201
100
AcDbArc
 50
289.1524627788
 51
340.7828892274
  0
ARC
  5
1B3
330
1A1
100
AcDbEntity
  8
410585038_THM3_H
  6
Continuous
 62
     7
100
AcDbCircle
 10
103.3451359081
 20
132.1164849243
 30
0.0
 40
0.3039910257337725
100
AcDbArc
 50
19.155218484
 51
70.7807188695
  0
ARC
  5
1B4
330
1A1
100
AcDbEntity
  8
410585038_THM3_H
  6
Continuous
 62
     7
100
AcDbCircle
 10
79.6939176204
 20
124.1344002629
 30
0.0
 40
25.2658262358694
100
AcDbArc
 50
341.329138897
 51
18.6551898904
  0
LINE
  5
1B5
330
1A1
100
AcDbEntity
  8
410585038_THM3_H
  6
Continuous
 62
     7
100
AcDbLine
 10
127.0982548895
 20
109.3237009112
 30
0.0
 11
127.3559282173
 21
138.8272940076
 31
0.0
  0
LINE
  5
1B6
330
1A1
100
AcDbEntity
  8
410585038_THM3_H
  6
Continuous
 62
     7
100
AcDbLine
 10
63.3609807051
 20
138.8272958182
 30
0.0
 11
63.6186540713
 21
109.3236984888
 31
0.0
  0
LINE
  5
1B7
330
1A1
100
AcDbEntity
  8
410585038_THM3_H
  6
Continuous
 62
     7
100
AcDbLine
 10
125.3834174477
 20
108.7806337701
 30
0.0
 11
126.8334651001
 21
109.0351304046
 31
0.0
  0
LINE
  5
1B8
330
1A1
100
AcDbEntity
  8
410585038_THM3_H
  6
Continuous
 62
     7
100
AcDbLine
 10
63.884139691
 20
109.0395246469
 30
0.0
 11
65.2944614024
 21
108.8082707653
 31
0.0
  0
ARC
  5
1B9
330
1A1
100
AcDbEntity
  8
410585038_THM3_H
  6
Continuous
 62
     7
100
AcDbCircle
 10
126.8241239971
 20
109.3088611044
 30
0.0
 40
0.2697818788552995
100
AcDbArc
 50
304.8689729478
 51
3.0811686275
  0
ARC
  5
1BA
330
1A1
100
AcDbEntity
  8
410585038_THM3_H
  6
Continuous
 62
     7
100
AcDbCircle
 10
63.9055921367
 20
109.3165277084
 30
0.0
 40
0.2840525518441603
100
AcDbArc
 50
178.7961282999
 51
233.9106893644
  0
ARC
  5
1BB
330
1A1
100
AcDbEntity
  8
410585038_THM3_H
  6
Continuous
 62
     7
100
AcDbCircle
 10
127.0559381306
 20
138.8302313011
 30
0.0
 40
0.2999999996254434
100
AcDbArc
 50
0.704155088
 51
90.0016421573
  0
ARC
  5
1BC
330
1A1
100
AcDbEntity
  8
410585038_THM3_H
  6
Continuous
 62
     7
100
AcDbCircle
 10
63.6609708079
 20
138.8302312998
 30
0.0
 40
0.2999999845194782
100
AcDbArc
 50
89.9983577074
 51
181.6886232721
  0
LINE
  5
1BD
330
1A1
100
AcDbEntity
  8
410580038_SLEEVE
  6
Continuous
 62
     7
100
AcDbLine
 10
68.2131829401
 20
162.3305875491
 30
0.0
 11
63.6558481978
 21
162.3305875491
 31
0.0
  0
LINE
  5
1BE
330
1A1
100
AcDbEntity
  8
410580038_SLEEVE
  6
Continuous
 62
     7
100
AcDbLine
 10
122.5037267292
 20
162.3305875491
 30
0.0
 11
127.0610614715
 21
162.3305875491
 31
0.0
  0
LINE
  5
1BF
330
1A1
100
AcDbEntity
  8
410580038_SLEEVE
  6
Continuous
 62
     7
100
AcDbLine
 10
122.5037267292
 20
162.3305875491
 30
0.0
 11
68.2131829401
 21
162.3305875491
 31
0.0
  0
ARC
  5
1C0
330
1A1
100
AcDbEntity
  8
410580038_SLEEVE
  6
Continuous
 62
     7
100
AcDbCircle
 10
63.6558481978
 20
162.6305875491
 30
0.0
 40
0.300000000000005
100
AcDbArc
 50
180.5
 51
270.0
  0
ARC
  5
1C1
330
1A1
100
AcDbEntity
  8
410580038_SLEEVE
  6
Continuous
 62
     7
100
AcDbCircle
 10
127.0610614715
 20
162.6305875491
 30
0.0
 40
0.2999999999999947
100
AcDbArc
 50
270.0
 51
359.5
  0
LINE
  5
1C2
330
1A1
100
AcDbEntity
  8
410575038_VOLUMN
  6
Continuous
 62
     7
100
AcDbLine
 10
122.5037267292
 20
140.1305875491
 30
0.0
 11
127.0610614715
 21
140.1305875491
 31
0.0
  0
LINE
  5
1C3
330
1A1
100
AcDbEntity
  8
410575038_VOLUMN
  6
Continuous
 62
     7
100
AcDbLine
 10
68.2131829401
 20
140.1305875491
 30
0.0
 11
63.6558481978
 21
140.1305875491
 31
0.0
  0
LINE
  5
1C4
330
1A1
100
AcDbEntity
  8
410575038_VOLUMN
  6
Continuous
 62
     7
100
AcDbLine
 10
122.5037267292
 20
140.1305875491
 30
0.0
 11
68.2131829401
 21
140.1305875491
 31
0.0
  0
LINE
  5
1C5
330
1A1
100
AcDbEntity
  8
410575038_VOLUMN
  6
Continuous
 62
     7
100
AcDbLine
 10
127.3610500484
 20
140.4279695885
 30
0.0
 11
127.5216244158
 21
158.8279695885
 31
0.0
  0
LINE
  5
1C6
330
1A1
100
AcDbEntity
  8
410575038_VOLUMN
  6
Continuous
 62
     7
100
AcDbLine
 10
63.1952852536
 20
158.8279695885
 30
0.0
 11
63.3558596209
 21
140.4279695885
 31
0.0
  0
ARC
  5
1C7
330
1A1
100
AcDbEntity
  8
410575038_VOLUMN
  6
Continuous
 62
     7
100
AcDbCircle
 10
127.0610614715
 20
140.4305875491
 30
0.0
 40
0.3000000000000017
100
AcDbArc
 50
270.0
 51
359.5
  0
ARC
  5
1C8
330
1A1
100
AcDbEntity
  8
410575038_VOLUMN
  6
Continuous
 62
     7
100
AcDbCircle
 10
127.2216358388
 20
158.8305875491
 30
0.0
 40
0.2999999999999983
100
AcDbArc
 50
359.5000000002
 51
90.0
  0
ARC
  5
1C9
330
1A1
100
AcDbEntity
  8
410575038_VOLUMN
  6
Continuous
 62
     7
100
AcDbCircle
 10
63.6558481978
 20
140.4305875491
 30
0.0
 40
0.3000000000000051
100
AcDbArc
 50
180.5
 51
270.0
  0
ARC
  5
1CA
330
1A1
100
AcDbEntity
  8
410575038_VOLUMN
  6
Continuous
 62
     7
100
AcDbCircle
 10
63.4952738305
 20
158.8305875491
 30
0.0
 40
0.2999999999999947
100
AcDbArc
 50
90.0
 51
180.5000000002
  0
LINE
  5
1CB
330
1A1
100
AcDbEntity
  8
410579031_SLEEVE
  6
Continuous
 62
     7
100
AcDbLine
 10
68.1394319834
 20
139.5302313007
 30
0.0
 11
63.6091746213
 21
139.5302313007
 31
0.0
  0
LINE
  5
1CC
330
1A1
100
AcDbEntity
  8
410579031_SLEEVE
  6
Continuous
 62
     7
100
AcDbLine
 10
63.6092806288
 20
139.2302313007
 30
0.0
 11
68.1394319834
 21
139.2302313007
 31
0.0
  0
LINE
  5
1CD
330
1A1
100
AcDbEntity
  8
410579031_SLEEVE
  6
Continuous
 62
     7
100
AcDbLine
 10
122.4832940523
 20
139.1302313007
 30
0.0
 11
68.2339368482
 21
139.1302313007
 31
0.0
  0
LINE
  5
1CE
330
1A1
100
AcDbEntity
  8
410579031_SLEEVE
  6
Continuous
 62
     7
100
AcDbLine
 10
68.2339368482
 20
139.6302313007
 30
0.0
 11
122.4832940523
 21
139.6302313007
 31
0.0
  0
LINE
  5
1CF
330
1A1
100
AcDbEntity
  8
410579031_SLEEVE
  6
Continuous
 62
     7
100
AcDbLine
 10
63.7091712627
 20
139.6302313007
 30
0.0
 11
68.2339368482
 21
139.6302313007
 31
0.0
  0
LINE
  5
1D0
330
1A1
100
AcDbEntity
  8
410579031_SLEEVE
  6
Continuous
 62
     7
100
AcDbLine
 10
122.5777970555
 20
139.5302313007
 30
0.0
 11
127.1081348278
 21
139.5302313007
 31
0.0
  0
LINE
  5
1D1
330
1A1
100
AcDbEntity
  8
410579031_SLEEVE
  6
Continuous
 62
     7
100
AcDbLine
 10
127.1082410144
 20
139.2302313007
 30
0.0
 11
122.5777970555
 21
139.2302313007
 31
0.0
  0
LINE
  5
1D2
330
1A1
100
AcDbEntity
  8
410579031_SLEEVE
  6
Continuous
 62
     7
100
AcDbLine
 10
125.7082376191
 20
139.6800131352
 30
0.0
 11
125.7062716048
 21
140.1305875491
 31
0.0
  0
LINE
  5
1D3
330
1A1
100
AcDbEntity
  8
410579031_SLEEVE
  6
Continuous
 62
     7
100
AcDbLine
 10
65.0106380645
 20
140.1305875491
 30
0.0
 11
65.0086720503
 21
139.6800131352
 31
0.0
  0
LINE
  5
1D4
330
1A1
100
AcDbEntity
  8
410579031_SLEEVE
  6
Continuous
 62
     7
100
AcDbLine
 10
127.1082451415
 20
139.2302313007
 30
0.0
 11
127.1082451415
 21
139.5302313007
 31
0.0
  0
LINE
  5
1D5
330
1A1
100
AcDbEntity
  8
410579031_SLEEVE
  6
Continuous
 62
     7
100
AcDbLine
 10
63.6091703271
 20
139.5302313007
 30
0.0
 11
63.6091703271
 21
139.2302313007
 31
0.0
  0
ARC
  5
1D6
330
1A1
100
AcDbEntity
  8
410579031_SLEEVE
  6
Continuous
 62
     7
100
AcDbCircle
 10
127.008240982
 20
139.5302313019
 30
0.0
 40
0.0999999988151565
100
AcDbArc
 50
6.8121293687
 51
91.4487421535
  0
ARC
  5
1D7
330
1A1
100
AcDbEntity
  8
410579031_SLEEVE
  6
Continuous
 62
     7
100
AcDbCircle
 10
127.0082409547
 20
139.2302313019
 30
0.0
 40
0.099999994728881
100
AcDbArc
 50
268.5800943282
 51
6.7979896502
  0
ARC
  5
1D8
330
1A1
100
AcDbEntity
  8
410579031_SLEEVE
  6
Continuous
 62
     7
100
AcDbCircle
 10
63.7091744502
 20
139.5302312995
 30
0.0
 40
0.0999999948030234
100
AcDbArc
 50
88.5606997933
 51
186.8050080081
  0
ARC
  5
1D9
330
1A1
100
AcDbEntity
  8
410579031_SLEEVE
  6
Continuous
 62
     7
100
AcDbCircle
 10
63.7091744774
 20
139.2302312995
 30
0.0
 40
0.0999999988226519
100
AcDbArc
 50
186.7910099551
 51
271.4107516518
  0
LINE
  5
1DA
330
1A1
100
AcDbEntity
  8
410579031_SLEEVE
  6
Continuous
 62
     7
100
AcDbLine
 10
125.7082376191
 20
161.7803693837
 30
0.0
 11
125.7058368242
 21
162.3305875491
 31
0.0
  0
LINE
  5
1DB
330
1A1
100
AcDbEntity
  8
410579031_SLEEVE
  6
Continuous
 62
     7
100
AcDbLine
 10
65.0110728452
 20
162.3305875491
 30
0.0
 11
65.0086720503
 21
161.7803693837
 31
0.0
  0
ARC
  5
1DC
330
1A1
100
AcDbEntity
  8
410579031_SLEEVE
  6
Continuous
 62
     7
100
AcDbCircle
 10
127.0080811954
 20
161.6305875503
 30
0.0
 40
0.0999999988151634
100
AcDbArc
 50
6.8121291389
 51
91.4487420392
  0
ARC
  5
1DD
330
1A1
100
AcDbEntity
  8
410579031_SLEEVE
  6
Continuous
 62
     7
100
AcDbCircle
 10
63.7088287163
 20
161.6305875481
 30
0.0
 40
0.0999999947714543
100
AcDbArc
 50
88.5512710043
 51
186.123355321
  0
ARC
  5
1DE
330
1A1
100
AcDbEntity
  8
410573038_CAP_CA
  6
Continuous
 62
     7
100
AcDbCircle
 10
95.3729377605
 20
302.0930123316
 30
0.0
 40
195.7430123315799
100
AcDbArc
 50
261.2910271643
 51
278.700524744
  0
ARC
  5
1DF
330
1A1
100
AcDbEntity
  8
410573038_CAP_CA
  6
Continuous
 62
     7
100
AcDbCircle
 10
124.9361136104
 20
108.8924353375
 30
0.0
 40
0.2999998253295418
100
AcDbArc
 50
279.6455938057
 51
337.4841855501
  0
ARC
  5
1E0
330
1A1
100
AcDbEntity
  8
410573038_CAP_CA
  6
Continuous
 62
     7
100
AcDbCircle
 10
65.7807970526
 20
108.8924346263
 30
0.0
 40
0.2999999610439145
100
AcDbArc
 50
200.4970591165
 51
260.3544061944
  0
ARC
  5
1E1
330
1A1
100
AcDbEntity
  8
410577038_PUSH_B
  6
Continuous
 62
     7
100
AcDbCircle
 10
95.3584521114
 20
108.4779263905
 30
0.0
 40
25.15074392081989
100
AcDbArc
 50
71.4463423383
 51
108.5536443342
  0
ARC
  5
1E2
330
1A1
100
AcDbEntity
  8
410577038_PUSH_B
  6
Continuous
 62
     7
100
AcDbCircle
 10
79.7059414224
 20
124.1305980535
 30
0.0
 40
25.15059657676217
100
AcDbArc
 50
341.4410619733
 51
18.5537796378
  0
ARC
  5
1E3
330
1A1
100
AcDbEntity
  8
410577038_PUSH_B
  6
Continuous
 62
     7
100
AcDbCircle
 10
95.3570829014
 20
139.8287274893
 30
0.0
 40
25.19604159460499
100
AcDbArc
 50
251.4999989287
 51
288.5098826274
  0
ARC
  5
1E4
330
1A1
100
AcDbEntity
  8
410577038_PUSH_B
  6
Continuous
 62
     7
100
AcDbCircle
 10
111.0109408155
 20
124.1305963864
 30
0.0
 40
25.15056876421305
100
AcDbArc
 50
161.4461960347
 51
198.5615271855
  0
ARC
  5
1E5
330
1A1
100
AcDbEntity
  8
410577038_PUSH_B
  6
Continuous
 62
     7
100
AcDbCircle
 10
87.4528342996
 20
116.220738237
 30
0.0
 40
0.3000114238098511
100
AcDbArc
 50
198.6908422204
 51
252.4282993729
  0
ARC
  5
1E6
330
1A1
100
AcDbEntity
  8
410577038_PUSH_B
  6
Continuous
 62
     7
100
AcDbCircle
 10
87.4517699324
 20
132.0372837642
 30
0.0
 40
0.3000114237418894
100
AcDbArc
 50
108.6810370073
 51
161.3178546943
  0
ARC
  5
1E7
330
1A1
100
AcDbEntity
  8
410577038_PUSH_B
  6
Continuous
 62
     7
100
AcDbCircle
 10
103.2644304311
 20
116.22179182
 30
0.0
 40
0.3000114240147516
100
AcDbArc
 50
287.7765197615
 51
341.3125161613
  0
ARC
  5
1E8
330
1A1
100
AcDbEntity
  8
410577038_PUSH_B
  6
Continuous
 62
     7
100
AcDbCircle
 10
103.2651432196
 20
132.0372807589
 30
0.0
 40
0.3000114237418889
100
AcDbArc
 50
18.6828304282
 51
71.319644983
  0
ARC
  5
1E9
330
1A1
100
AcDbEntity
  8
410590040_ESCUTC
  6
Continuous
 62
     7
100
AcDbCircle
 10
67.1763406758
 20
116.3635873373
 30
0.0
 40
62.01662029026812
100
AcDbArc
 50
89.7177339341
 51
90.2822660659
  0
LINE
  5
1EA
330
1A1
100
AcDbEntity
  8
410590040_ESCUTC
  6
Continuous
 62
     7
100
AcDbLine
 10
62.1067893283
 20
178.3311560984
 30
0.0
 11
66.8708187548
 21
178.3794550534
 31
0.0
  0
ARC
  5
1EB
330
1A1
100
AcDbEntity
  8
410590040_ESCUTC
  6
Continuous
 62
     7
100
AcDbCircle
 10
95.3584548347
 20
8223.088216589
 30
0.0
 40
8044.757060491067
100
AcDbArc
 50
269.8014589792
 51
270.1985410208
  0
LINE
  5
1EC
330
1A1
100
AcDbEntity
  8
410590040_ESCUTC
  6
Continuous
 62
     7
100
AcDbLine
 10
128.610120341
 20
178.3311560984
 30
0.0
 11
123.8460909145
 21
178.3794550534
 31
0.0
  0
ARC
  5
1ED
330
1A1
100
AcDbEntity
  8
410590040_ESCUTC
  6
Continuous
 62
     7
100
AcDbCircle
 10
123.5405689935
 20
124.6714498687
 30
0.0
 40
53.70887416963077
100
AcDbArc
 50
89.6740722776
 51
90.3259277224
  0
LINE
  5
1EE
330
1A1
100
AcDbEntity
  8
410590040_ESCUTC
  6
Continuous
 62
     7
100
AcDbLine
 10
167.8731046656
 20
192.2305875491
 30
0.0
 11
22.8438071673
 21
192.2305875491
 31
0.0
  0
LINE
  5
1EF
330
1A1
100
AcDbEntity
  8
410590040_ESCUTC
  6
Continuous
 62
     7
100
AcDbLine
 10
10.349395841
 20
192.2305875491
 30
0.0
 11
22.3466989328
 21
192.2305875491
 31
0.0
  0
LINE
  5
1F0
330
1A1
100
AcDbEntity
  8
410590040_ESCUTC
  6
Continuous
 62
     7
100
AcDbLine
 10
180.3675138091
 20
192.2305875491
 30
0.0
 11
168.3702109144
 21
192.2305875491
 31
0.0
  0
LINE
  5
1F1
330
1A1
100
AcDbEntity
  8
410590040_ESCUTC
  6
Continuous
 62
     7
100
AcDbLine
 10
22.3466956083
 20
192.2305875491
 30
0.0
 11
22.8438071673
 21
192.2305875491
 31
0.0
  0
LINE
  5
1F2
330
1A1
100
AcDbEntity
  8
410590040_ESCUTC
  6
Continuous
 62
     7
100
AcDbLine
 10
167.8731046656
 20
192.2305875491
 30
0.0
 11
168.3702109144
 21
192.2305875491
 31
0.0
  0
LINE
  5
1F3
330
1A1
100
AcDbEntity
  8
410590040_ESCUTC
  6
Continuous
 62
     7
100
AcDbLine
 10
180.1488415791
 20
179.7125296187
 30
0.0
 11
180.3675138091
 21
192.2305875491
 31
0.0
  0
LINE
  5
1F4
330
1A1
100
AcDbEntity
  8
410590040_ESCUTC
  6
Continuous
 62
     7
100
AcDbLine
 10
10.349395841
 20
192.2305875491
 30
0.0
 11
10.5680680706
 21
179.7125296189
 31
0.0
  0
ARC
  5
1F5
330
1A1
100
AcDbEntity
  8
410590040_ESCUTC
  6
Continuous
 62
     7
100
AcDbCircle
 10
95.3584548347
 20
5178.2205875491
 30
0.0
 40
5000.0
100
AcDbArc
 50
270.3809928467
 51
270.9622831675
  0
ARC
  5
1F6
330
1A1
100
AcDbEntity
  8
410590040_ESCUTC
  6
Continuous
 62
     7
100
AcDbCircle
 10
95.3584548347
 20
5178.2205875491
 30
0.0
 40
5000.0
100
AcDbArc
 50
269.0377177615
 51
269.6190080272
  0
ARC
  5
1F7
330
1A1
100
AcDbEntity
  8
410590040_ESCUTC
  6
Continuous
 62
     7
100
AcDbCircle
 10
11.3679514822
 20
179.7261906986
 30
0.0
 40
0.8000000000000057
100
AcDbArc
 50
181.3263057972
 51
271.6278309196
  0
ARC
  5
1F8
330
1A1
100
AcDbEntity
  8
410590040_ESCUTC
  6
Continuous
 62
     7
100
AcDbCircle
 10
179.3489581674
 20
179.7261906982
 30
0.0
 40
0.7999999999991219
100
AcDbArc
 50
268.3721690505
 51
359.3154049237
  0
LINE
  5
1F9
330
1A1
100
AcDbEntity
  8
410576038_DECORA
  6
Continuous
 62
     7
100
AcDbLine
 10
67.4109605165
 20
161.6305875491
 30
0.0
 11
123.3059608638
 21
161.6305875491
 31
0.0
  0
LINE
  5
1FA
330
1A1
100
AcDbEntity
  8
410576038_DECORA
  6
Continuous
 62
     7
100
AcDbLine
 10
62.6606502544
 20
161.6305875491
 30
0.0
 11
67.4109605165
 21
161.6305875491
 31
0.0
  0
LINE
  5
1FB
330
1A1
100
AcDbEntity
  8
410576038_DECORA
  6
Continuous
 62
     7
100
AcDbLine
 10
128.0562591723
 20
161.6305875491
 30
0.0
 11
123.3059608638
 21
161.6305875491
 31
0.0
  0
LINE
  5
1FC
330
1A1
100
AcDbEntity
  8
410576038_DECORA
  6
Continuous
 62
     7
100
AcDbLine
 10
67.4239576101
 20
159.1305875491
 30
0.0
 11
62.6772313057
 21
159.1305875491
 31
0.0
  0
LINE
  5
1FD
330
1A1
100
AcDbEntity
  8
410576038_DECORA
  6
Continuous
 62
     7
100
AcDbLine
 10
123.2929635559
 20
159.1305875491
 30
0.0
 11
67.4239576101
 21
159.1305875491
 31
0.0
  0
LINE
  5
1FE
330
1A1
100
AcDbEntity
  8
410576038_DECORA
  6
Continuous
 62
     7
100
AcDbLine
 10
123.2929635559
 20
159.1305875491
 30
0.0
 11
128.039678121
 21
159.1305875491
 31
0.0
  0
LINE
  5
1FF
330
1A1
100
AcDbEntity
  8
410576038_DECORA
  6
Continuous
 62
     7
100
AcDbLine
 10
128.3396667089
 20
159.4279695879
 30
0.0
 11
128.3562477577
 21
161.3279695885
 31
0.0
  0
LINE
  5
200
330
1A1
100
AcDbEntity
  8
410576038_DECORA
  6
Continuous
 62
     7
100
AcDbLine
 10
62.360661669
 20
161.3279695885
 30
0.0
 11
62.3772427178
 21
159.4279695879
 31
0.0
  0
ARC
  5
201
330
1A1
100
AcDbEntity
  8
410576038_DECORA
  6
Continuous
 62
     7
100
AcDbCircle
 10
62.6772383415
 20
159.4305875481
 30
0.0
 40
0.2999999990123575
100
AcDbArc
 50
181.1401326519
 51
270.0026713299
  0
ARC
  5
202
330
1A1
100
AcDbEntity
  8
410576038_DECORA
  6
Continuous
 62
     7
100
AcDbCircle
 10
128.0396710852
 20
159.4305875493
 30
0.0
 40
0.2999999751098768
100
AcDbArc
 50
269.9973286779
 51
0.1481283131
  0
ARC
  5
203
330
1A1
100
AcDbEntity
  8
410576038_DECORA
  6
Continuous
 62
     7
100
AcDbCircle
 10
62.6606570417
 20
161.3305875478
 30
0.0
 40
0.2999999757722534
100
AcDbArc
 50
89.9974040481
 51
181.6166714014
  0
ARC
  5
204
330
1A1
100
AcDbEntity
  8
410576038_DECORA
  6
Continuous
 62
     7
100
AcDbCircle
 10
128.056252385
 20
161.3305875493
 30
0.0
 40
0.2999999998593883
100
AcDbArc
 50
0.1690297733
 51
90.0025959393
  0
LINE
  5
206
330
1A1
100
AcDbEntity
  8
DV3_Default
  6
Continuous
 62
     7
100
AcDbLine
 10
63.2187216099
 20
178.3424291537
 30
0.0
 11
63.3558596209
 21
162.6279695885
 31
0.0
  0
LINE
  5
207
330
1A1
100
AcDbEntity
  8
DV3_Default
  6
Continuous
 62
     7
100
AcDbLine
 10
127.4981880594
 20
178.3424291537
 30
0.0
 11
127.3610500484
 21
162.6279695885
 31
0.0
  0
ENDBLK
  5
209
330
1A1
100
AcDbEntity
  8
0
100
AcDbBlockEnd
  0
ENDSEC
  0
SECTION
  2
ENTITIES
  0
INSERT
  5
5F
330
1F
100
AcDbEntity
  8
Default
100
AcDbBlockReference
  2
SEANNOT_GROUP
 10
0.0
 20
0.0
 30
0.0
  0
INSERT
  5
6A
330
1F
100
AcDbEntity
  8
Default
100
AcDbBlockReference
  2
SEANNOT_GROUP1
 10
0.0
 20
0.0
 30
0.0
  0
INSERT
  5
70
330
1F
100
AcDbEntity
  8
Default
100
AcDbBlockReference
  2
SEANNOT_GROUP2
 10
0.0
 20
0.0
 30
0.0
  0
INSERT
  5
76
330
1F
100
AcDbEntity
  8
Default
100
AcDbBlockReference
  2
SE
 10
0.0
 20
0.0
 30
0.0
  0
INSERT
  5
118
330
1F
100
AcDbEntity
  8
Default
100
AcDbBlockReference
  2
SE1
 10
0.0
 20
0.0
 30
0.0
  0
INSERT
  5
1A2
330
1F
100
AcDbEntity
  8
Default
100
AcDbBlockReference
  2
SE2
 10
0.0
 20
0.0
 30
0.0
  0
TEXT
  5
20B
330
1F
100
AcDbEntity
  8
Default
  6
Continuous
 62
     7
100
AcDbText
 10
5.9362635081
 20
53.4225120485
 30
0.0
 40
10.0
  1
Grohe AG^J
  7
SEACAD_seiso_ttf
 11
5.9362635081
 21
63.4225120485
 31
0.0
100
AcDbText
 73
     3
  0
TEXT
  5
20C
330
1F
100
AcDbEntity
  8
Default
  6
Continuous
 62
     7
100
AcDbText
 10
5.9362635081
 20
37.0588756849
 30
0.0
 40
10.0
  1
 
  7
SEACAD_seiso_ttf
 11
5.9362635081
 21
47.0588756849
 31
0.0
100
AcDbText
 73
     3
  0
TEXT
  5
20D
330
1F
100
AcDbEntity
  8
Default
  6
Continuous
 62
     7
100
AcDbText
 10
5.9362635081
 20
20.6952393213
 30
0.0
 40
10.0
  1
ecn:
  7
SEACAD_seiso_ttf
 11
5.9362635081
 21
30.6952393213
 31
0.0
100
AcDbText
 73
     3
  0
TEXT
  5
20E
330
1F
100
AcDbEntity
  8
Default
  6
Continuous
 62
     7
100
AcDbText
 10
5.9362635081
 20
4.3316029576
 30
0.0
 40
10.0
  1
unit: mm
  7
SEACAD_seiso_ttf
 11
5.9362635081
 21
14.3316029576
 31
0.0
100
AcDbText
 73
     3
  0
LINE
  5
20F
330
1F
100
AcDbEntity
  8
Default
  6
Continuous
 62
     7
100
AcDbLine
 10
0.0
 20
0.0
 30
0.0
 11
100.0
 21
0.0
 31
0.0
  0
LINE
  5
210
330
1F
100
AcDbEntity
  8
Default
  6
Continuous
 62
     7
100
AcDbLine
 10
0.0
 20
0.0
 30
0.0
 11
0.0
 21
100.0
 31
0.0
  0
TEXT
  5
211
330
1F
100
AcDbEntity
  8
Default
  6
Continuous
 62
     7
100
AcDbText
 10
24.3923665681
 20
-18.2375342018
 30
0.0
 40
10.0
  1
100 mm
  7
SEACAD_seiso_ttf
 11
24.3923665681
 21
-8.2375342018
 31
0.0
100
AcDbText
 73
     3
  0
TEXT
  5
212
330
1F
100
AcDbEntity
  8
Default
  6
Continuous
 62
     7
100
AcDbText
 10
-7.6150308803
 20
24.6231930421
 30
0.0
 40
10.0
  1
100 mm
 50
90.0
  7
SEACAD_seiso_ttf
 11
-17.6150308803
 21
24.6231930421
 31
0.0
100
AcDbText
 73
     3
  0
TEXT
  5
213
330
1F
100
AcDbEntity
  8
Default
  6
Continuous
 62
     7
100
AcDbText
 10
28.4878128572
 20
20.0907663715
 30
0.0
 40
10.0
  1
226329
  7
SEACAD_seiso_ttf
 11
28.4878128572
 21
30.0907663715
 31
0.0
100
AcDbText
 73
     3
  0
TEXT
  5
214
330
1F
100
AcDbEntity
  8
Default
  6
Continuous
 62
     7
100
AcDbText
 10
5.9012241913
 20
36.7242780188
 30
0.0
 40
10.0
  1
19939000
  7
SEACAD_seiso_ttf
 11
5.9012241913
 21
46.7242780188
 31
0.0
100
AcDbText
 73
     3
  0
ENDSEC
  0
SECTION
  2
OBJECTS
  0
DICTIONARY
  5
C
330
0
100
AcDbDictionary
281
     1
  3
ACAD_GROUP
350
D
  3
ACAD_LAYOUT
350
1A
  3
ACAD_MLEADERSTYLE
350
218
  3
ACAD_MLINESTYLE
350
17
  3
ACAD_PLOTSETTINGS
350
19
  3
ACAD_PLOTSTYLENAME
350
E
  3
ACAD_SCALELIST
350
3B
  3
ACAD_TABLESTYLE
350
217
  3
ACAD_VISUALSTYLE
350
2A
  3
AcDbVariableDictionary
350
215
  0
DICTIONARY
  5
D
102
{ACAD_REACTORS
330
C
102
}
330
C
100
AcDbDictionary
281
     1
  0
DICTIONARY
  5
1A
102
{ACAD_REACTORS
330
C
102
}
330
C
100
AcDbDictionary
281
     1
  3
Layout1
350
1E
  3
Model
350
22
  0
DICTIONARY
  5
218
102
{ACAD_REACTORS
330
C
102
}
330
C
100
AcDbDictionary
281
     1
  0
DICTIONARY
  5
17
102
{ACAD_REACTORS
330
C
102
}
330
C
100
AcDbDictionary
281
     1
  3
Standard
350
18
  0
DICTIONARY
  5
19
102
{ACAD_REACTORS
330
C
102
}
330
C
100
AcDbDictionary
281
     1
  0
ACDBDICTIONARYWDFLT
  5
E
102
{ACAD_REACTORS
330
C
102
}
330
C
100
AcDbDictionary
281
     1
  3
Normal
350
F
100
AcDbDictionaryWithDefault
340
F
  0
DICTIONARY
  5
3B
102
{ACAD_REACTORS
330
C
102
}
330
C
100
AcDbDictionary
281
     1
  3
A0
350
3C
  3
A1
350
3D
  3
A2
350
3E
  3
A3
350
3F
  3
A4
350
40
  3
A5
350
41
  3
A6
350
42
  3
A7
350
43
  3
A8
350
44
  3
A9
350
45
  3
B0
350
46
  3
B1
350
47
  3
B2
350
48
  3
B3
350
49
  3
B4
350
4A
  3
B5
350
4B
  3
B6
350
4C
  3
B7
350
4D
  3
B8
350
4E
  3
B9
350
4F
  3
C0
350
50
  3
C1
350
51
  3
C2
350
52
  3
C3
350
53
  3
C4
350
54
  3
C5
350
55
  3
C6
350
56
  3
C7
350
57
  3
C8
350
58
  3
C9
350
59
  3
D0
350
5A
  3
D1
350
5B
  3
D2
350
5C
  0
DICTIONARY
  5
217
102
{ACAD_REACTORS
330
C
102
}
330
C
100
AcDbDictionary
281
     1
  0
DICTIONARY
  5
2A
102
{ACAD_REACTORS
330
C
102
}
330
C
100
AcDbDictionary
281
     1
  3
2dWireframe
350
2F
  3
3D Hidden
350
31
  3
3dWireframe
350
30
  3
Basic
350
32
  3
Brighten
350
36
  3
ColorChange
350
3A
  3
Conceptual
350
34
  3
Dim
350
35
  3
Facepattern
350
39
  3
Flat
350
2B
  3
FlatWithEdges
350
2C
  3
Gouraud
350
2D
  3
GouraudWithEdges
350
2E
  3
Linepattern
350
38
  3
Realistic
350
33
  3
Thicken
350
37
  0
DICTIONARY
  5
215
102
{ACAD_REACTORS
330
C
102
}
330
C
100
AcDbDictionary
281
     1
  3
CANNOSCALE
350
216
  3
PSOLHEIGHT
350
21A
  3
PSOLWIDTH
350
219
  0
LAYOUT
  5
1E
102
{ACAD_REACTORS
330
1A
102
}
330
1A
100
AcDbPlotSettings
  1

  2
none_device
  4

  6

 40
0.0
 41
0.0
 42
0.0
 43
0.0
 44
0.0
 45
0.0
 46
0.0
 47
0.0
 48
0.0
 49
0.0
140
0.0
141
0.0
142
1.0
143
1.0
 70
   688
 72
     0
 73
     0
 74
     5
  7

 75
    16
147
1.0
148
0.0
149
0.0
100
AcDbLayout
  1
Layout1
 70
     1
 71
     1
 10
0.0
 20
0.0
 11
3000.0
 21
4500.0
 12
0.0
 22
0.0
 32
0.0
 14
0.0
 24
0.0
 34
0.0
 15
3000.0
 25
4500.0
 35
0.0
146
0.0
 13
0.0
 23
0.0
 33
0.0
 16
1.0
 26
0.0
 36
0.0
 17
0.0
 27
1.0
 37
0.0
 76
     0
330
1B
  0
LAYOUT
  5
22
102
{ACAD_REACTORS
330
1A
102
}
330
1A
100
AcDbPlotSettings
  1

  2
none_device
  4

  6

 40
0.0
 41
0.0
 42
0.0
 43
0.0
 44
0.0
 45
0.0
 46
0.0
 47
0.0
 48
0.0
 49
0.0
140
0.0
141
0.0
142
1.0
143
1.0
 70
  1712
 72
     0
 73
     0
 74
     0
  7

 75
     0
147
1.0
148
0.0
149
0.0
100
AcDbLayout
  1
Model
 70
     1
 71
     0
 10
0.0
 20
0.0
 11
3000.0
 21
4500.0
 12
0.0
 22
0.0
 32
0.0
 14
0.0
 24
0.0
 34
0.0
 15
3000.0
 25
4500.0
 35
0.0
146
0.0
 13
0.0
 23
0.0
 33
0.0
 16
1.0
 26
0.0
 36
0.0
 17
0.0
 27
1.0
 37
0.0
 76
     0
330
1F
331
29
  0
MLINESTYLE
  5
18
102
{ACAD_REACTORS
330
17
102
}
330
17
100
AcDbMlineStyle
  2
Standard
 70
     0
  3

 62
   256
 51
90.0
 52
90.0
 71
     2
 49
0.5
 62
   256
  6
BYLAYER
 49
-0.5
 62
   256
  6
BYLAYER
  0
ACDBPLACEHOLDER
  5
F
102
{ACAD_REACTORS
330
E
102
}
330
E
  0
SCALE
  5
3C
102
{ACAD_REACTORS
330
3B
102
}
330
3B
100
AcDbScale
 70
     0
300
1:1
140
1.0
141
1.0
290
     1
  0
SCALE
  5
3D
102
{ACAD_REACTORS
330
3B
102
}
330
3B
100
AcDbScale
 70
     0
300
1:2
140
1.0
141
2.0
290
     0
  0
SCALE
  5
3E
102
{ACAD_REACTORS
330
3B
102
}
330
3B
100
AcDbScale
 70
     0
300
1:4
140
1.0
141
4.0
290
     0
  0
SCALE
  5
3F
102
{ACAD_REACTORS
330
3B
102
}
330
3B
100
AcDbScale
 70
     0
300
1:5
140
1.0
141
5.0
290
     0
  0
SCALE
  5
40
102
{ACAD_REACTORS
330
3B
102
}
330
3B
100
AcDbScale
 70
     0
300
1:8
140
1.0
141
8.0
290
     0
  0
SCALE
  5
41
102
{ACAD_REACTORS
330
3B
102
}
330
3B
100
AcDbScale
 70
     0
300
1:10
140
1.0
141
10.0
290
     0
  0
SCALE
  5
42
102
{ACAD_REACTORS
330
3B
102
}
330
3B
100
AcDbScale
 70
     0
300
1:16
140
1.0
141
16.0
290
     0
  0
SCALE
  5
43
102
{ACAD_REACTORS
330
3B
102
}
330
3B
100
AcDbScale
 70
     0
300
1:20
140
1.0
141
20.0
290
     0
  0
SCALE
  5
44
102
{ACAD_REACTORS
330
3B
102
}
330
3B
100
AcDbScale
 70
     0
300
1:30
140
1.0
141
30.0
290
     0
  0
SCALE
  5
45
102
{ACAD_REACTORS
330
3B
102
}
330
3B
100
AcDbScale
 70
     0
300
1:40
140
1.0
141
40.0
290
     0
  0
SCALE
  5
46
102
{ACAD_REACTORS
330
3B
102
}
330
3B
100
AcDbScale
 70
     0
300
1:50
140
1.0
141
50.0
290
     0
  0
SCALE
  5
47
102
{ACAD_REACTORS
330
3B
102
}
330
3B
100
AcDbScale
 70
     0
300
1:100
140
1.0
141
100.0
290
     0
  0
SCALE
  5
48
102
{ACAD_REACTORS
330
3B
102
}
330
3B
100
AcDbScale
 70
     0
300
2:1
140
2.0
141
1.0
290
     0
  0
SCALE
  5
49
102
{ACAD_REACTORS
330
3B
102
}
330
3B
100
AcDbScale
 70
     0
300
4:1
140
4.0
141
1.0
290
     0
  0
SCALE
  5
4A
102
{ACAD_REACTORS
330
3B
102
}
330
3B
100
AcDbScale
 70
     0
300
8:1
140
8.0
141
1.0
290
     0
  0
SCALE
  5
4B
102
{ACAD_REACTORS
330
3B
102
}
330
3B
100
AcDbScale
 70
     0
300
10:1
140
10.0
141
1.0
290
     0
  0
SCALE
  5
4C
102
{ACAD_REACTORS
330
3B
102
}
330
3B
100
AcDbScale
 70
     0
300
100:1
140
100.0
141
1.0
290
     0
  0
SCALE
  5
4D
102
{ACAD_REACTORS
330
3B
102
}
330
3B
100
AcDbScale
 70
     0
300
1/128" = 1'-0"
140
0.0078125
141
12.0
290
     0
  0
SCALE
  5
4E
102
{ACAD_REACTORS
330
3B
102
}
330
3B
100
AcDbScale
 70
     0
300
1/64" = 1'-0"
140
0.015625
141
12.0
290
     0
  0
SCALE
  5
4F
102
{ACAD_REACTORS
330
3B
102
}
330
3B
100
AcDbScale
 70
     0
300
1/32" = 1'-0"
140
0.03125
141
12.0
290
     0
  0
SCALE
  5
50
102
{ACAD_REACTORS
330
3B
102
}
330
3B
100
AcDbScale
 70
     0
300
1/16" = 1'-0"
140
0.0625
141
12.0
290
     0
  0
SCALE
  5
51
102
{ACAD_REACTORS
330
3B
102
}
330
3B
100
AcDbScale
 70
     0
300
3/32" = 1'-0"
140
0.09375
141
12.0
290
     0
  0
SCALE
  5
52
102
{ACAD_REACTORS
330
3B
102
}
330
3B
100
AcDbScale
 70
     0
300
1/8" = 1'-0"
140
0.125
141
12.0
290
     0
  0
SCALE
  5
53
102
{ACAD_REACTORS
330
3B
102
}
330
3B
100
AcDbScale
 70
     0
300
3/16" = 1'-0"
140
0.1875
141
12.0
290
     0
  0
SCALE
  5
54
102
{ACAD_REACTORS
330
3B
102
}
330
3B
100
AcDbScale
 70
     0
300
1/4" = 1'-0"
140
0.25
141
12.0
290
     0
  0
SCALE
  5
55
102
{ACAD_REACTORS
330
3B
102
}
330
3B
100
AcDbScale
 70
     0
300
3/8" = 1'-0"
140
0.375
141
12.0
290
     0
  0
SCALE
  5
56
102
{ACAD_REACTORS
330
3B
102
}
330
3B
100
AcDbScale
 70
     0
300
1/2" = 1'-0"
140
0.5
141
12.0
290
     0
  0
SCALE
  5
57
102
{ACAD_REACTORS
330
3B
102
}
330
3B
100
AcDbScale
 70
     0
300
3/4" = 1'-0"
140
0.75
141
12.0
290
     0
  0
SCALE
  5
58
102
{ACAD_REACTORS
330
3B
102
}
330
3B
100
AcDbScale
 70
     0
300
1" = 1'-0"
140
1.0
141
12.0
290
     0
  0
SCALE
  5
59
102
{ACAD_REACTORS
330
3B
102
}
330
3B
100
AcDbScale
 70
     0
300
1-1/2" = 1'-0"
140
1.5
141
12.0
290
     0
  0
SCALE
  5
5A
102
{ACAD_REACTORS
330
3B
102
}
330
3B
100
AcDbScale
 70
     0
300
3" = 1'-0"
140
3.0
141
12.0
290
     0
  0
SCALE
  5
5B
102
{ACAD_REACTORS
330
3B
102
}
330
3B
100
AcDbScale
 70
     0
300
6" = 1'-0"
140
6.0
141
12.0
290
     0
  0
SCALE
  5
5C
102
{ACAD_REACTORS
330
3B
102
}
330
3B
100
AcDbScale
 70
     0
300
1'-0" = 1'-0"
140
12.0
141
12.0
290
     0
  0
VISUALSTYLE
  5
2F
102
{ACAD_REACTORS
330
2A
102
}
330
2A
100
AcDbVisualStyle
  2
2dWireframe
 70
     4
 71
     0
 72
     2
 73
     0
 90
        0
 40
-0.6
 41
-30.0
 62
     5
 63
     7
 74
     1
 91
        4
 64
     7
 65
   257
 75
     1
175
     1
 42
1.0
 92
        0
 66
   257
 43
1.0
 76
     1
 77
     6
 78
     2
 67
     7
 79
     5
170
     0
171
     0
290
     0
174
     0
 93
        1
 44
0.0
173
     0
291
     0
 45
0.0
1001
ACAD
1000
AcDbSavedByObjectVersion
1070
     0
  0
VISUALSTYLE
  5
31
102
{ACAD_REACTORS
330
2A
102
}
330
2A
100
AcDbVisualStyle
  2
3D Hidden
 70
     6
 71
     1
 72
     2
 73
     2
 90
        0
 40
-0.6
 41
-30.0
 62
     5
 63
     7
 74
     2
 91
        2
 64
     7
 65
   257
 75
     2
175
     1
 42
40.0
 92
        0
 66
   257
 43
1.0
 76
     1
 77
     6
 78
     2
 67
     7
 79
     3
170
     0
171
     0
290
     0
174
     0
 93
        1
 44
0.0
173
     0
291
     0
 45
0.0
1001
ACAD
1000
AcDbSavedByObjectVersion
1070
     0
  0
VISUALSTYLE
  5
30
102
{ACAD_REACTORS
330
2A
102
}
330
2A
100
AcDbVisualStyle
  2
3dWireframe
 70
     5
 71
     0
 72
     2
 73
     0
 90
        0
 40
-0.6
 41
-30.0
 62
     5
 63
     7
 74
     1
 91
        4
 64
     7
 65
   257
 75
     1
175
     1
 42
1.0
 92
        0
 66
   257
 43
1.0
 76
     1
 77
     6
 78
     2
 67
     7
 79
     5
170
     0
171
     0
290
     0
174
     0
 93
        1
 44
0.0
173
     0
291
     0
 45
0.0
1001
ACAD
1000
AcDbSavedByObjectVersion
1070
     0
  0
VISUALSTYLE
  5
32
102
{ACAD_REACTORS
330
2A
102
}
330
2A
100
AcDbVisualStyle
  2
Basic
 70
     7
 71
     1
 72
     0
 73
     1
 90
        0
 40
-0.6
 41
-30.0
 62
     5
 63
     7
 74
     0
 91
        4
 64
     7
 65
   257
 75
     1
175
     1
 42
1.0
 92
        8
 66
     7
 43
1.0
 76
     1
 77
     6
 78
     2
 67
     7
 79
     5
170
     0
171
     0
290
     0
174
     0
 93
        1
 44
0.0
173
     0
291
     1
 45
0.0
1001
ACAD
1000
AcDbSavedByObjectVersion
1070
     0
  0
VISUALSTYLE
  5
36
102
{ACAD_REACTORS
330
2A
102
}
330
2A
100
AcDbVisualStyle
  2
Brighten
 70
    12
 71
     2
 72
     2
 73
     0
 90
        0
 40
-0.6
 41
-30.0
 62
     5
 63
     7
 74
     1
 91
        4
 64
     7
 65
   257
 75
     1
175
     1
 42
1.0
 92
        8
 66
     7
 43
1.0
 76
     1
 77
     6
 78
     2
 67
     7
 79
     5
170
     0
171
     0
290
     0
174
     0
 93
        1
 44
50.0
173
     0
291
     1
 45
0.0
1001
ACAD
1000
AcDbSavedByObjectVersion
1070
     0
  0
VISUALSTYLE
  5
3A
102
{ACAD_REACTORS
330
2A
102
}
330
2A
100
AcDbVisualStyle
  2
ColorChange
 70
    16
 71
     2
 72
     2
 73
     3
 90
        0
 40
-0.6
 41
-30.0
 62
     5
 63
     8
 74
     1
 91
        4
 64
     7
 65
   257
 75
     1
175
     1
 42
1.0
 92
        8
 66
     8
 43
1.0
 76
     1
 77
     6
 78
     2
 67
     7
 79
     5
170
     0
171
     0
290
     0
174
     0
 93
        1
 44
0.0
173
     0
291
     1
 45
0.0
1001
ACAD
1000
AcDbSavedByObjectVersion
1070
     0
  0
VISUALSTYLE
  5
34
102
{ACAD_REACTORS
330
2A
102
}
330
2A
100
AcDbVisualStyle
  2
Conceptual
 70
     9
 71
     3
 72
     2
 73
     0
 90
        0
 40
-0.6
 41
-30.0
 62
     5
 63
     7
 74
     2
 91
        2
 64
     7
 65
   257
 75
     1
175
     1
 42
40.0
 92
        8
 66
     7
 43
1.0
 76
     1
 77
     6
 78
     2
 67
     7
 79
     3
170
     0
171
     0
290
     0
174
     0
 93
        1
 44
0.0
173
     0
291
     0
 45
0.0
1001
ACAD
1000
AcDbSavedByObjectVersion
1070
     0
  0
VISUALSTYLE
  5
35
102
{ACAD_REACTORS
330
2A
102
}
330
2A
100
AcDbVisualStyle
  2
Dim
 70
    11
 71
     2
 72
     2
 73
     0
 90
        0
 40
-0.6
 41
-30.0
 62
     5
 63
     7
 74
     1
 91
        4
 64
     7
 65
   257
 75
     1
175
     1
 42
1.0
 92
        8
 66
     7
 43
1.0
 76
     1
 77
     6
 78
     2
 67
     7
 79
     5
170
     0
171
     0
290
     0
174
     0
 93
        1
 44
-50.0
173
     0
291
     1
 45
0.0
1001
ACAD
1000
AcDbSavedByObjectVersion
1070
     0
  0
VISUALSTYLE
  5
39
102
{ACAD_REACTORS
330
2A
102
}
330
2A
100
AcDbVisualStyle
  2
Facepattern
 70
    15
 71
     2
 72
     2
 73
     0
 90
        0
 40
-0.6
 41
-30.0
 62
     5
 63
     7
 74
     1
 91
        4
 64
     7
 65
   257
 75
     1
175
     1
 42
1.0
 92
        8
 66
     7
 43
1.0
 76
     1
 77
     6
 78
     2
 67
     7
 79
     5
170
     0
171
     0
290
     0
174
     0
 93
        1
 44
0.0
173
     0
291
     1
 45
0.0
1001
ACAD
1000
AcDbSavedByObjectVersion
1070
     0
  0
VISUALSTYLE
  5
2B
102
{ACAD_REACTORS
330
2A
102
}
330
2A
100
AcDbVisualStyle
  2
Flat
 70
     0
 71
     2
 72
     1
 73
     1
 90
        2
 40
-0.6
 41
30.0
 62
     5
 63
     7
 74
     0
 91
        4
 64
     7
 65
   257
 75
     1
175
     1
 42
1.0
 92
        8
 66
     7
 43
1.0
 76
     1
 77
     6
 78
     2
 67
     7
 79
     5
170
     0
171
     0
290
     0
174
     0
 93
       13
 44
0.0
173
     0
291
     1
 45
0.0
1001
ACAD
1000
AcDbSavedByObjectVersion
1070
     0
  0
VISUALSTYLE
  5
2C
102
{ACAD_REACTORS
330
2A
102
}
330
2A
100
AcDbVisualStyle
  2
FlatWithEdges
 70
     1
 71
     2
 72
     1
 73
     1
 90
        2
 40
-0.6
 41
30.0
 62
     5
 63
     7
 74
     1
 91
        4
 64
     7
 65
   257
 75
     1
175
     1
 42
1.0
 92
        0
 66
   257
 43
1.0
 76
     1
 77
     6
 78
     2
 67
     7
 79
     5
170
     0
171
     0
290
     0
174
     0
 93
       13
 44
0.0
173
     0
291
     1
 45
0.0
1001
ACAD
1000
AcDbSavedByObjectVersion
1070
     0
  0
VISUALSTYLE
  5
2D
102
{ACAD_REACTORS
330
2A
102
}
330
2A
100
AcDbVisualStyle
  2
Gouraud
 70
     2
 71
     2
 72
     2
 73
     1
 90
        2
 40
-0.6
 41
30.0
 62
     5
 63
     7
 74
     0
 91
        4
 64
     7
 65
   257
 75
     1
175
     1
 42
1.0
 92
        0
 66
     7
 43
1.0
 76
     1
 77
     6
 78
     2
 67
     7
 79
     5
170
     0
171
     0
290
     0
174
     0
 93
       13
 44
0.0
173
     0
291
     1
 45
0.0
1001
ACAD
1000
AcDbSavedByObjectVersion
1070
     0
  0
VISUALSTYLE
  5
2E
102
{ACAD_REACTORS
330
2A
102
}
330
2A
100
AcDbVisualStyle
  2
GouraudWithEdges
 70
     3
 71
     2
 72
     2
 73
     1
 90
        2
 40
-0.6
 41
30.0
 62
     5
 63
     7
 74
     1
 91
        4
 64
     7
 65
   257
 75
     1
175
     1
 42
1.0
 92
        0
 66
   257
 43
1.0
 76
     1
 77
     6
 78
     2
 67
     7
 79
     5
170
     0
171
     0
290
     0
174
     0
 93
       13
 44
0.0
173
     0
291
     1
 45
0.0
1001
ACAD
1000
AcDbSavedByObjectVersion
1070
     0
  0
VISUALSTYLE
  5
38
102
{ACAD_REACTORS
330
2A
102
}
330
2A
100
AcDbVisualStyle
  2
Linepattern
 70
    14
 71
     2
 72
     2
 73
     0
 90
        0
 40
-0.6
 41
-30.0
 62
     5
 63
     7
 74
     1
 91
        4
 64
     7
 65
   257
 75
     7
175
     7
 42
1.0
 92
        8
 66
     7
 43
1.0
 76
     1
 77
     6
 78
     2
 67
     7
 79
     5
170
     0
171
     0
290
     0
174
     0
 93
        1
 44
0.0
173
     0
291
     1
 45
0.0
1001
ACAD
1000
AcDbSavedByObjectVersion
1070
     0
  0
VISUALSTYLE
  5
33
102
{ACAD_REACTORS
330
2A
102
}
330
2A
100
AcDbVisualStyle
  2
Realistic
 70
     8
 71
     2
 72
     2
 73
     0
 90
        0
 40
-0.6
 41
-30.0
 62
     5
 63
     7
 74
     1
 91
        0
 64
     7
 65
   257
 75
     1
175
     1
 42
1.0
 92
        8
 66
     8
 43
1.0
 76
     1
 77
     6
 78
     2
 67
     7
 79
     5
170
     0
171
     0
290
     0
174
     0
 93
       13
 44
0.0
173
     0
291
     0
 45
0.0
1001
ACAD
1000
AcDbSavedByObjectVersion
1070
     0
  0
VISUALSTYLE
  5
37
102
{ACAD_REACTORS
330
2A
102
}
330
2A
100
AcDbVisualStyle
  2
Thicken
 70
    13
 71
     2
 72
     2
 73
     0
 90
        0
 40
-0.6
 41
-30.0
 62
     5
 63
     7
 74
     1
 91
        4
 64
     7
 65
   257
 75
     1
175
     1
 42
1.0
 92
       12
 66
     7
 43
1.0
 76
     1
 77
     6
 78
     2
 67
     7
 79
     5
170
     0
171
     0
290
     0
174
     0
 93
        1
 44
0.0
173
     0
291
     1
 45
0.0
1001
ACAD
1000
AcDbSavedByObjectVersion
1070
     0
  0
DICTIONARYVAR
  5
216
102
{ACAD_REACTORS
330
215
102
}
330
215
100
DictionaryVariables
280
     0
  1
1:1
  0
DICTIONARYVAR
  5
21A
102
{ACAD_REACTORS
330
215
102
}
330
215
100
DictionaryVariables
280
     0
  1
80.000000
  0
DICTIONARYVAR
  5
219
102
{ACAD_REACTORS
330
215
102
}
330
215
100
DictionaryVariables
280
     0
  1
5.000000
  0
ENDSEC
  0
EOF
