  0
SECTION
  2
HEADER
  9
$ACADVER
  1
AC1015
  9
$ACADMAINTVER
 70
     6
  9
$DWGCODEPAGE
  3
ANSI_1252
  9
$INSBASE
 10
0.0
 20
0.0
 30
0.0
  9
$EXTMIN
 10
0.0
 20
0.0
 30
0.0
  9
$EXTMAX
 10
3000.0
 20
4500.0
 30
0.0
  9
$LIMMIN
 10
0.0
 20
0.0
  9
$LIMMAX
 10
3000.0
 20
4500.0
  9
$ORTHOMODE
 70
     0
  9
$REGENMODE
 70
     1
  9
$FILLMODE
 70
     1
  9
$QTEXTMODE
 70
     0
  9
$MIRRTEXT
 70
     1
  9
$LTSCALE
 40
1.0
  9
$ATTMODE
 70
     1
  9
$TEXTSIZE
 40
2.5
  9
$TRACEWID
 40
1.0
  9
$TEXTSTYLE
  7
Standard
  9
$CLAYER
  8
0
  9
$CELTYPE
  6
ByLayer
  9
$CECOLOR
 62
   256
  9
$CELTSCALE
 40
1.0
  9
$DISPSILH
 70
     0
  9
$DIMSCALE
 40
1.0
  9
$DIMASZ
 40
2.5
  9
$DIMEXO
 40
0.625
  9
$DIMDLI
 40
3.75
  9
$DIMRND
 40
0.0
  9
$DIMDLE
 40
0.0
  9
$DIMEXE
 40
1.25
  9
$DIMTP
 40
0.0
  9
$DIMTM
 40
0.0
  9
$DIMTXT
 40
2.5
  9
$DIMCEN
 40
2.5
  9
$DIMTSZ
 40
0.0
  9
$DIMTOL
 70
     0
  9
$DIMLIM
 70
     0
  9
$DIMTIH
 70
     0
  9
$DIMTOH
 70
     0
  9
$DIMSE1
 70
     0
  9
$DIMSE2
 70
     0
  9
$DIMTAD
 70
     1
  9
$DIMZIN
 70
     8
  9
$DIMBLK
  1

  9
$DIMASO
 70
     1
  9
$DIMSHO
 70
     1
  9
$DIMPOST
  1

  9
$DIMAPOST
  1

  9
$DIMALT
 70
     0
  9
$DIMALTD
 70
     3
  9
$DIMALTF
 40
0.0393700787
  9
$DIMLFAC
 40
1.0
  9
$DIMTOFL
 70
     1
  9
$DIMTVP
 40
0.0
  9
$DIMTIX
 70
     0
  9
$DIMSOXD
 70
     0
  9
$DIMSAH
 70
     0
  9
$DIMBLK1
  1

  9
$DIMBLK2
  1

  9
$DIMSTYLE
  2
ISO-25
  9
$DIMCLRD
 70
     0
  9
$DIMCLRE
 70
     0
  9
$DIMCLRT
 70
     0
  9
$DIMTFAC
 40
1.0
  9
$DIMGAP
 40
0.625
  9
$DIMJUST
 70
     0
  9
$DIMSD1
 70
     0
  9
$DIMSD2
 70
     0
  9
$DIMTOLJ
 70
     0
  9
$DIMTZIN
 70
     8
  9
$DIMALTZ
 70
     0
  9
$DIMALTTZ
 70
     0
  9
$DIMUPT
 70
     0
  9
$DIMDEC
 70
     2
  9
$DIMTDEC
 70
     2
  9
$DIMALTU
 70
     2
  9
$DIMALTTD
 70
     3
  9
$DIMTXSTY
  7
Standard
  9
$DIMAUNIT
 70
     0
  9
$DIMADEC
 70
     0
  9
$DIMALTRND
 40
0.0
  9
$DIMAZIN
 70
     0
  9
$DIMDSEP
 70
    44
  9
$DIMATFIT
 70
     3
  9
$DIMFRAC
 70
     0
  9
$DIMLDRBLK
  1

  9
$DIMLUNIT
 70
     2
  9
$DIMLWD
 70
    -2
  9
$DIMLWE
 70
    -2
  9
$DIMTMOVE
 70
     0
  9
$LUNITS
 70
     2
  9
$LUPREC
 70
     4
  9
$SKETCHINC
 40
1.0
  9
$FILLETRAD
 40
10.0
  9
$AUNITS
 70
     0
  9
$AUPREC
 70
     0
  9
$MENU
  1
.
  9
$ELEVATION
 40
0.0
  9
$PELEVATION
 40
0.0
  9
$THICKNESS
 40
0.0
  9
$LIMCHECK
 70
     0
  9
$CHAMFERA
 40
10.0
  9
$CHAMFERB
 40
10.0
  9
$CHAMFERC
 40
20.0
  9
$CHAMFERD
 40
0.0
  9
$SKPOLY
 70
     0
  9
$TDCREATE
 40
2456142.508415417
  9
$TDUCREATE
 40
2456142.425082083
  9
$TDUPDATE
 40
2456142.508415428
  9
$TDUUPDATE
 40
2456142.425082095
  9
$TDINDWG
 40
0.0000000116
  9
$TDUSRTIMER
 40
0.0000000116
  9
$USRTIMER
 70
     1
  9
$ANGBASE
 50
0.0
  9
$ANGDIR
 70
     0
  9
$PDMODE
 70
     0
  9
$PDSIZE
 40
0.0
  9
$PLINEWID
 40
0.0
  9
$SPLFRAME
 70
     0
  9
$SPLINETYPE
 70
     6
  9
$SPLINESEGS
 70
     8
  9
$HANDSEED
  5
137
  9
$SURFTAB1
 70
     6
  9
$SURFTAB2
 70
     6
  9
$SURFTYPE
 70
     6
  9
$SURFU
 70
     6
  9
$SURFV
 70
     6
  9
$UCSBASE
  2

  9
$UCSNAME
  2

  9
$UCSORG
 10
0.0
 20
0.0
 30
0.0
  9
$UCSXDIR
 10
1.0
 20
0.0
 30
0.0
  9
$UCSYDIR
 10
0.0
 20
1.0
 30
0.0
  9
$UCSORTHOREF
  2

  9
$UCSORTHOVIEW
 70
     0
  9
$UCSORGTOP
 10
0.0
 20
0.0
 30
0.0
  9
$UCSORGBOTTOM
 10
0.0
 20
0.0
 30
0.0
  9
$UCSORGLEFT
 10
0.0
 20
0.0
 30
0.0
  9
$UCSORGRIGHT
 10
0.0
 20
0.0
 30
0.0
  9
$UCSORGFRONT
 10
0.0
 20
0.0
 30
0.0
  9
$UCSORGBACK
 10
0.0
 20
0.0
 30
0.0
  9
$PUCSBASE
  2

  9
$PUCSNAME
  2

  9
$PUCSORG
 10
0.0
 20
0.0
 30
0.0
  9
$PUCSXDIR
 10
1.0
 20
0.0
 30
0.0
  9
$PUCSYDIR
 10
0.0
 20
1.0
 30
0.0
  9
$PUCSORTHOREF
  2

  9
$PUCSORTHOVIEW
 70
     0
  9
$PUCSORGTOP
 10
0.0
 20
0.0
 30
0.0
  9
$PUCSORGBOTTOM
 10
0.0
 20
0.0
 30
0.0
  9
$PUCSORGLEFT
 10
0.0
 20
0.0
 30
0.0
  9
$PUCSORGRIGHT
 10
0.0
 20
0.0
 30
0.0
  9
$PUCSORGFRONT
 10
0.0
 20
0.0
 30
0.0
  9
$PUCSORGBACK
 10
0.0
 20
0.0
 30
0.0
  9
$USERI1
 70
     0
  9
$USERI2
 70
     0
  9
$USERI3
 70
     0
  9
$USERI4
 70
     0
  9
$USERI5
 70
     0
  9
$USERR1
 40
0.0
  9
$USERR2
 40
0.0
  9
$USERR3
 40
0.0
  9
$USERR4
 40
0.0
  9
$USERR5
 40
0.0
  9
$WORLDVIEW
 70
     1
  9
$SHADEDGE
 70
     3
  9
$SHADEDIF
 70
    70
  9
$TILEMODE
 70
     1
  9
$MAXACTVP
 70
    64
  9
$PINSBASE
 10
0.0
 20
0.0
 30
0.0
  9
$PLIMCHECK
 70
     0
  9
$PEXTMIN
 10
0.0
 20
0.0
 30
0.0
  9
$PEXTMAX
 10
3000.0
 20
4500.0
 30
0.0
  9
$PLIMMIN
 10
0.0
 20
0.0
  9
$PLIMMAX
 10
3000.0
 20
4500.0
  9
$UNITMODE
 70
     0
  9
$VISRETAIN
 70
     1
  9
$PLINEGEN
 70
     0
  9
$PSLTSCALE
 70
     1
  9
$TREEDEPTH
 70
  3020
  9
$CMLSTYLE
  2
Standard
  9
$CMLJUST
 70
     0
  9
$CMLSCALE
 40
20.0
  9
$PROXYGRAPHICS
 70
     1
  9
$MEASUREMENT
 70
     1
  9
$CELWEIGHT
370
    -1
  9
$ENDCAPS
280
     0
  9
$JOINSTYLE
280
     0
  9
$LWDISPLAY
290
     0
  9
$INSUNITS
 70
     4
  9
$HYPERLINKBASE
  1

  9
$STYLESHEET
  1

  9
$XEDIT
290
     1
  9
$CEPSNTYPE
380
     0
  9
$PSTYLEMODE
290
     1
  9
$FINGERPRINTGUID
  2
{ED9A5F31-92E7-49A4-8CD8-33AF7BD02128}
  9
$VERSIONGUID
  2
{FAEB1C32-E019-11D5-929B-00C0DF256EC4}
  9
$EXTNAMES
290
     1
  9
$PSVPSCALE
 40
0.0
  9
$OLESTARTUP
290
     0
  0
ENDSEC
  0
SECTION
  2
CLASSES
  0
CLASS
  1
ACDBDICTIONARYWDFLT
  2
AcDbDictionaryWithDefault
  3
ObjectDBX Classes
 90
        0
280
     0
281
     0
  0
CLASS
  1
VISUALSTYLE
  2
AcDbVisualStyle
  3
ObjectDBX Classes
 90
     4095
280
     0
281
     0
  0
CLASS
  1
SCALE
  2
AcDbScale
  3
ObjectDBX Classes
 90
     1153
280
     0
281
     0
  0
CLASS
  1
DICTIONARYVAR
  2
AcDbDictionaryVar
  3
ObjectDBX Classes
 90
        0
280
     0
281
     0
  0
CLASS
  1
ACDBPLACEHOLDER
  2
AcDbPlaceHolder
  3
ObjectDBX Classes
 90
        0
280
     0
281
     0
  0
CLASS
  1
LAYOUT
  2
AcDbLayout
  3
ObjectDBX Classes
 90
        0
280
     0
281
     0
  0
ENDSEC
  0
SECTION
  2
TABLES
  0
TABLE
  2
VPORT
  5
8
330
0
100
AcDbSymbolTable
 70
     1
  0
VPORT
  5
29
330
8
100
AcDbSymbolTableRecord
100
AcDbViewportTableRecord
  2
*Active
 70
     0
 10
0.0
 20
0.0
 11
1.0
 21
1.0
 12
344.1869158879
 22
148.5
 13
0.0
 23
0.0
 14
10.0
 24
10.0
 15
10.0
 25
10.0
 16
0.0
 26
0.0
 36
1.0
 17
0.0
 27
0.0
 37
0.0
 40
297.0
 41
1.9729729729
 42
50.0
 43
0.0
 44
0.0
 50
0.0
 51
0.0
 71
     0
 72
   100
 73
     1
 74
     3
 75
     0
 76
     0
 77
     0
 78
     0
281
     0
 65
     1
110
0.0
120
0.0
130
0.0
111
1.0
121
0.0
131
0.0
112
0.0
122
1.0
132
0.0
 79
     0
146
0.0
  0
ENDTAB
  0
TABLE
  2
LTYPE
  5
5
330
0
100
AcDbSymbolTable
 70
     2
  0
LTYPE
  5
14
330
5
100
AcDbSymbolTableRecord
100
AcDbLinetypeTableRecord
  2
ByBlock
 70
     0
  3

 72
    65
 73
     0
 40
0.0
  0
LTYPE
  5
15
330
5
100
AcDbSymbolTableRecord
100
AcDbLinetypeTableRecord
  2
ByLayer
 70
     0
  3

 72
    65
 73
     0
 40
0.0
  0
LTYPE
  5
16
330
5
100
AcDbSymbolTableRecord
100
AcDbLinetypeTableRecord
  2
Continuous
 70
     0
  3
Solid line
 72
    65
 73
     0
 40
0.0
  0
LTYPE
  5
60
330
5
100
AcDbSymbolTableRecord
100
AcDbLinetypeTableRecord
  2
CENTER2
 70
     0
  3
Center (.5x) ___ _ ___ _ ___ _ ___ _ ___ _ ___
 72
    65
 73
     4
 40
28.575
 49
19.05
 74
     4
 75
     0
340
0
 46
0.0
 50
0.0
 44
0.0
 45
0.0
 49
-3.175
 74
     4
 75
     0
340
0
 46
0.0
 50
0.0
 44
0.0
 45
0.0
 49
3.175
 74
     4
 75
     0
340
0
 46
0.0
 50
0.0
 44
0.0
 45
0.0
 49
-3.175
 74
     4
 75
     0
340
0
 46
0.0
 50
0.0
 44
0.0
 45
0.0
  0
ENDTAB
  0
TABLE
  2
LAYER
  5
2
330
0
100
AcDbSymbolTable
 70
     5
  0
LAYER
  5
10
330
2
100
AcDbSymbolTableRecord
100
AcDbLayerTableRecord
  2
0
 70
     0
 62
     7
  6
Continuous
370
    -3
390
F
  0
LAYER
  5
5D
330
2
100
AcDbSymbolTableRecord
100
AcDbLayerTableRecord
  2
Default
 70
     0
 62
     7
  6
Continuous
370
    -3
390
F
  0
LAYER
  5
6D
330
2
100
AcDbSymbolTableRecord
100
AcDbLayerTableRecord
  2
DV1_Default
 70
     0
 62
     7
  6
Continuous
370
    -3
390
F
  0
LAYER
  5
C1
330
2
100
AcDbSymbolTableRecord
100
AcDbLayerTableRecord
  2
DV2_Default
 70
     0
 62
     7
  6
Continuous
370
    -3
390
F
  0
LAYER
  5
F1
330
2
100
AcDbSymbolTableRecord
100
AcDbLayerTableRecord
  2
DV3_Default
 70
     0
 62
     7
  6
Continuous
370
    -3
390
F
  0
ENDTAB
  0
TABLE
  2
STYLE
  5
3
330
0
100
AcDbSymbolTable
 70
     2
  0
STYLE
  5
11
330
3
100
AcDbSymbolTableRecord
100
AcDbTextStyleTableRecord
  2
Standard
 70
     0
 40
0.0
 41
1.0
 50
0.0
 71
     0
 42
2.5
  3
txt
  4

  0
STYLE
  5
126
330
3
100
AcDbSymbolTableRecord
100
AcDbTextStyleTableRecord
  2
SEACAD_seiso_ttf
 70
     0
 40
0.0
 41
1.0
 50
0.0
 71
     0
 42
0.2
  3
seiso.ttf
  4

  0
ENDTAB
  0
TABLE
  2
VIEW
  5
6
330
0
100
AcDbSymbolTable
 70
     0
  0
ENDTAB
  0
TABLE
  2
UCS
  5
7
330
0
100
AcDbSymbolTable
 70
     0
  0
ENDTAB
  0
TABLE
  2
APPID
  5
9
330
0
100
AcDbSymbolTable
 70
     1
  0
APPID
  5
12
330
9
100
AcDbSymbolTableRecord
100
AcDbRegAppTableRecord
  2
ACAD
 70
     0
  0
ENDTAB
  0
TABLE
  2
DIMSTYLE
  5
A
330
0
100
AcDbSymbolTable
 70
     1
100
AcDbDimStyleTable
  0
DIMSTYLE
105
27
330
A
100
AcDbSymbolTableRecord
100
AcDbDimStyleTableRecord
  2
ISO-25
 70
     0
 41
2.5
 42
0.625
 43
3.75
 44
1.25
 73
     0
 74
     0
 77
     1
 78
     8
140
2.5
141
2.5
143
0.0393700787
147
0.625
171
     3
172
     1
271
     2
272
     2
274
     3
278
    44
283
     0
284
     8
340
11
  0
ENDTAB
  0
TABLE
  2
BLOCK_RECORD
  5
1
330
0
100
AcDbSymbolTable
 70
     6
  0
BLOCK_RECORD
  5
1F
330
1
100
AcDbSymbolTableRecord
100
AcDbBlockTableRecord
  2
*Model_Space
340
22
  0
BLOCK_RECORD
  5
1B
330
1
100
AcDbSymbolTableRecord
100
AcDbBlockTableRecord
  2
*Paper_Space
340
1E
  0
BLOCK_RECORD
  5
5E
330
1
100
AcDbSymbolTableRecord
100
AcDbBlockTableRecord
  2
SEANNOT_GROUP
340
0
102
{BLKREFS
331
5F
102
}
  0
BLOCK_RECORD
  5
65
330
1
100
AcDbSymbolTableRecord
100
AcDbBlockTableRecord
  2
SEANNOT_GROUP1
340
0
102
{BLKREFS
331
66
102
}
  0
BLOCK_RECORD
  5
6B
330
1
100
AcDbSymbolTableRecord
100
AcDbBlockTableRecord
  2
SE
340
0
102
{BLKREFS
331
6C
102
}
  0
BLOCK_RECORD
  5
BF
330
1
100
AcDbSymbolTableRecord
100
AcDbBlockTableRecord
  2
SE1
340
0
102
{BLKREFS
331
C0
102
}
  0
BLOCK_RECORD
  5
EF
330
1
100
AcDbSymbolTableRecord
100
AcDbBlockTableRecord
  2
SE2
340
0
102
{BLKREFS
331
F0
102
}
  0
ENDTAB
  0
ENDSEC
  0
SECTION
  2
BLOCKS
  0
BLOCK
  5
20
330
1F
100
AcDbEntity
  8
0
100
AcDbBlockBegin
  2
*Model_Space
 70
     0
 10
0.0
 20
0.0
 30
0.0
  3
*Model_Space
  1

  0
ENDBLK
  5
21
330
1F
100
AcDbEntity
  8
0
100
AcDbBlockEnd
  0
BLOCK
  5
1C
330
1B
100
AcDbEntity
 67
     1
  8
0
100
AcDbBlockBegin
  2
*Paper_Space
 70
     0
 10
0.0
 20
0.0
 30
0.0
  3
*Paper_Space
  1

  0
ENDBLK
  5
1D
330
1B
100
AcDbEntity
 67
     1
  8
0
100
AcDbBlockEnd
  0
BLOCK
  5
63
330
5E
100
AcDbEntity
  8
0
100
AcDbBlockBegin
  2
SEANNOT_GROUP
 70
     0
 10
0.0
 20
0.0
 30
0.0
  3
SEANNOT_GROUP
  1

  0
LINE
  5
61
330
5E
100
AcDbEntity
  8
Default
  6
CENTER2
 62
     7
100
AcDbLine
 10
120.4746808841
 20
204.1877494602
 30
0.0
 11
80.4746817782
 21
204.1877494602
 31
0.0
  0
LINE
  5
62
330
5E
100
AcDbEntity
  8
Default
  6
CENTER2
 62
     7
100
AcDbLine
 10
100.4746813311
 20
224.1877490132
 30
0.0
 11
100.4746813311
 21
184.1877499073
 31
0.0
  0
ENDBLK
  5
64
330
5E
100
AcDbEntity
  8
0
100
AcDbBlockEnd
  0
BLOCK
  5
69
330
65
100
AcDbEntity
  8
0
100
AcDbBlockBegin
  2
SEANNOT_GROUP1
 70
     0
 10
0.0
 20
0.0
 30
0.0
  3
SEANNOT_GROUP1
  1

  0
LINE
  5
67
330
65
100
AcDbEntity
  8
Default
  6
CENTER2
 62
     7
100
AcDbLine
 10
359.3748098645
 20
413.4187061673
 30
0.0
 11
319.3748107586
 21
413.4187061673
 31
0.0
  0
LINE
  5
68
330
65
100
AcDbEntity
  8
Default
  6
CENTER2
 62
     7
100
AcDbLine
 10
339.3748103116
 20
433.4187057203
 30
0.0
 11
339.3748103116
 21
393.4187066144
 31
0.0
  0
ENDBLK
  5
6A
330
65
100
AcDbEntity
  8
0
100
AcDbBlockEnd
  0
BLOCK
  5
BD
330
6B
100
AcDbEntity
  8
0
100
AcDbBlockBegin
  2
SE
 70
     0
 10
0.0
 20
0.0
 30
0.0
  3
SE
  1

  0
LINE
  5
6E
330
6B
100
AcDbEntity
  8
DV1_Default
  6
Continuous
 62
     7
100
AcDbLine
 10
189.8877361372
 20
321.5813566212
 30
0.0
 11
105.2858174858
 21
321.5813566212
 31
0.0
  0
LINE
  5
6F
330
6B
100
AcDbEntity
  8
DV1_Default
  6
Continuous
 62
     7
100
AcDbLine
 10
10.6838988345
 20
503.5813566212
 30
0.0
 11
189.8877361372
 21
503.5813566212
 31
0.0
  0
LINE
  5
70
330
6B
100
AcDbEntity
  8
DV1_Default
  6
Continuous
 62
     7
100
AcDbLine
 10
191.2858174858
 20
502.1832752725
 30
0.0
 11
191.2858174858
 21
322.9794379699
 31
0.0
  0
LINE
  5
71
330
6B
100
AcDbEntity
  8
DV1_Default
  6
Continuous
 62
     7
100
AcDbLine
 10
9.2858174858
 20
322.9794379699
 30
0.0
 11
9.2858174858
 21
502.1832752725
 31
0.0
  0
ELLIPSE
  5
72
330
6B
100
AcDbEntity
  8
DV1_Default
  6
Continuous
 62
     7
100
AcDbEllipse
 10
189.8838962014
 20
502.1794353368
 30
0.0
 11
-0.9926647408090936
 21
-0.9926647408090936
 31
0.0
210
0.0
220
0.0
230
0.9999999999999998
 40
0.9972646886
 41
2.357564018062659
 42
3.925621289116927
  0
ELLIPSE
  5
73
330
6B
100
AcDbEntity
  8
DV1_Default
  6
Continuous
 62
     7
100
AcDbEllipse
 10
189.8838962014
 20
322.9832779056
 30
0.0
 11
-0.9926647408090936
 21
0.9926647408090936
 31
0.0
210
0.0
220
0.0
230
0.9999999999999998
 40
0.9972646886
 41
2.35756401806274
 42
3.925621289116805
  0
ELLIPSE
  5
74
330
6B
100
AcDbEntity
  8
DV1_Default
  6
Continuous
 62
     7
100
AcDbEllipse
 10
10.6877387702
 20
502.1794353368
 30
0.0
 11
0.9926647408090936
 21
-0.9926647408090936
 31
0.0
210
0.0
220
0.0
230
0.9999999999999998
 40
0.9972646886
 41
2.35756401806265
 42
3.925621289116917
  0
ELLIPSE
  5
75
330
6B
100
AcDbEntity
  8
DV1_Default
  6
Continuous
 62
     7
100
AcDbEllipse
 10
10.6877387702
 20
322.9832779056
 30
0.0
 11
0.9926647408090936
 21
0.9926647408090936
 31
0.0
210
0.0
220
0.0
230
0.9999999999999998
 40
0.9972646886
 41
2.357564018062791
 42
3.925621289116815
  0
LINE
  5
76
330
6B
100
AcDbEntity
  8
DV1_Default
  6
Continuous
 62
     7
100
AcDbLine
 10
190.114311738
 20
323.6516289503
 30
0.0
 11
190.114311738
 21
501.5110842921
 31
0.0
  0
LINE
  5
77
330
6B
100
AcDbEntity
  8
DV1_Default
  6
Continuous
 62
     7
100
AcDbLine
 10
189.2155451567
 20
502.4098508734
 30
0.0
 11
11.3560898149
 21
502.4098508734
 31
0.0
  0
LINE
  5
78
330
6B
100
AcDbEntity
  8
DV1_Default
  6
Continuous
 62
     7
100
AcDbLine
 10
11.3560898149
 20
322.752862369
 30
0.0
 11
189.2155451567
 21
322.752862369
 31
0.0
  0
LINE
  5
79
330
6B
100
AcDbEntity
  8
DV1_Default
  6
Continuous
 62
     7
100
AcDbLine
 10
10.4573232337
 20
501.5110842921
 30
0.0
 11
10.4573232337
 21
323.6516289503
 31
0.0
  0
LINE
  5
7A
330
6B
100
AcDbEntity
  8
DV1_Default
  6
Continuous
 62
     7
100
AcDbLine
 10
95.2858174858
 20
321.5813566212
 30
0.0
 11
10.6838988345
 21
321.5813566212
 31
0.0
  0
LINE
  5
7B
330
6B
100
AcDbEntity
  8
DV1_Default
  6
Continuous
 62
     7
100
AcDbLine
 10
95.2858174858
 20
321.5813566212
 30
0.0
 11
95.5238176132
 21
321.6278429127
 31
0.0
  0
LINE
  5
7C
330
6B
100
AcDbEntity
  8
DV1_Default
  6
Continuous
 62
     7
100
AcDbLine
 10
105.0478173584
 20
321.6278429127
 30
0.0
 11
105.2858174858
 21
321.5813566212
 31
0.0
  0
ELLIPSE
  5
7D
330
6B
100
AcDbEntity
  8
DV1_Default
  6
Continuous
 62
     7
100
AcDbEllipse
 10
103.598928619
 20
321.6075245993
 30
0.0
 11
1.500000000000002
 21
1.396963631775051E-14
 31
0.0
210
0.0
220
0.0
230
1.0
 40
0.0523359562
 41
0.2617993877993098
 42
1.570796326794896
  0
LINE
  5
7E
330
6B
100
AcDbEntity
  8
DV1_Default
  6
Continuous
 62
     7
100
AcDbLine
 10
96.9727063527
 20
321.6860285337
 30
0.0
 11
103.598928619
 21
321.6860285337
 31
0.0
  0
ELLIPSE
  5
7F
330
6B
100
AcDbEntity
  8
DV1_Default
  6
Continuous
 62
     7
100
AcDbEllipse
 10
96.9727063527
 20
321.6075245993
 30
0.0
 11
-1.499999999999999
 21
-9.184850993605141E-17
 31
0.0
210
0.0
220
0.0
230
1.0
 40
0.0523359562
 41
4.71238898038469
 42
6.021385919380394
  0
LINE
  5
80
330
6B
100
AcDbEntity
  8
DV1_Default
  6
Continuous
 62
     7
100
AcDbLine
 10
67.7858174858
 20
444.0813566212
 30
0.0
 11
67.7858174858
 21
381.0813566212
 31
0.0
  0
ARC
  5
81
330
6B
100
AcDbEntity
  8
DV1_Default
  6
Continuous
 62
     7
100
AcDbCircle
 10
68.7858174858
 20
444.0813566212
 30
0.0
 40
1.000000000000001
100
AcDbArc
 50
90.0
 51
180.0
  0
ARC
  5
82
330
6B
100
AcDbEntity
  8
DV1_Default
  6
Continuous
 62
     7
100
AcDbCircle
 10
68.7858174858
 20
381.0813566212
 30
0.0
 40
1.000000000000001
100
AcDbArc
 50
180.0
 51
270.0
  0
LINE
  5
83
330
6B
100
AcDbEntity
  8
DV1_Default
  6
Continuous
 62
     7
100
AcDbLine
 10
131.7858174858
 20
445.0813566212
 30
0.0
 11
68.7858174858
 21
445.0813566212
 31
0.0
  0
LINE
  5
84
330
6B
100
AcDbEntity
  8
DV1_Default
  6
Continuous
 62
     7
100
AcDbLine
 10
68.7858174858
 20
380.0813566212
 30
0.0
 11
97.2595803842
 21
380.0813566212
 31
0.0
  0
LINE
  5
85
330
6B
100
AcDbEntity
  8
DV1_Default
  6
Continuous
 62
     7
100
AcDbLine
 10
103.3120545874
 20
380.0813566212
 30
0.0
 11
131.7858174858
 21
380.0813566212
 31
0.0
  0
ARC
  5
86
330
6B
100
AcDbEntity
  8
DV1_Default
  6
Continuous
 62
     7
100
AcDbCircle
 10
131.7858174858
 20
444.0813566212
 30
0.0
 40
1.000000000000001
100
AcDbArc
 50
0.0
 51
90.0
  0
ARC
  5
87
330
6B
100
AcDbEntity
  8
DV1_Default
  6
Continuous
 62
     7
100
AcDbCircle
 10
131.7858174858
 20
381.0813566212
 30
0.0
 40
1.000000000000001
100
AcDbArc
 50
270.0
 51
0.0
  0
LINE
  5
88
330
6B
100
AcDbEntity
  8
DV1_Default
  6
Continuous
 62
     7
100
AcDbLine
 10
132.7858174858
 20
381.0813566212
 30
0.0
 11
132.7858174858
 21
444.0813566212
 31
0.0
  0
ELLIPSE
  5
89
330
6B
100
AcDbEntity
  8
DV1_Default
  6
Continuous
 62
     7
100
AcDbEllipse
 10
11.3585583451
 20
323.6540974804
 30
0.0
 11
0.6381416190915601
 21
0.6381416190915601
 31
0.0
210
0.0
220
0.0
230
0.9999999999999998
 40
0.9972646886
 41
2.357564018062683
 42
3.925621289116906
  0
ELLIPSE
  5
8A
330
6B
100
AcDbEntity
  8
DV1_Default
  6
Continuous
 62
     7
100
AcDbEllipse
 10
189.2130766266
 20
323.6540974804
 30
0.0
 11
-0.6381416190915601
 21
0.6381416190915601
 31
0.0
210
0.0
220
0.0
230
0.9999999999999998
 40
0.9972646886
 41
2.357564018062691
 42
3.925621289116895
  0
ELLIPSE
  5
8B
330
6B
100
AcDbEntity
  8
DV1_Default
  6
Continuous
 62
     7
100
AcDbEllipse
 10
189.2130766266
 20
501.508615762
 30
0.0
 11
-0.6381416190915601
 21
-0.6381416190915601
 31
0.0
210
0.0
220
0.0
230
0.9999999999999998
 40
0.9972646886
 41
2.357564018062785
 42
3.925621289116801
  0
ELLIPSE
  5
8C
330
6B
100
AcDbEntity
  8
DV1_Default
  6
Continuous
 62
     7
100
AcDbEllipse
 10
11.3585583451
 20
501.508615762
 30
0.0
 11
0.6381416190915601
 21
-0.6381416190915601
 31
0.0
210
0.0
220
0.0
230
0.9999999999999998
 40
0.9972646886
 41
2.357564018062679
 42
3.925621289116777
  0
LINE
  5
8D
330
6B
100
AcDbEntity
  8
DV1_Default
  6
Continuous
 62
     7
100
AcDbLine
 10
69.5375400135
 20
380.8331172258
 30
0.0
 11
96.3184073628
 21
380.8331172258
 31
0.0
  0
ARC
  5
8E
330
6B
100
AcDbEntity
  8
DV1_Default
  6
Continuous
 62
     7
100
AcDbCircle
 10
131.0340797289
 20
381.8330943781
 30
0.0
 40
0.9999771523887162
100
AcDbArc
 50
270.0008725893
 51
359.9991274107
  0
LINE
  5
8F
330
6B
100
AcDbEntity
  8
DV1_Default
  6
Continuous
 62
     7
100
AcDbLine
 10
132.0340568812
 20
381.8330791489
 30
0.0
 11
132.0340568812
 21
443.3296340935
 31
0.0
  0
ARC
  5
90
330
6B
100
AcDbEntity
  8
DV1_Default
  6
Continuous
 62
     7
100
AcDbCircle
 10
131.0340797289
 20
443.3296188643
 30
0.0
 40
0.9999771523887196
100
AcDbArc
 50
0.0008725893
 51
89.9991274107
  0
LINE
  5
91
330
6B
100
AcDbEntity
  8
DV1_Default
  6
Continuous
 62
     7
100
AcDbLine
 10
131.0340949581
 20
444.3295960166
 30
0.0
 11
69.5375400135
 21
444.3295960166
 31
0.0
  0
ARC
  5
92
330
6B
100
AcDbEntity
  8
DV1_Default
  6
Continuous
 62
     7
100
AcDbCircle
 10
69.5375552427
 20
443.3296188643
 30
0.0
 40
0.9999771523887232
100
AcDbArc
 50
90.0008725893
 51
179.9991274107
  0
LINE
  5
93
330
6B
100
AcDbEntity
  8
DV1_Default
  6
Continuous
 62
     7
100
AcDbLine
 10
68.5375780905
 20
443.3296340935
 30
0.0
 11
68.5375780905
 21
381.8330791489
 31
0.0
  0
ARC
  5
94
330
6B
100
AcDbEntity
  8
DV1_Default
  6
Continuous
 62
     7
100
AcDbCircle
 10
69.5375552427
 20
381.8330943781
 30
0.0
 40
0.9999771523887162
100
AcDbArc
 50
180.0008725893
 51
269.9991274107
  0
LINE
  5
95
330
6B
100
AcDbEntity
  8
DV1_Default
  6
Continuous
 62
     7
100
AcDbLine
 10
102.7814350127
 20
327.5813566212
 30
0.0
 11
102.6243513925
 21
327.5813566212
 31
0.0
  0
LINE
  5
96
330
6B
100
AcDbEntity
  8
DV1_Default
  6
Continuous
 62
     7
100
AcDbLine
 10
102.6243513925
 20
327.5813566212
 30
0.0
 11
97.9472835792
 21
327.5813566212
 31
0.0
  0
LINE
  5
97
330
6B
100
AcDbEntity
  8
DV1_Default
  6
Continuous
 62
     7
100
AcDbLine
 10
97.9472835792
 20
327.5813566212
 30
0.0
 11
97.7901999589
 21
327.5813566212
 31
0.0
  0
LINE
  5
98
330
6B
100
AcDbEntity
  8
DV1_Default
  6
Continuous
 62
     7
100
AcDbLine
 10
103.2814159743
 20
328.0813566212
 30
0.0
 11
103.2814159743
 21
379.8357962097
 31
0.0
  0
ELLIPSE
  5
99
330
6B
100
AcDbEntity
  8
DV1_Default
  6
Continuous
 62
     7
100
AcDbEllipse
 10
102.7814350127
 20
328.0813566212
 30
0.0
 11
0.0
 21
0.4999999999992042
 31
0.0
210
0.0
220
0.0
230
1.0
 40
1.0
 41
3.141592653589793
 42
4.71238898038469
  0
ELLIPSE
  5
9A
330
6B
100
AcDbEntity
  8
DV1_Default
  6
Continuous
 62
     7
100
AcDbEllipse
 10
97.7901999589
 20
328.0813566212
 30
0.0
 11
2.915667098417997E-12
 21
-0.4999999999998894
 31
0.0
210
0.0
220
0.0
230
1.0
 40
0.9999619231
 41
4.712388980378859
 42
6.283185307179586
  0
LINE
  5
9B
330
6B
100
AcDbEntity
  8
DV1_Default
  6
Continuous
 62
     7
100
AcDbLine
 10
97.2902189974
 20
379.8357962097
 30
0.0
 11
97.2902189974
 21
328.0813566212
 31
0.0
  0
LINE
  5
9C
330
6B
100
AcDbEntity
  8
DV1_Default
  6
Continuous
 62
     7
100
AcDbLine
 10
104.2532276089
 20
380.8331172258
 30
0.0
 11
131.0340949581
 21
380.8331172258
 31
0.0
  0
ARC
  5
9D
330
6B
100
AcDbEntity
  8
DV1_Default
  6
Continuous
 62
     7
100
AcDbCircle
 10
104.260669671
 20
379.8444436648
 30
0.0
 40
0.9887015699857795
100
AcDbArc
 50
90.4312755142
 51
101.8946335828
  0
ARC
  5
9E
330
6B
100
AcDbEntity
  8
DV1_Default
  6
Continuous
 62
     7
100
AcDbCircle
 10
104.2814540527
 20
379.8357200544
 30
0.0
 40
1.000038081285438
100
AcDbArc
 50
135.2484661727
 51
179.9956367876
  0
ARC
  5
9F
330
6B
100
AcDbEntity
  8
DV1_Default
  6
Continuous
 62
     7
100
AcDbCircle
 10
96.290180919
 20
379.8357200544
 30
0.0
 40
1.000038081285438
100
AcDbArc
 50
0.0043632124
 51
48.7833315414
  0
ELLIPSE
  5
A0
330
6B
100
AcDbEntity
  8
DV1_Default
  6
Continuous
 62
     7
100
AcDbEllipse
 10
96.3184073628
 20
379.8331553028
 30
0.0
 11
-0.04431872675810481
 21
-0.9990174425196646
 31
0.0
210
0.0
220
0.0
230
0.9999999999999999
 40
0.981159095
 41
2.985114080305318
 42
3.186776072089681
  0
ARC
  5
A1
330
6B
100
AcDbEntity
  8
DV1_Default
  6
Continuous
 62
     7
100
AcDbCircle
 10
104.2730944093
 20
379.8583663223
 30
0.0
 40
0.9759259134901991
100
AcDbArc
 50
93.7586013084
 51
135.8384766298
  0
LINE
  5
A2
330
6B
100
AcDbEntity
  8
DV1_Default
  6
Continuous
 62
     7
100
AcDbLine
 10
103.296477342
 20
379.8357768544
 30
0.0
 11
103.2962845493
 21
379.8744449551
 31
0.0
  0
ARC
  5
A3
330
6B
100
AcDbEntity
  8
DV1_Default
  6
Continuous
 62
     7
100
AcDbCircle
 10
96.445229191
 20
380.1368595546
 30
0.0
 40
0.6653402974591347
100
AcDbArc
 50
41.6169901621
 51
78.4658212056
  0
ARC
  5
A4
330
6B
100
AcDbEntity
  8
DV1_Default
  6
Continuous
 62
     7
100
AcDbCircle
 10
96.3268737935
 20
380.0976641719
 30
0.0
 40
0.735402211804359
100
AcDbArc
 50
70.0108233154
 51
87.223249608
  0
LINE
  5
A5
330
6B
100
AcDbEntity
  8
DV1_Default
  6
Continuous
 62
     7
100
AcDbLine
 10
104.2858174858
 20
383.3763774165
 30
0.0
 11
104.2858174858
 21
382.8813566212
 31
0.0
  0
LINE
  5
A6
330
6B
100
AcDbEntity
  8
DV1_Default
  6
Continuous
 62
     7
100
AcDbLine
 10
104.2858174858
 20
383.3763774165
 30
0.0
 11
96.2858174858
 21
383.3763774165
 31
0.0
  0
LINE
  5
A7
330
6B
100
AcDbEntity
  8
DV1_Default
  6
Continuous
 62
     7
100
AcDbLine
 10
96.2858174858
 20
383.3763774165
 30
0.0
 11
96.2858174858
 21
382.8813566212
 31
0.0
  0
LINE
  5
A8
330
6B
100
AcDbEntity
  8
DV1_Default
  6
Continuous
 62
     7
100
AcDbLine
 10
96.2858174858
 20
382.8813566212
 30
0.0
 11
96.2858174858
 21
382.6450555887
 31
0.0
  0
LINE
  5
A9
330
6B
100
AcDbEntity
  8
DV1_Default
  6
Continuous
 62
     7
100
AcDbLine
 10
96.2858174858
 20
382.6025896104
 30
0.0
 11
96.2858174858
 21
382.6450555887
 31
0.0
  0
LINE
  5
AA
330
6B
100
AcDbEntity
  8
DV1_Default
  6
Continuous
 62
     7
100
AcDbLine
 10
104.2858174858
 20
382.6450555887
 30
0.0
 11
104.2858174858
 21
382.8813566212
 31
0.0
  0
LINE
  5
AB
330
6B
100
AcDbEntity
  8
DV1_Default
  6
Continuous
 62
     7
100
AcDbLine
 10
104.2858174858
 20
382.6450555887
 30
0.0
 11
104.2858174858
 21
382.6025896104
 31
0.0
  0
LINE
  5
AC
330
6B
100
AcDbEntity
  8
DV1_Default
  6
Continuous
 62
     7
100
AcDbLine
 10
104.2858174858
 20
382.6025896104
 30
0.0
 11
129.9858174858
 21
382.6025896104
 31
0.0
  0
ARC
  5
AD
330
6B
100
AcDbEntity
  8
DV1_Default
  6
Continuous
 62
     7
100
AcDbCircle
 10
129.9867410058
 20
382.9312266015
 30
0.0
 40
0.3286382887759776
100
AcDbArc
 50
269.8389905686
 51
299.5689416598
  0
ARC
  5
AE
330
6B
100
AcDbEntity
  8
DV1_Default
  6
Continuous
 62
     7
100
AcDbCircle
 10
130.0487022813
 20
382.8184718257
 30
0.0
 40
0.199999999999981
100
AcDbArc
 50
300.070158532
 51
329.929841468
  0
ARC
  5
AF
330
6B
100
AcDbEntity
  8
DV1_Default
  6
Continuous
 62
     7
100
AcDbCircle
 10
129.9318095942
 20
382.8815189681
 30
0.0
 40
0.3327749420257259
100
AcDbArc
 50
330.6200199773
 51
359.9720477943
  0
LINE
  5
B0
330
6B
100
AcDbEntity
  8
DV1_Default
  6
Continuous
 62
     7
100
AcDbLine
 10
130.2645844967
 20
382.8813566212
 30
0.0
 11
130.2645844967
 21
442.2813566212
 31
0.0
  0
ARC
  5
B1
330
6B
100
AcDbEntity
  8
DV1_Default
  6
Continuous
 62
     7
100
AcDbCircle
 10
129.9359475055
 20
442.2822801411
 30
0.0
 40
0.3286382887763322
100
AcDbArc
 50
359.8389905686
 51
29.5689416598
  0
ARC
  5
B2
330
6B
100
AcDbEntity
  8
DV1_Default
  6
Continuous
 62
     7
100
AcDbCircle
 10
130.0487022813
 20
442.3442414167
 30
0.0
 40
0.199999999999997
100
AcDbArc
 50
30.0701585319
 51
59.929841468
  0
ARC
  5
B3
330
6B
100
AcDbEntity
  8
DV1_Default
  6
Continuous
 62
     7
100
AcDbCircle
 10
129.9856551389
 20
442.2273487296
 30
0.0
 40
0.3327749420255162
100
AcDbArc
 50
60.6200199773
 51
89.9720477943
  0
LINE
  5
B4
330
6B
100
AcDbEntity
  8
DV1_Default
  6
Continuous
 62
     7
100
AcDbLine
 10
129.9858174858
 20
442.560123632
 30
0.0
 11
70.5858174858
 21
442.560123632
 31
0.0
  0
ARC
  5
B5
330
6B
100
AcDbEntity
  8
DV1_Default
  6
Continuous
 62
     7
100
AcDbCircle
 10
70.5848939659
 20
442.2314866409
 30
0.0
 40
0.3286382887764704
100
AcDbArc
 50
89.8389905686
 51
119.5689416598
  0
ARC
  5
B6
330
6B
100
AcDbEntity
  8
DV1_Default
  6
Continuous
 62
     7
100
AcDbCircle
 10
70.5229326903
 20
442.3442414167
 30
0.0
 40
0.2000000000000025
100
AcDbArc
 50
120.070158532
 51
149.9298414681
  0
ARC
  5
B7
330
6B
100
AcDbEntity
  8
DV1_Default
  6
Continuous
 62
     7
100
AcDbCircle
 10
70.6398253774
 20
442.2811942743
 30
0.0
 40
0.3327749420253042
100
AcDbArc
 50
150.6200199773
 51
179.9720477943
  0
LINE
  5
B8
330
6B
100
AcDbEntity
  8
DV1_Default
  6
Continuous
 62
     7
100
AcDbLine
 10
70.307050475
 20
442.2813566212
 30
0.0
 11
70.307050475
 21
382.8813566212
 31
0.0
  0
ARC
  5
B9
330
6B
100
AcDbEntity
  8
DV1_Default
  6
Continuous
 62
     7
100
AcDbCircle
 10
70.6356874662
 20
382.8804331013
 30
0.0
 40
0.3286382887761164
100
AcDbArc
 50
179.8389905686
 51
209.5689416599
  0
ARC
  5
BA
330
6B
100
AcDbEntity
  8
DV1_Default
  6
Continuous
 62
     7
100
AcDbCircle
 10
70.5229326903
 20
382.8184718257
 30
0.0
 40
0.2000000000000047
100
AcDbArc
 50
210.070158532
 51
239.929841468
  0
ARC
  5
BB
330
6B
100
AcDbEntity
  8
DV1_Default
  6
Continuous
 62
     7
100
AcDbCircle
 10
70.5859798328
 20
382.9353645128
 30
0.0
 40
0.3327749420253783
100
AcDbArc
 50
240.6200199773
 51
269.9720477943
  0
LINE
  5
BC
330
6B
100
AcDbEntity
  8
DV1_Default
  6
Continuous
 62
     7
100
AcDbLine
 10
70.5858174858
 20
382.6025896104
 30
0.0
 11
96.2858174858
 21
382.6025896104
 31
0.0
  0
ENDBLK
  5
BE
330
6B
100
AcDbEntity
  8
0
100
AcDbBlockEnd
  0
BLOCK
  5
ED
330
BF
100
AcDbEntity
  8
0
100
AcDbBlockBegin
  2
SE1
 70
     0
 10
0.0
 20
0.0
 30
0.0
  3
SE1
  1

  0
LINE
  5
C2
330
BF
100
AcDbEntity
  8
DV2_Default
  6
Continuous
 62
     7
100
AcDbLine
 10
132.6976775654
 20
190.8877494602
 30
0.0
 11
132.2264114736
 21
136.8860041531
 31
0.0
  0
LINE
  5
C3
330
BF
100
AcDbEntity
  8
DV2_Default
  6
Continuous
 62
     7
100
AcDbLine
 10
69.7229131117
 20
136.6877494602
 30
0.0
 11
68.9229435732
 21
136.6877494602
 31
0.0
  0
LINE
  5
C4
330
BF
100
AcDbEntity
  8
DV2_Default
  6
Continuous
 62
     7
100
AcDbLine
 10
132.026419089
 20
136.6877494602
 30
0.0
 11
131.2264495505
 21
136.6877494602
 31
0.0
  0
LINE
  5
C5
330
BF
100
AcDbEntity
  8
DV2_Default
  6
Continuous
 62
     7
100
AcDbLine
 10
131.2264495505
 20
136.6877494602
 30
0.0
 11
69.7229131117
 21
136.6877494602
 31
0.0
  0
LINE
  5
C6
330
BF
100
AcDbEntity
  8
DV2_Default
  6
Continuous
 62
     7
100
AcDbLine
 10
68.7229511886
 20
136.8860041531
 30
0.0
 11
68.2516850969
 21
190.8877494602
 31
0.0
  0
ARC
  5
C7
330
BF
100
AcDbEntity
  8
DV2_Default
  6
Continuous
 62
     7
100
AcDbCircle
 10
132.026419089
 20
136.8877494602
 30
0.0
 40
0.2000000000000057
100
AcDbArc
 50
270.0
 51
359.5
  0
ARC
  5
C8
330
BF
100
AcDbEntity
  8
DV2_Default
  6
Continuous
 62
     7
100
AcDbCircle
 10
68.9229435732
 20
136.8877494602
 30
0.0
 40
0.1999999999999964
100
AcDbArc
 50
180.5
 51
270.0
  0
LINE
  5
C9
330
BF
100
AcDbEntity
  8
DV2_Default
  6
Continuous
 62
     7
100
AcDbLine
 10
10.8727626798
 20
204.1877494602
 30
0.0
 11
190.0765999825
 21
204.1877494602
 31
0.0
  0
LINE
  5
CA
330
BF
100
AcDbEntity
  8
DV2_Default
  6
Continuous
 62
     7
100
AcDbLine
 10
190.0765999825
 20
204.1877494602
 30
0.0
 11
191.4746813311
 21
204.1877494602
 31
0.0
  0
LINE
  5
CB
330
BF
100
AcDbEntity
  8
DV2_Default
  6
Continuous
 62
     7
100
AcDbLine
 10
9.4746813311
 20
204.1877494602
 30
0.0
 11
10.8727626798
 21
204.1877494602
 31
0.0
  0
LINE
  5
CC
330
BF
100
AcDbEntity
  8
DV2_Default
  6
Continuous
 62
     7
100
AcDbLine
 10
10.1468723116
 20
191.3615814821
 30
0.0
 11
9.4746813311
 21
204.1877494602
 31
0.0
  0
LINE
  5
CD
330
BF
100
AcDbEntity
  8
DV2_Default
  6
Continuous
 62
     7
100
AcDbLine
 10
189.404409002
 20
190.8877494602
 30
0.0
 11
11.5449536602
 21
190.8877494602
 31
0.0
  0
LINE
  5
CE
330
BF
100
AcDbEntity
  8
DV2_Default
  6
Continuous
 62
     7
100
AcDbLine
 10
191.4746813311
 20
204.1877494602
 30
0.0
 11
190.8024903507
 21
191.3615814821
 31
0.0
  0
ARC
  5
CF
330
BF
100
AcDbEntity
  8
DV2_Default
  6
Continuous
 62
     7
100
AcDbCircle
 10
190.3031755833
 20
191.3877494602
 30
0.0
 40
0.4999999999999863
100
AcDbArc
 50
270.0
 51
357.0
  0
ARC
  5
D0
330
BF
100
AcDbEntity
  8
DV2_Default
  6
Continuous
 62
     7
100
AcDbCircle
 10
10.6461870789
 20
191.3877494602
 30
0.0
 40
0.5000000000000004
100
AcDbArc
 50
183.0
 51
270.0
  0
LINE
  5
D1
330
BF
100
AcDbEntity
  8
DV2_Default
  6
Continuous
 62
     7
100
AcDbLine
 10
189.404409002
 20
190.8877494602
 30
0.0
 11
190.3031755833
 21
190.8877494602
 31
0.0
  0
LINE
  5
D2
330
BF
100
AcDbEntity
  8
DV2_Default
  6
Continuous
 62
     7
100
AcDbLine
 10
10.6461870789
 20
190.8877494602
 30
0.0
 11
11.5449536602
 21
190.8877494602
 31
0.0
  0
LINE
  5
D3
330
BF
100
AcDbEntity
  8
DV2_Default
  6
Continuous
 62
     7
100
AcDbLine
 10
68.9821620086
 20
105.9833892895
 30
0.0
 11
68.7264419357
 21
135.2860072501
 31
0.0
  0
LINE
  5
D4
330
BF
100
AcDbEntity
  8
DV2_Default
  6
Continuous
 62
     7
100
AcDbLine
 10
131.4672196921
 20
105.4877525572
 30
0.0
 11
130.9672387306
 21
105.4877525572
 31
0.0
  0
LINE
  5
D5
330
BF
100
AcDbEntity
  8
DV2_Default
  6
Continuous
 62
     7
100
AcDbLine
 10
130.9672387306
 20
105.4877525572
 30
0.0
 11
69.9821239317
 21
105.4877525572
 31
0.0
  0
LINE
  5
D6
330
BF
100
AcDbEntity
  8
DV2_Default
  6
Continuous
 62
     7
100
AcDbLine
 10
69.9821239317
 20
105.4877525572
 30
0.0
 11
69.4821429701
 21
105.4877525572
 31
0.0
  0
ARC
  5
D7
330
BF
100
AcDbEntity
  8
DV2_Default
  6
Continuous
 62
     7
100
AcDbCircle
 10
131.4672196921
 20
105.9877525572
 30
0.0
 40
0.5000000000000004
100
AcDbArc
 50
270.0
 51
359.5
  0
ARC
  5
D8
330
BF
100
AcDbEntity
  8
DV2_Default
  6
Continuous
 62
     7
100
AcDbCircle
 10
69.4821429701
 20
105.9877525572
 30
0.0
 40
0.5000000000000004
100
AcDbArc
 50
180.5
 51
270.0
  0
LINE
  5
D9
330
BF
100
AcDbEntity
  8
DV2_Default
  6
Continuous
 62
     7
100
AcDbLine
 10
68.9264343204
 20
135.4877525572
 30
0.0
 11
69.7264038588
 21
135.4877525572
 31
0.0
  0
LINE
  5
DA
330
BF
100
AcDbEntity
  8
DV2_Default
  6
Continuous
 62
     7
100
AcDbLine
 10
69.7264038588
 20
135.4877525572
 30
0.0
 11
131.2229588034
 21
135.4877525572
 31
0.0
  0
LINE
  5
DB
330
BF
100
AcDbEntity
  8
DV2_Default
  6
Continuous
 62
     7
100
AcDbLine
 10
131.2229588034
 20
135.4877525572
 30
0.0
 11
132.0229283419
 21
135.4877525572
 31
0.0
  0
LINE
  5
DC
330
BF
100
AcDbEntity
  8
DV2_Default
  6
Continuous
 62
     7
100
AcDbLine
 10
132.2229207265
 20
135.2860072501
 30
0.0
 11
131.9672006536
 21
105.9833892895
 31
0.0
  0
ARC
  5
DD
330
BF
100
AcDbEntity
  8
DV2_Default
  6
Continuous
 62
     7
100
AcDbCircle
 10
68.9264343204
 20
135.2877525572
 30
0.0
 40
0.2000000000000057
100
AcDbArc
 50
90.0
 51
180.5
  0
ARC
  5
DE
330
BF
100
AcDbEntity
  8
DV2_Default
  6
Continuous
 62
     7
100
AcDbCircle
 10
132.0229283419
 20
135.2877525572
 30
0.0
 40
0.2000000000000057
100
AcDbArc
 50
359.5
 51
90.0
  0
LINE
  5
DF
330
BF
100
AcDbEntity
  8
DV2_Default
  6
Continuous
 62
     7
100
AcDbLine
 10
130.1746813311
 20
105.2877525572
 30
0.0
 11
70.7746813311
 21
105.2877525572
 31
0.0
  0
ARC
  5
E0
330
BF
100
AcDbEntity
  8
DV2_Default
  6
Continuous
 62
     7
100
AcDbCircle
 10
70.7746813311
 20
105.5877525572
 30
0.0
 40
0.3000000000000009
100
AcDbArc
 50
218.031690524
 51
270.0
  0
ARC
  5
E1
330
BF
100
AcDbEntity
  8
DV2_Default
  6
Continuous
 62
     7
100
AcDbCircle
 10
130.1746813311
 20
105.5877525572
 30
0.0
 40
0.3000000000000119
100
AcDbArc
 50
270.0
 51
321.968309476
  0
ARC
  5
E2
330
BF
100
AcDbEntity
  8
DV2_Default
  6
Continuous
 62
     7
100
AcDbCircle
 10
130.2534483419
 20
105.5261428339
 30
0.0
 40
0.2000000000000013
100
AcDbArc
 50
321.968309476
 51
348.933313341
  0
ARC
  5
E3
330
BF
100
AcDbEntity
  8
DV2_Default
  6
Continuous
 62
     7
100
AcDbCircle
 10
70.6959143203
 20
105.5261428339
 30
0.0
 40
0.1999999999999931
100
AcDbArc
 50
191.066686659
 51
218.031690524
  0
LINE
  5
E4
330
BF
100
AcDbEntity
  8
DV2_Default
  6
Continuous
 62
     7
100
AcDbLine
 10
131.8124627857
 20
136.1877525572
 30
0.0
 11
131.8246813311
 21
135.4877525572
 31
0.0
  0
LINE
  5
E5
330
BF
100
AcDbEntity
  8
DV2_Default
  6
Continuous
 62
     7
100
AcDbLine
 10
131.8124627857
 20
136.1877525572
 30
0.0
 11
130.8246813311
 21
136.1877525572
 31
0.0
  0
LINE
  5
E6
330
BF
100
AcDbEntity
  8
DV2_Default
  6
Continuous
 62
     7
100
AcDbLine
 10
130.8246813311
 20
136.1877525572
 30
0.0
 11
70.1246813311
 21
136.1877525572
 31
0.0
  0
LINE
  5
E7
330
BF
100
AcDbEntity
  8
DV2_Default
  6
Continuous
 62
     7
100
AcDbLine
 10
70.1246813311
 20
136.1877525572
 30
0.0
 11
69.1368998766
 21
136.1877525572
 31
0.0
  0
LINE
  5
E8
330
BF
100
AcDbEntity
  8
DV2_Default
  6
Continuous
 62
     7
100
AcDbLine
 10
69.1368998766
 20
136.1877525572
 30
0.0
 11
69.1246813311
 21
135.4877525572
 31
0.0
  0
LINE
  5
E9
330
BF
100
AcDbEntity
  8
DV2_Default
  6
Continuous
 62
     7
100
AcDbLine
 10
130.8744641155
 20
136.2375343918
 30
0.0
 11
130.8724996692
 21
136.6877494602
 31
0.0
  0
LINE
  5
EA
330
BF
100
AcDbEntity
  8
DV2_Default
  6
Continuous
 62
     7
100
AcDbLine
 10
70.076862993
 20
136.6877494602
 30
0.0
 11
70.0748985467
 21
136.2375343918
 31
0.0
  0
ARC
  5
EB
330
BF
100
AcDbEntity
  8
DV2_Default
  6
Continuous
 62
     7
100
AcDbCircle
 10
130.9244636395
 20
136.2377525572
 30
0.0
 40
0.0499999999999945
100
AcDbArc
 50
180.2500000001
 51
270.0
  0
ARC
  5
EC
330
BF
100
AcDbEntity
  8
DV2_Default
  6
Continuous
 62
     7
100
AcDbCircle
 10
70.0248990227
 20
136.2377525572
 30
0.0
 40
0.049999999999999
100
AcDbArc
 50
270.0
 51
359.7499999999
  0
ENDBLK
  5
EE
330
BF
100
AcDbEntity
  8
0
100
AcDbBlockEnd
  0
BLOCK
  5
124
330
EF
100
AcDbEntity
  8
0
100
AcDbBlockBegin
  2
SE2
 70
     0
 10
0.0
 20
0.0
 30
0.0
  3
SE2
  1

  0
LINE
  5
F2
330
EF
100
AcDbEntity
  8
DV3_Default
  6
Continuous
 62
     7
100
AcDbLine
 10
352.6748103116
 20
381.1957099331
 30
0.0
 11
406.6765556187
 21
381.6669760248
 31
0.0
  0
LINE
  5
F3
330
EF
100
AcDbEntity
  8
DV3_Default
  6
Continuous
 62
     7
100
AcDbLine
 10
406.8748103116
 20
381.8669684095
 30
0.0
 11
406.8748103116
 21
382.6669379479
 31
0.0
  0
LINE
  5
F4
330
EF
100
AcDbEntity
  8
DV3_Default
  6
Continuous
 62
     7
100
AcDbLine
 10
406.8748103116
 20
382.6669379479
 30
0.0
 11
406.8748103116
 21
444.1704743868
 31
0.0
  0
LINE
  5
F5
330
EF
100
AcDbEntity
  8
DV3_Default
  6
Continuous
 62
     7
100
AcDbLine
 10
406.8748103116
 20
444.1704743868
 30
0.0
 11
406.8748103116
 21
444.9704439252
 31
0.0
  0
LINE
  5
F6
330
EF
100
AcDbEntity
  8
DV3_Default
  6
Continuous
 62
     7
100
AcDbLine
 10
406.6765556187
 20
445.1704363098
 30
0.0
 11
352.6748103116
 21
445.6417024016
 31
0.0
  0
ARC
  5
F7
330
EF
100
AcDbEntity
  8
DV3_Default
  6
Continuous
 62
     7
100
AcDbCircle
 10
406.6748103116
 20
381.8669684095
 30
0.0
 40
0.2000000000000057
100
AcDbArc
 50
270.5
 51
0.0
  0
ARC
  5
F8
330
EF
100
AcDbEntity
  8
DV3_Default
  6
Continuous
 62
     7
100
AcDbCircle
 10
406.6748103116
 20
444.9704439252
 30
0.0
 40
0.2000000000000057
100
AcDbArc
 50
0.0
 51
89.5
  0
LINE
  5
F9
330
EF
100
AcDbEntity
  8
DV3_Default
  6
Continuous
 62
     7
100
AcDbLine
 10
339.3748103116
 20
322.4187061673
 30
0.0
 11
352.2009782897
 21
323.0908971478
 31
0.0
  0
LINE
  5
FA
330
EF
100
AcDbEntity
  8
DV3_Default
  6
Continuous
 62
     7
100
AcDbLine
 10
339.3748103116
 20
503.0206248187
 30
0.0
 11
339.3748103116
 21
323.816787516
 31
0.0
  0
LINE
  5
FB
330
EF
100
AcDbEntity
  8
DV3_Default
  6
Continuous
 62
     7
100
AcDbLine
 10
339.3748103116
 20
504.4187061673
 30
0.0
 11
339.3748103116
 21
503.0206248187
 31
0.0
  0
LINE
  5
FC
330
EF
100
AcDbEntity
  8
DV3_Default
  6
Continuous
 62
     7
100
AcDbLine
 10
339.3748103116
 20
323.816787516
 30
0.0
 11
339.3748103116
 21
322.4187061673
 31
0.0
  0
LINE
  5
FD
330
EF
100
AcDbEntity
  8
DV3_Default
  6
Continuous
 62
     7
100
AcDbLine
 10
352.6748103116
 20
324.4889784964
 30
0.0
 11
352.6748103116
 21
502.3484338382
 31
0.0
  0
LINE
  5
FE
330
EF
100
AcDbEntity
  8
DV3_Default
  6
Continuous
 62
     7
100
AcDbLine
 10
352.2009782897
 20
503.7465151869
 30
0.0
 11
339.3748103116
 21
504.4187061673
 31
0.0
  0
ARC
  5
FF
330
EF
100
AcDbEntity
  8
DV3_Default
  6
Continuous
 62
     7
100
AcDbCircle
 10
352.1748103116
 20
503.2472004195
 30
0.0
 40
0.5000000000000004
100
AcDbArc
 50
0.0
 51
87.0
  0
ARC
  5
100
330
EF
100
AcDbEntity
  8
DV3_Default
  6
Continuous
 62
     7
100
AcDbCircle
 10
352.1748103116
 20
323.5902119152
 30
0.0
 40
0.4999999999999871
100
AcDbArc
 50
273.0
 51
0.0
  0
LINE
  5
101
330
EF
100
AcDbEntity
  8
DV3_Default
  6
Continuous
 62
     7
100
AcDbLine
 10
352.6748103116
 20
324.4889784964
 30
0.0
 11
352.6748103116
 21
323.5902119152
 31
0.0
  0
LINE
  5
102
330
EF
100
AcDbEntity
  8
DV3_Default
  6
Continuous
 62
     7
100
AcDbLine
 10
352.6748103116
 20
503.2472004195
 30
0.0
 11
352.6748103116
 21
502.3484338382
 31
0.0
  0
LINE
  5
103
330
EF
100
AcDbEntity
  8
DV3_Default
  6
Continuous
 62
     7
100
AcDbLine
 10
438.0748072146
 20
382.9261487679
 30
0.0
 11
438.0748072146
 21
443.9112635668
 31
0.0
  0
LINE
  5
104
330
EF
100
AcDbEntity
  8
DV3_Default
  6
Continuous
 62
     7
100
AcDbLine
 10
438.0748072146
 20
443.9112635668
 30
0.0
 11
438.0748072146
 21
444.4112445283
 31
0.0
  0
LINE
  5
105
330
EF
100
AcDbEntity
  8
DV3_Default
  6
Continuous
 62
     7
100
AcDbLine
 10
438.0748072146
 20
382.4261678064
 30
0.0
 11
438.0748072146
 21
382.9261487679
 31
0.0
  0
LINE
  5
106
330
EF
100
AcDbEntity
  8
DV3_Default
  6
Continuous
 62
     7
100
AcDbLine
 10
437.5791704823
 20
444.9112254898
 30
0.0
 11
408.2765525217
 21
445.1669455627
 31
0.0
  0
ARC
  5
107
330
EF
100
AcDbEntity
  8
DV3_Default
  6
Continuous
 62
     7
100
AcDbCircle
 10
437.5748072146
 20
382.4261678064
 30
0.0
 40
0.4999999999999981
100
AcDbArc
 50
270.5
 51
0.0
  0
ARC
  5
108
330
EF
100
AcDbEntity
  8
DV3_Default
  6
Continuous
 62
     7
100
AcDbCircle
 10
437.5748072146
 20
444.4112445283
 30
0.0
 40
0.5000000000000004
100
AcDbArc
 50
0.0
 51
89.5
  0
LINE
  5
109
330
EF
100
AcDbEntity
  8
DV3_Default
  6
Continuous
 62
     7
100
AcDbLine
 10
408.0748072146
 20
444.9669531781
 30
0.0
 11
408.0748072146
 21
444.1669836397
 31
0.0
  0
LINE
  5
10A
330
EF
100
AcDbEntity
  8
DV3_Default
  6
Continuous
 62
     7
100
AcDbLine
 10
408.0748072146
 20
444.1669836397
 30
0.0
 11
408.0748072146
 21
382.670428695
 31
0.0
  0
LINE
  5
10B
330
EF
100
AcDbEntity
  8
DV3_Default
  6
Continuous
 62
     7
100
AcDbLine
 10
408.0748072146
 20
382.670428695
 30
0.0
 11
408.0748072146
 21
381.8704591566
 31
0.0
  0
LINE
  5
10C
330
EF
100
AcDbEntity
  8
DV3_Default
  6
Continuous
 62
     7
100
AcDbLine
 10
408.2765525217
 20
381.670466772
 30
0.0
 11
437.5791704823
 21
381.9261868448
 31
0.0
  0
ARC
  5
10D
330
EF
100
AcDbEntity
  8
DV3_Default
  6
Continuous
 62
     7
100
AcDbCircle
 10
408.2748072146
 20
444.9669531781
 30
0.0
 40
0.2000000000000057
100
AcDbArc
 50
89.5
 51
180.0
  0
ARC
  5
10E
330
EF
100
AcDbEntity
  8
DV3_Default
  6
Continuous
 62
     7
100
AcDbCircle
 10
408.2748072146
 20
381.8704591566
 30
0.0
 40
0.199999999999978
100
AcDbArc
 50
180.0
 51
270.5
  0
LINE
  5
10F
330
EF
100
AcDbEntity
  8
DV3_Default
  6
Continuous
 62
     7
100
AcDbLine
 10
408.0748072146
 20
381.8704591566
 30
0.0
 11
408.0748072146
 21
328.9187061673
 31
0.0
  0
LINE
  5
110
330
EF
100
AcDbEntity
  8
DV3_Default
  6
Continuous
 62
     7
100
AcDbLine
 10
408.5748072146
 20
328.4187061673
 30
0.0
 11
426.5748072146
 21
328.4187061673
 31
0.0
  0
LINE
  5
111
330
EF
100
AcDbEntity
  8
DV3_Default
  6
Continuous
 62
     7
100
AcDbLine
 10
427.0748072146
 20
328.9187061673
 30
0.0
 11
427.0748072146
 21
380.8432054448
 31
0.0
  0
ARC
  5
112
330
EF
100
AcDbEntity
  8
DV3_Default
  6
Continuous
 62
     7
100
AcDbCircle
 10
426.5748072146
 20
328.9187061673
 30
0.0
 40
0.5000000000000004
100
AcDbArc
 50
270.0
 51
0.0
  0
ARC
  5
113
330
EF
100
AcDbEntity
  8
DV3_Default
  6
Continuous
 62
     7
100
AcDbCircle
 10
408.5748072146
 20
328.9187061673
 30
0.0
 40
0.5000000000000004
100
AcDbArc
 50
180.0
 51
270.0
  0
ARC
  5
114
330
EF
100
AcDbEntity
  8
DV3_Default
  6
Continuous
 62
     7
100
AcDbCircle
 10
428.0748072146
 20
380.8432054448
 30
0.0
 40
1.000000000000001
100
AcDbArc
 50
90.5
 51
180.0
  0
ELLIPSE
  5
115
330
EF
100
AcDbEntity
  8
DV3_Default
  6
Continuous
 62
     7
100
AcDbEllipse
 10
407.3625158728
 20
381.0908922846
 30
0.0
 11
-0.7602427847673288
 21
-0.649639059947249
 31
0.0
210
0.0
220
0.0
230
1.0
 40
0.6654631348
 41
2.23245181038026
 42
3.14159265358969
  0
LINE
  5
116
330
EF
100
AcDbEntity
  8
DV3_Default
  6
Continuous
 62
     7
100
AcDbLine
 10
438.2748072146
 20
383.7187061673
 30
0.0
 11
438.2748072146
 21
443.1187061673
 31
0.0
  0
ARC
  5
117
330
EF
100
AcDbEntity
  8
DV3_Default
  6
Continuous
 62
     7
100
AcDbCircle
 10
437.9748072146
 20
443.1187061673
 30
0.0
 40
0.3000000000000119
100
AcDbArc
 50
0.0
 51
51.968309476
  0
ARC
  5
118
330
EF
100
AcDbEntity
  8
DV3_Default
  6
Continuous
 62
     7
100
AcDbCircle
 10
437.9748072146
 20
383.7187061673
 30
0.0
 40
0.3000000000000119
100
AcDbArc
 50
308.031690524
 51
0.0
  0
ARC
  5
119
330
EF
100
AcDbEntity
  8
DV3_Default
  6
Continuous
 62
     7
100
AcDbCircle
 10
438.0364169379
 20
383.6399391565
 30
0.0
 40
0.200000000000004
100
AcDbArc
 50
281.066686659
 51
308.031690524
  0
ARC
  5
11A
330
EF
100
AcDbEntity
  8
DV3_Default
  6
Continuous
 62
     7
100
AcDbCircle
 10
438.0364169379
 20
443.1974731782
 30
0.0
 40
0.200000000000004
100
AcDbArc
 50
51.968309476
 51
78.933313341
  0
LINE
  5
11B
330
EF
100
AcDbEntity
  8
DV3_Default
  6
Continuous
 62
     7
100
AcDbLine
 10
407.3748072146
 20
382.0809247128
 30
0.0
 11
408.0748072146
 21
382.0687061673
 31
0.0
  0
LINE
  5
11C
330
EF
100
AcDbEntity
  8
DV3_Default
  6
Continuous
 62
     7
100
AcDbLine
 10
407.3748072146
 20
382.0809247128
 30
0.0
 11
407.3748072146
 21
383.0687061673
 31
0.0
  0
LINE
  5
11D
330
EF
100
AcDbEntity
  8
DV3_Default
  6
Continuous
 62
     7
100
AcDbLine
 10
407.3748072146
 20
383.0687061673
 30
0.0
 11
407.3748072146
 21
443.7687061673
 31
0.0
  0
LINE
  5
11E
330
EF
100
AcDbEntity
  8
DV3_Default
  6
Continuous
 62
     7
100
AcDbLine
 10
407.3748072146
 20
443.7687061673
 30
0.0
 11
407.3748072146
 21
444.7564876219
 31
0.0
  0
LINE
  5
11F
330
EF
100
AcDbEntity
  8
DV3_Default
  6
Continuous
 62
     7
100
AcDbLine
 10
407.3748072146
 20
444.7564876219
 30
0.0
 11
408.0748072146
 21
444.7687061673
 31
0.0
  0
LINE
  5
120
330
EF
100
AcDbEntity
  8
DV3_Default
  6
Continuous
 62
     7
100
AcDbLine
 10
407.32502538
 20
383.0189233829
 30
0.0
 11
406.8748103116
 21
383.0208878292
 31
0.0
  0
LINE
  5
121
330
EF
100
AcDbEntity
  8
DV3_Default
  6
Continuous
 62
     7
100
AcDbLine
 10
406.8748103116
 20
443.8165245054
 30
0.0
 11
407.32502538
 21
443.8184889517
 31
0.0
  0
ARC
  5
122
330
EF
100
AcDbEntity
  8
DV3_Default
  6
Continuous
 62
     7
100
AcDbCircle
 10
407.3248072146
 20
382.9689238589
 30
0.0
 40
0.0499999999999945
100
AcDbArc
 50
0.0
 51
89.75
  0
ARC
  5
123
330
EF
100
AcDbEntity
  8
DV3_Default
  6
Continuous
 62
     7
100
AcDbCircle
 10
407.3248072146
 20
443.8684884758
 30
0.0
 40
0.049999999999999
100
AcDbArc
 50
270.2500000001
 51
0.0
  0
ENDBLK
  5
125
330
EF
100
AcDbEntity
  8
0
100
AcDbBlockEnd
  0
ENDSEC
  0
SECTION
  2
ENTITIES
  0
INSERT
  5
5F
330
1F
100
AcDbEntity
  8
Default
100
AcDbBlockReference
  2
SEANNOT_GROUP
 10
0.0
 20
0.0
 30
0.0
  0
INSERT
  5
66
330
1F
100
AcDbEntity
  8
Default
100
AcDbBlockReference
  2
SEANNOT_GROUP1
 10
0.0
 20
0.0
 30
0.0
  0
INSERT
  5
6C
330
1F
100
AcDbEntity
  8
Default
100
AcDbBlockReference
  2
SE
 10
0.0
 20
0.0
 30
0.0
  0
INSERT
  5
C0
330
1F
100
AcDbEntity
  8
Default
100
AcDbBlockReference
  2
SE1
 10
0.0
 20
0.0
 30
0.0
  0
INSERT
  5
F0
330
1F
100
AcDbEntity
  8
Default
100
AcDbBlockReference
  2
SE2
 10
0.0
 20
0.0
 30
0.0
  0
TEXT
  5
127
330
1F
100
AcDbEntity
  8
Default
  6
Continuous
 62
     7
100
AcDbText
 10
5.9362635081
 20
53.4225120485
 30
0.0
 40
10.0
  1
Grohe AG^J
  7
SEACAD_seiso_ttf
 11
5.9362635081
 21
63.4225120485
 31
0.0
100
AcDbText
 73
     3
  0
TEXT
  5
128
330
1F
100
AcDbEntity
  8
Default
  6
Continuous
 62
     7
100
AcDbText
 10
5.9362635081
 20
37.0588756849
 30
0.0
 40
10.0
  1
 
  7
SEACAD_seiso_ttf
 11
5.9362635081
 21
47.0588756849
 31
0.0
100
AcDbText
 73
     3
  0
TEXT
  5
129
330
1F
100
AcDbEntity
  8
Default
  6
Continuous
 62
     7
100
AcDbText
 10
5.9362635081
 20
20.6952393213
 30
0.0
 40
10.0
  1
ecn:
  7
SEACAD_seiso_ttf
 11
5.9362635081
 21
30.6952393213
 31
0.0
100
AcDbText
 73
     3
  0
TEXT
  5
12A
330
1F
100
AcDbEntity
  8
Default
  6
Continuous
 62
     7
100
AcDbText
 10
5.9362635081
 20
4.3316029576
 30
0.0
 40
10.0
  1
unit: mm
  7
SEACAD_seiso_ttf
 11
5.9362635081
 21
14.3316029576
 31
0.0
100
AcDbText
 73
     3
  0
LINE
  5
12B
330
1F
100
AcDbEntity
  8
Default
  6
Continuous
 62
     7
100
AcDbLine
 10
0.0
 20
0.0
 30
0.0
 11
100.0
 21
0.0
 31
0.0
  0
LINE
  5
12C
330
1F
100
AcDbEntity
  8
Default
  6
Continuous
 62
     7
100
AcDbLine
 10
0.0
 20
0.0
 30
0.0
 11
0.0
 21
100.0
 31
0.0
  0
TEXT
  5
12D
330
1F
100
AcDbEntity
  8
Default
  6
Continuous
 62
     7
100
AcDbText
 10
24.3923665681
 20
-18.2375342018
 30
0.0
 40
10.0
  1
100 mm
  7
SEACAD_seiso_ttf
 11
24.3923665681
 21
-8.2375342018
 31
0.0
100
AcDbText
 73
     3
  0
TEXT
  5
12E
330
1F
100
AcDbEntity
  8
Default
  6
Continuous
 62
     7
100
AcDbText
 10
-7.6150308803
 20
24.6231930421
 30
0.0
 40
10.0
  1
100 mm
 50
90.0
  7
SEACAD_seiso_ttf
 11
-17.6150308803
 21
24.6231930421
 31
0.0
100
AcDbText
 73
     3
  0
TEXT
  5
12F
330
1F
100
AcDbEntity
  8
Default
  6
Continuous
 62
     7
100
AcDbText
 10
28.4878128572
 20
20.0907663715
 30
0.0
 40
10.0
  1
225682
  7
SEACAD_seiso_ttf
 11
28.4878128572
 21
30.0907663715
 31
0.0
100
AcDbText
 73
     3
  0
TEXT
  5
130
330
1F
100
AcDbEntity
  8
Default
  6
Continuous
 62
     7
100
AcDbText
 10
5.9012241913
 20
36.7242780188
 30
0.0
 40
10.0
  1
19924000
  7
SEACAD_seiso_ttf
 11
5.9012241913
 21
46.7242780188
 31
0.0
100
AcDbText
 73
     3
  0
ENDSEC
  0
SECTION
  2
OBJECTS
  0
DICTIONARY
  5
C
330
0
100
AcDbDictionary
281
     1
  3
ACAD_GROUP
350
D
  3
ACAD_LAYOUT
350
1A
  3
ACAD_MLEADERSTYLE
350
134
  3
ACAD_MLINESTYLE
350
17
  3
ACAD_PLOTSETTINGS
350
19
  3
ACAD_PLOTSTYLENAME
350
E
  3
ACAD_SCALELIST
350
3B
  3
ACAD_TABLESTYLE
350
133
  3
ACAD_VISUALSTYLE
350
2A
  3
AcDbVariableDictionary
350
131
  0
DICTIONARY
  5
D
102
{ACAD_REACTORS
330
C
102
}
330
C
100
AcDbDictionary
281
     1
  0
DICTIONARY
  5
1A
102
{ACAD_REACTORS
330
C
102
}
330
C
100
AcDbDictionary
281
     1
  3
Layout1
350
1E
  3
Model
350
22
  0
DICTIONARY
  5
134
102
{ACAD_REACTORS
330
C
102
}
330
C
100
AcDbDictionary
281
     1
  0
DICTIONARY
  5
17
102
{ACAD_REACTORS
330
C
102
}
330
C
100
AcDbDictionary
281
     1
  3
Standard
350
18
  0
DICTIONARY
  5
19
102
{ACAD_REACTORS
330
C
102
}
330
C
100
AcDbDictionary
281
     1
  0
ACDBDICTIONARYWDFLT
  5
E
102
{ACAD_REACTORS
330
C
102
}
330
C
100
AcDbDictionary
281
     1
  3
Normal
350
F
100
AcDbDictionaryWithDefault
340
F
  0
DICTIONARY
  5
3B
102
{ACAD_REACTORS
330
C
102
}
330
C
100
AcDbDictionary
281
     1
  3
A0
350
3C
  3
A1
350
3D
  3
A2
350
3E
  3
A3
350
3F
  3
A4
350
40
  3
A5
350
41
  3
A6
350
42
  3
A7
350
43
  3
A8
350
44
  3
A9
350
45
  3
B0
350
46
  3
B1
350
47
  3
B2
350
48
  3
B3
350
49
  3
B4
350
4A
  3
B5
350
4B
  3
B6
350
4C
  3
B7
350
4D
  3
B8
350
4E
  3
B9
350
4F
  3
C0
350
50
  3
C1
350
51
  3
C2
350
52
  3
C3
350
53
  3
C4
350
54
  3
C5
350
55
  3
C6
350
56
  3
C7
350
57
  3
C8
350
58
  3
C9
350
59
  3
D0
350
5A
  3
D1
350
5B
  3
D2
350
5C
  0
DICTIONARY
  5
133
102
{ACAD_REACTORS
330
C
102
}
330
C
100
AcDbDictionary
281
     1
  0
DICTIONARY
  5
2A
102
{ACAD_REACTORS
330
C
102
}
330
C
100
AcDbDictionary
281
     1
  3
2dWireframe
350
2F
  3
3D Hidden
350
31
  3
3dWireframe
350
30
  3
Basic
350
32
  3
Brighten
350
36
  3
ColorChange
350
3A
  3
Conceptual
350
34
  3
Dim
350
35
  3
Facepattern
350
39
  3
Flat
350
2B
  3
FlatWithEdges
350
2C
  3
Gouraud
350
2D
  3
GouraudWithEdges
350
2E
  3
Linepattern
350
38
  3
Realistic
350
33
  3
Thicken
350
37
  0
DICTIONARY
  5
131
102
{ACAD_REACTORS
330
C
102
}
330
C
100
AcDbDictionary
281
     1
  3
CANNOSCALE
350
132
  3
PSOLHEIGHT
350
136
  3
PSOLWIDTH
350
135
  0
LAYOUT
  5
1E
102
{ACAD_REACTORS
330
1A
102
}
330
1A
100
AcDbPlotSettings
  1

  2
none_device
  4

  6

 40
0.0
 41
0.0
 42
0.0
 43
0.0
 44
0.0
 45
0.0
 46
0.0
 47
0.0
 48
0.0
 49
0.0
140
0.0
141
0.0
142
1.0
143
1.0
 70
   688
 72
     0
 73
     0
 74
     5
  7

 75
    16
147
1.0
148
0.0
149
0.0
100
AcDbLayout
  1
Layout1
 70
     1
 71
     1
 10
0.0
 20
0.0
 11
3000.0
 21
4500.0
 12
0.0
 22
0.0
 32
0.0
 14
0.0
 24
0.0
 34
0.0
 15
3000.0
 25
4500.0
 35
0.0
146
0.0
 13
0.0
 23
0.0
 33
0.0
 16
1.0
 26
0.0
 36
0.0
 17
0.0
 27
1.0
 37
0.0
 76
     0
330
1B
  0
LAYOUT
  5
22
102
{ACAD_REACTORS
330
1A
102
}
330
1A
100
AcDbPlotSettings
  1

  2
none_device
  4

  6

 40
0.0
 41
0.0
 42
0.0
 43
0.0
 44
0.0
 45
0.0
 46
0.0
 47
0.0
 48
0.0
 49
0.0
140
0.0
141
0.0
142
1.0
143
1.0
 70
  1712
 72
     0
 73
     0
 74
     0
  7

 75
     0
147
1.0
148
0.0
149
0.0
100
AcDbLayout
  1
Model
 70
     1
 71
     0
 10
0.0
 20
0.0
 11
3000.0
 21
4500.0
 12
0.0
 22
0.0
 32
0.0
 14
0.0
 24
0.0
 34
0.0
 15
3000.0
 25
4500.0
 35
0.0
146
0.0
 13
0.0
 23
0.0
 33
0.0
 16
1.0
 26
0.0
 36
0.0
 17
0.0
 27
1.0
 37
0.0
 76
     0
330
1F
331
29
  0
MLINESTYLE
  5
18
102
{ACAD_REACTORS
330
17
102
}
330
17
100
AcDbMlineStyle
  2
Standard
 70
     0
  3

 62
   256
 51
90.0
 52
90.0
 71
     2
 49
0.5
 62
   256
  6
BYLAYER
 49
-0.5
 62
   256
  6
BYLAYER
  0
ACDBPLACEHOLDER
  5
F
102
{ACAD_REACTORS
330
E
102
}
330
E
  0
SCALE
  5
3C
102
{ACAD_REACTORS
330
3B
102
}
330
3B
100
AcDbScale
 70
     0
300
1:1
140
1.0
141
1.0
290
     1
  0
SCALE
  5
3D
102
{ACAD_REACTORS
330
3B
102
}
330
3B
100
AcDbScale
 70
     0
300
1:2
140
1.0
141
2.0
290
     0
  0
SCALE
  5
3E
102
{ACAD_REACTORS
330
3B
102
}
330
3B
100
AcDbScale
 70
     0
300
1:4
140
1.0
141
4.0
290
     0
  0
SCALE
  5
3F
102
{ACAD_REACTORS
330
3B
102
}
330
3B
100
AcDbScale
 70
     0
300
1:5
140
1.0
141
5.0
290
     0
  0
SCALE
  5
40
102
{ACAD_REACTORS
330
3B
102
}
330
3B
100
AcDbScale
 70
     0
300
1:8
140
1.0
141
8.0
290
     0
  0
SCALE
  5
41
102
{ACAD_REACTORS
330
3B
102
}
330
3B
100
AcDbScale
 70
     0
300
1:10
140
1.0
141
10.0
290
     0
  0
SCALE
  5
42
102
{ACAD_REACTORS
330
3B
102
}
330
3B
100
AcDbScale
 70
     0
300
1:16
140
1.0
141
16.0
290
     0
  0
SCALE
  5
43
102
{ACAD_REACTORS
330
3B
102
}
330
3B
100
AcDbScale
 70
     0
300
1:20
140
1.0
141
20.0
290
     0
  0
SCALE
  5
44
102
{ACAD_REACTORS
330
3B
102
}
330
3B
100
AcDbScale
 70
     0
300
1:30
140
1.0
141
30.0
290
     0
  0
SCALE
  5
45
102
{ACAD_REACTORS
330
3B
102
}
330
3B
100
AcDbScale
 70
     0
300
1:40
140
1.0
141
40.0
290
     0
  0
SCALE
  5
46
102
{ACAD_REACTORS
330
3B
102
}
330
3B
100
AcDbScale
 70
     0
300
1:50
140
1.0
141
50.0
290
     0
  0
SCALE
  5
47
102
{ACAD_REACTORS
330
3B
102
}
330
3B
100
AcDbScale
 70
     0
300
1:100
140
1.0
141
100.0
290
     0
  0
SCALE
  5
48
102
{ACAD_REACTORS
330
3B
102
}
330
3B
100
AcDbScale
 70
     0
300
2:1
140
2.0
141
1.0
290
     0
  0
SCALE
  5
49
102
{ACAD_REACTORS
330
3B
102
}
330
3B
100
AcDbScale
 70
     0
300
4:1
140
4.0
141
1.0
290
     0
  0
SCALE
  5
4A
102
{ACAD_REACTORS
330
3B
102
}
330
3B
100
AcDbScale
 70
     0
300
8:1
140
8.0
141
1.0
290
     0
  0
SCALE
  5
4B
102
{ACAD_REACTORS
330
3B
102
}
330
3B
100
AcDbScale
 70
     0
300
10:1
140
10.0
141
1.0
290
     0
  0
SCALE
  5
4C
102
{ACAD_REACTORS
330
3B
102
}
330
3B
100
AcDbScale
 70
     0
300
100:1
140
100.0
141
1.0
290
     0
  0
SCALE
  5
4D
102
{ACAD_REACTORS
330
3B
102
}
330
3B
100
AcDbScale
 70
     0
300
1/128" = 1'-0"
140
0.0078125
141
12.0
290
     0
  0
SCALE
  5
4E
102
{ACAD_REACTORS
330
3B
102
}
330
3B
100
AcDbScale
 70
     0
300
1/64" = 1'-0"
140
0.015625
141
12.0
290
     0
  0
SCALE
  5
4F
102
{ACAD_REACTORS
330
3B
102
}
330
3B
100
AcDbScale
 70
     0
300
1/32" = 1'-0"
140
0.03125
141
12.0
290
     0
  0
SCALE
  5
50
102
{ACAD_REACTORS
330
3B
102
}
330
3B
100
AcDbScale
 70
     0
300
1/16" = 1'-0"
140
0.0625
141
12.0
290
     0
  0
SCALE
  5
51
102
{ACAD_REACTORS
330
3B
102
}
330
3B
100
AcDbScale
 70
     0
300
3/32" = 1'-0"
140
0.09375
141
12.0
290
     0
  0
SCALE
  5
52
102
{ACAD_REACTORS
330
3B
102
}
330
3B
100
AcDbScale
 70
     0
300
1/8" = 1'-0"
140
0.125
141
12.0
290
     0
  0
SCALE
  5
53
102
{ACAD_REACTORS
330
3B
102
}
330
3B
100
AcDbScale
 70
     0
300
3/16" = 1'-0"
140
0.1875
141
12.0
290
     0
  0
SCALE
  5
54
102
{ACAD_REACTORS
330
3B
102
}
330
3B
100
AcDbScale
 70
     0
300
1/4" = 1'-0"
140
0.25
141
12.0
290
     0
  0
SCALE
  5
55
102
{ACAD_REACTORS
330
3B
102
}
330
3B
100
AcDbScale
 70
     0
300
3/8" = 1'-0"
140
0.375
141
12.0
290
     0
  0
SCALE
  5
56
102
{ACAD_REACTORS
330
3B
102
}
330
3B
100
AcDbScale
 70
     0
300
1/2" = 1'-0"
140
0.5
141
12.0
290
     0
  0
SCALE
  5
57
102
{ACAD_REACTORS
330
3B
102
}
330
3B
100
AcDbScale
 70
     0
300
3/4" = 1'-0"
140
0.75
141
12.0
290
     0
  0
SCALE
  5
58
102
{ACAD_REACTORS
330
3B
102
}
330
3B
100
AcDbScale
 70
     0
300
1" = 1'-0"
140
1.0
141
12.0
290
     0
  0
SCALE
  5
59
102
{ACAD_REACTORS
330
3B
102
}
330
3B
100
AcDbScale
 70
     0
300
1-1/2" = 1'-0"
140
1.5
141
12.0
290
     0
  0
SCALE
  5
5A
102
{ACAD_REACTORS
330
3B
102
}
330
3B
100
AcDbScale
 70
     0
300
3" = 1'-0"
140
3.0
141
12.0
290
     0
  0
SCALE
  5
5B
102
{ACAD_REACTORS
330
3B
102
}
330
3B
100
AcDbScale
 70
     0
300
6" = 1'-0"
140
6.0
141
12.0
290
     0
  0
SCALE
  5
5C
102
{ACAD_REACTORS
330
3B
102
}
330
3B
100
AcDbScale
 70
     0
300
1'-0" = 1'-0"
140
12.0
141
12.0
290
     0
  0
VISUALSTYLE
  5
2F
102
{ACAD_REACTORS
330
2A
102
}
330
2A
100
AcDbVisualStyle
  2
2dWireframe
 70
     4
 71
     0
 72
     2
 73
     0
 90
        0
 40
-0.6
 41
-30.0
 62
     5
 63
     7
 74
     1
 91
        4
 64
     7
 65
   257
 75
     1
175
     1
 42
1.0
 92
        0
 66
   257
 43
1.0
 76
     1
 77
     6
 78
     2
 67
     7
 79
     5
170
     0
171
     0
290
     0
174
     0
 93
        1
 44
0.0
173
     0
291
     0
 45
0.0
1001
ACAD
1000
AcDbSavedByObjectVersion
1070
     0
  0
VISUALSTYLE
  5
31
102
{ACAD_REACTORS
330
2A
102
}
330
2A
100
AcDbVisualStyle
  2
3D Hidden
 70
     6
 71
     1
 72
     2
 73
     2
 90
        0
 40
-0.6
 41
-30.0
 62
     5
 63
     7
 74
     2
 91
        2
 64
     7
 65
   257
 75
     2
175
     1
 42
40.0
 92
        0
 66
   257
 43
1.0
 76
     1
 77
     6
 78
     2
 67
     7
 79
     3
170
     0
171
     0
290
     0
174
     0
 93
        1
 44
0.0
173
     0
291
     0
 45
0.0
1001
ACAD
1000
AcDbSavedByObjectVersion
1070
     0
  0
VISUALSTYLE
  5
30
102
{ACAD_REACTORS
330
2A
102
}
330
2A
100
AcDbVisualStyle
  2
3dWireframe
 70
     5
 71
     0
 72
     2
 73
     0
 90
        0
 40
-0.6
 41
-30.0
 62
     5
 63
     7
 74
     1
 91
        4
 64
     7
 65
   257
 75
     1
175
     1
 42
1.0
 92
        0
 66
   257
 43
1.0
 76
     1
 77
     6
 78
     2
 67
     7
 79
     5
170
     0
171
     0
290
     0
174
     0
 93
        1
 44
0.0
173
     0
291
     0
 45
0.0
1001
ACAD
1000
AcDbSavedByObjectVersion
1070
     0
  0
VISUALSTYLE
  5
32
102
{ACAD_REACTORS
330
2A
102
}
330
2A
100
AcDbVisualStyle
  2
Basic
 70
     7
 71
     1
 72
     0
 73
     1
 90
        0
 40
-0.6
 41
-30.0
 62
     5
 63
     7
 74
     0
 91
        4
 64
     7
 65
   257
 75
     1
175
     1
 42
1.0
 92
        8
 66
     7
 43
1.0
 76
     1
 77
     6
 78
     2
 67
     7
 79
     5
170
     0
171
     0
290
     0
174
     0
 93
        1
 44
0.0
173
     0
291
     1
 45
0.0
1001
ACAD
1000
AcDbSavedByObjectVersion
1070
     0
  0
VISUALSTYLE
  5
36
102
{ACAD_REACTORS
330
2A
102
}
330
2A
100
AcDbVisualStyle
  2
Brighten
 70
    12
 71
     2
 72
     2
 73
     0
 90
        0
 40
-0.6
 41
-30.0
 62
     5
 63
     7
 74
     1
 91
        4
 64
     7
 65
   257
 75
     1
175
     1
 42
1.0
 92
        8
 66
     7
 43
1.0
 76
     1
 77
     6
 78
     2
 67
     7
 79
     5
170
     0
171
     0
290
     0
174
     0
 93
        1
 44
50.0
173
     0
291
     1
 45
0.0
1001
ACAD
1000
AcDbSavedByObjectVersion
1070
     0
  0
VISUALSTYLE
  5
3A
102
{ACAD_REACTORS
330
2A
102
}
330
2A
100
AcDbVisualStyle
  2
ColorChange
 70
    16
 71
     2
 72
     2
 73
     3
 90
        0
 40
-0.6
 41
-30.0
 62
     5
 63
     8
 74
     1
 91
        4
 64
     7
 65
   257
 75
     1
175
     1
 42
1.0
 92
        8
 66
     8
 43
1.0
 76
     1
 77
     6
 78
     2
 67
     7
 79
     5
170
     0
171
     0
290
     0
174
     0
 93
        1
 44
0.0
173
     0
291
     1
 45
0.0
1001
ACAD
1000
AcDbSavedByObjectVersion
1070
     0
  0
VISUALSTYLE
  5
34
102
{ACAD_REACTORS
330
2A
102
}
330
2A
100
AcDbVisualStyle
  2
Conceptual
 70
     9
 71
     3
 72
     2
 73
     0
 90
        0
 40
-0.6
 41
-30.0
 62
     5
 63
     7
 74
     2
 91
        2
 64
     7
 65
   257
 75
     1
175
     1
 42
40.0
 92
        8
 66
     7
 43
1.0
 76
     1
 77
     6
 78
     2
 67
     7
 79
     3
170
     0
171
     0
290
     0
174
     0
 93
        1
 44
0.0
173
     0
291
     0
 45
0.0
1001
ACAD
1000
AcDbSavedByObjectVersion
1070
     0
  0
VISUALSTYLE
  5
35
102
{ACAD_REACTORS
330
2A
102
}
330
2A
100
AcDbVisualStyle
  2
Dim
 70
    11
 71
     2
 72
     2
 73
     0
 90
        0
 40
-0.6
 41
-30.0
 62
     5
 63
     7
 74
     1
 91
        4
 64
     7
 65
   257
 75
     1
175
     1
 42
1.0
 92
        8
 66
     7
 43
1.0
 76
     1
 77
     6
 78
     2
 67
     7
 79
     5
170
     0
171
     0
290
     0
174
     0
 93
        1
 44
-50.0
173
     0
291
     1
 45
0.0
1001
ACAD
1000
AcDbSavedByObjectVersion
1070
     0
  0
VISUALSTYLE
  5
39
102
{ACAD_REACTORS
330
2A
102
}
330
2A
100
AcDbVisualStyle
  2
Facepattern
 70
    15
 71
     2
 72
     2
 73
     0
 90
        0
 40
-0.6
 41
-30.0
 62
     5
 63
     7
 74
     1
 91
        4
 64
     7
 65
   257
 75
     1
175
     1
 42
1.0
 92
        8
 66
     7
 43
1.0
 76
     1
 77
     6
 78
     2
 67
     7
 79
     5
170
     0
171
     0
290
     0
174
     0
 93
        1
 44
0.0
173
     0
291
     1
 45
0.0
1001
ACAD
1000
AcDbSavedByObjectVersion
1070
     0
  0
VISUALSTYLE
  5
2B
102
{ACAD_REACTORS
330
2A
102
}
330
2A
100
AcDbVisualStyle
  2
Flat
 70
     0
 71
     2
 72
     1
 73
     1
 90
        2
 40
-0.6
 41
30.0
 62
     5
 63
     7
 74
     0
 91
        4
 64
     7
 65
   257
 75
     1
175
     1
 42
1.0
 92
        8
 66
     7
 43
1.0
 76
     1
 77
     6
 78
     2
 67
     7
 79
     5
170
     0
171
     0
290
     0
174
     0
 93
       13
 44
0.0
173
     0
291
     1
 45
0.0
1001
ACAD
1000
AcDbSavedByObjectVersion
1070
     0
  0
VISUALSTYLE
  5
2C
102
{ACAD_REACTORS
330
2A
102
}
330
2A
100
AcDbVisualStyle
  2
FlatWithEdges
 70
     1
 71
     2
 72
     1
 73
     1
 90
        2
 40
-0.6
 41
30.0
 62
     5
 63
     7
 74
     1
 91
        4
 64
     7
 65
   257
 75
     1
175
     1
 42
1.0
 92
        0
 66
   257
 43
1.0
 76
     1
 77
     6
 78
     2
 67
     7
 79
     5
170
     0
171
     0
290
     0
174
     0
 93
       13
 44
0.0
173
     0
291
     1
 45
0.0
1001
ACAD
1000
AcDbSavedByObjectVersion
1070
     0
  0
VISUALSTYLE
  5
2D
102
{ACAD_REACTORS
330
2A
102
}
330
2A
100
AcDbVisualStyle
  2
Gouraud
 70
     2
 71
     2
 72
     2
 73
     1
 90
        2
 40
-0.6
 41
30.0
 62
     5
 63
     7
 74
     0
 91
        4
 64
     7
 65
   257
 75
     1
175
     1
 42
1.0
 92
        0
 66
     7
 43
1.0
 76
     1
 77
     6
 78
     2
 67
     7
 79
     5
170
     0
171
     0
290
     0
174
     0
 93
       13
 44
0.0
173
     0
291
     1
 45
0.0
1001
ACAD
1000
AcDbSavedByObjectVersion
1070
     0
  0
VISUALSTYLE
  5
2E
102
{ACAD_REACTORS
330
2A
102
}
330
2A
100
AcDbVisualStyle
  2
GouraudWithEdges
 70
     3
 71
     2
 72
     2
 73
     1
 90
        2
 40
-0.6
 41
30.0
 62
     5
 63
     7
 74
     1
 91
        4
 64
     7
 65
   257
 75
     1
175
     1
 42
1.0
 92
        0
 66
   257
 43
1.0
 76
     1
 77
     6
 78
     2
 67
     7
 79
     5
170
     0
171
     0
290
     0
174
     0
 93
       13
 44
0.0
173
     0
291
     1
 45
0.0
1001
ACAD
1000
AcDbSavedByObjectVersion
1070
     0
  0
VISUALSTYLE
  5
38
102
{ACAD_REACTORS
330
2A
102
}
330
2A
100
AcDbVisualStyle
  2
Linepattern
 70
    14
 71
     2
 72
     2
 73
     0
 90
        0
 40
-0.6
 41
-30.0
 62
     5
 63
     7
 74
     1
 91
        4
 64
     7
 65
   257
 75
     7
175
     7
 42
1.0
 92
        8
 66
     7
 43
1.0
 76
     1
 77
     6
 78
     2
 67
     7
 79
     5
170
     0
171
     0
290
     0
174
     0
 93
        1
 44
0.0
173
     0
291
     1
 45
0.0
1001
ACAD
1000
AcDbSavedByObjectVersion
1070
     0
  0
VISUALSTYLE
  5
33
102
{ACAD_REACTORS
330
2A
102
}
330
2A
100
AcDbVisualStyle
  2
Realistic
 70
     8
 71
     2
 72
     2
 73
     0
 90
        0
 40
-0.6
 41
-30.0
 62
     5
 63
     7
 74
     1
 91
        0
 64
     7
 65
   257
 75
     1
175
     1
 42
1.0
 92
        8
 66
     8
 43
1.0
 76
     1
 77
     6
 78
     2
 67
     7
 79
     5
170
     0
171
     0
290
     0
174
     0
 93
       13
 44
0.0
173
     0
291
     0
 45
0.0
1001
ACAD
1000
AcDbSavedByObjectVersion
1070
     0
  0
VISUALSTYLE
  5
37
102
{ACAD_REACTORS
330
2A
102
}
330
2A
100
AcDbVisualStyle
  2
Thicken
 70
    13
 71
     2
 72
     2
 73
     0
 90
        0
 40
-0.6
 41
-30.0
 62
     5
 63
     7
 74
     1
 91
        4
 64
     7
 65
   257
 75
     1
175
     1
 42
1.0
 92
       12
 66
     7
 43
1.0
 76
     1
 77
     6
 78
     2
 67
     7
 79
     5
170
     0
171
     0
290
     0
174
     0
 93
        1
 44
0.0
173
     0
291
     1
 45
0.0
1001
ACAD
1000
AcDbSavedByObjectVersion
1070
     0
  0
DICTIONARYVAR
  5
132
102
{ACAD_REACTORS
330
131
102
}
330
131
100
DictionaryVariables
280
     0
  1
1:1
  0
DICTIONARYVAR
  5
136
102
{ACAD_REACTORS
330
131
102
}
330
131
100
DictionaryVariables
280
     0
  1
80.000000
  0
DICTIONARYVAR
  5
135
102
{ACAD_REACTORS
330
131
102
}
330
131
100
DictionaryVariables
280
     0
  1
5.000000
  0
ENDSEC
  0
EOF
