  0
SECTION
  2
HEADER
  9
$ACADVER
  1
AC1015
  9
$ACADMAINTVER
 70
     6
  9
$DWGCODEPAGE
  3
ANSI_1252
  9
$INSBASE
 10
0.0
 20
0.0
 30
0.0
  9
$EXTMIN
 10
0.0
 20
0.0
 30
0.0
  9
$EXTMAX
 10
3000.0
 20
4500.0
 30
0.0
  9
$LIMMIN
 10
0.0
 20
0.0
  9
$LIMMAX
 10
3000.0
 20
4500.0
  9
$ORTHOMODE
 70
     0
  9
$REGENMODE
 70
     1
  9
$FILLMODE
 70
     1
  9
$QTEXTMODE
 70
     0
  9
$MIRRTEXT
 70
     1
  9
$LTSCALE
 40
1.0
  9
$ATTMODE
 70
     1
  9
$TEXTSIZE
 40
2.5
  9
$TRACEWID
 40
1.0
  9
$TEXTSTYLE
  7
Standard
  9
$CLAYER
  8
0
  9
$CELTYPE
  6
ByLayer
  9
$CECOLOR
 62
   256
  9
$CELTSCALE
 40
1.0
  9
$DISPSILH
 70
     0
  9
$DIMSCALE
 40
1.0
  9
$DIMASZ
 40
2.5
  9
$DIMEXO
 40
0.625
  9
$DIMDLI
 40
3.75
  9
$DIMRND
 40
0.0
  9
$DIMDLE
 40
0.0
  9
$DIMEXE
 40
1.25
  9
$DIMTP
 40
0.0
  9
$DIMTM
 40
0.0
  9
$DIMTXT
 40
2.5
  9
$DIMCEN
 40
2.5
  9
$DIMTSZ
 40
0.0
  9
$DIMTOL
 70
     0
  9
$DIMLIM
 70
     0
  9
$DIMTIH
 70
     0
  9
$DIMTOH
 70
     0
  9
$DIMSE1
 70
     0
  9
$DIMSE2
 70
     0
  9
$DIMTAD
 70
     1
  9
$DIMZIN
 70
     8
  9
$DIMBLK
  1

  9
$DIMASO
 70
     1
  9
$DIMSHO
 70
     1
  9
$DIMPOST
  1

  9
$DIMAPOST
  1

  9
$DIMALT
 70
     0
  9
$DIMALTD
 70
     3
  9
$DIMALTF
 40
0.0393700787
  9
$DIMLFAC
 40
1.0
  9
$DIMTOFL
 70
     1
  9
$DIMTVP
 40
0.0
  9
$DIMTIX
 70
     0
  9
$DIMSOXD
 70
     0
  9
$DIMSAH
 70
     0
  9
$DIMBLK1
  1

  9
$DIMBLK2
  1

  9
$DIMSTYLE
  2
ISO-25
  9
$DIMCLRD
 70
     0
  9
$DIMCLRE
 70
     0
  9
$DIMCLRT
 70
     0
  9
$DIMTFAC
 40
1.0
  9
$DIMGAP
 40
0.625
  9
$DIMJUST
 70
     0
  9
$DIMSD1
 70
     0
  9
$DIMSD2
 70
     0
  9
$DIMTOLJ
 70
     0
  9
$DIMTZIN
 70
     8
  9
$DIMALTZ
 70
     0
  9
$DIMALTTZ
 70
     0
  9
$DIMUPT
 70
     0
  9
$DIMDEC
 70
     2
  9
$DIMTDEC
 70
     2
  9
$DIMALTU
 70
     2
  9
$DIMALTTD
 70
     3
  9
$DIMTXSTY
  7
Standard
  9
$DIMAUNIT
 70
     0
  9
$DIMADEC
 70
     0
  9
$DIMALTRND
 40
0.0
  9
$DIMAZIN
 70
     0
  9
$DIMDSEP
 70
    44
  9
$DIMATFIT
 70
     3
  9
$DIMFRAC
 70
     0
  9
$DIMLDRBLK
  1

  9
$DIMLUNIT
 70
     2
  9
$DIMLWD
 70
    -2
  9
$DIMLWE
 70
    -2
  9
$DIMTMOVE
 70
     0
  9
$LUNITS
 70
     2
  9
$LUPREC
 70
     4
  9
$SKETCHINC
 40
1.0
  9
$FILLETRAD
 40
10.0
  9
$AUNITS
 70
     0
  9
$AUPREC
 70
     0
  9
$MENU
  1
.
  9
$ELEVATION
 40
0.0
  9
$PELEVATION
 40
0.0
  9
$THICKNESS
 40
0.0
  9
$LIMCHECK
 70
     0
  9
$CHAMFERA
 40
10.0
  9
$CHAMFERB
 40
10.0
  9
$CHAMFERC
 40
20.0
  9
$CHAMFERD
 40
0.0
  9
$SKPOLY
 70
     0
  9
$TDCREATE
 40
2456141.428815232
  9
$TDUCREATE
 40
2456141.345481898
  9
$TDUPDATE
 40
2456141.428815243
  9
$TDUUPDATE
 40
2456141.34548191
  9
$TDINDWG
 40
0.0000000116
  9
$TDUSRTIMER
 40
0.0000000116
  9
$USRTIMER
 70
     1
  9
$ANGBASE
 50
0.0
  9
$ANGDIR
 70
     0
  9
$PDMODE
 70
     0
  9
$PDSIZE
 40
0.0
  9
$PLINEWID
 40
0.0
  9
$SPLFRAME
 70
     0
  9
$SPLINETYPE
 70
     6
  9
$SPLINESEGS
 70
     8
  9
$HANDSEED
  5
2CF
  9
$SURFTAB1
 70
     6
  9
$SURFTAB2
 70
     6
  9
$SURFTYPE
 70
     6
  9
$SURFU
 70
     6
  9
$SURFV
 70
     6
  9
$UCSBASE
  2

  9
$UCSNAME
  2

  9
$UCSORG
 10
0.0
 20
0.0
 30
0.0
  9
$UCSXDIR
 10
1.0
 20
0.0
 30
0.0
  9
$UCSYDIR
 10
0.0
 20
1.0
 30
0.0
  9
$UCSORTHOREF
  2

  9
$UCSORTHOVIEW
 70
     0
  9
$UCSORGTOP
 10
0.0
 20
0.0
 30
0.0
  9
$UCSORGBOTTOM
 10
0.0
 20
0.0
 30
0.0
  9
$UCSORGLEFT
 10
0.0
 20
0.0
 30
0.0
  9
$UCSORGRIGHT
 10
0.0
 20
0.0
 30
0.0
  9
$UCSORGFRONT
 10
0.0
 20
0.0
 30
0.0
  9
$UCSORGBACK
 10
0.0
 20
0.0
 30
0.0
  9
$PUCSBASE
  2

  9
$PUCSNAME
  2

  9
$PUCSORG
 10
0.0
 20
0.0
 30
0.0
  9
$PUCSXDIR
 10
1.0
 20
0.0
 30
0.0
  9
$PUCSYDIR
 10
0.0
 20
1.0
 30
0.0
  9
$PUCSORTHOREF
  2

  9
$PUCSORTHOVIEW
 70
     0
  9
$PUCSORGTOP
 10
0.0
 20
0.0
 30
0.0
  9
$PUCSORGBOTTOM
 10
0.0
 20
0.0
 30
0.0
  9
$PUCSORGLEFT
 10
0.0
 20
0.0
 30
0.0
  9
$PUCSORGRIGHT
 10
0.0
 20
0.0
 30
0.0
  9
$PUCSORGFRONT
 10
0.0
 20
0.0
 30
0.0
  9
$PUCSORGBACK
 10
0.0
 20
0.0
 30
0.0
  9
$USERI1
 70
     0
  9
$USERI2
 70
     0
  9
$USERI3
 70
     0
  9
$USERI4
 70
     0
  9
$USERI5
 70
     0
  9
$USERR1
 40
0.0
  9
$USERR2
 40
0.0
  9
$USERR3
 40
0.0
  9
$USERR4
 40
0.0
  9
$USERR5
 40
0.0
  9
$WORLDVIEW
 70
     1
  9
$SHADEDGE
 70
     3
  9
$SHADEDIF
 70
    70
  9
$TILEMODE
 70
     1
  9
$MAXACTVP
 70
    64
  9
$PINSBASE
 10
0.0
 20
0.0
 30
0.0
  9
$PLIMCHECK
 70
     0
  9
$PEXTMIN
 10
0.0
 20
0.0
 30
0.0
  9
$PEXTMAX
 10
3000.0
 20
4500.0
 30
0.0
  9
$PLIMMIN
 10
0.0
 20
0.0
  9
$PLIMMAX
 10
3000.0
 20
4500.0
  9
$UNITMODE
 70
     0
  9
$VISRETAIN
 70
     1
  9
$PLINEGEN
 70
     0
  9
$PSLTSCALE
 70
     1
  9
$TREEDEPTH
 70
  3020
  9
$CMLSTYLE
  2
Standard
  9
$CMLJUST
 70
     0
  9
$CMLSCALE
 40
20.0
  9
$PROXYGRAPHICS
 70
     1
  9
$MEASUREMENT
 70
     1
  9
$CELWEIGHT
370
    -1
  9
$ENDCAPS
280
     0
  9
$JOINSTYLE
280
     0
  9
$LWDISPLAY
290
     0
  9
$INSUNITS
 70
     4
  9
$HYPERLINKBASE
  1

  9
$STYLESHEET
  1

  9
$XEDIT
290
     1
  9
$CEPSNTYPE
380
     0
  9
$PSTYLEMODE
290
     1
  9
$FINGERPRINTGUID
  2
{C699AFB3-B89D-452B-907D-41FE8556901F}
  9
$VERSIONGUID
  2
{FAEB1C32-E019-11D5-929B-00C0DF256EC4}
  9
$EXTNAMES
290
     1
  9
$PSVPSCALE
 40
0.0
  9
$OLESTARTUP
290
     0
  0
ENDSEC
  0
SECTION
  2
CLASSES
  0
CLASS
  1
ACDBDICTIONARYWDFLT
  2
AcDbDictionaryWithDefault
  3
ObjectDBX Classes
 90
        0
280
     0
281
     0
  0
CLASS
  1
VISUALSTYLE
  2
AcDbVisualStyle
  3
ObjectDBX Classes
 90
     4095
280
     0
281
     0
  0
CLASS
  1
SCALE
  2
AcDbScale
  3
ObjectDBX Classes
 90
     1153
280
     0
281
     0
  0
CLASS
  1
DICTIONARYVAR
  2
AcDbDictionaryVar
  3
ObjectDBX Classes
 90
        0
280
     0
281
     0
  0
CLASS
  1
ACDBPLACEHOLDER
  2
AcDbPlaceHolder
  3
ObjectDBX Classes
 90
        0
280
     0
281
     0
  0
CLASS
  1
LAYOUT
  2
AcDbLayout
  3
ObjectDBX Classes
 90
        0
280
     0
281
     0
  0
ENDSEC
  0
SECTION
  2
TABLES
  0
TABLE
  2
VPORT
  5
8
330
0
100
AcDbSymbolTable
 70
     1
  0
VPORT
  5
29
330
8
100
AcDbSymbolTableRecord
100
AcDbViewportTableRecord
  2
*Active
 70
     0
 10
0.0
 20
0.0
 11
1.0
 21
1.0
 12
344.1869158879
 22
148.5
 13
0.0
 23
0.0
 14
10.0
 24
10.0
 15
10.0
 25
10.0
 16
0.0
 26
0.0
 36
1.0
 17
0.0
 27
0.0
 37
0.0
 40
297.0
 41
1.9729729729
 42
50.0
 43
0.0
 44
0.0
 50
0.0
 51
0.0
 71
     0
 72
   100
 73
     1
 74
     3
 75
     0
 76
     0
 77
     0
 78
     0
281
     0
 65
     1
110
0.0
120
0.0
130
0.0
111
1.0
121
0.0
131
0.0
112
0.0
122
1.0
132
0.0
 79
     0
146
0.0
  0
ENDTAB
  0
TABLE
  2
LTYPE
  5
5
330
0
100
AcDbSymbolTable
 70
     2
  0
LTYPE
  5
14
330
5
100
AcDbSymbolTableRecord
100
AcDbLinetypeTableRecord
  2
ByBlock
 70
     0
  3

 72
    65
 73
     0
 40
0.0
  0
LTYPE
  5
15
330
5
100
AcDbSymbolTableRecord
100
AcDbLinetypeTableRecord
  2
ByLayer
 70
     0
  3

 72
    65
 73
     0
 40
0.0
  0
LTYPE
  5
16
330
5
100
AcDbSymbolTableRecord
100
AcDbLinetypeTableRecord
  2
Continuous
 70
     0
  3
Solid line
 72
    65
 73
     0
 40
0.0
  0
LTYPE
  5
60
330
5
100
AcDbSymbolTableRecord
100
AcDbLinetypeTableRecord
  2
CENTER2
 70
     0
  3
Center (.5x) ___ _ ___ _ ___ _ ___ _ ___ _ ___
 72
    65
 73
     4
 40
28.575
 49
19.05
 74
     4
 75
     0
340
0
 46
0.0
 50
0.0
 44
0.0
 45
0.0
 49
-3.175
 74
     4
 75
     0
340
0
 46
0.0
 50
0.0
 44
0.0
 45
0.0
 49
3.175
 74
     4
 75
     0
340
0
 46
0.0
 50
0.0
 44
0.0
 45
0.0
 49
-3.175
 74
     4
 75
     0
340
0
 46
0.0
 50
0.0
 44
0.0
 45
0.0
  0
ENDTAB
  0
TABLE
  2
LAYER
  5
2
330
0
100
AcDbSymbolTable
 70
     5
  0
LAYER
  5
10
330
2
100
AcDbSymbolTableRecord
100
AcDbLayerTableRecord
  2
0
 70
     0
 62
     7
  6
Continuous
370
    -3
390
F
  0
LAYER
  5
5D
330
2
100
AcDbSymbolTableRecord
100
AcDbLayerTableRecord
  2
Default
 70
     0
 62
     7
  6
Continuous
370
    -3
390
F
  0
LAYER
  5
82
330
2
100
AcDbSymbolTableRecord
100
AcDbLayerTableRecord
  2
DV1_Default
 70
     0
 62
     7
  6
Continuous
370
    -3
390
F
  0
LAYER
  5
168
330
2
100
AcDbSymbolTableRecord
100
AcDbLayerTableRecord
  2
DV2_Default
 70
     0
 62
     7
  6
Continuous
370
    -3
390
F
  0
LAYER
  5
217
330
2
100
AcDbSymbolTableRecord
100
AcDbLayerTableRecord
  2
DV3_Default
 70
     0
 62
     7
  6
Continuous
370
    -3
390
F
  0
ENDTAB
  0
TABLE
  2
STYLE
  5
3
330
0
100
AcDbSymbolTable
 70
     2
  0
STYLE
  5
11
330
3
100
AcDbSymbolTableRecord
100
AcDbTextStyleTableRecord
  2
Standard
 70
     0
 40
0.0
 41
1.0
 50
0.0
 71
     0
 42
2.5
  3
txt
  4

  0
STYLE
  5
2BE
330
3
100
AcDbSymbolTableRecord
100
AcDbTextStyleTableRecord
  2
SEACAD_seiso_ttf
 70
     0
 40
0.0
 41
1.0
 50
0.0
 71
     0
 42
0.2
  3
seiso.ttf
  4

  0
ENDTAB
  0
TABLE
  2
VIEW
  5
6
330
0
100
AcDbSymbolTable
 70
     0
  0
ENDTAB
  0
TABLE
  2
UCS
  5
7
330
0
100
AcDbSymbolTable
 70
     0
  0
ENDTAB
  0
TABLE
  2
APPID
  5
9
330
0
100
AcDbSymbolTable
 70
     1
  0
APPID
  5
12
330
9
100
AcDbSymbolTableRecord
100
AcDbRegAppTableRecord
  2
ACAD
 70
     0
  0
ENDTAB
  0
TABLE
  2
DIMSTYLE
  5
A
330
0
100
AcDbSymbolTable
 70
     1
100
AcDbDimStyleTable
  0
DIMSTYLE
105
27
330
A
100
AcDbSymbolTableRecord
100
AcDbDimStyleTableRecord
  2
ISO-25
 70
     0
 41
2.5
 42
0.625
 43
3.75
 44
1.25
 73
     0
 74
     0
 77
     1
 78
     8
140
2.5
141
2.5
143
0.0393700787
147
0.625
171
     3
172
     1
271
     2
272
     2
274
     3
278
    44
283
     0
284
     8
340
11
  0
ENDTAB
  0
TABLE
  2
BLOCK_RECORD
  5
1
330
0
100
AcDbSymbolTable
 70
    10
  0
BLOCK_RECORD
  5
1F
330
1
100
AcDbSymbolTableRecord
100
AcDbBlockTableRecord
  2
*Model_Space
340
22
  0
BLOCK_RECORD
  5
1B
330
1
100
AcDbSymbolTableRecord
100
AcDbBlockTableRecord
  2
*Paper_Space
340
1E
  0
BLOCK_RECORD
  5
5E
330
1
100
AcDbSymbolTableRecord
100
AcDbBlockTableRecord
  2
SEANNOT_GROUP
340
0
102
{BLKREFS
331
5F
102
}
  0
BLOCK_RECORD
  5
64
330
1
100
AcDbSymbolTableRecord
100
AcDbBlockTableRecord
  2
SEANNOT_GROUP1
340
0
102
{BLKREFS
331
65
102
}
  0
BLOCK_RECORD
  5
69
330
1
100
AcDbSymbolTableRecord
100
AcDbBlockTableRecord
  2
SEANNOT_GROUP2
340
0
102
{BLKREFS
331
6A
102
}
  0
BLOCK_RECORD
  5
6E
330
1
100
AcDbSymbolTableRecord
100
AcDbBlockTableRecord
  2
SEANNOT_GROUP3
340
0
102
{BLKREFS
331
6F
102
}
  0
BLOCK_RECORD
  5
74
330
1
100
AcDbSymbolTableRecord
100
AcDbBlockTableRecord
  2
SEANNOT_GROUP4
340
0
102
{BLKREFS
331
75
102
}
  0
BLOCK_RECORD
  5
7A
330
1
100
AcDbSymbolTableRecord
100
AcDbBlockTableRecord
  2
SEANNOT_GROUP5
340
0
102
{BLKREFS
331
7B
102
}
  0
BLOCK_RECORD
  5
80
330
1
100
AcDbSymbolTableRecord
100
AcDbBlockTableRecord
  2
SE
340
0
102
{BLKREFS
331
81
102
}
  0
BLOCK_RECORD
  5
166
330
1
100
AcDbSymbolTableRecord
100
AcDbBlockTableRecord
  2
SE1
340
0
102
{BLKREFS
331
167
102
}
  0
BLOCK_RECORD
  5
215
330
1
100
AcDbSymbolTableRecord
100
AcDbBlockTableRecord
  2
SE2
340
0
102
{BLKREFS
331
216
102
}
  0
ENDTAB
  0
ENDSEC
  0
SECTION
  2
BLOCKS
  0
BLOCK
  5
20
330
1F
100
AcDbEntity
  8
0
100
AcDbBlockBegin
  2
*Model_Space
 70
     0
 10
0.0
 20
0.0
 30
0.0
  3
*Model_Space
  1

  0
ENDBLK
  5
21
330
1F
100
AcDbEntity
  8
0
100
AcDbBlockEnd
  0
BLOCK
  5
1C
330
1B
100
AcDbEntity
 67
     1
  8
0
100
AcDbBlockBegin
  2
*Paper_Space
 70
     0
 10
0.0
 20
0.0
 30
0.0
  3
*Paper_Space
  1

  0
ENDBLK
  5
1D
330
1B
100
AcDbEntity
 67
     1
  8
0
100
AcDbBlockEnd
  0
BLOCK
  5
62
330
5E
100
AcDbEntity
  8
0
100
AcDbBlockBegin
  2
SEANNOT_GROUP
 70
     0
 10
0.0
 20
0.0
 30
0.0
  3
SEANNOT_GROUP
  1

  0
LINE
  5
61
330
5E
100
AcDbEntity
  8
Default
  6
CENTER2
 62
     7
100
AcDbLine
 10
150.75
 20
577.6785733854
 30
0.0
 11
150.75
 21
545.9367218589
 31
0.0
  0
ENDBLK
  5
63
330
5E
100
AcDbEntity
  8
0
100
AcDbBlockEnd
  0
BLOCK
  5
67
330
64
100
AcDbEntity
  8
0
100
AcDbBlockBegin
  2
SEANNOT_GROUP1
 70
     0
 10
0.0
 20
0.0
 30
0.0
  3
SEANNOT_GROUP1
  1

  0
LINE
  5
66
330
64
100
AcDbEntity
  8
Default
  6
CENTER2
 62
     7
100
AcDbLine
 10
633.5986212549
 20
577.6785746586
 30
0.0
 11
633.5986212549
 21
548.7326154987
 31
0.0
  0
ENDBLK
  5
68
330
64
100
AcDbEntity
  8
0
100
AcDbBlockEnd
  0
BLOCK
  5
6C
330
69
100
AcDbEntity
  8
0
100
AcDbBlockBegin
  2
SEANNOT_GROUP2
 70
     0
 10
0.0
 20
0.0
 30
0.0
  3
SEANNOT_GROUP2
  1

  0
LINE
  5
6B
330
69
100
AcDbEntity
  8
Default
  6
CENTER2
 62
     7
100
AcDbLine
 10
748.9397640293
 20
652.1546142924
 30
0.0
 11
754.5359625866
 21
632.509006619
 31
0.0
  0
ENDBLK
  5
6D
330
69
100
AcDbEntity
  8
0
100
AcDbBlockEnd
  0
BLOCK
  5
72
330
6E
100
AcDbEntity
  8
0
100
AcDbBlockBegin
  2
SEANNOT_GROUP3
 70
     0
 10
0.0
 20
0.0
 30
0.0
  3
SEANNOT_GROUP3
  1

  0
LINE
  5
70
330
6E
100
AcDbEntity
  8
Default
  6
CENTER2
 62
     7
100
AcDbLine
 10
119.949999553
 20
238.7796017338
 30
0.0
 11
79.950000447
 21
238.7796017338
 31
0.0
  0
LINE
  5
71
330
6E
100
AcDbEntity
  8
Default
  6
CENTER2
 62
     7
100
AcDbLine
 10
99.95
 20
258.7796012868
 30
0.0
 11
99.95
 21
218.7796021808
 31
0.0
  0
ENDBLK
  5
73
330
6E
100
AcDbEntity
  8
0
100
AcDbBlockEnd
  0
BLOCK
  5
78
330
74
100
AcDbEntity
  8
0
100
AcDbBlockBegin
  2
SEANNOT_GROUP4
 70
     0
 10
0.0
 20
0.0
 30
0.0
  3
SEANNOT_GROUP4
  1

  0
LINE
  5
76
330
74
100
AcDbEntity
  8
Default
  6
CENTER2
 62
     7
100
AcDbLine
 10
170.749999553
 20
238.7796017338
 30
0.0
 11
130.750000447
 21
238.7796017338
 31
0.0
  0
LINE
  5
77
330
74
100
AcDbEntity
  8
Default
  6
CENTER2
 62
     7
100
AcDbLine
 10
150.75
 20
258.7796012868
 30
0.0
 11
150.75
 21
218.7796021808
 31
0.0
  0
ENDBLK
  5
79
330
74
100
AcDbEntity
  8
0
100
AcDbBlockEnd
  0
BLOCK
  5
7E
330
7A
100
AcDbEntity
  8
0
100
AcDbBlockBegin
  2
SEANNOT_GROUP5
 70
     0
 10
0.0
 20
0.0
 30
0.0
  3
SEANNOT_GROUP5
  1

  0
LINE
  5
7C
330
7A
100
AcDbEntity
  8
Default
  6
CENTER2
 62
     7
100
AcDbLine
 10
221.549999553
 20
238.7796017338
 30
0.0
 11
181.550000447
 21
238.7796017338
 31
0.0
  0
LINE
  5
7D
330
7A
100
AcDbEntity
  8
Default
  6
CENTER2
 62
     7
100
AcDbLine
 10
201.55
 20
258.7796012868
 30
0.0
 11
201.55
 21
218.7796021808
 31
0.0
  0
ENDBLK
  5
7F
330
7A
100
AcDbEntity
  8
0
100
AcDbBlockEnd
  0
BLOCK
  5
164
330
80
100
AcDbEntity
  8
0
100
AcDbBlockBegin
  2
SE
 70
     0
 10
0.0
 20
0.0
 30
0.0
  3
SE
  1

  0
SPLINE
  5
83
330
80
100
AcDbEntity
  8
DV1_Default
  6
Continuous
 62
     7
100
AcDbSpline
210
0.0
220
0.0
230
1.0
 70
     8
 71
     3
 72
     8
 73
     4
 74
     0
 42
0.0000000337651006
 43
0.0000000001
 40
0.0
 40
0.0
 40
0.0
 40
0.0
 40
1.0
 40
1.0
 40
1.0
 40
1.0
 10
124.4280238346397
 20
604.1684905922474
 30
0.0
 10
124.4252966937597
 20
604.055032517516
 30
0.0
 10
124.4240943819397
 20
603.9597597476084
 30
0.0
 10
124.4285570012797
 20
603.8724811783009
 30
0.0
  0
SPLINE
  5
84
330
80
100
AcDbEntity
  8
DV1_Default
  6
Continuous
 62
     7
100
AcDbSpline
210
0.0
220
0.0
230
1.0
 70
     8
 71
     3
 72
     8
 73
     4
 74
     0
 42
0.0000000398081172
 43
0.0000000001
 40
0.0
 40
0.0
 40
0.0
 40
0.0
 40
1.0
 40
1.0
 40
1.0
 40
1.0
 10
124.4285570012797
 20
603.8724811783009
 30
0.0
 10
124.4330196206197
 20
603.7852026089947
 30
0.0
 10
124.4431471711197
 20
603.7059182402893
 30
0.0
 10
124.4630797548997
 20
603.6244369679623
 30
0.0
  0
SPLINE
  5
85
330
80
100
AcDbEntity
  8
DV1_Default
  6
Continuous
 62
     7
100
AcDbSpline
210
0.0
220
0.0
230
1.0
 70
     8
 71
     3
 72
     9
 73
     5
 74
     0
 42
0.0000000371764094
 43
0.0000000001
 40
0.0
 40
0.0
 40
0.0
 40
0.0
 40
0.01897892147936
 40
1.0
 40
1.0
 40
1.0
 40
1.0
 10
124.4630797548997
 20
603.6244369679623
 30
0.0
 10
124.4634580538497
 20
603.6228905412926
 30
0.0
 10
124.4835767264697
 20
603.5413675745134
 30
0.0
 10
124.5135790072697
 20
603.4574542871331
 30
0.0
 10
124.5503407114797
 20
603.3706025250851
 30
0.0
  0
SPLINE
  5
86
330
80
100
AcDbEntity
  8
DV1_Default
  6
Continuous
 62
     7
100
AcDbSpline
210
0.0
220
0.0
230
1.0
 70
     8
 71
     3
 72
     8
 73
     4
 74
     0
 42
0.000000032055202
 43
0.0000000001
 40
0.0
 40
0.0
 40
0.0
 40
0.0
 40
1.0
 40
1.0
 40
1.0
 40
1.0
 10
124.5503407114797
 20
603.3706025250851
 30
0.0
 10
124.5878136109197
 20
603.2820705210897
 30
0.0
 10
124.6329016563797
 20
603.1888304459638
 30
0.0
 10
124.6832924999997
 20
603.0885197089401
 30
0.0
  0
LINE
  5
87
330
80
100
AcDbEntity
  8
DV1_Default
  6
Continuous
 62
     7
100
AcDbLine
 10
124.6832925
 20
603.0885197089
 30
0.0
 11
150.7500000004
 21
603.0885197089
 31
0.0
  0
LINE
  5
88
330
80
100
AcDbEntity
  8
DV1_Default
  6
Continuous
 62
     7
100
AcDbLine
 10
150.7500000004
 20
603.088519709
 30
0.0
 11
176.8167075
 21
603.088519709
 31
0.0
  0
SPLINE
  5
89
330
80
100
AcDbEntity
  8
DV1_Default
  6
Continuous
 62
     7
100
AcDbSpline
210
0.0
220
0.0
230
1.0
 70
     8
 71
     3
 72
     8
 73
     4
 74
     0
 42
0.000000032055202
 43
0.0000000001
 40
0.0
 40
0.0
 40
0.0
 40
0.0
 40
1.0
 40
1.0
 40
1.0
 40
1.0
 10
176.9496592885197
 20
603.3706025250841
 30
0.0
 10
176.9121863890897
 20
603.2820705211
 30
0.0
 10
176.8670983436797
 20
603.1888304460002
 30
0.0
 10
176.8167075000497
 20
603.0885197090456
 30
0.0
  0
SPLINE
  5
8A
330
80
100
AcDbEntity
  8
DV1_Default
  6
Continuous
 62
     7
100
AcDbSpline
210
0.0
220
0.0
230
1.0
 70
     8
 71
     3
 72
     8
 73
     4
 74
     0
 42
0.0000000398081172
 43
0.0000000001
 40
0.0
 40
0.0
 40
0.0
 40
0.0
 40
1.0
 40
1.0
 40
1.0
 40
1.0
 10
177.0714429987197
 20
603.8724811783013
 30
0.0
 10
177.0669803793797
 20
603.7852026090002
 30
0.0
 10
177.0568528288797
 20
603.7059182403308
 30
0.0
 10
177.0369202451097
 20
603.6244369680238
 30
0.0
  0
SPLINE
  5
8B
330
80
100
AcDbEntity
  8
DV1_Default
  6
Continuous
 62
     7
100
AcDbSpline
210
0.0
220
0.0
230
1.0
 70
     8
 71
     3
 72
     9
 73
     5
 74
     0
 42
0.0000000371764094
 43
0.0000000001
 40
0.0
 40
0.0
 40
0.0
 40
0.0
 40
0.01897892166776
 40
1.0
 40
1.0
 40
1.0
 40
1.0
 10
177.0369202451097
 20
603.6244369680238
 30
0.0
 10
177.0365419461597
 20
603.622890541324
 30
0.0
 10
177.0164232735597
 20
603.5413675745033
 30
0.0
 10
176.9864209927397
 20
603.4574542871329
 30
0.0
 10
176.9496592885197
 20
603.3706025250841
 30
0.0
  0
SPLINE
  5
8C
330
80
100
AcDbEntity
  8
DV1_Default
  6
Continuous
 62
     7
100
AcDbSpline
210
0.0
220
0.0
230
1.0
 70
    12
 71
     3
 72
     8
 73
     4
 74
     0
 42
0.0000000337557417
 43
0.0000000001
 40
0.0
 40
0.0
 40
0.0
 40
0.0
 40
1.0
 40
1.0
 40
1.0
 40
1.0
 10
177.0719741931597
 20
604.1685726344755
 30
0.0
 41
1.0
 10
177.0747031744097
 20
604.0550597889185
 30
0.0
 41
1.0
 10
177.0759066938897
 20
603.9597807883757
 30
0.0
 41
1.0
 10
177.0714429987197
 20
603.8724811783013
 30
0.0
 41
1.0
  0
SPLINE
  5
8D
330
80
100
AcDbEntity
  8
DV1_Default
  6
Continuous
 62
     7
100
AcDbSpline
210
0.0
220
0.0
230
1.0
 70
     8
 71
     3
 72
    15
 73
    11
 74
     0
 42
0.000000000349238
 43
0.0000000001
 40
0.0
 40
0.0
 40
0.0
 40
0.0
 40
0.0481761448770058
 40
0.1977671849058542
 40
0.3473582249347028
 40
0.4969492649635512
 40
0.6465403049923997
 40
0.796131345021248
 40
0.9457223850500968
 40
0.9999999999999999
 40
0.9999999999999999
 40
0.9999999999999999
 40
0.9999999999999999
 10
137.0509241310926
 20
649.8121566730182
 30
0.0
 10
137.2081890051838
 20
649.9703906254587
 30
0.0
 10
138.0030517807303
 20
650.6087596473768
 30
0.0
 10
140.4476465871047
 20
651.6111062621322
 30
0.0
 10
145.1744065156567
 20
652.4763544371431
 30
0.0
 10
150.7499999999997
 20
652.7801967287965
 30
0.0
 10
156.3255934843421
 20
652.4763544371431
 30
0.0
 10
161.0523534128947
 20
651.6111062621322
 30
0.0
 10
163.5398883916261
 20
650.5911530745898
 30
0.0
 10
164.3402886562762
 20
649.930936555478
 30
0.0
 10
164.5070765354224
 20
649.7519074567574
 30
0.0
  0
SPLINE
  5
8E
330
80
100
AcDbEntity
  8
DV1_Default
  6
Continuous
 62
     7
100
AcDbSpline
210
0.0
220
0.0
230
1.0
 70
    12
 71
     3
 72
     9
 73
     5
 74
     0
 42
0.0000000089182398
 43
0.0000000001
 40
0.0
 40
0.0
 40
0.0
 40
0.0
 40
0.0597537663355599
 40
1.0
 40
1.0
 40
1.0
 40
1.0
 10
167.4443092537243
 20
660.308731377941
 30
0.0
 41
1.0
 10
167.4440265961339
 20
660.2878638397539
 30
0.0
 41
1.0
 10
167.4383769665837
 20
659.9371653517834
 30
0.0
 41
1.0
 10
167.4173728268904
 20
659.561945931836
 30
0.0
 41
1.0
 10
167.3849949443714
 20
659.1894733283619
 30
0.0
 41
1.0
  0
SPLINE
  5
8F
330
80
100
AcDbEntity
  8
DV1_Default
  6
Continuous
 62
     7
100
AcDbSpline
210
0.0
220
0.0
230
1.0
 70
    12
 71
     3
 72
     8
 73
     4
 74
     0
 42
0.0000000123310249
 43
0.0000000001
 40
0.0
 40
0.0
 40
0.0
 40
0.0
 40
1.0
 40
1.0
 40
1.0
 40
1.0
 10
134.1012697583066
 20
659.3560192443073
 30
0.0
 41
1.0
 10
134.0792932489373
 20
659.6380305685551
 30
0.0
 41
1.0
 10
134.0648775616734
 20
659.908215936423
 30
0.0
 41
1.0
 10
134.0584534212108
 20
660.1656624131138
 30
0.0
 41
1.0
  0
SPLINE
  5
90
330
80
100
AcDbEntity
  8
DV1_Default
  6
Continuous
 62
     7
100
AcDbSpline
210
0.0
220
0.0
230
1.0
 70
     8
 71
     3
 72
    13
 73
     9
 74
     0
 42
0.0000000003684157
 43
0.0000000001
 40
0.0
 40
0.0
 40
0.0
 40
0.0
 40
0.0618652354373252
 40
0.281290117312502
 40
0.5007149991876787
 40
0.7201398810628555
 40
0.9395647629380321
 40
1.0
 40
1.0
 40
1.0
 40
1.0
 10
163.1552753113433
 20
670.8452575972661
 30
0.0
 10
162.7892516850353
 20
671.1823732487853
 30
0.0
 10
161.0101695380623
 20
672.647445199833
 30
0.0
 10
156.9877696242291
 20
674.6256153247018
 30
0.0
 10
150.7499999999997
 20
675.5388611540478
 30
0.0
 10
144.5122303757698
 20
674.6256153247018
 30
0.0
 10
140.5013180853378
 20
672.6530946812132
 30
0.0
 10
138.7288494238567
 20
671.1972601177966
 30
0.0
 10
138.3701467621346
 20
670.8686107068975
 30
0.0
  0
SPLINE
  5
91
330
80
100
AcDbEntity
  8
DV1_Default
  6
Continuous
 62
     7
100
AcDbSpline
210
0.0
220
0.0
230
1.0
 70
     8
 71
     3
 72
    11
 73
     7
 74
     0
 42
0.0000000014217425
 43
0.0000000001
 40
0.0
 40
0.0
 40
0.0
 40
0.0
 40
0.2330163125527819
 40
0.4886775417018546
 40
0.7443387708509274
 40
1.0
 40
1.0
 40
1.0
 40
1.0
 10
135.8462981927993
 20
640.3785313257796
 30
0.0
 10
135.8421318396489
 20
639.8684173773809
 30
0.0
 10
135.8105789406649
 20
638.7969862289425
 30
0.0
 10
135.6936343336718
 20
637.1432487110714
 30
0.0
 10
135.5691269750856
 20
635.3633464236873
 30
0.0
 10
135.5444516629496
 20
634.0426868453002
 30
0.0
 10
135.5278450301597
 20
633.3543004266994
 30
0.0
  0
SPLINE
  5
92
330
80
100
AcDbEntity
  8
DV1_Default
  6
Continuous
 62
     7
100
AcDbSpline
210
0.0
220
0.0
230
1.0
 70
     8
 71
     3
 72
     8
 73
     4
 74
     0
 42
0.0000000077519571
 43
0.0000000001
 40
0.0
 40
0.0
 40
0.0
 40
0.0
 40
0.9999999999999999
 40
0.9999999999999999
 40
0.9999999999999999
 40
0.9999999999999999
 10
165.9721550063397
 20
633.3542989139594
 30
0.0
 10
165.9614943644588
 20
633.7962090139121
 30
0.0
 10
165.9525929760021
 20
634.2265569685101
 30
0.0
 10
165.9404637418213
 20
634.6438988954687
 30
0.0
  0
SPLINE
  5
93
330
80
100
AcDbEntity
  8
DV1_Default
  6
Continuous
 62
     7
100
AcDbSpline
210
0.0
220
0.0
230
1.0
 70
     8
 71
     3
 72
    11
 73
     7
 74
     0
 42
0.0000000016972065
 43
0.0000000001
 40
0.0
 40
0.0
 40
0.0
 40
0.0
 40
0.1066242523002201
 40
0.4044161682001465
 40
0.702208084100073
 40
1.0
 40
1.0
 40
1.0
 40
1.0
 10
165.9404637418213
 20
634.6438988954687
 30
0.0
 10
165.933698630499
 20
634.8766724204343
 30
0.0
 10
165.9042305469244
 20
635.7442152163098
 30
0.0
 10
165.8063657164139
 20
637.1432480752231
 30
0.0
 10
165.6858632823058
 20
638.8472973487771
 30
0.0
 10
165.6550410006717
 20
639.9676850744112
 30
0.0
 10
165.6527959088297
 20
640.5272327738494
 30
0.0
  0
ARC
  5
94
330
80
100
AcDbEntity
  8
DV1_Default
  6
Continuous
 62
     7
100
AcDbCircle
 10
139.2209748109
 20
624.2226263492
 30
0.0
 40
5.092835537214975
100
AcDbArc
 50
156.9881747251
 51
164.2611317018
  0
ARC
  5
95
330
80
100
AcDbEntity
  8
DV1_Default
  6
Continuous
 62
     7
100
AcDbCircle
 10
96.9418381773
 20
634.7076329851
 30
0.0
 40
38.60973237231659
100
AcDbArc
 50
344.3992593178
 51
357.9912802879
  0
ARC
  5
96
330
80
100
AcDbEntity
  8
DV1_Default
  6
Continuous
 62
     7
100
AcDbCircle
 10
204.5581633891
 20
634.7076357431
 30
0.0
 40
38.60973405096772
100
AcDbArc
 50
182.0087259663
 51
195.6007799896
  0
ARC
  5
97
330
80
100
AcDbEntity
  8
DV1_Default
  6
Continuous
 62
     7
100
AcDbCircle
 10
259.2122145776
 20
654.3650076754
 30
0.0
 40
96.00000000001103
100
AcDbArc
 50
193.5890090099
 51
210.8438273845
  0
ARC
  5
98
330
80
100
AcDbEntity
  8
DV1_Default
  6
Continuous
 62
     7
100
AcDbCircle
 10
42.2877854224
 20
654.3650076754
 30
0.0
 40
96.00000000001
100
AcDbArc
 50
329.1561726155
 51
346.0760932254
  0
ARC
  5
99
330
80
100
AcDbEntity
  8
DV1_Default
  6
Continuous
 62
     7
100
AcDbCircle
 10
126.42744576
 20
604.1204313838
 30
0.0
 40
1.999999430849908
100
AcDbArc
 50
149.1561726151
 51
178.6230721703
  0
ARC
  5
9A
330
80
100
AcDbEntity
  8
DV1_Default
  6
Continuous
 62
     7
100
AcDbCircle
 10
175.0725542399
 20
604.1204313838
 30
0.0
 40
1.99999943157968
100
AcDbArc
 50
1.3792793337
 51
30.8438273849
  0
ARC
  5
9B
330
80
100
AcDbEntity
  8
DV1_Default
  6
Continuous
 62
     7
100
AcDbCircle
 10
124.4367298066
 20
663.4836166022
 30
0.0
 40
43.15697535916557
100
AcDbArc
 50
340.498735651
 51
354.1875726248
  0
ARC
  5
9C
330
80
100
AcDbEntity
  8
DV1_Default
  6
Continuous
 62
     7
100
AcDbCircle
 10
176.797389542
 20
663.4170470955
 30
0.0
 40
42.88470272556619
100
AcDbArc
 50
185.4945062421
 51
199.5426541759
  0
ARC
  5
9D
330
80
100
AcDbEntity
  8
DV1_Default
  6
Continuous
 62
     7
100
AcDbCircle
 10
148.4220611887
 20
660.620591124
 30
0.0
 40
14.35200157389995
100
AcDbArc
 50
134.110149231
 51
181.9704847361
  0
ARC
  5
9E
330
80
100
AcDbEntity
  8
DV1_Default
  6
Continuous
 62
     7
100
AcDbCircle
 10
153.3995336184
 20
660.7461464708
 30
0.0
 40
14.03874317022643
100
AcDbArc
 50
357.8052594873
 51
46.4755835242
  0
ARC
  5
9F
330
80
100
AcDbEntity
  8
DV1_Default
  6
Continuous
 62
     7
100
AcDbCircle
 10
150.75
 20
655.667109681
 30
0.0
 40
19.60957669864557
100
AcDbArc
 50
51.0871644393
 51
128.9128355611
  0
ARC
  5
A0
330
80
100
AcDbEntity
  8
DV1_Default
  6
Continuous
 62
     7
100
AcDbCircle
 10
-39.3593478957
 20
649.9701704532
 30
0.0
 40
205.0630537124604
100
AcDbArc
 50
359.4112587804
 51
0.257132909
  0
SPLINE
  5
A1
330
80
100
AcDbEntity
  8
DV1_Default
  6
Continuous
 62
     7
100
AcDbSpline
210
0.0
220
0.0
230
1.0
 70
     8
 71
     3
 72
     9
 73
     5
 74
     0
 42
0.0000000033117027
 43
0.0000000001
 40
0.0
 40
0.0
 40
0.0
 40
0.0
 40
0.1826493512621467
 40
1.0
 40
1.0
 40
1.0
 40
1.0
 10
135.8174531913866
 20
650.8826243058992
 30
0.0
 10
135.8154540797384
 20
650.7096460026054
 30
0.0
 10
135.8060789908711
 20
649.7583357217312
 30
0.0
 10
135.8063029751461
 20
648.7996829148157
 30
0.0
 10
135.8071199140815
 20
647.8630877181342
 30
0.0
  0
SPLINE
  5
A2
330
80
100
AcDbEntity
  8
DV1_Default
  6
Continuous
 62
     7
100
AcDbSpline
210
0.0
220
0.0
230
1.0
 70
     8
 71
     3
 72
    10
 73
     6
 74
     0
 42
0.0000000038090911
 43
0.0000000001
 40
0.0
 40
0.0
 40
0.0
 40
0.0
 40
0.3174748825588806
 40
0.8275199054040184
 40
1.0
 40
1.0
 40
1.0
 40
1.0
 10
165.6914691215106
 20
648.1540967122938
 30
0.0
 10
165.6899806575919
 20
648.4420637564149
 30
0.0
 10
165.6840328358184
 20
649.1825124106216
 30
0.0
 10
165.6693845317838
 20
650.0545369486355
 30
0.0
 10
165.6554251620766
 20
650.6337010682121
 30
0.0
 10
165.6516936978826
 20
650.7790280763593
 30
0.0
  0
SPLINE
  5
A3
330
80
100
AcDbEntity
  8
DV1_Default
  6
Continuous
 62
     7
100
AcDbSpline
210
0.0
220
0.0
230
1.0
 70
     8
 71
     3
 72
    10
 73
     6
 74
     0
 42
0.0000000038028144
 43
0.0000000001
 40
0.0
 40
0.0
 40
0.0
 40
0.0
 40
0.1722059052367876
 40
0.6814401161739839
 40
1.0
 40
1.0
 40
1.0
 40
1.0
 10
135.8483063021195
 20
650.7790280763336
 30
0.0
 10
135.8445748379257
 20
650.6337010681922
 30
0.0
 10
135.8306154682186
 20
650.0545369486217
 30
0.0
 10
135.8159438408901
 20
649.1811239573892
 30
0.0
 10
135.8099964770468
 20
648.4392143154143
 30
0.0
 10
135.8085085432602
 20
648.1497637320641
 30
0.0
  0
ARC
  5
A4
330
80
100
AcDbEntity
  8
DV1_Default
  6
Continuous
 62
     7
100
AcDbCircle
 10
133.270779434
 20
633.8125793816
 30
0.0
 40
32.67290340384511
100
AcDbArc
 50
357.837951281
 51
1.3696189356
  0
ARC
  5
A5
330
80
100
AcDbEntity
  8
DV1_Default
  6
Continuous
 62
     7
100
AcDbCircle
 10
622.4124174068
 20
643.5109678042
 30
0.0
 40
456.7619490655698
100
AcDbArc
 50
180.064365281
 51
180.3627132613
  0
LINE
  5
A6
330
80
100
AcDbEntity
  8
DV1_Default
  6
Continuous
 62
     7
100
AcDbLine
 10
165.6609598521
 20
640.3776584677
 30
0.0
 11
165.6596208484
 21
640.6194370314
 31
0.0
  0
LINE
  5
A7
330
80
100
AcDbEntity
  8
DV1_Default
  6
Continuous
 62
     7
100
AcDbLine
 10
135.8403791516
 20
640.6194370301
 30
0.0
 11
135.8390401479
 21
640.3776584658
 31
0.0
  0
ARC
  5
A8
330
80
100
AcDbEntity
  8
DV1_Default
  6
Continuous
 62
     7
100
AcDbCircle
 10
-320.9124174397
 20
643.5109678045
 30
0.0
 40
456.7619490984619
100
AcDbArc
 50
359.6372867385
 51
359.935634719
  0
ARC
  5
A9
330
80
100
AcDbEntity
  8
DV1_Default
  6
Continuous
 62
     7
100
AcDbCircle
 10
168.2292214438
 20
633.8125794045
 30
0.0
 40
32.6729042818443
100
AcDbArc
 50
178.6303809435
 51
182.1620487011
  0
ARC
  5
AA
330
80
100
AcDbEntity
  8
DV1_Default
  6
Continuous
 62
     7
100
AcDbCircle
 10
97.6148804526
 20
635.745126426
 30
0.0
 40
38.13607712426899
100
AcDbArc
 50
345.4207359193
 51
349.3722086652
  0
SPLINE
  5
AB
330
80
100
AcDbEntity
  8
DV1_Default
  6
Continuous
 62
     7
100
AcDbSpline
210
0.0
220
0.0
230
1.0
 70
     8
 71
     3
 72
     8
 73
     4
 74
     0
 42
0.0000001025497046
 43
0.0000000001
 40
0.0
 40
0.0
 40
0.0
 40
0.0
 40
1.0
 40
1.0
 40
1.0
 40
1.0
 10
165.9887074809864
 20
632.5702353138516
 30
0.0
 10
165.9894113538423
 20
632.5885013842894
 30
0.0
 10
165.9663263367003
 20
632.6063833184068
 30
0.0
 10
165.9194524295606
 20
632.6238811162036
 30
0.0
  0
SPLINE
  5
AC
330
80
100
AcDbEntity
  8
DV1_Default
  6
Continuous
 62
     7
100
AcDbSpline
210
0.0
220
0.0
230
1.0
 70
     8
 71
     3
 72
     8
 73
     4
 74
     0
 42
0.0000001025251145
 43
0.0000000001
 40
0.0
 40
0.0
 40
0.0
 40
0.0
 40
1.0
 40
1.0
 40
1.0
 40
1.0
 10
135.5805475704423
 20
632.6238811162088
 30
0.0
 10
135.5336699168913
 20
632.6063842171727
 30
0.0
 10
135.5105814333574
 20
632.5884958958937
 30
0.0
 10
135.5112821198403
 20
632.5702161523717
 30
0.0
  0
ARC
  5
AD
330
80
100
AcDbEntity
  8
DV1_Default
  6
Continuous
 62
     7
100
AcDbCircle
 10
203.8851209722
 20
635.7451278077
 30
0.0
 40
38.13608056913001
100
AcDbArc
 50
191.132498015
 51
194.5793684881
  0
LINE
  5
AE
330
80
100
AcDbEntity
  8
DV1_Default
  6
Continuous
 62
     7
100
AcDbLine
 10
220.2137071443
 20
574.1785746586
 30
0.0
 11
234.6139645576
 21
574.1785746586
 31
0.0
  0
LINE
  5
AF
330
80
100
AcDbEntity
  8
DV1_Default
  6
Continuous
 62
     7
100
AcDbLine
 10
189.9554197938
 20
574.1785733854
 30
0.0
 11
220.2137072121
 21
574.1785733854
 31
0.0
  0
SPLINE
  5
B0
330
80
100
AcDbEntity
  8
DV1_Default
  6
Continuous
 62
     7
100
AcDbSpline
210
0.0
220
0.0
230
1.0
 70
     8
 71
     3
 72
    14
 73
    10
 74
     0
 42
0.0000000005296134
 43
0.0000000001
 40
0.0
 40
0.0
 40
0.0
 40
0.0
 40
0.2500000000000001
 40
0.2500000000000001
 40
0.5000000000000003
 40
0.5000000000000003
 40
0.7500000000000002
 40
0.7500000000000002
 40
1.0
 40
1.0
 40
1.0
 40
1.0
 10
171.0737314788197
 20
574.1786252767237
 30
0.0
 10
172.6325247499611
 20
574.1785621555064
 30
0.0
 10
174.1117376821379
 20
574.1783492906752
 30
0.0
 10
177.0987960369134
 20
574.1780384771309
 30
0.0
 10
178.6140428805052
 20
574.1780185714248
 30
0.0
 10
181.7914432272844
 20
574.1777291849503
 30
0.0
 10
183.4406974493892
 20
574.177777938191
 30
0.0
 10
186.70788504156
 20
574.1787028837094
 30
0.0
 10
188.3083729380217
 20
574.1786211237912
 30
0.0
 10
189.9554283277297
 20
574.1785852528443
 30
0.0
  0
LINE
  5
B1
330
80
100
AcDbEntity
  8
DV1_Default
  6
Continuous
 62
     7
100
AcDbLine
 10
171.0737356419
 20
574.1785733854
 30
0.0
 11
130.4262643581
 21
574.1785733854
 31
0.0
  0
LINE
  5
B2
330
80
100
AcDbEntity
  8
DV1_Default
  6
Continuous
 62
     7
100
AcDbLine
 10
130.4262685212
 20
574.1786252767
 30
0.0
 11
111.5445716723
 21
574.1785852528
 31
0.0
  0
LINE
  5
B3
330
80
100
AcDbEntity
  8
DV1_Default
  6
Continuous
 62
     7
100
AcDbLine
 10
111.5445802062
 20
574.1785733854
 30
0.0
 11
81.2862927879
 21
574.1785733854
 31
0.0
  0
LINE
  5
B4
330
80
100
AcDbEntity
  8
DV1_Default
  6
Continuous
 62
     7
100
AcDbLine
 10
81.2862928557
 20
574.1785746586
 30
0.0
 11
66.8860354424
 21
574.1785746586
 31
0.0
  0
LINE
  5
B5
330
80
100
AcDbEntity
  8
DV1_Default
  6
Continuous
 62
     7
100
AcDbLine
 10
175.3064441685
 20
603.0885196977
 30
0.0
 11
175.6421288839
 21
603.0885197066
 31
0.0
  0
LINE
  5
B6
330
80
100
AcDbEntity
  8
DV1_Default
  6
Continuous
 62
     7
100
AcDbLine
 10
175.6748923118
 20
603.0885197075
 30
0.0
 11
175.7290145418
 21
603.0885197089
 31
0.0
  0
LINE
  5
B7
330
80
100
AcDbEntity
  8
DV1_Default
  6
Continuous
 62
     7
100
AcDbLine
 10
125.8216554082
 20
603.0885197086
 30
0.0
 11
126.1915102574
 21
603.0885197061
 31
0.0
  0
ARC
  5
B8
330
80
100
AcDbEntity
  8
DV1_Default
  6
Continuous
 62
     7
100
AcDbCircle
 10
117.835778414
 20
601.5885197089
 30
0.0
 40
1.499999999998152
100
AcDbArc
 50
27.0514965891
 51
35.4916401671
  0
ARC
  5
B9
330
80
100
AcDbEntity
  8
DV1_Default
  6
Continuous
 62
     7
100
AcDbCircle
 10
117.835778414
 20
601.5885197089
 30
0.0
 40
1.499999999998152
100
AcDbArc
 50
67.4145017709
 51
90.0000112675
  0
ARC
  5
BA
330
80
100
AcDbEntity
  8
DV1_Default
  6
Continuous
 62
     7
100
AcDbCircle
 10
118.7740203824
 20
603.1127633676
 30
0.0
 40
0.9312301479793317
100
AcDbArc
 50
293.5243740195
 51
295.2786693278
  0
ARC
  5
BB
330
80
100
AcDbEntity
  8
DV1_Default
  6
Continuous
 62
     7
100
AcDbCircle
 10
112.1100382065
 20
658.8846384692
 30
0.0
 40
80.17291245508288
100
AcDbArc
 50
269.5788189148
 51
270.484663731
  0
ARC
  5
BC
330
80
100
AcDbEntity
  8
DV1_Default
  6
Continuous
 62
     7
100
AcDbCircle
 10
121.6772347426
 20
-39.8923422376
 30
0.0
 40
618.6707983606022
100
AcDbArc
 50
89.1720489913
 51
90.8232505397
  0
ARC
  5
BD
330
80
100
AcDbEntity
  8
DV1_Default
  6
Continuous
 62
     7
100
AcDbCircle
 10
124.7574677545
 20
602.74620801
 30
0.0
 40
0.5692055124763542
100
AcDbArc
 50
235.7985289727
 51
238.530367452
  0
SPLINE
  5
BE
330
80
100
AcDbEntity
  8
DV1_Default
  6
Continuous
 62
     7
100
AcDbSpline
210
0.0
220
0.0
230
1.0
 70
    12
 71
     3
 72
    20
 73
    16
 74
     0
 42
0.0000000015453173
 43
0.0000000001
 40
0.0
 40
0.0
 40
0.0
 40
0.0
 40
0.01735613551088
 40
0.1161737624554
 40
0.2149913893999
 40
0.3138090163444
 40
0.4126266432889
 40
0.5114442702334
 40
0.610261897178
 40
0.7090795241225
 40
0.807897151067
 40
0.8573059645392
 40
0.9067147780115
 40
0.9561235914837
 40
1.0
 40
1.0
 40
1.0
 40
1.0
 10
124.4375147105797
 20
602.2754374023094
 30
0.0
 41
1.0
 10
124.4188983525297
 20
602.2392986201294
 30
0.0
 41
1.0
 10
124.2914059144597
 20
602.0000875754994
 30
0.0
 41
1.0
 10
124.0129855656797
 20
601.5977009300494
 30
0.0
 41
1.0
 10
123.5170241388397
 20
601.1733038472294
 30
0.0
 41
1.0
 10
122.9221844751397
 20
600.8903620823194
 30
0.0
 41
1.0
 10
122.2568648632797
 20
600.7468881200894
 30
0.0
 41
1.0
 10
121.5610900577397
 20
600.7358867073693
 30
0.0
 41
1.0
 10
120.8824078888697
 20
600.8513453306894
 30
0.0
 41
1.0
 10
120.2708933725997
 20
601.0906072026394
 30
0.0
 41
1.0
 10
119.8531273996897
 20
601.3803685255193
 30
0.0
 41
1.0
 10
119.5848770548697
 20
601.6463084514294
 30
0.0
 41
1.0
 10
119.4157803043897
 20
601.8570388040094
 30
0.0
 41
1.0
 10
119.2807186196097
 20
602.0659953700894
 30
0.0
 41
1.0
 10
119.2054373188897
 20
602.2045918919594
 30
0.0
 41
1.0
 10
119.1716754465397
 20
602.2707063395594
 30
0.0
 41
1.0
  0
SPLINE
  5
BF
330
80
100
AcDbEntity
  8
DV1_Default
  6
Continuous
 62
     7
100
AcDbSpline
210
0.0
220
0.0
230
1.0
 70
    12
 71
     3
 72
     9
 73
     5
 74
     0
 42
0.0000000003727884
 43
0.0000000001
 40
0.0
 40
0.0
 40
0.0
 40
0.0
 40
0.503757845499601
 40
1.0
 40
1.0
 40
1.0
 40
1.0
 10
80.70422533221972
 20
602.1825602220495
 30
0.0
 41
1.0
 10
78.54375401292974
 20
597.1732333766894
 30
0.0
 41
1.0
 10
74.34319859172173
 20
587.6534125923849
 30
0.0
 41
1.0
 10
70.67608136768028
 20
580.9482389726093
 30
0.0
 41
1.0
 10
68.21521081758975
 20
578.7171632899134
 30
0.0
 41
1.0
  0
LINE
  5
C0
330
80
100
AcDbEntity
  8
DV1_Default
  6
Continuous
 62
     7
100
AcDbLine
 10
68.2151102123
 20
578.7170722589
 30
0.0
 11
99.9500007629
 21
578.717072259
 31
0.0
  0
LINE
  5
C1
330
80
100
AcDbEntity
  8
DV1_Default
  6
Continuous
 62
     7
100
AcDbLine
 10
99.9500007629
 20
578.7171521452
 30
0.0
 11
111.0775041124
 21
578.7171521452
 31
0.0
  0
SPLINE
  5
C2
330
80
100
AcDbEntity
  8
DV1_Default
  6
Continuous
 62
     7
100
AcDbSpline
210
0.0
220
0.0
230
1.0
 70
     8
 71
     3
 72
     8
 73
     4
 74
     0
 42
0.0000000029642514
 43
0.0000000001
 40
0.0
 40
0.0
 40
0.0
 40
0.0
 40
1.0
 40
1.0
 40
1.0
 40
1.0
 10
67.47447299398974
 20
577.4930881889943
 30
0.0
 10
67.1855759107337
 20
576.3799813450582
 30
0.0
 10
66.98942530484616
 20
575.2751248453823
 30
0.0
 10
66.88603544244972
 20
574.1785746586154
 30
0.0
  0
LINE
  5
C3
330
80
100
AcDbEntity
  8
DV1_Default
  6
Continuous
 62
     7
100
AcDbLine
 10
131.085542892
 20
578.7137299339
 30
0.0
 11
170.414457108
 21
578.7137299339
 31
0.0
  0
ARC
  5
C4
330
80
100
AcDbEntity
  8
DV1_Default
  6
Continuous
 62
     7
100
AcDbCircle
 10
179.8241954584
 20
-74.7588560877
 30
0.0
 40
653.5338856961234
100
AcDbArc
 50
89.2207943494
 51
90.7839061195
  0
LINE
  5
C5
330
80
100
AcDbEntity
  8
DV1_Default
  6
Continuous
 62
     7
100
AcDbLine
 10
189.9792979076
 20
578.7139206634
 30
0.0
 11
188.7117899995
 21
578.7145910292
 31
0.0
  0
SPLINE
  5
C6
330
80
100
AcDbEntity
  8
DV1_Default
  6
Continuous
 62
     7
100
AcDbSpline
210
0.0
220
0.0
230
1.0
 70
    12
 71
     3
 72
    20
 73
    16
 74
     0
 42
0.0000000015453173
 43
0.0000000001
 40
0.0
 40
0.0
 40
0.0
 40
0.0
 40
0.01735613551088
 40
0.1161737624554
 40
0.2149913893999
 40
0.3138090163444
 40
0.4126266432889
 40
0.5114442702334
 40
0.610261897178
 40
0.7090795241225
 40
0.807897151067
 40
0.8573059645392
 40
0.9067147780115
 40
0.9561235914837
 40
1.0
 40
1.0
 40
1.0
 40
1.0
 10
177.0624852894197
 20
602.2754374023094
 30
0.0
 41
1.0
 10
177.0811016474697
 20
602.2392986201294
 30
0.0
 41
1.0
 10
177.2085940855397
 20
602.0000875754994
 30
0.0
 41
1.0
 10
177.4870144343197
 20
601.5977009300494
 30
0.0
 41
1.0
 10
177.9829758611597
 20
601.1733038472294
 30
0.0
 41
1.0
 10
178.5778155248597
 20
600.8903620823194
 30
0.0
 41
1.0
 10
179.2431351367198
 20
600.7468881200894
 30
0.0
 41
1.0
 10
179.9389099422598
 20
600.7358867073693
 30
0.0
 41
1.0
 10
180.6175921111297
 20
600.8513453306894
 30
0.0
 41
1.0
 10
181.2291066273997
 20
601.0906072026394
 30
0.0
 41
1.0
 10
181.6468726003097
 20
601.3803685255193
 30
0.0
 41
1.0
 10
181.9151229451297
 20
601.6463084514294
 30
0.0
 41
1.0
 10
182.0842196956097
 20
601.8570388040094
 30
0.0
 41
1.0
 10
182.2192813803897
 20
602.0659953700894
 30
0.0
 41
1.0
 10
182.2945626811097
 20
602.2045918919594
 30
0.0
 41
1.0
 10
182.3283245534597
 20
602.2707063395594
 30
0.0
 41
1.0
  0
SPLINE
  5
C7
330
80
100
AcDbEntity
  8
DV1_Default
  6
Continuous
 62
     7
100
AcDbSpline
210
0.0
220
0.0
230
1.0
 70
     8
 71
     3
 72
    11
 73
     7
 74
     0
 42
0.0000002528513337
 43
0.0000000001
 40
0.0
 40
0.0
 40
0.0
 40
0.0
 40
0.2799383056466643
 40
0.4812601375398657
 40
0.7586781948767032
 40
0.9999999999999999
 40
0.9999999999999999
 40
0.9999999999999999
 40
0.9999999999999999
 10
177.0327738084357
 20
602.2537687337655
 30
0.0
 10
177.0386371086346
 20
602.2575938515575
 30
0.0
 10
177.0469976529381
 20
602.263754841464
 30
0.0
 10
177.0551907737224
 20
602.2723366806085
 30
0.0
 10
177.0600268276242
 20
602.2775105145349
 30
0.0
 10
177.0617048140699
 20
602.276095669661
 30
0.0
 10
177.0624852894197
 20
602.2754374023094
 30
0.0
  0
SPLINE
  5
C8
330
80
100
AcDbEntity
  8
DV1_Default
  6
Continuous
 62
     7
100
AcDbSpline
210
0.0
220
0.0
230
1.0
 70
    12
 71
     3
 72
     8
 73
     4
 74
     0
 42
0.000000049710514
 43
0.0000000001
 40
0.0
 40
0.0
 40
0.0
 40
0.0
 40
1.0
 40
1.0
 40
1.0
 40
1.0
 10
183.8820575338148
 20
603.0744514905634
 30
0.0
 41
1.051289396208696
 10
183.9488698296175
 20
603.0838777893274
 30
0.0
 41
1.06235475937302
 10
184.0157614698061
 20
603.0885183737066
 30
0.0
 41
1.075210584177703
 10
184.0823997605097
 20
603.0885197087293
 30
0.0
 41
1.089856870622747
  0
ARC
  5
C9
330
80
100
AcDbEntity
  8
DV1_Default
  6
Continuous
 62
     7
100
AcDbCircle
 10
183.6642215859
 20
601.5885197089
 30
0.0
 40
1.499999999998152
100
AcDbArc
 50
144.5083555707
 51
152.9485034109
  0
ARC
  5
CA
330
80
100
AcDbEntity
  8
DV1_Default
  6
Continuous
 62
     7
100
AcDbCircle
 10
183.6642215859
 20
601.5885197089
 30
0.0
 40
1.499999999998152
100
AcDbArc
 50
89.9999887325
 51
112.5854966814
  0
ARC
  5
CB
330
80
100
AcDbEntity
  8
DV1_Default
  6
Continuous
 62
     7
100
AcDbCircle
 10
176.735770894
 20
602.7742606832
 30
0.0
 40
0.5962943583402035
100
AcDbArc
 50
300.5984629654
 51
303.2236048875
  0
SPLINE
  5
CC
330
80
100
AcDbEntity
  8
DV1_Default
  6
Continuous
 62
     7
100
AcDbSpline
210
0.0
220
0.0
230
1.0
 70
    12
 71
     3
 72
     8
 73
     4
 74
     0
 42
0.000000005778752
 43
0.0000000001
 40
0.0
 40
0.0
 40
0.0
 40
0.0
 40
1.0
 40
1.0
 40
1.0
 40
1.0
 10
177.0624852894197
 20
602.2754374023094
 30
0.0
 41
1.068186041411205
 10
176.7973267153562
 20
602.7901735219489
 30
0.0
 41
0.9703748818752316
 10
176.3036393690941
 20
603.0885197625389
 30
0.0
 41
0.977794456501694
 10
175.7290145417597
 20
603.0885197089394
 30
0.0
 41
1.090444765290591
  0
SPLINE
  5
CD
330
80
100
AcDbEntity
  8
DV1_Default
  6
Continuous
 62
     7
100
AcDbSpline
210
0.0
220
0.0
230
1.0
 70
    12
 71
     3
 72
     8
 73
     4
 74
     0
 42
0.0000000066905618
 43
0.0000000001
 40
0.0
 40
0.0
 40
0.0
 40
0.0
 40
1.0
 40
1.0
 40
1.0
 40
1.0
 10
124.4375147105797
 20
602.2754374023094
 30
0.0
 41
1.068383056545826
 10
124.6650140293662
 20
602.7170676334621
 30
0.0
 41
0.9832291932959965
 10
125.0708460665748
 20
603.0060691937275
 30
0.0
 41
0.9776035874024244
 10
125.5657905978516
 20
603.0744184500697
 30
0.0
 41
1.05150623886511
  0
ARC
  5
CE
330
80
100
AcDbEntity
  8
DV1_Default
  6
Continuous
 62
     7
100
AcDbCircle
 10
126.1970045815
 20
601.6132043193
 30
0.0
 40
1.475325617707567
100
AcDbArc
 50
90.2133781881
 51
98.0693367675
  0
SPLINE
  5
CF
330
80
100
AcDbEntity
  8
DV1_Default
  6
Continuous
 62
     7
100
AcDbSpline
210
0.0
220
0.0
230
1.0
 70
     8
 71
     3
 72
     9
 73
     5
 74
     0
 42
0.0000000003727884
 43
0.0000000001
 40
0.0
 40
0.0
 40
0.0
 40
0.0
 40
0.5037578539447156
 40
1.0
 40
1.0
 40
1.0
 40
1.0
 10
220.7957746677797
 20
602.1825602220495
 30
0.0
 10
222.9562459870697
 20
597.1732333766894
 30
0.0
 10
227.1568013378586
 20
587.6534127519775
 30
0.0
 10
230.8239185093664
 20
580.9482391974234
 30
0.0
 10
233.2847889330097
 20
578.7171635160284
 30
0.0
  0
LINE
  5
D0
330
80
100
AcDbEntity
  8
DV1_Default
  6
Continuous
 62
     7
100
AcDbLine
 10
233.284788933
 20
578.717163516
 30
0.0
 11
201.5499992371
 21
578.717163516
 31
0.0
  0
SPLINE
  5
D1
330
80
100
AcDbEntity
  8
DV1_Default
  6
Continuous
 62
     7
100
AcDbSpline
210
0.0
220
0.0
230
1.0
 70
     8
 71
     3
 72
     8
 73
     4
 74
     0
 42
0.0000000029642514
 43
0.0000000001
 40
0.0
 40
0.0
 40
0.0
 40
0.0
 40
1.0
 40
1.0
 40
1.0
 40
1.0
 10
234.0255270060097
 20
577.4930881889943
 30
0.0
 10
234.3144240892658
 20
576.3799813450582
 30
0.0
 10
234.5105746951533
 20
575.2751248453862
 30
0.0
 10
234.6139645575497
 20
574.1785746586154
 30
0.0
  0
LINE
  5
D2
330
80
100
AcDbEntity
  8
DV1_Default
  6
Continuous
 62
     7
100
AcDbLine
 10
201.5499992371
 20
578.7171521452
 30
0.0
 11
190.4224958876
 21
578.7171521452
 31
0.0
  0
ARC
  5
D3
330
80
100
AcDbEntity
  8
DV1_Default
  6
Continuous
 62
     7
100
AcDbCircle
 10
117.8035551826
 20
601.5882834617
 30
0.0
 40
1.500472107855364
100
AcDbArc
 50
22.8273609765
 51
73.833394727
  0
LINE
  5
D4
330
80
100
AcDbEntity
  8
DV1_Default
  6
Continuous
 62
     7
100
AcDbLine
 10
117.9391206032
 20
603.0728633935
 30
0.0
 11
117.6141011998
 21
603.0742909586
 31
0.0
  0
LINE
  5
D5
330
80
100
AcDbEntity
  8
DV1_Default
  6
Continuous
 62
     7
100
AcDbLine
 10
118.3453676112
 20
602.9520984099
 30
0.0
 11
118.0418750924
 21
603.0742909355
 31
0.0
  0
ARC
  5
D6
330
80
100
AcDbEntity
  8
DV1_Default
  6
Continuous
 62
     7
100
AcDbCircle
 10
82.0815836258
 20
601.5885197089
 30
0.0
 40
1.499999999999974
100
AcDbArc
 50
90.0
 51
156.6699586294
  0
ARC
  5
D7
330
80
100
AcDbEntity
  8
DV1_Default
  6
Continuous
 62
     7
100
AcDbCircle
 10
69.894270716
 20
576.8649329545
 30
0.0
 40
2.499999999998634
100
AcDbArc
 50
132.1956389634
 51
165.4477910473
  0
LINE
  5
D8
330
80
100
AcDbEntity
  8
DV1_Default
  6
Continuous
 62
     7
100
AcDbLine
 10
183.4581248863
 20
603.0742909326
 30
0.0
 11
183.1546323272
 21
602.9520983815
 31
0.0
  0
LINE
  5
D9
330
80
100
AcDbEntity
  8
DV1_Default
  6
Continuous
 62
     7
100
AcDbLine
 10
183.8858987794
 20
603.0742909556
 30
0.0
 11
183.5608793747
 21
603.0728633902
 31
0.0
  0
ARC
  5
DA
330
80
100
AcDbEntity
  8
DV1_Default
  6
Continuous
 62
     7
100
AcDbCircle
 10
183.6964448177
 20
601.5882834616
 30
0.0
 40
1.500472108047202
100
AcDbArc
 50
106.1666069816
 51
157.1726455115
  0
LINE
  5
DB
330
80
100
AcDbEntity
  8
DV1_Default
  6
Continuous
 62
     7
100
AcDbLine
 10
176.2376026766
 20
602.9511786547
 30
0.0
 11
175.934740715
 21
603.0743449817
 31
0.0
  0
ARC
  5
DC
330
80
100
AcDbEntity
  8
DV1_Default
  6
Continuous
 62
     7
100
AcDbCircle
 10
125.5921910209
 20
602.5734859231
 30
0.0
 40
0.501635524806303
100
AcDbArc
 50
93.00637603
 51
131.1145266894
  0
ARC
  5
DD
330
80
100
AcDbEntity
  8
DV1_Default
  6
Continuous
 62
     7
100
AcDbCircle
 10
126.3912777009
 20
455.9327841214
 30
0.0
 40
147.1420827267045
100
AcDbArc
 50
90.1546535048
 51
90.2799500969
  0
ARC
  5
DE
330
80
100
AcDbEntity
  8
DV1_Default
  6
Continuous
 62
     7
100
AcDbCircle
 10
125.8003208909
 20
601.5900391946
 30
0.0
 40
1.498676145468472
100
AcDbArc
 50
106.1490478776
 51
157.1588130081
  0
ARC
  5
DF
330
80
100
AcDbEntity
  8
DV1_Default
  6
Continuous
 62
     7
100
AcDbCircle
 10
175.3971744922
 20
601.0591971962
 30
0.0
 40
2.018064047049037
100
AcDbArc
 50
33.4574653337
 51
86.9119213357
  0
ARC
  5
E0
330
80
100
AcDbEntity
  8
DV1_Default
  6
Continuous
 62
     7
100
AcDbCircle
 10
231.605729284
 20
576.8649329545
 30
0.0
 40
2.50000000138297
100
AcDbArc
 50
14.5522112466
 51
47.8074765972
  0
ARC
  5
E1
330
80
100
AcDbEntity
  8
DV1_Default
  6
Continuous
 62
     7
100
AcDbCircle
 10
219.4184163742
 20
601.5885197089
 30
0.0
 40
1.500000000001883
100
AcDbArc
 50
23.3300413711
 51
90.0
  0
LINE
  5
E2
330
80
100
AcDbEntity
  8
DV1_Default
  6
Continuous
 62
     7
100
AcDbLine
 10
159.7750001103
 20
676.0885473372
 30
0.0
 11
141.7249998897
 21
676.0885473372
 31
0.0
  0
ARC
  5
E3
330
80
100
AcDbEntity
  8
DV1_Default
  6
Continuous
 62
     7
100
AcDbCircle
 10
151.8467136874
 20
643.025845173
 30
0.0
 40
34.00000000004783
100
AcDbArc
 50
73.0588117518
 51
76.5153473469
  0
ARC
  5
E4
330
80
100
AcDbEntity
  8
DV1_Default
  6
Continuous
 62
     7
100
AcDbCircle
 10
149.6532863126
 20
643.025845173
 30
0.0
 40
34.00000000004915
100
AcDbArc
 50
103.4846526531
 51
106.9411882482
  0
ARC
  5
E5
330
80
100
AcDbEntity
  8
DV1_Default
  6
Continuous
 62
     7
100
AcDbCircle
 10
161.55
 20
674.8807699844
 30
0.0
 40
0.7000000000019417
100
AcDbArc
 50
333.5641545339
 51
73.0589138394
  0
ARC
  5
E6
330
80
100
AcDbEntity
  8
DV1_Default
  6
Continuous
 62
     7
100
AcDbCircle
 10
139.95
 20
674.8807699844
 30
0.0
 40
0.7000000000004061
100
AcDbArc
 50
106.9410861607
 51
206.4358454661
  0
ARC
  5
E7
330
80
100
AcDbEntity
  8
DV1_Default
  6
Continuous
 62
     7
100
AcDbCircle
 10
170.3252509899
 20
670.5178615435
 30
0.0
 40
9.099999999999257
100
AcDbArc
 50
153.5642048179
 51
169.4459253428
  0
ARC
  5
E8
330
80
100
AcDbEntity
  8
DV1_Default
  6
Continuous
 62
     7
100
AcDbCircle
 10
131.17474901
 20
670.5178615435
 30
0.0
 40
9.099999999996582
100
AcDbArc
 50
9.9692739368
 51
26.4357951821
  0
ARC
  5
E9
330
80
100
AcDbEntity
  8
DV1_Default
  6
Continuous
 62
     7
100
AcDbCircle
 10
150.75
 20
660.0249604071
 30
0.0
 40
18.56358695652024
100
AcDbArc
 50
61.7304667453
 51
118.2695332547
  0
ARC
  5
EA
330
80
100
AcDbEntity
  8
DV1_Default
  6
Continuous
 62
     7
100
AcDbCircle
 10
159.4
 20
676.1102365477
 30
0.0
 40
0.3000000000000023
100
AcDbArc
 50
0.0000071173
 51
61.730642691
  0
ARC
  5
EB
330
80
100
AcDbEntity
  8
DV1_Default
  6
Continuous
 62
     7
100
AcDbCircle
 10
142.1
 20
676.1102365477
 30
0.0
 40
0.3000000000006351
100
AcDbArc
 50
118.269357309
 51
179.9999928827
  0
LINE
  5
EC
330
80
100
AcDbEntity
  8
DV1_Default
  6
Continuous
 62
     7
100
AcDbLine
 10
159.7
 20
676.0885473372
 30
0.0
 11
159.7
 21
676.110236585
 31
0.0
  0
LINE
  5
ED
330
80
100
AcDbEntity
  8
DV1_Default
  6
Continuous
 62
     7
100
AcDbLine
 10
141.8
 20
676.110236585
 30
0.0
 11
141.8
 21
676.0885473372
 31
0.0
  0
LINE
  5
EE
330
80
100
AcDbEntity
  8
DV1_Default
  6
Continuous
 62
     7
100
AcDbLine
 10
118.95
 20
603.0885197089
 30
0.0
 11
80.95
 21
603.0885197089
 31
0.0
  0
LINE
  5
EF
330
80
100
AcDbEntity
  8
DV1_Default
  6
Continuous
 62
     7
100
AcDbLine
 10
88.5193312156
 20
635.3885197089
 30
0.0
 11
111.3806687844
 21
635.3885197089
 31
0.0
  0
ARC
  5
F0
330
80
100
AcDbEntity
  8
DV1_Default
  6
Continuous
 62
     7
100
AcDbCircle
 10
117.85
 20
604.3846678486
 30
0.0
 40
1.700000000000162
100
AcDbArc
 50
310.32021507
 51
22.6212074042
  0
ARC
  5
F1
330
80
100
AcDbEntity
  8
DV1_Default
  6
Continuous
 62
     7
100
AcDbCircle
 10
82.05
 20
604.3846678486
 30
0.0
 40
1.699999999999466
100
AcDbArc
 50
157.3787925958
 51
229.67978493
  0
ARC
  5
F2
330
80
100
AcDbEntity
  8
DV1_Default
  6
Continuous
 62
     7
100
AcDbCircle
 10
220.0336177673
 20
646.9639851281
 30
0.0
 40
108.999999999995
100
AcDbArc
 50
186.237510605
 51
202.6212074042
  0
ARC
  5
F3
330
80
100
AcDbEntity
  8
DV1_Default
  6
Continuous
 62
     7
100
AcDbCircle
 10
-20.1336177673
 20
646.9639851281
 30
0.0
 40
108.9999999999952
100
AcDbArc
 50
337.3787925958
 51
353.762489395
  0
ARC
  5
F4
330
80
100
AcDbEntity
  8
DV1_Default
  6
Continuous
 62
     7
100
AcDbCircle
 10
111.3806687918
 20
635.0885197089
 30
0.0
 40
0.3000000000000065
100
AcDbArc
 50
6.2375107928
 51
90.0000007047
  0
ARC
  5
F5
330
80
100
AcDbEntity
  8
DV1_Default
  6
Continuous
 62
     7
100
AcDbCircle
 10
88.5193312082
 20
635.0885197089
 30
0.0
 40
0.3000000000000017
100
AcDbArc
 50
89.9999992953
 51
173.7624892072
  0
ARC
  5
F6
330
80
100
AcDbEntity
  8
DV1_Default
  6
Continuous
 62
     7
100
AcDbCircle
 10
110.8391556554
 20
635.8885197089
 30
0.0
 40
0.5000000000000628
100
AcDbArc
 50
270.0
 51
11.135379564
  0
ARC
  5
F7
330
80
100
AcDbEntity
  8
DV1_Default
  6
Continuous
 62
     7
100
AcDbCircle
 10
89.0608443446
 20
635.8885197089
 30
0.0
 40
0.5000000000016184
100
AcDbArc
 50
168.864620436
 51
270.0
  0
ARC
  5
F8
330
80
100
AcDbEntity
  8
DV1_Default
  6
Continuous
 62
     7
100
AcDbCircle
 10
23.2240960158
 20
648.8473996567
 30
0.0
 40
66.60000000000073
100
AcDbArc
 50
348.864620436
 51
355.8764733802
  0
ARC
  5
F9
330
80
100
AcDbEntity
  8
DV1_Default
  6
Continuous
 62
     7
100
AcDbCircle
 10
176.6759039842
 20
648.8473996567
 30
0.0
 40
66.60000000000406
100
AcDbArc
 50
184.1235266198
 51
191.135379564
  0
ARC
  5
FA
330
80
100
AcDbEntity
  8
DV1_Default
  6
Continuous
 62
     7
100
AcDbCircle
 10
90.3498792503
 20
644.0080582596
 30
0.0
 40
0.6999999999999738
100
AcDbArc
 50
112.1840690549
 51
175.8764733802
  0
ARC
  5
FB
330
80
100
AcDbEntity
  8
DV1_Default
  6
Continuous
 62
     7
100
AcDbCircle
 10
109.5501207497
 20
644.0080582596
 30
0.0
 40
0.7000000000025233
100
AcDbArc
 50
4.1235266198
 51
67.8159309451
  0
ARC
  5
FC
330
80
100
AcDbEntity
  8
DV1_Default
  6
Continuous
 62
     7
100
AcDbCircle
 10
103.6785710216
 20
611.3211193409
 30
0.0
 40
36.00000000297462
100
AcDbArc
 50
108.8701055673
 51
112.1840690548
  0
ARC
  5
FD
330
80
100
AcDbEntity
  8
DV1_Default
  6
Continuous
 62
     7
100
AcDbCircle
 10
96.2214289784
 20
611.3211193409
 30
0.0
 40
36.00000000297632
100
AcDbArc
 50
67.8159309452
 51
71.1298944327
  0
ARC
  5
FE
330
80
100
AcDbEntity
  8
DV1_Default
  6
Continuous
 62
     7
100
AcDbCircle
 10
107.8
 20
645.1970207062
 30
0.0
 40
0.2000000000012079
100
AcDbArc
 50
71.1301477456
 51
90.0
  0
ARC
  5
FF
330
80
100
AcDbEntity
  8
DV1_Default
  6
Continuous
 62
     7
100
AcDbCircle
 10
92.1
 20
645.1970207062
 30
0.0
 40
0.1999999999999988
100
AcDbArc
 50
90.0
 51
108.8698522544
  0
LINE
  5
100
330
80
100
AcDbEntity
  8
DV1_Default
  6
Continuous
 62
     7
100
AcDbLine
 10
107.8
 20
645.3970207062
 30
0.0
 11
92.1
 21
645.3970207062
 31
0.0
  0
LINE
  5
101
330
80
100
AcDbEntity
  8
DV1_Default
  6
Continuous
 62
     7
100
AcDbLine
 10
83.55
 20
657.0385197089
 30
0.0
 11
83.55
 21
669.0385197089
 31
0.0
  0
LINE
  5
102
330
80
100
AcDbEntity
  8
DV1_Default
  6
Continuous
 62
     7
100
AcDbLine
 10
105.95
 20
646.1812356355
 30
0.0
 11
105.95
 21
653.0385197089
 31
0.0
  0
LINE
  5
103
330
80
100
AcDbEntity
  8
DV1_Default
  6
Continuous
 62
     7
100
AcDbLine
 10
93.95
 20
653.0385197089
 30
0.0
 11
93.95
 21
646.1812356355
 31
0.0
  0
ARC
  5
104
330
80
100
AcDbEntity
  8
DV1_Default
  6
Continuous
 62
     7
100
AcDbCircle
 10
106.15
 20
646.1812356355
 30
0.0
 40
0.2000000000010784
100
AcDbArc
 50
180.0
 51
250.9080834971
  0
ARC
  5
105
330
80
100
AcDbEntity
  8
DV1_Default
  6
Continuous
 62
     7
100
AcDbCircle
 10
93.75
 20
646.1812356355
 30
0.0
 40
0.1999999999999988
100
AcDbArc
 50
289.0919165029
 51
0.0
  0
ARC
  5
106
330
80
100
AcDbEntity
  8
DV1_Default
  6
Continuous
 62
     7
100
AcDbCircle
 10
89.95
 20
653.0385197089
 30
0.0
 40
4.000000000000004
100
AcDbArc
 50
0.0
 51
90.0
  0
ARC
  5
107
330
80
100
AcDbEntity
  8
DV1_Default
  6
Continuous
 62
     7
100
AcDbCircle
 10
89.95
 20
653.0385197089
 30
0.0
 40
16.0
100
AcDbArc
 50
0.0
 51
90.0
  0
LINE
  5
108
330
80
100
AcDbEntity
  8
DV1_Default
  6
Continuous
 62
     7
100
AcDbLine
 10
89.95
 20
669.0385197089
 30
0.0
 11
83.55
 21
669.0385197089
 31
0.0
  0
LINE
  5
109
330
80
100
AcDbEntity
  8
DV1_Default
  6
Continuous
 62
     7
100
AcDbLine
 10
83.55
 20
657.0385197089
 30
0.0
 11
89.95
 21
657.0385197089
 31
0.0
  0
ARC
  5
10A
330
80
100
AcDbEntity
  8
DV1_Default
  6
Continuous
 62
     7
100
AcDbCircle
 10
105.5901159202
 20
611.9722944722
 30
0.0
 40
36.00000000713418
100
AcDbArc
 50
109.0913340477
 51
111.1896235821
  0
ARC
  5
10B
330
80
100
AcDbEntity
  8
DV1_Default
  6
Continuous
 62
     7
100
AcDbCircle
 10
94.3098840798
 20
611.9722944722
 30
0.0
 40
36.00000000713431
100
AcDbArc
 50
68.8103764179
 51
70.9086659523
  0
ARC
  5
10C
330
80
100
AcDbEntity
  8
DV1_Default
  6
Continuous
 62
     7
100
AcDbCircle
 10
107.25
 20
645.3518301263
 30
0.0
 40
0.2000000000000008
100
AcDbArc
 50
13.0589183912
 51
68.8107509973
  0
ARC
  5
10D
330
80
100
AcDbEntity
  8
DV1_Default
  6
Continuous
 62
     7
100
AcDbCircle
 10
92.65
 20
645.3518301263
 30
0.0
 40
0.2000000000010507
100
AcDbArc
 50
111.1892490027
 51
166.9410816087
  0
ARC
  5
10E
330
80
100
AcDbEntity
  8
DV1_Default
  6
Continuous
 62
     7
100
AcDbCircle
 10
82.05
 20
668.5479178314
 30
0.0
 40
1.500000000000001
100
AcDbArc
 50
0.0
 51
100.845754725
  0
ARC
  5
10F
330
80
100
AcDbEntity
  8
DV1_Default
  6
Continuous
 62
     7
100
AcDbCircle
 10
82.05
 20
657.5291215865
 30
0.0
 40
1.499999999999862
100
AcDbArc
 50
259.154245275
 51
0.0
  0
ARC
  5
110
330
80
100
AcDbEntity
  8
DV1_Default
  6
Continuous
 62
     7
100
AcDbCircle
 10
66.15
 20
574.5385197089
 30
0.0
 40
83.00000000000011
100
AcDbArc
 50
79.154245275
 51
100.5864399194
  0
ARC
  5
111
330
80
100
AcDbEntity
  8
DV1_Default
  6
Continuous
 62
     7
100
AcDbCircle
 10
66.15
 20
751.5385197089
 30
0.0
 40
83.00000000000016
100
AcDbArc
 50
259.4135600806
 51
280.845754725
  0
LINE
  5
112
330
80
100
AcDbEntity
  8
DV1_Default
  6
Continuous
 62
     7
100
AcDbLine
 10
46.028903705
 20
655.2151054317
 30
0.0
 11
50.9013465664
 21
656.1257648424
 31
0.0
  0
LINE
  5
113
330
80
100
AcDbEntity
  8
DV1_Default
  6
Continuous
 62
     7
100
AcDbLine
 10
50.9013465664
 20
669.9512745755
 30
0.0
 11
46.028903705
 21
670.8619339861
 31
0.0
  0
ARC
  5
114
330
80
100
AcDbEntity
  8
DV1_Default
  6
Continuous
 62
     7
100
AcDbCircle
 10
32.25
 20
728.9385197089
 30
0.0
 40
75.00000000000612
100
AcDbArc
 50
255.6855501458
 51
280.5864399194
  0
ARC
  5
115
330
80
100
AcDbEntity
  8
DV1_Default
  6
Continuous
 62
     7
100
AcDbCircle
 10
32.25
 20
597.1385197089
 30
0.0
 40
75.00000000000227
100
AcDbArc
 50
79.4135600806
 51
104.3144498542
  0
LINE
  5
116
330
80
100
AcDbEntity
  8
DV1_Default
  6
Continuous
 62
     7
100
AcDbLine
 10
13.7067458819
 20
669.8100253127
 30
0.0
 11
11.0923666541
 21
669.1429261797
 31
0.0
  0
LINE
  5
117
330
80
100
AcDbEntity
  8
DV1_Default
  6
Continuous
 62
     7
100
AcDbLine
 10
11.0923666541
 20
656.9341132382
 30
0.0
 11
13.7067458819
 21
656.2670141052
 31
0.0
  0
ARC
  5
118
330
80
100
AcDbEntity
  8
DV1_Default
  6
Continuous
 62
     7
100
AcDbCircle
 10
12.65
 20
663.0385197089
 30
0.0
 40
6.299999999999706
100
AcDbArc
 50
104.3144498542
 51
255.6855501458
  0
LINE
  5
119
330
80
100
AcDbEntity
  8
DV1_Default
  6
Continuous
 62
     7
100
AcDbLine
 10
220.55
 20
603.0885197089
 30
0.0
 11
182.55
 21
603.0885197089
 31
0.0
  0
LINE
  5
11A
330
80
100
AcDbEntity
  8
DV1_Default
  6
Continuous
 62
     7
100
AcDbLine
 10
190.1193312156
 20
635.3885197089
 30
0.0
 11
212.9806687844
 21
635.3885197089
 31
0.0
  0
ARC
  5
11B
330
80
100
AcDbEntity
  8
DV1_Default
  6
Continuous
 62
     7
100
AcDbCircle
 10
219.45
 20
604.3846678486
 30
0.0
 40
1.700000000000167
100
AcDbArc
 50
310.32021507
 51
22.6212074042
  0
ARC
  5
11C
330
80
100
AcDbEntity
  8
DV1_Default
  6
Continuous
 62
     7
100
AcDbCircle
 10
183.65
 20
604.3846678486
 30
0.0
 40
1.699999999999466
100
AcDbArc
 50
157.3787925958
 51
229.67978493
  0
ARC
  5
11D
330
80
100
AcDbEntity
  8
DV1_Default
  6
Continuous
 62
     7
100
AcDbCircle
 10
321.6336177673
 20
646.9639851281
 30
0.0
 40
108.999999999995
100
AcDbArc
 50
186.237510605
 51
202.6212074042
  0
ARC
  5
11E
330
80
100
AcDbEntity
  8
DV1_Default
  6
Continuous
 62
     7
100
AcDbCircle
 10
81.4663822327
 20
646.9639851281
 30
0.0
 40
108.9999999999952
100
AcDbArc
 50
337.3787925958
 51
353.762489395
  0
ARC
  5
11F
330
80
100
AcDbEntity
  8
DV1_Default
  6
Continuous
 62
     7
100
AcDbCircle
 10
212.9806687918
 20
635.0885197089
 30
0.0
 40
0.2999999999999997
100
AcDbArc
 50
6.2375107928
 51
90.0000007047
  0
ARC
  5
120
330
80
100
AcDbEntity
  8
DV1_Default
  6
Continuous
 62
     7
100
AcDbCircle
 10
190.1193312082
 20
635.0885197089
 30
0.0
 40
0.3000000000000017
100
AcDbArc
 50
89.9999992953
 51
173.7624892072
  0
ARC
  5
121
330
80
100
AcDbEntity
  8
DV1_Default
  6
Continuous
 62
     7
100
AcDbCircle
 10
212.4391556554
 20
635.8885197089
 30
0.0
 40
0.5000000000000628
100
AcDbArc
 50
270.0
 51
11.135379564
  0
ARC
  5
122
330
80
100
AcDbEntity
  8
DV1_Default
  6
Continuous
 62
     7
100
AcDbCircle
 10
190.6608443446
 20
635.8885197089
 30
0.0
 40
0.5000000000016184
100
AcDbArc
 50
168.864620436
 51
270.0
  0
ARC
  5
123
330
80
100
AcDbEntity
  8
DV1_Default
  6
Continuous
 62
     7
100
AcDbCircle
 10
124.8240960158
 20
648.8473996567
 30
0.0
 40
66.60000000000072
100
AcDbArc
 50
348.864620436
 51
355.8764733802
  0
ARC
  5
124
330
80
100
AcDbEntity
  8
DV1_Default
  6
Continuous
 62
     7
100
AcDbCircle
 10
278.2759039842
 20
648.8473996567
 30
0.0
 40
66.60000000000407
100
AcDbArc
 50
184.1235266198
 51
191.135379564
  0
ARC
  5
125
330
80
100
AcDbEntity
  8
DV1_Default
  6
Continuous
 62
     7
100
AcDbCircle
 10
191.9498792503
 20
644.0080582596
 30
0.0
 40
0.6999999999999738
100
AcDbArc
 50
112.1840690549
 51
175.8764733802
  0
ARC
  5
126
330
80
100
AcDbEntity
  8
DV1_Default
  6
Continuous
 62
     7
100
AcDbCircle
 10
211.1501207497
 20
644.0080582596
 30
0.0
 40
0.7000000000025233
100
AcDbArc
 50
4.1235266198
 51
67.8159309451
  0
ARC
  5
127
330
80
100
AcDbEntity
  8
DV1_Default
  6
Continuous
 62
     7
100
AcDbCircle
 10
205.2785710216
 20
611.3211193409
 30
0.0
 40
36.00000000297462
100
AcDbArc
 50
108.8701055673
 51
112.1840690548
  0
ARC
  5
128
330
80
100
AcDbEntity
  8
DV1_Default
  6
Continuous
 62
     7
100
AcDbCircle
 10
197.8214289784
 20
611.3211193409
 30
0.0
 40
36.00000000297632
100
AcDbArc
 50
67.8159309452
 51
71.1298944327
  0
ARC
  5
129
330
80
100
AcDbEntity
  8
DV1_Default
  6
Continuous
 62
     7
100
AcDbCircle
 10
209.4
 20
645.1970207062
 30
0.0
 40
0.2000000000012079
100
AcDbArc
 50
71.1301477456
 51
90.0
  0
ARC
  5
12A
330
80
100
AcDbEntity
  8
DV1_Default
  6
Continuous
 62
     7
100
AcDbCircle
 10
193.7
 20
645.1970207062
 30
0.0
 40
0.1999999999999988
100
AcDbArc
 50
90.0
 51
108.8698522544
  0
LINE
  5
12B
330
80
100
AcDbEntity
  8
DV1_Default
  6
Continuous
 62
     7
100
AcDbLine
 10
209.4
 20
645.3970207062
 30
0.0
 11
193.7
 21
645.3970207062
 31
0.0
  0
LINE
  5
12C
330
80
100
AcDbEntity
  8
DV1_Default
  6
Continuous
 62
     7
100
AcDbLine
 10
217.95
 20
669.0385197089
 30
0.0
 11
217.95
 21
657.0385197089
 31
0.0
  0
LINE
  5
12D
330
80
100
AcDbEntity
  8
DV1_Default
  6
Continuous
 62
     7
100
AcDbLine
 10
207.55
 20
646.1812356355
 30
0.0
 11
207.55
 21
653.0385197089
 31
0.0
  0
LINE
  5
12E
330
80
100
AcDbEntity
  8
DV1_Default
  6
Continuous
 62
     7
100
AcDbLine
 10
195.55
 20
653.0385197089
 30
0.0
 11
195.55
 21
646.1812356355
 31
0.0
  0
ARC
  5
12F
330
80
100
AcDbEntity
  8
DV1_Default
  6
Continuous
 62
     7
100
AcDbCircle
 10
207.75
 20
646.1812356355
 30
0.0
 40
0.2000000000010784
100
AcDbArc
 50
180.0
 51
250.9080834971
  0
ARC
  5
130
330
80
100
AcDbEntity
  8
DV1_Default
  6
Continuous
 62
     7
100
AcDbCircle
 10
195.35
 20
646.1812356355
 30
0.0
 40
0.1999999999999988
100
AcDbArc
 50
289.0919165029
 51
0.0
  0
ARC
  5
131
330
80
100
AcDbEntity
  8
DV1_Default
  6
Continuous
 62
     7
100
AcDbCircle
 10
211.55
 20
653.0385197089
 30
0.0
 40
4.000000000000004
100
AcDbArc
 50
90.0
 51
180.0
  0
ARC
  5
132
330
80
100
AcDbEntity
  8
DV1_Default
  6
Continuous
 62
     7
100
AcDbCircle
 10
211.55
 20
653.0385197089
 30
0.0
 40
16.0
100
AcDbArc
 50
90.0
 51
180.0
  0
LINE
  5
133
330
80
100
AcDbEntity
  8
DV1_Default
  6
Continuous
 62
     7
100
AcDbLine
 10
211.55
 20
657.0385197089
 30
0.0
 11
217.95
 21
657.0385197089
 31
0.0
  0
LINE
  5
134
330
80
100
AcDbEntity
  8
DV1_Default
  6
Continuous
 62
     7
100
AcDbLine
 10
217.95
 20
669.0385197089
 30
0.0
 11
211.55
 21
669.0385197089
 31
0.0
  0
ARC
  5
135
330
80
100
AcDbEntity
  8
DV1_Default
  6
Continuous
 62
     7
100
AcDbCircle
 10
207.1901159202
 20
611.9722944722
 30
0.0
 40
36.00000000713422
100
AcDbArc
 50
109.0913340477
 51
111.1896235821
  0
ARC
  5
136
330
80
100
AcDbEntity
  8
DV1_Default
  6
Continuous
 62
     7
100
AcDbCircle
 10
195.9098840798
 20
611.9722944722
 30
0.0
 40
36.00000000713427
100
AcDbArc
 50
68.8103764179
 51
70.9086659523
  0
ARC
  5
137
330
80
100
AcDbEntity
  8
DV1_Default
  6
Continuous
 62
     7
100
AcDbCircle
 10
208.85
 20
645.3518301263
 30
0.0
 40
0.2000000000000008
100
AcDbArc
 50
13.0589183912
 51
68.8107509973
  0
ARC
  5
138
330
80
100
AcDbEntity
  8
DV1_Default
  6
Continuous
 62
     7
100
AcDbCircle
 10
194.25
 20
645.3518301263
 30
0.0
 40
0.2000000000010507
100
AcDbArc
 50
111.1892490027
 51
166.9410816087
  0
ARC
  5
139
330
80
100
AcDbEntity
  8
DV1_Default
  6
Continuous
 62
     7
100
AcDbCircle
 10
219.45
 20
657.5291215865
 30
0.0
 40
1.500000000000001
100
AcDbArc
 50
180.0
 51
280.845754725
  0
ARC
  5
13A
330
80
100
AcDbEntity
  8
DV1_Default
  6
Continuous
 62
     7
100
AcDbCircle
 10
219.45
 20
668.5479178314
 30
0.0
 40
1.499999999999862
100
AcDbArc
 50
79.154245275
 51
180.0
  0
ARC
  5
13B
330
80
100
AcDbEntity
  8
DV1_Default
  6
Continuous
 62
     7
100
AcDbCircle
 10
235.35
 20
751.5385197089
 30
0.0
 40
83.00000000000011
100
AcDbArc
 50
259.154245275
 51
280.5864399194
  0
ARC
  5
13C
330
80
100
AcDbEntity
  8
DV1_Default
  6
Continuous
 62
     7
100
AcDbCircle
 10
235.35
 20
574.5385197089
 30
0.0
 40
83.00000000000016
100
AcDbArc
 50
79.4135600806
 51
100.845754725
  0
LINE
  5
13D
330
80
100
AcDbEntity
  8
DV1_Default
  6
Continuous
 62
     7
100
AcDbLine
 10
255.471096295
 20
670.8619339861
 30
0.0
 11
250.5986534336
 21
669.9512745755
 31
0.0
  0
LINE
  5
13E
330
80
100
AcDbEntity
  8
DV1_Default
  6
Continuous
 62
     7
100
AcDbLine
 10
250.5986534336
 20
656.1257648424
 30
0.0
 11
255.471096295
 21
655.2151054317
 31
0.0
  0
ARC
  5
13F
330
80
100
AcDbEntity
  8
DV1_Default
  6
Continuous
 62
     7
100
AcDbCircle
 10
269.25
 20
597.1385197089
 30
0.0
 40
75.00000000000612
100
AcDbArc
 50
75.6855501458
 51
100.5864399194
  0
ARC
  5
140
330
80
100
AcDbEntity
  8
DV1_Default
  6
Continuous
 62
     7
100
AcDbCircle
 10
269.25
 20
728.9385197089
 30
0.0
 40
75.00000000000227
100
AcDbArc
 50
259.4135600806
 51
284.3144498542
  0
LINE
  5
141
330
80
100
AcDbEntity
  8
DV1_Default
  6
Continuous
 62
     7
100
AcDbLine
 10
287.7932541181
 20
656.2670141052
 30
0.0
 11
290.4076333459
 21
656.9341132382
 31
0.0
  0
LINE
  5
142
330
80
100
AcDbEntity
  8
DV1_Default
  6
Continuous
 62
     7
100
AcDbLine
 10
290.4076333459
 20
669.1429261797
 30
0.0
 11
287.7932541181
 21
669.8100253127
 31
0.0
  0
ARC
  5
143
330
80
100
AcDbEntity
  8
DV1_Default
  6
Continuous
 62
     7
100
AcDbCircle
 10
288.85
 20
663.0385197089
 30
0.0
 40
6.299999999999706
100
AcDbArc
 50
284.3144498542
 51
75.6855501458
  0
ELLIPSE
  5
144
330
80
100
AcDbEntity
  8
DV1_Default
  6
Continuous
 62
     7
100
AcDbEllipse
 10
150.75
 20
640.721818301
 30
0.0
 11
-9.049999999999997
 21
-6.938893903907229E-15
 31
0.0
210
0.0
220
0.0
230
1.0
 40
0.2739592187
 41
0.8736738265352803
 42
2.267918827054517
  0
ELLIPSE
  5
145
330
80
100
AcDbEntity
  8
DV1_Default
  6
Continuous
 62
     7
100
AcDbEllipse
 10
150.75
 20
640.721818301
 30
0.0
 11
7.999999999999996
 21
0.0
 31
0.0
210
0.0
220
0.0
230
1.0
 40
0.2739592187
 41
4.05798577575536
 42
5.366792185014028
  0
ELLIPSE
  5
146
330
80
100
AcDbEntity
  8
DV1_Default
  6
Continuous
 62
     7
100
AcDbEllipse
 10
150.75
 20
640.721818301
 30
0.0
 11
-6.249999999999999
 21
0.0
 31
0.0
210
0.0
220
0.0
230
1.0
 40
0.2739592187
 41
1.083892771672577
 42
2.057699881917227
  0
ELLIPSE
  5
147
330
80
100
AcDbEntity
  8
DV1_Default
  6
Continuous
 62
     7
100
AcDbEllipse
 10
150.75
 20
640.721818301
 30
0.0
 11
6.450000000000001
 21
0.0
 31
0.0
210
0.0
220
0.0
230
1.0
 40
0.2739592187
 41
4.19555497041656
 42
5.229222990352825
  0
ELLIPSE
  5
148
330
80
100
AcDbEntity
  8
DV1_Default
  6
Continuous
 62
     7
100
AcDbEllipse
 10
150.75
 20
640.721818301
 30
0.0
 11
8.456755892751007
 21
0.0
 31
0.0
210
0.0
220
0.0
230
1.0
 40
0.2739592187
 41
4.036122654229972
 42
5.388655306539406
  0
ELLIPSE
  5
149
330
80
100
AcDbEntity
  8
DV1_Default
  6
Continuous
 62
     7
100
AcDbEllipse
 10
150.75
 20
640.721818301
 30
0.0
 11
-8.756755892751004
 21
0.0
 31
0.0
210
0.0
220
0.0
230
1.0
 40
0.2739592187
 41
0.8830409704914314
 42
2.258551683098375
  0
ELLIPSE
  5
14A
330
80
100
AcDbEntity
  8
DV1_Default
  6
Continuous
 62
     7
100
AcDbEllipse
 10
150.75
 20
636.5744050777
 30
0.0
 11
11.0
 21
-6.938893903907228E-15
 31
0.0
210
0.0
220
0.0
230
1.0
 40
0.2739592187
 41
0.0000000000000023
 42
0.7769690487436649
  0
ELLIPSE
  5
14B
330
80
100
AcDbEntity
  8
DV1_Default
  6
Continuous
 62
     7
100
AcDbEllipse
 10
150.75
 20
636.5744050777
 30
0.0
 11
11.0
 21
-6.938893903907228E-15
 31
0.0
210
0.0
220
0.0
230
1.0
 40
0.2739592187
 41
0.7769690487436649
 42
2.338156838422624
  0
ELLIPSE
  5
14C
330
80
100
AcDbEntity
  8
DV1_Default
  6
Continuous
 62
     7
100
AcDbEllipse
 10
150.75
 20
636.5744050777
 30
0.0
 11
11.0
 21
-6.938893903907228E-15
 31
0.0
210
0.0
220
0.0
230
1.0
 40
0.2739592187
 41
2.338156838422624
 42
3.141592653589795
  0
ELLIPSE
  5
14D
330
80
100
AcDbEntity
  8
DV1_Default
  6
Continuous
 62
     7
100
AcDbEllipse
 10
150.75
 20
636.5744050777
 30
0.0
 11
-11.0
 21
6.938893903907228E-15
 31
0.0
210
0.0
220
0.0
230
1.0
 40
0.2739592187
 41
0.0
 42
3.141592653589793
  0
ELLIPSE
  5
14E
330
80
100
AcDbEntity
  8
DV1_Default
  6
Continuous
 62
     7
100
AcDbEllipse
 10
150.75
 20
636.5744050777
 30
0.0
 11
-10.05
 21
0.0
 31
0.0
210
0.0
220
0.0
230
1.0
 40
0.2739592187
 41
0.0
 42
6.283185307179586
  0
ELLIPSE
  5
14F
330
80
100
AcDbEntity
  8
DV1_Default
  6
Continuous
 62
     7
100
AcDbEllipse
 10
150.75
 20
648.7885197089
 30
0.0
 11
-14.07368580567999
 21
0.0
 31
0.0
210
0.0
220
0.0
230
1.0
 40
0.2739592187
 41
3.858674954542187
 42
5.566103006227192
  0
ELLIPSE
  5
150
330
80
100
AcDbEntity
  8
DV1_Default
  6
Continuous
 62
     7
100
AcDbEllipse
 10
150.75
 20
648.6987575127
 30
0.0
 11
-14.29114618048999
 21
0.0
 31
0.0
210
0.0
220
0.0
230
1.0
 40
0.2739592187
 41
3.420788834101003
 42
5.998485017113023
  0
ELLIPSE
  5
151
330
80
100
AcDbEntity
  8
DV1_Default
  6
Continuous
 62
     7
100
AcDbEllipse
 10
150.75
 20
642.248678804
 30
0.0
 11
14.07368604221
 21
0.0
 31
0.0
210
0.0
220
0.0
230
1.0
 40
0.2739592187
 41
-0.5497501531017894
 42
-0.3316651095185126
  0
ELLIPSE
  5
152
330
80
100
AcDbEntity
  8
DV1_Default
  6
Continuous
 62
     7
100
AcDbEllipse
 10
150.75
 20
642.248678804
 30
0.0
 11
14.07368604221
 21
0.0
 31
0.0
210
0.0
220
0.0
230
1.0
 40
0.2739592187
 41
3.388819479410654
 42
3.691342806691587
  0
ELLIPSE
  5
153
330
80
100
AcDbEntity
  8
DV1_Default
  6
Continuous
 62
     7
100
AcDbEllipse
 10
150.75
 20
642.248678804
 30
0.0
 11
14.07368604221
 21
0.0
 31
0.0
210
0.0
220
0.0
230
1.0
 40
0.2739592187
 41
0.1949443876248217
 42
3.037991337758812
  0
ELLIPSE
  5
154
330
80
100
AcDbEntity
  8
DV1_Default
  6
Continuous
 62
     7
100
AcDbEllipse
 10
150.75
 20
642.248678804
 30
0.0
 11
12.0
 21
0.0
 31
0.0
210
0.0
220
0.0
230
1.0
 40
0.2739592187
 41
0.0
 42
3.141592653589793
  0
ELLIPSE
  5
155
330
80
100
AcDbEntity
  8
DV1_Default
  6
Continuous
 62
     7
100
AcDbEllipse
 10
150.75
 20
637.5361463872
 30
0.0
 11
-12.00000000000015
 21
6.938893903907228E-15
 31
0.0
210
0.0
220
0.0
230
1.0
 40
0.2739592187
 41
3.552730515912175
 42
5.87204744485721
  0
LINE
  5
156
330
80
100
AcDbEntity
  8
DV1_Default
  6
Continuous
 62
     7
100
AcDbLine
 10
161.75
 20
640.7734912634
 30
0.0
 11
161.75
 21
638.8500086443
 31
0.0
  0
ELLIPSE
  5
157
330
80
100
AcDbEntity
  8
DV1_Default
  6
Continuous
 62
     7
100
AcDbEllipse
 10
150.75
 20
639.4596290063
 30
0.0
 11
-12.00000000000007
 21
0.0
 31
0.0
210
0.0
220
0.0
230
1.0
 40
0.2739592187
 41
2.730454791267427
 42
3.552730515912165
  0
ELLIPSE
  5
158
330
80
100
AcDbEntity
  8
DV1_Default
  6
Continuous
 62
     7
100
AcDbEllipse
 10
150.75
 20
639.4596290063
 30
0.0
 11
12.00000000000026
 21
0.0
 31
0.0
210
0.0
220
0.0
230
1.0
 40
0.2739592187
 41
2.730454791267418
 42
3.552730515912162
  0
LINE
  5
159
330
80
100
AcDbEntity
  8
DV1_Default
  6
Continuous
 62
     7
100
AcDbLine
 10
161.75
 20
636.5744050086
 30
0.0
 11
161.75
 21
638.8500086443
 31
0.0
  0
LINE
  5
15A
330
80
100
AcDbEntity
  8
DV1_Default
  6
Continuous
 62
     7
100
AcDbLine
 10
161.75
 20
635.7541167045
 30
0.0
 11
161.75
 21
636.5744050086
 31
0.0
  0
LINE
  5
15B
330
80
100
AcDbEntity
  8
DV1_Default
  6
Continuous
 62
     7
100
AcDbLine
 10
139.75
 20
636.5744051473
 30
0.0
 11
139.75
 21
635.7542355042
 31
0.0
  0
LINE
  5
15C
330
80
100
AcDbEntity
  8
DV1_Default
  6
Continuous
 62
     7
100
AcDbLine
 10
139.75
 20
640.7734912634
 30
0.0
 11
139.75
 21
638.8500086443
 31
0.0
  0
LINE
  5
15D
330
80
100
AcDbEntity
  8
DV1_Default
  6
Continuous
 62
     7
100
AcDbLine
 10
139.75
 20
638.8500086443
 30
0.0
 11
139.75
 21
636.5744051473
 31
0.0
  0
ARC
  5
15E
330
80
100
AcDbEntity
  8
DV1_Default
  6
Continuous
 62
     7
100
AcDbCircle
 10
160.6159050214
 20
645.5169396996
 30
0.0
 40
5.739976472601836
100
AcDbArc
 50
311.2256632099
 51
48.0655960699
  0
ARC
  5
15F
330
80
100
AcDbEntity
  8
DV1_Default
  6
Continuous
 62
     7
100
AcDbCircle
 10
140.8792547269
 20
645.517924839
 30
0.0
 40
5.735125952903382
100
AcDbArc
 50
131.2037528589
 51
228.0945297858
  0
LINE
  5
160
330
80
100
AcDbEntity
  8
DV1_Default
  6
Continuous
 62
     7
100
AcDbLine
 10
162.75
 20
639.4596290063
 30
0.0
 11
162.75
 21
642.248678804
 31
0.0
  0
LINE
  5
161
330
80
100
AcDbEntity
  8
DV1_Default
  6
Continuous
 62
     7
100
AcDbLine
 10
138.75
 20
642.248678804
 30
0.0
 11
138.75
 21
639.4596290063
 31
0.0
  0
SPLINE
  5
162
330
80
100
AcDbEntity
  8
DV1_Default
  6
Continuous
 62
     7
100
AcDbSpline
210
0.0
220
0.0
230
1.0
 70
     8
 71
     3
 72
    17
 73
    13
 74
     0
 42
0.0000000007602353
 43
0.0000000001
 40
0.0
 40
0.0
 40
0.0
 40
0.0
 40
0.0312195975394231
 40
0.1373119709140859
 40
0.243372696086894
 40
0.3495129773349542
 40
0.4558782485887144
 40
0.5626700454007338
 40
0.6701861399992249
 40
0.7789157175695883
 40
0.889717359805341
 40
1.0
 40
1.0
 40
1.0
 40
1.0
 10
148.9844730539831
 20
633.5679304519443
 30
0.0
 10
149.162006360049
 20
633.5578016956326
 30
0.0
 10
149.8304318483796
 20
633.5203218117658
 30
0.0
 10
151.1612243505063
 20
633.5155862842655
 30
0.0
 10
152.8214250310077
 20
633.5629958875911
 30
0.0
 10
154.4583272259011
 20
633.6822608301085
 30
0.0
 10
156.0156941992327
 20
633.8664863188529
 30
0.0
 10
157.4699308247946
 20
634.1146316756457
 30
0.0
 10
158.796450932025
 20
634.4246484915757
 30
0.0
 10
159.9652595217008
 20
634.7952431929094
 30
0.0
 10
160.990690611928
 20
635.2327738995684
 30
0.0
 10
161.4732740508936
 20
635.5640081122187
 30
0.0
 10
161.7524939839631
 20
635.760639778959
 30
0.0
  0
SPLINE
  5
163
330
80
100
AcDbEntity
  8
DV1_Default
  6
Continuous
 62
     7
100
AcDbSpline
210
0.0
220
0.0
230
1.0
 70
     8
 71
     3
 72
    15
 73
    11
 74
     0
 42
0.0000000010387813
 43
0.0000000001
 40
0.0
 40
0.0
 40
0.0
 40
0.0
 40
0.0577464271707653
 40
0.1987051548572056
 40
0.3451984777043225
 40
0.4878825169645256
 40
0.6277678200535853
 40
0.7660314777162235
 40
0.9033683416148912
 40
1.0
 40
1.0
 40
1.0
 40
1.0
 10
139.7537602105927
 20
635.7760762031832
 30
0.0
 10
139.856475604781
 20
635.6887288612397
 30
0.0
 10
140.1610213145977
 20
635.4330054845238
 30
0.0
 10
140.9170905388698
 20
635.0484425693589
 30
0.0
 10
141.9954307010825
 20
634.6328396859088
 30
0.0
 10
143.2718113143783
 20
634.279890773479
 30
0.0
 10
144.6818309026969
 20
633.9926575045027
 30
0.0
 10
146.1923797406603
 20
633.7741121182156
 30
0.0
 10
147.6707091619683
 20
633.6271156181936
 30
0.0
 10
148.5540372254164
 20
633.5866552592474
 30
0.0
 10
148.9844730539831
 20
633.5679304519443
 30
0.0
  0
ENDBLK
  5
165
330
80
100
AcDbEntity
  8
0
100
AcDbBlockEnd
  0
BLOCK
  5
213
330
166
100
AcDbEntity
  8
0
100
AcDbBlockBegin
  2
SE1
 70
     0
 10
0.0
 20
0.0
 30
0.0
  3
SE1
  1

  0
LINE
  5
169
330
166
100
AcDbEntity
  8
DV2_Default
  6
Continuous
 62
     7
100
AcDbLine
 10
640.1182892265
 20
651.0885473636
 30
0.0
 11
639.5986212948
 21
651.0885473636
 31
0.0
  0
LINE
  5
16A
330
166
100
AcDbEntity
  8
DV2_Default
  6
Continuous
 62
     7
100
AcDbLine
 10
627.5986212948
 20
651.0885473636
 30
0.0
 11
627.078953363
 21
651.0885473636
 31
0.0
  0
ARC
  5
16B
330
166
100
AcDbEntity
  8
DV2_Default
  6
Continuous
 62
     7
100
AcDbCircle
 10
645.3486212948
 20
646.4885473636
 30
0.0
 40
0.5000000000000239
100
AcDbArc
 50
269.9999800605
 51
0.0
  0
ARC
  5
16C
330
166
100
AcDbEntity
  8
DV2_Default
  6
Continuous
 62
     7
100
AcDbCircle
 10
621.8486212948
 20
646.4885473636
 30
0.0
 40
0.5000000000000004
100
AcDbArc
 50
180.0
 51
270.0000199395
  0
LINE
  5
16D
330
166
100
AcDbEntity
  8
DV2_Default
  6
Continuous
 62
     7
100
AcDbLine
 10
645.8486212948
 20
646.4885473636
 30
0.0
 11
645.8486212948
 21
646.8150108762
 31
0.0
  0
LINE
  5
16E
330
166
100
AcDbEntity
  8
DV2_Default
  6
Continuous
 62
     7
100
AcDbLine
 10
621.3486212948
 20
646.8150108762
 30
0.0
 11
621.3486212948
 21
646.4885473636
 31
0.0
  0
ARC
  5
16F
330
166
100
AcDbEntity
  8
DV2_Default
  6
Continuous
 62
     7
100
AcDbCircle
 10
644.8486212948
 20
646.8150108699
 30
0.0
 40
1.000000000000001
100
AcDbArc
 50
0.0000003624
 51
79.0000480474
  0
ARC
  5
170
330
166
100
AcDbEntity
  8
DV2_Default
  6
Continuous
 62
     7
100
AcDbCircle
 10
622.3486212948
 20
646.8150108699
 30
0.0
 40
1.000000000000192
100
AcDbArc
 50
100.9999519526
 51
179.9999996376
  0
ARC
  5
171
330
166
100
AcDbEntity
  8
DV2_Default
  6
Continuous
 62
     7
100
AcDbCircle
 10
646.3560043026
 20
654.569867185
 30
0.0
 40
6.900000000000927
100
AcDbArc
 50
212.5486948579
 51
259.0000611809
  0
ARC
  5
172
330
166
100
AcDbEntity
  8
DV2_Default
  6
Continuous
 62
     7
100
AcDbCircle
 10
620.841238287
 20
654.569867185
 30
0.0
 40
6.900000000000444
100
AcDbArc
 50
280.9999388191
 51
327.4513051421
  0
ARC
  5
173
330
166
100
AcDbEntity
  8
DV2_Default
  6
Continuous
 62
     7
100
AcDbCircle
 10
640.1182889772
 20
650.5885473636
 30
0.0
 40
0.4999999999998469
100
AcDbArc
 50
32.5486864221
 51
89.9999857144
  0
ARC
  5
174
330
166
100
AcDbEntity
  8
DV2_Default
  6
Continuous
 62
     7
100
AcDbCircle
 10
627.0789536123
 20
650.5885473636
 30
0.0
 40
0.5000000000000161
100
AcDbArc
 50
90.0000142855
 51
147.4513135779
  0
LINE
  5
175
330
166
100
AcDbEntity
  8
DV2_Default
  6
Continuous
 62
     7
100
AcDbLine
 10
620.7986212948
 20
645.9885473636
 30
0.0
 11
627.4533844522
 21
645.9885473636
 31
0.0
  0
LINE
  5
176
330
166
100
AcDbEntity
  8
DV2_Default
  6
Continuous
 62
     7
100
AcDbLine
 10
639.7438581373
 20
645.9885473636
 30
0.0
 11
645.357326437
 21
645.9885473636
 31
0.0
  0
LINE
  5
177
330
166
100
AcDbEntity
  8
DV2_Default
  6
Continuous
 62
     7
100
AcDbLine
 10
645.6965512156
 20
645.9885473597
 30
0.0
 11
645.3573860023
 21
645.9885473618
 31
0.0
  0
LINE
  5
178
330
166
100
AcDbEntity
  8
DV2_Default
  6
Continuous
 62
     7
100
AcDbLine
 10
646.4344963464
 20
645.9885473633
 30
0.0
 11
645.6965512156
 21
645.9885473597
 31
0.0
  0
LINE
  5
179
330
166
100
AcDbEntity
  8
DV2_Default
  6
Continuous
 62
     7
100
AcDbLine
 10
645.5411982696
 20
645.7885518813
 30
0.0
 11
645.8842605493
 21
645.8010486034
 31
0.0
  0
ARC
  5
17A
330
166
100
AcDbEntity
  8
DV2_Default
  6
Continuous
 62
     7
100
AcDbCircle
 10
645.6320160572
 20
652.989693909
 30
0.0
 40
10.53590038643414
100
AcDbArc
 50
297.5132713685
 51
297.5457453863
  0
ARC
  5
17B
330
166
100
AcDbEntity
  8
DV2_Default
  6
Continuous
 62
     7
100
AcDbCircle
 10
624.2694150632
 20
679.0070943853
 30
0.0
 40
39.39742293293877
100
AcDbArc
 50
299.224165656
 51
301.289325787
  0
ARC
  5
17C
330
166
100
AcDbEntity
  8
DV2_Default
  6
Continuous
 62
     7
100
AcDbCircle
 10
656.2143823112
 20
626.1552135086
 30
0.0
 40
17.23556076909317
100
AcDbArc
 50
261.6123169141
 51
277.7117672826
  0
ARC
  5
17D
330
166
100
AcDbEntity
  8
DV2_Default
  6
Continuous
 62
     7
100
AcDbCircle
 10
654.2266692314
 20
493.773729004
 30
0.0
 40
111.2984631942867
100
AcDbArc
 50
87.1566387819
 51
89.6966755026
  0
SPLINE
  5
17E
330
166
100
AcDbEntity
  8
DV2_Default
  6
Continuous
 62
     7
100
AcDbSpline
210
0.0
220
0.0
230
1.0
 70
    12
 71
     3
 72
     8
 73
     4
 74
     0
 42
0.0000000337557439
 43
0.0000000001
 40
0.0
 40
0.0
 40
0.0
 40
0.0
 40
1.0
 40
1.0
 40
1.0
 40
1.0
 10
659.920064293485
 20
603.8724811783013
 30
0.0
 41
1.0
 10
659.9245271692049
 20
603.9597647617237
 30
0.0
 41
1.0
 10
659.9233243218349
 20
604.0550493132004
 30
0.0
 41
1.0
 10
659.9205954860249
 20
604.1685726514354
 30
0.0
 41
1.0
  0
SPLINE
  5
17F
330
166
100
AcDbEntity
  8
DV2_Default
  6
Continuous
 62
     7
100
AcDbSpline
210
0.0
220
0.0
230
1.0
 70
    12
 71
     3
 72
     8
 73
     4
 74
     0
 42
0.0000000337651025
 43
0.0000000001
 40
0.0
 40
0.0
 40
0.0
 40
0.0
 40
1.0
 40
1.0
 40
1.0
 40
1.0
 10
607.2771782960449
 20
603.8724811783013
 30
0.0
 41
1.0
 10
607.2727160222458
 20
603.9597529895344
 30
0.0
 41
1.0
 10
607.273918436142
 20
604.0550441115148
 30
0.0
 41
1.0
 10
607.276645129405
 20
604.1684905922474
 30
0.0
 41
1.0
  0
SPLINE
  5
180
330
166
100
AcDbEntity
  8
DV2_Default
  6
Continuous
 62
     7
100
AcDbSpline
210
0.0
220
0.0
230
1.0
 70
     8
 71
     3
 72
     8
 73
     4
 74
     0
 42
0.0000000398081172
 43
0.0000000001
 40
0.0
 40
0.0
 40
0.0
 40
0.0
 40
1.0
 40
1.0
 40
1.0
 40
1.0
 10
607.311701049655
 20
603.6244369680255
 30
0.0
 10
607.291768465885
 20
603.7059182403128
 30
0.0
 10
607.281640915385
 20
603.7852026089947
 30
0.0
 10
607.2771782960449
 20
603.8724811783013
 30
0.0
  0
SPLINE
  5
181
330
166
100
AcDbEntity
  8
DV2_Default
  6
Continuous
 62
     7
100
AcDbSpline
210
0.0
220
0.0
230
1.0
 70
     8
 71
     3
 72
     9
 73
     5
 74
     0
 42
0.0000000371764094
 43
0.0000000001
 40
0.0
 40
0.0
 40
0.0
 40
0.0
 40
0.9810210785206
 40
1.0
 40
1.0
 40
1.0
 40
1.0
 10
607.3989620062449
 20
603.3706025250848
 30
0.0
 10
607.3622003020249
 20
603.4574542871328
 30
0.0
 10
607.3321980214049
 20
603.5413675738986
 30
0.0
 10
607.3120793486049
 20
603.622890541316
 30
0.0
 10
607.311701049655
 20
603.6244369680255
 30
0.0
  0
SPLINE
  5
182
330
166
100
AcDbEntity
  8
DV2_Default
  6
Continuous
 62
     7
100
AcDbSpline
210
0.0
220
0.0
230
1.0
 70
     8
 71
     3
 72
     8
 73
     4
 74
     0
 42
0.000000032055202
 43
0.0000000001
 40
0.0
 40
0.0
 40
0.0
 40
0.0
 40
1.0
 40
1.0
 40
1.0
 40
1.0
 10
607.5319137947149
 20
603.088519709046
 30
0.0
 10
607.4815229511149
 20
603.1888304459637
 30
0.0
 10
607.4364349056849
 20
603.2820705210895
 30
0.0
 10
607.3989620062449
 20
603.3706025250848
 30
0.0
  0
LINE
  5
183
330
166
100
AcDbEntity
  8
DV2_Default
  6
Continuous
 62
     7
100
AcDbLine
 10
607.5319137947
 20
603.088519709
 30
0.0
 11
614.5986212947
 21
603.088519709
 31
0.0
  0
LINE
  5
184
330
166
100
AcDbEntity
  8
DV2_Default
  6
Continuous
 62
     7
100
AcDbLine
 10
652.5986212948
 20
603.0885197089
 30
0.0
 11
659.6653287948
 21
603.0885197089
 31
0.0
  0
SPLINE
  5
185
330
166
100
AcDbEntity
  8
DV2_Default
  6
Continuous
 62
     7
100
AcDbSpline
210
0.0
220
0.0
230
1.0
 70
     8
 71
     3
 72
     8
 73
     4
 74
     0
 42
0.000000032055202
 43
0.0000000001
 40
0.0
 40
0.0
 40
0.0
 40
0.0
 40
1.0
 40
1.0
 40
1.0
 40
1.0
 10
659.798280583285
 20
603.3706025250854
 30
0.0
 10
659.760807683845
 20
603.2820705210896
 30
0.0
 10
659.7157196384348
 20
603.188830446011
 30
0.0
 10
659.6653287948149
 20
603.0885197090447
 30
0.0
  0
SPLINE
  5
186
330
166
100
AcDbEntity
  8
DV2_Default
  6
Continuous
 62
     7
100
AcDbSpline
210
0.0
220
0.0
230
1.0
 70
     8
 71
     3
 72
     9
 73
     5
 74
     0
 42
0.0000000371764094
 43
0.0000000001
 40
0.0
 40
0.0
 40
0.0
 40
0.0
 40
0.9810210783322001
 40
1.0
 40
1.0
 40
1.0
 40
1.0
 10
659.798280583285
 20
603.3706025250854
 30
0.0
 10
659.8350422874948
 20
603.4574542871331
 30
0.0
 10
659.8650445685049
 20
603.5413675751599
 30
0.0
 10
659.885163240925
 20
603.6228905413
 30
0.0
 10
659.8855415398749
 20
603.6244369680251
 30
0.0
  0
SPLINE
  5
187
330
166
100
AcDbEntity
  8
DV2_Default
  6
Continuous
 62
     7
100
AcDbSpline
210
0.0
220
0.0
230
1.0
 70
     8
 71
     3
 72
     8
 73
     4
 74
     0
 42
0.0000000398081172
 43
0.0000000001
 40
0.0
 40
0.0
 40
0.0
 40
0.0
 40
1.0
 40
1.0
 40
1.0
 40
1.0
 10
659.920064293485
 20
603.8724811783013
 30
0.0
 10
659.9156016741449
 20
603.7852026089947
 30
0.0
 10
659.9054741236448
 20
603.7059182403124
 30
0.0
 10
659.8855415398749
 20
603.6244369680251
 30
0.0
  0
LINE
  5
188
330
166
100
AcDbEntity
  8
DV2_Default
  6
Continuous
 62
     7
100
AcDbLine
 10
749.8985562447
 20
648.7886439855
 30
0.0
 11
763.5552626686
 21
652.6789159649
 31
0.0
  0
LINE
  5
189
330
166
100
AcDbEntity
  8
DV2_Default
  6
Continuous
 62
     7
100
AcDbLine
 10
749.8985562461
 20
648.7886439859
 30
0.0
 11
736.241848208
 21
644.8983757983
 31
0.0
  0
ARC
  5
18A
330
166
100
AcDbEntity
  8
DV2_Default
  6
Continuous
 62
     7
100
AcDbCircle
 10
646.4336155525
 20
645.7880152186
 30
0.0
 40
0.200950866559332
100
AcDbArc
 50
12.4050744296
 51
51.277811645
  0
ARC
  5
18B
330
166
100
AcDbEntity
  8
DV2_Default
  6
Continuous
 62
     7
100
AcDbCircle
 10
649.5557058313
 20
646.4941671861
 30
0.0
 40
3.000001348942993
100
AcDbArc
 50
192.2224560127
 51
288.9383034115
  0
LINE
  5
18C
330
166
100
AcDbEntity
  8
DV2_Default
  6
Continuous
 62
     7
100
AcDbLine
 10
620.5986212948
 20
645.7885473636
 30
0.0
 11
620.5986212948
 21
645.3398112203
 31
0.0
  0
ARC
  5
18D
330
166
100
AcDbEntity
  8
DV2_Default
  6
Continuous
 62
     7
100
AcDbCircle
 10
620.7986212948
 20
645.7885473636
 30
0.0
 40
0.1999999999999988
100
AcDbArc
 50
90.0
 51
180.0
  0
ARC
  5
18E
330
166
100
AcDbEntity
  8
DV2_Default
  6
Continuous
 62
     7
100
AcDbCircle
 10
600.5986212948
 20
645.3398112203
 30
0.0
 40
19.99999999999501
100
AcDbArc
 50
353.1997746527
 51
0.0
  0
ARC
  5
18F
330
166
100
AcDbEntity
  8
DV2_Default
  6
Continuous
 62
     7
100
AcDbCircle
 10
525.1364067172
 20
654.3650076754
 30
0.0
 40
96.00000000001
100
AcDbArc
 50
329.1561726155
 51
353.1830800517
  0
ARC
  5
190
330
166
100
AcDbEntity
  8
DV2_Default
  6
Continuous
 62
     7
100
AcDbCircle
 10
609.2760670548
 20
604.1204313838
 30
0.0
 40
1.999999430850022
100
AcDbArc
 50
149.1561726151
 51
178.6230721703
  0
ARC
  5
191
330
166
100
AcDbEntity
  8
DV2_Default
  6
Continuous
 62
     7
100
AcDbCircle
 10
657.9211755347
 20
604.1204313838
 30
0.0
 40
1.999999431579672
100
AcDbArc
 50
1.3792793337
 51
24.1078381615
  0
ARC
  5
192
330
166
100
AcDbEntity
  8
DV2_Default
  6
Continuous
 62
     7
100
AcDbCircle
 10
669.869835579
 20
610.1673373702
 30
0.0
 40
11.39487332950181
100
AcDbArc
 50
185.366533621
 51
207.3917641857
  0
SPLINE
  5
193
330
166
100
AcDbEntity
  8
DV2_Default
  6
Continuous
 62
     7
100
AcDbSpline
210
0.0
220
0.0
230
1.0
 70
     8
 71
     3
 72
    16
 73
    12
 74
     0
 42
0.0000000008957486
 43
0.0000000001
 40
0.0
 40
0.0
 40
0.0
 40
0.0
 40
0.0838822016145657
 40
0.1793835025631655
 40
0.2867560193519395
 40
0.4061884699808724
 40
0.5101640054708557
 40
0.6217853727334584
 40
0.7413830905884276
 40
0.8644640092985955
 40
1.0
 40
1.0
 40
1.0
 40
1.0
 10
727.9734111799853
 20
651.8488080904802
 30
0.0
 10
728.3051320543597
 20
651.762027645476
 30
0.0
 10
728.9030627668355
 20
651.6009859224405
 30
0.0
 10
729.9293788546262
 20
651.2372496519632
 30
0.0
 10
731.0040202017013
 20
650.7167687200644
 30
0.0
 10
732.0317398701824
 20
650.0315491570809
 30
0.0
 10
732.9843035914017
 20
649.2283578569316
 30
0.0
 10
733.8546747405472
 20
648.3321288489075
 30
0.0
 10
734.6797620018343
 20
647.3125554829561
 30
0.0
 10
735.4929694937053
 20
646.1327566446387
 30
0.0
 10
735.956288804749
 20
645.3731427803173
 30
0.0
 10
736.2418482080029
 20
644.8983757982875
 30
0.0
  0
SPLINE
  5
194
330
166
100
AcDbEntity
  8
DV2_Default
  6
Continuous
 62
     7
100
AcDbSpline
210
0.0
220
0.0
230
1.0
 70
     8
 71
     3
 72
    21
 73
    17
 74
     0
 42
0.0000000002444209
 43
0.0000000001
 40
0.0
 40
0.0
 40
0.0
 40
0.0
 40
0.0662549804876068
 40
0.1427723936388425
 40
0.2258822895887522
 40
0.3134785576165054
 40
0.4056539049636505
 40
0.4989221998696085
 40
0.5689868823366443
 40
0.6396508767297062
 40
0.7119113831055813
 40
0.7841312562308391
 40
0.8494743894253826
 40
0.9065680810193378
 40
0.9558886541526722
 40
1.0
 40
1.0
 40
1.0
 40
1.0
 10
763.5552626686019
 20
652.678915964912
 30
0.0
 10
763.1353976393217
 20
653.5783637447511
 30
0.0
 10
762.3641769858181
 20
655.2111687565035
 30
0.0
 10
760.9540735713917
 20
658.0179435644719
 30
0.0
 10
759.2496124540473
 20
660.9034491888979
 30
0.0
 10
757.1573730134917
 20
663.822976261578
 30
0.0
 10
754.6707157057806
 20
666.5973915609047
 30
0.0
 10
752.03523514218
 20
668.886750159473
 30
0.0
 10
749.3946971907773
 20
670.6802774412715
 30
0.0
 10
746.8400052275215
 20
672.0651676526053
 30
0.0
 10
744.1285145989458
 20
673.1897656028581
 30
0.0
 10
741.3957658333586
 20
674.0345399287818
 30
0.0
 10
738.7992484374607
 20
674.6033143086661
 30
0.0
 10
736.4983703916289
 20
674.951474823955
 30
0.0
 10
734.4154032579664
 20
675.1501108803626
 30
0.0
 10
733.2351662079326
 20
675.2057068667845
 30
0.0
 10
732.5749237798711
 20
675.2344458993855
 30
0.0
  0
SPLINE
  5
195
330
166
100
AcDbEntity
  8
DV2_Default
  6
Continuous
 62
     7
100
AcDbSpline
210
0.0
220
0.0
230
1.0
 70
     8
 71
     3
 72
    10
 73
     6
 74
     0
 42
0.0000000016585699
 43
0.0000000001
 40
0.0
 40
0.0
 40
0.0
 40
0.0
 40
0.3234088365610315
 40
0.6672101985660108
 40
1.0
 40
1.0
 40
1.0
 40
1.0
 10
732.5749243736708
 20
675.2344458775976
 30
0.0
 10
731.8603261182494
 20
675.254547079509
 30
0.0
 10
730.6259301196741
 20
675.2869369802106
 30
0.0
 10
728.5334407899614
 20
675.2617447865963
 30
0.0
 10
727.2833364950591
 20
675.2063532149577
 30
0.0
 10
726.5485220263753
 20
675.1719984474851
 30
0.0
  0
SPLINE
  5
196
330
166
100
AcDbEntity
  8
DV2_Default
  6
Continuous
 62
     7
100
AcDbSpline
210
0.0
220
0.0
230
1.0
 70
     8
 71
     3
 72
     8
 73
     4
 74
     0
 42
0.0000000026299438
 43
0.0000000001
 40
0.0
 40
0.0
 40
0.0
 40
0.0
 40
1.0
 40
1.0
 40
1.0
 40
1.0
 10
724.2144966959863
 20
652.2307576503681
 30
0.0
 10
725.485064890229
 20
652.2771593726459
 30
0.0
 10
726.7380364567358
 20
652.149842834863
 30
0.0
 10
727.9734113955071
 20
651.8488080370195
 30
0.0
  0
SPLINE
  5
197
330
166
100
AcDbEntity
  8
DV2_Default
  6
Continuous
 62
     7
100
AcDbSpline
210
0.0
220
0.0
230
1.0
 70
     8
 71
     3
 72
    13
 73
     9
 74
     0
 42
0.0000000009765036
 43
0.0000000001
 40
0.0
 40
0.0
 40
0.0
 40
0.0
 40
0.1724886645618696
 40
0.3218590769676193
 40
0.4488283331339483
 40
0.5557602898260124
 40
0.7726692163315755
 40
1.0
 40
1.0
 40
1.0
 40
1.0
 10
726.5485221522057
 20
675.1719984544713
 30
0.0
 10
725.9021154718853
 20
675.1320509242354
 30
0.0
 10
724.8878666565603
 20
675.0677820421598
 30
0.0
 10
723.3342111553875
 20
674.9229494693968
 30
0.0
 10
722.0386258942448
 20
674.77860173412
 30
0.0
 10
720.5166504453947
 20
674.5771538488701
 30
0.0
 10
718.6160353620577
 20
674.3045967840892
 30
0.0
 10
717.23114104989
 20
674.0747449213231
 30
0.0
 10
716.3892583290555
 20
673.9340722427179
 30
0.0
  0
SPLINE
  5
198
330
166
100
AcDbEntity
  8
DV2_Default
  6
Continuous
 62
     7
100
AcDbSpline
210
0.0
220
0.0
230
1.0
 70
     8
 71
     3
 72
    11
 73
     7
 74
     0
 42
0.000000000936147
 43
0.0000000001
 40
0.0
 40
0.0
 40
0.0
 40
0.0
 40
0.2496200312108384
 40
0.499680486529965
 40
0.7494993492364249
 40
1.0
 40
1.0
 40
1.0
 40
1.0
 10
713.7445783387834
 20
650.3381542107749
 30
0.0
 10
714.682852967132
 20
650.6099901835662
 30
0.0
 10
716.2709432789554
 20
651.06271156854
 30
0.0
 10
718.907156529809
 20
651.6688843741938
 30
0.0
 10
721.579923918335
 20
652.1307552389483
 30
0.0
 10
723.2347987311787
 20
652.1962509023168
 30
0.0
 10
724.2144967185674
 20
652.2307576507043
 30
0.0
  0
SPLINE
  5
199
330
166
100
AcDbEntity
  8
DV2_Default
  6
Continuous
 62
     7
100
AcDbSpline
210
0.0
220
0.0
230
1.0
 70
     8
 71
     3
 72
     8
 73
     4
 74
     0
 42
0.0000000010606512
 43
0.0000000001
 40
0.0
 40
0.0
 40
0.0
 40
0.0
 40
1.0
 40
1.0
 40
1.0
 40
1.0
 10
716.3892583342034
 20
673.9340722436136
 30
0.0
 10
712.9487485105785
 20
673.3094042231585
 30
0.0
 10
709.8850736767313
 20
672.619396692744
 30
0.0
 10
707.1982338326617
 20
671.86404965237
 30
0.0
  0
SPLINE
  5
19A
330
166
100
AcDbEntity
  8
DV2_Default
  6
Continuous
 62
     7
100
AcDbSpline
210
0.0
220
0.0
230
1.0
 70
     8
 71
     3
 72
    14
 73
    10
 74
     0
 42
0.0000000002613739
 43
0.0000000001
 40
0.0
 40
0.0
 40
0.0
 40
0.0
 40
0.1069986526186394
 40
0.2203309098736269
 40
0.3412254547337201
 40
0.4698107479690431
 40
0.648080084537553
 40
0.8245132563145721
 40
1.0
 40
1.0
 40
1.0
 40
1.0
 10
707.198233876121
 20
671.8640496643968
 30
0.0
 10
705.7565333847626
 20
671.4474155821686
 30
0.0
 10
703.2541743990613
 20
670.7182534405774
 30
0.0
 10
699.0582722016677
 20
669.268830444054
 30
0.0
 10
694.7612322803758
 20
667.6277131635784
 30
0.0
 10
689.7203821513245
 20
665.5051262777922
 30
0.0
 10
684.1670073320054
 20
662.9168416135735
 30
0.0
 10
678.0408059942982
 20
659.7503806387499
 30
0.0
 10
674.4301433640395
 20
657.6854109282682
 30
0.0
 10
672.2973080399033
 20
656.4570634821072
 30
0.0
  0
SPLINE
  5
19B
330
166
100
AcDbEntity
  8
DV2_Default
  6
Continuous
 62
     7
100
AcDbSpline
210
0.0
220
0.0
230
1.0
 70
     8
 71
     3
 72
    13
 73
     9
 74
     0
 42
0.0000000002599014
 43
0.0000000001
 40
0.0
 40
0.0
 40
0.0
 40
0.0
 40
0.1673705833496389
 40
0.3345925439383228
 40
0.501473502734483
 40
0.6679251399966417
 40
0.8341760253757374
 40
1.0
 40
1.0
 40
1.0
 40
1.0
 10
678.7328747918949
 20
634.6743450324145
 30
0.0
 10
680.7356830636156
 20
635.9235050515455
 30
0.0
 10
684.1181231054177
 20
638.0200612000264
 30
0.0
 10
689.9575705788357
 20
641.0035895716109
 30
0.0
 10
695.7582117416181
 20
643.6940250830405
 30
0.0
 10
701.6612013750248
 20
646.1197333777939
 30
0.0
 10
707.7588309251194
 20
648.4176771414759
 30
0.0
 10
711.5167921628241
 20
649.6267366554814
 30
0.0
 10
713.7445784211001
 20
650.3381542353223
 30
0.0
  0
SPLINE
  5
19C
330
166
100
AcDbEntity
  8
DV2_Default
  6
Continuous
 62
     7
100
AcDbSpline
210
0.0
220
0.0
230
1.0
 70
     8
 71
     3
 72
     8
 73
     4
 74
     0
 42
0.0000000007692572
 43
0.0000000001
 40
0.0
 40
0.0
 40
0.0
 40
0.0
 40
1.0
 40
1.0
 40
1.0
 40
1.0
 10
672.2973080437318
 20
656.457063484351
 30
0.0
 10
668.4662543478277
 20
654.2050880666263
 30
0.0
 10
664.7787900144266
 20
651.9306351406254
 30
0.0
 10
661.2349150435288
 20
649.6337047063483
 30
0.0
  0
SPLINE
  5
19D
330
166
100
AcDbEntity
  8
DV2_Default
  6
Continuous
 62
     7
100
AcDbSpline
210
0.0
220
0.0
230
1.0
 70
     8
 71
     3
 72
    11
 73
     7
 74
     0
 42
0.0000000005828443
 43
0.0000000001
 40
0.0
 40
0.0
 40
0.0
 40
0.0
 40
0.2504198143724579
 40
0.50050682043991
 40
0.7503596576323147
 40
1.0
 40
1.0
 40
1.0
 40
1.0
 10
665.4237960296531
 20
623.9162018242654
 30
0.0
 10
666.5348276084948
 20
625.0319753432459
 30
0.0
 10
668.4183594020001
 20
626.9086256066847
 30
0.0
 10
671.75441386729
 20
629.706670675047
 30
0.0
 10
675.2223549975644
 20
632.3288506904655
 30
0.0
 10
677.4255411281489
 20
633.8055473679526
 30
0.0
 10
678.7328748841663
 20
634.6743450923373
 30
0.0
  0
SPLINE
  5
19E
330
166
100
AcDbEntity
  8
DV2_Default
  6
Continuous
 62
     7
100
AcDbSpline
210
0.0
220
0.0
230
1.0
 70
     8
 71
     3
 72
    10
 73
     6
 74
     0
 42
0.000000001091241
 43
0.0000000001
 40
0.0
 40
0.0
 40
0.0
 40
0.0
 40
0.4635814455979171
 40
0.9375638521274566
 40
1.0
 40
1.0
 40
1.0
 40
1.0
 10
661.2349150527033
 20
649.6337047120871
 30
0.0
 10
659.8987239554582
 20
648.8346940735164
 30
0.0
 10
657.6692666143596
 20
647.4628731475179
 30
0.0
 10
654.8191582427773
 20
645.9336572697332
 30
0.0
 10
653.5312203793322
 20
645.0799495087166
 30
0.0
 10
653.3563223381808
 20
644.9642900265618
 30
0.0
  0
ARC
  5
19F
330
166
100
AcDbEntity
  8
DV2_Default
  6
Continuous
 62
     7
100
AcDbCircle
 10
670.7083506462
 20
610.3600565659
 30
0.0
 40
12.31683351884996
100
AcDbArc
 50
153.9365217015
 51
177.8588328485
  0
SPLINE
  5
1A0
330
166
100
AcDbEntity
  8
DV2_Default
  6
Continuous
 62
     7
100
AcDbSpline
210
0.0
220
0.0
230
1.0
 70
     8
 71
     3
 72
    11
 73
     7
 74
     0
 42
0.0000000009807333
 43
0.0000000001
 40
0.0
 40
0.0
 40
0.0
 40
0.0
 40
0.2506696799519972
 40
0.5010865825387917
 40
0.7506961789933311
 40
1.0
 40
1.0
 40
1.0
 40
1.0
 10
659.607112837903
 20
615.6885486541984
 30
0.0
 10
660.0109018678361
 20
616.5330361055278
 30
0.0
 10
660.7032949194142
 20
617.9566285551236
 30
0.0
 10
662.1503585205477
 20
620.105981885405
 30
0.0
 10
663.7682648597835
 20
622.1180201908903
 30
0.0
 10
664.8316172279406
 20
623.2777951620504
 30
0.0
 10
665.4652775151038
 20
623.9598191304739
 30
0.0
  0
ARC
  5
1A1
330
166
100
AcDbEntity
  8
DV2_Default
  6
Continuous
 62
     7
100
AcDbCircle
 10
647.0309243568
 20
654.9787188809
 30
0.0
 40
11.82650970171249
100
AcDbArc
 50
286.9201557009
 51
302.4673642259
  0
LINE
  5
1A2
330
166
100
AcDbEntity
  8
DV2_Default
  6
Continuous
 62
     7
100
AcDbLine
 10
658.5298410289
 20
609.0771099288
 30
0.0
 11
658.486605073
 21
609.4100529878
 31
0.0
  0
LINE
  5
1A3
330
166
100
AcDbEntity
  8
DV2_Default
  6
Continuous
 62
     7
100
AcDbLine
 10
658.4882801079
 20
609.3954057744
 30
0.0
 11
658.400565572
 21
610.8598077722
 31
0.0
  0
LINE
  5
1A4
330
166
100
AcDbEntity
  8
DV2_Default
  6
Continuous
 62
     7
100
AcDbLine
 10
668.1717614642
 20
574.1785733854
 30
0.0
 11
673.7029384142
 21
574.1785733854
 31
0.0
  0
LINE
  5
1A5
330
166
100
AcDbEntity
  8
DV2_Default
  6
Continuous
 62
     7
100
AcDbLine
 10
668.1717543823
 20
574.1786252767
 30
0.0
 11
666.7842826725
 21
574.1786115528
 31
0.0
  0
LINE
  5
1A6
330
166
100
AcDbEntity
  8
DV2_Default
  6
Continuous
 62
     7
100
AcDbLine
 10
666.6625867353
 20
574.1785733854
 30
0.0
 11
660.8913275599
 21
574.1785733854
 31
0.0
  0
LINE
  5
1A7
330
166
100
AcDbEntity
  8
DV2_Default
  6
Continuous
 62
     7
100
AcDbLine
 10
660.8913274608
 20
574.1785746586
 30
0.0
 11
633.5986212549
 21
574.1785746586
 31
0.0
  0
LINE
  5
1A8
330
166
100
AcDbEntity
  8
DV2_Default
  6
Continuous
 62
     7
100
AcDbLine
 10
633.5986212549
 20
574.1785746586
 30
0.0
 11
606.3059154385
 21
574.1785746387
 31
0.0
  0
LINE
  5
1A9
330
166
100
AcDbEntity
  8
DV2_Default
  6
Continuous
 62
     7
100
AcDbLine
 10
606.3059153394
 20
574.1785733854
 30
0.0
 11
600.5346558542
 21
574.1785733854
 31
0.0
  0
LINE
  5
1AA
330
166
100
AcDbEntity
  8
DV2_Default
  6
Continuous
 62
     7
100
AcDbLine
 10
600.4628365864
 20
574.1785734565
 30
0.0
 11
599.0255038468
 21
574.1785734833
 31
0.0
  0
LINE
  5
1AB
330
166
100
AcDbEntity
  8
DV2_Default
  6
Continuous
 62
     7
100
AcDbLine
 10
599.0255038468
 20
574.1785734833
 30
0.0
 11
594.905952441
 21
574.1785734833
 31
0.0
  0
LINE
  5
1AC
330
166
100
AcDbEntity
  8
DV2_Default
  6
Continuous
 62
     7
100
AcDbLine
 10
594.905952441
 20
574.1785734833
 30
0.0
 11
593.4943041845
 21
574.1785734798
 31
0.0
  0
ARC
  5
1AD
330
166
100
AcDbEntity
  8
DV2_Default
  6
Continuous
 62
     7
100
AcDbCircle
 10
664.6605086678
 20
665.1875525958
 30
0.0
 40
86.49867702726924
100
AcDbArc
 50
270.4559837107
 51
271.3772235004
  0
SPLINE
  5
1AE
330
166
100
AcDbEntity
  8
DV2_Default
  6
Continuous
 62
     7
100
AcDbSpline
210
0.0
220
0.0
230
1.0
 70
     8
 71
     3
 72
    14
 73
    10
 74
     0
 42
0.000000001725005
 43
0.0000000001
 40
0.0
 40
0.0
 40
0.0
 40
0.0
 40
0.0606602740869437
 40
0.2433811851830841
 40
0.3999779494473998
 40
0.5262652831007049
 40
0.6940454965703752
 40
0.851793033977274
 40
1.0
 40
1.0
 40
1.0
 40
1.0
 10
662.2897180239225
 20
582.4109348541615
 30
0.0
 10
662.3726773634086
 20
582.3272320395768
 30
0.0
 10
662.7068193907954
 20
581.9928265033092
 30
0.0
 10
663.2658191182896
 20
581.4548237086736
 30
0.0
 10
663.9345057721415
 20
580.8513383770027
 30
0.0
 10
664.5969064754884
 20
580.2871564762469
 30
0.0
 10
665.2778720446196
 20
579.7435061534638
 30
0.0
 10
666.0109533335662
 20
579.1990487149051
 30
0.0
 10
666.5016226661501
 20
578.8720400339201
 30
0.0
 10
666.7394844744849
 20
578.7138630303243
 30
0.0
  0
ARC
  5
1AF
330
166
100
AcDbEntity
  8
DV2_Default
  6
Continuous
 62
     7
100
AcDbCircle
 10
569.2673181142
 20
620.7067920627
 30
0.0
 40
52.30922402177379
100
AcDbArc
 50
306.6033943463
 51
312.9745660125
  0
LINE
  5
1B0
330
166
100
AcDbEntity
  8
DV2_Default
  6
Continuous
 62
     7
100
AcDbLine
 10
600.4783537226
 20
578.7141881458
 30
0.0
 11
600.4571790948
 21
578.7147649655
 31
0.0
  0
ARC
  5
1B1
330
166
100
AcDbEntity
  8
DV2_Default
  6
Continuous
 62
     7
100
AcDbCircle
 10
602.4170304013
 20
683.0861819553
 30
0.0
 40
104.3899998959202
100
AcDbArc
 50
268.9360059815
 51
269.6813927158
  0
SPLINE
  5
1B2
330
166
100
AcDbEntity
  8
DV2_Default
  6
Continuous
 62
     7
100
AcDbSpline
210
0.0
220
0.0
230
1.0
 70
    12
 71
     3
 72
     9
 73
     5
 74
     0
 42
0.0000000003727884
 43
0.0000000001
 40
0.0
 40
0.0
 40
0.0
 40
0.0
 40
0.5037581644421201
 40
1.0
 40
1.0
 40
1.0
 40
1.0
 10
614.352845404355
 20
602.1825602220594
 30
0.0
 41
1.0
 10
612.1923740850549
 20
597.1732333766894
 30
0.0
 41
1.0
 10
607.9918260691092
 20
587.6534229926715
 30
0.0
 41
1.0
 10
604.3246967333521
 20
580.9482388474946
 30
0.0
 41
1.0
 10
601.8638308897449
 20
578.7171632899134
 30
0.0
 41
1.0
  0
SPLINE
  5
1B3
330
166
100
AcDbEntity
  8
DV2_Default
  6
Continuous
 62
     7
100
AcDbSpline
210
0.0
220
0.0
230
1.0
 70
    12
 71
     3
 72
     9
 73
     5
 74
     0
 42
0.0000000003727882
 43
0.0000000001
 40
0.0
 40
0.0
 40
0.0
 40
0.0
 40
0.5037576464501999
 40
1.0
 40
1.0
 40
1.0
 40
1.0
 10
652.8443971851749
 20
602.1825602220594
 30
0.0
 41
1.0
 10
655.0048685044749
 20
597.1732333766894
 30
0.0
 41
1.0
 10
659.2054229495449
 20
587.6534112909893
 30
0.0
 41
1.0
 10
662.8725492408449
 20
580.9482288268863
 30
0.0
 41
1.0
 10
665.333423992395
 20
578.7171521451694
 30
0.0
 41
1.0
  0
ARC
  5
1B4
330
166
100
AcDbEntity
  8
DV2_Default
  6
Continuous
 62
     7
100
AcDbCircle
 10
651.4670388916
 20
601.5885197089
 30
0.0
 40
1.500000000001783
100
AcDbArc
 50
23.3300413711
 51
90.0
  0
ARC
  5
1B5
330
166
100
AcDbEntity
  8
DV2_Default
  6
Continuous
 62
     7
100
AcDbCircle
 10
615.7302036979
 20
601.5885197089
 30
0.0
 40
1.499999999999994
100
AcDbArc
 50
90.0
 51
156.6699586294
  0
ARC
  5
1B6
330
166
100
AcDbEntity
  8
DV2_Default
  6
Continuous
 62
     7
100
AcDbCircle
 10
663.6543513417
 20
576.8649329545
 30
0.0
 40
2.500000000001132
100
AcDbArc
 50
14.5493462503
 51
47.8070846938
  0
ARC
  5
1B7
330
166
100
AcDbEntity
  8
DV2_Default
  6
Continuous
 62
     7
100
AcDbCircle
 10
603.5428912478
 20
576.8649329545
 30
0.0
 40
2.500000089635512
100
AcDbArc
 50
132.1929231941
 51
165.45065375
  0
SPLINE
  5
1B8
330
166
100
AcDbEntity
  8
DV2_Default
  6
Continuous
 62
     7
100
AcDbSpline
210
0.0
220
0.0
230
1.0
 70
     8
 71
     3
 72
     8
 73
     4
 74
     0
 42
0.0000000029468254
 43
0.0000000001
 40
0.0
 40
0.0
 40
0.0
 40
0.0
 40
1.0
 40
1.0
 40
1.0
 40
1.0
 10
601.1231142763986
 20
577.4931681389917
 30
0.0
 10
600.8118997799878
 20
576.2518698974588
 30
0.0
 10
600.6151299158844
 20
575.1404253635129
 30
0.0
 10
600.5328046840883
 20
574.158834537154
 30
0.0
  0
SPLINE
  5
1B9
330
166
100
AcDbEntity
  8
DV2_Default
  6
Continuous
 62
     7
100
AcDbSpline
210
0.0
220
0.0
230
1.0
 70
     8
 71
     3
 72
     8
 73
     4
 74
     0
 42
0.0000000029290233
 43
0.0000000001
 40
0.0
 40
0.0
 40
0.0
 40
0.0
 40
1.0
 40
1.0
 40
1.0
 40
1.0
 10
666.6644377849893
 20
574.1588358285032
 30
0.0
 10
666.5338280136498
 20
575.4151007659968
 30
0.0
 10
666.3353283522852
 20
576.5331972494185
 30
0.0
 10
666.0689388008954
 20
577.513125278768
 30
0.0
  0
SPLINE
  5
1BA
330
166
100
AcDbEntity
  8
DV2_Default
  6
Continuous
 62
     7
100
AcDbSpline
210
0.0
220
0.0
230
1.0
 70
     8
 71
     3
 72
    15
 73
    11
 74
     0
 42
0.0000000003750221
 43
0.0000000001
 40
0.0
 40
0.0
 40
0.0
 40
0.0
 40
0.0773039852867697
 40
0.167732344488644
 40
0.2662700437854477
 40
0.3731792230981127
 40
0.4882579334210099
 40
0.6499113152578773
 40
0.8214360096593875
 40
1.0
 40
1.0
 40
1.0
 40
1.0
 10
672.3492516433009
 20
578.754062105587
 30
0.0
 10
671.8120764094992
 20
579.2851632657066
 30
0.0
 10
670.829649642878
 20
580.2662348507926
 30
0.0
 10
669.4381803050088
 20
582.2495688653113
 30
0.0
 10
668.1084936586626
 20
584.4998300482396
 30
0.0
 10
666.7994568522804
 20
587.034126080108
 30
0.0
 10
665.316892135342
 20
590.10540431278
 30
0.0
 10
663.6564326791366
 20
593.7027366447298
 30
0.0
 10
661.7746035116797
 20
597.9378914777511
 30
0.0
 10
660.6288764946804
 20
600.5808399160427
 30
0.0
 10
659.9366860859199
 20
602.1825602179954
 30
0.0
  0
ARC
  5
1BB
330
166
100
AcDbEntity
  8
DV2_Default
  6
Continuous
 62
     7
100
AcDbCircle
 10
670.6953986737
 20
576.8622518301
 30
0.0
 40
2.4999999999977
100
AcDbArc
 50
14.5414574317
 51
47.7818046541
  0
SPLINE
  5
1BC
330
166
100
AcDbEntity
  8
DV2_Default
  6
Continuous
 62
     7
100
AcDbSpline
210
0.0
220
0.0
230
1.0
 70
     8
 71
     3
 72
     8
 73
     4
 74
     0
 42
0.0000000029202872
 43
0.0000000001
 40
0.0
 40
0.0
 40
0.0
 40
0.0
 40
1.0
 40
1.0
 40
1.0
 40
1.0
 10
673.7060510242787
 20
574.1455620295288
 30
0.0
 10
673.5758252881799
 20
575.40564981716
 30
0.0
 10
673.3771701379312
 20
576.5271532904043
 30
0.0
 10
673.1100855735326
 20
577.5100724492617
 30
0.0
  0
ARC
  5
1BD
330
166
100
AcDbEntity
  8
DV2_Default
  6
Continuous
 62
     7
100
AcDbCircle
 10
608.6379147989
 20
601.5885197089
 30
0.0
 40
1.500000000000022
100
AcDbArc
 50
90.0
 51
156.6699587983
  0
ARC
  5
1BE
330
166
100
AcDbEntity
  8
DV2_Default
  6
Continuous
 62
     7
100
AcDbCircle
 10
658.5593277906
 20
601.5885197089
 30
0.0
 40
1.500000000004404
100
AcDbArc
 50
23.3300412018
 51
90.0
  0
SPLINE
  5
1BF
330
166
100
AcDbEntity
  8
DV2_Default
  6
Continuous
 62
     7
100
AcDbSpline
210
0.0
220
0.0
230
1.0
 70
     8
 71
     3
 72
    15
 73
    11
 74
     0
 42
0.0000000003750263
 43
0.0000000001
 40
0.0
 40
0.0
 40
0.0
 40
0.0
 40
0.1705790294087585
 40
0.3348618522797953
 40
0.4903835909150531
 40
0.6347327180823572
 40
0.7392216123706234
 40
0.835634719389354
 40
0.9242448108569177
 40
1.0
 40
1.0
 40
1.0
 40
1.0
 10
607.2605565036204
 20
602.1825602179897
 30
0.0
 10
606.5993292281246
 20
600.6524578191273
 30
0.0
 10
605.503596478881
 20
598.1242264337039
 30
0.0
 10
603.7032040012664
 20
594.0646886312949
 30
0.0
 10
601.9898729431518
 20
590.3364550015805
 30
0.0
 10
600.4334000060387
 20
587.095556149005
 30
0.0
 10
599.0163243054092
 20
584.3696197637373
 30
0.0
 10
597.707817268571
 20
582.1720027835154
 30
0.0
 10
596.3387185958675
 20
580.2342396687625
 30
0.0
 10
595.3751370053084
 20
579.2739087035956
 30
0.0
 10
594.8482026937639
 20
578.7539744804029
 30
0.0
  0
SPLINE
  5
1C0
330
166
100
AcDbEntity
  8
DV2_Default
  6
Continuous
 62
     7
100
AcDbSpline
210
0.0
220
0.0
230
1.0
 70
     8
 71
     3
 72
     8
 73
     4
 74
     0
 42
0.0000000029669196
 43
0.0000000001
 40
0.0
 40
0.0
 40
0.0
 40
0.0
 40
1.0
 40
1.0
 40
1.0
 40
1.0
 10
594.0819885227611
 20
577.4901848899362
 30
0.0
 10
593.7730033397996
 20
576.2573404139639
 30
0.0
 10
593.5771085648616
 20
575.1534699924903
 30
0.0
 10
593.4943041979473
 20
574.1785736255154
 30
0.0
  0
ARC
  5
1C1
330
166
100
AcDbEntity
  8
DV2_Default
  6
Continuous
 62
     7
100
AcDbCircle
 10
596.5018439158
 20
576.8622518301
 30
0.0
 40
2.50000000000003
100
AcDbArc
 50
132.2181953459
 51
165.458542569
  0
ARC
  5
1C2
330
166
100
AcDbEntity
  8
DV2_Default
  6
Continuous
 62
     7
100
AcDbCircle
 10
639.8986212948
 20
651.5885473636
 30
0.0
 40
0.4999999999999713
100
AcDbArc
 50
269.9999814052
 51
0.0
  0
ARC
  5
1C3
330
166
100
AcDbEntity
  8
DV2_Default
  6
Continuous
 62
     7
100
AcDbCircle
 10
627.2986212948
 20
651.5885473636
 30
0.0
 40
0.5000000000000004
100
AcDbArc
 50
180.0
 51
270.0000185948
  0
LINE
  5
1C4
330
166
100
AcDbEntity
  8
DV2_Default
  6
Continuous
 62
     7
100
AcDbLine
 10
640.3986212948
 20
651.5885473636
 30
0.0
 11
640.3986212948
 21
652.5395252909
 31
0.0
  0
LINE
  5
1C5
330
166
100
AcDbEntity
  8
DV2_Default
  6
Continuous
 62
     7
100
AcDbLine
 10
626.7986212948
 20
652.5395252909
 30
0.0
 11
626.7986212948
 21
651.5885473636
 31
0.0
  0
ARC
  5
1C6
330
166
100
AcDbEntity
  8
DV2_Default
  6
Continuous
 62
     7
100
AcDbCircle
 10
639.8986212948
 20
652.5395251567
 30
0.0
 40
0.5000000000000089
100
AcDbArc
 50
0.0000153751
 51
67.4358319778
  0
ARC
  5
1C7
330
166
100
AcDbEntity
  8
DV2_Default
  6
Continuous
 62
     7
100
AcDbCircle
 10
627.2986212948
 20
652.5395251567
 30
0.0
 40
0.5000000000017417
100
AcDbArc
 50
112.5641680222
 51
179.9999846249
  0
ARC
  5
1C8
330
166
100
AcDbEntity
  8
DV2_Default
  6
Continuous
 62
     7
100
AcDbCircle
 10
641.5486212948
 20
656.5103563039
 30
0.0
 40
3.799999999999945
100
AcDbArc
 50
239.1255945924
 51
247.4356181612
  0
ARC
  5
1C9
330
166
100
AcDbEntity
  8
DV2_Default
  6
Continuous
 62
     7
100
AcDbCircle
 10
625.6486212948
 20
656.5103563039
 30
0.0
 40
3.79999999999976
100
AcDbArc
 50
292.5643818388
 51
300.8744054076
  0
ARC
  5
1CA
330
166
100
AcDbEntity
  8
DV2_Default
  6
Continuous
 62
     7
100
AcDbCircle
 10
655.0287850429
 20
655.7787926888
 30
0.0
 40
17.29999999999754
100
AcDbArc
 50
130.6866325887
 51
139.7926045049
  0
ARC
  5
1CB
330
166
100
AcDbEntity
  8
DV2_Default
  6
Continuous
 62
     7
100
AcDbCircle
 10
612.1684575466
 20
655.7787926888
 30
0.0
 40
17.30000000000081
100
AcDbArc
 50
40.2073954951
 51
49.3133674113
  0
ARC
  5
1CC
330
166
100
AcDbEntity
  8
DV2_Default
  6
Continuous
 62
     7
100
AcDbCircle
 10
643.0986212948
 20
669.6554346797
 30
0.0
 40
0.9999999999969823
100
AcDbArc
 50
310.6866422634
 51
359.9999991572
  0
ARC
  5
1CD
330
166
100
AcDbEntity
  8
DV2_Default
  6
Continuous
 62
     7
100
AcDbCircle
 10
624.0986212948
 20
669.6554346797
 30
0.0
 40
0.9999999999999991
100
AcDbArc
 50
180.0000008428
 51
229.3133577366
  0
LINE
  5
1CE
330
166
100
AcDbEntity
  8
DV2_Default
  6
Continuous
 62
     7
100
AcDbLine
 10
644.0986212948
 20
669.655434665
 30
0.0
 11
644.0986212948
 21
670.6885473636
 31
0.0
  0
LINE
  5
1CF
330
166
100
AcDbEntity
  8
DV2_Default
  6
Continuous
 62
     7
100
AcDbLine
 10
623.0986212948
 20
670.6885473636
 30
0.0
 11
623.0986212948
 21
669.655434665
 31
0.0
  0
ARC
  5
1D0
330
166
100
AcDbEntity
  8
DV2_Default
  6
Continuous
 62
     7
100
AcDbCircle
 10
643.5986212948
 20
670.6885473636
 30
0.0
 40
0.4999999999999987
100
AcDbArc
 50
0.0
 51
90.0000098906
  0
ARC
  5
1D1
330
166
100
AcDbEntity
  8
DV2_Default
  6
Continuous
 62
     7
100
AcDbCircle
 10
623.5986212948
 20
670.6885473636
 30
0.0
 40
0.5000000000000079
100
AcDbArc
 50
89.9999901094
 51
180.0
  0
LINE
  5
1D2
330
166
100
AcDbEntity
  8
DV2_Default
  6
Continuous
 62
     7
100
AcDbLine
 10
624.5736211845
 20
676.0885473372
 30
0.0
 11
642.623621405
 21
676.0885473372
 31
0.0
  0
LINE
  5
1D3
330
166
100
AcDbEntity
  8
DV2_Default
  6
Continuous
 62
     7
100
AcDbLine
 10
623.5517225592
 20
671.1885473636
 30
0.0
 11
629.5505292469
 21
671.1885473636
 31
0.0
  0
LINE
  5
1D4
330
166
100
AcDbEntity
  8
DV2_Default
  6
Continuous
 62
     7
100
AcDbLine
 10
637.6467133426
 20
671.1885473636
 30
0.0
 11
643.6455200304
 21
671.1885473636
 31
0.0
  0
ARC
  5
1D5
330
166
100
AcDbEntity
  8
DV2_Default
  6
Continuous
 62
     7
100
AcDbCircle
 10
634.6953349822
 20
643.025845173
 30
0.0
 40
34.0000000000477
100
AcDbArc
 50
73.0588117518
 51
76.5153473469
  0
ARC
  5
1D6
330
166
100
AcDbEntity
  8
DV2_Default
  6
Continuous
 62
     7
100
AcDbCircle
 10
632.5019076074
 20
643.025845173
 30
0.0
 40
34.00000000004925
100
AcDbArc
 50
103.4846526531
 51
106.9411882482
  0
ARC
  5
1D7
330
166
100
AcDbEntity
  8
DV2_Default
  6
Continuous
 62
     7
100
AcDbCircle
 10
644.3986212948
 20
674.8807699844
 30
0.0
 40
0.7000000000019417
100
AcDbArc
 50
333.5641545339
 51
73.0589138393
  0
ARC
  5
1D8
330
166
100
AcDbEntity
  8
DV2_Default
  6
Continuous
 62
     7
100
AcDbCircle
 10
622.7986212948
 20
674.8807699844
 30
0.0
 40
0.7000000000004061
100
AcDbArc
 50
106.9410861607
 51
206.4358454661
  0
ARC
  5
1D9
330
166
100
AcDbEntity
  8
DV2_Default
  6
Continuous
 62
     7
100
AcDbCircle
 10
653.1738722847
 20
670.5178615435
 30
0.0
 40
9.099999999999257
100
AcDbArc
 50
153.5642048179
 51
172.9955496657
  0
ARC
  5
1DA
330
166
100
AcDbEntity
  8
DV2_Default
  6
Continuous
 62
     7
100
AcDbCircle
 10
614.0233703048
 20
670.5178615435
 30
0.0
 40
9.099999999996582
100
AcDbArc
 50
7.0044503343
 51
26.4357951821
  0
ARC
  5
1DB
330
166
100
AcDbEntity
  8
DV2_Default
  6
Continuous
 62
     7
100
AcDbCircle
 10
643.6455201339
 20
671.6885473636
 30
0.0
 40
0.5000000000000031
100
AcDbArc
 50
269.9999940693
 51
352.995546854
  0
ARC
  5
1DC
330
166
100
AcDbEntity
  8
DV2_Default
  6
Continuous
 62
     7
100
AcDbCircle
 10
623.5517224557
 20
671.6885473636
 30
0.0
 40
0.4999999999982294
100
AcDbArc
 50
187.004453146
 51
270.0000059307
  0
ARC
  5
1DD
330
166
100
AcDbEntity
  8
DV2_Default
  6
Continuous
 62
     7
100
AcDbCircle
 10
633.5986212948
 20
660.0249604071
 30
0.0
 40
18.56358695652024
100
AcDbArc
 50
61.7304667453
 51
118.2695332547
  0
ARC
  5
1DE
330
166
100
AcDbEntity
  8
DV2_Default
  6
Continuous
 62
     7
100
AcDbCircle
 10
642.2486212948
 20
676.1102365477
 30
0.0
 40
0.3000000000000023
100
AcDbArc
 50
0.0000071173
 51
61.730642691
  0
ARC
  5
1DF
330
166
100
AcDbEntity
  8
DV2_Default
  6
Continuous
 62
     7
100
AcDbCircle
 10
624.9486212948
 20
676.1102365477
 30
0.0
 40
0.3000000000006351
100
AcDbArc
 50
118.269357309
 51
179.9999928827
  0
LINE
  5
1E0
330
166
100
AcDbEntity
  8
DV2_Default
  6
Continuous
 62
     7
100
AcDbLine
 10
642.5486212948
 20
676.0885473372
 30
0.0
 11
642.5486212948
 21
676.110236585
 31
0.0
  0
LINE
  5
1E1
330
166
100
AcDbEntity
  8
DV2_Default
  6
Continuous
 62
     7
100
AcDbLine
 10
624.6486212948
 20
676.110236585
 30
0.0
 11
624.6486212948
 21
676.0885473372
 31
0.0
  0
LINE
  5
1E2
330
166
100
AcDbEntity
  8
DV2_Default
  6
Continuous
 62
     7
100
AcDbLine
 10
614.5986212948
 20
603.0885197089
 30
0.0
 11
652.5986212948
 21
603.0885197089
 31
0.0
  0
LINE
  5
1E3
330
166
100
AcDbEntity
  8
DV2_Default
  6
Continuous
 62
     7
100
AcDbLine
 10
645.0292900792
 20
635.3885197089
 30
0.0
 11
622.1679525104
 21
635.3885197089
 31
0.0
  0
ARC
  5
1E4
330
166
100
AcDbEntity
  8
DV2_Default
  6
Continuous
 62
     7
100
AcDbCircle
 10
651.4986212948
 20
604.3846678486
 30
0.0
 40
1.700000000000162
100
AcDbArc
 50
310.32021507
 51
22.6212074042
  0
ARC
  5
1E5
330
166
100
AcDbEntity
  8
DV2_Default
  6
Continuous
 62
     7
100
AcDbCircle
 10
615.6986212948
 20
604.3846678486
 30
0.0
 40
1.69999999999947
100
AcDbArc
 50
157.3787925958
 51
229.67978493
  0
ARC
  5
1E6
330
166
100
AcDbEntity
  8
DV2_Default
  6
Continuous
 62
     7
100
AcDbCircle
 10
753.6822390621
 20
646.9639851281
 30
0.0
 40
108.999999999995
100
AcDbArc
 50
186.237510605
 51
202.6212074042
  0
ARC
  5
1E7
330
166
100
AcDbEntity
  8
DV2_Default
  6
Continuous
 62
     7
100
AcDbCircle
 10
513.5150035275
 20
646.9639851281
 30
0.0
 40
108.9999999999952
100
AcDbArc
 50
337.3787925958
 51
353.762489395
  0
ARC
  5
1E8
330
166
100
AcDbEntity
  8
DV2_Default
  6
Continuous
 62
     7
100
AcDbCircle
 10
645.0292900865
 20
635.0885197089
 30
0.0
 40
0.3000000000000065
100
AcDbArc
 50
6.2375107928
 51
90.0000007047
  0
ARC
  5
1E9
330
166
100
AcDbEntity
  8
DV2_Default
  6
Continuous
 62
     7
100
AcDbCircle
 10
622.167952503
 20
635.0885197089
 30
0.0
 40
0.3000000000000017
100
AcDbArc
 50
89.9999992953
 51
173.7624892072
  0
ARC
  5
1EA
330
166
100
AcDbEntity
  8
DV2_Default
  6
Continuous
 62
     7
100
AcDbCircle
 10
644.4877769502
 20
635.8885197089
 30
0.0
 40
0.5000000000000073
100
AcDbArc
 50
270.0
 51
11.135379564
  0
ARC
  5
1EB
330
166
100
AcDbEntity
  8
DV2_Default
  6
Continuous
 62
     7
100
AcDbCircle
 10
622.7094656393
 20
635.8885197089
 30
0.0
 40
0.5000000000016025
100
AcDbArc
 50
168.864620436
 51
270.0
  0
ARC
  5
1EC
330
166
100
AcDbEntity
  8
DV2_Default
  6
Continuous
 62
     7
100
AcDbCircle
 10
556.8727173106
 20
648.8473996567
 30
0.0
 40
66.60000000000072
100
AcDbArc
 50
348.864620436
 51
355.8764733802
  0
ARC
  5
1ED
330
166
100
AcDbEntity
  8
DV2_Default
  6
Continuous
 62
     7
100
AcDbCircle
 10
710.3245252789
 20
648.8473996567
 30
0.0
 40
66.60000000000406
100
AcDbArc
 50
184.1235266198
 51
191.135379564
  0
ARC
  5
1EE
330
166
100
AcDbEntity
  8
DV2_Default
  6
Continuous
 62
     7
100
AcDbCircle
 10
623.9985005451
 20
644.0080582596
 30
0.0
 40
0.6999999999999739
100
AcDbArc
 50
112.1840690549
 51
175.8764733802
  0
ARC
  5
1EF
330
166
100
AcDbEntity
  8
DV2_Default
  6
Continuous
 62
     7
100
AcDbCircle
 10
643.1987420445
 20
644.0080582596
 30
0.0
 40
0.7000000000025213
100
AcDbArc
 50
4.1235266198
 51
67.8159309451
  0
ARC
  5
1F0
330
166
100
AcDbEntity
  8
DV2_Default
  6
Continuous
 62
     7
100
AcDbCircle
 10
637.3271923163
 20
611.3211193409
 30
0.0
 40
36.0000000029748
100
AcDbArc
 50
108.8701055673
 51
112.1840690548
  0
ARC
  5
1F1
330
166
100
AcDbEntity
  8
DV2_Default
  6
Continuous
 62
     7
100
AcDbCircle
 10
629.8700502732
 20
611.3211193409
 30
0.0
 40
36.00000000297632
100
AcDbArc
 50
67.8159309452
 51
71.1298944327
  0
ARC
  5
1F2
330
166
100
AcDbEntity
  8
DV2_Default
  6
Continuous
 62
     7
100
AcDbCircle
 10
641.4486212948
 20
645.1970207062
 30
0.0
 40
0.2000000000012096
100
AcDbArc
 50
71.1301477456
 51
90.0
  0
ARC
  5
1F3
330
166
100
AcDbEntity
  8
DV2_Default
  6
Continuous
 62
     7
100
AcDbCircle
 10
625.7486212948
 20
645.1970207062
 30
0.0
 40
0.1999999999999988
100
AcDbArc
 50
90.0
 51
108.8698522544
  0
LINE
  5
1F4
330
166
100
AcDbEntity
  8
DV2_Default
  6
Continuous
 62
     7
100
AcDbLine
 10
641.4486212948
 20
645.3970207062
 30
0.0
 11
625.7486212948
 21
645.3970207062
 31
0.0
  0
LINE
  5
1F5
330
166
100
AcDbEntity
  8
DV2_Default
  6
Continuous
 62
     7
100
AcDbLine
 10
639.5986212948
 20
646.1812356355
 30
0.0
 11
639.5986212948
 21
653.0385197089
 31
0.0
  0
LINE
  5
1F6
330
166
100
AcDbEntity
  8
DV2_Default
  6
Continuous
 62
     7
100
AcDbLine
 10
627.5986212948
 20
653.0385197089
 30
0.0
 11
627.5986212948
 21
646.1812356355
 31
0.0
  0
ARC
  5
1F7
330
166
100
AcDbEntity
  8
DV2_Default
  6
Continuous
 62
     7
100
AcDbCircle
 10
639.7986212948
 20
646.1812356355
 30
0.0
 40
0.2000000000010735
100
AcDbArc
 50
180.0
 51
250.9080834971
  0
ARC
  5
1F8
330
166
100
AcDbEntity
  8
DV2_Default
  6
Continuous
 62
     7
100
AcDbCircle
 10
627.3986212948
 20
646.1812356355
 30
0.0
 40
0.1999999999999997
100
AcDbArc
 50
289.0919165029
 51
0.0
  0
LINE
  5
1F9
330
166
100
AcDbEntity
  8
DV2_Default
  6
Continuous
 62
     7
100
AcDbLine
 10
639.5986212948
 20
653.0385197089
 30
0.0
 11
639.5986212948
 21
656.1967363157
 31
0.0
  0
LINE
  5
1FA
330
166
100
AcDbEntity
  8
DV2_Default
  6
Continuous
 62
     7
100
AcDbLine
 10
627.5986212948
 20
656.1967363157
 30
0.0
 11
627.5986212948
 21
653.0385197089
 31
0.0
  0
ARC
  5
1FB
330
166
100
AcDbEntity
  8
DV2_Default
  6
Continuous
 62
     7
100
AcDbCircle
 10
639.238737215
 20
611.9722944722
 30
0.0
 40
36.0000000071343
100
AcDbArc
 50
109.0913340477
 51
111.1896235821
  0
ARC
  5
1FC
330
166
100
AcDbEntity
  8
DV2_Default
  6
Continuous
 62
     7
100
AcDbCircle
 10
627.9585053746
 20
611.9722944722
 30
0.0
 40
36.00000000713418
100
AcDbArc
 50
68.8103764179
 51
70.9086659523
  0
ARC
  5
1FD
330
166
100
AcDbEntity
  8
DV2_Default
  6
Continuous
 62
     7
100
AcDbCircle
 10
640.8986212948
 20
645.3518301263
 30
0.0
 40
0.2000000000000008
100
AcDbArc
 50
13.0589183912
 51
68.8107509973
  0
ARC
  5
1FE
330
166
100
AcDbEntity
  8
DV2_Default
  6
Continuous
 62
     7
100
AcDbCircle
 10
626.2986212948
 20
645.3518301263
 30
0.0
 40
0.2000000000010501
100
AcDbArc
 50
111.1892490027
 51
166.9410816087
  0
CIRCLE
  5
1FF
330
166
100
AcDbEntity
  8
DV2_Default
  6
Continuous
 62
     7
100
AcDbCircle
 10
633.5986212948
 20
663.0385197089
 30
0.0
 40
9.100000000000497
  0
LINE
  5
200
330
166
100
AcDbEntity
  8
DV2_Default
  6
Continuous
 62
     7
100
AcDbLine
 10
753.3779031297
 20
636.5744050086
 30
0.0
 11
763.9570577772
 21
639.5879564833
 31
0.0
  0
LINE
  5
201
330
166
100
AcDbEntity
  8
DV2_Default
  6
Continuous
 62
     7
100
AcDbLine
 10
753.3779036165
 20
636.5744051473
 30
0.0
 11
742.7987489671
 21
633.5608536721
 31
0.0
  0
LINE
  5
202
330
166
100
AcDbEntity
  8
DV2_Default
  6
Continuous
 62
     7
100
AcDbLine
 10
763.4338663117
 20
652.6441356764
 30
0.0
 11
736.3633762778
 21
644.9329037415
 31
0.0
  0
LINE
  5
203
330
166
100
AcDbEntity
  8
DV2_Default
  6
Continuous
 62
     7
100
AcDbLine
 10
765.2967892263
 20
646.1042948363
 30
0.0
 11
738.2262987375
 21
638.3930627718
 31
0.0
  0
LINE
  5
204
330
166
100
AcDbEntity
  8
DV2_Default
  6
Continuous
 62
     7
100
AcDbLine
 10
757.1683750057
 20
640.7734912634
 30
0.0
 11
747.9436764265
 21
638.1457667492
 31
0.0
  0
SPLINE
  5
205
330
166
100
AcDbEntity
  8
DV2_Default
  6
Continuous
 62
     7
100
AcDbSpline
210
0.0
220
0.0
230
1.0
 70
     8
 71
     3
 72
    20
 73
    16
 74
     0
 42
0.0000000019347444
 43
0.0000000001
 40
0.0
 40
0.0
 40
0.0
 40
0.0
 40
0.2499999999999999
 40
0.2499999999999999
 40
0.4999999999999998
 40
0.4999999999999998
 40
0.6249999999999998
 40
0.6249999999999998
 40
0.7499999999999999
 40
0.7499999999999999
 40
0.8749999999999999
 40
0.8749999999999999
 40
0.9375
 40
0.9375
 40
1.0
 40
1.0
 40
1.0
 40
1.0
 10
753.3779036165275
 20
636.574405147278
 30
0.0
 10
752.9654437600173
 20
636.4569128664435
 30
0.0
 10
752.5532315698124
 20
636.3385232930823
 30
0.0
 10
751.7263183501915
 20
636.1107611857192
 30
0.0
 10
751.3108819442404
 20
636.0010280297455
 30
0.0
 10
750.6831295361044
 20
635.8692431597093
 30
0.0
 10
750.473078616586
 20
635.830908336517
 30
0.0
 10
750.0501692406189
 20
635.7738656552689
 30
0.0
 10
749.8373714126839
 20
635.7547339546228
 30
0.0
 10
749.406481691943
 20
635.753480369847
 30
0.0
 10
749.1853768545008
 20
635.7702976029933
 30
0.0
 10
748.8755934667952
 20
635.8611149390683
 30
0.0
 10
748.774903185247
 20
635.9024907758046
 30
0.0
 10
748.5965412561158
 20
636.028905605308
 30
0.0
 10
748.521829092003
 20
636.1161460475818
 30
0.0
 10
748.4915948638642
 20
636.2222841301113
 30
0.0
  0
LINE
  5
206
330
166
100
AcDbEntity
  8
DV2_Default
  6
Continuous
 62
     7
100
AcDbLine
 10
757.1683750057
 20
640.7734912634
 30
0.0
 11
757.7162934431
 21
638.8500086443
 31
0.0
  0
LINE
  5
207
330
166
100
AcDbEntity
  8
DV2_Default
  6
Continuous
 62
     7
100
AcDbLine
 10
747.9436764265
 20
638.1457667492
 30
0.0
 11
748.4915948639
 21
636.2222841301
 31
0.0
  0
SPLINE
  5
208
330
166
100
AcDbEntity
  8
DV2_Default
  6
Continuous
 62
     7
100
AcDbSpline
210
0.0
220
0.0
230
1.0
 70
     8
 71
     3
 72
    20
 73
    16
 74
     0
 42
0.0000000019347065
 43
0.0000000001
 40
0.0
 40
0.0
 40
0.0
 40
0.0
 40
0.0624999999999998
 40
0.0624999999999998
 40
0.1249999999999996
 40
0.1249999999999996
 40
0.2499999999999996
 40
0.2499999999999996
 40
0.3749999999999996
 40
0.3749999999999996
 40
0.4999999999999996
 40
0.4999999999999996
 40
0.7499999999999998
 40
0.7499999999999998
 40
1.0
 40
1.0
 40
1.0
 40
1.0
 10
757.716293443081
 20
638.8500086443258
 30
0.0
 10
757.746565327974
 20
638.7437383667318
 30
0.0
 10
757.7293586785893
 20
638.6313930681376
 30
0.0
 10
757.6440359471297
 20
638.4287530515725
 30
0.0
 10
757.57994958658
 20
638.3401390740573
 30
0.0
 10
757.3615700944225
 20
638.0970881867352
 30
0.0
 10
757.1848975635421
 20
637.968802180836
 30
0.0
 10
756.8167103607601
 20
637.7422520376876
 30
0.0
 10
756.6254630462446
 20
637.6463810248888
 30
0.0
 10
756.2357838332351
 20
637.4721181628606
 30
0.0
 10
756.0371831253718
 20
637.3941370049932
 30
0.0
 10
755.4349814608097
 20
637.1757627868644
 30
0.0
 10
755.0249668347333
 20
637.0503905019148
 30
0.0
 10
754.2026030209665
 20
636.8083612078565
 30
0.0
 10
753.790124259264
 20
636.6918292862762
 30
0.0
 10
753.3779036165275
 20
636.574405147278
 30
0.0
  0
ARC
  5
209
330
166
100
AcDbEntity
  8
DV2_Default
  6
Continuous
 62
     7
100
AcDbCircle
 10
763.5160546651
 20
652.355613451
 30
0.0
 40
0.2999999999983251
100
AcDbArc
 50
59.4423083219
 51
105.9000583615
  0
ARC
  5
20A
330
166
100
AcDbEntity
  8
DV2_Default
  6
Continuous
 62
     7
100
AcDbCircle
 10
736.4455634557
 20
644.6443811812
 30
0.0
 40
0.3000000000001576
100
AcDbArc
 50
105.8999416385
 51
152.3576916782
  0
ARC
  5
20B
330
166
100
AcDbEntity
  8
DV2_Default
  6
Continuous
 62
     7
100
AcDbCircle
 10
761.2282230286
 20
648.4805874636
 30
0.0
 40
4.800000000000777
100
AcDbArc
 50
332.357777552
 51
59.442224609
  0
ARC
  5
20C
330
166
100
AcDbEntity
  8
DV2_Default
  6
Continuous
 62
     7
100
AcDbCircle
 10
740.4319422481
 20
642.5566110494
 30
0.0
 40
4.799999999998143
100
AcDbArc
 50
152.357775391
 51
239.442222448
  0
ARC
  5
20D
330
166
100
AcDbEntity
  8
DV2_Default
  6
Continuous
 62
     7
100
AcDbCircle
 10
765.214601821
 20
646.3928173318
 30
0.0
 40
0.3000000000000604
100
AcDbArc
 50
285.8999642255
 51
332.3577262537
  0
ARC
  5
20E
330
166
100
AcDbEntity
  8
DV2_Default
  6
Continuous
 62
     7
100
AcDbCircle
 10
738.1441106116
 20
638.681585062
 30
0.0
 40
0.3000000000008425
100
AcDbArc
 50
239.4422737463
 51
285.9000357745
  0
LINE
  5
20F
330
166
100
AcDbEntity
  8
DV2_Default
  6
Continuous
 62
     7
100
AcDbLine
 10
764.6448398681
 20
640.8236570115
 30
0.0
 11
763.3024396965
 21
645.5361894283
 31
0.0
  0
LINE
  5
210
330
166
100
AcDbEntity
  8
DV2_Default
  6
Continuous
 62
     7
100
AcDbLine
 10
740.2206482673
 20
638.9611681797
 30
0.0
 11
741.5630484389
 21
634.2486357629
 31
0.0
  0
ARC
  5
211
330
166
100
AcDbEntity
  8
DV2_Default
  6
Continuous
 62
     7
100
AcDbCircle
 10
742.5247897484
 20
634.5225949816
 30
0.0
 40
1.000000000000002
100
AcDbArc
 50
195.9
 51
285.9
  0
ARC
  5
212
330
166
100
AcDbEntity
  8
DV2_Default
  6
Continuous
 62
     7
100
AcDbCircle
 10
763.6830985585
 20
640.5496977928
 30
0.0
 40
1.000000000000005
100
AcDbArc
 50
285.9
 51
15.9
  0
ENDBLK
  5
214
330
166
100
AcDbEntity
  8
0
100
AcDbBlockEnd
  0
BLOCK
  5
2BC
330
215
100
AcDbEntity
  8
0
100
AcDbBlockBegin
  2
SE2
 70
     0
 10
0.0
 20
0.0
 30
0.0
  3
SE2
  1

  0
CIRCLE
  5
218
330
215
100
AcDbEntity
  8
DV3_Default
  6
Continuous
 62
     7
100
AcDbCircle
 10
150.75
 20
238.7796017338
 30
0.0
 40
12.25
  0
LINE
  5
219
330
215
100
AcDbEntity
  8
DV3_Default
  6
Continuous
 62
     7
100
AcDbLine
 10
145.6139732429
 20
226.837024759
 30
0.0
 11
146.4813872656
 21
226.4939624793
 31
0.0
  0
ARC
  5
21A
330
215
100
AcDbEntity
  8
DV3_Default
  6
Continuous
 62
     7
100
AcDbCircle
 10
149.6458452328
 20
241.3385878595
 30
0.0
 40
15.7870088714015
100
AcDbArc
 50
289.8968947917
 51
293.2805041526
  0
ARC
  5
21B
330
215
100
AcDbEntity
  8
DV3_Default
  6
Continuous
 62
     7
100
AcDbCircle
 10
150.75
 20
238.7796017338
 30
0.0
 40
12.99999999999999
100
AcDbArc
 50
293.2678997953
 51
246.7292612973
  0
ARC
  5
21C
330
215
100
AcDbEntity
  8
DV3_Default
  6
Continuous
 62
     7
100
AcDbCircle
 10
149.9858450744
 20
239.2774190894
 30
0.0
 40
26.93579096007554
100
AcDbArc
 50
307.2204298193
 51
316.3774453079
  0
ARC
  5
21D
330
215
100
AcDbEntity
  8
DV3_Default
  6
Continuous
 62
     7
100
AcDbCircle
 10
150.6770622271
 20
238.6452097363
 30
0.0
 40
26.01479060300593
100
AcDbArc
 50
306.5108880485
 51
306.8503894588
  0
ARC
  5
21E
330
215
100
AcDbEntity
  8
DV3_Default
  6
Continuous
 62
     7
100
AcDbCircle
 10
150.75
 20
123.0199704193
 30
0.0
 40
14.21032515577935
100
AcDbArc
 50
207.3446014951
 51
332.6535865312
  0
SPLINE
  5
21F
330
215
100
AcDbEntity
  8
DV3_Default
  6
Continuous
 62
     7
100
AcDbSpline
210
0.0
220
0.0
230
1.0
 70
     8
 71
     3
 72
     8
 73
     4
 74
     0
 42
0.0000000308127744
 43
0.0000000001
 40
0.0
 40
0.0
 40
0.0
 40
0.0
 40
1.0
 40
1.0
 40
1.0
 40
1.0
 10
166.3391474618137
 20
142.5463596742647
 30
0.0
 10
166.4407311280109
 20
142.4712710394335
 30
0.0
 10
166.5166206525394
 20
142.3954518858131
 30
0.0
 10
166.5662997782053
 20
142.3192766385883
 30
0.0
  0
SPLINE
  5
220
330
215
100
AcDbEntity
  8
DV3_Default
  6
Continuous
 62
     7
100
AcDbSpline
210
0.0
220
0.0
230
1.0
 70
    12
 71
     3
 72
    13
 73
     9
 74
     0
 42
0.0000000009170341
 43
0.0000000001
 40
0.0
 40
0.0
 40
0.0
 40
0.0
 40
0.1341117039799259
 40
0.4120723423866932
 40
0.5510526615897113
 40
0.690032980793201
 40
0.9679936191994731
 40
1.0
 40
1.0
 40
1.0
 40
1.0
 10
166.6364876699497
 20
142.1040492166618
 30
0.0
 41
1.0
 10
166.6761069109897
 20
141.6863526076017
 30
0.0
 41
1.0
 10
166.7854242480997
 20
140.4656447807818
 30
0.0
 41
1.0
 10
166.9661656129497
 20
138.5560311849018
 30
0.0
 41
1.0
 10
167.1831069642697
 20
136.3655498492018
 30
0.0
 41
1.0
 10
167.4018205391897
 20
134.0532695278017
 30
0.0
 41
1.0
 10
167.4588190246761
 20
132.3990997143639
 30
0.0
 41
1.0
 10
167.4400378458772
 20
131.3447705287814
 30
0.0
 41
1.0
 10
167.4374879397277
 20
131.2368396614822
 30
0.0
 41
1.0
  0
SPLINE
  5
221
330
215
100
AcDbEntity
  8
DV3_Default
  6
Continuous
 62
     7
100
AcDbSpline
210
0.0
220
0.0
230
1.0
 70
    12
 71
     3
 72
    12
 73
     8
 74
     0
 42
0.0000000011188756
 43
0.0000000001
 40
0.0
 40
0.0
 40
0.0
 40
0.0
 40
0.1536127883062657
 40
0.3240845891116828
 40
0.4945563899165217
 40
0.835499991527067
 40
1.0
 40
1.0
 40
1.0
 40
1.0
 10
134.0805907827122
 20
133.202086776093
 30
0.0
 41
1.0
 10
134.0989313694661
 20
133.6690374083611
 30
0.0
 41
1.0
 10
134.1582653396425
 20
134.6885085397917
 30
0.0
 41
1.0
 10
134.3168930357297
 20
136.3655498493017
 30
0.0
 41
1.0
 10
134.5338343870498
 20
138.5560311849018
 30
0.0
 41
1.0
 10
134.7145757518997
 20
140.4656447808018
 30
0.0
 41
1.0
 10
134.8238930889997
 20
141.6863526076418
 30
0.0
 41
1.0
 10
134.8635123300497
 20
142.1040492167018
 30
0.0
 41
1.0
  0
SPLINE
  5
222
330
215
100
AcDbEntity
  8
DV3_Default
  6
Continuous
 62
     7
100
AcDbSpline
210
0.0
220
0.0
230
1.0
 70
     8
 71
     3
 72
     8
 73
     4
 74
     0
 42
0.0000003993281332
 43
0.0000000001
 40
0.0
 40
0.0
 40
0.0
 40
0.0
 40
1.0
 40
1.0
 40
1.0
 40
1.0
 10
166.3925243980181
 20
141.7032025568458
 30
0.0
 10
166.3861360054199
 20
141.6979778927487
 30
0.0
 10
166.3796236052209
 20
141.6927564107994
 30
0.0
 10
166.3729873695631
 20
141.6875382358428
 30
0.0
  0
LINE
  5
223
330
215
100
AcDbEntity
  8
DV3_Default
  6
Continuous
 62
     7
100
AcDbLine
 10
166.3158718371
 20
146.050407406
 30
0.0
 11
166.6364876705
 21
142.1040492167
 31
0.0
  0
LINE
  5
224
330
215
100
AcDbEntity
  8
DV3_Default
  6
Continuous
 62
     7
100
AcDbLine
 10
134.8635123295
 20
142.1040492168
 30
0.0
 11
135.1841281635
 21
146.0504074171
 31
0.0
  0
LINE
  5
225
330
215
100
AcDbEntity
  8
DV3_Default
  6
Continuous
 62
     7
100
AcDbLine
 10
135.1841281635
 20
146.0504074171
 30
0.0
 11
135.2888096738
 21
149.2853738889
 31
0.0
  0
LINE
  5
226
330
215
100
AcDbEntity
  8
DV3_Default
  6
Continuous
 62
     7
100
AcDbLine
 10
166.2111903262
 20
149.2853738889
 30
0.0
 11
166.3158718371
 21
146.050407406
 31
0.0
  0
ARC
  5
227
330
215
100
AcDbEntity
  8
DV3_Default
  6
Continuous
 62
     7
100
AcDbCircle
 10
303.2920010862
 20
153.4754482719
 30
0.0
 40
137.1448336700942
100
AcDbArc
 50
179.9296022876
 51
181.7507837237
  0
ARC
  5
228
330
215
100
AcDbEntity
  8
DV3_Default
  6
Continuous
 62
     7
100
AcDbCircle
 10
-1.7920010159
 20
153.4754482706
 30
0.0
 40
137.1448335997829
100
AcDbArc
 50
358.249216276
 51
0.070397713
  0
ARC
  5
229
330
215
100
AcDbEntity
  8
DV3_Default
  6
Continuous
 62
     7
100
AcDbCircle
 10
303.7243977881
 20
154.313934295
 30
0.0
 40
168.373001701684
100
AcDbArc
 50
177.4153372111
 51
180.2279886388
  0
ARC
  5
22A
330
215
100
AcDbEntity
  8
DV3_Default
  6
Continuous
 62
     7
100
AcDbCircle
 10
-2.224397789
 20
154.3139342952
 30
0.0
 40
168.3730017025618
100
AcDbArc
 50
359.7720113611
 51
2.5846627888
  0
ARC
  5
22B
330
215
100
AcDbEntity
  8
DV3_Default
  6
Continuous
 62
     7
100
AcDbCircle
 10
530.2362501629
 20
180.7134588945
 30
0.0
 40
364.7441053783251
100
AcDbArc
 50
177.8454477186
 51
182.9555502099
  0
ARC
  5
22C
330
215
100
AcDbEntity
  8
DV3_Default
  6
Continuous
 62
     7
100
AcDbCircle
 10
-228.7362501595
 20
180.7134588945
 30
0.0
 40
364.7441053749745
100
AcDbArc
 50
357.0444497901
 51
2.1545522814
  0
ARC
  5
22D
330
215
100
AcDbEntity
  8
DV3_Default
  6
Continuous
 62
     7
100
AcDbCircle
 10
732.5948431345
 20
193.1755695352
 30
0.0
 40
596.8461531581535
100
AcDbArc
 50
179.3719294448
 51
179.8799543959
  0
ARC
  5
22E
330
215
100
AcDbEntity
  8
DV3_Default
  6
Continuous
 62
     7
100
AcDbCircle
 10
-431.0948428576
 20
193.1755695371
 30
0.0
 40
596.8461528812707
100
AcDbArc
 50
0.120045604
 51
0.6280705553
  0
ARC
  5
22F
330
215
100
AcDbEntity
  8
DV3_Default
  6
Continuous
 62
     7
100
AcDbCircle
 10
415.8323755598
 20
205.349945004
 30
0.0
 40
250.1803244452386
100
AcDbArc
 50
180.1398071312
 51
181.2899240045
  0
ARC
  5
230
330
215
100
AcDbEntity
  8
DV3_Default
  6
Continuous
 62
     7
100
AcDbCircle
 10
-114.3323750543
 20
205.3499449966
 30
0.0
 40
250.1803239396525
100
AcDbArc
 50
358.7100759946
 51
359.8601928713
  0
SPLINE
  5
231
330
215
100
AcDbEntity
  8
DV3_Default
  6
Continuous
 62
     7
100
AcDbSpline
210
0.0
220
0.0
230
1.0
 70
     8
 71
     3
 72
    11
 73
     7
 74
     0
 42
0.0000000010089868
 43
0.0000000001
 40
0.0
 40
0.0
 40
0.0
 40
0.0
 40
0.25
 40
0.5
 40
0.75
 40
1.0
 40
1.0
 40
1.0
 40
1.0
 10
135.8472040911597
 20
204.7394819164317
 30
0.0
 10
135.8449589996812
 20
205.5673980122376
 30
0.0
 10
135.8141367304448
 20
207.2235371169773
 30
0.0
 10
135.6936343336718
 20
209.7164923332461
 30
0.0
 10
135.5691269750856
 20
212.1871283313844
 30
0.0
 10
135.5444516629496
 20
213.8226283061843
 30
0.0
 10
135.5278450301597
 20
214.6437249342817
 30
0.0
  0
SPLINE
  5
232
330
215
100
AcDbEntity
  8
DV3_Default
  6
Continuous
 62
     7
100
AcDbSpline
210
0.0
220
0.0
230
1.0
 70
     8
 71
     3
 72
    11
 73
     7
 74
     0
 42
0.0000000010089866
 43
0.0000000001
 40
0.0
 40
0.0
 40
0.0
 40
0.0
 40
0.2499999999999998
 40
0.4999999999999997
 40
0.7499999999999996
 40
1.0
 40
1.0
 40
1.0
 40
1.0
 10
165.9721550063397
 20
214.6437267386918
 30
0.0
 10
165.95554836424
 20
213.8226299549304
 30
0.0
 10
165.9308730641795
 20
212.1871296878523
 30
0.0
 10
165.8063657164139
 20
209.7164932491
 30
0.0
 10
165.6858632823058
 20
207.2235375624168
 30
0.0
 10
165.6550410006717
 20
205.5673981594521
 30
0.0
 10
165.6527959088297
 20
204.7394819116317
 30
0.0
  0
SPLINE
  5
233
330
215
100
AcDbEntity
  8
DV3_Default
  6
Continuous
 62
     7
100
AcDbSpline
210
0.0
220
0.0
230
1.0
 70
     8
 71
     3
 72
     8
 73
     4
 74
     0
 42
0.0000000158162872
 43
0.0000000001
 40
0.0
 40
0.0
 40
0.0
 40
0.0
 40
1.0
 40
1.0
 40
1.0
 40
1.0
 10
165.9721550063397
 20
214.6437267386918
 30
0.0
 10
165.9721527587668
 20
214.8535605952678
 30
0.0
 10
165.9549255032366
 20
215.0633840644795
 30
0.0
 10
165.9207465997666
 20
215.2725056550857
 30
0.0
  0
SPLINE
  5
234
330
215
100
AcDbEntity
  8
DV3_Default
  6
Continuous
 62
     7
100
AcDbSpline
210
0.0
220
0.0
230
1.0
 70
     8
 71
     3
 72
     8
 73
     4
 74
     0
 42
0.0000000158155237
 43
0.0000000001
 40
0.0
 40
0.0
 40
0.0
 40
0.0
 40
1.0
 40
1.0
 40
1.0
 40
1.0
 10
135.5792538535955
 20
215.2725344621558
 30
0.0
 10
135.5450745111554
 20
215.0634023656109
 30
0.0
 10
135.527847115102
 20
214.8535686715756
 30
0.0
 10
135.5278450301597
 20
214.6437249342817
 30
0.0
  0
SPLINE
  5
235
330
215
100
AcDbEntity
  8
DV3_Default
  6
Continuous
 62
     7
100
AcDbSpline
210
0.0
220
0.0
230
1.0
 70
    12
 71
     3
 72
     8
 73
     4
 74
     0
 42
0.0000000038872649
 43
0.0000000001
 40
0.0
 40
0.0
 40
0.0
 40
0.0
 40
1.0
 40
1.0
 40
1.0
 40
1.0
 10
134.1291528856897
 20
224.5475040052517
 30
0.0
 41
1.0
 10
134.1291458514995
 20
223.6995673184802
 30
0.0
 41
1.0
 10
134.2595178536025
 20
222.8517529317825
 30
0.0
 41
1.0
 10
134.5148216591389
 20
222.023418035521
 30
0.0
 41
1.0
  0
SPLINE
  5
236
330
215
100
AcDbEntity
  8
DV3_Default
  6
Continuous
 62
     7
100
AcDbSpline
210
0.0
220
0.0
230
1.0
 70
    12
 71
     3
 72
     8
 73
     4
 74
     0
 42
0.0000000038872273
 43
0.0000000001
 40
0.0
 40
0.0
 40
0.0
 40
0.0
 40
1.0
 40
1.0
 40
1.0
 40
1.0
 10
166.9851813115118
 20
222.0234260163364
 30
0.0
 41
1.0
 10
167.2404886049121
 20
222.8517705646695
 30
0.0
 41
1.0
 10
167.3708624730066
 20
223.6995944010753
 30
0.0
 41
1.0
 10
167.3708541873697
 20
224.5475360672918
 30
0.0
 41
1.0
  0
SPLINE
  5
237
330
215
100
AcDbEntity
  8
DV3_Default
  6
Continuous
 62
     7
100
AcDbSpline
210
0.0
220
0.0
230
1.0
 70
     8
 71
     3
 72
    19
 73
    15
 74
     0
 42
0.0000000028322781
 43
0.0000000001
 40
0.0
 40
0.0
 40
0.0
 40
0.0
 40
0.0164998599793162
 40
0.0353840845613415
 40
0.0753092908635908
 40
0.2033160037280793
 40
0.307060480754591
 40
0.4562653977312482
 40
0.6619186251669701
 40
0.7300666466670354
 40
0.8115388524910161
 40
0.9035167904816521
 40
0.9551227919146531
 40
1.0
 40
1.0
 40
1.0
 40
1.0
 10
171.6254617066541
 20
227.4717225622651
 30
0.0
 10
171.6274745843309
 20
227.4891572880606
 30
0.0
 10
171.631640792836
 20
227.5226150600717
 30
0.0
 10
171.6499786479229
 20
227.6040279489499
 30
0.0
 10
171.7056787788185
 20
227.8140311745237
 30
0.0
 10
171.7992359502284
 20
228.130988695648
 30
0.0
 10
171.9190138167833
 20
228.5769431814979
 30
0.0
 10
172.0509084089515
 20
229.1186055081647
 30
0.0
 10
172.1499952061407
 20
229.6215148301309
 30
0.0
 10
172.2095889901244
 20
230.0402643004022
 30
0.0
 10
172.2422423949796
 20
230.3242365487236
 30
0.0
 10
172.2544404809868
 20
230.5803960905878
 30
0.0
 10
172.2523009233942
 20
230.7875602945794
 30
0.0
 10
172.2420883500518
 20
230.8853162987864
 30
0.0
 10
172.2373467454597
 20
230.9307836750287
 30
0.0
  0
ARC
  5
238
330
215
100
AcDbEntity
  8
DV3_Default
  6
Continuous
 62
     7
100
AcDbCircle
 10
155.3084905541
 20
233.143567081
 30
0.0
 40
17.27464523044667
100
AcDbArc
 50
317.3704100876
 51
340.8323438389
  0
ARC
  5
239
330
215
100
AcDbEntity
  8
DV3_Default
  6
Continuous
 62
     7
100
AcDbCircle
 10
151.5812089702
 20
236.147718035
 30
0.0
 40
22.05379825579071
100
AcDbArc
 50
312.5156778633
 51
318.1862815544
  0
ARC
  5
23A
330
215
100
AcDbEntity
  8
DV3_Default
  6
Continuous
 62
     7
100
AcDbCircle
 10
146.1995383113
 20
233.1510814729
 30
0.0
 40
17.28562555026678
100
AcDbArc
 50
199.1936928365
 51
222.6299946575
  0
ARC
  5
23B
330
215
100
AcDbEntity
  8
DV3_Default
  6
Continuous
 62
     7
100
AcDbCircle
 10
149.9243008591
 20
236.153515677
 30
0.0
 40
22.06175367888911
100
AcDbArc
 50
221.8154802761
 51
227.4837837651
  0
SPLINE
  5
23C
330
215
100
AcDbEntity
  8
DV3_Default
  6
Continuous
 62
     7
100
AcDbSpline
210
0.0
220
0.0
230
1.0
 70
     8
 71
     3
 72
    15
 73
    11
 74
     0
 42
0.0000000604030136
 43
0.0000000001
 40
0.0
 40
0.0
 40
0.0
 40
0.0
 40
0.3257308746270954
 40
0.5747809385347158
 40
0.7139939849254668
 40
0.7712301959923349
 40
0.8205575300302308
 40
0.9173125215633768
 40
0.9629366155284723
 40
1.0
 40
1.0
 40
1.0
 40
1.0
 10
129.8434788304797
 20
227.6300072896018
 30
0.0
 10
129.8484139726886
 20
227.6107171585118
 30
0.0
 10
129.8573663983712
 20
227.5767773319179
 30
0.0
 10
129.8666980148666
 20
227.535993331158
 30
0.0
 10
129.8705823371657
 20
227.5125069402837
 30
0.0
 10
129.8730695537217
 20
227.4992197372406
 30
0.0
 10
129.874711177678
 20
227.4886518321148
 30
0.0
 10
129.8749709924965
 20
227.4802062821475
 30
0.0
 10
129.873672958197
 20
227.4746494134908
 30
0.0
 10
129.8744339393587
 20
227.4702045655112
 30
0.0
 10
129.8747763233997
 20
227.4682127692917
 30
0.0
  0
ARC
  5
23D
330
215
100
AcDbEntity
  8
DV3_Default
  6
Continuous
 62
     7
100
AcDbCircle
 10
150.75
 20
238.7796017338
 30
0.0
 40
26.3244115294415
100
AcDbArc
 50
180.0
 51
234.1122774297
  0
ARC
  5
23E
330
215
100
AcDbEntity
  8
DV3_Default
  6
Continuous
 62
     7
100
AcDbCircle
 10
150.75
 20
238.7796017338
 30
0.0
 40
26.32441152944364
100
AcDbArc
 50
89.9987876437
 51
180.0
  0
ARC
  5
23F
330
215
100
AcDbEntity
  8
DV3_Default
  6
Continuous
 62
     7
100
AcDbCircle
 10
150.75
 20
238.7796017338
 30
0.0
 40
26.32441152944304
100
AcDbArc
 50
359.9987638884
 51
90.0
  0
ARC
  5
240
330
215
100
AcDbEntity
  8
DV3_Default
  6
Continuous
 62
     7
100
AcDbCircle
 10
150.75
 20
238.7796017338
 30
0.0
 40
26.32441152944689
100
AcDbArc
 50
305.8276551113
 51
359.9987638884
  0
ARC
  5
241
330
215
100
AcDbEntity
  8
DV3_Default
  6
Continuous
 62
     7
100
AcDbCircle
 10
235.3742541099
 20
128.9397239039
 30
0.0
 40
101.3273801070444
100
AcDbArc
 50
172.6002662567
 51
172.8298821245
  0
ARC
  5
242
330
215
100
AcDbEntity
  8
DV3_Default
  6
Continuous
 62
     7
100
AcDbCircle
 10
235.3742541099
 20
128.9397239039
 30
0.0
 40
101.3273801070444
100
AcDbArc
 50
177.9087866588
 51
178.7090867912
  0
ARC
  5
243
330
215
100
AcDbEntity
  8
DV3_Default
  6
Continuous
 62
     7
100
AcDbCircle
 10
64.7804401516
 20
128.824525256
 30
0.0
 40
102.6761366507721
100
AcDbArc
 50
7.3667926787
 51
7.5526769931
  0
ARC
  5
244
330
215
100
AcDbEntity
  8
DV3_Default
  6
Continuous
 62
     7
100
AcDbCircle
 10
149.542044651
 20
139.1386509472
 30
0.0
 40
14.88495373384915
100
AcDbArc
 50
169.2534420971
 51
174.2948465678
  0
ARC
  5
245
330
215
100
AcDbEntity
  8
DV3_Default
  6
Continuous
 62
     7
100
AcDbCircle
 10
165.2531845141
 20
131.6610907168
 30
0.0
 40
31.204814370245
100
AcDbArc
 50
177.159710776
 51
209.2896829948
  0
ARC
  5
246
330
215
100
AcDbEntity
  8
DV3_Default
  6
Continuous
 62
     7
100
AcDbCircle
 10
135.158489987
 20
131.9123200432
 30
0.0
 40
32.27843400665617
100
AcDbArc
 50
331.266492696
 51
1.3775462531
  0
ARC
  5
247
330
215
100
AcDbEntity
  8
DV3_Default
  6
Continuous
 62
     7
100
AcDbCircle
 10
163.2123240104
 20
139.9691731984
 30
0.0
 40
3.597657376252115
100
AcDbArc
 50
7.737333264
 51
28.5319178489
  0
LINE
  5
248
330
215
100
AcDbEntity
  8
DV3_Default
  6
Continuous
 62
     7
100
AcDbLine
 10
135.4576491556
 20
146.0092878304
 30
0.0
 11
135.1269448721
 21
141.687591454
 31
0.0
  0
LINE
  5
249
330
215
100
AcDbEntity
  8
DV3_Default
  6
Continuous
 62
     7
100
AcDbLine
 10
166.3730551279
 20
141.6875914541
 30
0.0
 11
166.0423508444
 21
146.0092878304
 31
0.0
  0
ARC
  5
24A
330
215
100
AcDbEntity
  8
DV3_Default
  6
Continuous
 62
     7
100
AcDbCircle
 10
228.6443216712
 20
149.627162966
 30
0.0
 40
62.706205244002
100
AcDbArc
 50
184.8424766422
 51
186.4837112831
  0
ARC
  5
24B
330
215
100
AcDbEntity
  8
DV3_Default
  6
Continuous
 62
     7
100
AcDbCircle
 10
228.6443216712
 20
149.627162966
 30
0.0
 40
62.706205244002
100
AcDbArc
 50
183.3059925229
 51
183.8233670859
  0
ARC
  5
24C
330
215
100
AcDbEntity
  8
DV3_Default
  6
Continuous
 62
     7
100
AcDbCircle
 10
-88.7567373996
 20
154.7660042767
 30
0.0
 40
224.1717383768095
100
AcDbArc
 50
357.7668713234
 51
359.7660466169
  0
ARC
  5
24D
330
215
100
AcDbEntity
  8
DV3_Default
  6
Continuous
 62
     7
100
AcDbCircle
 10
390.2567373994
 20
154.7660042768
 30
0.0
 40
224.17173837664
100
AcDbArc
 50
180.2339533831
 51
182.2331286766
  0
ARC
  5
24E
330
215
100
AcDbEntity
  8
DV3_Default
  6
Continuous
 62
     7
100
AcDbCircle
 10
304.9342172047
 20
154.4845222815
 30
0.0
 40
169.5222660146272
100
AcDbArc
 50
177.3885085238
 51
180.2142346792
  0
ARC
  5
24F
330
215
100
AcDbEntity
  8
DV3_Default
  6
Continuous
 62
     7
100
AcDbCircle
 10
-3.4342172109
 20
154.4845222813
 30
0.0
 40
169.5222660208256
100
AcDbArc
 50
359.7857653209
 51
2.6114914762
  0
ARC
  5
250
330
215
100
AcDbEntity
  8
DV3_Default
  6
Continuous
 62
     7
100
AcDbCircle
 10
-239.7412772545
 20
181.1086256015
 30
0.0
 40
375.8048515289856
100
AcDbArc
 50
357.1172455989
 51
2.1072450996
  0
ARC
  5
251
330
215
100
AcDbEntity
  8
DV3_Default
  6
Continuous
 62
     7
100
AcDbCircle
 10
555.4982354516
 20
181.2051123984
 30
0.0
 40
390.0491144561824
100
AcDbArc
 50
177.9839246897
 51
182.7915846118
  0
ARC
  5
252
330
215
100
AcDbEntity
  8
DV3_Default
  6
Continuous
 62
     7
100
AcDbCircle
 10
1016.0823513265
 20
191.9411835081
 30
0.0
 40
880.2779730147669
100
AcDbArc
 50
179.1301665756
 51
179.8056566926
  0
ARC
  5
253
330
215
100
AcDbEntity
  8
DV3_Default
  6
Continuous
 62
     7
100
AcDbCircle
 10
-714.5823513627
 20
191.9411835074
 30
0.0
 40
880.2779730509934
100
AcDbArc
 50
0.1943433074
 51
0.8698334244
  0
ARC
  5
254
330
215
100
AcDbEntity
  8
DV3_Default
  6
Continuous
 62
     7
100
AcDbCircle
 10
-14.9659691707
 20
204.0352931367
 30
0.0
 40
150.8844777827715
100
AcDbArc
 50
0.2165976073
 51
3.7611092608
  0
ARC
  5
255
330
215
100
AcDbEntity
  8
DV3_Default
  6
Continuous
 62
     7
100
AcDbCircle
 10
327.0361092596
 20
203.8579577309
 30
0.0
 40
161.4443106759024
100
AcDbArc
 50
179.185933705
 51
179.8776599491
  0
ARC
  5
256
330
215
100
AcDbEntity
  8
DV3_Default
  6
Continuous
 62
     7
100
AcDbCircle
 10
327.0361092596
 20
203.8579577309
 30
0.0
 40
161.4443106759024
100
AcDbArc
 50
176.4221630381
 51
178.724240943
  0
LINE
  5
257
330
215
100
AcDbEntity
  8
DV3_Default
  6
Continuous
 62
     7
100
AcDbLine
 10
135.5807319027
 20
215.3488266336
 30
0.0
 11
135.6056045729
 21
212.1415076439
 31
0.0
  0
LINE
  5
258
330
215
100
AcDbEntity
  8
DV3_Default
  6
Continuous
 62
     7
100
AcDbLine
 10
135.7893099301
 20
207.6087054447
 30
0.0
 11
135.9058175061
 21
205.3045695743
 31
0.0
  0
LINE
  5
259
330
215
100
AcDbEntity
  8
DV3_Default
  6
Continuous
 62
     7
100
AcDbLine
 10
165.5941824939
 20
205.3045695743
 30
0.0
 11
165.7106900709
 21
207.6087054643
 31
0.0
  0
LINE
  5
25A
330
215
100
AcDbEntity
  8
DV3_Default
  6
Continuous
 62
     7
100
AcDbLine
 10
165.8943954262
 20
212.1415075165
 30
0.0
 11
165.9192680973
 21
215.3488266336
 31
0.0
  0
ARC
  5
25B
330
215
100
AcDbEntity
  8
DV3_Default
  6
Continuous
 62
     7
100
AcDbCircle
 10
152.1965189693
 20
231.9099118416
 30
0.0
 40
17.74514934339061
100
AcDbArc
 50
326.3745941205
 51
326.6242855542
  0
ARC
  5
25C
330
215
100
AcDbEntity
  8
DV3_Default
  6
Continuous
 62
     7
100
AcDbCircle
 10
106.1382156332
 20
214.3103633237
 30
0.0
 40
29.4050258833444
100
AcDbArc
 50
3.5790390836
 51
15.2746399818
  0
ARC
  5
25D
330
215
100
AcDbEntity
  8
DV3_Default
  6
Continuous
 62
     7
100
AcDbCircle
 10
106.1382156332
 20
214.3103633237
 30
0.0
 40
29.4050258833444
100
AcDbArc
 50
359.9034974551
 51
0.7078638005
  0
ARC
  5
25E
330
215
100
AcDbEntity
  8
DV3_Default
  6
Continuous
 62
     7
100
AcDbCircle
 10
195.3617843671
 20
214.3103633237
 30
0.0
 40
29.40502588360205
100
AcDbArc
 50
179.2921267319
 51
179.4946695929
  0
ARC
  5
25F
330
215
100
AcDbEntity
  8
DV3_Default
  6
Continuous
 62
     7
100
AcDbCircle
 10
195.3617843671
 20
214.3103633237
 30
0.0
 40
29.40502588360205
100
AcDbArc
 50
164.7253600185
 51
176.2298002268
  0
ARC
  5
260
330
215
100
AcDbEntity
  8
DV3_Default
  6
Continuous
 62
     7
100
AcDbCircle
 10
150.75
 20
238.7796017338
 30
0.0
 40
40.10431711023
100
AcDbArc
 50
59.5508989922
 51
74.7528902625
  0
SPLINE
  5
261
330
215
100
AcDbEntity
  8
DV3_Default
  6
Continuous
 62
     7
100
AcDbSpline
210
0.0
220
0.0
230
1.0
 70
     8
 71
     3
 72
    14
 73
    10
 74
     0
 42
0.0000000004886495
 43
0.0000000001
 40
0.0
 40
0.0
 40
0.0
 40
0.0
 40
0.2500000000000001
 40
0.2500000000000001
 40
0.5000000000000001
 40
0.5000000000000001
 40
0.7500000000000002
 40
0.7500000000000002
 40
1.0
 40
1.0
 40
1.0
 40
1.0
 10
189.9515581570197
 20
269.7425227567018
 30
0.0
 10
188.3055003797364
 20
269.1259359486801
 30
0.0
 10
186.7057604317166
 20
268.5413757118289
 30
0.0
 10
183.4389514656952
 20
268.0010978130632
 30
0.0
 10
181.7898635732167
 20
268.0854795247405
 30
0.0
 10
178.6130251141652
 20
268.9205465294853
 30
0.0
 10
177.0979927881927
 20
269.6469388511531
 30
0.0
 10
174.1113613877035
 20
271.413096989994
 30
0.0
 10
172.6323533121778
 20
272.4365118208816
 30
0.0
 10
171.0737742755997
 20
273.3527191817817
 30
0.0
  0
ARC
  5
262
330
215
100
AcDbEntity
  8
DV3_Default
  6
Continuous
 62
     7
100
AcDbCircle
 10
201.5499992371
 20
238.7796017338
 30
0.0
 40
33.06396544054001
100
AcDbArc
 50
55.6343119111
 51
110.5355130705
  0
ARC
  5
263
330
215
100
AcDbEntity
  8
DV3_Default
  6
Continuous
 62
     7
100
AcDbCircle
 10
201.5499992371
 20
238.7796017338
 30
0.0
 40
33.06396532049001
100
AcDbArc
 50
9.5905314541
 51
55.6343119111
  0
ARC
  5
264
330
215
100
AcDbEntity
  8
DV3_Default
  6
Continuous
 62
     7
100
AcDbCircle
 10
201.5499992371
 20
238.7796017338
 30
0.0
 40
33.06396532049234
100
AcDbArc
 50
304.3656871377
 51
350.4094685446
  0
ARC
  5
265
330
215
100
AcDbEntity
  8
DV3_Default
  6
Continuous
 62
     7
100
AcDbCircle
 10
201.5499992371
 20
238.7796017338
 30
0.0
 40
33.06396544053998
100
AcDbArc
 50
249.4716276469
 51
304.3656871377
  0
SPLINE
  5
266
330
215
100
AcDbEntity
  8
DV3_Default
  6
Continuous
 62
     7
100
AcDbSpline
210
0.0
220
0.0
230
1.0
 70
     8
 71
     3
 72
    14
 73
    10
 74
     0
 42
0.0000000004885496
 43
0.0000000001
 40
0.0
 40
0.0
 40
0.0
 40
0.0
 40
0.2500000000000001
 40
0.2500000000000001
 40
0.5000000000000003
 40
0.5000000000000003
 40
0.7500000000000002
 40
0.7500000000000002
 40
1.0
 40
1.0
 40
1.0
 40
1.0
 10
171.0737314788197
 20
204.2064686462517
 30
0.0
 10
172.6325247499611
 20
205.1227956232148
 30
0.0
 10
174.1117376821379
 20
206.1463648980932
 30
0.0
 10
177.0987960369134
 20
207.9126951183893
 30
0.0
 10
178.6140428805052
 20
208.6391064365989
 30
0.0
 10
181.7914432272844
 20
209.4739487130888
 30
0.0
 10
183.4406974493892
 20
209.5580737615402
 30
0.0
 10
186.70788504156
 20
209.0172410077397
 30
0.0
 10
188.3083729380217
 20
208.432259262811
 30
0.0
 10
189.9554283277297
 20
207.8152653643217
 30
0.0
  0
ARC
  5
267
330
215
100
AcDbEntity
  8
DV3_Default
  6
Continuous
 62
     7
100
AcDbCircle
 10
150.75
 20
238.7796017338
 30
0.0
 40
40.10431711945002
100
AcDbArc
 50
291.7958939106
 51
300.449036975
  0
ARC
  5
268
330
215
100
AcDbEntity
  8
DV3_Default
  6
Continuous
 62
     7
100
AcDbCircle
 10
150.75
 20
238.7796017338
 30
0.0
 40
40.10431711945002
100
AcDbArc
 50
239.550963025
 51
248.1052913145
  0
SPLINE
  5
269
330
215
100
AcDbEntity
  8
DV3_Default
  6
Continuous
 62
     7
100
AcDbSpline
210
0.0
220
0.0
230
1.0
 70
     8
 71
     2
 72
    28
 73
    25
 74
     0
 42
0.0000000004895434
 43
0.0000000001
 40
0.0
 40
0.0
 40
0.0
 40
0.0625
 40
0.0625
 40
0.09375
 40
0.09375
 40
0.125
 40
0.125
 40
0.1875
 40
0.1875
 40
0.25
 40
0.25
 40
0.375
 40
0.375
 40
0.5
 40
0.5
 40
0.625
 40
0.625
 40
0.75
 40
0.75
 40
0.875
 40
0.875
 40
0.9375
 40
0.9375
 40
1.0
 40
1.0
 40
1.0
 10
130.4262685211797
 20
204.2064686462517
 30
0.0
 10
129.7629238955915
 20
204.5964268208921
 30
0.0
 10
128.9119238312072
 20
205.1353633832726
 30
0.0
 10
128.65009723774
 20
205.3011776177581
 30
0.0
 10
128.1990610882892
 20
205.5900404161625
 30
0.0
 10
127.7166842675389
 20
205.898975117953
 30
0.0
 10
127.5113840010597
 20
206.0297195502606
 30
0.0
 10
126.730098899112
 20
206.5272770005082
 30
0.0
 10
126.195961255368
 20
206.8496575958027
 30
0.0
 10
125.5299947418157
 20
207.2516039547603
 30
0.0
 10
124.9360191527518
 20
207.5722050471821
 30
0.0
 10
123.6918998179595
 20
208.2437242563572
 30
0.0
 10
122.5571590750505
 20
208.6595847932773
 30
0.0
 10
121.4577114013831
 20
209.0625111028719
 30
0.0
 10
120.3745226401247
 20
209.2628151805617
 30
0.0
 10
119.3731886087308
 20
209.4479826202468
 30
0.0
 10
118.3902889190205
 20
209.452524050699
 30
0.0
 10
117.4204726463091
 20
209.4570050299893
 30
0.0
 10
116.3626730653058
 20
209.2771155868918
 30
0.0
 10
115.313785377876
 20
209.0987417008058
 30
0.0
 10
114.0753808155221
 20
208.7108043254804
 30
0.0
 10
113.5228526390211
 20
208.5377216858479
 30
0.0
 10
112.8426083550726
 20
208.2940418785266
 30
0.0
 10
112.3859571903364
 20
208.1304584858225
 30
0.0
 10
111.5445716722697
 20
207.8152653643217
 30
0.0
  0
ARC
  5
26A
330
215
100
AcDbEntity
  8
DV3_Default
  6
Continuous
 62
     7
100
AcDbCircle
 10
99.9500007629
 20
238.7796017338
 30
0.0
 40
33.06396544053998
100
AcDbArc
 50
235.6343128623
 51
290.5283723531
  0
ARC
  5
26B
330
215
100
AcDbEntity
  8
DV3_Default
  6
Continuous
 62
     7
100
AcDbCircle
 10
99.9500007629
 20
238.7796017338
 30
0.0
 40
33.06396532049234
100
AcDbArc
 50
189.5905314554
 51
235.6343128623
  0
ARC
  5
26C
330
215
100
AcDbEntity
  8
DV3_Default
  6
Continuous
 62
     7
100
AcDbCircle
 10
99.9500007629
 20
238.7796017338
 30
0.0
 40
33.06396532049001
100
AcDbArc
 50
124.3656880889
 51
170.4094685459
  0
ARC
  5
26D
330
215
100
AcDbEntity
  8
DV3_Default
  6
Continuous
 62
     7
100
AcDbCircle
 10
99.9500007629
 20
238.7796017338
 30
0.0
 40
33.06396544054001
100
AcDbArc
 50
69.4644869295
 51
124.3656880889
  0
SPLINE
  5
26E
330
215
100
AcDbEntity
  8
DV3_Default
  6
Continuous
 62
     7
100
AcDbSpline
210
0.0
220
0.0
230
1.0
 70
     8
 71
     2
 72
    28
 73
    25
 74
     0
 42
0.000000000489638
 43
0.0000000001
 40
0.0
 40
0.0
 40
0.0
 40
0.0625
 40
0.0625
 40
0.125
 40
0.125
 40
0.25
 40
0.25
 40
0.375
 40
0.375
 40
0.5
 40
0.5
 40
0.625
 40
0.625
 40
0.75
 40
0.75
 40
0.8125
 40
0.8125
 40
0.875
 40
0.875
 40
0.90625
 40
0.90625
 40
0.9375
 40
0.9375
 40
1.0
 40
1.0
 40
1.0
 10
111.5484418429797
 20
269.7425227567018
 30
0.0
 10
112.3902971556243
 20
269.4271851209755
 30
0.0
 10
112.8502032959401
 20
269.2624701608935
 30
0.0
 10
113.5381640378079
 20
269.0160776555513
 30
0.0
 10
114.0869160507052
 20
268.8447038715003
 30
0.0
 10
115.330072065053
 20
268.4564695774339
 30
0.0
 10
116.3820864275905
 20
268.2784853085429
 30
0.0
 10
117.4456046427151
 20
268.0985547688924
 30
0.0
 10
118.4350978140895
 20
268.1067237703338
 30
0.0
 10
119.4103035864039
 20
268.1147748186785
 30
0.0
 10
120.4239755954104
 20
268.3052852381607
 30
0.0
 10
121.492011076029
 20
268.5060127768782
 30
0.0
 10
122.5993773180241
 20
268.9154796270533
 30
0.0
 10
123.730932917903
 20
269.3338908894788
 30
0.0
 10
124.9889750351045
 20
270.0154803750365
 30
0.0
 10
125.572739650221
 20
270.3317558146769
 30
0.0
 10
126.2486352863859
 20
270.7412913305141
 30
0.0
 10
126.7816503668032
 20
271.0642533297159
 30
0.0
 10
127.559673840427
 20
271.5602450007296
 30
0.0
 10
127.7065606991646
 20
271.6538856953683
 30
0.0
 10
128.2411547522001
 20
271.9962784314191
 30
0.0
 10
128.669814646386
 20
272.2708232625338
 30
0.0
 10
128.9438882146555
 20
272.4442056686005
 30
0.0
 10
129.7728234481378
 20
272.9686005825721
 30
0.0
 10
130.4262257243997
 20
273.3527191817817
 30
0.0
  0
ARC
  5
26F
330
215
100
AcDbEntity
  8
DV3_Default
  6
Continuous
 62
     7
100
AcDbCircle
 10
150.75
 20
238.7796017338
 30
0.0
 40
40.10431711023
100
AcDbArc
 50
105.2471097375
 51
120.4491010078
  0
ARC
  5
270
330
215
100
AcDbEntity
  8
DV3_Default
  6
Continuous
 62
     7
100
AcDbCircle
 10
150.75
 20
238.7796017338
 30
0.0
 40
40.10431711023021
100
AcDbArc
 50
74.7528902625
 51
105.2471097375
  0
ARC
  5
271
330
215
100
AcDbEntity
  8
DV3_Default
  6
Continuous
 62
     7
100
AcDbCircle
 10
134.1260387245
 20
153.139963038
 30
0.0
 40
60.47002489952568
100
AcDbArc
 50
110.6627250673
 51
111.9518512327
  0
SPLINE
  5
272
330
215
100
AcDbEntity
  8
DV3_Default
  6
Continuous
 62
     7
100
AcDbSpline
210
0.0
220
0.0
230
1.0
 70
     8
 71
     3
 72
    27
 73
    23
 74
     0
 42
0.0000000005171294
 43
0.0000000001
 40
0.0
 40
0.0
 40
0.0
 40
0.0
 40
0.0226175449487374
 40
0.0437269138533253
 40
0.0631986445095191
 40
0.0878764460617408
 40
0.1256279337639357
 40
0.1924640631043278
 40
0.2470020338152951
 40
0.302746363015521
 40
0.3605225080861248
 40
0.4209860044957084
 40
0.4847753154724458
 40
0.5989470449714744
 40
0.732844706679319
 40
0.7971821129450771
 40
0.8626540403576364
 40
0.8957663628588054
 40
0.9296582370653923
 40
0.952885618973896
 40
0.9763219919075435
 40
1.0
 40
1.0
 40
1.0
 40
1.0
 10
112.7882110110097
 20
209.7201806040117
 30
0.0
 10
112.9247856260378
 20
209.7707131793312
 30
0.0
 10
113.1888239440017
 20
209.8684192514982
 30
0.0
 10
113.5732549926736
 20
210.0018297656457
 30
0.0
 10
113.9719616742292
 20
210.134382865868
 30
0.0
 10
114.4744302649861
 20
210.2943532351976
 30
0.0
 10
115.2738442982974
 20
210.5262266008641
 30
0.0
 10
116.2737233608417
 20
210.7551048755315
 30
0.0
 10
117.4035616930696
 20
210.9182521391205
 30
0.0
 10
118.4858112730444
 20
210.9752730952696
 30
0.0
 10
119.6065886543727
 20
210.9217561998068
 30
0.0
 10
120.7679152997723
 20
210.750824667452
 30
0.0
 10
122.2601983623824
 20
210.3813546014707
 30
0.0
 10
124.1387827804371
 20
209.6505831698564
 30
0.0
 10
125.9027343758938
 20
208.6750477469764
 30
0.0
 10
127.3351650097103
 20
207.7639126177162
 30
0.0
 10
128.2100844385564
 20
207.1851895562061
 30
0.0
 10
128.921753693325
 20
206.7150606295945
 30
0.0
 10
129.4074960151493
 20
206.3963982070019
 30
0.0
 10
129.8433221302714
 20
206.1152554213639
 30
0.0
 10
130.2267970245838
 20
205.8742904622061
 30
0.0
 10
130.4863749562013
 20
205.7173279048987
 30
0.0
 10
130.6170081278397
 20
205.6387385540817
 30
0.0
  0
ARC
  5
273
330
215
100
AcDbEntity
  8
DV3_Default
  6
Continuous
 62
     7
100
AcDbCircle
 10
376.6379419095
 20
276.8079522849
 30
0.0
 40
256.1080960099925
100
AcDbArc
 50
193.7562800264
 51
196.1341587092
  0
ARC
  5
274
330
215
100
AcDbEntity
  8
DV3_Default
  6
Continuous
 62
     7
100
AcDbCircle
 10
227.2902621874
 20
235.6808321481
 30
0.0
 40
102.7499852751845
100
AcDbArc
 50
165.3589208977
 51
175.636510787
  0
ARC
  5
275
330
215
100
AcDbEntity
  8
DV3_Default
  6
Continuous
 62
     7
100
AcDbCircle
 10
404.7086883108
 20
193.2843410818
 30
0.0
 40
285.1492399146296
100
AcDbArc
 50
163.9920080023
 51
166.1275176279
  0
LINE
  5
276
330
215
100
AcDbEntity
  8
DV3_Default
  6
Continuous
 62
     7
100
AcDbLine
 10
130.5801137101
 20
271.899869306
 30
0.0
 11
130.6161948284
 21
271.9210439338
 31
0.0
  0
SPLINE
  5
277
330
215
100
AcDbEntity
  8
DV3_Default
  6
Continuous
 62
     7
100
AcDbSpline
210
0.0
220
0.0
230
1.0
 70
     8
 71
     3
 72
    18
 73
    14
 74
     0
 42
0.0000000004835485
 43
0.0000000001
 40
0.0
 40
0.0
 40
0.0
 40
0.0
 40
0.054543515261697
 40
0.1190516676285435
 40
0.192603969767017
 40
0.3627820582747779
 40
0.487496363400382
 40
0.6000254741780477
 40
0.7047261504825915
 40
0.7618681047533172
 40
0.8214564014365189
 40
0.9140583440174602
 40
1.0
 40
1.0
 40
1.0
 40
1.0
 10
130.5801105813997
 20
271.8998705730217
 30
0.0
 10
130.2612078352296
 20
271.7016052104015
 30
0.0
 10
129.564937351464
 20
271.2711650338556
 30
0.0
 10
128.4632189939145
 20
270.5359641065122
 30
0.0
 10
126.6942677416939
 20
269.3702519489017
 30
0.0
 10
124.5194392365162
 20
268.0564566842174
 30
0.0
 10
121.8998007966799
 20
267.0256061133408
 30
0.0
 10
119.5772223984684
 20
266.5755817338366
 30
0.0
 10
117.6784183051766
 20
266.5919811654193
 30
0.0
 10
116.1712767863196
 20
266.8194711620948
 30
0.0
 10
114.7703492875087
 20
267.1551989996753
 30
0.0
 10
113.2113698236446
 20
267.6617767059549
 30
0.0
 10
112.070390660915
 20
268.1150026253953
 30
0.0
 10
111.5212879703397
 20
268.3334335709317
 30
0.0
  0
ARC
  5
278
330
215
100
AcDbEntity
  8
DV3_Default
  6
Continuous
 62
     7
100
AcDbCircle
 10
91.0331670326
 20
202.0376120095
 30
0.0
 40
21.71195292971348
100
AcDbArc
 50
17.372960657
 51
19.333794106
  0
ARC
  5
279
330
215
100
AcDbEntity
  8
DV3_Default
  6
Continuous
 62
     7
100
AcDbCircle
 10
-290.9441042977
 20
57.9795726689
 30
0.0
 40
429.4724194533405
100
AcDbArc
 50
20.4974371938
 51
20.5962629933
  0
ARC
  5
27A
330
215
100
AcDbEntity
  8
DV3_Default
  6
Continuous
 62
     7
100
AcDbCircle
 10
-230.5239581615
 20
396.8715336019
 30
0.0
 40
364.925909949153
100
AcDbArc
 50
339.4040793318
 51
339.520359484
  0
ARC
  5
27B
330
215
100
AcDbEntity
  8
DV3_Default
  6
Continuous
 62
     7
100
AcDbCircle
 10
-83.637299532
 20
279.0766408288
 30
0.0
 40
264.9031978420505
100
AcDbArc
 50
343.9053208814
 51
346.2042403831
  0
SPLINE
  5
27C
330
215
100
AcDbEntity
  8
DV3_Default
  6
Continuous
 62
     7
100
AcDbSpline
210
0.0
220
0.0
230
1.0
 70
     8
 71
     3
 72
    30
 73
    26
 74
     0
 42
0.0000000005172472
 43
0.0000000001
 40
0.0
 40
0.0
 40
0.0
 40
0.0
 40
0.0625000000000001
 40
0.0625000000000001
 40
0.1250000000000002
 40
0.1250000000000002
 40
0.1875000000000002
 40
0.1875000000000002
 40
0.2500000000000003
 40
0.2500000000000003
 40
0.3750000000000004
 40
0.3750000000000004
 40
0.5000000000000006
 40
0.5000000000000006
 40
0.6250000000000007
 40
0.6250000000000007
 40
0.7500000000000009
 40
0.7500000000000009
 40
0.875000000000001
 40
0.875000000000001
 40
0.9375000000000006
 40
0.9375000000000006
 40
0.9687500000000003
 40
0.9687500000000003
 40
1.0
 40
1.0
 40
1.0
 40
1.0
 10
188.7117889889898
 20
209.7201806040117
 30
0.0
 10
188.329334401347
 20
209.8640331943584
 30
0.0
 10
187.944705973483
 20
209.9978133144508
 30
0.0
 10
187.1745905939855
 20
210.2486032792228
 30
0.0
 10
186.7891212254497
 20
210.3661329344243
 30
0.0
 10
186.0202972069277
 20
210.5725996492031
 30
0.0
 10
185.6373205284942
 20
210.6608358141875
 30
0.0
 10
184.8704862725484
 20
210.8058158518317
 30
0.0
 10
184.4858665735073
 20
210.863192051281
 30
0.0
 10
183.3358149715409
 20
210.9786414884787
 30
0.0
 10
182.5781288276501
 20
210.9751081723636
 30
0.0
 10
181.0650533025271
 20
210.8178791198493
 30
0.0
 10
180.3095961501874
 20
210.6638337417938
 30
0.0
 10
178.8112146718313
 20
210.219491860901
 30
0.0
 10
178.0798689784811
 20
209.9326012048654
 30
0.0
 10
176.6376397929457
 20
209.2503274041844
 30
0.0
 10
175.9261028828092
 20
208.8557576859794
 30
0.0
 10
174.5211043284043
 20
208.0007830249878
 30
0.0
 10
173.8258992812631
 20
207.5406068819125
 30
0.0
 10
172.7605425511285
 20
206.8361840624247
 30
0.0
 10
172.4015811795151
 20
206.5989397879396
 30
0.0
 10
171.8502436010502
 20
206.2410897149487
 30
0.0
 10
171.6645677592403
 20
206.1215405420116
 30
0.0
 10
171.2784029055948
 20
205.8796673283951
 30
0.0
 10
171.0750988928923
 20
205.756407877447
 30
0.0
 10
170.8829918721597
 20
205.6387385540817
 30
0.0
  0
ARC
  5
27D
330
215
100
AcDbEntity
  8
DV3_Default
  6
Continuous
 62
     7
100
AcDbCircle
 10
214.0855638931
 20
200.8370900472
 30
0.0
 40
25.52414996359778
100
AcDbArc
 50
160.8126487291
 51
162.4805965079
  0
LINE
  5
27E
330
215
100
AcDbEntity
  8
DV3_Default
  6
Continuous
 62
     7
100
AcDbLine
 10
189.9792979076
 20
209.2257860889
 30
0.0
 11
188.7117899995
 21
209.7201833264
 31
0.0
  0
SPLINE
  5
27F
330
215
100
AcDbEntity
  8
DV3_Default
  6
Continuous
 62
     7
100
AcDbSpline
210
0.0
220
0.0
230
1.0
 70
     8
 71
     3
 72
    20
 73
    16
 74
     0
 42
0.0000000004831824
 43
0.0000000001
 40
0.0
 40
0.0
 40
0.0
 40
0.0
 40
0.1249999999999998
 40
0.1249999999999998
 40
0.2499999999999994
 40
0.2499999999999994
 40
0.4999999999999992
 40
0.4999999999999992
 40
0.749999999999999
 40
0.749999999999999
 40
0.8749999999999993
 40
0.8749999999999993
 40
0.9374999999999997
 40
0.9374999999999997
 40
1.0
 40
1.0
 40
1.0
 40
1.0
 10
170.9198894185997
 20
271.8998705730217
 30
0.0
 10
171.7760315594938
 20
271.3820774488877
 30
0.0
 10
172.5354053212228
 20
270.8697177199115
 30
0.0
 10
174.0443501969639
 20
269.8727352172625
 30
0.0
 10
174.7869498920451
 20
269.3882935965588
 30
0.0
 10
177.0451904250461
 20
268.0534748444654
 30
0.0
 10
178.577187589497
 20
267.3398545104965
 30
0.0
 10
181.7978160227651
 20
266.5543264433278
 30
0.0
 10
183.4518236145769
 20
266.5030252310341
 30
0.0
 10
185.8886262919478
 20
266.9330424155133
 30
0.0
 10
186.7009088141936
 20
267.1522221810827
 30
0.0
 10
187.9193862435333
 20
267.5479739877759
 30
0.0
 10
188.3239301071291
 20
267.6915530306102
 30
0.0
 10
189.1303106635266
 20
267.9985616095496
 30
0.0
 10
189.5324360683321
 20
268.1619902400258
 30
0.0
 10
189.9787120296597
 20
268.3334335709317
 30
0.0
  0
LINE
  5
280
330
215
100
AcDbEntity
  8
DV3_Default
  6
Continuous
 62
     7
100
AcDbLine
 10
170.9198862899
 20
271.899869306
 30
0.0
 11
170.8838051716
 21
271.9210439338
 31
0.0
  0
ARC
  5
281
330
215
100
AcDbEntity
  8
DV3_Default
  6
Continuous
 62
     7
100
AcDbCircle
 10
-127.2475303464
 20
186.8700194015
 30
0.0
 40
310.0251668886398
100
AcDbArc
 50
13.9581660798
 51
15.9223082901
  0
ARC
  5
282
330
215
100
AcDbEntity
  8
DV3_Default
  6
Continuous
 62
     7
100
AcDbCircle
 10
75.8092663356
 20
235.9485669774
 30
0.0
 40
101.1348271599521
100
AcDbArc
 50
4.2811947744
 51
14.723373541
  0
ARC
  5
283
330
215
100
AcDbEntity
  8
DV3_Default
  6
Continuous
 62
     7
100
AcDbCircle
 10
89.6603529545
 20
275.949391303
 30
0.0
 40
23.14958513541323
100
AcDbArc
 50
340.792579567
 51
342.6309682735
  0
ARC
  5
284
330
215
100
AcDbEntity
  8
DV3_Default
  6
Continuous
 62
     7
100
AcDbCircle
 10
210.2105685605
 20
275.4109964603
 30
0.0
 40
21.43408302536528
100
AcDbArc
 50
197.2954558321
 51
199.2809963274
  0
LINE
  5
285
330
215
100
AcDbEntity
  8
DV3_Default
  6
Continuous
 62
     7
100
AcDbLine
 10
190.1627766696
 20
269.1932437637
 30
0.0
 11
190.4224396626
 21
268.4997208412
 31
0.0
  0
LINE
  5
286
330
215
100
AcDbEntity
  8
DV3_Default
  6
Continuous
 62
     7
100
AcDbLine
 10
190.4224959706
 20
209.059635911
 30
0.0
 11
190.1627756302
 21
208.3659601192
 31
0.0
  0
CIRCLE
  5
287
330
215
100
AcDbEntity
  8
DV3_Default
  6
Continuous
 62
     7
100
AcDbCircle
 10
150.75
 20
238.7796017338
 30
0.0
 40
9.0
  0
CIRCLE
  5
288
330
215
100
AcDbEntity
  8
DV3_Default
  6
Continuous
 62
     7
100
AcDbCircle
 10
150.75
 20
238.7796017338
 30
0.0
 40
9.025000110274
  0
CIRCLE
  5
289
330
215
100
AcDbEntity
  8
DV3_Default
  6
Continuous
 62
     7
100
AcDbCircle
 10
150.75
 20
238.7796017338
 30
0.0
 40
11.5
  0
CIRCLE
  5
28A
330
215
100
AcDbEntity
  8
DV3_Default
  6
Continuous
 62
     7
100
AcDbCircle
 10
150.75
 20
238.7796017338
 30
0.0
 40
8.95
  0
ARC
  5
28B
330
215
100
AcDbEntity
  8
DV3_Default
  6
Continuous
 62
     7
100
AcDbCircle
 10
99.95
 20
238.7796017338
 30
0.0
 40
19.6
100
AcDbArc
 50
0.0
 51
159.2143337856
  0
ARC
  5
28C
330
215
100
AcDbEntity
  8
DV3_Default
  6
Continuous
 62
     7
100
AcDbCircle
 10
99.95
 20
238.7796017338
 30
0.0
 40
19.6
100
AcDbArc
 50
200.7856662144
 51
0.0
  0
ARC
  5
28D
330
215
100
AcDbEntity
  8
DV3_Default
  6
Continuous
 62
     7
100
AcDbCircle
 10
99.95
 20
238.7796017338
 30
0.0
 40
7.649999999999999
100
AcDbArc
 50
231.6572507395
 51
0.0
  0
ARC
  5
28E
330
215
100
AcDbEntity
  8
DV3_Default
  6
Continuous
 62
     7
100
AcDbCircle
 10
99.95
 20
238.7796017338
 30
0.0
 40
7.649999999999999
100
AcDbArc
 50
0.0
 51
128.3427492605
  0
ARC
  5
28F
330
215
100
AcDbEntity
  8
DV3_Default
  6
Continuous
 62
     7
100
AcDbCircle
 10
99.95
 20
238.7796017338
 30
0.0
 40
11.38915565544
100
AcDbArc
 50
0.0
 51
148.2093612911
  0
ARC
  5
290
330
215
100
AcDbEntity
  8
DV3_Default
  6
Continuous
 62
     7
100
AcDbCircle
 10
99.95
 20
238.7796017338
 30
0.0
 40
11.38915565544
100
AcDbArc
 50
211.7906387089
 51
0.0
  0
ARC
  5
291
330
215
100
AcDbEntity
  8
DV3_Default
  6
Continuous
 62
     7
100
AcDbCircle
 10
99.95
 20
238.7796017338
 30
0.0
 40
6.0
100
AcDbArc
 50
0.0
 51
90.0
  0
ARC
  5
292
330
215
100
AcDbEntity
  8
DV3_Default
  6
Continuous
 62
     7
100
AcDbCircle
 10
99.95
 20
238.7796017338
 30
0.0
 40
6.0
100
AcDbArc
 50
270.0
 51
0.0
  0
LINE
  5
293
330
215
100
AcDbEntity
  8
DV3_Default
  6
Continuous
 62
     7
100
AcDbLine
 10
83.55
 20
244.7796017338
 30
0.0
 11
83.55
 21
232.7796017338
 31
0.0
  0
ARC
  5
294
330
215
100
AcDbEntity
  8
DV3_Default
  6
Continuous
 62
     7
100
AcDbCircle
 10
99.95
 20
238.7796017338
 30
0.0
 40
7.5
100
AcDbArc
 50
233.1301023542
 51
0.0
  0
ARC
  5
295
330
215
100
AcDbEntity
  8
DV3_Default
  6
Continuous
 62
     7
100
AcDbCircle
 10
99.95
 20
238.7796017338
 30
0.0
 40
7.5
100
AcDbArc
 50
0.0
 51
126.8698976458
  0
LINE
  5
296
330
215
100
AcDbEntity
  8
DV3_Default
  6
Continuous
 62
     7
100
AcDbLine
 10
89.95
 20
232.7796017338
 30
0.0
 11
99.95
 21
232.7796017338
 31
0.0
  0
LINE
  5
297
330
215
100
AcDbEntity
  8
DV3_Default
  6
Continuous
 62
     7
100
AcDbLine
 10
99.95
 20
244.7796017338
 30
0.0
 11
89.95
 21
244.7796017338
 31
0.0
  0
LINE
  5
298
330
215
100
AcDbEntity
  8
DV3_Default
  6
Continuous
 62
     7
100
AcDbLine
 10
89.95
 20
244.7796017338
 30
0.0
 11
83.55
 21
244.7796017338
 31
0.0
  0
LINE
  5
299
330
215
100
AcDbEntity
  8
DV3_Default
  6
Continuous
 62
     7
100
AcDbLine
 10
83.55
 20
232.7796017338
 30
0.0
 11
89.95
 21
232.7796017338
 31
0.0
  0
ARC
  5
29A
330
215
100
AcDbEntity
  8
DV3_Default
  6
Continuous
 62
     7
100
AcDbCircle
 10
82.05
 20
244.2889998562
 30
0.0
 40
1.500000000000001
100
AcDbArc
 50
0.0
 51
100.845754725
  0
ARC
  5
29B
330
215
100
AcDbEntity
  8
DV3_Default
  6
Continuous
 62
     7
100
AcDbCircle
 10
82.05
 20
233.2702036114
 30
0.0
 40
1.499999999999864
100
AcDbArc
 50
259.154245275
 51
0.0
  0
ARC
  5
29C
330
215
100
AcDbEntity
  8
DV3_Default
  6
Continuous
 62
     7
100
AcDbCircle
 10
66.15
 20
150.2796017338
 30
0.0
 40
83.0000000000001
100
AcDbArc
 50
79.154245275
 51
100.5864399194
  0
ARC
  5
29D
330
215
100
AcDbEntity
  8
DV3_Default
  6
Continuous
 62
     7
100
AcDbCircle
 10
66.15
 20
327.2796017338
 30
0.0
 40
83.00000000000013
100
AcDbArc
 50
259.4135600806
 51
280.845754725
  0
LINE
  5
29E
330
215
100
AcDbEntity
  8
DV3_Default
  6
Continuous
 62
     7
100
AcDbLine
 10
46.028903705
 20
230.9561874566
 30
0.0
 11
50.9013465664
 21
231.8668468672
 31
0.0
  0
LINE
  5
29F
330
215
100
AcDbEntity
  8
DV3_Default
  6
Continuous
 62
     7
100
AcDbLine
 10
50.9013465664
 20
245.6923566004
 30
0.0
 11
46.028903705
 21
246.603016011
 31
0.0
  0
ARC
  5
2A0
330
215
100
AcDbEntity
  8
DV3_Default
  6
Continuous
 62
     7
100
AcDbCircle
 10
32.25
 20
304.6796017338
 30
0.0
 40
75.00000000000573
100
AcDbArc
 50
255.6855501458
 51
280.5864399194
  0
ARC
  5
2A1
330
215
100
AcDbEntity
  8
DV3_Default
  6
Continuous
 62
     7
100
AcDbCircle
 10
32.25
 20
172.8796017338
 30
0.0
 40
75.00000000000298
100
AcDbArc
 50
79.4135600806
 51
104.3144498542
  0
LINE
  5
2A2
330
215
100
AcDbEntity
  8
DV3_Default
  6
Continuous
 62
     7
100
AcDbLine
 10
13.7067458819
 20
245.5511073375
 30
0.0
 11
11.0923666541
 21
244.8840082045
 31
0.0
  0
LINE
  5
2A3
330
215
100
AcDbEntity
  8
DV3_Default
  6
Continuous
 62
     7
100
AcDbLine
 10
11.0923666541
 20
232.6751952631
 30
0.0
 11
13.7067458819
 21
232.0080961301
 31
0.0
  0
ARC
  5
2A4
330
215
100
AcDbEntity
  8
DV3_Default
  6
Continuous
 62
     7
100
AcDbCircle
 10
12.65
 20
238.7796017338
 30
0.0
 40
6.299999999999705
100
AcDbArc
 50
104.3144498542
 51
255.6855501458
  0
ARC
  5
2A5
330
215
100
AcDbEntity
  8
DV3_Default
  6
Continuous
 62
     7
100
AcDbCircle
 10
201.55
 20
238.7796017338
 30
0.0
 40
19.6
100
AcDbArc
 50
20.7856662144
 51
339.2143337856
  0
ARC
  5
2A6
330
215
100
AcDbEntity
  8
DV3_Default
  6
Continuous
 62
     7
100
AcDbCircle
 10
201.55
 20
238.7796017338
 30
0.0
 40
7.649999999999999
100
AcDbArc
 50
51.6572507395
 51
308.3427492605
  0
ARC
  5
2A7
330
215
100
AcDbEntity
  8
DV3_Default
  6
Continuous
 62
     7
100
AcDbCircle
 10
201.55
 20
238.7796017338
 30
0.0
 40
11.38915565544
100
AcDbArc
 50
31.7906387089
 51
328.2093612911
  0
ARC
  5
2A8
330
215
100
AcDbEntity
  8
DV3_Default
  6
Continuous
 62
     7
100
AcDbCircle
 10
201.55
 20
238.7796017338
 30
0.0
 40
6.0
100
AcDbArc
 50
90.0
 51
270.0
  0
LINE
  5
2A9
330
215
100
AcDbEntity
  8
DV3_Default
  6
Continuous
 62
     7
100
AcDbLine
 10
217.95
 20
232.7796017338
 30
0.0
 11
217.95
 21
244.7796017338
 31
0.0
  0
ARC
  5
2AA
330
215
100
AcDbEntity
  8
DV3_Default
  6
Continuous
 62
     7
100
AcDbCircle
 10
201.55
 20
238.7796017338
 30
0.0
 40
7.5
100
AcDbArc
 50
53.1301023542
 51
306.8698976458
  0
LINE
  5
2AB
330
215
100
AcDbEntity
  8
DV3_Default
  6
Continuous
 62
     7
100
AcDbLine
 10
211.55
 20
244.7796017338
 30
0.0
 11
201.55
 21
244.7796017338
 31
0.0
  0
LINE
  5
2AC
330
215
100
AcDbEntity
  8
DV3_Default
  6
Continuous
 62
     7
100
AcDbLine
 10
201.55
 20
232.7796017338
 30
0.0
 11
211.55
 21
232.7796017338
 31
0.0
  0
LINE
  5
2AD
330
215
100
AcDbEntity
  8
DV3_Default
  6
Continuous
 62
     7
100
AcDbLine
 10
211.55
 20
232.7796017338
 30
0.0
 11
217.95
 21
232.7796017338
 31
0.0
  0
LINE
  5
2AE
330
215
100
AcDbEntity
  8
DV3_Default
  6
Continuous
 62
     7
100
AcDbLine
 10
217.95
 20
244.7796017338
 30
0.0
 11
211.55
 21
244.7796017338
 31
0.0
  0
ARC
  5
2AF
330
215
100
AcDbEntity
  8
DV3_Default
  6
Continuous
 62
     7
100
AcDbCircle
 10
219.45
 20
233.2702036114
 30
0.0
 40
1.500000000000001
100
AcDbArc
 50
180.0
 51
280.845754725
  0
ARC
  5
2B0
330
215
100
AcDbEntity
  8
DV3_Default
  6
Continuous
 62
     7
100
AcDbCircle
 10
219.45
 20
244.2889998562
 30
0.0
 40
1.499999999999864
100
AcDbArc
 50
79.154245275
 51
180.0
  0
ARC
  5
2B1
330
215
100
AcDbEntity
  8
DV3_Default
  6
Continuous
 62
     7
100
AcDbCircle
 10
235.35
 20
327.2796017338
 30
0.0
 40
83.0000000000001
100
AcDbArc
 50
259.154245275
 51
280.5864399194
  0
ARC
  5
2B2
330
215
100
AcDbEntity
  8
DV3_Default
  6
Continuous
 62
     7
100
AcDbCircle
 10
235.35
 20
150.2796017338
 30
0.0
 40
83.00000000000013
100
AcDbArc
 50
79.4135600806
 51
100.845754725
  0
LINE
  5
2B3
330
215
100
AcDbEntity
  8
DV3_Default
  6
Continuous
 62
     7
100
AcDbLine
 10
255.471096295
 20
246.603016011
 30
0.0
 11
250.5986534336
 21
245.6923566004
 31
0.0
  0
LINE
  5
2B4
330
215
100
AcDbEntity
  8
DV3_Default
  6
Continuous
 62
     7
100
AcDbLine
 10
250.5986534336
 20
231.8668468672
 30
0.0
 11
255.471096295
 21
230.9561874566
 31
0.0
  0
ARC
  5
2B5
330
215
100
AcDbEntity
  8
DV3_Default
  6
Continuous
 62
     7
100
AcDbCircle
 10
269.25
 20
172.8796017338
 30
0.0
 40
75.00000000000571
100
AcDbArc
 50
75.6855501458
 51
100.5864399194
  0
ARC
  5
2B6
330
215
100
AcDbEntity
  8
DV3_Default
  6
Continuous
 62
     7
100
AcDbCircle
 10
269.25
 20
304.6796017338
 30
0.0
 40
75.00000000000277
100
AcDbArc
 50
259.4135600806
 51
284.3144498542
  0
LINE
  5
2B7
330
215
100
AcDbEntity
  8
DV3_Default
  6
Continuous
 62
     7
100
AcDbLine
 10
287.7932541181
 20
232.0080961301
 30
0.0
 11
290.4076333459
 21
232.6751952631
 31
0.0
  0
LINE
  5
2B8
330
215
100
AcDbEntity
  8
DV3_Default
  6
Continuous
 62
     7
100
AcDbLine
 10
290.4076333459
 20
244.8840082045
 30
0.0
 11
287.7932541181
 21
245.5511073375
 31
0.0
  0
ARC
  5
2B9
330
215
100
AcDbEntity
  8
DV3_Default
  6
Continuous
 62
     7
100
AcDbCircle
 10
288.85
 20
238.7796017338
 30
0.0
 40
6.299999999999705
100
AcDbArc
 50
284.3144498542
 51
75.6855501458
  0
SPLINE
  5
2BA
330
215
100
AcDbEntity
  8
DV3_Default
  6
Continuous
 62
     7
100
AcDbSpline
210
0.0
220
0.0
230
1.0
 70
     8
 71
     3
 72
    27
 73
    23
 74
     0
 42
0.0000000003851247
 43
0.0000000001
 40
0.0
 40
0.0
 40
0.0
 40
0.0
 40
0.0334668141334845
 40
0.0873073414799989
 40
0.1411652343168137
 40
0.1950196372245388
 40
0.248861007331968
 40
0.3026798272845343
 40
0.3564668225799947
 40
0.4102132442032725
 40
0.4639112008998274
 40
0.5175540244894549
 40
0.5711366420397355
 40
0.6246559218378221
 40
0.6781109573146747
 40
0.7315032551301031
 40
0.7848368004136946
 40
0.8381179827312533
 40
0.891355379159418
 40
0.9445594041171979
 40
0.997741847671903
 40
1.0
 40
1.0
 40
1.0
 40
1.0
 10
150.7499999999997
 20
106.35
 30
0.0
 10
151.0712965259543
 20
106.3543883905738
 30
0.0
 10
151.7820899846409
 20
106.3674785802217
 30
0.0
 10
153.0390442570657
 20
106.4933280647321
 30
0.0
 10
154.4165747391611
 20
106.7538274510214
 30
0.0
 10
155.7760146430759
 20
107.1369167878611
 30
0.0
 10
157.0915888552319
 20
107.6373418810191
 30
0.0
 10
158.3563032757082
 20
108.2516197141545
 30
0.0
 10
159.5586667530783
 20
108.9745580718478
 30
0.0
 10
160.689024992704
 20
109.8002312734504
 30
0.0
 10
161.7379848086577
 20
110.7217817791395
 30
0.0
 10
162.6969496593565
 20
111.7315507813267
 30
0.0
 10
163.558080284679
 20
112.8211345841534
 30
0.0
 10
164.3143967786381
 20
113.9814731283194
 30
0.0
 10
164.9598280529667
 20
115.2029397689536
 30
0.0
 10
165.4892590582398
 20
116.4754374836563
 30
0.0
 10
165.8985617280135
 20
117.7884966878136
 30
0.0
 10
166.18461391712
 20
119.1313725455364
 30
0.0
 10
166.3453066945008
 20
120.4931393692731
 30
0.0
 10
166.3795421470964
 20
121.8627805065768
 30
0.0
 10
166.3166824127487
 20
122.7932273049834
 30
0.0
 10
166.2618385026433
 20
123.2655150539304
 30
0.0
 10
166.2595669072183
 20
123.2847475075189
 30
0.0
  0
SPLINE
  5
2BB
330
215
100
AcDbEntity
  8
DV3_Default
  6
Continuous
 62
     7
100
AcDbSpline
210
0.0
220
0.0
230
1.0
 70
     8
 71
     3
 72
    27
 73
    23
 74
     0
 42
0.0000000003855308
 43
0.0000000001
 40
0.0
 40
0.0
 40
0.0
 40
0.0
 40
0.0342576744328861
 40
0.0875133112731568
 40
0.1407493417659942
 40
0.1939747879993764
 40
0.2472022433662916
 40
0.3004445035323051
 40
0.3537135444499082
 40
0.407020027097265
 40
0.4603729009254639
 40
0.5137791252617391
 40
0.5672435167595319
 40
0.6207687191590074
 40
0.6743552807244675
 40
0.7280018161362812
 40
0.7817052244529592
 40
0.8354609336382773
 40
0.8892631450393246
 40
0.9431050574440967
 40
0.9941709114912005
 40
1.0
 40
1.0
 40
1.0
 40
1.0
 10
135.2372947552359
 20
123.2579466132806
 30
0.0
 10
135.2034024224747
 20
122.9664230170958
 30
0.0
 10
135.1389549019904
 20
122.2192203734301
 30
0.0
 10
135.1268033417966
 20
121.0124938792022
 30
0.0
 10
135.2394827956959
 20
119.6475702116969
 30
0.0
 10
135.4775725777378
 20
118.2985647880847
 30
0.0
 10
135.8390317823574
 20
116.9762746517501
 30
0.0
 10
136.3208818956013
 20
115.6912279695017
 30
0.0
 10
136.9192317346942
 20
114.4536458839671
 30
0.0
 10
137.6293033190365
 20
113.2733818075061
 30
0.0
 10
138.4454608783074
 20
112.1598569604672
 30
0.0
 10
139.36124216538
 20
111.1219953148981
 30
0.0
 10
140.369398816174
 20
110.1681576914269
 30
0.0
 10
141.4619274795061
 20
109.3060760612248
 30
0.0
 10
142.6301663930582
 20
108.5427872319438
 30
0.0
 10
143.8646828755265
 20
107.8845745323241
 30
0.0
 10
145.1559801683912
 20
107.3368923336273
 30
0.0
 10
146.49217888938
 20
106.9043748887313
 30
0.0
 10
147.8680399422638
 20
106.590556980765
 30
0.0
 10
149.2275812126822
 20
106.4020393503316
 30
0.0
 10
150.2250409542434
 20
106.3517827884375
 30
0.0
 10
150.6940916229897
 20
106.3501328475078
 30
0.0
 10
150.7499999999997
 20
106.35
 30
0.0
  0
ENDBLK
  5
2BD
330
215
100
AcDbEntity
  8
0
100
AcDbBlockEnd
  0
ENDSEC
  0
SECTION
  2
ENTITIES
  0
INSERT
  5
5F
330
1F
100
AcDbEntity
  8
Default
100
AcDbBlockReference
  2
SEANNOT_GROUP
 10
0.0
 20
0.0
 30
0.0
  0
INSERT
  5
65
330
1F
100
AcDbEntity
  8
Default
100
AcDbBlockReference
  2
SEANNOT_GROUP1
 10
0.0
 20
0.0
 30
0.0
  0
INSERT
  5
6A
330
1F
100
AcDbEntity
  8
Default
100
AcDbBlockReference
  2
SEANNOT_GROUP2
 10
0.0
 20
0.0
 30
0.0
  0
INSERT
  5
6F
330
1F
100
AcDbEntity
  8
Default
100
AcDbBlockReference
  2
SEANNOT_GROUP3
 10
0.0
 20
0.0
 30
0.0
  0
INSERT
  5
75
330
1F
100
AcDbEntity
  8
Default
100
AcDbBlockReference
  2
SEANNOT_GROUP4
 10
0.0
 20
0.0
 30
0.0
  0
INSERT
  5
7B
330
1F
100
AcDbEntity
  8
Default
100
AcDbBlockReference
  2
SEANNOT_GROUP5
 10
0.0
 20
0.0
 30
0.0
  0
INSERT
  5
81
330
1F
100
AcDbEntity
  8
Default
100
AcDbBlockReference
  2
SE
 10
0.0
 20
0.0
 30
0.0
  0
INSERT
  5
167
330
1F
100
AcDbEntity
  8
Default
100
AcDbBlockReference
  2
SE1
 10
0.0
 20
0.0
 30
0.0
  0
INSERT
  5
216
330
1F
100
AcDbEntity
  8
Default
100
AcDbBlockReference
  2
SE2
 10
0.0
 20
0.0
 30
0.0
  0
TEXT
  5
2BF
330
1F
100
AcDbEntity
  8
Default
  6
Continuous
 62
     7
100
AcDbText
 10
5.9362635081
 20
53.4225120485
 30
0.0
 40
10.0
  1
Grohe AG^J
  7
SEACAD_seiso_ttf
 11
5.9362635081
 21
63.4225120485
 31
0.0
100
AcDbText
 73
     3
  0
TEXT
  5
2C0
330
1F
100
AcDbEntity
  8
Default
  6
Continuous
 62
     7
100
AcDbText
 10
5.9362635081
 20
37.0588756849
 30
0.0
 40
10.0
  1
 
  7
SEACAD_seiso_ttf
 11
5.9362635081
 21
47.0588756849
 31
0.0
100
AcDbText
 73
     3
  0
TEXT
  5
2C1
330
1F
100
AcDbEntity
  8
Default
  6
Continuous
 62
     7
100
AcDbText
 10
5.9362635081
 20
20.6952393213
 30
0.0
 40
10.0
  1
ecn:
  7
SEACAD_seiso_ttf
 11
5.9362635081
 21
30.6952393213
 31
0.0
100
AcDbText
 73
     3
  0
TEXT
  5
2C2
330
1F
100
AcDbEntity
  8
Default
  6
Continuous
 62
     7
100
AcDbText
 10
5.9362635081
 20
4.3316029576
 30
0.0
 40
10.0
  1
unit: mm
  7
SEACAD_seiso_ttf
 11
5.9362635081
 21
14.3316029576
 31
0.0
100
AcDbText
 73
     3
  0
LINE
  5
2C3
330
1F
100
AcDbEntity
  8
Default
  6
Continuous
 62
     7
100
AcDbLine
 10
0.0
 20
0.0
 30
0.0
 11
100.0
 21
0.0
 31
0.0
  0
LINE
  5
2C4
330
1F
100
AcDbEntity
  8
Default
  6
Continuous
 62
     7
100
AcDbLine
 10
0.0
 20
0.0
 30
0.0
 11
0.0
 21
100.0
 31
0.0
  0
TEXT
  5
2C5
330
1F
100
AcDbEntity
  8
Default
  6
Continuous
 62
     7
100
AcDbText
 10
24.3923665681
 20
-18.2375342018
 30
0.0
 40
10.0
  1
100 mm
  7
SEACAD_seiso_ttf
 11
24.3923665681
 21
-8.2375342018
 31
0.0
100
AcDbText
 73
     3
  0
TEXT
  5
2C6
330
1F
100
AcDbEntity
  8
Default
  6
Continuous
 62
     7
100
AcDbText
 10
-7.6150308803
 20
24.6231930421
 30
0.0
 40
10.0
  1
100 mm
 50
90.0
  7
SEACAD_seiso_ttf
 11
-17.6150308803
 21
24.6231930421
 31
0.0
100
AcDbText
 73
     3
  0
TEXT
  5
2C7
330
1F
100
AcDbEntity
  8
Default
  6
Continuous
 62
     7
100
AcDbText
 10
28.4878128572
 20
20.0907663715
 30
0.0
 40
10.0
  1
223380
  7
SEACAD_seiso_ttf
 11
28.4878128572
 21
30.0907663715
 31
0.0
100
AcDbText
 73
     3
  0
TEXT
  5
2C8
330
1F
100
AcDbEntity
  8
Default
  6
Continuous
 62
     7
100
AcDbText
 10
5.9012241913
 20
36.7242780188
 30
0.0
 40
10.0
  1
20312000
  7
SEACAD_seiso_ttf
 11
5.9012241913
 21
46.7242780188
 31
0.0
100
AcDbText
 73
     3
  0
ENDSEC
  0
SECTION
  2
OBJECTS
  0
DICTIONARY
  5
C
330
0
100
AcDbDictionary
281
     1
  3
ACAD_GROUP
350
D
  3
ACAD_LAYOUT
350
1A
  3
ACAD_MLEADERSTYLE
350
2CC
  3
ACAD_MLINESTYLE
350
17
  3
ACAD_PLOTSETTINGS
350
19
  3
ACAD_PLOTSTYLENAME
350
E
  3
ACAD_SCALELIST
350
3B
  3
ACAD_TABLESTYLE
350
2CB
  3
ACAD_VISUALSTYLE
350
2A
  3
AcDbVariableDictionary
350
2C9
  0
DICTIONARY
  5
D
102
{ACAD_REACTORS
330
C
102
}
330
C
100
AcDbDictionary
281
     1
  0
DICTIONARY
  5
1A
102
{ACAD_REACTORS
330
C
102
}
330
C
100
AcDbDictionary
281
     1
  3
Layout1
350
1E
  3
Model
350
22
  0
DICTIONARY
  5
2CC
102
{ACAD_REACTORS
330
C
102
}
330
C
100
AcDbDictionary
281
     1
  0
DICTIONARY
  5
17
102
{ACAD_REACTORS
330
C
102
}
330
C
100
AcDbDictionary
281
     1
  3
Standard
350
18
  0
DICTIONARY
  5
19
102
{ACAD_REACTORS
330
C
102
}
330
C
100
AcDbDictionary
281
     1
  0
ACDBDICTIONARYWDFLT
  5
E
102
{ACAD_REACTORS
330
C
102
}
330
C
100
AcDbDictionary
281
     1
  3
Normal
350
F
100
AcDbDictionaryWithDefault
340
F
  0
DICTIONARY
  5
3B
102
{ACAD_REACTORS
330
C
102
}
330
C
100
AcDbDictionary
281
     1
  3
A0
350
3C
  3
A1
350
3D
  3
A2
350
3E
  3
A3
350
3F
  3
A4
350
40
  3
A5
350
41
  3
A6
350
42
  3
A7
350
43
  3
A8
350
44
  3
A9
350
45
  3
B0
350
46
  3
B1
350
47
  3
B2
350
48
  3
B3
350
49
  3
B4
350
4A
  3
B5
350
4B
  3
B6
350
4C
  3
B7
350
4D
  3
B8
350
4E
  3
B9
350
4F
  3
C0
350
50
  3
C1
350
51
  3
C2
350
52
  3
C3
350
53
  3
C4
350
54
  3
C5
350
55
  3
C6
350
56
  3
C7
350
57
  3
C8
350
58
  3
C9
350
59
  3
D0
350
5A
  3
D1
350
5B
  3
D2
350
5C
  0
DICTIONARY
  5
2CB
102
{ACAD_REACTORS
330
C
102
}
330
C
100
AcDbDictionary
281
     1
  0
DICTIONARY
  5
2A
102
{ACAD_REACTORS
330
C
102
}
330
C
100
AcDbDictionary
281
     1
  3
2dWireframe
350
2F
  3
3D Hidden
350
31
  3
3dWireframe
350
30
  3
Basic
350
32
  3
Brighten
350
36
  3
ColorChange
350
3A
  3
Conceptual
350
34
  3
Dim
350
35
  3
Facepattern
350
39
  3
Flat
350
2B
  3
FlatWithEdges
350
2C
  3
Gouraud
350
2D
  3
GouraudWithEdges
350
2E
  3
Linepattern
350
38
  3
Realistic
350
33
  3
Thicken
350
37
  0
DICTIONARY
  5
2C9
102
{ACAD_REACTORS
330
C
102
}
330
C
100
AcDbDictionary
281
     1
  3
CANNOSCALE
350
2CA
  3
PSOLHEIGHT
350
2CE
  3
PSOLWIDTH
350
2CD
  0
LAYOUT
  5
1E
102
{ACAD_REACTORS
330
1A
102
}
330
1A
100
AcDbPlotSettings
  1

  2
none_device
  4

  6

 40
0.0
 41
0.0
 42
0.0
 43
0.0
 44
0.0
 45
0.0
 46
0.0
 47
0.0
 48
0.0
 49
0.0
140
0.0
141
0.0
142
1.0
143
1.0
 70
   688
 72
     0
 73
     0
 74
     5
  7

 75
    16
147
1.0
148
0.0
149
0.0
100
AcDbLayout
  1
Layout1
 70
     1
 71
     1
 10
0.0
 20
0.0
 11
3000.0
 21
4500.0
 12
0.0
 22
0.0
 32
0.0
 14
0.0
 24
0.0
 34
0.0
 15
3000.0
 25
4500.0
 35
0.0
146
0.0
 13
0.0
 23
0.0
 33
0.0
 16
1.0
 26
0.0
 36
0.0
 17
0.0
 27
1.0
 37
0.0
 76
     0
330
1B
  0
LAYOUT
  5
22
102
{ACAD_REACTORS
330
1A
102
}
330
1A
100
AcDbPlotSettings
  1

  2
none_device
  4

  6

 40
0.0
 41
0.0
 42
0.0
 43
0.0
 44
0.0
 45
0.0
 46
0.0
 47
0.0
 48
0.0
 49
0.0
140
0.0
141
0.0
142
1.0
143
1.0
 70
  1712
 72
     0
 73
     0
 74
     0
  7

 75
     0
147
1.0
148
0.0
149
0.0
100
AcDbLayout
  1
Model
 70
     1
 71
     0
 10
0.0
 20
0.0
 11
3000.0
 21
4500.0
 12
0.0
 22
0.0
 32
0.0
 14
0.0
 24
0.0
 34
0.0
 15
3000.0
 25
4500.0
 35
0.0
146
0.0
 13
0.0
 23
0.0
 33
0.0
 16
1.0
 26
0.0
 36
0.0
 17
0.0
 27
1.0
 37
0.0
 76
     0
330
1F
331
29
  0
MLINESTYLE
  5
18
102
{ACAD_REACTORS
330
17
102
}
330
17
100
AcDbMlineStyle
  2
Standard
 70
     0
  3

 62
   256
 51
90.0
 52
90.0
 71
     2
 49
0.5
 62
   256
  6
BYLAYER
 49
-0.5
 62
   256
  6
BYLAYER
  0
ACDBPLACEHOLDER
  5
F
102
{ACAD_REACTORS
330
E
102
}
330
E
  0
SCALE
  5
3C
102
{ACAD_REACTORS
330
3B
102
}
330
3B
100
AcDbScale
 70
     0
300
1:1
140
1.0
141
1.0
290
     1
  0
SCALE
  5
3D
102
{ACAD_REACTORS
330
3B
102
}
330
3B
100
AcDbScale
 70
     0
300
1:2
140
1.0
141
2.0
290
     0
  0
SCALE
  5
3E
102
{ACAD_REACTORS
330
3B
102
}
330
3B
100
AcDbScale
 70
     0
300
1:4
140
1.0
141
4.0
290
     0
  0
SCALE
  5
3F
102
{ACAD_REACTORS
330
3B
102
}
330
3B
100
AcDbScale
 70
     0
300
1:5
140
1.0
141
5.0
290
     0
  0
SCALE
  5
40
102
{ACAD_REACTORS
330
3B
102
}
330
3B
100
AcDbScale
 70
     0
300
1:8
140
1.0
141
8.0
290
     0
  0
SCALE
  5
41
102
{ACAD_REACTORS
330
3B
102
}
330
3B
100
AcDbScale
 70
     0
300
1:10
140
1.0
141
10.0
290
     0
  0
SCALE
  5
42
102
{ACAD_REACTORS
330
3B
102
}
330
3B
100
AcDbScale
 70
     0
300
1:16
140
1.0
141
16.0
290
     0
  0
SCALE
  5
43
102
{ACAD_REACTORS
330
3B
102
}
330
3B
100
AcDbScale
 70
     0
300
1:20
140
1.0
141
20.0
290
     0
  0
SCALE
  5
44
102
{ACAD_REACTORS
330
3B
102
}
330
3B
100
AcDbScale
 70
     0
300
1:30
140
1.0
141
30.0
290
     0
  0
SCALE
  5
45
102
{ACAD_REACTORS
330
3B
102
}
330
3B
100
AcDbScale
 70
     0
300
1:40
140
1.0
141
40.0
290
     0
  0
SCALE
  5
46
102
{ACAD_REACTORS
330
3B
102
}
330
3B
100
AcDbScale
 70
     0
300
1:50
140
1.0
141
50.0
290
     0
  0
SCALE
  5
47
102
{ACAD_REACTORS
330
3B
102
}
330
3B
100
AcDbScale
 70
     0
300
1:100
140
1.0
141
100.0
290
     0
  0
SCALE
  5
48
102
{ACAD_REACTORS
330
3B
102
}
330
3B
100
AcDbScale
 70
     0
300
2:1
140
2.0
141
1.0
290
     0
  0
SCALE
  5
49
102
{ACAD_REACTORS
330
3B
102
}
330
3B
100
AcDbScale
 70
     0
300
4:1
140
4.0
141
1.0
290
     0
  0
SCALE
  5
4A
102
{ACAD_REACTORS
330
3B
102
}
330
3B
100
AcDbScale
 70
     0
300
8:1
140
8.0
141
1.0
290
     0
  0
SCALE
  5
4B
102
{ACAD_REACTORS
330
3B
102
}
330
3B
100
AcDbScale
 70
     0
300
10:1
140
10.0
141
1.0
290
     0
  0
SCALE
  5
4C
102
{ACAD_REACTORS
330
3B
102
}
330
3B
100
AcDbScale
 70
     0
300
100:1
140
100.0
141
1.0
290
     0
  0
SCALE
  5
4D
102
{ACAD_REACTORS
330
3B
102
}
330
3B
100
AcDbScale
 70
     0
300
1/128" = 1'-0"
140
0.0078125
141
12.0
290
     0
  0
SCALE
  5
4E
102
{ACAD_REACTORS
330
3B
102
}
330
3B
100
AcDbScale
 70
     0
300
1/64" = 1'-0"
140
0.015625
141
12.0
290
     0
  0
SCALE
  5
4F
102
{ACAD_REACTORS
330
3B
102
}
330
3B
100
AcDbScale
 70
     0
300
1/32" = 1'-0"
140
0.03125
141
12.0
290
     0
  0
SCALE
  5
50
102
{ACAD_REACTORS
330
3B
102
}
330
3B
100
AcDbScale
 70
     0
300
1/16" = 1'-0"
140
0.0625
141
12.0
290
     0
  0
SCALE
  5
51
102
{ACAD_REACTORS
330
3B
102
}
330
3B
100
AcDbScale
 70
     0
300
3/32" = 1'-0"
140
0.09375
141
12.0
290
     0
  0
SCALE
  5
52
102
{ACAD_REACTORS
330
3B
102
}
330
3B
100
AcDbScale
 70
     0
300
1/8" = 1'-0"
140
0.125
141
12.0
290
     0
  0
SCALE
  5
53
102
{ACAD_REACTORS
330
3B
102
}
330
3B
100
AcDbScale
 70
     0
300
3/16" = 1'-0"
140
0.1875
141
12.0
290
     0
  0
SCALE
  5
54
102
{ACAD_REACTORS
330
3B
102
}
330
3B
100
AcDbScale
 70
     0
300
1/4" = 1'-0"
140
0.25
141
12.0
290
     0
  0
SCALE
  5
55
102
{ACAD_REACTORS
330
3B
102
}
330
3B
100
AcDbScale
 70
     0
300
3/8" = 1'-0"
140
0.375
141
12.0
290
     0
  0
SCALE
  5
56
102
{ACAD_REACTORS
330
3B
102
}
330
3B
100
AcDbScale
 70
     0
300
1/2" = 1'-0"
140
0.5
141
12.0
290
     0
  0
SCALE
  5
57
102
{ACAD_REACTORS
330
3B
102
}
330
3B
100
AcDbScale
 70
     0
300
3/4" = 1'-0"
140
0.75
141
12.0
290
     0
  0
SCALE
  5
58
102
{ACAD_REACTORS
330
3B
102
}
330
3B
100
AcDbScale
 70
     0
300
1" = 1'-0"
140
1.0
141
12.0
290
     0
  0
SCALE
  5
59
102
{ACAD_REACTORS
330
3B
102
}
330
3B
100
AcDbScale
 70
     0
300
1-1/2" = 1'-0"
140
1.5
141
12.0
290
     0
  0
SCALE
  5
5A
102
{ACAD_REACTORS
330
3B
102
}
330
3B
100
AcDbScale
 70
     0
300
3" = 1'-0"
140
3.0
141
12.0
290
     0
  0
SCALE
  5
5B
102
{ACAD_REACTORS
330
3B
102
}
330
3B
100
AcDbScale
 70
     0
300
6" = 1'-0"
140
6.0
141
12.0
290
     0
  0
SCALE
  5
5C
102
{ACAD_REACTORS
330
3B
102
}
330
3B
100
AcDbScale
 70
     0
300
1'-0" = 1'-0"
140
12.0
141
12.0
290
     0
  0
VISUALSTYLE
  5
2F
102
{ACAD_REACTORS
330
2A
102
}
330
2A
100
AcDbVisualStyle
  2
2dWireframe
 70
     4
 71
     0
 72
     2
 73
     0
 90
        0
 40
-0.6
 41
-30.0
 62
     5
 63
     7
 74
     1
 91
        4
 64
     7
 65
   257
 75
     1
175
     1
 42
1.0
 92
        0
 66
   257
 43
1.0
 76
     1
 77
     6
 78
     2
 67
     7
 79
     5
170
     0
171
     0
290
     0
174
     0
 93
        1
 44
0.0
173
     0
291
     0
 45
0.0
1001
ACAD
1000
AcDbSavedByObjectVersion
1070
     0
  0
VISUALSTYLE
  5
31
102
{ACAD_REACTORS
330
2A
102
}
330
2A
100
AcDbVisualStyle
  2
3D Hidden
 70
     6
 71
     1
 72
     2
 73
     2
 90
        0
 40
-0.6
 41
-30.0
 62
     5
 63
     7
 74
     2
 91
        2
 64
     7
 65
   257
 75
     2
175
     1
 42
40.0
 92
        0
 66
   257
 43
1.0
 76
     1
 77
     6
 78
     2
 67
     7
 79
     3
170
     0
171
     0
290
     0
174
     0
 93
        1
 44
0.0
173
     0
291
     0
 45
0.0
1001
ACAD
1000
AcDbSavedByObjectVersion
1070
     0
  0
VISUALSTYLE
  5
30
102
{ACAD_REACTORS
330
2A
102
}
330
2A
100
AcDbVisualStyle
  2
3dWireframe
 70
     5
 71
     0
 72
     2
 73
     0
 90
        0
 40
-0.6
 41
-30.0
 62
     5
 63
     7
 74
     1
 91
        4
 64
     7
 65
   257
 75
     1
175
     1
 42
1.0
 92
        0
 66
   257
 43
1.0
 76
     1
 77
     6
 78
     2
 67
     7
 79
     5
170
     0
171
     0
290
     0
174
     0
 93
        1
 44
0.0
173
     0
291
     0
 45
0.0
1001
ACAD
1000
AcDbSavedByObjectVersion
1070
     0
  0
VISUALSTYLE
  5
32
102
{ACAD_REACTORS
330
2A
102
}
330
2A
100
AcDbVisualStyle
  2
Basic
 70
     7
 71
     1
 72
     0
 73
     1
 90
        0
 40
-0.6
 41
-30.0
 62
     5
 63
     7
 74
     0
 91
        4
 64
     7
 65
   257
 75
     1
175
     1
 42
1.0
 92
        8
 66
     7
 43
1.0
 76
     1
 77
     6
 78
     2
 67
     7
 79
     5
170
     0
171
     0
290
     0
174
     0
 93
        1
 44
0.0
173
     0
291
     1
 45
0.0
1001
ACAD
1000
AcDbSavedByObjectVersion
1070
     0
  0
VISUALSTYLE
  5
36
102
{ACAD_REACTORS
330
2A
102
}
330
2A
100
AcDbVisualStyle
  2
Brighten
 70
    12
 71
     2
 72
     2
 73
     0
 90
        0
 40
-0.6
 41
-30.0
 62
     5
 63
     7
 74
     1
 91
        4
 64
     7
 65
   257
 75
     1
175
     1
 42
1.0
 92
        8
 66
     7
 43
1.0
 76
     1
 77
     6
 78
     2
 67
     7
 79
     5
170
     0
171
     0
290
     0
174
     0
 93
        1
 44
50.0
173
     0
291
     1
 45
0.0
1001
ACAD
1000
AcDbSavedByObjectVersion
1070
     0
  0
VISUALSTYLE
  5
3A
102
{ACAD_REACTORS
330
2A
102
}
330
2A
100
AcDbVisualStyle
  2
ColorChange
 70
    16
 71
     2
 72
     2
 73
     3
 90
        0
 40
-0.6
 41
-30.0
 62
     5
 63
     8
 74
     1
 91
        4
 64
     7
 65
   257
 75
     1
175
     1
 42
1.0
 92
        8
 66
     8
 43
1.0
 76
     1
 77
     6
 78
     2
 67
     7
 79
     5
170
     0
171
     0
290
     0
174
     0
 93
        1
 44
0.0
173
     0
291
     1
 45
0.0
1001
ACAD
1000
AcDbSavedByObjectVersion
1070
     0
  0
VISUALSTYLE
  5
34
102
{ACAD_REACTORS
330
2A
102
}
330
2A
100
AcDbVisualStyle
  2
Conceptual
 70
     9
 71
     3
 72
     2
 73
     0
 90
        0
 40
-0.6
 41
-30.0
 62
     5
 63
     7
 74
     2
 91
        2
 64
     7
 65
   257
 75
     1
175
     1
 42
40.0
 92
        8
 66
     7
 43
1.0
 76
     1
 77
     6
 78
     2
 67
     7
 79
     3
170
     0
171
     0
290
     0
174
     0
 93
        1
 44
0.0
173
     0
291
     0
 45
0.0
1001
ACAD
1000
AcDbSavedByObjectVersion
1070
     0
  0
VISUALSTYLE
  5
35
102
{ACAD_REACTORS
330
2A
102
}
330
2A
100
AcDbVisualStyle
  2
Dim
 70
    11
 71
     2
 72
     2
 73
     0
 90
        0
 40
-0.6
 41
-30.0
 62
     5
 63
     7
 74
     1
 91
        4
 64
     7
 65
   257
 75
     1
175
     1
 42
1.0
 92
        8
 66
     7
 43
1.0
 76
     1
 77
     6
 78
     2
 67
     7
 79
     5
170
     0
171
     0
290
     0
174
     0
 93
        1
 44
-50.0
173
     0
291
     1
 45
0.0
1001
ACAD
1000
AcDbSavedByObjectVersion
1070
     0
  0
VISUALSTYLE
  5
39
102
{ACAD_REACTORS
330
2A
102
}
330
2A
100
AcDbVisualStyle
  2
Facepattern
 70
    15
 71
     2
 72
     2
 73
     0
 90
        0
 40
-0.6
 41
-30.0
 62
     5
 63
     7
 74
     1
 91
        4
 64
     7
 65
   257
 75
     1
175
     1
 42
1.0
 92
        8
 66
     7
 43
1.0
 76
     1
 77
     6
 78
     2
 67
     7
 79
     5
170
     0
171
     0
290
     0
174
     0
 93
        1
 44
0.0
173
     0
291
     1
 45
0.0
1001
ACAD
1000
AcDbSavedByObjectVersion
1070
     0
  0
VISUALSTYLE
  5
2B
102
{ACAD_REACTORS
330
2A
102
}
330
2A
100
AcDbVisualStyle
  2
Flat
 70
     0
 71
     2
 72
     1
 73
     1
 90
        2
 40
-0.6
 41
30.0
 62
     5
 63
     7
 74
     0
 91
        4
 64
     7
 65
   257
 75
     1
175
     1
 42
1.0
 92
        8
 66
     7
 43
1.0
 76
     1
 77
     6
 78
     2
 67
     7
 79
     5
170
     0
171
     0
290
     0
174
     0
 93
       13
 44
0.0
173
     0
291
     1
 45
0.0
1001
ACAD
1000
AcDbSavedByObjectVersion
1070
     0
  0
VISUALSTYLE
  5
2C
102
{ACAD_REACTORS
330
2A
102
}
330
2A
100
AcDbVisualStyle
  2
FlatWithEdges
 70
     1
 71
     2
 72
     1
 73
     1
 90
        2
 40
-0.6
 41
30.0
 62
     5
 63
     7
 74
     1
 91
        4
 64
     7
 65
   257
 75
     1
175
     1
 42
1.0
 92
        0
 66
   257
 43
1.0
 76
     1
 77
     6
 78
     2
 67
     7
 79
     5
170
     0
171
     0
290
     0
174
     0
 93
       13
 44
0.0
173
     0
291
     1
 45
0.0
1001
ACAD
1000
AcDbSavedByObjectVersion
1070
     0
  0
VISUALSTYLE
  5
2D
102
{ACAD_REACTORS
330
2A
102
}
330
2A
100
AcDbVisualStyle
  2
Gouraud
 70
     2
 71
     2
 72
     2
 73
     1
 90
        2
 40
-0.6
 41
30.0
 62
     5
 63
     7
 74
     0
 91
        4
 64
     7
 65
   257
 75
     1
175
     1
 42
1.0
 92
        0
 66
     7
 43
1.0
 76
     1
 77
     6
 78
     2
 67
     7
 79
     5
170
     0
171
     0
290
     0
174
     0
 93
       13
 44
0.0
173
     0
291
     1
 45
0.0
1001
ACAD
1000
AcDbSavedByObjectVersion
1070
     0
  0
VISUALSTYLE
  5
2E
102
{ACAD_REACTORS
330
2A
102
}
330
2A
100
AcDbVisualStyle
  2
GouraudWithEdges
 70
     3
 71
     2
 72
     2
 73
     1
 90
        2
 40
-0.6
 41
30.0
 62
     5
 63
     7
 74
     1
 91
        4
 64
     7
 65
   257
 75
     1
175
     1
 42
1.0
 92
        0
 66
   257
 43
1.0
 76
     1
 77
     6
 78
     2
 67
     7
 79
     5
170
     0
171
     0
290
     0
174
     0
 93
       13
 44
0.0
173
     0
291
     1
 45
0.0
1001
ACAD
1000
AcDbSavedByObjectVersion
1070
     0
  0
VISUALSTYLE
  5
38
102
{ACAD_REACTORS
330
2A
102
}
330
2A
100
AcDbVisualStyle
  2
Linepattern
 70
    14
 71
     2
 72
     2
 73
     0
 90
        0
 40
-0.6
 41
-30.0
 62
     5
 63
     7
 74
     1
 91
        4
 64
     7
 65
   257
 75
     7
175
     7
 42
1.0
 92
        8
 66
     7
 43
1.0
 76
     1
 77
     6
 78
     2
 67
     7
 79
     5
170
     0
171
     0
290
     0
174
     0
 93
        1
 44
0.0
173
     0
291
     1
 45
0.0
1001
ACAD
1000
AcDbSavedByObjectVersion
1070
     0
  0
VISUALSTYLE
  5
33
102
{ACAD_REACTORS
330
2A
102
}
330
2A
100
AcDbVisualStyle
  2
Realistic
 70
     8
 71
     2
 72
     2
 73
     0
 90
        0
 40
-0.6
 41
-30.0
 62
     5
 63
     7
 74
     1
 91
        0
 64
     7
 65
   257
 75
     1
175
     1
 42
1.0
 92
        8
 66
     8
 43
1.0
 76
     1
 77
     6
 78
     2
 67
     7
 79
     5
170
     0
171
     0
290
     0
174
     0
 93
       13
 44
0.0
173
     0
291
     0
 45
0.0
1001
ACAD
1000
AcDbSavedByObjectVersion
1070
     0
  0
VISUALSTYLE
  5
37
102
{ACAD_REACTORS
330
2A
102
}
330
2A
100
AcDbVisualStyle
  2
Thicken
 70
    13
 71
     2
 72
     2
 73
     0
 90
        0
 40
-0.6
 41
-30.0
 62
     5
 63
     7
 74
     1
 91
        4
 64
     7
 65
   257
 75
     1
175
     1
 42
1.0
 92
       12
 66
     7
 43
1.0
 76
     1
 77
     6
 78
     2
 67
     7
 79
     5
170
     0
171
     0
290
     0
174
     0
 93
        1
 44
0.0
173
     0
291
     1
 45
0.0
1001
ACAD
1000
AcDbSavedByObjectVersion
1070
     0
  0
DICTIONARYVAR
  5
2CA
102
{ACAD_REACTORS
330
2C9
102
}
330
2C9
100
DictionaryVariables
280
     0
  1
1:1
  0
DICTIONARYVAR
  5
2CE
102
{ACAD_REACTORS
330
2C9
102
}
330
2C9
100
DictionaryVariables
280
     0
  1
80.000000
  0
DICTIONARYVAR
  5
2CD
102
{ACAD_REACTORS
330
2C9
102
}
330
2C9
100
DictionaryVariables
280
     0
  1
5.000000
  0
ENDSEC
  0
EOF
