  0
SECTION
  2
HEADER
  9
$ACADVER
  1
AC1015
  9
$ACADMAINTVER
 70
     6
  9
$DWGCODEPAGE
  3
ANSI_1252
  9
$INSBASE
 10
0.0
 20
0.0
 30
0.0
  9
$EXTMIN
 10
0.0
 20
0.0
 30
0.0
  9
$EXTMAX
 10
3000.0
 20
4500.0
 30
0.0
  9
$LIMMIN
 10
0.0
 20
0.0
  9
$LIMMAX
 10
3000.0
 20
4500.0
  9
$ORTHOMODE
 70
     0
  9
$REGENMODE
 70
     1
  9
$FILLMODE
 70
     1
  9
$QTEXTMODE
 70
     0
  9
$MIRRTEXT
 70
     1
  9
$LTSCALE
 40
1.0
  9
$ATTMODE
 70
     1
  9
$TEXTSIZE
 40
2.5
  9
$TRACEWID
 40
1.0
  9
$TEXTSTYLE
  7
Standard
  9
$CLAYER
  8
0
  9
$CELTYPE
  6
ByLayer
  9
$CECOLOR
 62
   256
  9
$CELTSCALE
 40
1.0
  9
$DISPSILH
 70
     0
  9
$DIMSCALE
 40
1.0
  9
$DIMASZ
 40
2.5
  9
$DIMEXO
 40
0.625
  9
$DIMDLI
 40
3.75
  9
$DIMRND
 40
0.0
  9
$DIMDLE
 40
0.0
  9
$DIMEXE
 40
1.25
  9
$DIMTP
 40
0.0
  9
$DIMTM
 40
0.0
  9
$DIMTXT
 40
2.5
  9
$DIMCEN
 40
2.5
  9
$DIMTSZ
 40
0.0
  9
$DIMTOL
 70
     0
  9
$DIMLIM
 70
     0
  9
$DIMTIH
 70
     0
  9
$DIMTOH
 70
     0
  9
$DIMSE1
 70
     0
  9
$DIMSE2
 70
     0
  9
$DIMTAD
 70
     1
  9
$DIMZIN
 70
     8
  9
$DIMBLK
  1

  9
$DIMASO
 70
     1
  9
$DIMSHO
 70
     1
  9
$DIMPOST
  1

  9
$DIMAPOST
  1

  9
$DIMALT
 70
     0
  9
$DIMALTD
 70
     3
  9
$DIMALTF
 40
0.0393700787
  9
$DIMLFAC
 40
1.0
  9
$DIMTOFL
 70
     1
  9
$DIMTVP
 40
0.0
  9
$DIMTIX
 70
     0
  9
$DIMSOXD
 70
     0
  9
$DIMSAH
 70
     0
  9
$DIMBLK1
  1

  9
$DIMBLK2
  1

  9
$DIMSTYLE
  2
ISO-25
  9
$DIMCLRD
 70
     0
  9
$DIMCLRE
 70
     0
  9
$DIMCLRT
 70
     0
  9
$DIMTFAC
 40
1.0
  9
$DIMGAP
 40
0.625
  9
$DIMJUST
 70
     0
  9
$DIMSD1
 70
     0
  9
$DIMSD2
 70
     0
  9
$DIMTOLJ
 70
     0
  9
$DIMTZIN
 70
     8
  9
$DIMALTZ
 70
     0
  9
$DIMALTTZ
 70
     0
  9
$DIMUPT
 70
     0
  9
$DIMDEC
 70
     2
  9
$DIMTDEC
 70
     2
  9
$DIMALTU
 70
     2
  9
$DIMALTTD
 70
     3
  9
$DIMTXSTY
  7
Standard
  9
$DIMAUNIT
 70
     0
  9
$DIMADEC
 70
     0
  9
$DIMALTRND
 40
0.0
  9
$DIMAZIN
 70
     0
  9
$DIMDSEP
 70
    44
  9
$DIMATFIT
 70
     3
  9
$DIMFRAC
 70
     0
  9
$DIMLDRBLK
  1

  9
$DIMLUNIT
 70
     2
  9
$DIMLWD
 70
    -2
  9
$DIMLWE
 70
    -2
  9
$DIMTMOVE
 70
     0
  9
$LUNITS
 70
     2
  9
$LUPREC
 70
     4
  9
$SKETCHINC
 40
1.0
  9
$FILLETRAD
 40
10.0
  9
$AUNITS
 70
     0
  9
$AUPREC
 70
     0
  9
$MENU
  1
.
  9
$ELEVATION
 40
0.0
  9
$PELEVATION
 40
0.0
  9
$THICKNESS
 40
0.0
  9
$LIMCHECK
 70
     0
  9
$CHAMFERA
 40
10.0
  9
$CHAMFERB
 40
10.0
  9
$CHAMFERC
 40
20.0
  9
$CHAMFERD
 40
0.0
  9
$SKPOLY
 70
     0
  9
$TDCREATE
 40
2456140.636387002
  9
$TDUCREATE
 40
2456140.553053669
  9
$TDUPDATE
 40
2456140.636387014
  9
$TDUUPDATE
 40
2456140.55305368
  9
$TDINDWG
 40
0.0000000116
  9
$TDUSRTIMER
 40
0.0000000116
  9
$USRTIMER
 70
     1
  9
$ANGBASE
 50
0.0
  9
$ANGDIR
 70
     0
  9
$PDMODE
 70
     0
  9
$PDSIZE
 40
0.0
  9
$PLINEWID
 40
0.0
  9
$SPLFRAME
 70
     0
  9
$SPLINETYPE
 70
     6
  9
$SPLINESEGS
 70
     8
  9
$HANDSEED
  5
190
  9
$SURFTAB1
 70
     6
  9
$SURFTAB2
 70
     6
  9
$SURFTYPE
 70
     6
  9
$SURFU
 70
     6
  9
$SURFV
 70
     6
  9
$UCSBASE
  2

  9
$UCSNAME
  2

  9
$UCSORG
 10
0.0
 20
0.0
 30
0.0
  9
$UCSXDIR
 10
1.0
 20
0.0
 30
0.0
  9
$UCSYDIR
 10
0.0
 20
1.0
 30
0.0
  9
$UCSORTHOREF
  2

  9
$UCSORTHOVIEW
 70
     0
  9
$UCSORGTOP
 10
0.0
 20
0.0
 30
0.0
  9
$UCSORGBOTTOM
 10
0.0
 20
0.0
 30
0.0
  9
$UCSORGLEFT
 10
0.0
 20
0.0
 30
0.0
  9
$UCSORGRIGHT
 10
0.0
 20
0.0
 30
0.0
  9
$UCSORGFRONT
 10
0.0
 20
0.0
 30
0.0
  9
$UCSORGBACK
 10
0.0
 20
0.0
 30
0.0
  9
$PUCSBASE
  2

  9
$PUCSNAME
  2

  9
$PUCSORG
 10
0.0
 20
0.0
 30
0.0
  9
$PUCSXDIR
 10
1.0
 20
0.0
 30
0.0
  9
$PUCSYDIR
 10
0.0
 20
1.0
 30
0.0
  9
$PUCSORTHOREF
  2

  9
$PUCSORTHOVIEW
 70
     0
  9
$PUCSORGTOP
 10
0.0
 20
0.0
 30
0.0
  9
$PUCSORGBOTTOM
 10
0.0
 20
0.0
 30
0.0
  9
$PUCSORGLEFT
 10
0.0
 20
0.0
 30
0.0
  9
$PUCSORGRIGHT
 10
0.0
 20
0.0
 30
0.0
  9
$PUCSORGFRONT
 10
0.0
 20
0.0
 30
0.0
  9
$PUCSORGBACK
 10
0.0
 20
0.0
 30
0.0
  9
$USERI1
 70
     0
  9
$USERI2
 70
     0
  9
$USERI3
 70
     0
  9
$USERI4
 70
     0
  9
$USERI5
 70
     0
  9
$USERR1
 40
0.0
  9
$USERR2
 40
0.0
  9
$USERR3
 40
0.0
  9
$USERR4
 40
0.0
  9
$USERR5
 40
0.0
  9
$WORLDVIEW
 70
     1
  9
$SHADEDGE
 70
     3
  9
$SHADEDIF
 70
    70
  9
$TILEMODE
 70
     1
  9
$MAXACTVP
 70
    64
  9
$PINSBASE
 10
0.0
 20
0.0
 30
0.0
  9
$PLIMCHECK
 70
     0
  9
$PEXTMIN
 10
0.0
 20
0.0
 30
0.0
  9
$PEXTMAX
 10
3000.0
 20
4500.0
 30
0.0
  9
$PLIMMIN
 10
0.0
 20
0.0
  9
$PLIMMAX
 10
3000.0
 20
4500.0
  9
$UNITMODE
 70
     0
  9
$VISRETAIN
 70
     1
  9
$PLINEGEN
 70
     0
  9
$PSLTSCALE
 70
     1
  9
$TREEDEPTH
 70
  3020
  9
$CMLSTYLE
  2
Standard
  9
$CMLJUST
 70
     0
  9
$CMLSCALE
 40
20.0
  9
$PROXYGRAPHICS
 70
     1
  9
$MEASUREMENT
 70
     1
  9
$CELWEIGHT
370
    -1
  9
$ENDCAPS
280
     0
  9
$JOINSTYLE
280
     0
  9
$LWDISPLAY
290
     0
  9
$INSUNITS
 70
     4
  9
$HYPERLINKBASE
  1

  9
$STYLESHEET
  1

  9
$XEDIT
290
     1
  9
$CEPSNTYPE
380
     0
  9
$PSTYLEMODE
290
     1
  9
$FINGERPRINTGUID
  2
{AC87974C-0F2B-49CA-85DD-C58BAF37AB79}
  9
$VERSIONGUID
  2
{FAEB1C32-E019-11D5-929B-00C0DF256EC4}
  9
$EXTNAMES
290
     1
  9
$PSVPSCALE
 40
0.0
  9
$OLESTARTUP
290
     0
  0
ENDSEC
  0
SECTION
  2
CLASSES
  0
CLASS
  1
ACDBDICTIONARYWDFLT
  2
AcDbDictionaryWithDefault
  3
ObjectDBX Classes
 90
        0
280
     0
281
     0
  0
CLASS
  1
VISUALSTYLE
  2
AcDbVisualStyle
  3
ObjectDBX Classes
 90
     4095
280
     0
281
     0
  0
CLASS
  1
SCALE
  2
AcDbScale
  3
ObjectDBX Classes
 90
     1153
280
     0
281
     0
  0
CLASS
  1
DICTIONARYVAR
  2
AcDbDictionaryVar
  3
ObjectDBX Classes
 90
        0
280
     0
281
     0
  0
CLASS
  1
ACDBPLACEHOLDER
  2
AcDbPlaceHolder
  3
ObjectDBX Classes
 90
        0
280
     0
281
     0
  0
CLASS
  1
LAYOUT
  2
AcDbLayout
  3
ObjectDBX Classes
 90
        0
280
     0
281
     0
  0
ENDSEC
  0
SECTION
  2
TABLES
  0
TABLE
  2
VPORT
  5
8
330
0
100
AcDbSymbolTable
 70
     1
  0
VPORT
  5
29
330
8
100
AcDbSymbolTableRecord
100
AcDbViewportTableRecord
  2
*Active
 70
     0
 10
0.0
 20
0.0
 11
1.0
 21
1.0
 12
344.1869158879
 22
148.5
 13
0.0
 23
0.0
 14
10.0
 24
10.0
 15
10.0
 25
10.0
 16
0.0
 26
0.0
 36
1.0
 17
0.0
 27
0.0
 37
0.0
 40
297.0
 41
1.9729729729
 42
50.0
 43
0.0
 44
0.0
 50
0.0
 51
0.0
 71
     0
 72
   100
 73
     1
 74
     3
 75
     0
 76
     0
 77
     0
 78
     0
281
     0
 65
     1
110
0.0
120
0.0
130
0.0
111
1.0
121
0.0
131
0.0
112
0.0
122
1.0
132
0.0
 79
     0
146
0.0
  0
ENDTAB
  0
TABLE
  2
LTYPE
  5
5
330
0
100
AcDbSymbolTable
 70
     2
  0
LTYPE
  5
14
330
5
100
AcDbSymbolTableRecord
100
AcDbLinetypeTableRecord
  2
ByBlock
 70
     0
  3

 72
    65
 73
     0
 40
0.0
  0
LTYPE
  5
15
330
5
100
AcDbSymbolTableRecord
100
AcDbLinetypeTableRecord
  2
ByLayer
 70
     0
  3

 72
    65
 73
     0
 40
0.0
  0
LTYPE
  5
16
330
5
100
AcDbSymbolTableRecord
100
AcDbLinetypeTableRecord
  2
Continuous
 70
     0
  3
Solid line
 72
    65
 73
     0
 40
0.0
  0
LTYPE
  5
60
330
5
100
AcDbSymbolTableRecord
100
AcDbLinetypeTableRecord
  2
CENTER2
 70
     0
  3
Center (.5x) ___ _ ___ _ ___ _ ___ _ ___ _ ___
 72
    65
 73
     4
 40
28.575
 49
19.05
 74
     4
 75
     0
340
0
 46
0.0
 50
0.0
 44
0.0
 45
0.0
 49
-3.175
 74
     4
 75
     0
340
0
 46
0.0
 50
0.0
 44
0.0
 45
0.0
 49
3.175
 74
     4
 75
     0
340
0
 46
0.0
 50
0.0
 44
0.0
 45
0.0
 49
-3.175
 74
     4
 75
     0
340
0
 46
0.0
 50
0.0
 44
0.0
 45
0.0
  0
ENDTAB
  0
TABLE
  2
LAYER
  5
2
330
0
100
AcDbSymbolTable
 70
    10
  0
LAYER
  5
10
330
2
100
AcDbSymbolTableRecord
100
AcDbLayerTableRecord
  2
0
 70
     0
 62
     7
  6
Continuous
370
    -3
390
F
  0
LAYER
  5
5D
330
2
100
AcDbSymbolTableRecord
100
AcDbLayerTableRecord
  2
Default
 70
     0
 62
     7
  6
Continuous
370
    -3
390
F
  0
LAYER
  5
77
330
2
100
AcDbSymbolTableRecord
100
AcDbLayerTableRecord
  2
T14080059__HE_VC
 70
     0
 62
     7
  6
Continuous
370
    -3
390
F
  0
LAYER
  5
82
330
2
100
AcDbSymbolTableRecord
100
AcDbLayerTableRecord
  2
14080058_HE_THM_
 70
     0
 62
     7
  6
Continuous
370
    -3
390
F
  0
LAYER
  5
84
330
2
100
AcDbSymbolTableRecord
100
AcDbLayerTableRecord
  2
14080052_HE_LEVE
 70
     0
 62
     7
  6
Continuous
370
    -3
390
F
  0
LAYER
  5
A2
330
2
100
AcDbSymbolTableRecord
100
AcDbLayerTableRecord
  2
14080053_HE_LEVE
 70
     0
 62
     7
  6
Continuous
370
    -3
390
F
  0
LAYER
  5
AC
330
2
100
AcDbSymbolTableRecord
100
AcDbLayerTableRecord
  2
14080049_HE_CROS
 70
     0
 62
     7
  6
Continuous
370
    -3
390
F
  0
LAYER
  5
AF
330
2
100
AcDbSymbolTableRecord
100
AcDbLayerTableRecord
  2
12080006_MP_HE_P
 70
     0
 62
     7
  6
Continuous
370
    -3
390
F
  0
LAYER
  5
B5
330
2
100
AcDbSymbolTableRecord
100
AcDbLayerTableRecord
  2
T14080057__HE_VC
 70
     0
 62
     7
  6
Continuous
370
    -3
390
F
  0
LAYER
  5
E1
330
2
100
AcDbSymbolTableRecord
100
AcDbLayerTableRecord
  2
14080027_MP_VCT_
 70
     0
 62
     7
  6
Continuous
370
    -3
390
F
  0
ENDTAB
  0
TABLE
  2
STYLE
  5
3
330
0
100
AcDbSymbolTable
 70
     2
  0
STYLE
  5
11
330
3
100
AcDbSymbolTableRecord
100
AcDbTextStyleTableRecord
  2
Standard
 70
     0
 40
0.0
 41
1.0
 50
0.0
 71
     0
 42
2.5
  3
txt
  4

  0
STYLE
  5
17F
330
3
100
AcDbSymbolTableRecord
100
AcDbTextStyleTableRecord
  2
SEACAD_seiso_ttf
 70
     0
 40
0.0
 41
1.0
 50
0.0
 71
     0
 42
0.2
  3
seiso.ttf
  4

  0
ENDTAB
  0
TABLE
  2
VIEW
  5
6
330
0
100
AcDbSymbolTable
 70
     0
  0
ENDTAB
  0
TABLE
  2
UCS
  5
7
330
0
100
AcDbSymbolTable
 70
     0
  0
ENDTAB
  0
TABLE
  2
APPID
  5
9
330
0
100
AcDbSymbolTable
 70
     1
  0
APPID
  5
12
330
9
100
AcDbSymbolTableRecord
100
AcDbRegAppTableRecord
  2
ACAD
 70
     0
  0
ENDTAB
  0
TABLE
  2
DIMSTYLE
  5
A
330
0
100
AcDbSymbolTable
 70
     1
100
AcDbDimStyleTable
  0
DIMSTYLE
105
27
330
A
100
AcDbSymbolTableRecord
100
AcDbDimStyleTableRecord
  2
ISO-25
 70
     0
 41
2.5
 42
0.625
 43
3.75
 44
1.25
 73
     0
 74
     0
 77
     1
 78
     8
140
2.5
141
2.5
143
0.0393700787
147
0.625
171
     3
172
     1
271
     2
272
     2
274
     3
278
    44
283
     0
284
     8
340
11
  0
ENDTAB
  0
TABLE
  2
BLOCK_RECORD
  5
1
330
0
100
AcDbSymbolTable
 70
     7
  0
BLOCK_RECORD
  5
1F
330
1
100
AcDbSymbolTableRecord
100
AcDbBlockTableRecord
  2
*Model_Space
340
22
  0
BLOCK_RECORD
  5
1B
330
1
100
AcDbSymbolTableRecord
100
AcDbBlockTableRecord
  2
*Paper_Space
340
1E
  0
BLOCK_RECORD
  5
5E
330
1
100
AcDbSymbolTableRecord
100
AcDbBlockTableRecord
  2
SEANNOT_GROUP
340
0
102
{BLKREFS
331
5F
102
}
  0
BLOCK_RECORD
  5
69
330
1
100
AcDbSymbolTableRecord
100
AcDbBlockTableRecord
  2
SEANNOT_GROUP1
340
0
102
{BLKREFS
331
6A
102
}
  0
BLOCK_RECORD
  5
6F
330
1
100
AcDbSymbolTableRecord
100
AcDbBlockTableRecord
  2
SEANNOT_GROUP2
340
0
102
{BLKREFS
331
70
102
}
  0
BLOCK_RECORD
  5
75
330
1
100
AcDbSymbolTableRecord
100
AcDbBlockTableRecord
  2
SE
340
0
102
{BLKREFS
331
76
102
}
  0
BLOCK_RECORD
  5
B3
330
1
100
AcDbSymbolTableRecord
100
AcDbBlockTableRecord
  2
SE1
340
0
102
{BLKREFS
331
B4
102
}
  0
BLOCK_RECORD
  5
12C
330
1
100
AcDbSymbolTableRecord
100
AcDbBlockTableRecord
  2
SE2
340
0
102
{BLKREFS
331
12D
102
}
  0
ENDTAB
  0
ENDSEC
  0
SECTION
  2
BLOCKS
  0
BLOCK
  5
20
330
1F
100
AcDbEntity
  8
0
100
AcDbBlockBegin
  2
*Model_Space
 70
     0
 10
0.0
 20
0.0
 30
0.0
  3
*Model_Space
  1

  0
ENDBLK
  5
21
330
1F
100
AcDbEntity
  8
0
100
AcDbBlockEnd
  0
BLOCK
  5
1C
330
1B
100
AcDbEntity
 67
     1
  8
0
100
AcDbBlockBegin
  2
*Paper_Space
 70
     0
 10
0.0
 20
0.0
 30
0.0
  3
*Paper_Space
  1

  0
ENDBLK
  5
1D
330
1B
100
AcDbEntity
 67
     1
  8
0
100
AcDbBlockEnd
  0
BLOCK
  5
67
330
5E
100
AcDbEntity
  8
0
100
AcDbBlockBegin
  2
SEANNOT_GROUP
 70
     0
 10
0.0
 20
0.0
 30
0.0
  3
SEANNOT_GROUP
  1

  0
LINE
  5
61
330
5E
100
AcDbEntity
  8
Default
  6
CENTER2
 62
     7
100
AcDbLine
 10
122.8010792594
 20
357.1623755524
 30
0.0
 11
82.8010801535
 21
357.1623755524
 31
0.0
  0
LINE
  5
62
330
5E
100
AcDbEntity
  8
Default
  6
CENTER2
 62
     7
100
AcDbLine
 10
102.8010797065
 20
377.1623751054
 30
0.0
 11
102.8010797065
 21
337.1623759995
 31
0.0
  0
LINE
  5
63
330
5E
100
AcDbEntity
  8
Default
  6
CENTER2
 62
     7
100
AcDbLine
 10
127.8010791477
 20
357.1623755524
 30
0.0
 11
115.2510797065
 21
357.1623755524
 31
0.0
  0
LINE
  5
64
330
5E
100
AcDbEntity
  8
Default
  6
CENTER2
 62
     7
100
AcDbLine
 10
102.8010797065
 20
382.1623749936
 30
0.0
 11
102.8010797065
 21
369.6123755524
 31
0.0
  0
LINE
  5
65
330
5E
100
AcDbEntity
  8
Default
  6
CENTER2
 62
     7
100
AcDbLine
 10
77.8010802652
 20
357.1623755524
 30
0.0
 11
90.3510797065
 21
357.1623755524
 31
0.0
  0
LINE
  5
66
330
5E
100
AcDbEntity
  8
Default
  6
CENTER2
 62
     7
100
AcDbLine
 10
102.8010797065
 20
332.1623761112
 30
0.0
 11
102.8010797065
 21
344.7123755524
 31
0.0
  0
ENDBLK
  5
68
330
5E
100
AcDbEntity
  8
0
100
AcDbBlockEnd
  0
BLOCK
  5
6D
330
69
100
AcDbEntity
  8
0
100
AcDbBlockBegin
  2
SEANNOT_GROUP1
 70
     0
 10
0.0
 20
0.0
 30
0.0
  3
SEANNOT_GROUP1
  1

  0
LINE
  5
6B
330
69
100
AcDbEntity
  8
Default
  6
CENTER2
 62
     7
100
AcDbLine
 10
260.4775997129
 20
357.1623757701
 30
0.0
 11
220.4776006069
 21
357.1623757701
 31
0.0
  0
LINE
  5
6C
330
69
100
AcDbEntity
  8
Default
  6
CENTER2
 62
     7
100
AcDbLine
 10
240.4776001599
 20
377.1623753231
 30
0.0
 11
240.4776001599
 21
337.1623762171
 31
0.0
  0
ENDBLK
  5
6E
330
69
100
AcDbEntity
  8
0
100
AcDbBlockEnd
  0
BLOCK
  5
73
330
6F
100
AcDbEntity
  8
0
100
AcDbBlockBegin
  2
SEANNOT_GROUP2
 70
     0
 10
0.0
 20
0.0
 30
0.0
  3
SEANNOT_GROUP2
  1

  0
LINE
  5
71
330
6F
100
AcDbEntity
  8
Default
  6
CENTER2
 62
     7
100
AcDbLine
 10
122.8010792594
 20
193.75
 30
0.0
 11
82.8010801535
 21
193.75
 31
0.0
  0
LINE
  5
72
330
6F
100
AcDbEntity
  8
Default
  6
CENTER2
 62
     7
100
AcDbLine
 10
102.8010797065
 20
213.749999553
 30
0.0
 11
102.8010797065
 21
173.750000447
 31
0.0
  0
ENDBLK
  5
74
330
6F
100
AcDbEntity
  8
0
100
AcDbBlockEnd
  0
BLOCK
  5
B1
330
75
100
AcDbEntity
  8
0
100
AcDbBlockBegin
  2
SE
 70
     0
 10
0.0
 20
0.0
 30
0.0
  3
SE
  1

  0
ARC
  5
78
330
75
100
AcDbEntity
  8
T14080059__HE_VC
  6
Continuous
 62
     7
100
AcDbCircle
 10
102.8010797065
 20
357.1623757701
 30
0.0
 40
32.6157323626289
100
AcDbArc
 50
282.6130612324
 51
0.0
  0
ARC
  5
79
330
75
100
AcDbEntity
  8
T14080059__HE_VC
  6
Continuous
 62
     7
100
AcDbCircle
 10
102.8010797065
 20
357.1623757701
 30
0.0
 40
32.6157323626289
100
AcDbArc
 50
0.0
 51
257.3869387676
  0
ARC
  5
7A
330
75
100
AcDbEntity
  8
T14080059__HE_VC
  6
Continuous
 62
     7
100
AcDbCircle
 10
102.8010797065
 20
357.1623757701
 30
0.0
 40
26.78745367887693
100
AcDbArc
 50
285.2032300188
 51
0.0
  0
ARC
  5
7B
330
75
100
AcDbEntity
  8
T14080059__HE_VC
  6
Continuous
 62
     7
100
AcDbCircle
 10
102.8010797065
 20
357.1623757701
 30
0.0
 40
26.78745367887693
100
AcDbArc
 50
0.0
 51
254.7967699812
  0
ARC
  5
7C
330
75
100
AcDbEntity
  8
T14080059__HE_VC
  6
Continuous
 62
     7
100
AcDbCircle
 10
102.8010797065
 20
357.1623757701
 30
0.0
 40
25.89296206808608
100
AcDbArc
 50
285.7297354186
 51
0.0
  0
ARC
  5
7D
330
75
100
AcDbEntity
  8
T14080059__HE_VC
  6
Continuous
 62
     7
100
AcDbCircle
 10
102.8010797065
 20
357.1623757701
 30
0.0
 40
25.89296206808608
100
AcDbArc
 50
0.0
 51
254.2702645814
  0
ARC
  5
7E
330
75
100
AcDbEntity
  8
T14080059__HE_VC
  6
Continuous
 62
     7
100
AcDbCircle
 10
102.8010797065
 20
357.1623757701
 30
0.0
 40
33.0500000071202
100
AcDbArc
 50
0.0
 51
257.5348156948
  0
ARC
  5
7F
330
75
100
AcDbEntity
  8
T14080059__HE_VC
  6
Continuous
 62
     7
100
AcDbCircle
 10
102.8010797065
 20
357.1623757701
 30
0.0
 40
33.0500000071202
100
AcDbArc
 50
282.4651843052
 51
0.0
  0
ARC
  5
80
330
75
100
AcDbEntity
  8
T14080059__HE_VC
  6
Continuous
 62
     7
100
AcDbCircle
 10
102.8010797065
 20
357.1623757701
 30
0.0
 40
29.95000000000444
100
AcDbArc
 50
0.0
 51
256.3572928854
  0
ARC
  5
81
330
75
100
AcDbEntity
  8
T14080059__HE_VC
  6
Continuous
 62
     7
100
AcDbCircle
 10
102.8010797065
 20
357.1623757701
 30
0.0
 40
29.95000000000444
100
AcDbArc
 50
283.6427071146
 51
0.0
  0
ARC
  5
83
330
75
100
AcDbEntity
  8
14080058_HE_THM_
  6
Continuous
 62
     7
100
AcDbCircle
 10
102.8010797065
 20
357.1623755524
 30
0.0
 40
14.25
100
AcDbArc
 50
299.4213310666
 51
240.5786689334
  0
LINE
  5
85
330
75
100
AcDbEntity
  8
14080052_HE_LEVE
  6
Continuous
 62
     7
100
AcDbLine
 10
110.3010797065
 20
271.6183694074
 30
0.0
 11
95.3010797065
 21
271.6183694074
 31
0.0
  0
LINE
  5
86
330
75
100
AcDbEntity
  8
14080052_HE_LEVE
  6
Continuous
 62
     7
100
AcDbLine
 10
95.7838880319
 20
334.2189124664
 30
0.0
 11
109.818271381
 21
334.2189124664
 31
0.0
  0
LINE
  5
87
330
75
100
AcDbEntity
  8
14080052_HE_LEVE
  6
Continuous
 62
     7
100
AcDbLine
 10
109.9265203063
 20
334.4490826906
 30
0.0
 11
95.6756391066
 21
334.4490826906
 31
0.0
  0
LINE
  5
88
330
75
100
AcDbEntity
  8
14080052_HE_LEVE
  6
Continuous
 62
     7
100
AcDbLine
 10
110.4635116716
 20
335.6422608766
 30
0.0
 11
95.1386477413
 21
335.6422608766
 31
0.0
  0
LINE
  5
89
330
75
100
AcDbEntity
  8
14080052_HE_LEVE
  6
Continuous
 62
     7
100
AcDbLine
 10
95.1169486702
 20
335.1343958884
 30
0.0
 11
110.4852107427
 21
335.1343958884
 31
0.0
  0
LINE
  5
8A
330
75
100
AcDbEntity
  8
14080052_HE_LEVE
  6
Continuous
 62
     7
100
AcDbLine
 10
109.8010797065
 20
343.7993943749
 30
0.0
 11
95.8010797065
 21
343.7993943749
 31
0.0
  0
LINE
  5
8B
330
75
100
AcDbEntity
  8
14080052_HE_LEVE
  6
Continuous
 62
     7
100
AcDbLine
 10
95.9169690667
 20
343.4793021751
 30
0.0
 11
109.6851903463
 21
343.4793021751
 31
0.0
  0
LINE
  5
8C
330
75
100
AcDbEntity
  8
14080052_HE_LEVE
  6
Continuous
 62
     7
100
AcDbLine
 10
108.9014034067
 20
342.5387578476
 30
0.0
 11
96.7007560062
 21
342.5387578476
 31
0.0
  0
LINE
  5
8D
330
75
100
AcDbEntity
  8
14080052_HE_LEVE
  6
Continuous
 62
     7
100
AcDbLine
 10
96.815061126
 20
342.2584366252
 30
0.0
 11
108.7870982869
 21
342.2584366252
 31
0.0
  0
ARC
  5
8E
330
75
100
AcDbEntity
  8
14080052_HE_LEVE
  6
Continuous
 62
     7
100
AcDbCircle
 10
102.8010797065
 20
280.070588051
 30
0.0
 40
11.3
100
AcDbArc
 50
311.583958024
 51
9.1461932924
  0
ARC
  5
8F
330
75
100
AcDbEntity
  8
14080052_HE_LEVE
  6
Continuous
 62
     7
100
AcDbCircle
 10
102.8010797065
 20
280.070588051
 30
0.0
 40
11.3
100
AcDbArc
 50
170.8538067076
 51
228.416041976
  0
ARC
  5
90
330
75
100
AcDbEntity
  8
14080052_HE_LEVE
  6
Continuous
 62
     7
100
AcDbCircle
 10
-229.8155652242
 20
333.6222221539
 30
0.0
 40
325.6000000000001
100
AcDbArc
 50
350.8538067076
 51
0.1049995569
  0
ARC
  5
91
330
75
100
AcDbEntity
  8
14080052_HE_LEVE
  6
Continuous
 62
     7
100
AcDbCircle
 10
435.4177246371
 20
333.6222221539
 30
0.0
 40
325.6
100
AcDbArc
 50
179.8950004431
 51
189.1461932924
  0
LINE
  5
92
330
75
100
AcDbEntity
  8
14080052_HE_LEVE
  6
Continuous
 62
     7
100
AcDbLine
 10
95.8010797065
 20
344.7501839651
 30
0.0
 11
95.8010797065
 21
343.7993943749
 31
0.0
  0
LINE
  5
93
330
75
100
AcDbEntity
  8
14080052_HE_LEVE
  6
Continuous
 62
     7
100
AcDbLine
 10
109.8010797065
 20
343.7993943749
 30
0.0
 11
109.8010797065
 21
344.7501839651
 31
0.0
  0
LINE
  5
94
330
75
100
AcDbEntity
  8
14080052_HE_LEVE
  6
Continuous
 62
     7
100
AcDbLine
 10
95.9169690667
 20
343.4793021751
 30
0.0
 11
96.7007560062
 21
342.5387578476
 31
0.0
  0
LINE
  5
95
330
75
100
AcDbEntity
  8
14080052_HE_LEVE
  6
Continuous
 62
     7
100
AcDbLine
 10
108.9014034067
 20
342.5387578476
 30
0.0
 11
109.6851903463
 21
343.4793021751
 31
0.0
  0
ARC
  5
96
330
75
100
AcDbEntity
  8
14080052_HE_LEVE
  6
Continuous
 62
     7
100
AcDbCircle
 10
86.2486470238
 20
341.415291904
 30
0.0
 40
10.6
100
AcDbArc
 50
327.0009199842
 51
4.562237779
  0
ARC
  5
97
330
75
100
AcDbEntity
  8
14080052_HE_LEVE
  6
Continuous
 62
     7
100
AcDbCircle
 10
119.3535123891
 20
341.415291904
 30
0.0
 40
10.6
100
AcDbArc
 50
175.437762221
 51
212.9990800158
  0
ARC
  5
98
330
75
100
AcDbEntity
  8
14080052_HE_LEVE
  6
Continuous
 62
     7
100
AcDbCircle
 10
97.1457268171
 20
336.2179360264
 30
0.0
 40
2.300000000000001
100
AcDbArc
 50
208.1060099433
 51
230.2701502547
  0
ARC
  5
99
330
75
100
AcDbEntity
  8
14080052_HE_LEVE
  6
Continuous
 62
     7
100
AcDbCircle
 10
108.4564325958
 20
336.2179360264
 30
0.0
 40
2.300000000000002
100
AcDbArc
 50
309.7298497453
 51
331.8939900567
  0
ARC
  5
9A
330
75
100
AcDbEntity
  8
14080052_HE_LEVE
  6
Continuous
 62
     7
100
AcDbCircle
 10
110.1182708772
 20
334.2183626903
 30
0.0
 40
0.3000000000000018
100
AcDbArc
 50
129.7298497453
 51
179.8950004431
  0
ARC
  5
9B
330
75
100
AcDbEntity
  8
14080052_HE_LEVE
  6
Continuous
 62
     7
100
AcDbCircle
 10
95.4838885357
 20
334.2183626903
 30
0.0
 40
0.2999999999999884
100
AcDbArc
 50
0.1049995569
 51
50.2701502547
  0
ARC
  5
9C
330
75
100
AcDbEntity
  8
14080052_HE_LEVE
  6
Continuous
 62
     7
100
AcDbCircle
 10
110.0441720151
 20
335.3699480923
 30
0.0
 40
0.4999999999999943
100
AcDbArc
 50
331.8939900567
 51
32.9990800158
  0
ARC
  5
9D
330
75
100
AcDbEntity
  8
14080052_HE_LEVE
  6
Continuous
 62
     7
100
AcDbCircle
 10
95.5579873978
 20
335.3699480923
 30
0.0
 40
0.5000000000000063
100
AcDbArc
 50
147.0009199842
 51
208.1060099433
  0
ARC
  5
9E
330
75
100
AcDbEntity
  8
14080052_HE_LEVE
  6
Continuous
 62
     7
100
AcDbCircle
 10
109.3010797065
 20
343.7993943749
 30
0.0
 40
0.4999999999999992
100
AcDbArc
 50
320.1944289077
 51
0.0
  0
ARC
  5
9F
330
75
100
AcDbEntity
  8
14080052_HE_LEVE
  6
Continuous
 62
     7
100
AcDbCircle
 10
96.3010797065
 20
343.7993943749
 30
0.0
 40
0.5000000000000004
100
AcDbArc
 50
180.0
 51
219.8055710923
  0
ARC
  5
A0
330
75
100
AcDbEntity
  8
14080052_HE_LEVE
  6
Continuous
 62
     7
100
AcDbCircle
 10
96.3166453664
 20
342.2186656478
 30
0.0
 40
0.5000000000000002
100
AcDbArc
 50
4.562237779
 51
39.8055710923
  0
ARC
  5
A1
330
75
100
AcDbEntity
  8
14080052_HE_LEVE
  6
Continuous
 62
     7
100
AcDbCircle
 10
109.2855140465
 20
342.2186656478
 30
0.0
 40
0.5000000000000004
100
AcDbArc
 50
140.1944289077
 51
175.437762221
  0
LINE
  5
A3
330
75
100
AcDbEntity
  8
14080053_HE_LEVE
  6
Continuous
 62
     7
100
AcDbLine
 10
110.7130091752
 20
270.4949254017
 30
0.0
 11
94.8891502377
 21
270.4949254017
 31
0.0
  0
LINE
  5
A4
330
75
100
AcDbEntity
  8
14080053_HE_LEVE
  6
Continuous
 62
     7
100
AcDbLine
 10
95.0946702641
 20
269.8981250031
 30
0.0
 11
110.5074891488
 21
269.8981250031
 31
0.0
  0
LINE
  5
A5
330
75
100
AcDbEntity
  8
14080053_HE_LEVE
  6
Continuous
 62
     7
100
AcDbLine
 10
110.7130091752
 20
270.4949254017
 30
0.0
 11
110.4212996874
 21
271.2904967319
 31
0.0
  0
LINE
  5
A6
330
75
100
AcDbEntity
  8
14080053_HE_LEVE
  6
Continuous
 62
     7
100
AcDbLine
 10
95.1808597255
 20
271.2904967319
 30
0.0
 11
94.8891502377
 21
270.4949254017
 31
0.0
  0
ARC
  5
A7
330
75
100
AcDbEntity
  8
14080053_HE_LEVE
  6
Continuous
 62
     7
100
AcDbCircle
 10
102.8010797065
 20
282.2985787652
 30
0.0
 40
14.6
100
AcDbArc
 50
238.1406239119
 51
301.8593760881
  0
ARC
  5
A8
330
75
100
AcDbEntity
  8
14080053_HE_LEVE
  6
Continuous
 62
     7
100
AcDbCircle
 10
95.3585883956
 20
270.3227980771
 30
0.0
 40
0.5000000000000016
100
AcDbArc
 50
159.8636965718
 51
238.1406239119
  0
ARC
  5
A9
330
75
100
AcDbEntity
  8
14080053_HE_LEVE
  6
Continuous
 62
     7
100
AcDbCircle
 10
110.2435710173
 20
270.3227980771
 30
0.0
 40
0.5000000000000117
100
AcDbArc
 50
301.8593760881
 51
20.1363034282
  0
ARC
  5
AA
330
75
100
AcDbEntity
  8
14080053_HE_LEVE
  6
Continuous
 62
     7
100
AcDbCircle
 10
109.9518615295
 20
271.1183694074
 30
0.0
 40
0.5000000000000031
100
AcDbArc
 50
20.1363034282
 51
90.0
  0
ARC
  5
AB
330
75
100
AcDbEntity
  8
14080053_HE_LEVE
  6
Continuous
 62
     7
100
AcDbCircle
 10
95.6502978834
 20
271.1183694074
 30
0.0
 40
0.5000000000000004
100
AcDbArc
 50
90.0
 51
159.8636965718
  0
CIRCLE
  5
AD
330
75
100
AcDbEntity
  8
14080049_HE_CROS
  6
Continuous
 62
     7
100
AcDbCircle
 10
102.8010797065
 20
357.1623755524
 30
0.0
 40
9.000000000000002
  0
CIRCLE
  5
AE
330
75
100
AcDbEntity
  8
14080049_HE_CROS
  6
Continuous
 62
     7
100
AcDbCircle
 10
102.8010797065
 20
357.1623755524
 30
0.0
 40
11.24118100934424
  0
CIRCLE
  5
B0
330
75
100
AcDbEntity
  8
12080006_MP_HE_P
  6
Continuous
 62
     7
100
AcDbCircle
 10
102.8010797065
 20
357.1623755524
 30
0.0
 40
8.949999999999989
  0
ENDBLK
  5
B2
330
75
100
AcDbEntity
  8
0
100
AcDbBlockEnd
  0
BLOCK
  5
12A
330
B3
100
AcDbEntity
  8
0
100
AcDbBlockBegin
  2
SE1
 70
     0
 10
0.0
 20
0.0
 30
0.0
  3
SE1
  1

  0
LINE
  5
B6
330
B3
100
AcDbEntity
  8
T14080057__HE_VC
  6
Continuous
 62
     7
100
AcDbLine
 10
292.4776001599
 20
344.6123755524
 30
0.0
 11
292.4776001599
 21
369.7123755524
 31
0.0
  0
LINE
  5
B7
330
B3
100
AcDbEntity
  8
T14080057__HE_VC
  6
Continuous
 62
     7
100
AcDbLine
 10
298.0714005059
 20
368.0385114027
 30
0.0
 11
298.0714005059
 21
346.2862397022
 31
0.0
  0
LINE
  5
B8
330
B3
100
AcDbEntity
  8
T14080057__HE_VC
  6
Continuous
 62
     7
100
AcDbLine
 10
297.6865735201
 20
346.2782430947
 30
0.0
 11
297.6865735201
 21
368.0465080102
 31
0.0
  0
LINE
  5
B9
330
B3
100
AcDbEntity
  8
T14080057__HE_VC
  6
Continuous
 62
     7
100
AcDbLine
 10
300.9072906829
 20
368.8556540817
 30
0.0
 11
300.9072906829
 21
345.4690970231
 31
0.0
  0
LINE
  5
BA
330
B3
100
AcDbEntity
  8
T14080057__HE_VC
  6
Continuous
 62
     7
100
AcDbLine
 10
300.3899821309
 20
345.3753683496
 30
0.0
 11
300.3899821309
 21
368.9493827553
 31
0.0
  0
LINE
  5
BB
330
B3
100
AcDbEntity
  8
T14080057__HE_VC
  6
Continuous
 62
     7
100
AcDbLine
 10
301.6776001599
 20
367.9396943501
 30
0.0
 11
301.6776001599
 21
346.3850567548
 31
0.0
  0
LINE
  5
BC
330
B3
100
AcDbEntity
  8
T14080057__HE_VC
  6
Continuous
 62
     7
100
AcDbLine
 10
300.9072906829
 20
345.4690970231
 30
0.0
 11
301.5120825257
 21
346.0134096817
 31
0.0
  0
LINE
  5
BD
330
B3
100
AcDbEntity
  8
T14080057__HE_VC
  6
Continuous
 62
     7
100
AcDbLine
 10
301.5120825257
 20
368.3113414232
 30
0.0
 11
300.9072906829
 21
368.8556540817
 31
0.0
  0
LINE
  5
BE
330
B3
100
AcDbEntity
  8
T14080057__HE_VC
  6
Continuous
 62
     7
100
AcDbLine
 10
300.3899821309
 20
368.9493827553
 30
0.0
 11
298.0714005059
 21
368.0385114027
 31
0.0
  0
LINE
  5
BF
330
B3
100
AcDbEntity
  8
T14080057__HE_VC
  6
Continuous
 62
     7
100
AcDbLine
 10
298.0714005059
 20
346.2862397022
 30
0.0
 11
300.3899821309
 21
345.3753683496
 31
0.0
  0
ARC
  5
C0
330
B3
100
AcDbEntity
  8
T14080057__HE_VC
  6
Continuous
 62
     7
100
AcDbCircle
 10
338.7735361586
 20
461.0774249203
 30
0.0
 40
101.7
100
AcDbArc
 50
243.3780801378
 51
246.17142267
  0
ARC
  5
C1
330
B3
100
AcDbEntity
  8
T14080057__HE_VC
  6
Continuous
 62
     7
100
AcDbCircle
 10
338.7735361586
 20
253.2473261845
 30
0.0
 40
101.7
100
AcDbArc
 50
113.82857733
 51
116.6219198622
  0
ARC
  5
C2
330
B3
100
AcDbEntity
  8
T14080057__HE_VC
  6
Continuous
 62
     7
100
AcDbCircle
 10
292.9776001599
 20
344.6123755524
 30
0.0
 40
0.5000000000000004
100
AcDbArc
 50
180.0
 51
296.6219198622
  0
ARC
  5
C3
330
B3
100
AcDbEntity
  8
T14080057__HE_VC
  6
Continuous
 62
     7
100
AcDbCircle
 10
292.9776001599
 20
369.7123755524
 30
0.0
 40
0.4999999999999991
100
AcDbArc
 50
63.3780801378
 51
180.0
  0
ARC
  5
C4
330
B3
100
AcDbEntity
  8
T14080057__HE_VC
  6
Continuous
 62
     7
100
AcDbCircle
 10
297.8885743197
 20
368.5038871494
 30
0.0
 40
0.5000000000000034
100
AcDbArc
 50
246.17142267
 51
291.4477363271
  0
ARC
  5
C5
330
B3
100
AcDbEntity
  8
T14080057__HE_VC
  6
Continuous
 62
     7
100
AcDbCircle
 10
297.8885743197
 20
345.8208639555
 30
0.0
 40
0.5000000000000095
100
AcDbArc
 50
68.5522636729
 51
113.82857733
  0
ARC
  5
C6
330
B3
100
AcDbEntity
  8
T14080057__HE_VC
  6
Continuous
 62
     7
100
AcDbCircle
 10
300.5728083171
 20
345.8407440963
 30
0.0
 40
0.4999999999999984
100
AcDbArc
 50
248.5522636729
 51
311.9872124958
  0
ARC
  5
C7
330
B3
100
AcDbEntity
  8
T14080057__HE_VC
  6
Continuous
 62
     7
100
AcDbCircle
 10
300.5728083171
 20
368.4840070086
 30
0.0
 40
0.5000000000000002
100
AcDbArc
 50
48.0127875042
 51
111.4477363271
  0
ARC
  5
C8
330
B3
100
AcDbEntity
  8
T14080057__HE_VC
  6
Continuous
 62
     7
100
AcDbCircle
 10
301.1776001599
 20
346.3850567548
 30
0.0
 40
0.5000000000000049
100
AcDbArc
 50
311.9872124958
 51
0.0
  0
ARC
  5
C9
330
B3
100
AcDbEntity
  8
T14080057__HE_VC
  6
Continuous
 62
     7
100
AcDbCircle
 10
301.1776001599
 20
367.9396943501
 30
0.0
 40
0.5000000000000004
100
AcDbArc
 50
0.0
 51
48.0127875042
  0
LINE
  5
CA
330
B3
100
AcDbEntity
  8
T14080059__HE_VC
  6
Continuous
 62
     7
100
AcDbLine
 10
240.4776001599
 20
324.313929606
 30
0.0
 11
240.4776001599
 21
390.0108219342
 31
0.0
  0
LINE
  5
CB
330
B3
100
AcDbEntity
  8
T14080059__HE_VC
  6
Continuous
 62
     7
100
AcDbLine
 10
241.7200124538
 20
324.5466434075
 30
0.0
 11
241.7200124538
 21
389.7781081327
 31
0.0
  0
LINE
  5
CC
330
B3
100
AcDbEntity
  8
T14080059__HE_VC
  6
Continuous
 62
     7
100
AcDbLine
 10
245.4612669853
 20
327.8135430444
 30
0.0
 11
245.4612669853
 21
386.5112084959
 31
0.0
  0
LINE
  5
CD
330
B3
100
AcDbEntity
  8
T14080059__HE_VC
  6
Continuous
 62
     7
100
AcDbLine
 10
246.0879851594
 20
327.6068746589
 30
0.0
 11
246.0879851594
 21
386.7178768813
 31
0.0
  0
LINE
  5
CE
330
B3
100
AcDbEntity
  8
T14080059__HE_VC
  6
Continuous
 62
     7
100
AcDbLine
 10
247.5674605718
 20
327.8854091231
 30
0.0
 11
247.5674605718
 21
386.4393424171
 31
0.0
  0
LINE
  5
CF
330
B3
100
AcDbEntity
  8
T14080059__HE_VC
  6
Continuous
 62
     7
100
AcDbLine
 10
249.7056146182
 20
331.269413702
 30
0.0
 11
249.7056146182
 21
383.0553378382
 31
0.0
  0
ARC
  5
D0
330
B3
100
AcDbEntity
  8
T14080059__HE_VC
  6
Continuous
 62
     7
100
AcDbCircle
 10
251.8419490165
 20
343.4623757701
 30
0.0
 40
0.4999999999999996
100
AcDbArc
 50
355.7129931154
 51
0.0
  0
ARC
  5
D1
330
B3
100
AcDbEntity
  8
T14080059__HE_VC
  6
Continuous
 62
     7
100
AcDbCircle
 10
251.8419490165
 20
370.8623757701
 30
0.0
 40
0.5000000000000004
100
AcDbArc
 50
0.0
 51
4.2870068846
  0
LINE
  5
D2
330
B3
100
AcDbEntity
  8
T14080059__HE_VC
  6
Continuous
 62
     7
100
AcDbLine
 10
252.3419490165
 20
343.4623757701
 30
0.0
 11
252.3419490165
 21
370.8623757701
 31
0.0
  0
ARC
  5
D3
330
B3
100
AcDbEntity
  8
T14080059__HE_VC
  6
Continuous
 62
     7
100
AcDbCircle
 10
241.0085071171
 20
324.912375763
 30
0.0
 40
0.7999999999999988
100
AcDbArc
 50
228.4224084942
 51
332.7956504811
  0
ARC
  5
D4
330
B3
100
AcDbEntity
  8
T14080059__HE_VC
  6
Continuous
 62
     7
100
AcDbCircle
 10
241.0085071171
 20
389.4123757772
 30
0.0
 40
0.7999999999999974
100
AcDbArc
 50
27.2043495189
 51
131.5775915058
  0
ARC
  5
D5
330
B3
100
AcDbEntity
  8
T14080059__HE_VC
  6
Continuous
 62
     7
100
AcDbCircle
 10
248.5926077915
 20
320.4518377558
 30
0.0
 40
8.000000000000002
100
AcDbArc
 50
113.0427354572
 51
149.2128168174
  0
ARC
  5
D6
330
B3
100
AcDbEntity
  8
T14080059__HE_VC
  6
Continuous
 62
     7
100
AcDbCircle
 10
248.5926077915
 20
393.8729137844
 30
0.0
 40
8.00000000000001
100
AcDbArc
 50
210.7871831826
 51
246.9572645428
  0
ARC
  5
D7
330
B3
100
AcDbEntity
  8
T14080059__HE_VC
  6
Continuous
 62
     7
100
AcDbCircle
 10
245.6569757852
 20
327.353436465
 30
0.0
 40
0.4999999987543977
100
AcDbArc
 50
30.4559906531
 51
113.0427354572
  0
ARC
  5
D8
330
B3
100
AcDbEntity
  8
T14080059__HE_VC
  6
Continuous
 62
     7
100
AcDbCircle
 10
245.6569757852
 20
386.9713150752
 30
0.0
 40
0.4999999987543969
100
AcDbArc
 50
246.9572645428
 51
329.5440093469
  0
ARC
  5
D9
330
B3
100
AcDbEntity
  8
T14080059__HE_VC
  6
Continuous
 62
     7
100
AcDbCircle
 10
246.7776001598
 20
328.0123757701
 30
0.0
 40
0.8000000000000018
100
AcDbArc
 50
210.4559906531
 51
350.8680701988
  0
ARC
  5
DA
330
B3
100
AcDbEntity
  8
T14080059__HE_VC
  6
Continuous
 62
     7
100
AcDbCircle
 10
246.7776001598
 20
386.3123757701
 30
0.0
 40
0.7999999999999982
100
AcDbArc
 50
9.1319298012
 51
149.5440093469
  0
ARC
  5
DB
330
B3
100
AcDbEntity
  8
T14080059__HE_VC
  6
Continuous
 62
     7
100
AcDbCircle
 10
251.4479539572
 20
327.261636585
 30
0.0
 40
3.930308015113107
100
AcDbArc
 50
127.6156905506
 51
170.8680701988
  0
ARC
  5
DC
330
B3
100
AcDbEntity
  8
T14080059__HE_VC
  6
Continuous
 62
     7
100
AcDbCircle
 10
251.4479539572
 20
387.0631149553
 30
0.0
 40
3.930308015113111
100
AcDbArc
 50
189.1319298012
 51
232.3843094494
  0
ARC
  5
DD
330
B3
100
AcDbEntity
  8
T14080059__HE_VC
  6
Continuous
 62
     7
100
AcDbCircle
 10
247.8283186387
 20
331.9591671397
 30
0.0
 40
1.99999999979885
100
AcDbArc
 50
307.6156905506
 51
339.8257295873
  0
ARC
  5
DE
330
B3
100
AcDbEntity
  8
T14080059__HE_VC
  6
Continuous
 62
     7
100
AcDbCircle
 10
247.8283186387
 20
382.3655844005
 30
0.0
 40
1.999999999798851
100
AcDbArc
 50
20.1742704127
 51
52.3843094494
  0
ARC
  5
DF
330
B3
100
AcDbEntity
  8
T14080059__HE_VC
  6
Continuous
 62
     7
100
AcDbCircle
 10
207.4664550766
 20
346.7888660514
 30
0.0
 40
45.00000000000001
100
AcDbArc
 50
339.8257295873
 51
355.7129931154
  0
ARC
  5
E0
330
B3
100
AcDbEntity
  8
T14080059__HE_VC
  6
Continuous
 62
     7
100
AcDbCircle
 10
207.4664550766
 20
367.5358854888
 30
0.0
 40
45.00000000000001
100
AcDbArc
 50
4.2870068846
 51
20.1742704127
  0
LINE
  5
E2
330
B3
100
AcDbEntity
  8
14080027_MP_VCT_
  6
Continuous
 62
     7
100
AcDbLine
 10
252.3419490165
 20
344.1623757701
 30
0.0
 11
291.9776001599
 21
344.1623757701
 31
0.0
  0
LINE
  5
E3
330
B3
100
AcDbEntity
  8
14080027_MP_VCT_
  6
Continuous
 62
     7
100
AcDbLine
 10
291.9776001599
 20
370.1623757701
 30
0.0
 11
252.3419490165
 21
370.1623757701
 31
0.0
  0
ARC
  5
E4
330
B3
100
AcDbEntity
  8
14080027_MP_VCT_
  6
Continuous
 62
     7
100
AcDbCircle
 10
291.9776001599
 20
344.6623757701
 30
0.0
 40
0.5000000000000022
100
AcDbArc
 50
270.0
 51
0.0
  0
ARC
  5
E5
330
B3
100
AcDbEntity
  8
14080027_MP_VCT_
  6
Continuous
 62
     7
100
AcDbCircle
 10
291.9776001599
 20
369.6623757701
 30
0.0
 40
0.5000000000000004
100
AcDbArc
 50
0.0
 51
90.0
  0
LINE
  5
E6
330
B3
100
AcDbEntity
  8
14080058_HE_THM_
  6
Continuous
 62
     7
100
AcDbLine
 10
320.4776001599
 20
367.4702608836
 30
0.0
 11
320.4776001599
 21
346.8544902213
 31
0.0
  0
LINE
  5
E7
330
B3
100
AcDbEntity
  8
14080058_HE_THM_
  6
Continuous
 62
     7
100
AcDbLine
 10
302.3776001599
 20
345.9792409293
 30
0.0
 11
302.3776001599
 21
368.3455101756
 31
0.0
  0
LINE
  5
E8
330
B3
100
AcDbEntity
  8
14080058_HE_THM_
  6
Continuous
 62
     7
100
AcDbLine
 10
301.6776001599
 20
351.1623755524
 30
0.0
 11
302.3776001599
 21
351.1623755524
 31
0.0
  0
LINE
  5
E9
330
B3
100
AcDbEntity
  8
14080058_HE_THM_
  6
Continuous
 62
     7
100
AcDbLine
 10
302.3776001599
 20
363.1623755524
 30
0.0
 11
301.6776001599
 21
363.1623755524
 31
0.0
  0
ARC
  5
EA
330
B3
100
AcDbEntity
  8
14080058_HE_THM_
  6
Continuous
 62
     7
100
AcDbCircle
 10
310.8776001599
 20
357.1623755524
 30
0.0
 40
14.25000000000001
100
AcDbArc
 50
48.5613144795
 51
125.5785257325
  0
ARC
  5
EB
330
B3
100
AcDbEntity
  8
14080058_HE_THM_
  6
Continuous
 62
     7
100
AcDbCircle
 10
310.8776001599
 20
357.1623755524
 30
0.0
 40
14.25000000000001
100
AcDbArc
 50
299.4213310666
 51
311.4386855205
  0
ARC
  5
EC
330
B3
100
AcDbEntity
  8
14080058_HE_THM_
  6
Continuous
 62
     7
100
AcDbCircle
 10
310.8776001599
 20
357.1623755524
 30
0.0
 40
14.25
100
AcDbArc
 50
234.4214742675
 51
240.5786689334
  0
ARC
  5
ED
330
B3
100
AcDbEntity
  8
14080058_HE_THM_
  6
Continuous
 62
     7
100
AcDbCircle
 10
319.9776001599
 20
346.8544902213
 30
0.0
 40
0.4999999999999907
100
AcDbArc
 50
311.4386855205
 51
0.0
  0
ARC
  5
EE
330
B3
100
AcDbEntity
  8
14080058_HE_THM_
  6
Continuous
 62
     7
100
AcDbCircle
 10
319.9776001599
 20
367.4702608836
 30
0.0
 40
0.5000000000000004
100
AcDbArc
 50
0.0
 51
48.5613144795
  0
ARC
  5
EF
330
B3
100
AcDbEntity
  8
14080058_HE_THM_
  6
Continuous
 62
     7
100
AcDbCircle
 10
302.8776001599
 20
368.3455101756
 30
0.0
 40
0.4999999999999989
100
AcDbArc
 50
125.5785257325
 51
180.0
  0
ARC
  5
F0
330
B3
100
AcDbEntity
  8
14080058_HE_THM_
  6
Continuous
 62
     7
100
AcDbCircle
 10
302.8776001599
 20
345.9792409293
 30
0.0
 40
0.5000000000000004
100
AcDbArc
 50
180.0
 51
234.4214742675
  0
LINE
  5
F1
330
B3
100
AcDbEntity
  8
14080052_HE_LEVE
  6
Continuous
 62
     7
100
AcDbLine
 10
303.3776001599
 20
271.6183694074
 30
0.0
 11
318.3776001599
 21
271.6183694074
 31
0.0
  0
LINE
  5
F2
330
B3
100
AcDbEntity
  8
14080052_HE_LEVE
  6
Continuous
 62
     7
100
AcDbLine
 10
317.8947918344
 20
334.2189124664
 30
0.0
 11
303.8604084854
 21
334.2189124664
 31
0.0
  0
LINE
  5
F3
330
B3
100
AcDbEntity
  8
14080052_HE_LEVE
  6
Continuous
 62
     7
100
AcDbLine
 10
303.7521595601
 20
334.4490826906
 30
0.0
 11
318.0030407597
 21
334.4490826906
 31
0.0
  0
LINE
  5
F4
330
B3
100
AcDbEntity
  8
14080052_HE_LEVE
  6
Continuous
 62
     7
100
AcDbLine
 10
303.2151681947
 20
335.6422608766
 30
0.0
 11
318.5400321251
 21
335.6422608766
 31
0.0
  0
LINE
  5
F5
330
B3
100
AcDbEntity
  8
14080052_HE_LEVE
  6
Continuous
 62
     7
100
AcDbLine
 10
318.5617311962
 20
335.1343958884
 30
0.0
 11
303.1934691236
 21
335.1343958884
 31
0.0
  0
LINE
  5
F6
330
B3
100
AcDbEntity
  8
14080052_HE_LEVE
  6
Continuous
 62
     7
100
AcDbLine
 10
303.8776001599
 20
343.7993943749
 30
0.0
 11
317.8776001599
 21
343.7993943749
 31
0.0
  0
LINE
  5
F7
330
B3
100
AcDbEntity
  8
14080052_HE_LEVE
  6
Continuous
 62
     7
100
AcDbLine
 10
317.7617107997
 20
343.4793021751
 30
0.0
 11
303.9934895201
 21
343.4793021751
 31
0.0
  0
LINE
  5
F8
330
B3
100
AcDbEntity
  8
14080052_HE_LEVE
  6
Continuous
 62
     7
100
AcDbLine
 10
304.7772764597
 20
342.5387578476
 30
0.0
 11
316.9779238601
 21
342.5387578476
 31
0.0
  0
LINE
  5
F9
330
B3
100
AcDbEntity
  8
14080052_HE_LEVE
  6
Continuous
 62
     7
100
AcDbLine
 10
316.8636187404
 20
342.2584366252
 30
0.0
 11
304.8915815794
 21
342.2584366252
 31
0.0
  0
ARC
  5
FA
330
B3
100
AcDbEntity
  8
14080052_HE_LEVE
  6
Continuous
 62
     7
100
AcDbCircle
 10
310.8776001599
 20
280.070588051
 30
0.0
 40
11.3
100
AcDbArc
 50
170.8538067076
 51
180.0
  0
ARC
  5
FB
330
B3
100
AcDbEntity
  8
14080052_HE_LEVE
  6
Continuous
 62
     7
100
AcDbCircle
 10
310.8776001599
 20
280.070588051
 30
0.0
 40
11.29999999999999
100
AcDbArc
 50
311.583958024
 51
9.1461932924
  0
ARC
  5
FC
330
B3
100
AcDbEntity
  8
14080052_HE_LEVE
  6
Continuous
 62
     7
100
AcDbCircle
 10
310.8776001599
 20
280.070588051
 30
0.0
 40
11.3
100
AcDbArc
 50
180.0
 51
228.416041976
  0
ARC
  5
FD
330
B3
100
AcDbEntity
  8
14080052_HE_LEVE
  6
Continuous
 62
     7
100
AcDbCircle
 10
-21.7390447707
 20
333.6222221539
 30
0.0
 40
325.6000000000001
100
AcDbArc
 50
350.8538067076
 51
0.1049995569
  0
ARC
  5
FE
330
B3
100
AcDbEntity
  8
14080052_HE_LEVE
  6
Continuous
 62
     7
100
AcDbCircle
 10
643.4942450905
 20
333.6222221539
 30
0.0
 40
325.6
100
AcDbArc
 50
179.8950004431
 51
189.1461932924
  0
LINE
  5
FF
330
B3
100
AcDbEntity
  8
14080052_HE_LEVE
  6
Continuous
 62
     7
100
AcDbLine
 10
303.8776001599
 20
344.7501839651
 30
0.0
 11
303.8776001599
 21
343.7993943749
 31
0.0
  0
LINE
  5
100
330
B3
100
AcDbEntity
  8
14080052_HE_LEVE
  6
Continuous
 62
     7
100
AcDbLine
 10
317.8776001599
 20
343.7993943749
 30
0.0
 11
317.8776001599
 21
344.7501839651
 31
0.0
  0
LINE
  5
101
330
B3
100
AcDbEntity
  8
14080052_HE_LEVE
  6
Continuous
 62
     7
100
AcDbLine
 10
303.9934895201
 20
343.4793021751
 30
0.0
 11
304.7772764597
 21
342.5387578476
 31
0.0
  0
LINE
  5
102
330
B3
100
AcDbEntity
  8
14080052_HE_LEVE
  6
Continuous
 62
     7
100
AcDbLine
 10
316.9779238601
 20
342.5387578476
 30
0.0
 11
317.7617107997
 21
343.4793021751
 31
0.0
  0
ARC
  5
103
330
B3
100
AcDbEntity
  8
14080052_HE_LEVE
  6
Continuous
 62
     7
100
AcDbCircle
 10
294.3251674772
 20
341.415291904
 30
0.0
 40
10.6
100
AcDbArc
 50
327.0009199842
 51
4.562237779
  0
ARC
  5
104
330
B3
100
AcDbEntity
  8
14080052_HE_LEVE
  6
Continuous
 62
     7
100
AcDbCircle
 10
327.4300328426
 20
341.415291904
 30
0.0
 40
10.6
100
AcDbArc
 50
175.437762221
 51
212.9990800158
  0
ARC
  5
105
330
B3
100
AcDbEntity
  8
14080052_HE_LEVE
  6
Continuous
 62
     7
100
AcDbCircle
 10
305.2222472705
 20
336.2179360264
 30
0.0
 40
2.300000000000012
100
AcDbArc
 50
208.1060099433
 51
230.2701502547
  0
ARC
  5
106
330
B3
100
AcDbEntity
  8
14080052_HE_LEVE
  6
Continuous
 62
     7
100
AcDbCircle
 10
316.5329530493
 20
336.2179360264
 30
0.0
 40
2.300000000000002
100
AcDbArc
 50
309.7298497453
 51
331.8939900567
  0
ARC
  5
107
330
B3
100
AcDbEntity
  8
14080052_HE_LEVE
  6
Continuous
 62
     7
100
AcDbCircle
 10
318.1947913307
 20
334.2183626903
 30
0.0
 40
0.3000000000000122
100
AcDbArc
 50
129.7298497454
 51
179.8950004431
  0
ARC
  5
108
330
B3
100
AcDbEntity
  8
14080052_HE_LEVE
  6
Continuous
 62
     7
100
AcDbCircle
 10
303.5604089891
 20
334.2183626903
 30
0.0
 40
0.2999999999999834
100
AcDbArc
 50
0.1049995569
 51
50.2701502547
  0
ARC
  5
109
330
B3
100
AcDbEntity
  8
14080052_HE_LEVE
  6
Continuous
 62
     7
100
AcDbCircle
 10
318.1206924686
 20
335.3699480923
 30
0.0
 40
0.4999999999999958
100
AcDbArc
 50
331.8939900567
 51
32.9990800158
  0
ARC
  5
10A
330
B3
100
AcDbEntity
  8
14080052_HE_LEVE
  6
Continuous
 62
     7
100
AcDbCircle
 10
303.6345078512
 20
335.3699480923
 30
0.0
 40
0.4999999999999943
100
AcDbArc
 50
147.0009199842
 51
208.1060099433
  0
ARC
  5
10B
330
B3
100
AcDbEntity
  8
14080052_HE_LEVE
  6
Continuous
 62
     7
100
AcDbCircle
 10
317.3776001599
 20
343.7993943749
 30
0.0
 40
0.5000000000000021
100
AcDbArc
 50
320.1944289077
 51
0.0
  0
ARC
  5
10C
330
B3
100
AcDbEntity
  8
14080052_HE_LEVE
  6
Continuous
 62
     7
100
AcDbCircle
 10
304.3776001599
 20
343.7993943749
 30
0.0
 40
0.5000000000000004
100
AcDbArc
 50
180.0
 51
219.8055710923
  0
ARC
  5
10D
330
B3
100
AcDbEntity
  8
14080052_HE_LEVE
  6
Continuous
 62
     7
100
AcDbCircle
 10
304.3931658199
 20
342.2186656478
 30
0.0
 40
0.4999999999999936
100
AcDbArc
 50
4.562237779
 51
39.8055710923
  0
ARC
  5
10E
330
B3
100
AcDbEntity
  8
14080052_HE_LEVE
  6
Continuous
 62
     7
100
AcDbCircle
 10
317.3620344999
 20
342.2186656478
 30
0.0
 40
0.4999999999999993
100
AcDbArc
 50
140.1944289077
 51
175.437762221
  0
LINE
  5
10F
330
B3
100
AcDbEntity
  8
14080053_HE_LEVE
  6
Continuous
 62
     7
100
AcDbLine
 10
302.9656706912
 20
270.4949254017
 30
0.0
 11
318.7895296287
 21
270.4949254017
 31
0.0
  0
LINE
  5
110
330
B3
100
AcDbEntity
  8
14080053_HE_LEVE
  6
Continuous
 62
     7
100
AcDbLine
 10
318.5840096023
 20
269.8981250031
 30
0.0
 11
303.1711907175
 21
269.8981250031
 31
0.0
  0
LINE
  5
111
330
B3
100
AcDbEntity
  8
14080053_HE_LEVE
  6
Continuous
 62
     7
100
AcDbLine
 10
318.7895296287
 20
270.4949254017
 30
0.0
 11
318.4978201409
 21
271.2904967319
 31
0.0
  0
LINE
  5
112
330
B3
100
AcDbEntity
  8
14080053_HE_LEVE
  6
Continuous
 62
     7
100
AcDbLine
 10
303.2573801789
 20
271.2904967319
 30
0.0
 11
302.9656706912
 21
270.4949254017
 31
0.0
  0
ARC
  5
113
330
B3
100
AcDbEntity
  8
14080053_HE_LEVE
  6
Continuous
 62
     7
100
AcDbCircle
 10
310.8776001599
 20
282.2985787652
 30
0.0
 40
14.60000000000001
100
AcDbArc
 50
238.1406239119
 51
301.8593760881
  0
ARC
  5
114
330
B3
100
AcDbEntity
  8
14080053_HE_LEVE
  6
Continuous
 62
     7
100
AcDbCircle
 10
303.4351088491
 20
270.3227980771
 30
0.0
 40
0.4999999999999935
100
AcDbArc
 50
159.8636965718
 51
238.1406239119
  0
ARC
  5
115
330
B3
100
AcDbEntity
  8
14080053_HE_LEVE
  6
Continuous
 62
     7
100
AcDbCircle
 10
318.3200914707
 20
270.3227980771
 30
0.0
 40
0.5000000000000027
100
AcDbArc
 50
301.8593760881
 51
20.1363034282
  0
ARC
  5
116
330
B3
100
AcDbEntity
  8
14080053_HE_LEVE
  6
Continuous
 62
     7
100
AcDbCircle
 10
318.028381983
 20
271.1183694074
 30
0.0
 40
0.5000000000000066
100
AcDbArc
 50
20.1363034282
 51
90.0
  0
ARC
  5
117
330
B3
100
AcDbEntity
  8
14080053_HE_LEVE
  6
Continuous
 62
     7
100
AcDbCircle
 10
303.7268183369
 20
271.1183694074
 30
0.0
 40
0.5000000000000004
100
AcDbArc
 50
90.0
 51
159.8636965718
  0
LINE
  5
118
330
B3
100
AcDbEntity
  8
14080049_HE_CROS
  6
Continuous
 62
     7
100
AcDbLine
 10
323.9019888971
 20
345.9741449103
 30
0.0
 11
323.9019888971
 21
368.3506061946
 31
0.0
  0
ARC
  5
119
330
B3
100
AcDbEntity
  8
14080049_HE_CROS
  6
Continuous
 62
     7
100
AcDbCircle
 10
320.4300694601
 20
337.5624996834
 30
0.0
 40
9.099999999999998
100
AcDbArc
 50
67.5715376457
 51
86.7303925793
  0
ARC
  5
11A
330
B3
100
AcDbEntity
  8
14080049_HE_CROS
  6
Continuous
 62
     7
100
AcDbCircle
 10
320.4300694601
 20
376.7622514215
 30
0.0
 40
9.100000000000003
100
AcDbArc
 50
273.2696074207
 51
292.4284623543
  0
ARC
  5
11B
330
B3
100
AcDbEntity
  8
14080049_HE_CROS
  6
Continuous
 62
     7
100
AcDbCircle
 10
324.169059623
 20
367.7035565618
 30
0.0
 40
0.6999999999999914
100
AcDbArc
 50
18.4545309966
 51
112.4284623543
  0
ARC
  5
11C
330
B3
100
AcDbEntity
  8
14080049_HE_CROS
  6
Continuous
 62
     7
100
AcDbCircle
 10
324.169059623
 20
346.6211945431
 30
0.0
 40
0.6999999999999995
100
AcDbArc
 50
247.5715376458
 51
341.5454690034
  0
ARC
  5
11D
330
B3
100
AcDbEntity
  8
14080049_HE_CROS
  6
Continuous
 62
     7
100
AcDbCircle
 10
320.9776001599
 20
347.1468729092
 30
0.0
 40
0.5000000000000004
100
AcDbArc
 50
180.0
 51
266.7303925793
  0
ARC
  5
11E
330
B3
100
AcDbEntity
  8
14080049_HE_CROS
  6
Continuous
 62
     7
100
AcDbCircle
 10
320.9776001599
 20
367.1778781956
 30
0.0
 40
0.5000000000000031
100
AcDbArc
 50
93.2696074207
 51
180.0
  0
ARC
  5
11F
330
B3
100
AcDbEntity
  8
14080049_HE_CROS
  6
Continuous
 62
     7
100
AcDbCircle
 10
292.5815066484
 20
357.1623755524
 30
0.0
 40
34.00000000000001
100
AcDbArc
 50
15.7945875071
 51
18.4545309966
  0
ARC
  5
120
330
B3
100
AcDbEntity
  8
14080049_HE_CROS
  6
Continuous
 62
     7
100
AcDbCircle
 10
292.5815066484
 20
357.1623755524
 30
0.0
 40
34.0
100
AcDbArc
 50
341.5454690034
 51
344.2054124929
  0
ARC
  5
121
330
B3
100
AcDbEntity
  8
14080049_HE_CROS
  6
Continuous
 62
     7
100
AcDbCircle
 10
325.1053440603
 20
347.9623755524
 30
0.0
 40
0.1999999999999916
100
AcDbArc
 50
344.2054124929
 51
0.0
  0
ARC
  5
122
330
B3
100
AcDbEntity
  8
14080049_HE_CROS
  6
Continuous
 62
     7
100
AcDbCircle
 10
325.1053440603
 20
366.3623755524
 30
0.0
 40
0.2000000000000057
100
AcDbArc
 50
0.0
 51
15.7945875071
  0
LINE
  5
123
330
B3
100
AcDbEntity
  8
14080049_HE_CROS
  6
Continuous
 62
     7
100
AcDbLine
 10
325.3053440603
 20
347.9623755524
 30
0.0
 11
325.3053440603
 21
366.3623755524
 31
0.0
  0
LINE
  5
124
330
B3
100
AcDbEntity
  8
12080006_MP_HE_P
  6
Continuous
 62
     7
100
AcDbLine
 10
325.7865354996
 20
365.9475318024
 30
0.0
 11
325.7865354996
 21
348.3772193024
 31
0.0
  0
LINE
  5
125
330
B3
100
AcDbEntity
  8
12080006_MP_HE_P
  6
Continuous
 62
     7
100
AcDbLine
 10
325.3053440603
 20
348.2123755524
 30
0.0
 11
325.5187057252
 21
348.2123755524
 31
0.0
  0
LINE
  5
126
330
B3
100
AcDbEntity
  8
12080006_MP_HE_P
  6
Continuous
 62
     7
100
AcDbLine
 10
325.5187057252
 20
366.1123755524
 30
0.0
 11
325.3053440603
 21
366.1123755524
 31
0.0
  0
ARC
  5
127
330
B3
100
AcDbEntity
  8
12080006_MP_HE_P
  6
Continuous
 62
     7
100
AcDbCircle
 10
308.3776001599
 20
357.1623755524
 30
0.0
 40
19.5
100
AcDbArc
 50
333.2228950132
 51
26.7771049868
  0
ARC
  5
128
330
B3
100
AcDbEntity
  8
12080006_MP_HE_P
  6
Continuous
 62
     7
100
AcDbCircle
 10
325.5187057252
 20
348.5123755524
 30
0.0
 40
0.2999999999999982
100
AcDbArc
 50
270.0
 51
333.2228950132
  0
ARC
  5
129
330
B3
100
AcDbEntity
  8
12080006_MP_HE_P
  6
Continuous
 62
     7
100
AcDbCircle
 10
325.5187057252
 20
365.8123755524
 30
0.0
 40
0.2999999999999987
100
AcDbArc
 50
26.7771049868
 51
90.0
  0
ENDBLK
  5
12B
330
B3
100
AcDbEntity
  8
0
100
AcDbBlockEnd
  0
BLOCK
  5
17D
330
12C
100
AcDbEntity
  8
0
100
AcDbBlockBegin
  2
SE2
 70
     0
 10
0.0
 20
0.0
 30
0.0
  3
SE2
  1

  0
LINE
  5
12E
330
12C
100
AcDbEntity
  8
T14080057__HE_VC
  6
Continuous
 62
     7
100
AcDbLine
 10
115.3510797065
 20
141.75
 30
0.0
 11
90.2510797065
 21
141.75
 31
0.0
  0
LINE
  5
12F
330
12C
100
AcDbEntity
  8
T14080057__HE_VC
  6
Continuous
 62
     7
100
AcDbLine
 10
91.9249438562
 20
136.156199654
 30
0.0
 11
113.6772155567
 21
136.156199654
 31
0.0
  0
LINE
  5
130
330
12C
100
AcDbEntity
  8
T14080057__HE_VC
  6
Continuous
 62
     7
100
AcDbLine
 10
113.6852121642
 20
136.5410266398
 30
0.0
 11
91.9169472487
 21
136.5410266398
 31
0.0
  0
LINE
  5
131
330
12C
100
AcDbEntity
  8
T14080057__HE_VC
  6
Continuous
 62
     7
100
AcDbLine
 10
91.1078011772
 20
133.320309477
 30
0.0
 11
114.4943582357
 21
133.320309477
 31
0.0
  0
LINE
  5
132
330
12C
100
AcDbEntity
  8
T14080057__HE_VC
  6
Continuous
 62
     7
100
AcDbLine
 10
114.5880869093
 20
133.837618029
 30
0.0
 11
91.0140725036
 21
133.837618029
 31
0.0
  0
LINE
  5
133
330
12C
100
AcDbEntity
  8
T14080057__HE_VC
  6
Continuous
 62
     7
100
AcDbLine
 10
92.0237609088
 20
132.55
 30
0.0
 11
113.5783985041
 21
132.55
 31
0.0
  0
LINE
  5
134
330
12C
100
AcDbEntity
  8
T14080057__HE_VC
  6
Continuous
 62
     7
100
AcDbLine
 10
91.1078011772
 20
133.320309477
 30
0.0
 11
91.6521138357
 21
132.7155176342
 31
0.0
  0
LINE
  5
135
330
12C
100
AcDbEntity
  8
T14080057__HE_VC
  6
Continuous
 62
     7
100
AcDbLine
 10
113.9500455772
 20
132.7155176342
 30
0.0
 11
114.4943582357
 21
133.320309477
 31
0.0
  0
LINE
  5
136
330
12C
100
AcDbEntity
  8
T14080057__HE_VC
  6
Continuous
 62
     7
100
AcDbLine
 10
114.5880869093
 20
133.837618029
 30
0.0
 11
113.6772155567
 21
136.156199654
 31
0.0
  0
LINE
  5
137
330
12C
100
AcDbEntity
  8
T14080057__HE_VC
  6
Continuous
 62
     7
100
AcDbLine
 10
91.9249438562
 20
136.156199654
 30
0.0
 11
91.0140725036
 21
133.837618029
 31
0.0
  0
ARC
  5
138
330
12C
100
AcDbEntity
  8
T14080057__HE_VC
  6
Continuous
 62
     7
100
AcDbCircle
 10
206.7161290744
 20
95.4540640013
 30
0.0
 40
101.7
100
AcDbArc
 50
153.3780801378
 51
156.17142267
  0
ARC
  5
139
330
12C
100
AcDbEntity
  8
T14080057__HE_VC
  6
Continuous
 62
     7
100
AcDbCircle
 10
-1.1139696614
 20
95.4540640013
 30
0.0
 40
101.7
100
AcDbArc
 50
23.82857733
 51
26.6219198622
  0
ARC
  5
13A
330
12C
100
AcDbEntity
  8
T14080057__HE_VC
  6
Continuous
 62
     7
100
AcDbCircle
 10
90.2510797065
 20
141.25
 30
0.0
 40
0.5000000000000004
100
AcDbArc
 50
90.0
 51
206.6219198622
  0
ARC
  5
13B
330
12C
100
AcDbEntity
  8
T14080057__HE_VC
  6
Continuous
 62
     7
100
AcDbCircle
 10
115.3510797065
 20
141.25
 30
0.0
 40
0.5000000000000006
100
AcDbArc
 50
333.3780801378
 51
90.0
  0
ARC
  5
13C
330
12C
100
AcDbEntity
  8
T14080057__HE_VC
  6
Continuous
 62
     7
100
AcDbCircle
 10
114.1425913034
 20
136.3390258402
 30
0.0
 40
0.5000000000000026
100
AcDbArc
 50
156.17142267
 51
201.4477363271
  0
ARC
  5
13D
330
12C
100
AcDbEntity
  8
T14080057__HE_VC
  6
Continuous
 62
     7
100
AcDbCircle
 10
91.4595681095
 20
136.3390258402
 30
0.0
 40
0.5000000000000036
100
AcDbArc
 50
338.5522636729
 51
23.82857733
  0
ARC
  5
13E
330
12C
100
AcDbEntity
  8
T14080057__HE_VC
  6
Continuous
 62
     7
100
AcDbCircle
 10
91.4794482503
 20
133.6547918428
 30
0.0
 40
0.5000000000000009
100
AcDbArc
 50
158.5522636729
 51
221.9872124958
  0
ARC
  5
13F
330
12C
100
AcDbEntity
  8
T14080057__HE_VC
  6
Continuous
 62
     7
100
AcDbCircle
 10
114.1227111626
 20
133.6547918428
 30
0.0
 40
0.5000000000000002
100
AcDbArc
 50
318.0127875042
 51
21.4477363271
  0
ARC
  5
140
330
12C
100
AcDbEntity
  8
T14080057__HE_VC
  6
Continuous
 62
     7
100
AcDbCircle
 10
92.0237609088
 20
133.05
 30
0.0
 40
0.5000000000000002
100
AcDbArc
 50
221.9872124958
 51
270.0
  0
ARC
  5
141
330
12C
100
AcDbEntity
  8
T14080057__HE_VC
  6
Continuous
 62
     7
100
AcDbCircle
 10
113.5783985041
 20
133.05
 30
0.0
 40
0.5000000000000004
100
AcDbArc
 50
270.0
 51
318.0127875042
  0
LINE
  5
142
330
12C
100
AcDbEntity
  8
T14080059__HE_VC
  6
Continuous
 62
     7
100
AcDbLine
 10
135.6495258705
 20
193.75
 30
0.0
 11
69.9526335424
 21
193.75
 31
0.0
  0
LINE
  5
143
330
12C
100
AcDbEntity
  8
T14080059__HE_VC
  6
Continuous
 62
     7
100
AcDbLine
 10
135.4168120691
 20
192.5075877061
 30
0.0
 11
70.1853473438
 21
192.5075877061
 31
0.0
  0
LINE
  5
144
330
12C
100
AcDbEntity
  8
T14080059__HE_VC
  6
Continuous
 62
     7
100
AcDbLine
 10
132.1499124322
 20
188.7663331746
 30
0.0
 11
73.4522469807
 21
188.7663331746
 31
0.0
  0
LINE
  5
145
330
12C
100
AcDbEntity
  8
T14080059__HE_VC
  6
Continuous
 62
     7
100
AcDbLine
 10
132.3565808177
 20
188.1396150006
 30
0.0
 11
73.2455785952
 21
188.1396150006
 31
0.0
  0
LINE
  5
146
330
12C
100
AcDbEntity
  8
T14080059__HE_VC
  6
Continuous
 62
     7
100
AcDbLine
 10
132.0780463535
 20
186.6601395881
 30
0.0
 11
73.5241130594
 21
186.6601395881
 31
0.0
  0
LINE
  5
147
330
12C
100
AcDbEntity
  8
T14080059__HE_VC
  6
Continuous
 62
     7
100
AcDbLine
 10
129.5885333853
 20
185.1785572994
 30
0.0
 11
76.0136260276
 21
185.1785572994
 31
0.0
  0
LINE
  5
148
330
12C
100
AcDbEntity
  8
T14080059__HE_VC
  6
Continuous
 62
     7
100
AcDbLine
 10
128.6940417745
 20
184.5219855417
 30
0.0
 11
76.9081176384
 21
184.5219855417
 31
0.0
  0
ARC
  5
149
330
12C
100
AcDbEntity
  8
T14080059__HE_VC
  6
Continuous
 62
     7
100
AcDbCircle
 10
89.1010797065
 20
182.3856511434
 30
0.0
 40
0.4999999999999996
100
AcDbArc
 50
265.7129931154
 51
270.0
  0
ARC
  5
14A
330
12C
100
AcDbEntity
  8
T14080059__HE_VC
  6
Continuous
 62
     7
100
AcDbCircle
 10
116.5010797065
 20
182.3856511434
 30
0.0
 40
0.5000000000000004
100
AcDbArc
 50
270.0
 51
274.2870068846
  0
LINE
  5
14B
330
12C
100
AcDbEntity
  8
T14080059__HE_VC
  6
Continuous
 62
     7
100
AcDbLine
 10
89.1010797065
 20
181.8856511434
 30
0.0
 11
116.5010797065
 21
181.8856511434
 31
0.0
  0
ARC
  5
14C
330
12C
100
AcDbEntity
  8
T14080059__HE_VC
  6
Continuous
 62
     7
100
AcDbCircle
 10
70.5510796993
 20
193.2190930428
 30
0.0
 40
0.7999999999999992
100
AcDbArc
 50
138.4224084942
 51
242.7956504811
  0
ARC
  5
14D
330
12C
100
AcDbEntity
  8
T14080059__HE_VC
  6
Continuous
 62
     7
100
AcDbCircle
 10
135.0510797136
 20
193.2190930428
 30
0.0
 40
0.7999999999999978
100
AcDbArc
 50
297.2043495189
 51
41.5775915058
  0
ARC
  5
14E
330
12C
100
AcDbEntity
  8
T14080059__HE_VC
  6
Continuous
 62
     7
100
AcDbCircle
 10
66.0905416922
 20
185.6349923684
 30
0.0
 40
8.000000000000004
100
AcDbArc
 50
23.0427354572
 51
59.2128168174
  0
ARC
  5
14F
330
12C
100
AcDbEntity
  8
T14080059__HE_VC
  6
Continuous
 62
     7
100
AcDbCircle
 10
139.5116177207
 20
185.6349923684
 30
0.0
 40
8.00000000000001
100
AcDbArc
 50
120.7871831826
 51
156.9572645428
  0
ARC
  5
150
330
12C
100
AcDbEntity
  8
T14080059__HE_VC
  6
Continuous
 62
     7
100
AcDbCircle
 10
72.9921404013
 20
188.5706243747
 30
0.0
 40
0.4999999987543977
100
AcDbArc
 50
300.4559906531
 51
23.0427354572
  0
ARC
  5
151
330
12C
100
AcDbEntity
  8
T14080059__HE_VC
  6
Continuous
 62
     7
100
AcDbCircle
 10
132.6100190116
 20
188.5706243747
 30
0.0
 40
0.4999999987543969
100
AcDbArc
 50
156.9572645428
 51
239.5440093469
  0
ARC
  5
152
330
12C
100
AcDbEntity
  8
T14080059__HE_VC
  6
Continuous
 62
     7
100
AcDbCircle
 10
73.6510797064
 20
187.4500000001
 30
0.0
 40
0.8000000000000007
100
AcDbArc
 50
120.4559906531
 51
260.8680701988
  0
ARC
  5
153
330
12C
100
AcDbEntity
  8
T14080059__HE_VC
  6
Continuous
 62
     7
100
AcDbCircle
 10
131.9510797065
 20
187.4500000001
 30
0.0
 40
0.799999999999999
100
AcDbArc
 50
279.1319298012
 51
59.5440093469
  0
ARC
  5
154
330
12C
100
AcDbEntity
  8
T14080059__HE_VC
  6
Continuous
 62
     7
100
AcDbCircle
 10
72.9003405213
 20
182.7796462027
 30
0.0
 40
3.930308015113108
100
AcDbArc
 50
37.6156905506
 51
80.8680701988
  0
ARC
  5
155
330
12C
100
AcDbEntity
  8
T14080059__HE_VC
  6
Continuous
 62
     7
100
AcDbCircle
 10
132.7018188916
 20
182.7796462027
 30
0.0
 40
3.930308015113112
100
AcDbArc
 50
99.1319298012
 51
142.3843094494
  0
ARC
  5
156
330
12C
100
AcDbEntity
  8
T14080059__HE_VC
  6
Continuous
 62
     7
100
AcDbCircle
 10
77.597871076
 20
186.3992815212
 30
0.0
 40
1.999999999798852
100
AcDbArc
 50
217.6156905506
 51
249.8257295873
  0
ARC
  5
157
330
12C
100
AcDbEntity
  8
T14080059__HE_VC
  6
Continuous
 62
     7
100
AcDbCircle
 10
128.0042883369
 20
186.3992815212
 30
0.0
 40
1.999999999798851
100
AcDbArc
 50
290.1742704127
 51
322.3843094494
  0
ARC
  5
158
330
12C
100
AcDbEntity
  8
T14080059__HE_VC
  6
Continuous
 62
     7
100
AcDbCircle
 10
92.4275699878
 20
226.7611450833
 30
0.0
 40
45.0
100
AcDbArc
 50
249.8257295873
 51
265.7129931154
  0
ARC
  5
159
330
12C
100
AcDbEntity
  8
T14080059__HE_VC
  6
Continuous
 62
     7
100
AcDbCircle
 10
113.1745894251
 20
226.7611450833
 30
0.0
 40
45.0
100
AcDbArc
 50
274.2870068846
 51
290.1742704127
  0
LINE
  5
15A
330
12C
100
AcDbEntity
  8
14080027_MP_VCT_
  6
Continuous
 62
     7
100
AcDbLine
 10
89.8010797065
 20
181.8856511434
 30
0.0
 11
89.8010797065
 21
142.25
 31
0.0
  0
LINE
  5
15B
330
12C
100
AcDbEntity
  8
14080027_MP_VCT_
  6
Continuous
 62
     7
100
AcDbLine
 10
115.8010797065
 20
142.25
 30
0.0
 11
115.8010797065
 21
181.8856511434
 31
0.0
  0
ARC
  5
15C
330
12C
100
AcDbEntity
  8
14080027_MP_VCT_
  6
Continuous
 62
     7
100
AcDbCircle
 10
90.3010797065
 20
142.25
 30
0.0
 40
0.499999999999997
100
AcDbArc
 50
180.0
 51
270.0
  0
ARC
  5
15D
330
12C
100
AcDbEntity
  8
14080027_MP_VCT_
  6
Continuous
 62
     7
100
AcDbCircle
 10
115.3010797065
 20
142.25
 30
0.0
 40
0.5000000000000004
100
AcDbArc
 50
270.0
 51
0.0
  0
LINE
  5
15E
330
12C
100
AcDbEntity
  8
14080058_HE_THM_
  6
Continuous
 62
     7
100
AcDbLine
 10
92.4931943753
 20
113.75
 30
0.0
 11
113.1089650376
 21
113.75
 31
0.0
  0
LINE
  5
15F
330
12C
100
AcDbEntity
  8
14080058_HE_THM_
  6
Continuous
 62
     7
100
AcDbLine
 10
113.9842143296
 20
131.85
 30
0.0
 11
91.6179450833
 21
131.85
 31
0.0
  0
LINE
  5
160
330
12C
100
AcDbEntity
  8
14080058_HE_THM_
  6
Continuous
 62
     7
100
AcDbLine
 10
96.8010797065
 20
132.55
 30
0.0
 11
96.8010797065
 21
131.85
 31
0.0
  0
LINE
  5
161
330
12C
100
AcDbEntity
  8
14080058_HE_THM_
  6
Continuous
 62
     7
100
AcDbLine
 10
108.8010797065
 20
131.85
 30
0.0
 11
108.8010797065
 21
132.55
 31
0.0
  0
ARC
  5
162
330
12C
100
AcDbEntity
  8
14080058_HE_THM_
  6
Continuous
 62
     7
100
AcDbCircle
 10
102.8010797065
 20
123.35
 30
0.0
 40
14.25
100
AcDbArc
 50
144.4214742675
 51
221.4386855205
  0
ARC
  5
163
330
12C
100
AcDbEntity
  8
14080058_HE_THM_
  6
Continuous
 62
     7
100
AcDbCircle
 10
102.8010797065
 20
123.35
 30
0.0
 40
14.25000000000001
100
AcDbArc
 50
318.5613144795
 51
35.5785257325
  0
ARC
  5
164
330
12C
100
AcDbEntity
  8
14080058_HE_THM_
  6
Continuous
 62
     7
100
AcDbCircle
 10
92.4931943753
 20
114.25
 30
0.0
 40
0.4999999999999986
100
AcDbArc
 50
221.4386855205
 51
270.0
  0
ARC
  5
165
330
12C
100
AcDbEntity
  8
14080058_HE_THM_
  6
Continuous
 62
     7
100
AcDbCircle
 10
113.1089650376
 20
114.25
 30
0.0
 40
0.5000000000000004
100
AcDbArc
 50
270.0
 51
318.5613144795
  0
ARC
  5
166
330
12C
100
AcDbEntity
  8
14080058_HE_THM_
  6
Continuous
 62
     7
100
AcDbCircle
 10
113.9842143296
 20
131.35
 30
0.0
 40
0.5000000000000002
100
AcDbArc
 50
35.5785257325
 51
90.0
  0
ARC
  5
167
330
12C
100
AcDbEntity
  8
14080058_HE_THM_
  6
Continuous
 62
     7
100
AcDbCircle
 10
91.6179450833
 20
131.35
 30
0.0
 40
0.5000000000000004
100
AcDbArc
 50
90.0
 51
144.4214742675
  0
ARC
  5
168
330
12C
100
AcDbEntity
  8
14080052_HE_LEVE
  6
Continuous
 62
     7
100
AcDbCircle
 10
102.8010797065
 20
123.35
 30
0.0
 40
11.3
100
AcDbArc
 50
48.7823870314
 51
54.5043192127
  0
ARC
  5
169
330
12C
100
AcDbEntity
  8
14080052_HE_LEVE
  6
Continuous
 62
     7
100
AcDbCircle
 10
102.8010797065
 20
123.35
 30
0.0
 40
11.3
100
AcDbArc
 50
125.4956807873
 51
131.2176129686
  0
LINE
  5
16A
330
12C
100
AcDbEntity
  8
14080049_HE_CROS
  6
Continuous
 62
     7
100
AcDbLine
 10
113.9893103486
 20
110.3256112628
 30
0.0
 11
91.6128490643
 21
110.3256112628
 31
0.0
  0
LINE
  5
16B
330
12C
100
AcDbEntity
  8
14080049_HE_CROS
  6
Continuous
 62
     7
100
AcDbLine
 10
92.0383123095
 20
109.3945379218
 30
0.0
 11
113.5638471034
 21
109.3945379218
 31
0.0
  0
ARC
  5
16C
330
12C
100
AcDbEntity
  8
14080049_HE_CROS
  6
Continuous
 62
     7
100
AcDbCircle
 10
83.2012038374
 20
113.7975306998
 30
0.0
 40
9.099999999999998
100
AcDbArc
 50
337.5715376457
 51
356.7303925793
  0
ARC
  5
16D
330
12C
100
AcDbEntity
  8
14080049_HE_CROS
  6
Continuous
 62
     7
100
AcDbCircle
 10
122.4009555755
 20
113.7975306998
 30
0.0
 40
9.100000000000005
100
AcDbArc
 50
183.2696074207
 51
202.4284623543
  0
ARC
  5
16E
330
12C
100
AcDbEntity
  8
14080049_HE_CROS
  6
Continuous
 62
     7
100
AcDbCircle
 10
113.3422607158
 20
110.0585405369
 30
0.0
 40
0.6999999999999907
100
AcDbArc
 50
288.4545309966
 51
22.4284623543
  0
ARC
  5
16F
330
12C
100
AcDbEntity
  8
14080049_HE_CROS
  6
Continuous
 62
     7
100
AcDbCircle
 10
92.2598986971
 20
110.0585405369
 30
0.0
 40
0.6999999999999963
100
AcDbArc
 50
157.5715376457
 51
251.5454690034
  0
ARC
  5
170
330
12C
100
AcDbEntity
  8
14080049_HE_CROS
  6
Continuous
 62
     7
100
AcDbCircle
 10
92.7855770632
 20
113.25
 30
0.0
 40
0.5000000000000004
100
AcDbArc
 50
90.0
 51
176.7303925793
  0
ARC
  5
171
330
12C
100
AcDbEntity
  8
14080049_HE_CROS
  6
Continuous
 62
     7
100
AcDbCircle
 10
112.8165823497
 20
113.25
 30
0.0
 40
0.5000000000000022
100
AcDbArc
 50
3.2696074207
 51
90.0
  0
ARC
  5
172
330
12C
100
AcDbEntity
  8
14080049_HE_CROS
  6
Continuous
 62
     7
100
AcDbCircle
 10
102.8010797065
 20
141.6460935116
 30
0.0
 40
34.0
100
AcDbArc
 50
285.7945875071
 51
288.4545309966
  0
ARC
  5
173
330
12C
100
AcDbEntity
  8
14080049_HE_CROS
  6
Continuous
 62
     7
100
AcDbCircle
 10
102.8010797065
 20
141.6460935116
 30
0.0
 40
34.0
100
AcDbArc
 50
251.5454690034
 51
254.2054124929
  0
ARC
  5
174
330
12C
100
AcDbEntity
  8
14080049_HE_CROS
  6
Continuous
 62
     7
100
AcDbCircle
 10
93.6010797065
 20
109.1222560996
 30
0.0
 40
0.2000000000000045
100
AcDbArc
 50
254.2054124929
 51
270.0
  0
ARC
  5
175
330
12C
100
AcDbEntity
  8
14080049_HE_CROS
  6
Continuous
 62
     7
100
AcDbCircle
 10
112.0010797065
 20
109.1222560996
 30
0.0
 40
0.1999999999999919
100
AcDbArc
 50
270.0
 51
285.7945875071
  0
LINE
  5
176
330
12C
100
AcDbEntity
  8
14080049_HE_CROS
  6
Continuous
 62
     7
100
AcDbLine
 10
93.6010797065
 20
108.9222560996
 30
0.0
 11
112.0010797065
 21
108.9222560996
 31
0.0
  0
LINE
  5
177
330
12C
100
AcDbEntity
  8
12080006_MP_HE_P
  6
Continuous
 62
     7
100
AcDbLine
 10
94.0159234565
 20
108.4410646603
 30
0.0
 11
111.5862359565
 21
108.4410646603
 31
0.0
  0
LINE
  5
178
330
12C
100
AcDbEntity
  8
12080006_MP_HE_P
  6
Continuous
 62
     7
100
AcDbLine
 10
93.8510797065
 20
108.9222560996
 30
0.0
 11
93.8510797065
 21
108.7088944347
 31
0.0
  0
LINE
  5
179
330
12C
100
AcDbEntity
  8
12080006_MP_HE_P
  6
Continuous
 62
     7
100
AcDbLine
 10
111.7510797065
 20
108.7088944347
 30
0.0
 11
111.7510797065
 21
108.9222560996
 31
0.0
  0
ARC
  5
17A
330
12C
100
AcDbEntity
  8
12080006_MP_HE_P
  6
Continuous
 62
     7
100
AcDbCircle
 10
102.8010797065
 20
125.85
 30
0.0
 40
19.49999999999999
100
AcDbArc
 50
243.2228950132
 51
296.7771049868
  0
ARC
  5
17B
330
12C
100
AcDbEntity
  8
12080006_MP_HE_P
  6
Continuous
 62
     7
100
AcDbCircle
 10
94.1510797065
 20
108.7088944347
 30
0.0
 40
0.2999999999999982
100
AcDbArc
 50
180.0
 51
243.2228950132
  0
ARC
  5
17C
330
12C
100
AcDbEntity
  8
12080006_MP_HE_P
  6
Continuous
 62
     7
100
AcDbCircle
 10
111.4510797065
 20
108.7088944347
 30
0.0
 40
0.3000000000000119
100
AcDbArc
 50
296.7771049868
 51
0.0
  0
ENDBLK
  5
17E
330
12C
100
AcDbEntity
  8
0
100
AcDbBlockEnd
  0
ENDSEC
  0
SECTION
  2
ENTITIES
  0
INSERT
  5
5F
330
1F
100
AcDbEntity
  8
Default
100
AcDbBlockReference
  2
SEANNOT_GROUP
 10
0.0
 20
0.0
 30
0.0
  0
INSERT
  5
6A
330
1F
100
AcDbEntity
  8
Default
100
AcDbBlockReference
  2
SEANNOT_GROUP1
 10
0.0
 20
0.0
 30
0.0
  0
INSERT
  5
70
330
1F
100
AcDbEntity
  8
Default
100
AcDbBlockReference
  2
SEANNOT_GROUP2
 10
0.0
 20
0.0
 30
0.0
  0
INSERT
  5
76
330
1F
100
AcDbEntity
  8
Default
100
AcDbBlockReference
  2
SE
 10
0.0
 20
0.0
 30
0.0
  0
INSERT
  5
B4
330
1F
100
AcDbEntity
  8
Default
100
AcDbBlockReference
  2
SE1
 10
0.0
 20
0.0
 30
0.0
  0
INSERT
  5
12D
330
1F
100
AcDbEntity
  8
Default
100
AcDbBlockReference
  2
SE2
 10
0.0
 20
0.0
 30
0.0
  0
TEXT
  5
180
330
1F
100
AcDbEntity
  8
Default
  6
Continuous
 62
     7
100
AcDbText
 10
5.9362635081
 20
53.4225120485
 30
0.0
 40
10.0
  1
Grohe AG^J
  7
SEACAD_seiso_ttf
 11
5.9362635081
 21
63.4225120485
 31
0.0
100
AcDbText
 73
     3
  0
TEXT
  5
181
330
1F
100
AcDbEntity
  8
Default
  6
Continuous
 62
     7
100
AcDbText
 10
5.9362635081
 20
37.0588756849
 30
0.0
 40
10.0
  1
 
  7
SEACAD_seiso_ttf
 11
5.9362635081
 21
47.0588756849
 31
0.0
100
AcDbText
 73
     3
  0
TEXT
  5
182
330
1F
100
AcDbEntity
  8
Default
  6
Continuous
 62
     7
100
AcDbText
 10
5.9362635081
 20
20.6952393213
 30
0.0
 40
10.0
  1
ecn:
  7
SEACAD_seiso_ttf
 11
5.9362635081
 21
30.6952393213
 31
0.0
100
AcDbText
 73
     3
  0
TEXT
  5
183
330
1F
100
AcDbEntity
  8
Default
  6
Continuous
 62
     7
100
AcDbText
 10
5.9362635081
 20
4.3316029576
 30
0.0
 40
10.0
  1
unit: mm
  7
SEACAD_seiso_ttf
 11
5.9362635081
 21
14.3316029576
 31
0.0
100
AcDbText
 73
     3
  0
LINE
  5
184
330
1F
100
AcDbEntity
  8
Default
  6
Continuous
 62
     7
100
AcDbLine
 10
0.0
 20
0.0
 30
0.0
 11
100.0
 21
0.0
 31
0.0
  0
LINE
  5
185
330
1F
100
AcDbEntity
  8
Default
  6
Continuous
 62
     7
100
AcDbLine
 10
0.0
 20
0.0
 30
0.0
 11
0.0
 21
100.0
 31
0.0
  0
TEXT
  5
186
330
1F
100
AcDbEntity
  8
Default
  6
Continuous
 62
     7
100
AcDbText
 10
24.3923665681
 20
-18.2375342018
 30
0.0
 40
10.0
  1
100 mm
  7
SEACAD_seiso_ttf
 11
24.3923665681
 21
-8.2375342018
 31
0.0
100
AcDbText
 73
     3
  0
TEXT
  5
187
330
1F
100
AcDbEntity
  8
Default
  6
Continuous
 62
     7
100
AcDbText
 10
-7.6150308803
 20
24.6231930421
 30
0.0
 40
10.0
  1
100 mm
 50
90.0
  7
SEACAD_seiso_ttf
 11
-17.6150308803
 21
24.6231930421
 31
0.0
100
AcDbText
 73
     3
  0
TEXT
  5
188
330
1F
100
AcDbEntity
  8
Default
  6
Continuous
 62
     7
100
AcDbText
 10
28.4878128572
 20
20.0907663715
 30
0.0
 40
10.0
  1
209124
  7
SEACAD_seiso_ttf
 11
28.4878128572
 21
30.0907663715
 31
0.0
100
AcDbText
 73
     3
  0
TEXT
  5
189
330
1F
100
AcDbEntity
  8
Default
  6
Continuous
 62
     7
100
AcDbText
 10
5.9012241913
 20
36.7242780188
 30
0.0
 40
10.0
  1
19837000
  7
SEACAD_seiso_ttf
 11
5.9012241913
 21
46.7242780188
 31
0.0
100
AcDbText
 73
     3
  0
ENDSEC
  0
SECTION
  2
OBJECTS
  0
DICTIONARY
  5
C
330
0
100
AcDbDictionary
281
     1
  3
ACAD_GROUP
350
D
  3
ACAD_LAYOUT
350
1A
  3
ACAD_MLEADERSTYLE
350
18D
  3
ACAD_MLINESTYLE
350
17
  3
ACAD_PLOTSETTINGS
350
19
  3
ACAD_PLOTSTYLENAME
350
E
  3
ACAD_SCALELIST
350
3B
  3
ACAD_TABLESTYLE
350
18C
  3
ACAD_VISUALSTYLE
350
2A
  3
AcDbVariableDictionary
350
18A
  0
DICTIONARY
  5
D
102
{ACAD_REACTORS
330
C
102
}
330
C
100
AcDbDictionary
281
     1
  0
DICTIONARY
  5
1A
102
{ACAD_REACTORS
330
C
102
}
330
C
100
AcDbDictionary
281
     1
  3
Layout1
350
1E
  3
Model
350
22
  0
DICTIONARY
  5
18D
102
{ACAD_REACTORS
330
C
102
}
330
C
100
AcDbDictionary
281
     1
  0
DICTIONARY
  5
17
102
{ACAD_REACTORS
330
C
102
}
330
C
100
AcDbDictionary
281
     1
  3
Standard
350
18
  0
DICTIONARY
  5
19
102
{ACAD_REACTORS
330
C
102
}
330
C
100
AcDbDictionary
281
     1
  0
ACDBDICTIONARYWDFLT
  5
E
102
{ACAD_REACTORS
330
C
102
}
330
C
100
AcDbDictionary
281
     1
  3
Normal
350
F
100
AcDbDictionaryWithDefault
340
F
  0
DICTIONARY
  5
3B
102
{ACAD_REACTORS
330
C
102
}
330
C
100
AcDbDictionary
281
     1
  3
A0
350
3C
  3
A1
350
3D
  3
A2
350
3E
  3
A3
350
3F
  3
A4
350
40
  3
A5
350
41
  3
A6
350
42
  3
A7
350
43
  3
A8
350
44
  3
A9
350
45
  3
B0
350
46
  3
B1
350
47
  3
B2
350
48
  3
B3
350
49
  3
B4
350
4A
  3
B5
350
4B
  3
B6
350
4C
  3
B7
350
4D
  3
B8
350
4E
  3
B9
350
4F
  3
C0
350
50
  3
C1
350
51
  3
C2
350
52
  3
C3
350
53
  3
C4
350
54
  3
C5
350
55
  3
C6
350
56
  3
C7
350
57
  3
C8
350
58
  3
C9
350
59
  3
D0
350
5A
  3
D1
350
5B
  3
D2
350
5C
  0
DICTIONARY
  5
18C
102
{ACAD_REACTORS
330
C
102
}
330
C
100
AcDbDictionary
281
     1
  0
DICTIONARY
  5
2A
102
{ACAD_REACTORS
330
C
102
}
330
C
100
AcDbDictionary
281
     1
  3
2dWireframe
350
2F
  3
3D Hidden
350
31
  3
3dWireframe
350
30
  3
Basic
350
32
  3
Brighten
350
36
  3
ColorChange
350
3A
  3
Conceptual
350
34
  3
Dim
350
35
  3
Facepattern
350
39
  3
Flat
350
2B
  3
FlatWithEdges
350
2C
  3
Gouraud
350
2D
  3
GouraudWithEdges
350
2E
  3
Linepattern
350
38
  3
Realistic
350
33
  3
Thicken
350
37
  0
DICTIONARY
  5
18A
102
{ACAD_REACTORS
330
C
102
}
330
C
100
AcDbDictionary
281
     1
  3
CANNOSCALE
350
18B
  3
PSOLHEIGHT
350
18F
  3
PSOLWIDTH
350
18E
  0
LAYOUT
  5
1E
102
{ACAD_REACTORS
330
1A
102
}
330
1A
100
AcDbPlotSettings
  1

  2
none_device
  4

  6

 40
0.0
 41
0.0
 42
0.0
 43
0.0
 44
0.0
 45
0.0
 46
0.0
 47
0.0
 48
0.0
 49
0.0
140
0.0
141
0.0
142
1.0
143
1.0
 70
   688
 72
     0
 73
     0
 74
     5
  7

 75
    16
147
1.0
148
0.0
149
0.0
100
AcDbLayout
  1
Layout1
 70
     1
 71
     1
 10
0.0
 20
0.0
 11
3000.0
 21
4500.0
 12
0.0
 22
0.0
 32
0.0
 14
0.0
 24
0.0
 34
0.0
 15
3000.0
 25
4500.0
 35
0.0
146
0.0
 13
0.0
 23
0.0
 33
0.0
 16
1.0
 26
0.0
 36
0.0
 17
0.0
 27
1.0
 37
0.0
 76
     0
330
1B
  0
LAYOUT
  5
22
102
{ACAD_REACTORS
330
1A
102
}
330
1A
100
AcDbPlotSettings
  1

  2
none_device
  4

  6

 40
0.0
 41
0.0
 42
0.0
 43
0.0
 44
0.0
 45
0.0
 46
0.0
 47
0.0
 48
0.0
 49
0.0
140
0.0
141
0.0
142
1.0
143
1.0
 70
  1712
 72
     0
 73
     0
 74
     0
  7

 75
     0
147
1.0
148
0.0
149
0.0
100
AcDbLayout
  1
Model
 70
     1
 71
     0
 10
0.0
 20
0.0
 11
3000.0
 21
4500.0
 12
0.0
 22
0.0
 32
0.0
 14
0.0
 24
0.0
 34
0.0
 15
3000.0
 25
4500.0
 35
0.0
146
0.0
 13
0.0
 23
0.0
 33
0.0
 16
1.0
 26
0.0
 36
0.0
 17
0.0
 27
1.0
 37
0.0
 76
     0
330
1F
331
29
  0
MLINESTYLE
  5
18
102
{ACAD_REACTORS
330
17
102
}
330
17
100
AcDbMlineStyle
  2
Standard
 70
     0
  3

 62
   256
 51
90.0
 52
90.0
 71
     2
 49
0.5
 62
   256
  6
BYLAYER
 49
-0.5
 62
   256
  6
BYLAYER
  0
ACDBPLACEHOLDER
  5
F
102
{ACAD_REACTORS
330
E
102
}
330
E
  0
SCALE
  5
3C
102
{ACAD_REACTORS
330
3B
102
}
330
3B
100
AcDbScale
 70
     0
300
1:1
140
1.0
141
1.0
290
     1
  0
SCALE
  5
3D
102
{ACAD_REACTORS
330
3B
102
}
330
3B
100
AcDbScale
 70
     0
300
1:2
140
1.0
141
2.0
290
     0
  0
SCALE
  5
3E
102
{ACAD_REACTORS
330
3B
102
}
330
3B
100
AcDbScale
 70
     0
300
1:4
140
1.0
141
4.0
290
     0
  0
SCALE
  5
3F
102
{ACAD_REACTORS
330
3B
102
}
330
3B
100
AcDbScale
 70
     0
300
1:5
140
1.0
141
5.0
290
     0
  0
SCALE
  5
40
102
{ACAD_REACTORS
330
3B
102
}
330
3B
100
AcDbScale
 70
     0
300
1:8
140
1.0
141
8.0
290
     0
  0
SCALE
  5
41
102
{ACAD_REACTORS
330
3B
102
}
330
3B
100
AcDbScale
 70
     0
300
1:10
140
1.0
141
10.0
290
     0
  0
SCALE
  5
42
102
{ACAD_REACTORS
330
3B
102
}
330
3B
100
AcDbScale
 70
     0
300
1:16
140
1.0
141
16.0
290
     0
  0
SCALE
  5
43
102
{ACAD_REACTORS
330
3B
102
}
330
3B
100
AcDbScale
 70
     0
300
1:20
140
1.0
141
20.0
290
     0
  0
SCALE
  5
44
102
{ACAD_REACTORS
330
3B
102
}
330
3B
100
AcDbScale
 70
     0
300
1:30
140
1.0
141
30.0
290
     0
  0
SCALE
  5
45
102
{ACAD_REACTORS
330
3B
102
}
330
3B
100
AcDbScale
 70
     0
300
1:40
140
1.0
141
40.0
290
     0
  0
SCALE
  5
46
102
{ACAD_REACTORS
330
3B
102
}
330
3B
100
AcDbScale
 70
     0
300
1:50
140
1.0
141
50.0
290
     0
  0
SCALE
  5
47
102
{ACAD_REACTORS
330
3B
102
}
330
3B
100
AcDbScale
 70
     0
300
1:100
140
1.0
141
100.0
290
     0
  0
SCALE
  5
48
102
{ACAD_REACTORS
330
3B
102
}
330
3B
100
AcDbScale
 70
     0
300
2:1
140
2.0
141
1.0
290
     0
  0
SCALE
  5
49
102
{ACAD_REACTORS
330
3B
102
}
330
3B
100
AcDbScale
 70
     0
300
4:1
140
4.0
141
1.0
290
     0
  0
SCALE
  5
4A
102
{ACAD_REACTORS
330
3B
102
}
330
3B
100
AcDbScale
 70
     0
300
8:1
140
8.0
141
1.0
290
     0
  0
SCALE
  5
4B
102
{ACAD_REACTORS
330
3B
102
}
330
3B
100
AcDbScale
 70
     0
300
10:1
140
10.0
141
1.0
290
     0
  0
SCALE
  5
4C
102
{ACAD_REACTORS
330
3B
102
}
330
3B
100
AcDbScale
 70
     0
300
100:1
140
100.0
141
1.0
290
     0
  0
SCALE
  5
4D
102
{ACAD_REACTORS
330
3B
102
}
330
3B
100
AcDbScale
 70
     0
300
1/128" = 1'-0"
140
0.0078125
141
12.0
290
     0
  0
SCALE
  5
4E
102
{ACAD_REACTORS
330
3B
102
}
330
3B
100
AcDbScale
 70
     0
300
1/64" = 1'-0"
140
0.015625
141
12.0
290
     0
  0
SCALE
  5
4F
102
{ACAD_REACTORS
330
3B
102
}
330
3B
100
AcDbScale
 70
     0
300
1/32" = 1'-0"
140
0.03125
141
12.0
290
     0
  0
SCALE
  5
50
102
{ACAD_REACTORS
330
3B
102
}
330
3B
100
AcDbScale
 70
     0
300
1/16" = 1'-0"
140
0.0625
141
12.0
290
     0
  0
SCALE
  5
51
102
{ACAD_REACTORS
330
3B
102
}
330
3B
100
AcDbScale
 70
     0
300
3/32" = 1'-0"
140
0.09375
141
12.0
290
     0
  0
SCALE
  5
52
102
{ACAD_REACTORS
330
3B
102
}
330
3B
100
AcDbScale
 70
     0
300
1/8" = 1'-0"
140
0.125
141
12.0
290
     0
  0
SCALE
  5
53
102
{ACAD_REACTORS
330
3B
102
}
330
3B
100
AcDbScale
 70
     0
300
3/16" = 1'-0"
140
0.1875
141
12.0
290
     0
  0
SCALE
  5
54
102
{ACAD_REACTORS
330
3B
102
}
330
3B
100
AcDbScale
 70
     0
300
1/4" = 1'-0"
140
0.25
141
12.0
290
     0
  0
SCALE
  5
55
102
{ACAD_REACTORS
330
3B
102
}
330
3B
100
AcDbScale
 70
     0
300
3/8" = 1'-0"
140
0.375
141
12.0
290
     0
  0
SCALE
  5
56
102
{ACAD_REACTORS
330
3B
102
}
330
3B
100
AcDbScale
 70
     0
300
1/2" = 1'-0"
140
0.5
141
12.0
290
     0
  0
SCALE
  5
57
102
{ACAD_REACTORS
330
3B
102
}
330
3B
100
AcDbScale
 70
     0
300
3/4" = 1'-0"
140
0.75
141
12.0
290
     0
  0
SCALE
  5
58
102
{ACAD_REACTORS
330
3B
102
}
330
3B
100
AcDbScale
 70
     0
300
1" = 1'-0"
140
1.0
141
12.0
290
     0
  0
SCALE
  5
59
102
{ACAD_REACTORS
330
3B
102
}
330
3B
100
AcDbScale
 70
     0
300
1-1/2" = 1'-0"
140
1.5
141
12.0
290
     0
  0
SCALE
  5
5A
102
{ACAD_REACTORS
330
3B
102
}
330
3B
100
AcDbScale
 70
     0
300
3" = 1'-0"
140
3.0
141
12.0
290
     0
  0
SCALE
  5
5B
102
{ACAD_REACTORS
330
3B
102
}
330
3B
100
AcDbScale
 70
     0
300
6" = 1'-0"
140
6.0
141
12.0
290
     0
  0
SCALE
  5
5C
102
{ACAD_REACTORS
330
3B
102
}
330
3B
100
AcDbScale
 70
     0
300
1'-0" = 1'-0"
140
12.0
141
12.0
290
     0
  0
VISUALSTYLE
  5
2F
102
{ACAD_REACTORS
330
2A
102
}
330
2A
100
AcDbVisualStyle
  2
2dWireframe
 70
     4
 71
     0
 72
     2
 73
     0
 90
        0
 40
-0.6
 41
-30.0
 62
     5
 63
     7
 74
     1
 91
        4
 64
     7
 65
   257
 75
     1
175
     1
 42
1.0
 92
        0
 66
   257
 43
1.0
 76
     1
 77
     6
 78
     2
 67
     7
 79
     5
170
     0
171
     0
290
     0
174
     0
 93
        1
 44
0.0
173
     0
291
     0
 45
0.0
1001
ACAD
1000
AcDbSavedByObjectVersion
1070
     0
  0
VISUALSTYLE
  5
31
102
{ACAD_REACTORS
330
2A
102
}
330
2A
100
AcDbVisualStyle
  2
3D Hidden
 70
     6
 71
     1
 72
     2
 73
     2
 90
        0
 40
-0.6
 41
-30.0
 62
     5
 63
     7
 74
     2
 91
        2
 64
     7
 65
   257
 75
     2
175
     1
 42
40.0
 92
        0
 66
   257
 43
1.0
 76
     1
 77
     6
 78
     2
 67
     7
 79
     3
170
     0
171
     0
290
     0
174
     0
 93
        1
 44
0.0
173
     0
291
     0
 45
0.0
1001
ACAD
1000
AcDbSavedByObjectVersion
1070
     0
  0
VISUALSTYLE
  5
30
102
{ACAD_REACTORS
330
2A
102
}
330
2A
100
AcDbVisualStyle
  2
3dWireframe
 70
     5
 71
     0
 72
     2
 73
     0
 90
        0
 40
-0.6
 41
-30.0
 62
     5
 63
     7
 74
     1
 91
        4
 64
     7
 65
   257
 75
     1
175
     1
 42
1.0
 92
        0
 66
   257
 43
1.0
 76
     1
 77
     6
 78
     2
 67
     7
 79
     5
170
     0
171
     0
290
     0
174
     0
 93
        1
 44
0.0
173
     0
291
     0
 45
0.0
1001
ACAD
1000
AcDbSavedByObjectVersion
1070
     0
  0
VISUALSTYLE
  5
32
102
{ACAD_REACTORS
330
2A
102
}
330
2A
100
AcDbVisualStyle
  2
Basic
 70
     7
 71
     1
 72
     0
 73
     1
 90
        0
 40
-0.6
 41
-30.0
 62
     5
 63
     7
 74
     0
 91
        4
 64
     7
 65
   257
 75
     1
175
     1
 42
1.0
 92
        8
 66
     7
 43
1.0
 76
     1
 77
     6
 78
     2
 67
     7
 79
     5
170
     0
171
     0
290
     0
174
     0
 93
        1
 44
0.0
173
     0
291
     1
 45
0.0
1001
ACAD
1000
AcDbSavedByObjectVersion
1070
     0
  0
VISUALSTYLE
  5
36
102
{ACAD_REACTORS
330
2A
102
}
330
2A
100
AcDbVisualStyle
  2
Brighten
 70
    12
 71
     2
 72
     2
 73
     0
 90
        0
 40
-0.6
 41
-30.0
 62
     5
 63
     7
 74
     1
 91
        4
 64
     7
 65
   257
 75
     1
175
     1
 42
1.0
 92
        8
 66
     7
 43
1.0
 76
     1
 77
     6
 78
     2
 67
     7
 79
     5
170
     0
171
     0
290
     0
174
     0
 93
        1
 44
50.0
173
     0
291
     1
 45
0.0
1001
ACAD
1000
AcDbSavedByObjectVersion
1070
     0
  0
VISUALSTYLE
  5
3A
102
{ACAD_REACTORS
330
2A
102
}
330
2A
100
AcDbVisualStyle
  2
ColorChange
 70
    16
 71
     2
 72
     2
 73
     3
 90
        0
 40
-0.6
 41
-30.0
 62
     5
 63
     8
 74
     1
 91
        4
 64
     7
 65
   257
 75
     1
175
     1
 42
1.0
 92
        8
 66
     8
 43
1.0
 76
     1
 77
     6
 78
     2
 67
     7
 79
     5
170
     0
171
     0
290
     0
174
     0
 93
        1
 44
0.0
173
     0
291
     1
 45
0.0
1001
ACAD
1000
AcDbSavedByObjectVersion
1070
     0
  0
VISUALSTYLE
  5
34
102
{ACAD_REACTORS
330
2A
102
}
330
2A
100
AcDbVisualStyle
  2
Conceptual
 70
     9
 71
     3
 72
     2
 73
     0
 90
        0
 40
-0.6
 41
-30.0
 62
     5
 63
     7
 74
     2
 91
        2
 64
     7
 65
   257
 75
     1
175
     1
 42
40.0
 92
        8
 66
     7
 43
1.0
 76
     1
 77
     6
 78
     2
 67
     7
 79
     3
170
     0
171
     0
290
     0
174
     0
 93
        1
 44
0.0
173
     0
291
     0
 45
0.0
1001
ACAD
1000
AcDbSavedByObjectVersion
1070
     0
  0
VISUALSTYLE
  5
35
102
{ACAD_REACTORS
330
2A
102
}
330
2A
100
AcDbVisualStyle
  2
Dim
 70
    11
 71
     2
 72
     2
 73
     0
 90
        0
 40
-0.6
 41
-30.0
 62
     5
 63
     7
 74
     1
 91
        4
 64
     7
 65
   257
 75
     1
175
     1
 42
1.0
 92
        8
 66
     7
 43
1.0
 76
     1
 77
     6
 78
     2
 67
     7
 79
     5
170
     0
171
     0
290
     0
174
     0
 93
        1
 44
-50.0
173
     0
291
     1
 45
0.0
1001
ACAD
1000
AcDbSavedByObjectVersion
1070
     0
  0
VISUALSTYLE
  5
39
102
{ACAD_REACTORS
330
2A
102
}
330
2A
100
AcDbVisualStyle
  2
Facepattern
 70
    15
 71
     2
 72
     2
 73
     0
 90
        0
 40
-0.6
 41
-30.0
 62
     5
 63
     7
 74
     1
 91
        4
 64
     7
 65
   257
 75
     1
175
     1
 42
1.0
 92
        8
 66
     7
 43
1.0
 76
     1
 77
     6
 78
     2
 67
     7
 79
     5
170
     0
171
     0
290
     0
174
     0
 93
        1
 44
0.0
173
     0
291
     1
 45
0.0
1001
ACAD
1000
AcDbSavedByObjectVersion
1070
     0
  0
VISUALSTYLE
  5
2B
102
{ACAD_REACTORS
330
2A
102
}
330
2A
100
AcDbVisualStyle
  2
Flat
 70
     0
 71
     2
 72
     1
 73
     1
 90
        2
 40
-0.6
 41
30.0
 62
     5
 63
     7
 74
     0
 91
        4
 64
     7
 65
   257
 75
     1
175
     1
 42
1.0
 92
        8
 66
     7
 43
1.0
 76
     1
 77
     6
 78
     2
 67
     7
 79
     5
170
     0
171
     0
290
     0
174
     0
 93
       13
 44
0.0
173
     0
291
     1
 45
0.0
1001
ACAD
1000
AcDbSavedByObjectVersion
1070
     0
  0
VISUALSTYLE
  5
2C
102
{ACAD_REACTORS
330
2A
102
}
330
2A
100
AcDbVisualStyle
  2
FlatWithEdges
 70
     1
 71
     2
 72
     1
 73
     1
 90
        2
 40
-0.6
 41
30.0
 62
     5
 63
     7
 74
     1
 91
        4
 64
     7
 65
   257
 75
     1
175
     1
 42
1.0
 92
        0
 66
   257
 43
1.0
 76
     1
 77
     6
 78
     2
 67
     7
 79
     5
170
     0
171
     0
290
     0
174
     0
 93
       13
 44
0.0
173
     0
291
     1
 45
0.0
1001
ACAD
1000
AcDbSavedByObjectVersion
1070
     0
  0
VISUALSTYLE
  5
2D
102
{ACAD_REACTORS
330
2A
102
}
330
2A
100
AcDbVisualStyle
  2
Gouraud
 70
     2
 71
     2
 72
     2
 73
     1
 90
        2
 40
-0.6
 41
30.0
 62
     5
 63
     7
 74
     0
 91
        4
 64
     7
 65
   257
 75
     1
175
     1
 42
1.0
 92
        0
 66
     7
 43
1.0
 76
     1
 77
     6
 78
     2
 67
     7
 79
     5
170
     0
171
     0
290
     0
174
     0
 93
       13
 44
0.0
173
     0
291
     1
 45
0.0
1001
ACAD
1000
AcDbSavedByObjectVersion
1070
     0
  0
VISUALSTYLE
  5
2E
102
{ACAD_REACTORS
330
2A
102
}
330
2A
100
AcDbVisualStyle
  2
GouraudWithEdges
 70
     3
 71
     2
 72
     2
 73
     1
 90
        2
 40
-0.6
 41
30.0
 62
     5
 63
     7
 74
     1
 91
        4
 64
     7
 65
   257
 75
     1
175
     1
 42
1.0
 92
        0
 66
   257
 43
1.0
 76
     1
 77
     6
 78
     2
 67
     7
 79
     5
170
     0
171
     0
290
     0
174
     0
 93
       13
 44
0.0
173
     0
291
     1
 45
0.0
1001
ACAD
1000
AcDbSavedByObjectVersion
1070
     0
  0
VISUALSTYLE
  5
38
102
{ACAD_REACTORS
330
2A
102
}
330
2A
100
AcDbVisualStyle
  2
Linepattern
 70
    14
 71
     2
 72
     2
 73
     0
 90
        0
 40
-0.6
 41
-30.0
 62
     5
 63
     7
 74
     1
 91
        4
 64
     7
 65
   257
 75
     7
175
     7
 42
1.0
 92
        8
 66
     7
 43
1.0
 76
     1
 77
     6
 78
     2
 67
     7
 79
     5
170
     0
171
     0
290
     0
174
     0
 93
        1
 44
0.0
173
     0
291
     1
 45
0.0
1001
ACAD
1000
AcDbSavedByObjectVersion
1070
     0
  0
VISUALSTYLE
  5
33
102
{ACAD_REACTORS
330
2A
102
}
330
2A
100
AcDbVisualStyle
  2
Realistic
 70
     8
 71
     2
 72
     2
 73
     0
 90
        0
 40
-0.6
 41
-30.0
 62
     5
 63
     7
 74
     1
 91
        0
 64
     7
 65
   257
 75
     1
175
     1
 42
1.0
 92
        8
 66
     8
 43
1.0
 76
     1
 77
     6
 78
     2
 67
     7
 79
     5
170
     0
171
     0
290
     0
174
     0
 93
       13
 44
0.0
173
     0
291
     0
 45
0.0
1001
ACAD
1000
AcDbSavedByObjectVersion
1070
     0
  0
VISUALSTYLE
  5
37
102
{ACAD_REACTORS
330
2A
102
}
330
2A
100
AcDbVisualStyle
  2
Thicken
 70
    13
 71
     2
 72
     2
 73
     0
 90
        0
 40
-0.6
 41
-30.0
 62
     5
 63
     7
 74
     1
 91
        4
 64
     7
 65
   257
 75
     1
175
     1
 42
1.0
 92
       12
 66
     7
 43
1.0
 76
     1
 77
     6
 78
     2
 67
     7
 79
     5
170
     0
171
     0
290
     0
174
     0
 93
        1
 44
0.0
173
     0
291
     1
 45
0.0
1001
ACAD
1000
AcDbSavedByObjectVersion
1070
     0
  0
DICTIONARYVAR
  5
18B
102
{ACAD_REACTORS
330
18A
102
}
330
18A
100
DictionaryVariables
280
     0
  1
1:1
  0
DICTIONARYVAR
  5
18F
102
{ACAD_REACTORS
330
18A
102
}
330
18A
100
DictionaryVariables
280
     0
  1
80.000000
  0
DICTIONARYVAR
  5
18E
102
{ACAD_REACTORS
330
18A
102
}
330
18A
100
DictionaryVariables
280
     0
  1
5.000000
  0
ENDSEC
  0
EOF
