  0
SECTION
  2
HEADER
  9
$ACADVER
  1
AC1015
  9
$ACADMAINTVER
 70
     6
  9
$DWGCODEPAGE
  3
ANSI_1252
  9
$INSBASE
 10
0.0
 20
0.0
 30
0.0
  9
$EXTMIN
 10
0.0
 20
0.0
 30
0.0
  9
$EXTMAX
 10
3000.0
 20
4500.0
 30
0.0
  9
$LIMMIN
 10
0.0
 20
0.0
  9
$LIMMAX
 10
3000.0
 20
4500.0
  9
$ORTHOMODE
 70
     0
  9
$REGENMODE
 70
     1
  9
$FILLMODE
 70
     1
  9
$QTEXTMODE
 70
     0
  9
$MIRRTEXT
 70
     1
  9
$LTSCALE
 40
1.0
  9
$ATTMODE
 70
     1
  9
$TEXTSIZE
 40
2.5
  9
$TRACEWID
 40
1.0
  9
$TEXTSTYLE
  7
Standard
  9
$CLAYER
  8
0
  9
$CELTYPE
  6
ByLayer
  9
$CECOLOR
 62
   256
  9
$CELTSCALE
 40
1.0
  9
$DISPSILH
 70
     0
  9
$DIMSCALE
 40
1.0
  9
$DIMASZ
 40
2.5
  9
$DIMEXO
 40
0.625
  9
$DIMDLI
 40
3.75
  9
$DIMRND
 40
0.0
  9
$DIMDLE
 40
0.0
  9
$DIMEXE
 40
1.25
  9
$DIMTP
 40
0.0
  9
$DIMTM
 40
0.0
  9
$DIMTXT
 40
2.5
  9
$DIMCEN
 40
2.5
  9
$DIMTSZ
 40
0.0
  9
$DIMTOL
 70
     0
  9
$DIMLIM
 70
     0
  9
$DIMTIH
 70
     0
  9
$DIMTOH
 70
     0
  9
$DIMSE1
 70
     0
  9
$DIMSE2
 70
     0
  9
$DIMTAD
 70
     1
  9
$DIMZIN
 70
     8
  9
$DIMBLK
  1

  9
$DIMASO
 70
     1
  9
$DIMSHO
 70
     1
  9
$DIMPOST
  1

  9
$DIMAPOST
  1

  9
$DIMALT
 70
     0
  9
$DIMALTD
 70
     3
  9
$DIMALTF
 40
0.0393700787
  9
$DIMLFAC
 40
1.0
  9
$DIMTOFL
 70
     1
  9
$DIMTVP
 40
0.0
  9
$DIMTIX
 70
     0
  9
$DIMSOXD
 70
     0
  9
$DIMSAH
 70
     0
  9
$DIMBLK1
  1

  9
$DIMBLK2
  1

  9
$DIMSTYLE
  2
ISO-25
  9
$DIMCLRD
 70
     0
  9
$DIMCLRE
 70
     0
  9
$DIMCLRT
 70
     0
  9
$DIMTFAC
 40
1.0
  9
$DIMGAP
 40
0.625
  9
$DIMJUST
 70
     0
  9
$DIMSD1
 70
     0
  9
$DIMSD2
 70
     0
  9
$DIMTOLJ
 70
     0
  9
$DIMTZIN
 70
     8
  9
$DIMALTZ
 70
     0
  9
$DIMALTTZ
 70
     0
  9
$DIMUPT
 70
     0
  9
$DIMDEC
 70
     2
  9
$DIMTDEC
 70
     2
  9
$DIMALTU
 70
     2
  9
$DIMALTTD
 70
     3
  9
$DIMTXSTY
  7
Standard
  9
$DIMAUNIT
 70
     0
  9
$DIMADEC
 70
     0
  9
$DIMALTRND
 40
0.0
  9
$DIMAZIN
 70
     0
  9
$DIMDSEP
 70
    44
  9
$DIMATFIT
 70
     3
  9
$DIMFRAC
 70
     0
  9
$DIMLDRBLK
  1

  9
$DIMLUNIT
 70
     2
  9
$DIMLWD
 70
    -2
  9
$DIMLWE
 70
    -2
  9
$DIMTMOVE
 70
     0
  9
$LUNITS
 70
     2
  9
$LUPREC
 70
     4
  9
$SKETCHINC
 40
1.0
  9
$FILLETRAD
 40
10.0
  9
$AUNITS
 70
     0
  9
$AUPREC
 70
     0
  9
$MENU
  1
.
  9
$ELEVATION
 40
0.0
  9
$PELEVATION
 40
0.0
  9
$THICKNESS
 40
0.0
  9
$LIMCHECK
 70
     0
  9
$CHAMFERA
 40
10.0
  9
$CHAMFERB
 40
10.0
  9
$CHAMFERC
 40
20.0
  9
$CHAMFERD
 40
0.0
  9
$SKPOLY
 70
     0
  9
$TDCREATE
 40
2456135.551037269
  9
$TDUCREATE
 40
2456135.467703935
  9
$TDUPDATE
 40
2456135.55103728
  9
$TDUUPDATE
 40
2456135.467703947
  9
$TDINDWG
 40
0.0000000116
  9
$TDUSRTIMER
 40
0.0000000116
  9
$USRTIMER
 70
     1
  9
$ANGBASE
 50
0.0
  9
$ANGDIR
 70
     0
  9
$PDMODE
 70
     0
  9
$PDSIZE
 40
0.0
  9
$PLINEWID
 40
0.0
  9
$SPLFRAME
 70
     0
  9
$SPLINETYPE
 70
     6
  9
$SPLINESEGS
 70
     8
  9
$HANDSEED
  5
151
  9
$SURFTAB1
 70
     6
  9
$SURFTAB2
 70
     6
  9
$SURFTYPE
 70
     6
  9
$SURFU
 70
     6
  9
$SURFV
 70
     6
  9
$UCSBASE
  2

  9
$UCSNAME
  2

  9
$UCSORG
 10
0.0
 20
0.0
 30
0.0
  9
$UCSXDIR
 10
1.0
 20
0.0
 30
0.0
  9
$UCSYDIR
 10
0.0
 20
1.0
 30
0.0
  9
$UCSORTHOREF
  2

  9
$UCSORTHOVIEW
 70
     0
  9
$UCSORGTOP
 10
0.0
 20
0.0
 30
0.0
  9
$UCSORGBOTTOM
 10
0.0
 20
0.0
 30
0.0
  9
$UCSORGLEFT
 10
0.0
 20
0.0
 30
0.0
  9
$UCSORGRIGHT
 10
0.0
 20
0.0
 30
0.0
  9
$UCSORGFRONT
 10
0.0
 20
0.0
 30
0.0
  9
$UCSORGBACK
 10
0.0
 20
0.0
 30
0.0
  9
$PUCSBASE
  2

  9
$PUCSNAME
  2

  9
$PUCSORG
 10
0.0
 20
0.0
 30
0.0
  9
$PUCSXDIR
 10
1.0
 20
0.0
 30
0.0
  9
$PUCSYDIR
 10
0.0
 20
1.0
 30
0.0
  9
$PUCSORTHOREF
  2

  9
$PUCSORTHOVIEW
 70
     0
  9
$PUCSORGTOP
 10
0.0
 20
0.0
 30
0.0
  9
$PUCSORGBOTTOM
 10
0.0
 20
0.0
 30
0.0
  9
$PUCSORGLEFT
 10
0.0
 20
0.0
 30
0.0
  9
$PUCSORGRIGHT
 10
0.0
 20
0.0
 30
0.0
  9
$PUCSORGFRONT
 10
0.0
 20
0.0
 30
0.0
  9
$PUCSORGBACK
 10
0.0
 20
0.0
 30
0.0
  9
$USERI1
 70
     0
  9
$USERI2
 70
     0
  9
$USERI3
 70
     0
  9
$USERI4
 70
     0
  9
$USERI5
 70
     0
  9
$USERR1
 40
0.0
  9
$USERR2
 40
0.0
  9
$USERR3
 40
0.0
  9
$USERR4
 40
0.0
  9
$USERR5
 40
0.0
  9
$WORLDVIEW
 70
     1
  9
$SHADEDGE
 70
     3
  9
$SHADEDIF
 70
    70
  9
$TILEMODE
 70
     1
  9
$MAXACTVP
 70
    64
  9
$PINSBASE
 10
0.0
 20
0.0
 30
0.0
  9
$PLIMCHECK
 70
     0
  9
$PEXTMIN
 10
0.0
 20
0.0
 30
0.0
  9
$PEXTMAX
 10
3000.0
 20
4500.0
 30
0.0
  9
$PLIMMIN
 10
0.0
 20
0.0
  9
$PLIMMAX
 10
3000.0
 20
4500.0
  9
$UNITMODE
 70
     0
  9
$VISRETAIN
 70
     1
  9
$PLINEGEN
 70
     0
  9
$PSLTSCALE
 70
     1
  9
$TREEDEPTH
 70
  3020
  9
$CMLSTYLE
  2
Standard
  9
$CMLJUST
 70
     0
  9
$CMLSCALE
 40
20.0
  9
$PROXYGRAPHICS
 70
     1
  9
$MEASUREMENT
 70
     1
  9
$CELWEIGHT
370
    -1
  9
$ENDCAPS
280
     0
  9
$JOINSTYLE
280
     0
  9
$LWDISPLAY
290
     0
  9
$INSUNITS
 70
     4
  9
$HYPERLINKBASE
  1

  9
$STYLESHEET
  1

  9
$XEDIT
290
     1
  9
$CEPSNTYPE
380
     0
  9
$PSTYLEMODE
290
     1
  9
$FINGERPRINTGUID
  2
{6C651230-1917-4173-B61A-F118F98E43A7}
  9
$VERSIONGUID
  2
{FAEB1C32-E019-11D5-929B-00C0DF256EC4}
  9
$EXTNAMES
290
     1
  9
$PSVPSCALE
 40
0.0
  9
$OLESTARTUP
290
     0
  0
ENDSEC
  0
SECTION
  2
CLASSES
  0
CLASS
  1
ACDBDICTIONARYWDFLT
  2
AcDbDictionaryWithDefault
  3
ObjectDBX Classes
 90
        0
280
     0
281
     0
  0
CLASS
  1
VISUALSTYLE
  2
AcDbVisualStyle
  3
ObjectDBX Classes
 90
     4095
280
     0
281
     0
  0
CLASS
  1
SCALE
  2
AcDbScale
  3
ObjectDBX Classes
 90
     1153
280
     0
281
     0
  0
CLASS
  1
DICTIONARYVAR
  2
AcDbDictionaryVar
  3
ObjectDBX Classes
 90
        0
280
     0
281
     0
  0
CLASS
  1
ACDBPLACEHOLDER
  2
AcDbPlaceHolder
  3
ObjectDBX Classes
 90
        0
280
     0
281
     0
  0
CLASS
  1
LAYOUT
  2
AcDbLayout
  3
ObjectDBX Classes
 90
        0
280
     0
281
     0
  0
ENDSEC
  0
SECTION
  2
TABLES
  0
TABLE
  2
VPORT
  5
8
330
0
100
AcDbSymbolTable
 70
     1
  0
VPORT
  5
29
330
8
100
AcDbSymbolTableRecord
100
AcDbViewportTableRecord
  2
*Active
 70
     0
 10
0.0
 20
0.0
 11
1.0
 21
1.0
 12
344.1869158879
 22
148.5
 13
0.0
 23
0.0
 14
10.0
 24
10.0
 15
10.0
 25
10.0
 16
0.0
 26
0.0
 36
1.0
 17
0.0
 27
0.0
 37
0.0
 40
297.0
 41
1.9729729729
 42
50.0
 43
0.0
 44
0.0
 50
0.0
 51
0.0
 71
     0
 72
   100
 73
     1
 74
     3
 75
     0
 76
     0
 77
     0
 78
     0
281
     0
 65
     1
110
0.0
120
0.0
130
0.0
111
1.0
121
0.0
131
0.0
112
0.0
122
1.0
132
0.0
 79
     0
146
0.0
  0
ENDTAB
  0
TABLE
  2
LTYPE
  5
5
330
0
100
AcDbSymbolTable
 70
     2
  0
LTYPE
  5
14
330
5
100
AcDbSymbolTableRecord
100
AcDbLinetypeTableRecord
  2
ByBlock
 70
     0
  3

 72
    65
 73
     0
 40
0.0
  0
LTYPE
  5
15
330
5
100
AcDbSymbolTableRecord
100
AcDbLinetypeTableRecord
  2
ByLayer
 70
     0
  3

 72
    65
 73
     0
 40
0.0
  0
LTYPE
  5
16
330
5
100
AcDbSymbolTableRecord
100
AcDbLinetypeTableRecord
  2
Continuous
 70
     0
  3
Solid line
 72
    65
 73
     0
 40
0.0
  0
LTYPE
  5
60
330
5
100
AcDbSymbolTableRecord
100
AcDbLinetypeTableRecord
  2
CENTER2
 70
     0
  3
Center (.5x) ___ _ ___ _ ___ _ ___ _ ___ _ ___
 72
    65
 73
     4
 40
28.575
 49
19.05
 74
     4
 75
     0
340
0
 46
0.0
 50
0.0
 44
0.0
 45
0.0
 49
-3.175
 74
     4
 75
     0
340
0
 46
0.0
 50
0.0
 44
0.0
 45
0.0
 49
3.175
 74
     4
 75
     0
340
0
 46
0.0
 50
0.0
 44
0.0
 45
0.0
 49
-3.175
 74
     4
 75
     0
340
0
 46
0.0
 50
0.0
 44
0.0
 45
0.0
  0
ENDTAB
  0
TABLE
  2
LAYER
  5
2
330
0
100
AcDbSymbolTable
 70
     5
  0
LAYER
  5
10
330
2
100
AcDbSymbolTableRecord
100
AcDbLayerTableRecord
  2
0
 70
     0
 62
     7
  6
Continuous
370
    -3
390
F
  0
LAYER
  5
5D
330
2
100
AcDbSymbolTableRecord
100
AcDbLayerTableRecord
  2
Default
 70
     0
 62
     7
  6
Continuous
370
    -3
390
F
  0
LAYER
  5
87
330
2
100
AcDbSymbolTableRecord
100
AcDbLayerTableRecord
  2
DV1_Default
 70
     0
 62
     7
  6
Continuous
370
    -3
390
F
  0
LAYER
  5
C6
330
2
100
AcDbSymbolTableRecord
100
AcDbLayerTableRecord
  2
DV2_Default
 70
     0
 62
     7
  6
Continuous
370
    -3
390
F
  0
LAYER
  5
EC
330
2
100
AcDbSymbolTableRecord
100
AcDbLayerTableRecord
  2
DV3_Default
 70
     0
 62
     7
  6
Continuous
370
    -3
390
F
  0
ENDTAB
  0
TABLE
  2
STYLE
  5
3
330
0
100
AcDbSymbolTable
 70
     2
  0
STYLE
  5
11
330
3
100
AcDbSymbolTableRecord
100
AcDbTextStyleTableRecord
  2
Standard
 70
     0
 40
0.0
 41
1.0
 50
0.0
 71
     0
 42
2.5
  3
txt
  4

  0
STYLE
  5
140
330
3
100
AcDbSymbolTableRecord
100
AcDbTextStyleTableRecord
  2
SEACAD_seiso_ttf
 70
     0
 40
0.0
 41
1.0
 50
0.0
 71
     0
 42
0.2
  3
seiso.ttf
  4

  0
ENDTAB
  0
TABLE
  2
VIEW
  5
6
330
0
100
AcDbSymbolTable
 70
     0
  0
ENDTAB
  0
TABLE
  2
UCS
  5
7
330
0
100
AcDbSymbolTable
 70
     0
  0
ENDTAB
  0
TABLE
  2
APPID
  5
9
330
0
100
AcDbSymbolTable
 70
     1
  0
APPID
  5
12
330
9
100
AcDbSymbolTableRecord
100
AcDbRegAppTableRecord
  2
ACAD
 70
     0
  0
ENDTAB
  0
TABLE
  2
DIMSTYLE
  5
A
330
0
100
AcDbSymbolTable
 70
     1
100
AcDbDimStyleTable
  0
DIMSTYLE
105
27
330
A
100
AcDbSymbolTableRecord
100
AcDbDimStyleTableRecord
  2
ISO-25
 70
     0
 41
2.5
 42
0.625
 43
3.75
 44
1.25
 73
     0
 74
     0
 77
     1
 78
     8
140
2.5
141
2.5
143
0.0393700787
147
0.625
171
     3
172
     1
271
     2
272
     2
274
     3
278
    44
283
     0
284
     8
340
11
  0
ENDTAB
  0
TABLE
  2
BLOCK_RECORD
  5
1
330
0
100
AcDbSymbolTable
 70
     9
  0
BLOCK_RECORD
  5
1F
330
1
100
AcDbSymbolTableRecord
100
AcDbBlockTableRecord
  2
*Model_Space
340
22
  0
BLOCK_RECORD
  5
1B
330
1
100
AcDbSymbolTableRecord
100
AcDbBlockTableRecord
  2
*Paper_Space
340
1E
  0
BLOCK_RECORD
  5
5E
330
1
100
AcDbSymbolTableRecord
100
AcDbBlockTableRecord
  2
SEANNOT_GROUP
340
0
102
{BLKREFS
331
5F
102
}
  0
BLOCK_RECORD
  5
65
330
1
100
AcDbSymbolTableRecord
100
AcDbBlockTableRecord
  2
SEANNOT_GROUP1
340
0
102
{BLKREFS
331
66
102
}
  0
BLOCK_RECORD
  5
6F
330
1
100
AcDbSymbolTableRecord
100
AcDbBlockTableRecord
  2
SEANNOT_GROUP2
340
0
102
{BLKREFS
331
70
102
}
  0
BLOCK_RECORD
  5
79
330
1
100
AcDbSymbolTableRecord
100
AcDbBlockTableRecord
  2
SEANNOT_GROUP3
340
0
102
{BLKREFS
331
7A
102
}
  0
BLOCK_RECORD
  5
7F
330
1
100
AcDbSymbolTableRecord
100
AcDbBlockTableRecord
  2
SEANNOT_GROUP4
340
0
102
{BLKREFS
331
80
102
}
  0
BLOCK_RECORD
  5
85
330
1
100
AcDbSymbolTableRecord
100
AcDbBlockTableRecord
  2
SE
340
0
102
{BLKREFS
331
86
102
}
  0
BLOCK_RECORD
  5
C4
330
1
100
AcDbSymbolTableRecord
100
AcDbBlockTableRecord
  2
SE1
340
0
102
{BLKREFS
331
C5
102
}
  0
BLOCK_RECORD
  5
EA
330
1
100
AcDbSymbolTableRecord
100
AcDbBlockTableRecord
  2
SE2
340
0
102
{BLKREFS
331
EB
102
}
  0
ENDTAB
  0
ENDSEC
  0
SECTION
  2
BLOCKS
  0
BLOCK
  5
20
330
1F
100
AcDbEntity
  8
0
100
AcDbBlockBegin
  2
*Model_Space
 70
     0
 10
0.0
 20
0.0
 30
0.0
  3
*Model_Space
  1

  0
ENDBLK
  5
21
330
1F
100
AcDbEntity
  8
0
100
AcDbBlockEnd
  0
BLOCK
  5
1C
330
1B
100
AcDbEntity
 67
     1
  8
0
100
AcDbBlockBegin
  2
*Paper_Space
 70
     0
 10
0.0
 20
0.0
 30
0.0
  3
*Paper_Space
  1

  0
ENDBLK
  5
1D
330
1B
100
AcDbEntity
 67
     1
  8
0
100
AcDbBlockEnd
  0
BLOCK
  5
63
330
5E
100
AcDbEntity
  8
0
100
AcDbBlockBegin
  2
SEANNOT_GROUP
 70
     0
 10
0.0
 20
0.0
 30
0.0
  3
SEANNOT_GROUP
  1

  0
LINE
  5
61
330
5E
100
AcDbEntity
  8
Default
  6
CENTER2
 62
     7
100
AcDbLine
 10
702.0470061452
 20
546.4927779085
 30
0.0
 11
662.0470070392
 21
546.4927779085
 31
0.0
  0
LINE
  5
62
330
5E
100
AcDbEntity
  8
Default
  6
CENTER2
 62
     7
100
AcDbLine
 10
682.0470065922
 20
566.4927774615
 30
0.0
 11
682.0470065922
 21
526.4927783556
 31
0.0
  0
ENDBLK
  5
64
330
5E
100
AcDbEntity
  8
0
100
AcDbBlockEnd
  0
BLOCK
  5
6D
330
65
100
AcDbEntity
  8
0
100
AcDbBlockBegin
  2
SEANNOT_GROUP1
 70
     0
 10
0.0
 20
0.0
 30
0.0
  3
SEANNOT_GROUP1
  1

  0
LINE
  5
67
330
65
100
AcDbEntity
  8
Default
  6
CENTER2
 62
     7
100
AcDbLine
 10
590.3499995529
 20
546.4927779085
 30
0.0
 11
550.350000447
 21
546.4927779085
 31
0.0
  0
LINE
  5
68
330
65
100
AcDbEntity
  8
Default
  6
CENTER2
 62
     7
100
AcDbLine
 10
570.35
 20
566.4927774615
 30
0.0
 11
570.35
 21
526.4927783556
 31
0.0
  0
LINE
  5
69
330
65
100
AcDbEntity
  8
Default
  6
CENTER2
 62
     7
100
AcDbLine
 10
595.3499994412
 20
546.4927779085
 30
0.0
 11
595.85
 21
546.4927779085
 31
0.0
  0
LINE
  5
6A
330
65
100
AcDbEntity
  8
Default
  6
CENTER2
 62
     7
100
AcDbLine
 10
570.35
 20
571.4927773497
 30
0.0
 11
570.35
 21
571.9927779085
 31
0.0
  0
LINE
  5
6B
330
65
100
AcDbEntity
  8
Default
  6
CENTER2
 62
     7
100
AcDbLine
 10
545.3500005588
 20
546.4927779085
 30
0.0
 11
544.85
 21
546.4927779085
 31
0.0
  0
LINE
  5
6C
330
65
100
AcDbEntity
  8
Default
  6
CENTER2
 62
     7
100
AcDbLine
 10
570.35
 20
521.4927784673
 30
0.0
 11
570.35
 21
520.9927779085
 31
0.0
  0
ENDBLK
  5
6E
330
65
100
AcDbEntity
  8
0
100
AcDbBlockEnd
  0
BLOCK
  5
77
330
6F
100
AcDbEntity
  8
0
100
AcDbBlockBegin
  2
SEANNOT_GROUP2
 70
     0
 10
0.0
 20
0.0
 30
0.0
  3
SEANNOT_GROUP2
  1

  0
LINE
  5
71
330
6F
100
AcDbEntity
  8
Default
  6
CENTER2
 62
     7
100
AcDbLine
 10
48.349999553
 20
546.4927779085
 30
0.0
 11
8.350000447
 21
546.4927779085
 31
0.0
  0
LINE
  5
72
330
6F
100
AcDbEntity
  8
Default
  6
CENTER2
 62
     7
100
AcDbLine
 10
28.35
 20
566.4927774615
 30
0.0
 11
28.35
 21
526.4927783556
 31
0.0
  0
LINE
  5
73
330
6F
100
AcDbEntity
  8
Default
  6
CENTER2
 62
     7
100
AcDbLine
 10
53.3499994412
 20
546.4927779085
 30
0.0
 11
53.85
 21
546.4927779085
 31
0.0
  0
LINE
  5
74
330
6F
100
AcDbEntity
  8
Default
  6
CENTER2
 62
     7
100
AcDbLine
 10
28.35
 20
571.4927773497
 30
0.0
 11
28.35
 21
571.9927779085
 31
0.0
  0
LINE
  5
75
330
6F
100
AcDbEntity
  8
Default
  6
CENTER2
 62
     7
100
AcDbLine
 10
3.3500005588
 20
546.4927779085
 30
0.0
 11
2.85
 21
546.4927779085
 31
0.0
  0
LINE
  5
76
330
6F
100
AcDbEntity
  8
Default
  6
CENTER2
 62
     7
100
AcDbLine
 10
28.35
 20
521.4927784673
 30
0.0
 11
28.35
 21
520.9927779085
 31
0.0
  0
ENDBLK
  5
78
330
6F
100
AcDbEntity
  8
0
100
AcDbBlockEnd
  0
BLOCK
  5
7D
330
79
100
AcDbEntity
  8
0
100
AcDbBlockBegin
  2
SEANNOT_GROUP3
 70
     0
 10
0.0
 20
0.0
 30
0.0
  3
SEANNOT_GROUP3
  1

  0
LINE
  5
7B
330
79
100
AcDbEntity
  8
Default
  6
CENTER2
 62
     7
100
AcDbLine
 10
48.349999553
 20
384.8498941691
 30
0.0
 11
8.350000447
 21
384.8498941691
 31
0.0
  0
LINE
  5
7C
330
79
100
AcDbEntity
  8
Default
  6
CENTER2
 62
     7
100
AcDbLine
 10
28.35
 20
404.8498937221
 30
0.0
 11
28.35
 21
364.8498946162
 31
0.0
  0
ENDBLK
  5
7E
330
79
100
AcDbEntity
  8
0
100
AcDbBlockEnd
  0
BLOCK
  5
83
330
7F
100
AcDbEntity
  8
0
100
AcDbBlockBegin
  2
SEANNOT_GROUP4
 70
     0
 10
0.0
 20
0.0
 30
0.0
  3
SEANNOT_GROUP4
  1

  0
LINE
  5
81
330
7F
100
AcDbEntity
  8
Default
  6
CENTER2
 62
     7
100
AcDbLine
 10
590.3499995529
 20
384.8498941691
 30
0.0
 11
550.350000447
 21
384.8498941691
 31
0.0
  0
LINE
  5
82
330
7F
100
AcDbEntity
  8
Default
  6
CENTER2
 62
     7
100
AcDbLine
 10
570.35
 20
404.8498937221
 30
0.0
 11
570.35
 21
364.8498946162
 31
0.0
  0
ENDBLK
  5
84
330
7F
100
AcDbEntity
  8
0
100
AcDbBlockEnd
  0
BLOCK
  5
C2
330
85
100
AcDbEntity
  8
0
100
AcDbBlockBegin
  2
SE
 70
     0
 10
0.0
 20
0.0
 30
0.0
  3
SE
  1

  0
ARC
  5
88
330
85
100
AcDbEntity
  8
DV1_Default
  6
Continuous
 62
     7
100
AcDbCircle
 10
570.35
 20
546.4927779085
 30
0.0
 40
22.0
100
AcDbArc
 50
294.091631119
 51
0.0
  0
ARC
  5
89
330
85
100
AcDbEntity
  8
DV1_Default
  6
Continuous
 62
     7
100
AcDbCircle
 10
570.35
 20
546.4927779085
 30
0.0
 40
22.0
100
AcDbArc
 50
192.4498651235
 51
245.819112035
  0
ARC
  5
8A
330
85
100
AcDbEntity
  8
DV1_Default
  6
Continuous
 62
     7
100
AcDbCircle
 10
570.35
 20
546.4927779085
 30
0.0
 40
22.0
100
AcDbArc
 50
0.0
 51
167.2452447599
  0
ARC
  5
8B
330
85
100
AcDbEntity
  8
DV1_Default
  6
Continuous
 62
     7
100
AcDbCircle
 10
570.35
 20
546.4927779085
 30
0.0
 40
20.76093704644
100
AcDbArc
 50
0.0
 51
166.4699701276
  0
ARC
  5
8C
330
85
100
AcDbEntity
  8
DV1_Default
  6
Continuous
 62
     7
100
AcDbCircle
 10
570.35
 20
546.4927779085
 30
0.0
 40
20.76093704644
100
AcDbArc
 50
193.2059459571
 51
244.2741361167
  0
ARC
  5
8D
330
85
100
AcDbEntity
  8
DV1_Default
  6
Continuous
 62
     7
100
AcDbCircle
 10
570.35
 20
546.4927779085
 30
0.0
 40
20.76093704644
100
AcDbArc
 50
295.6300907042
 51
0.0
  0
ARC
  5
8E
330
85
100
AcDbEntity
  8
DV1_Default
  6
Continuous
 62
     7
100
AcDbCircle
 10
570.35
 20
546.4927779085
 30
0.0
 40
19.58041538147
100
AcDbArc
 50
297.2993016386
 51
0.0
  0
ARC
  5
8F
330
85
100
AcDbEntity
  8
DV1_Default
  6
Continuous
 62
     7
100
AcDbCircle
 10
570.35
 20
546.4927779085
 30
0.0
 40
19.58041538147
100
AcDbArc
 50
194.0179275205
 51
242.597660821
  0
ARC
  5
90
330
85
100
AcDbEntity
  8
DV1_Default
  6
Continuous
 62
     7
100
AcDbCircle
 10
570.35
 20
546.4927779085
 30
0.0
 40
19.58041538147
100
AcDbArc
 50
0.0
 51
165.6372375197
  0
ARC
  5
91
330
85
100
AcDbEntity
  8
DV1_Default
  6
Continuous
 62
     7
100
AcDbCircle
 10
570.35
 20
546.4927779085
 30
0.0
 40
17.79420549659
100
AcDbArc
 50
0.0
 51
164.1594591847
  0
ARC
  5
92
330
85
100
AcDbEntity
  8
DV1_Default
  6
Continuous
 62
     7
100
AcDbCircle
 10
570.35
 20
546.4927779085
 30
0.0
 40
17.79420549659
100
AcDbArc
 50
195.4585068563
 51
239.5733270682
  0
ARC
  5
93
330
85
100
AcDbEntity
  8
DV1_Default
  6
Continuous
 62
     7
100
AcDbCircle
 10
570.35
 20
546.4927779085
 30
0.0
 40
17.79420549659
100
AcDbArc
 50
300.3099522872
 51
0.0
  0
ARC
  5
94
330
85
100
AcDbEntity
  8
DV1_Default
  6
Continuous
 62
     7
100
AcDbCircle
 10
570.35
 20
546.4927779085
 30
0.0
 40
10.3156490566
100
AcDbArc
 50
0.0
 51
151.9105073316
  0
ARC
  5
95
330
85
100
AcDbEntity
  8
DV1_Default
  6
Continuous
 62
     7
100
AcDbCircle
 10
570.35
 20
546.4927779085
 30
0.0
 40
10.3156490566
100
AcDbArc
 50
330.5231626905
 51
0.0
  0
ARC
  5
96
330
85
100
AcDbEntity
  8
DV1_Default
  6
Continuous
 62
     7
100
AcDbCircle
 10
570.35
 20
546.4927779085
 30
0.0
 40
9.1
100
AcDbArc
 50
350.6980402358
 51
0.0
  0
ARC
  5
97
330
85
100
AcDbEntity
  8
DV1_Default
  6
Continuous
 62
     7
100
AcDbCircle
 10
570.35
 20
546.4927779085
 30
0.0
 40
9.1
100
AcDbArc
 50
118.8495978691
 51
147.740825226
  0
ARC
  5
98
330
85
100
AcDbEntity
  8
DV1_Default
  6
Continuous
 62
     7
100
AcDbCircle
 10
570.35
 20
546.4927779085
 30
0.0
 40
9.1
100
AcDbArc
 50
0.0
 51
104.2917670187
  0
ARC
  5
99
330
85
100
AcDbEntity
  8
DV1_Default
  6
Continuous
 62
     7
100
AcDbCircle
 10
28.35
 20
546.4927779085
 30
0.0
 40
22.0
100
AcDbArc
 50
294.0916311191
 51
347.5501348765
  0
ARC
  5
9A
330
85
100
AcDbEntity
  8
DV1_Default
  6
Continuous
 62
     7
100
AcDbCircle
 10
28.35
 20
546.4927779085
 30
0.0
 40
22.0
100
AcDbArc
 50
12.7547552401
 51
245.8191120349
  0
ARC
  5
9B
330
85
100
AcDbEntity
  8
DV1_Default
  6
Continuous
 62
     7
100
AcDbCircle
 10
28.35
 20
546.4927779085
 30
0.0
 40
20.76093704644
100
AcDbArc
 50
13.5300298724
 51
244.2741361165
  0
ARC
  5
9C
330
85
100
AcDbEntity
  8
DV1_Default
  6
Continuous
 62
     7
100
AcDbCircle
 10
28.35
 20
546.4927779085
 30
0.0
 40
20.76093704644
100
AcDbArc
 50
295.6300907042
 51
346.7940540429
  0
ARC
  5
9D
330
85
100
AcDbEntity
  8
DV1_Default
  6
Continuous
 62
     7
100
AcDbCircle
 10
28.35
 20
546.4927779085
 30
0.0
 40
19.58041538147
100
AcDbArc
 50
297.2993016386
 51
345.9820724795
  0
ARC
  5
9E
330
85
100
AcDbEntity
  8
DV1_Default
  6
Continuous
 62
     7
100
AcDbCircle
 10
28.35
 20
546.4927779085
 30
0.0
 40
19.58041538147
100
AcDbArc
 50
14.3627624803
 51
242.5976608208
  0
ARC
  5
9F
330
85
100
AcDbEntity
  8
DV1_Default
  6
Continuous
 62
     7
100
AcDbCircle
 10
28.35
 20
546.4927779085
 30
0.0
 40
17.79420549659
100
AcDbArc
 50
15.8405408153
 51
239.573327068
  0
ARC
  5
A0
330
85
100
AcDbEntity
  8
DV1_Default
  6
Continuous
 62
     7
100
AcDbCircle
 10
28.35
 20
546.4927779085
 30
0.0
 40
17.79420549659
100
AcDbArc
 50
300.3099522873
 51
344.5414931437
  0
ARC
  5
A1
330
85
100
AcDbEntity
  8
DV1_Default
  6
Continuous
 62
     7
100
AcDbCircle
 10
28.35
 20
546.4927779085
 30
0.0
 40
10.3156490566
100
AcDbArc
 50
28.0894926684
 51
209.1218624934
  0
ARC
  5
A2
330
85
100
AcDbEntity
  8
DV1_Default
  6
Continuous
 62
     7
100
AcDbCircle
 10
28.35
 20
546.4927779085
 30
0.0
 40
9.1
100
AcDbArc
 50
32.259174774
 51
187.9921592495
  0
ARC
  5
A3
330
85
100
AcDbEntity
  8
DV1_Default
  6
Continuous
 62
     7
100
AcDbCircle
 10
28.3343620295
 20
456.5499023214
 30
0.0
 40
9.0
100
AcDbArc
 50
270.0
 51
277.1718892468
  0
ARC
  5
A4
330
85
100
AcDbEntity
  8
DV1_Default
  6
Continuous
 62
     7
100
AcDbCircle
 10
28.3343620295
 20
456.5499023214
 30
0.0
 40
9.0
100
AcDbArc
 50
178.286308825
 51
183.3650697129
  0
LINE
  5
A5
330
85
100
AcDbEntity
  8
DV1_Default
  6
Continuous
 62
     7
100
AcDbLine
 10
35.2347230467
 20
451.9250803845
 30
0.0
 11
563.432583692
 21
451.9250803845
 31
0.0
  0
LINE
  5
A6
330
85
100
AcDbEntity
  8
DV1_Default
  6
Continuous
 62
     7
100
AcDbLine
 10
561.3383873457
 20
463.4250803845
 30
0.0
 11
37.3303367134
 21
463.4250803845
 31
0.0
  0
LINE
  5
A7
330
85
100
AcDbEntity
  8
DV1_Default
  6
Continuous
 62
     7
100
AcDbLine
 10
37.3303367134
 20
541.7499023214
 30
0.0
 11
561.3383873457
 21
541.7499023214
 31
0.0
  0
LINE
  5
A8
330
85
100
AcDbEntity
  8
DV1_Default
  6
Continuous
 62
     7
100
AcDbLine
 10
562.7282003877
 20
551.3499023214
 30
0.0
 11
35.9405242962
 21
551.3499023214
 31
0.0
  0
ARC
  5
A9
330
85
100
AcDbEntity
  8
DV1_Default
  6
Continuous
 62
     7
100
AcDbCircle
 10
570.336605787
 20
456.5499023214
 30
0.0
 40
9.000000279691534
100
AcDbArc
 50
211.0479349996
 51
269.9857157965
  0
ARC
  5
AA
330
85
100
AcDbEntity
  8
DV1_Default
  6
Continuous
 62
     7
100
AcDbCircle
 10
570.332118272
 20
456.5499023214
 30
0.0
 40
9.000000279691534
100
AcDbArc
 50
270.0142842035
 51
0.0000651799
  0
SPLINE
  5
AB
330
85
100
AcDbEntity
  8
DV1_Default
  6
Continuous
 62
     7
100
AcDbSpline
210
0.0
220
0.0
230
1.0
 70
     8
 71
     3
 72
    10
 73
     6
 74
     0
 42
0.0000000006849927
 43
0.0000000001
 40
0.0
 40
0.0
 40
0.0
 40
0.0
 40
0.3999996235562822
 40
0.7999992471125644
 40
1.0
 40
1.0
 40
1.0
 40
1.0
 10
570.3343620294843
 20
555.5499023214246
 30
0.0
 10
572.2176070512253
 20
555.549902321435
 30
0.0
 10
575.984097094675
 20
554.3260955206475
 30
0.0
 10
578.893873414517
 20
550.3211320013635
 30
0.0
 10
579.3303380825186
 20
547.4927018108199
 30
0.0
 10
579.3303367133034
 20
546.5498890121264
 30
0.0
  0
ARC
  5
AC
330
85
100
AcDbEntity
  8
DV1_Default
  6
Continuous
 62
     7
100
AcDbCircle
 10
571.6056603918
 20
546.1863102453
 30
0.0
 40
10.27000482235883
100
AcDbArc
 50
149.4924199472
 51
177.9711162668
  0
SPLINE
  5
AD
330
85
100
AcDbEntity
  8
DV1_Default
  6
Continuous
 62
     7
100
AcDbSpline
210
0.0
220
0.0
230
1.0
 70
     8
 71
     3
 72
     9
 73
     5
 74
     0
 42
0.0000000010851589
 43
0.0000000001
 40
0.0
 40
0.0
 40
0.0
 40
0.0
 40
0.3725397846405479
 40
1.0
 40
1.0
 40
1.0
 40
1.0
 10
562.7574144234842
 20
551.3999023214246
 30
0.0
 10
563.3619052069861
 20
552.3421043804252
 30
0.0
 10
565.4497394293292
 20
554.5746956303719
 30
0.0
 10
568.4511170077435
 20
555.5499023214342
 30
0.0
 10
570.3343620294843
 20
555.5499023214246
 30
0.0
  0
ARC
  5
AE
330
85
100
AcDbEntity
  8
DV1_Default
  6
Continuous
 62
     7
100
AcDbCircle
 10
569.1301658043
 20
546.191098805
 30
0.0
 40
7.796332856900587
100
AcDbArc
 50
177.3621968777
 51
179.461929035
  0
SPLINE
  5
AF
330
85
100
AcDbEntity
  8
DV1_Default
  6
Continuous
 62
     7
100
AcDbSpline
210
0.0
220
0.0
230
1.0
 70
     8
 71
     3
 72
     9
 73
     5
 74
     0
 42
0.0000000059805784
 43
0.0000000001
 40
0.0
 40
0.0
 40
0.0
 40
0.0
 40
0.1674070282277715
 40
1.0
 40
1.0
 40
1.0
 40
1.0
 10
561.3367406182837
 20
459.3378706402445
 30
0.0
 10
561.3368860407397
 20
459.2473226357421
 30
0.0
 10
561.3478899440489
 20
458.7027309526634
 30
0.0
 10
561.4230045422784
 20
458.1419684820733
 30
0.0
 10
561.4855373983843
 20
457.6750803844646
 30
0.0
  0
SPLINE
  5
B0
330
85
100
AcDbEntity
  8
DV1_Default
  6
Continuous
 62
     7
100
AcDbSpline
210
0.0
220
0.0
230
1.0
 70
     8
 71
     3
 72
    16
 73
    12
 74
     0
 42
0.0000000015348457
 43
0.0000000001
 40
0.0
 40
0.0
 40
0.0
 40
0.0
 40
0.0649420743052437
 40
0.1306171559134175
 40
0.1976961122105723
 40
0.2668284054688319
 40
0.4023076077029646
 40
0.5336596809869353
 40
0.7603280827029799
 40
0.9814278721921027
 40
1.0
 40
1.0
 40
1.0
 40
1.0
 10
561.4855373983843
 20
457.6750803844646
 30
0.0
 10
561.5260644212827
 20
457.4607562997674
 30
0.0
 10
561.6075617591318
 20
457.0296866091304
 30
0.0
 10
561.7738940861003
 20
456.3943146274343
 30
0.0
 10
561.9676217671663
 20
455.7686286676892
 30
0.0
 10
562.2540525802435
 20
454.9674627728562
 30
0.0
 10
562.6365654337861
 20
454.0568509068363
 30
0.0
 10
563.155521022605
 20
452.9314543490013
 30
0.0
 10
563.5657893158909
 20
451.9816537915567
 30
0.0
 10
563.4010423198598
 20
451.8285120734934
 30
0.0
 10
563.225768146802
 20
451.9104706415922
 30
0.0
 10
563.211683322189
 20
451.9177699403603
 30
0.0
  0
ARC
  5
B1
330
85
100
AcDbEntity
  8
DV1_Default
  6
Continuous
 62
     7
100
AcDbCircle
 10
570.2539625686
 20
546.5739489745
 30
0.0
 40
8.915607651673088
100
AcDbArc
 50
147.2283179675
 51
147.4619756843
  0
LINE
  5
B2
330
85
100
AcDbEntity
  8
DV1_Default
  6
Continuous
 62
     7
100
AcDbLine
 10
579.3303367133
 20
456.5499125578
 30
0.0
 11
579.3303367133
 21
546.5498920851
 31
0.0
  0
LINE
  5
B3
330
85
100
AcDbEntity
  8
DV1_Default
  6
Continuous
 62
     7
100
AcDbLine
 10
561.3383873457
 20
546.290435831
 30
0.0
 11
561.3383873457
 21
459.3224888425
 31
0.0
  0
ARC
  5
B4
330
85
100
AcDbEntity
  8
DV1_Default
  6
Continuous
 62
     7
100
AcDbCircle
 10
28.3366057869
 20
456.5499023214
 30
0.0
 40
9.000000279691523
100
AcDbArc
 50
179.9999348201
 51
269.9857157967
  0
ARC
  5
B5
330
85
100
AcDbEntity
  8
DV1_Default
  6
Continuous
 62
     7
100
AcDbCircle
 10
28.332118272
 20
456.5499023214
 30
0.0
 40
9.000000279691523
100
AcDbArc
 50
270.0142842033
 51
328.9520650004
  0
ARC
  5
B6
330
85
100
AcDbEntity
  8
DV1_Default
  6
Continuous
 62
     7
100
AcDbCircle
 10
27.0698870029
 20
546.1883014223
 30
0.0
 40
10.26311541886944
100
AcDbArc
 50
2.019123183
 51
30.5173406025
  0
ARC
  5
B7
330
85
100
AcDbEntity
  8
DV1_Default
  6
Continuous
 62
     7
100
AcDbCircle
 10
29.5449989615
 20
546.1892192863
 30
0.0
 40
7.789985777238164
100
AcDbArc
 50
0.4520169756
 51
2.6537925866
  0
SPLINE
  5
B8
330
85
100
AcDbEntity
  8
DV1_Default
  6
Continuous
 62
     7
100
AcDbSpline
210
0.0
220
0.0
230
1.0
 70
     8
 71
     3
 72
     9
 73
     5
 74
     0
 42
0.0000000010851589
 43
0.0000000001
 40
0.0
 40
0.0
 40
0.0
 40
0.0
 40
0.627460215359957
 40
1.0
 40
1.0
 40
1.0
 40
1.0
 10
28.33436202948419
 20
555.5499023214246
 30
0.0
 10
30.21760705122162
 20
555.5499023214252
 30
0.0
 10
33.21898462965006
 20
554.5746956303617
 30
0.0
 10
35.30681885200282
 20
552.3421043804289
 30
0.0
 10
35.91130963550121
 20
551.3999023214246
 30
0.0
  0
SPLINE
  5
B9
330
85
100
AcDbEntity
  8
DV1_Default
  6
Continuous
 62
     7
100
AcDbSpline
210
0.0
220
0.0
230
1.0
 70
     8
 71
     3
 72
    11
 73
     7
 74
     0
 42
0.0000000059220405
 43
0.0000000001
 40
0.0
 40
0.0
 40
0.0
 40
0.0
 40
0.3369666284031685
 40
0.6661204423718187
 40
0.9904288903782298
 40
1.0
 40
1.0
 40
1.0
 40
1.0
 10
37.18318666054821
 20
457.6750803844646
 30
0.0
 10
37.2128731925816
 20
457.8651461699084
 30
0.0
 10
37.27157185074081
 20
458.2408685448679
 30
0.0
 10
37.3195316216825
 20
458.7992138138064
 30
0.0
 10
37.33071535458454
 20
459.1668248544011
 30
0.0
 10
37.33030810644328
 20
459.3493682889823
 30
0.0
 10
37.33029147242245
 20
459.3545989988509
 30
0.0
  0
SPLINE
  5
BA
330
85
100
AcDbEntity
  8
DV1_Default
  6
Continuous
 62
     7
100
AcDbSpline
210
0.0
220
0.0
230
1.0
 70
     8
 71
     3
 72
    14
 73
    10
 74
     0
 42
0.0000000015249515
 43
0.0000000001
 40
0.0
 40
0.0
 40
0.0
 40
0.0
 40
0.1942960977281458
 40
0.4218030752734426
 40
0.6147810315512857
 40
0.7092405187013376
 40
0.8035650273058427
 40
0.9035428367790861
 40
1.0
 40
1.0
 40
1.0
 40
1.0
 10
35.46857345742715
 20
451.9243086375204
 30
0.0
 10
35.31767092260646
 20
451.8424876965573
 30
0.0
 10
35.10423169945109
 20
451.8899880343903
 30
0.0
 10
35.41800976220022
 20
452.7466259577718
 30
0.0
 10
35.97332845279333
 20
453.9155989140983
 30
0.0
 10
36.40204832250338
 20
454.9414184097483
 30
0.0
 10
36.71266324342987
 20
455.7905861034507
 30
0.0
 10
36.9914519755698
 20
456.7055053079318
 30
0.0
 10
37.12003861883256
 20
457.3557743564326
 30
0.0
 10
37.18318666054821
 20
457.6750803844646
 30
0.0
  0
ARC
  5
BB
330
85
100
AcDbEntity
  8
DV1_Default
  6
Continuous
 62
     7
100
AcDbCircle
 10
28.4142753072
 20
546.5738067257
 30
0.0
 40
8.916093450577975
100
AcDbArc
 50
32.4876415061
 51
32.770759502
  0
SPLINE
  5
BC
330
85
100
AcDbEntity
  8
DV1_Default
  6
Continuous
 62
     7
100
AcDbSpline
210
0.0
220
0.0
230
1.0
 70
     8
 71
     3
 72
    10
 73
     6
 74
     0
 42
0.0000000006849927
 43
0.0000000001
 40
0.0
 40
0.0
 40
0.0
 40
0.0
 40
0.2000007789368134
 40
0.6000003894684068
 40
1.0
 40
1.0
 40
1.0
 40
1.0
 10
19.33838734562176
 20
546.5498885516336
 30
0.0
 10
19.33838592903236
 20
547.492701503824
 30
0.0
 10
19.77485054966305
 20
550.3211318709526
 30
0.0
 10
22.68462696427226
 20
554.3260955206347
 30
0.0
 10
26.45111700774677
 20
555.5499023214243
 30
0.0
 10
28.33436202948419
 20
555.5499023214246
 30
0.0
  0
LINE
  5
BD
330
85
100
AcDbEntity
  8
DV1_Default
  6
Continuous
 62
     7
100
AcDbLine
 10
37.3303367134
 20
459.3257851099
 30
0.0
 11
37.3303367134
 21
546.2904148661
 31
0.0
  0
LINE
  5
BE
330
85
100
AcDbEntity
  8
DV1_Default
  6
Continuous
 62
     7
100
AcDbLine
 10
19.3383873456
 20
546.5498920851
 30
0.0
 11
19.3383873456
 21
456.5499125578
 31
0.0
  0
ARC
  5
BF
330
85
100
AcDbEntity
  8
DV1_Default
  6
Continuous
 62
     7
100
AcDbCircle
 10
570.3343620295
 20
456.5499023214
 30
0.0
 40
9.0
100
AcDbArc
 50
358.4044169563
 51
0.0
  0
ARC
  5
C0
330
85
100
AcDbEntity
  8
DV1_Default
  6
Continuous
 62
     7
100
AcDbCircle
 10
570.3343620295
 20
456.5499023214
 30
0.0
 40
9.0
100
AcDbArc
 50
270.0
 51
277.1718892464
  0
ARC
  5
C1
330
85
100
AcDbEntity
  8
DV1_Default
  6
Continuous
 62
     7
100
AcDbCircle
 10
570.3343620295
 20
456.5499023214
 30
0.0
 40
9.0
100
AcDbArc
 50
0.0
 51
1.7136911843
  0
ENDBLK
  5
C3
330
85
100
AcDbEntity
  8
0
100
AcDbBlockEnd
  0
BLOCK
  5
E8
330
C4
100
AcDbEntity
  8
0
100
AcDbBlockBegin
  2
SE1
 70
     0
 10
0.0
 20
0.0
 30
0.0
  3
SE1
  1

  0
LINE
  5
C7
330
C4
100
AcDbEntity
  8
DV2_Default
  6
Continuous
 62
     7
100
AcDbLine
 10
682.0470065922
 20
568.4927779085
 30
0.0
 11
682.0470065922
 21
524.4927779085
 31
0.0
  0
LINE
  5
C8
330
C4
100
AcDbEntity
  8
DV2_Default
  6
Continuous
 62
     7
100
AcDbLine
 10
684.5470065922
 20
568.4927779085
 30
0.0
 11
684.5470065922
 21
524.4927779085
 31
0.0
  0
LINE
  5
C9
330
C4
100
AcDbEntity
  8
DV2_Default
  6
Continuous
 62
     7
100
AcDbLine
 10
686.3965943331
 20
525.7318408621
 30
0.0
 11
686.3965943331
 21
567.253714955
 31
0.0
  0
LINE
  5
CA
330
C4
100
AcDbEntity
  8
DV2_Default
  6
Continuous
 62
     7
100
AcDbLine
 10
687.7658300449
 20
566.07319329
 30
0.0
 11
687.7658300449
 21
526.9123625271
 31
0.0
  0
LINE
  5
CB
330
C4
100
AcDbEntity
  8
DV2_Default
  6
Continuous
 62
     7
100
AcDbLine
 10
689.8259805396
 20
528.6985724119
 30
0.0
 11
689.8259805396
 21
564.2869834051
 31
0.0
  0
LINE
  5
CC
330
C4
100
AcDbEntity
  8
DV2_Default
  6
Continuous
 62
     7
100
AcDbLine
 10
698.0470065922
 20
536.4623089184
 30
0.0
 11
698.0470065922
 21
556.5232468987
 31
0.0
  0
LINE
  5
CD
330
C4
100
AcDbEntity
  8
DV2_Default
  6
Continuous
 62
     7
100
AcDbLine
 10
682.0470065922
 20
524.4927779085
 30
0.0
 11
684.5470065922
 21
524.4927779085
 31
0.0
  0
LINE
  5
CE
330
C4
100
AcDbEntity
  8
DV2_Default
  6
Continuous
 62
     7
100
AcDbLine
 10
684.5470065922
 20
568.4927779085
 30
0.0
 11
682.0470065922
 21
568.4927779085
 31
0.0
  0
ARC
  5
CF
330
C4
100
AcDbEntity
  8
DV2_Default
  6
Continuous
 62
     7
100
AcDbCircle
 10
684.5470065922
 20
526.4927779085
 30
0.0
 40
1.999999999999006
100
AcDbArc
 50
270.0
 51
337.6372929206
  0
ARC
  5
D0
330
C4
100
AcDbEntity
  8
DV2_Default
  6
Continuous
 62
     7
100
AcDbCircle
 10
684.5470065922
 20
566.4927779085
 30
0.0
 40
2.000000000000457
100
AcDbArc
 50
22.3627070794
 51
90.0
  0
ARC
  5
D1
330
C4
100
AcDbEntity
  8
DV2_Default
  6
Continuous
 62
     7
100
AcDbCircle
 10
688.246182074
 20
524.9709038156
 30
0.0
 40
1.999999999999913
100
AcDbArc
 50
103.8969291123
 51
157.6372929201
  0
ARC
  5
D2
330
C4
100
AcDbEntity
  8
DV2_Default
  6
Continuous
 62
     7
100
AcDbCircle
 10
688.246182074
 20
568.0146520014
 30
0.0
 40
2.000000000000653
100
AcDbArc
 50
202.3627070799
 51
256.1030708877
  0
ARC
  5
D3
330
C4
100
AcDbEntity
  8
DV2_Default
  6
Continuous
 62
     7
100
AcDbCircle
 10
687.0453020013
 20
529.8245505942
 30
0.0
 40
3.000000000003295
100
AcDbArc
 50
283.8969291123
 51
337.9555331883
  0
ARC
  5
D4
330
C4
100
AcDbEntity
  8
DV2_Default
  6
Continuous
 62
     7
100
AcDbCircle
 10
687.0453020013
 20
563.1610052229
 30
0.0
 40
3.000000000000446
100
AcDbArc
 50
22.0444668117
 51
76.1030708877
  0
ARC
  5
D5
330
C4
100
AcDbEntity
  8
DV2_Default
  6
Continuous
 62
     7
100
AcDbCircle
 10
701.8755875386
 20
523.8193336222
 30
0.0
 40
13.00000000000135
100
AcDbArc
 50
108.0845202754
 51
157.9555331883
  0
ARC
  5
D6
330
C4
100
AcDbEntity
  8
DV2_Default
  6
Continuous
 62
     7
100
AcDbCircle
 10
701.8755875386
 20
569.1662221949
 30
0.0
 40
13.00000000000348
100
AcDbArc
 50
202.0444668117
 51
251.9154797246
  0
ARC
  5
D7
330
C4
100
AcDbEntity
  8
DV2_Default
  6
Continuous
 62
     7
100
AcDbCircle
 10
697.7470065922
 20
536.4623087218
 30
0.0
 40
0.2999999999989625
100
AcDbArc
 50
288.084532643
 51
0.0
  0
ARC
  5
D8
330
C4
100
AcDbEntity
  8
DV2_Default
  6
Continuous
 62
     7
100
AcDbCircle
 10
697.7470065922
 20
556.5232470953
 30
0.0
 40
0.3000000000000212
100
AcDbArc
 50
0.0
 51
71.915467357
  0
LINE
  5
D9
330
C4
100
AcDbEntity
  8
DV2_Default
  6
Continuous
 62
     7
100
AcDbLine
 10
899.5470065922
 20
465.5499023214
 30
0.0
 11
899.5470065922
 21
447.5499023214
 31
0.0
  0
LINE
  5
DA
330
C4
100
AcDbEntity
  8
DV2_Default
  6
Continuous
 62
     7
100
AcDbLine
 10
901.5470065922
 20
465.5499023214
 30
0.0
 11
901.5470065922
 21
447.5499023214
 31
0.0
  0
LINE
  5
DB
330
C4
100
AcDbEntity
  8
DV2_Default
  6
Continuous
 62
     7
100
AcDbLine
 10
899.5470065922
 20
447.5499023214
 30
0.0
 11
901.5470065922
 21
447.5499023214
 31
0.0
  0
LINE
  5
DC
330
C4
100
AcDbEntity
  8
DV2_Default
  6
Continuous
 62
     7
100
AcDbLine
 10
901.5470065922
 20
465.5499023214
 30
0.0
 11
899.5470065922
 21
465.5499023214
 31
0.0
  0
LINE
  5
DD
330
C4
100
AcDbEntity
  8
DV2_Default
  6
Continuous
 62
     7
100
AcDbLine
 10
901.5470065922
 20
465.5499023214
 30
0.0
 11
901.5470065922
 21
447.5499023214
 31
0.0
  0
LINE
  5
DE
330
C4
100
AcDbEntity
  8
DV2_Default
  6
Continuous
 62
     7
100
AcDbLine
 10
901.5470065922
 20
465.5499023214
 30
0.0
 11
906.5470065922
 21
465.5499023214
 31
0.0
  0
LINE
  5
DF
330
C4
100
AcDbEntity
  8
DV2_Default
  6
Continuous
 62
     7
100
AcDbLine
 10
901.5470065922
 20
447.5499023214
 30
0.0
 11
906.5470065922
 21
447.5499023214
 31
0.0
  0
SPLINE
  5
E0
330
C4
100
AcDbEntity
  8
DV2_Default
  6
Continuous
 62
     7
100
AcDbSpline
210
0.0
220
0.0
230
1.0
 70
    12
 71
     3
 72
     8
 73
     4
 74
     0
 42
0.0000000000462965
 43
0.0000000001
 40
0.0
 40
0.0
 40
0.0
 40
0.0
 40
1.0
 40
1.0
 40
1.0
 40
1.0
 10
906.5470065921954
 20
465.5499023214246
 30
0.0
 41
1.0
 10
978.546709631269
 20
465.550050792128
 30
0.0
 41
0.333334776606001
 10
978.546709631269
 20
537.5497538507232
 30
0.0
 41
0.333334776606001
 10
906.5470065921954
 20
537.5499023214246
 30
0.0
 41
1.0
  0
SPLINE
  5
E1
330
C4
100
AcDbEntity
  8
DV2_Default
  6
Continuous
 62
     7
100
AcDbSpline
210
0.0
220
0.0
230
1.0
 70
    12
 71
     3
 72
     8
 73
     4
 74
     0
 42
0.0000000000308643
 43
0.0000000001
 40
0.0
 40
0.0
 40
0.0
 40
0.0
 40
1.0
 40
1.0
 40
1.0
 40
1.0
 10
906.5470065921954
 20
447.5499023214247
 30
0.0
 41
1.0
 10
1014.546639019059
 20
447.550086107918
 30
0.0
 41
0.3333342957542313
 10
1014.546639019059
 20
555.5497185349346
 30
0.0
 41
0.3333342957542313
 10
906.5470065921954
 20
555.5499023214246
 30
0.0
 41
1.0
  0
LINE
  5
E2
330
C4
100
AcDbEntity
  8
DV2_Default
  6
Continuous
 62
     7
100
AcDbLine
 10
906.5470065922
 20
537.5499023214
 30
0.0
 11
707.0470078839
 21
537.5499010298
 31
0.0
  0
LINE
  5
E3
330
C4
100
AcDbEntity
  8
DV2_Default
  6
Continuous
 62
     7
100
AcDbLine
 10
906.5470065922
 20
555.5499023214
 30
0.0
 11
698.0470065922
 21
555.5499023214
 31
0.0
  0
LINE
  5
E4
330
C4
100
AcDbEntity
  8
DV2_Default
  6
Continuous
 62
     7
100
AcDbLine
 10
702.0470065922
 20
537.5499023214
 30
0.0
 11
698.0470065922
 21
537.5499023214
 31
0.0
  0
ARC
  5
E5
330
C4
100
AcDbEntity
  8
DV2_Default
  6
Continuous
 62
     7
100
AcDbCircle
 10
704.5470043974
 20
526.5538312291
 30
0.0
 40
11.27668251269882
100
AcDbArc
 50
77.1912911134
 51
102.8086792836
  0
LINE
  5
E6
330
C4
100
AcDbEntity
  8
DV2_Default
  6
Continuous
 62
     7
100
AcDbLine
 10
707.0512213854
 20
537.5456875282
 30
0.0
 11
707.0470078839
 21
537.5499010298
 31
0.0
  0
LINE
  5
E7
330
C4
100
AcDbEntity
  8
DV2_Default
  6
Continuous
 62
     7
100
AcDbLine
 10
702.0470065922
 20
537.5499023214
 30
0.0
 11
702.0427924448
 21
537.545688174
 31
0.0
  0
ENDBLK
  5
E9
330
C4
100
AcDbEntity
  8
0
100
AcDbBlockEnd
  0
BLOCK
  5
13E
330
EA
100
AcDbEntity
  8
0
100
AcDbBlockBegin
  2
SE2
 70
     0
 10
0.0
 20
0.0
 30
0.0
  3
SE2
  1

  0
LINE
  5
ED
330
EA
100
AcDbEntity
  8
DV3_Default
  6
Continuous
 62
     7
100
AcDbLine
 10
548.35
 20
384.8498941691
 30
0.0
 11
592.35
 21
384.8498941691
 31
0.0
  0
LINE
  5
EE
330
EA
100
AcDbEntity
  8
DV3_Default
  6
Continuous
 62
     7
100
AcDbLine
 10
548.35
 20
382.3498941691
 30
0.0
 11
592.35
 21
382.3498941691
 31
0.0
  0
LINE
  5
EF
330
EA
100
AcDbEntity
  8
DV3_Default
  6
Continuous
 62
     7
100
AcDbLine
 10
549.5890629535
 20
380.5003064282
 30
0.0
 11
591.1109370464
 21
380.5003064282
 31
0.0
  0
LINE
  5
F0
330
EA
100
AcDbEntity
  8
DV3_Default
  6
Continuous
 62
     7
100
AcDbLine
 10
550.7695846185
 20
379.1310707164
 30
0.0
 11
589.9304153815
 21
379.1310707164
 31
0.0
  0
LINE
  5
F1
330
EA
100
AcDbEntity
  8
DV3_Default
  6
Continuous
 62
     7
100
AcDbLine
 10
552.5557945034
 20
377.0709202218
 30
0.0
 11
588.1442054966
 21
377.0709202218
 31
0.0
  0
LINE
  5
F2
330
EA
100
AcDbEntity
  8
DV3_Default
  6
Continuous
 62
     7
100
AcDbLine
 10
560.3195310098
 20
368.8498941691
 30
0.0
 11
580.3804689901
 21
368.8498941691
 31
0.0
  0
LINE
  5
F3
330
EA
100
AcDbEntity
  8
DV3_Default
  6
Continuous
 62
     7
100
AcDbLine
 10
548.35
 20
384.8498941691
 30
0.0
 11
548.35
 21
382.3498941691
 31
0.0
  0
LINE
  5
F4
330
EA
100
AcDbEntity
  8
DV3_Default
  6
Continuous
 62
     7
100
AcDbLine
 10
592.35
 20
382.3498941691
 30
0.0
 11
592.35
 21
384.8498941691
 31
0.0
  0
ARC
  5
F5
330
EA
100
AcDbEntity
  8
DV3_Default
  6
Continuous
 62
     7
100
AcDbCircle
 10
550.35
 20
382.3498941691
 30
0.0
 40
2.000000000000002
100
AcDbArc
 50
180.0
 51
247.6372929206
  0
ARC
  5
F6
330
EA
100
AcDbEntity
  8
DV3_Default
  6
Continuous
 62
     7
100
AcDbCircle
 10
590.35
 20
382.3498941691
 30
0.0
 40
2.000000000000829
100
AcDbArc
 50
292.3627070794
 51
0.0
  0
ARC
  5
F7
330
EA
100
AcDbEntity
  8
DV3_Default
  6
Continuous
 62
     7
100
AcDbCircle
 10
548.8281259071
 20
378.6507186873
 30
0.0
 40
2.000000000001357
100
AcDbArc
 50
13.8969291123
 51
67.63729292
  0
ARC
  5
F8
330
EA
100
AcDbEntity
  8
DV3_Default
  6
Continuous
 62
     7
100
AcDbCircle
 10
591.8718740929
 20
378.6507186873
 30
0.0
 40
2.000000000004371
100
AcDbArc
 50
112.36270708
 51
166.1030708877
  0
ARC
  5
F9
330
EA
100
AcDbEntity
  8
DV3_Default
  6
Continuous
 62
     7
100
AcDbCircle
 10
553.6817726856
 20
379.85159876
 30
0.0
 40
2.999999999970267
100
AcDbArc
 50
193.8969291125
 51
247.9555331888
  0
ARC
  5
FA
330
EA
100
AcDbEntity
  8
DV3_Default
  6
Continuous
 62
     7
100
AcDbCircle
 10
587.0182273144
 20
379.85159876
 30
0.0
 40
2.999999999987154
100
AcDbArc
 50
292.0444668112
 51
346.1030708875
  0
ARC
  5
FB
330
EA
100
AcDbEntity
  8
DV3_Default
  6
Continuous
 62
     7
100
AcDbCircle
 10
547.6765557136
 20
365.0213132227
 30
0.0
 40
13.00000000000662
100
AcDbArc
 50
18.0845202754
 51
67.9555331882
  0
ARC
  5
FC
330
EA
100
AcDbEntity
  8
DV3_Default
  6
Continuous
 62
     7
100
AcDbCircle
 10
593.0234442864
 20
365.0213132227
 30
0.0
 40
13.0000000000167
100
AcDbArc
 50
112.0444668118
 51
161.9154797246
  0
ARC
  5
FD
330
EA
100
AcDbEntity
  8
DV3_Default
  6
Continuous
 62
     7
100
AcDbCircle
 10
560.3195308131
 20
369.1498941691
 30
0.0
 40
0.2999999999714271
100
AcDbArc
 50
198.0845326447
 51
270.000018782
  0
ARC
  5
FE
330
EA
100
AcDbEntity
  8
DV3_Default
  6
Continuous
 62
     7
100
AcDbCircle
 10
580.3804691868
 20
369.1498941691
 30
0.0
 40
0.3000000000000144
100
AcDbArc
 50
269.9999812181
 51
341.9154673553
  0
LINE
  5
FF
330
EA
100
AcDbEntity
  8
DV3_Default
  6
Continuous
 62
     7
100
AcDbLine
 10
50.35
 20
384.8498941691
 30
0.0
 11
6.35
 21
384.8498941691
 31
0.0
  0
LINE
  5
100
330
EA
100
AcDbEntity
  8
DV3_Default
  6
Continuous
 62
     7
100
AcDbLine
 10
50.35
 20
382.3498941691
 30
0.0
 11
6.35
 21
382.3498941691
 31
0.0
  0
LINE
  5
101
330
EA
100
AcDbEntity
  8
DV3_Default
  6
Continuous
 62
     7
100
AcDbLine
 10
49.1109370464
 20
380.5003064282
 30
0.0
 11
7.5890629536
 21
380.5003064282
 31
0.0
  0
LINE
  5
102
330
EA
100
AcDbEntity
  8
DV3_Default
  6
Continuous
 62
     7
100
AcDbLine
 10
47.9304153815
 20
379.1310707164
 30
0.0
 11
8.7695846185
 21
379.1310707164
 31
0.0
  0
LINE
  5
103
330
EA
100
AcDbEntity
  8
DV3_Default
  6
Continuous
 62
     7
100
AcDbLine
 10
46.1442054966
 20
377.0709202218
 30
0.0
 11
10.5557945034
 21
377.0709202218
 31
0.0
  0
LINE
  5
104
330
EA
100
AcDbEntity
  8
DV3_Default
  6
Continuous
 62
     7
100
AcDbLine
 10
38.3804689902
 20
368.8498941691
 30
0.0
 11
18.3195310098
 21
368.8498941691
 31
0.0
  0
LINE
  5
105
330
EA
100
AcDbEntity
  8
DV3_Default
  6
Continuous
 62
     7
100
AcDbLine
 10
6.35
 20
384.8498941691
 30
0.0
 11
6.35
 21
382.3498941691
 31
0.0
  0
LINE
  5
106
330
EA
100
AcDbEntity
  8
DV3_Default
  6
Continuous
 62
     7
100
AcDbLine
 10
50.35
 20
382.3498941691
 30
0.0
 11
50.35
 21
384.8498941691
 31
0.0
  0
ARC
  5
107
330
EA
100
AcDbEntity
  8
DV3_Default
  6
Continuous
 62
     7
100
AcDbCircle
 10
8.35
 20
382.3498941691
 30
0.0
 40
1.999999999999009
100
AcDbArc
 50
180.0
 51
247.6372929206
  0
ARC
  5
108
330
EA
100
AcDbEntity
  8
DV3_Default
  6
Continuous
 62
     7
100
AcDbCircle
 10
48.35
 20
382.3498941691
 30
0.0
 40
2.000000000000448
100
AcDbArc
 50
292.3627070794
 51
0.0
  0
ARC
  5
109
330
EA
100
AcDbEntity
  8
DV3_Default
  6
Continuous
 62
     7
100
AcDbCircle
 10
6.8281259071
 20
378.6507186873
 30
0.0
 40
1.99999999999992
100
AcDbArc
 50
13.8969291123
 51
67.6372929201
  0
ARC
  5
10A
330
EA
100
AcDbEntity
  8
DV3_Default
  6
Continuous
 62
     7
100
AcDbCircle
 10
49.8718740929
 20
378.6507186873
 30
0.0
 40
2.000000000000638
100
AcDbArc
 50
112.3627070799
 51
166.1030708877
  0
ARC
  5
10B
330
EA
100
AcDbEntity
  8
DV3_Default
  6
Continuous
 62
     7
100
AcDbCircle
 10
11.6817726857
 20
379.85159876
 30
0.0
 40
3.000000000003291
100
AcDbArc
 50
193.8969291123
 51
247.9555331883
  0
ARC
  5
10C
330
EA
100
AcDbEntity
  8
DV3_Default
  6
Continuous
 62
     7
100
AcDbCircle
 10
45.0182273143
 20
379.85159876
 30
0.0
 40
3.00000000000045
100
AcDbArc
 50
292.0444668117
 51
346.1030708877
  0
ARC
  5
10D
330
EA
100
AcDbEntity
  8
DV3_Default
  6
Continuous
 62
     7
100
AcDbCircle
 10
5.6765557136
 20
365.0213132227
 30
0.0
 40
13.00000000000137
100
AcDbArc
 50
18.0845202754
 51
67.9555331883
  0
ARC
  5
10E
330
EA
100
AcDbEntity
  8
DV3_Default
  6
Continuous
 62
     7
100
AcDbCircle
 10
51.0234442864
 20
365.0213132227
 30
0.0
 40
13.00000000000346
100
AcDbArc
 50
112.0444668117
 51
161.9154797246
  0
ARC
  5
10F
330
EA
100
AcDbEntity
  8
DV3_Default
  6
Continuous
 62
     7
100
AcDbCircle
 10
18.3195308132
 20
369.1498941691
 30
0.0
 40
0.2999999999989637
100
AcDbArc
 50
198.084532643
 51
270.0000187764
  0
ARC
  5
110
330
EA
100
AcDbEntity
  8
DV3_Default
  6
Continuous
 62
     7
100
AcDbCircle
 10
38.3804691868
 20
369.1498941691
 30
0.0
 40
0.3000000000000212
100
AcDbArc
 50
269.9999812236
 51
341.915467357
  0
LINE
  5
111
330
EA
100
AcDbEntity
  8
DV3_Default
  6
Continuous
 62
     7
100
AcDbLine
 10
19.3343620295
 20
167.3498941691
 30
0.0
 11
19.3343620295
 21
165.3498941691
 31
0.0
  0
LINE
  5
112
330
EA
100
AcDbEntity
  8
DV3_Default
  6
Continuous
 62
     7
100
AcDbLine
 10
37.3343620295
 20
165.3498941691
 30
0.0
 11
37.3343620295
 21
167.3498941691
 31
0.0
  0
LINE
  5
113
330
EA
100
AcDbEntity
  8
DV3_Default
  6
Continuous
 62
     7
100
AcDbLine
 10
37.3303367134
 20
144.5998941691
 30
0.0
 11
561.3383873457
 21
144.5998941691
 31
0.0
  0
LINE
  5
114
330
EA
100
AcDbEntity
  8
DV3_Default
  6
Continuous
 62
     7
100
AcDbLine
 10
37.2856559667
 20
155.5498941691
 30
0.0
 11
561.3830910094
 21
155.5498941691
 31
0.0
  0
LINE
  5
115
330
EA
100
AcDbEntity
  8
DV3_Default
  6
Continuous
 62
     7
100
AcDbLine
 10
561.3649774437
 20
165.1498941691
 30
0.0
 11
37.3037410771
 21
165.1498941691
 31
0.0
  0
LINE
  5
116
330
EA
100
AcDbEntity
  8
DV3_Default
  6
Continuous
 62
     7
100
AcDbLine
 10
37.303626334
 20
210.5498941691
 30
0.0
 11
561.3649864745
 21
210.5498941691
 31
0.0
  0
LINE
  5
117
330
EA
100
AcDbEntity
  8
DV3_Default
  6
Continuous
 62
     7
100
AcDbLine
 10
561.3649930075
 20
220.1498941691
 30
0.0
 11
37.3036877354
 21
220.1498941691
 31
0.0
  0
LINE
  5
118
330
EA
100
AcDbEntity
  8
DV3_Default
  6
Continuous
 62
     7
100
AcDbLine
 10
37.3036231449
 20
265.5498941691
 30
0.0
 11
561.3649902498
 21
265.5498941691
 31
0.0
  0
LINE
  5
119
330
EA
100
AcDbEntity
  8
DV3_Default
  6
Continuous
 62
     7
100
AcDbLine
 10
561.3649930076
 20
275.1498941691
 30
0.0
 11
37.3036921393
 21
275.1498941691
 31
0.0
  0
LINE
  5
11A
330
EA
100
AcDbEntity
  8
DV3_Default
  6
Continuous
 62
     7
100
AcDbLine
 10
37.3036231448
 20
320.5498941691
 30
0.0
 11
561.3649902498
 21
320.5498941691
 31
0.0
  0
LINE
  5
11B
330
EA
100
AcDbEntity
  8
DV3_Default
  6
Continuous
 62
     7
100
AcDbLine
 10
561.3649930076
 20
330.1498941691
 30
0.0
 11
37.3036921393
 21
330.1498941691
 31
0.0
  0
ARC
  5
11C
330
EA
100
AcDbEntity
  8
DV3_Default
  6
Continuous
 62
     7
100
AcDbCircle
 10
553.2208763477
 20
160.5013257251
 30
0.0
 40
9.537740297728574
100
AcDbArc
 50
328.373264655
 51
359.090271559
  0
ARC
  5
11D
330
EA
100
AcDbEntity
  8
DV3_Default
  6
Continuous
 62
     7
100
AcDbCircle
 10
552.666438343
 20
160.6647933962
 30
0.0
 40
10.09588826103569
100
AcDbArc
 50
329.2333192514
 51
329.2641252549
  0
ARC
  5
11E
330
EA
100
AcDbEntity
  8
DV3_Default
  6
Continuous
 62
     7
100
AcDbCircle
 10
552.6794482762
 20
160.0338451116
 30
0.0
 40
10.082920641952
100
AcDbArc
 50
1.7962299148
 51
30.8209171206
  0
ARC
  5
11F
330
EA
100
AcDbEntity
  8
DV3_Default
  6
Continuous
 62
     7
100
AcDbCircle
 10
553.6720179304
 20
325.3498941691
 30
0.0
 40
9.071698849140711
100
AcDbArc
 50
327.6811952009
 51
32.3188047991
  0
ARC
  5
120
330
EA
100
AcDbEntity
  8
DV3_Default
  6
Continuous
 62
     7
100
AcDbCircle
 10
553.6720179304
 20
270.3498941691
 30
0.0
 40
9.071698849150097
100
AcDbArc
 50
327.6811952009
 51
32.3188047991
  0
ARC
  5
121
330
EA
100
AcDbEntity
  8
DV3_Default
  6
Continuous
 62
     7
100
AcDbCircle
 10
553.6720179305
 20
215.3498941691
 30
0.0
 40
9.071698849108747
100
AcDbArc
 50
327.6811952008
 51
32.3188047992
  0
LINE
  5
122
330
EA
100
AcDbEntity
  8
DV3_Default
  6
Continuous
 62
     7
100
AcDbLine
 10
561.3383873457
 20
165.1998541691
 30
0.0
 11
561.3383873457
 21
165.1498941691
 31
0.0
  0
SPLINE
  5
123
330
EA
100
AcDbEntity
  8
DV3_Default
  6
Continuous
 62
     7
100
AcDbSpline
210
0.0
220
0.0
230
1.0
 70
     8
 71
     3
 72
    13
 73
     9
 74
     0
 42
0.0000000007014956
 43
0.0000000001
 40
0.0
 40
0.0
 40
0.0
 40
0.0
 40
0.1333826700439323
 40
0.3067871571690532
 40
0.4800041665889143
 40
0.6534013232331715
 40
0.8266612179775347
 40
1.0
 40
1.0
 40
1.0
 40
1.0
 10
570.3299038093959
 20
106.4099777496474
 30
0.0
 10
571.0189989359402
 20
106.4207071434308
 30
0.0
 10
572.3713844333736
 20
106.4638175325094
 30
0.0
 10
574.5645467828626
 20
107.2881818218001
 30
0.0
 10
576.5709471166334
 20
108.7077164834145
 30
0.0
 10
578.116664058316
 20
110.6237734987386
 30
0.0
 10
579.140453454872
 20
112.9343397189777
 30
0.0
 10
579.2714166770767
 20
114.4562935213212
 30
0.0
 10
579.3303367133134
 20
115.3499823615739
 30
0.0
  0
LINE
  5
124
330
EA
100
AcDbEntity
  8
DV3_Default
  6
Continuous
 62
     7
100
AcDbLine
 10
579.3303367133
 20
115.3499823616
 30
0.0
 11
579.3303367133
 21
160.3517790993
 31
0.0
  0
SPLINE
  5
125
330
EA
100
AcDbEntity
  8
DV3_Default
  6
Continuous
 62
     7
100
AcDbSpline
210
0.0
220
0.0
230
1.0
 70
     8
 71
     3
 72
    13
 73
     9
 74
     0
 42
0.0000000007014956
 43
0.0000000001
 40
0.0
 40
0.0
 40
0.0
 40
0.0
 40
0.1733387820224651
 40
0.3465986767668321
 40
0.51999583341109
 40
0.6932128428309571
 40
0.8666173299560805
 40
1.0
 40
1.0
 40
1.0
 40
1.0
 10
561.338387345655
 20
115.3499823615739
 30
0.0
 10
561.3973073818917
 20
114.4562935213212
 30
0.0
 10
561.5282706040961
 20
112.9343397189778
 30
0.0
 10
562.5520600006529
 20
110.6237734987383
 30
0.0
 10
564.0977769423348
 20
108.7077164834147
 30
0.0
 10
566.1041772761057
 20
107.2881818218
 30
0.0
 10
568.2973396255948
 20
106.4638175325096
 30
0.0
 10
569.6497251230281
 20
106.4207071434309
 30
0.0
 10
570.3388202495724
 20
106.4099777496474
 30
0.0
  0
LINE
  5
126
330
EA
100
AcDbEntity
  8
DV3_Default
  6
Continuous
 62
     7
100
AcDbLine
 10
561.3383873457
 20
155.5263682557
 30
0.0
 11
561.3383873457
 21
115.3499823616
 31
0.0
  0
LINE
  5
127
330
EA
100
AcDbEntity
  8
DV3_Default
  6
Continuous
 62
     7
100
AcDbLine
 10
561.3383873457
 20
210.4998941691
 30
0.0
 11
561.3383873457
 21
165.1998941691
 31
0.0
  0
LINE
  5
128
330
EA
100
AcDbEntity
  8
DV3_Default
  6
Continuous
 62
     7
100
AcDbLine
 10
561.3383873457
 20
265.4998941691
 30
0.0
 11
561.3383873457
 21
220.1998941691
 31
0.0
  0
LINE
  5
129
330
EA
100
AcDbEntity
  8
DV3_Default
  6
Continuous
 62
     7
100
AcDbLine
 10
561.3383873457
 20
320.4998941691
 30
0.0
 11
561.3383873457
 21
275.1998941691
 31
0.0
  0
LINE
  5
12A
330
EA
100
AcDbEntity
  8
DV3_Default
  6
Continuous
 62
     7
100
AcDbLine
 10
561.3383873457
 20
368.8498941691
 30
0.0
 11
561.3383873457
 21
330.1998941691
 31
0.0
  0
LINE
  5
12B
330
EA
100
AcDbEntity
  8
DV3_Default
  6
Continuous
 62
     7
100
AcDbLine
 10
579.3303367133
 20
160.3498941691
 30
0.0
 11
579.3303367133
 21
368.8498941691
 31
0.0
  0
ARC
  5
12C
330
EA
100
AcDbEntity
  8
DV3_Default
  6
Continuous
 62
     7
100
AcDbCircle
 10
45.4976269382
 20
160.515852234
 30
0.0
 40
9.58775372583746
100
AcDbArc
 50
180.9918039044
 51
211.5446598811
  0
ARC
  5
12D
330
EA
100
AcDbEntity
  8
DV3_Default
  6
Continuous
 62
     7
100
AcDbCircle
 10
45.8067231952
 20
160.6060522994
 30
0.0
 40
9.898728529749416
100
AcDbArc
 50
210.9939526789
 51
211.0536048215
  0
ARC
  5
12E
330
EA
100
AcDbEntity
  8
DV3_Default
  6
Continuous
 62
     7
100
AcDbCircle
 10
46.0615107083
 20
160.0127104075
 30
0.0
 40
10.15580005259022
100
AcDbArc
 50
149.2854856907
 51
178.0973672749
  0
ARC
  5
12F
330
EA
100
AcDbEntity
  8
DV3_Default
  6
Continuous
 62
     7
100
AcDbCircle
 10
45.01795082
 20
270.3498941691
 30
0.0
 40
9.089659545468681
100
AcDbArc
 50
147.7527895378
 51
212.2472104622
  0
ARC
  5
130
330
EA
100
AcDbEntity
  8
DV3_Default
  6
Continuous
 62
     7
100
AcDbCircle
 10
45.0179508199
 20
215.3498941691
 30
0.0
 40
9.089659545367708
100
AcDbArc
 50
147.7527895374
 51
212.2472104626
  0
ARC
  5
131
330
EA
100
AcDbEntity
  8
DV3_Default
  6
Continuous
 62
     7
100
AcDbCircle
 10
45.0179508199
 20
325.3498941691
 30
0.0
 40
9.08965954541901
100
AcDbArc
 50
147.7527895376
 51
212.2472104624
  0
LINE
  5
132
330
EA
100
AcDbEntity
  8
DV3_Default
  6
Continuous
 62
     7
100
AcDbLine
 10
37.3303367134
 20
165.1498941691
 30
0.0
 11
37.3303367134
 21
165.1998541691
 31
0.0
  0
SPLINE
  5
133
330
EA
100
AcDbEntity
  8
DV3_Default
  6
Continuous
 62
     7
100
AcDbSpline
210
0.0
220
0.0
230
1.0
 70
     8
 71
     3
 72
    13
 73
     9
 74
     0
 42
0.0000000007014956
 43
0.0000000001
 40
0.0
 40
0.0
 40
0.0
 40
0.0
 40
0.1333826700415396
 40
0.306787157167973
 40
0.4800041665888067
 40
0.6534013232334662
 40
0.8266612179778013
 40
1.0
 40
1.0
 40
1.0
 40
1.0
 10
28.32990380939565
 20
106.4099777496494
 30
0.0
 10
29.01899893592885
 20
106.4207071434339
 30
0.0
 10
30.37138443335952
 20
106.463817532514
 30
0.0
 10
32.56454678285442
 20
107.2881818217993
 30
0.0
 10
34.57094711664688
 20
108.7077164834113
 30
0.0
 10
36.11666405834663
 20
110.6237734987359
 30
0.0
 10
37.14045345491368
 20
112.9343397189761
 30
0.0
 10
37.2714166771197
 20
114.4562935213212
 30
0.0
 10
37.33033671335701
 20
115.349982361574
 30
0.0
  0
LINE
  5
134
330
EA
100
AcDbEntity
  8
DV3_Default
  6
Continuous
 62
     7
100
AcDbLine
 10
37.3303367134
 20
115.3499823616
 30
0.0
 11
37.3303367134
 21
155.5253559844
 31
0.0
  0
LINE
  5
135
330
EA
100
AcDbEntity
  8
DV3_Default
  6
Continuous
 62
     7
100
AcDbLine
 10
37.3303367134
 20
330.1998941691
 30
0.0
 11
37.3303367134
 21
368.8498941691
 31
0.0
  0
LINE
  5
136
330
EA
100
AcDbEntity
  8
DV3_Default
  6
Continuous
 62
     7
100
AcDbLine
 10
37.3303367134
 20
275.1998941691
 30
0.0
 11
37.3303367134
 21
320.4998941691
 31
0.0
  0
LINE
  5
137
330
EA
100
AcDbEntity
  8
DV3_Default
  6
Continuous
 62
     7
100
AcDbLine
 10
37.3303367134
 20
220.1998941691
 30
0.0
 11
37.3303367134
 21
265.4998941691
 31
0.0
  0
LINE
  5
138
330
EA
100
AcDbEntity
  8
DV3_Default
  6
Continuous
 62
     7
100
AcDbLine
 10
37.3303367134
 20
165.1998941691
 30
0.0
 11
37.3303367134
 21
210.4998941691
 31
0.0
  0
LINE
  5
139
330
EA
100
AcDbEntity
  8
DV3_Default
  6
Continuous
 62
     7
100
AcDbLine
 10
19.3383873456
 20
368.8498941691
 30
0.0
 11
19.3383873456
 21
160.3498941691
 31
0.0
  0
SPLINE
  5
13A
330
EA
100
AcDbEntity
  8
DV3_Default
  6
Continuous
 62
     7
100
AcDbSpline
210
0.0
220
0.0
230
1.0
 70
     8
 71
     3
 72
    13
 73
     9
 74
     0
 42
0.0000000007014956
 43
0.0000000001
 40
0.0
 40
0.0
 40
0.0
 40
0.0
 40
0.1733387820221968
 40
0.3465986767665341
 40
0.5199958334111922
 40
0.6932128428320301
 40
0.8666173299584641
 40
1.0
 40
1.0
 40
1.0
 40
1.0
 10
19.33838734561138
 20
115.3499823615739
 30
0.0
 10
19.39730738184869
 20
114.4562935213211
 30
0.0
 10
19.52827060405471
 20
112.934339718976
 30
0.0
 10
20.55206000062176
 20
110.6237734987361
 30
0.0
 10
22.09777694232151
 20
108.7077164834114
 30
0.0
 10
24.10417727611392
 20
107.2881818217993
 30
0.0
 10
26.29733962560887
 20
106.4638175325142
 30
0.0
 10
27.64972512303954
 20
106.4207071434339
 30
0.0
 10
28.33882024957263
 20
106.4099777496494
 30
0.0
  0
LINE
  5
13B
330
EA
100
AcDbEntity
  8
DV3_Default
  6
Continuous
 62
     7
100
AcDbLine
 10
19.3383873456
 20
160.3480089341
 30
0.0
 11
19.3383873456
 21
115.3499823616
 31
0.0
  0
LINE
  5
13C
330
EA
100
AcDbEntity
  8
DV3_Default
  6
Continuous
 62
     7
100
AcDbLine
 10
561.3343620295
 20
167.3498941691
 30
0.0
 11
561.3343620295
 21
165.3498941691
 31
0.0
  0
LINE
  5
13D
330
EA
100
AcDbEntity
  8
DV3_Default
  6
Continuous
 62
     7
100
AcDbLine
 10
579.3343620295
 20
165.3498941691
 30
0.0
 11
579.3343620295
 21
167.3498941691
 31
0.0
  0
ENDBLK
  5
13F
330
EA
100
AcDbEntity
  8
0
100
AcDbBlockEnd
  0
ENDSEC
  0
SECTION
  2
ENTITIES
  0
INSERT
  5
5F
330
1F
100
AcDbEntity
  8
Default
100
AcDbBlockReference
  2
SEANNOT_GROUP
 10
0.0
 20
0.0
 30
0.0
  0
INSERT
  5
66
330
1F
100
AcDbEntity
  8
Default
100
AcDbBlockReference
  2
SEANNOT_GROUP1
 10
0.0
 20
0.0
 30
0.0
  0
INSERT
  5
70
330
1F
100
AcDbEntity
  8
Default
100
AcDbBlockReference
  2
SEANNOT_GROUP2
 10
0.0
 20
0.0
 30
0.0
  0
INSERT
  5
7A
330
1F
100
AcDbEntity
  8
Default
100
AcDbBlockReference
  2
SEANNOT_GROUP3
 10
0.0
 20
0.0
 30
0.0
  0
INSERT
  5
80
330
1F
100
AcDbEntity
  8
Default
100
AcDbBlockReference
  2
SEANNOT_GROUP4
 10
0.0
 20
0.0
 30
0.0
  0
INSERT
  5
86
330
1F
100
AcDbEntity
  8
Default
100
AcDbBlockReference
  2
SE
 10
0.0
 20
0.0
 30
0.0
  0
INSERT
  5
C5
330
1F
100
AcDbEntity
  8
Default
100
AcDbBlockReference
  2
SE1
 10
0.0
 20
0.0
 30
0.0
  0
INSERT
  5
EB
330
1F
100
AcDbEntity
  8
Default
100
AcDbBlockReference
  2
SE2
 10
0.0
 20
0.0
 30
0.0
  0
TEXT
  5
141
330
1F
100
AcDbEntity
  8
Default
  6
Continuous
 62
     7
100
AcDbText
 10
5.9362635081
 20
53.4225120485
 30
0.0
 40
10.0
  1
Grohe AG^J
  7
SEACAD_seiso_ttf
 11
5.9362635081
 21
63.4225120485
 31
0.0
100
AcDbText
 73
     3
  0
TEXT
  5
142
330
1F
100
AcDbEntity
  8
Default
  6
Continuous
 62
     7
100
AcDbText
 10
5.9362635081
 20
37.0588756849
 30
0.0
 40
10.0
  1
 
  7
SEACAD_seiso_ttf
 11
5.9362635081
 21
47.0588756849
 31
0.0
100
AcDbText
 73
     3
  0
TEXT
  5
143
330
1F
100
AcDbEntity
  8
Default
  6
Continuous
 62
     7
100
AcDbText
 10
5.9362635081
 20
20.6952393213
 30
0.0
 40
10.0
  1
ecn:
  7
SEACAD_seiso_ttf
 11
5.9362635081
 21
30.6952393213
 31
0.0
100
AcDbText
 73
     3
  0
TEXT
  5
144
330
1F
100
AcDbEntity
  8
Default
  6
Continuous
 62
     7
100
AcDbText
 10
5.9362635081
 20
4.3316029576
 30
0.0
 40
10.0
  1
unit: mm
  7
SEACAD_seiso_ttf
 11
5.9362635081
 21
14.3316029576
 31
0.0
100
AcDbText
 73
     3
  0
LINE
  5
145
330
1F
100
AcDbEntity
  8
Default
  6
Continuous
 62
     7
100
AcDbLine
 10
0.0
 20
0.0
 30
0.0
 11
100.0
 21
0.0
 31
0.0
  0
LINE
  5
146
330
1F
100
AcDbEntity
  8
Default
  6
Continuous
 62
     7
100
AcDbLine
 10
0.0
 20
0.0
 30
0.0
 11
0.0
 21
100.0
 31
0.0
  0
TEXT
  5
147
330
1F
100
AcDbEntity
  8
Default
  6
Continuous
 62
     7
100
AcDbText
 10
24.3923665681
 20
-18.2375342018
 30
0.0
 40
10.0
  1
100 mm
  7
SEACAD_seiso_ttf
 11
24.3923665681
 21
-8.2375342018
 31
0.0
100
AcDbText
 73
     3
  0
TEXT
  5
148
330
1F
100
AcDbEntity
  8
Default
  6
Continuous
 62
     7
100
AcDbText
 10
-7.6150308803
 20
24.6231930421
 30
0.0
 40
10.0
  1
100 mm
 50
90.0
  7
SEACAD_seiso_ttf
 11
-17.6150308803
 21
24.6231930421
 31
0.0
100
AcDbText
 73
     3
  0
TEXT
  5
149
330
1F
100
AcDbEntity
  8
Default
  6
Continuous
 62
     7
100
AcDbText
 10
28.4878128572
 20
20.0907663715
 30
0.0
 40
10.0
  1
224990
  7
SEACAD_seiso_ttf
 11
28.4878128572
 21
30.0907663715
 31
0.0
100
AcDbText
 73
     3
  0
TEXT
  5
14A
330
1F
100
AcDbEntity
  8
Default
  6
Continuous
 62
     7
100
AcDbText
 10
5.9012241913
 20
36.7242780188
 30
0.0
 40
10.0
  1
40660000
  7
SEACAD_seiso_ttf
 11
5.9012241913
 21
46.7242780188
 31
0.0
100
AcDbText
 73
     3
  0
ENDSEC
  0
SECTION
  2
OBJECTS
  0
DICTIONARY
  5
C
330
0
100
AcDbDictionary
281
     1
  3
ACAD_GROUP
350
D
  3
ACAD_LAYOUT
350
1A
  3
ACAD_MLEADERSTYLE
350
14E
  3
ACAD_MLINESTYLE
350
17
  3
ACAD_PLOTSETTINGS
350
19
  3
ACAD_PLOTSTYLENAME
350
E
  3
ACAD_SCALELIST
350
3B
  3
ACAD_TABLESTYLE
350
14D
  3
ACAD_VISUALSTYLE
350
2A
  3
AcDbVariableDictionary
350
14B
  0
DICTIONARY
  5
D
102
{ACAD_REACTORS
330
C
102
}
330
C
100
AcDbDictionary
281
     1
  0
DICTIONARY
  5
1A
102
{ACAD_REACTORS
330
C
102
}
330
C
100
AcDbDictionary
281
     1
  3
Layout1
350
1E
  3
Model
350
22
  0
DICTIONARY
  5
14E
102
{ACAD_REACTORS
330
C
102
}
330
C
100
AcDbDictionary
281
     1
  0
DICTIONARY
  5
17
102
{ACAD_REACTORS
330
C
102
}
330
C
100
AcDbDictionary
281
     1
  3
Standard
350
18
  0
DICTIONARY
  5
19
102
{ACAD_REACTORS
330
C
102
}
330
C
100
AcDbDictionary
281
     1
  0
ACDBDICTIONARYWDFLT
  5
E
102
{ACAD_REACTORS
330
C
102
}
330
C
100
AcDbDictionary
281
     1
  3
Normal
350
F
100
AcDbDictionaryWithDefault
340
F
  0
DICTIONARY
  5
3B
102
{ACAD_REACTORS
330
C
102
}
330
C
100
AcDbDictionary
281
     1
  3
A0
350
3C
  3
A1
350
3D
  3
A2
350
3E
  3
A3
350
3F
  3
A4
350
40
  3
A5
350
41
  3
A6
350
42
  3
A7
350
43
  3
A8
350
44
  3
A9
350
45
  3
B0
350
46
  3
B1
350
47
  3
B2
350
48
  3
B3
350
49
  3
B4
350
4A
  3
B5
350
4B
  3
B6
350
4C
  3
B7
350
4D
  3
B8
350
4E
  3
B9
350
4F
  3
C0
350
50
  3
C1
350
51
  3
C2
350
52
  3
C3
350
53
  3
C4
350
54
  3
C5
350
55
  3
C6
350
56
  3
C7
350
57
  3
C8
350
58
  3
C9
350
59
  3
D0
350
5A
  3
D1
350
5B
  3
D2
350
5C
  0
DICTIONARY
  5
14D
102
{ACAD_REACTORS
330
C
102
}
330
C
100
AcDbDictionary
281
     1
  0
DICTIONARY
  5
2A
102
{ACAD_REACTORS
330
C
102
}
330
C
100
AcDbDictionary
281
     1
  3
2dWireframe
350
2F
  3
3D Hidden
350
31
  3
3dWireframe
350
30
  3
Basic
350
32
  3
Brighten
350
36
  3
ColorChange
350
3A
  3
Conceptual
350
34
  3
Dim
350
35
  3
Facepattern
350
39
  3
Flat
350
2B
  3
FlatWithEdges
350
2C
  3
Gouraud
350
2D
  3
GouraudWithEdges
350
2E
  3
Linepattern
350
38
  3
Realistic
350
33
  3
Thicken
350
37
  0
DICTIONARY
  5
14B
102
{ACAD_REACTORS
330
C
102
}
330
C
100
AcDbDictionary
281
     1
  3
CANNOSCALE
350
14C
  3
PSOLHEIGHT
350
150
  3
PSOLWIDTH
350
14F
  0
LAYOUT
  5
1E
102
{ACAD_REACTORS
330
1A
102
}
330
1A
100
AcDbPlotSettings
  1

  2
none_device
  4

  6

 40
0.0
 41
0.0
 42
0.0
 43
0.0
 44
0.0
 45
0.0
 46
0.0
 47
0.0
 48
0.0
 49
0.0
140
0.0
141
0.0
142
1.0
143
1.0
 70
   688
 72
     0
 73
     0
 74
     5
  7

 75
    16
147
1.0
148
0.0
149
0.0
100
AcDbLayout
  1
Layout1
 70
     1
 71
     1
 10
0.0
 20
0.0
 11
3000.0
 21
4500.0
 12
0.0
 22
0.0
 32
0.0
 14
0.0
 24
0.0
 34
0.0
 15
3000.0
 25
4500.0
 35
0.0
146
0.0
 13
0.0
 23
0.0
 33
0.0
 16
1.0
 26
0.0
 36
0.0
 17
0.0
 27
1.0
 37
0.0
 76
     0
330
1B
  0
LAYOUT
  5
22
102
{ACAD_REACTORS
330
1A
102
}
330
1A
100
AcDbPlotSettings
  1

  2
none_device
  4

  6

 40
0.0
 41
0.0
 42
0.0
 43
0.0
 44
0.0
 45
0.0
 46
0.0
 47
0.0
 48
0.0
 49
0.0
140
0.0
141
0.0
142
1.0
143
1.0
 70
  1712
 72
     0
 73
     0
 74
     0
  7

 75
     0
147
1.0
148
0.0
149
0.0
100
AcDbLayout
  1
Model
 70
     1
 71
     0
 10
0.0
 20
0.0
 11
3000.0
 21
4500.0
 12
0.0
 22
0.0
 32
0.0
 14
0.0
 24
0.0
 34
0.0
 15
3000.0
 25
4500.0
 35
0.0
146
0.0
 13
0.0
 23
0.0
 33
0.0
 16
1.0
 26
0.0
 36
0.0
 17
0.0
 27
1.0
 37
0.0
 76
     0
330
1F
331
29
  0
MLINESTYLE
  5
18
102
{ACAD_REACTORS
330
17
102
}
330
17
100
AcDbMlineStyle
  2
Standard
 70
     0
  3

 62
   256
 51
90.0
 52
90.0
 71
     2
 49
0.5
 62
   256
  6
BYLAYER
 49
-0.5
 62
   256
  6
BYLAYER
  0
ACDBPLACEHOLDER
  5
F
102
{ACAD_REACTORS
330
E
102
}
330
E
  0
SCALE
  5
3C
102
{ACAD_REACTORS
330
3B
102
}
330
3B
100
AcDbScale
 70
     0
300
1:1
140
1.0
141
1.0
290
     1
  0
SCALE
  5
3D
102
{ACAD_REACTORS
330
3B
102
}
330
3B
100
AcDbScale
 70
     0
300
1:2
140
1.0
141
2.0
290
     0
  0
SCALE
  5
3E
102
{ACAD_REACTORS
330
3B
102
}
330
3B
100
AcDbScale
 70
     0
300
1:4
140
1.0
141
4.0
290
     0
  0
SCALE
  5
3F
102
{ACAD_REACTORS
330
3B
102
}
330
3B
100
AcDbScale
 70
     0
300
1:5
140
1.0
141
5.0
290
     0
  0
SCALE
  5
40
102
{ACAD_REACTORS
330
3B
102
}
330
3B
100
AcDbScale
 70
     0
300
1:8
140
1.0
141
8.0
290
     0
  0
SCALE
  5
41
102
{ACAD_REACTORS
330
3B
102
}
330
3B
100
AcDbScale
 70
     0
300
1:10
140
1.0
141
10.0
290
     0
  0
SCALE
  5
42
102
{ACAD_REACTORS
330
3B
102
}
330
3B
100
AcDbScale
 70
     0
300
1:16
140
1.0
141
16.0
290
     0
  0
SCALE
  5
43
102
{ACAD_REACTORS
330
3B
102
}
330
3B
100
AcDbScale
 70
     0
300
1:20
140
1.0
141
20.0
290
     0
  0
SCALE
  5
44
102
{ACAD_REACTORS
330
3B
102
}
330
3B
100
AcDbScale
 70
     0
300
1:30
140
1.0
141
30.0
290
     0
  0
SCALE
  5
45
102
{ACAD_REACTORS
330
3B
102
}
330
3B
100
AcDbScale
 70
     0
300
1:40
140
1.0
141
40.0
290
     0
  0
SCALE
  5
46
102
{ACAD_REACTORS
330
3B
102
}
330
3B
100
AcDbScale
 70
     0
300
1:50
140
1.0
141
50.0
290
     0
  0
SCALE
  5
47
102
{ACAD_REACTORS
330
3B
102
}
330
3B
100
AcDbScale
 70
     0
300
1:100
140
1.0
141
100.0
290
     0
  0
SCALE
  5
48
102
{ACAD_REACTORS
330
3B
102
}
330
3B
100
AcDbScale
 70
     0
300
2:1
140
2.0
141
1.0
290
     0
  0
SCALE
  5
49
102
{ACAD_REACTORS
330
3B
102
}
330
3B
100
AcDbScale
 70
     0
300
4:1
140
4.0
141
1.0
290
     0
  0
SCALE
  5
4A
102
{ACAD_REACTORS
330
3B
102
}
330
3B
100
AcDbScale
 70
     0
300
8:1
140
8.0
141
1.0
290
     0
  0
SCALE
  5
4B
102
{ACAD_REACTORS
330
3B
102
}
330
3B
100
AcDbScale
 70
     0
300
10:1
140
10.0
141
1.0
290
     0
  0
SCALE
  5
4C
102
{ACAD_REACTORS
330
3B
102
}
330
3B
100
AcDbScale
 70
     0
300
100:1
140
100.0
141
1.0
290
     0
  0
SCALE
  5
4D
102
{ACAD_REACTORS
330
3B
102
}
330
3B
100
AcDbScale
 70
     0
300
1/128" = 1'-0"
140
0.0078125
141
12.0
290
     0
  0
SCALE
  5
4E
102
{ACAD_REACTORS
330
3B
102
}
330
3B
100
AcDbScale
 70
     0
300
1/64" = 1'-0"
140
0.015625
141
12.0
290
     0
  0
SCALE
  5
4F
102
{ACAD_REACTORS
330
3B
102
}
330
3B
100
AcDbScale
 70
     0
300
1/32" = 1'-0"
140
0.03125
141
12.0
290
     0
  0
SCALE
  5
50
102
{ACAD_REACTORS
330
3B
102
}
330
3B
100
AcDbScale
 70
     0
300
1/16" = 1'-0"
140
0.0625
141
12.0
290
     0
  0
SCALE
  5
51
102
{ACAD_REACTORS
330
3B
102
}
330
3B
100
AcDbScale
 70
     0
300
3/32" = 1'-0"
140
0.09375
141
12.0
290
     0
  0
SCALE
  5
52
102
{ACAD_REACTORS
330
3B
102
}
330
3B
100
AcDbScale
 70
     0
300
1/8" = 1'-0"
140
0.125
141
12.0
290
     0
  0
SCALE
  5
53
102
{ACAD_REACTORS
330
3B
102
}
330
3B
100
AcDbScale
 70
     0
300
3/16" = 1'-0"
140
0.1875
141
12.0
290
     0
  0
SCALE
  5
54
102
{ACAD_REACTORS
330
3B
102
}
330
3B
100
AcDbScale
 70
     0
300
1/4" = 1'-0"
140
0.25
141
12.0
290
     0
  0
SCALE
  5
55
102
{ACAD_REACTORS
330
3B
102
}
330
3B
100
AcDbScale
 70
     0
300
3/8" = 1'-0"
140
0.375
141
12.0
290
     0
  0
SCALE
  5
56
102
{ACAD_REACTORS
330
3B
102
}
330
3B
100
AcDbScale
 70
     0
300
1/2" = 1'-0"
140
0.5
141
12.0
290
     0
  0
SCALE
  5
57
102
{ACAD_REACTORS
330
3B
102
}
330
3B
100
AcDbScale
 70
     0
300
3/4" = 1'-0"
140
0.75
141
12.0
290
     0
  0
SCALE
  5
58
102
{ACAD_REACTORS
330
3B
102
}
330
3B
100
AcDbScale
 70
     0
300
1" = 1'-0"
140
1.0
141
12.0
290
     0
  0
SCALE
  5
59
102
{ACAD_REACTORS
330
3B
102
}
330
3B
100
AcDbScale
 70
     0
300
1-1/2" = 1'-0"
140
1.5
141
12.0
290
     0
  0
SCALE
  5
5A
102
{ACAD_REACTORS
330
3B
102
}
330
3B
100
AcDbScale
 70
     0
300
3" = 1'-0"
140
3.0
141
12.0
290
     0
  0
SCALE
  5
5B
102
{ACAD_REACTORS
330
3B
102
}
330
3B
100
AcDbScale
 70
     0
300
6" = 1'-0"
140
6.0
141
12.0
290
     0
  0
SCALE
  5
5C
102
{ACAD_REACTORS
330
3B
102
}
330
3B
100
AcDbScale
 70
     0
300
1'-0" = 1'-0"
140
12.0
141
12.0
290
     0
  0
VISUALSTYLE
  5
2F
102
{ACAD_REACTORS
330
2A
102
}
330
2A
100
AcDbVisualStyle
  2
2dWireframe
 70
     4
 71
     0
 72
     2
 73
     0
 90
        0
 40
-0.6
 41
-30.0
 62
     5
 63
     7
 74
     1
 91
        4
 64
     7
 65
   257
 75
     1
175
     1
 42
1.0
 92
        0
 66
   257
 43
1.0
 76
     1
 77
     6
 78
     2
 67
     7
 79
     5
170
     0
171
     0
290
     0
174
     0
 93
        1
 44
0.0
173
     0
291
     0
 45
0.0
1001
ACAD
1000
AcDbSavedByObjectVersion
1070
     0
  0
VISUALSTYLE
  5
31
102
{ACAD_REACTORS
330
2A
102
}
330
2A
100
AcDbVisualStyle
  2
3D Hidden
 70
     6
 71
     1
 72
     2
 73
     2
 90
        0
 40
-0.6
 41
-30.0
 62
     5
 63
     7
 74
     2
 91
        2
 64
     7
 65
   257
 75
     2
175
     1
 42
40.0
 92
        0
 66
   257
 43
1.0
 76
     1
 77
     6
 78
     2
 67
     7
 79
     3
170
     0
171
     0
290
     0
174
     0
 93
        1
 44
0.0
173
     0
291
     0
 45
0.0
1001
ACAD
1000
AcDbSavedByObjectVersion
1070
     0
  0
VISUALSTYLE
  5
30
102
{ACAD_REACTORS
330
2A
102
}
330
2A
100
AcDbVisualStyle
  2
3dWireframe
 70
     5
 71
     0
 72
     2
 73
     0
 90
        0
 40
-0.6
 41
-30.0
 62
     5
 63
     7
 74
     1
 91
        4
 64
     7
 65
   257
 75
     1
175
     1
 42
1.0
 92
        0
 66
   257
 43
1.0
 76
     1
 77
     6
 78
     2
 67
     7
 79
     5
170
     0
171
     0
290
     0
174
     0
 93
        1
 44
0.0
173
     0
291
     0
 45
0.0
1001
ACAD
1000
AcDbSavedByObjectVersion
1070
     0
  0
VISUALSTYLE
  5
32
102
{ACAD_REACTORS
330
2A
102
}
330
2A
100
AcDbVisualStyle
  2
Basic
 70
     7
 71
     1
 72
     0
 73
     1
 90
        0
 40
-0.6
 41
-30.0
 62
     5
 63
     7
 74
     0
 91
        4
 64
     7
 65
   257
 75
     1
175
     1
 42
1.0
 92
        8
 66
     7
 43
1.0
 76
     1
 77
     6
 78
     2
 67
     7
 79
     5
170
     0
171
     0
290
     0
174
     0
 93
        1
 44
0.0
173
     0
291
     1
 45
0.0
1001
ACAD
1000
AcDbSavedByObjectVersion
1070
     0
  0
VISUALSTYLE
  5
36
102
{ACAD_REACTORS
330
2A
102
}
330
2A
100
AcDbVisualStyle
  2
Brighten
 70
    12
 71
     2
 72
     2
 73
     0
 90
        0
 40
-0.6
 41
-30.0
 62
     5
 63
     7
 74
     1
 91
        4
 64
     7
 65
   257
 75
     1
175
     1
 42
1.0
 92
        8
 66
     7
 43
1.0
 76
     1
 77
     6
 78
     2
 67
     7
 79
     5
170
     0
171
     0
290
     0
174
     0
 93
        1
 44
50.0
173
     0
291
     1
 45
0.0
1001
ACAD
1000
AcDbSavedByObjectVersion
1070
     0
  0
VISUALSTYLE
  5
3A
102
{ACAD_REACTORS
330
2A
102
}
330
2A
100
AcDbVisualStyle
  2
ColorChange
 70
    16
 71
     2
 72
     2
 73
     3
 90
        0
 40
-0.6
 41
-30.0
 62
     5
 63
     8
 74
     1
 91
        4
 64
     7
 65
   257
 75
     1
175
     1
 42
1.0
 92
        8
 66
     8
 43
1.0
 76
     1
 77
     6
 78
     2
 67
     7
 79
     5
170
     0
171
     0
290
     0
174
     0
 93
        1
 44
0.0
173
     0
291
     1
 45
0.0
1001
ACAD
1000
AcDbSavedByObjectVersion
1070
     0
  0
VISUALSTYLE
  5
34
102
{ACAD_REACTORS
330
2A
102
}
330
2A
100
AcDbVisualStyle
  2
Conceptual
 70
     9
 71
     3
 72
     2
 73
     0
 90
        0
 40
-0.6
 41
-30.0
 62
     5
 63
     7
 74
     2
 91
        2
 64
     7
 65
   257
 75
     1
175
     1
 42
40.0
 92
        8
 66
     7
 43
1.0
 76
     1
 77
     6
 78
     2
 67
     7
 79
     3
170
     0
171
     0
290
     0
174
     0
 93
        1
 44
0.0
173
     0
291
     0
 45
0.0
1001
ACAD
1000
AcDbSavedByObjectVersion
1070
     0
  0
VISUALSTYLE
  5
35
102
{ACAD_REACTORS
330
2A
102
}
330
2A
100
AcDbVisualStyle
  2
Dim
 70
    11
 71
     2
 72
     2
 73
     0
 90
        0
 40
-0.6
 41
-30.0
 62
     5
 63
     7
 74
     1
 91
        4
 64
     7
 65
   257
 75
     1
175
     1
 42
1.0
 92
        8
 66
     7
 43
1.0
 76
     1
 77
     6
 78
     2
 67
     7
 79
     5
170
     0
171
     0
290
     0
174
     0
 93
        1
 44
-50.0
173
     0
291
     1
 45
0.0
1001
ACAD
1000
AcDbSavedByObjectVersion
1070
     0
  0
VISUALSTYLE
  5
39
102
{ACAD_REACTORS
330
2A
102
}
330
2A
100
AcDbVisualStyle
  2
Facepattern
 70
    15
 71
     2
 72
     2
 73
     0
 90
        0
 40
-0.6
 41
-30.0
 62
     5
 63
     7
 74
     1
 91
        4
 64
     7
 65
   257
 75
     1
175
     1
 42
1.0
 92
        8
 66
     7
 43
1.0
 76
     1
 77
     6
 78
     2
 67
     7
 79
     5
170
     0
171
     0
290
     0
174
     0
 93
        1
 44
0.0
173
     0
291
     1
 45
0.0
1001
ACAD
1000
AcDbSavedByObjectVersion
1070
     0
  0
VISUALSTYLE
  5
2B
102
{ACAD_REACTORS
330
2A
102
}
330
2A
100
AcDbVisualStyle
  2
Flat
 70
     0
 71
     2
 72
     1
 73
     1
 90
        2
 40
-0.6
 41
30.0
 62
     5
 63
     7
 74
     0
 91
        4
 64
     7
 65
   257
 75
     1
175
     1
 42
1.0
 92
        8
 66
     7
 43
1.0
 76
     1
 77
     6
 78
     2
 67
     7
 79
     5
170
     0
171
     0
290
     0
174
     0
 93
       13
 44
0.0
173
     0
291
     1
 45
0.0
1001
ACAD
1000
AcDbSavedByObjectVersion
1070
     0
  0
VISUALSTYLE
  5
2C
102
{ACAD_REACTORS
330
2A
102
}
330
2A
100
AcDbVisualStyle
  2
FlatWithEdges
 70
     1
 71
     2
 72
     1
 73
     1
 90
        2
 40
-0.6
 41
30.0
 62
     5
 63
     7
 74
     1
 91
        4
 64
     7
 65
   257
 75
     1
175
     1
 42
1.0
 92
        0
 66
   257
 43
1.0
 76
     1
 77
     6
 78
     2
 67
     7
 79
     5
170
     0
171
     0
290
     0
174
     0
 93
       13
 44
0.0
173
     0
291
     1
 45
0.0
1001
ACAD
1000
AcDbSavedByObjectVersion
1070
     0
  0
VISUALSTYLE
  5
2D
102
{ACAD_REACTORS
330
2A
102
}
330
2A
100
AcDbVisualStyle
  2
Gouraud
 70
     2
 71
     2
 72
     2
 73
     1
 90
        2
 40
-0.6
 41
30.0
 62
     5
 63
     7
 74
     0
 91
        4
 64
     7
 65
   257
 75
     1
175
     1
 42
1.0
 92
        0
 66
     7
 43
1.0
 76
     1
 77
     6
 78
     2
 67
     7
 79
     5
170
     0
171
     0
290
     0
174
     0
 93
       13
 44
0.0
173
     0
291
     1
 45
0.0
1001
ACAD
1000
AcDbSavedByObjectVersion
1070
     0
  0
VISUALSTYLE
  5
2E
102
{ACAD_REACTORS
330
2A
102
}
330
2A
100
AcDbVisualStyle
  2
GouraudWithEdges
 70
     3
 71
     2
 72
     2
 73
     1
 90
        2
 40
-0.6
 41
30.0
 62
     5
 63
     7
 74
     1
 91
        4
 64
     7
 65
   257
 75
     1
175
     1
 42
1.0
 92
        0
 66
   257
 43
1.0
 76
     1
 77
     6
 78
     2
 67
     7
 79
     5
170
     0
171
     0
290
     0
174
     0
 93
       13
 44
0.0
173
     0
291
     1
 45
0.0
1001
ACAD
1000
AcDbSavedByObjectVersion
1070
     0
  0
VISUALSTYLE
  5
38
102
{ACAD_REACTORS
330
2A
102
}
330
2A
100
AcDbVisualStyle
  2
Linepattern
 70
    14
 71
     2
 72
     2
 73
     0
 90
        0
 40
-0.6
 41
-30.0
 62
     5
 63
     7
 74
     1
 91
        4
 64
     7
 65
   257
 75
     7
175
     7
 42
1.0
 92
        8
 66
     7
 43
1.0
 76
     1
 77
     6
 78
     2
 67
     7
 79
     5
170
     0
171
     0
290
     0
174
     0
 93
        1
 44
0.0
173
     0
291
     1
 45
0.0
1001
ACAD
1000
AcDbSavedByObjectVersion
1070
     0
  0
VISUALSTYLE
  5
33
102
{ACAD_REACTORS
330
2A
102
}
330
2A
100
AcDbVisualStyle
  2
Realistic
 70
     8
 71
     2
 72
     2
 73
     0
 90
        0
 40
-0.6
 41
-30.0
 62
     5
 63
     7
 74
     1
 91
        0
 64
     7
 65
   257
 75
     1
175
     1
 42
1.0
 92
        8
 66
     8
 43
1.0
 76
     1
 77
     6
 78
     2
 67
     7
 79
     5
170
     0
171
     0
290
     0
174
     0
 93
       13
 44
0.0
173
     0
291
     0
 45
0.0
1001
ACAD
1000
AcDbSavedByObjectVersion
1070
     0
  0
VISUALSTYLE
  5
37
102
{ACAD_REACTORS
330
2A
102
}
330
2A
100
AcDbVisualStyle
  2
Thicken
 70
    13
 71
     2
 72
     2
 73
     0
 90
        0
 40
-0.6
 41
-30.0
 62
     5
 63
     7
 74
     1
 91
        4
 64
     7
 65
   257
 75
     1
175
     1
 42
1.0
 92
       12
 66
     7
 43
1.0
 76
     1
 77
     6
 78
     2
 67
     7
 79
     5
170
     0
171
     0
290
     0
174
     0
 93
        1
 44
0.0
173
     0
291
     1
 45
0.0
1001
ACAD
1000
AcDbSavedByObjectVersion
1070
     0
  0
DICTIONARYVAR
  5
14C
102
{ACAD_REACTORS
330
14B
102
}
330
14B
100
DictionaryVariables
280
     0
  1
1:1
  0
DICTIONARYVAR
  5
150
102
{ACAD_REACTORS
330
14B
102
}
330
14B
100
DictionaryVariables
280
     0
  1
80.000000
  0
DICTIONARYVAR
  5
14F
102
{ACAD_REACTORS
330
14B
102
}
330
14B
100
DictionaryVariables
280
     0
  1
5.000000
  0
ENDSEC
  0
EOF
