  0
SECTION
  2
HEADER
  9
$ACADVER
  1
AC1015
  9
$ACADMAINTVER
 70
     6
  9
$DWGCODEPAGE
  3
ANSI_1252
  9
$INSBASE
 10
0.0
 20
0.0
 30
0.0
  9
$EXTMIN
 10
0.0
 20
0.0
 30
0.0
  9
$EXTMAX
 10
3000.0
 20
4500.0
 30
0.0
  9
$LIMMIN
 10
0.0
 20
0.0
  9
$LIMMAX
 10
3000.0
 20
4500.0
  9
$ORTHOMODE
 70
     0
  9
$REGENMODE
 70
     1
  9
$FILLMODE
 70
     1
  9
$QTEXTMODE
 70
     0
  9
$MIRRTEXT
 70
     1
  9
$LTSCALE
 40
1.0
  9
$ATTMODE
 70
     1
  9
$TEXTSIZE
 40
2.5
  9
$TRACEWID
 40
1.0
  9
$TEXTSTYLE
  7
Standard
  9
$CLAYER
  8
0
  9
$CELTYPE
  6
ByLayer
  9
$CECOLOR
 62
   256
  9
$CELTSCALE
 40
1.0
  9
$DISPSILH
 70
     0
  9
$DIMSCALE
 40
1.0
  9
$DIMASZ
 40
2.5
  9
$DIMEXO
 40
0.625
  9
$DIMDLI
 40
3.75
  9
$DIMRND
 40
0.0
  9
$DIMDLE
 40
0.0
  9
$DIMEXE
 40
1.25
  9
$DIMTP
 40
0.0
  9
$DIMTM
 40
0.0
  9
$DIMTXT
 40
2.5
  9
$DIMCEN
 40
2.5
  9
$DIMTSZ
 40
0.0
  9
$DIMTOL
 70
     0
  9
$DIMLIM
 70
     0
  9
$DIMTIH
 70
     0
  9
$DIMTOH
 70
     0
  9
$DIMSE1
 70
     0
  9
$DIMSE2
 70
     0
  9
$DIMTAD
 70
     1
  9
$DIMZIN
 70
     8
  9
$DIMBLK
  1

  9
$DIMASO
 70
     1
  9
$DIMSHO
 70
     1
  9
$DIMPOST
  1

  9
$DIMAPOST
  1

  9
$DIMALT
 70
     0
  9
$DIMALTD
 70
     3
  9
$DIMALTF
 40
0.0393700787
  9
$DIMLFAC
 40
1.0
  9
$DIMTOFL
 70
     1
  9
$DIMTVP
 40
0.0
  9
$DIMTIX
 70
     0
  9
$DIMSOXD
 70
     0
  9
$DIMSAH
 70
     0
  9
$DIMBLK1
  1

  9
$DIMBLK2
  1

  9
$DIMSTYLE
  2
ISO-25
  9
$DIMCLRD
 70
     0
  9
$DIMCLRE
 70
     0
  9
$DIMCLRT
 70
     0
  9
$DIMTFAC
 40
1.0
  9
$DIMGAP
 40
0.625
  9
$DIMJUST
 70
     0
  9
$DIMSD1
 70
     0
  9
$DIMSD2
 70
     0
  9
$DIMTOLJ
 70
     0
  9
$DIMTZIN
 70
     8
  9
$DIMALTZ
 70
     0
  9
$DIMALTTZ
 70
     0
  9
$DIMUPT
 70
     0
  9
$DIMDEC
 70
     2
  9
$DIMTDEC
 70
     2
  9
$DIMALTU
 70
     2
  9
$DIMALTTD
 70
     3
  9
$DIMTXSTY
  7
Standard
  9
$DIMAUNIT
 70
     0
  9
$DIMADEC
 70
     0
  9
$DIMALTRND
 40
0.0
  9
$DIMAZIN
 70
     0
  9
$DIMDSEP
 70
    44
  9
$DIMATFIT
 70
     3
  9
$DIMFRAC
 70
     0
  9
$DIMLDRBLK
  1

  9
$DIMLUNIT
 70
     2
  9
$DIMLWD
 70
    -2
  9
$DIMLWE
 70
    -2
  9
$DIMTMOVE
 70
     0
  9
$LUNITS
 70
     2
  9
$LUPREC
 70
     4
  9
$SKETCHINC
 40
1.0
  9
$FILLETRAD
 40
10.0
  9
$AUNITS
 70
     0
  9
$AUPREC
 70
     0
  9
$MENU
  1
.
  9
$ELEVATION
 40
0.0
  9
$PELEVATION
 40
0.0
  9
$THICKNESS
 40
0.0
  9
$LIMCHECK
 70
     0
  9
$CHAMFERA
 40
10.0
  9
$CHAMFERB
 40
10.0
  9
$CHAMFERC
 40
20.0
  9
$CHAMFERD
 40
0.0
  9
$SKPOLY
 70
     0
  9
$TDCREATE
 40
2456028.530853935
  9
$TDUCREATE
 40
2456028.447520602
  9
$TDUPDATE
 40
2456028.530853947
  9
$TDUUPDATE
 40
2456028.447520613
  9
$TDINDWG
 40
0.0000000116
  9
$TDUSRTIMER
 40
0.0000000116
  9
$USRTIMER
 70
     1
  9
$ANGBASE
 50
0.0
  9
$ANGDIR
 70
     0
  9
$PDMODE
 70
     0
  9
$PDSIZE
 40
0.0
  9
$PLINEWID
 40
0.0
  9
$SPLFRAME
 70
     0
  9
$SPLINETYPE
 70
     6
  9
$SPLINESEGS
 70
     8
  9
$HANDSEED
  5
14D
  9
$SURFTAB1
 70
     6
  9
$SURFTAB2
 70
     6
  9
$SURFTYPE
 70
     6
  9
$SURFU
 70
     6
  9
$SURFV
 70
     6
  9
$UCSBASE
  2

  9
$UCSNAME
  2

  9
$UCSORG
 10
0.0
 20
0.0
 30
0.0
  9
$UCSXDIR
 10
1.0
 20
0.0
 30
0.0
  9
$UCSYDIR
 10
0.0
 20
1.0
 30
0.0
  9
$UCSORTHOREF
  2

  9
$UCSORTHOVIEW
 70
     0
  9
$UCSORGTOP
 10
0.0
 20
0.0
 30
0.0
  9
$UCSORGBOTTOM
 10
0.0
 20
0.0
 30
0.0
  9
$UCSORGLEFT
 10
0.0
 20
0.0
 30
0.0
  9
$UCSORGRIGHT
 10
0.0
 20
0.0
 30
0.0
  9
$UCSORGFRONT
 10
0.0
 20
0.0
 30
0.0
  9
$UCSORGBACK
 10
0.0
 20
0.0
 30
0.0
  9
$PUCSBASE
  2

  9
$PUCSNAME
  2

  9
$PUCSORG
 10
0.0
 20
0.0
 30
0.0
  9
$PUCSXDIR
 10
1.0
 20
0.0
 30
0.0
  9
$PUCSYDIR
 10
0.0
 20
1.0
 30
0.0
  9
$PUCSORTHOREF
  2

  9
$PUCSORTHOVIEW
 70
     0
  9
$PUCSORGTOP
 10
0.0
 20
0.0
 30
0.0
  9
$PUCSORGBOTTOM
 10
0.0
 20
0.0
 30
0.0
  9
$PUCSORGLEFT
 10
0.0
 20
0.0
 30
0.0
  9
$PUCSORGRIGHT
 10
0.0
 20
0.0
 30
0.0
  9
$PUCSORGFRONT
 10
0.0
 20
0.0
 30
0.0
  9
$PUCSORGBACK
 10
0.0
 20
0.0
 30
0.0
  9
$USERI1
 70
     0
  9
$USERI2
 70
     0
  9
$USERI3
 70
     0
  9
$USERI4
 70
     0
  9
$USERI5
 70
     0
  9
$USERR1
 40
0.0
  9
$USERR2
 40
0.0
  9
$USERR3
 40
0.0
  9
$USERR4
 40
0.0
  9
$USERR5
 40
0.0
  9
$WORLDVIEW
 70
     1
  9
$SHADEDGE
 70
     3
  9
$SHADEDIF
 70
    70
  9
$TILEMODE
 70
     1
  9
$MAXACTVP
 70
    64
  9
$PINSBASE
 10
0.0
 20
0.0
 30
0.0
  9
$PLIMCHECK
 70
     0
  9
$PEXTMIN
 10
0.0
 20
0.0
 30
0.0
  9
$PEXTMAX
 10
3000.0
 20
4500.0
 30
0.0
  9
$PLIMMIN
 10
0.0
 20
0.0
  9
$PLIMMAX
 10
3000.0
 20
4500.0
  9
$UNITMODE
 70
     0
  9
$VISRETAIN
 70
     1
  9
$PLINEGEN
 70
     0
  9
$PSLTSCALE
 70
     1
  9
$TREEDEPTH
 70
  3020
  9
$CMLSTYLE
  2
Standard
  9
$CMLJUST
 70
     0
  9
$CMLSCALE
 40
20.0
  9
$PROXYGRAPHICS
 70
     1
  9
$MEASUREMENT
 70
     1
  9
$CELWEIGHT
370
    -1
  9
$ENDCAPS
280
     0
  9
$JOINSTYLE
280
     0
  9
$LWDISPLAY
290
     0
  9
$INSUNITS
 70
     4
  9
$HYPERLINKBASE
  1

  9
$STYLESHEET
  1

  9
$XEDIT
290
     1
  9
$CEPSNTYPE
380
     0
  9
$PSTYLEMODE
290
     1
  9
$FINGERPRINTGUID
  2
{DAC501AA-437F-48BB-8EC5-55DF633EF0FD}
  9
$VERSIONGUID
  2
{FAEB1C32-E019-11D5-929B-00C0DF256EC4}
  9
$EXTNAMES
290
     1
  9
$PSVPSCALE
 40
0.0
  9
$OLESTARTUP
290
     0
  0
ENDSEC
  0
SECTION
  2
CLASSES
  0
CLASS
  1
ACDBDICTIONARYWDFLT
  2
AcDbDictionaryWithDefault
  3
ObjectDBX Classes
 90
        0
280
     0
281
     0
  0
CLASS
  1
VISUALSTYLE
  2
AcDbVisualStyle
  3
ObjectDBX Classes
 90
     4095
280
     0
281
     0
  0
CLASS
  1
SCALE
  2
AcDbScale
  3
ObjectDBX Classes
 90
     1153
280
     0
281
     0
  0
CLASS
  1
DICTIONARYVAR
  2
AcDbDictionaryVar
  3
ObjectDBX Classes
 90
        0
280
     0
281
     0
  0
CLASS
  1
ACDBPLACEHOLDER
  2
AcDbPlaceHolder
  3
ObjectDBX Classes
 90
        0
280
     0
281
     0
  0
CLASS
  1
LAYOUT
  2
AcDbLayout
  3
ObjectDBX Classes
 90
        0
280
     0
281
     0
  0
ENDSEC
  0
SECTION
  2
TABLES
  0
TABLE
  2
VPORT
  5
8
330
0
100
AcDbSymbolTable
 70
     1
  0
VPORT
  5
29
330
8
100
AcDbSymbolTableRecord
100
AcDbViewportTableRecord
  2
*Active
 70
     0
 10
0.0
 20
0.0
 11
1.0
 21
1.0
 12
344.1869158879
 22
148.5
 13
0.0
 23
0.0
 14
10.0
 24
10.0
 15
10.0
 25
10.0
 16
0.0
 26
0.0
 36
1.0
 17
0.0
 27
0.0
 37
0.0
 40
297.0
 41
1.9729729729
 42
50.0
 43
0.0
 44
0.0
 50
0.0
 51
0.0
 71
     0
 72
   100
 73
     1
 74
     3
 75
     0
 76
     0
 77
     0
 78
     0
281
     0
 65
     1
110
0.0
120
0.0
130
0.0
111
1.0
121
0.0
131
0.0
112
0.0
122
1.0
132
0.0
 79
     0
146
0.0
  0
ENDTAB
  0
TABLE
  2
LTYPE
  5
5
330
0
100
AcDbSymbolTable
 70
     2
  0
LTYPE
  5
14
330
5
100
AcDbSymbolTableRecord
100
AcDbLinetypeTableRecord
  2
ByBlock
 70
     0
  3

 72
    65
 73
     0
 40
0.0
  0
LTYPE
  5
15
330
5
100
AcDbSymbolTableRecord
100
AcDbLinetypeTableRecord
  2
ByLayer
 70
     0
  3

 72
    65
 73
     0
 40
0.0
  0
LTYPE
  5
16
330
5
100
AcDbSymbolTableRecord
100
AcDbLinetypeTableRecord
  2
Continuous
 70
     0
  3
Solid line
 72
    65
 73
     0
 40
0.0
  0
LTYPE
  5
61
330
5
100
AcDbSymbolTableRecord
100
AcDbLinetypeTableRecord
  2
CENTER2
 70
     0
  3
Center (.5x) ___ _ ___ _ ___ _ ___ _ ___ _ ___
 72
    65
 73
     4
 40
28.575
 49
19.05
 74
     4
 75
     0
340
0
 46
0.0
 50
0.0
 44
0.0
 45
0.0
 49
-3.175
 74
     4
 75
     0
340
0
 46
0.0
 50
0.0
 44
0.0
 45
0.0
 49
3.175
 74
     4
 75
     0
340
0
 46
0.0
 50
0.0
 44
0.0
 45
0.0
 49
-3.175
 74
     4
 75
     0
340
0
 46
0.0
 50
0.0
 44
0.0
 45
0.0
  0
ENDTAB
  0
TABLE
  2
LAYER
  5
2
330
0
100
AcDbSymbolTable
 70
     9
  0
LAYER
  5
10
330
2
100
AcDbSymbolTableRecord
100
AcDbLayerTableRecord
  2
0
 70
     0
 62
     7
  6
Continuous
370
    -3
390
F
  0
LAYER
  5
5D
330
2
100
AcDbSymbolTableRecord
100
AcDbLayerTableRecord
  2
Default
 70
     0
 62
     7
  6
Continuous
370
    -3
390
F
  0
LAYER
  5
79
330
2
100
AcDbSymbolTableRecord
100
AcDbLayerTableRecord
  2
403421038_ROSETT
 70
     0
 62
     7
  6
Continuous
370
    -3
390
F
  0
LAYER
  5
84
330
2
100
AcDbSymbolTableRecord
100
AcDbLayerTableRecord
  2
$DDT_AUDIT_GENERATED_(84)
 70
     0
 62
     7
  6
Continuous
370
    -3
390
F
  0
LAYER
  5
9A
330
2
100
AcDbSymbolTableRecord
100
AcDbLayerTableRecord
  2
$DDT_AUDIT_GENERATED_(9A)
 70
     0
 62
     7
  6
Continuous
370
    -3
390
F
  0
LAYER
  5
9F
330
2
100
AcDbSymbolTableRecord
100
AcDbLayerTableRecord
  2
$DDT_AUDIT_GENERATED_(9F)
 70
     0
 62
     7
  6
Continuous
370
    -3
390
F
  0
LAYER
  5
A4
330
2
100
AcDbSymbolTableRecord
100
AcDbLayerTableRecord
  2
$DDT_AUDIT_GENERATED_(A4)
 70
     0
 62
     7
  6
Continuous
370
    -3
390
F
  0
LAYER
  5
AC
330
2
100
AcDbSymbolTableRecord
100
AcDbLayerTableRecord
  2
$DDT_AUDIT_GENERATED_(AC)
 70
     0
 62
     7
  6
Continuous
370
    -3
390
F
  0
LAYER
  5
137
330
2
100
AcDbSymbolTableRecord
100
AcDbLayerTableRecord
  2
$DDT_AUDIT_GENERATED_(137)
 70
     0
 62
     7
  6
Continuous
370
    -3
390
F
  0
ENDTAB
  0
TABLE
  2
STYLE
  5
3
330
0
100
AcDbSymbolTable
 70
     2
  0
STYLE
  5
11
330
3
100
AcDbSymbolTableRecord
100
AcDbTextStyleTableRecord
  2
Standard
 70
     0
 40
0.0
 41
1.0
 50
0.0
 71
     0
 42
2.5
  3
txt
  4

  0
STYLE
  5
13C
330
3
100
AcDbSymbolTableRecord
100
AcDbTextStyleTableRecord
  2
SEACAD_seiso_ttf
 70
     0
 40
0.0
 41
1.0
 50
0.0
 71
     0
 42
0.2
  3
seiso.ttf
  4

  0
ENDTAB
  0
TABLE
  2
VIEW
  5
6
330
0
100
AcDbSymbolTable
 70
     0
  0
ENDTAB
  0
TABLE
  2
UCS
  5
7
330
0
100
AcDbSymbolTable
 70
     0
  0
ENDTAB
  0
TABLE
  2
APPID
  5
9
330
0
100
AcDbSymbolTable
 70
     1
  0
APPID
  5
12
330
9
100
AcDbSymbolTableRecord
100
AcDbRegAppTableRecord
  2
ACAD
 70
     0
  0
ENDTAB
  0
TABLE
  2
DIMSTYLE
  5
A
330
0
100
AcDbSymbolTable
 70
     1
100
AcDbDimStyleTable
  0
DIMSTYLE
105
27
330
A
100
AcDbSymbolTableRecord
100
AcDbDimStyleTableRecord
  2
ISO-25
 70
     0
 41
2.5
 42
0.625
 43
3.75
 44
1.25
 73
     0
 74
     0
 77
     1
 78
     8
140
2.5
141
2.5
143
0.0393700787
147
0.625
171
     3
172
     1
271
     2
272
     2
274
     3
278
    44
283
     0
284
     8
340
11
  0
ENDTAB
  0
TABLE
  2
BLOCK_RECORD
  5
1
330
0
100
AcDbSymbolTable
 70
     7
  0
BLOCK_RECORD
  5
1F
330
1
100
AcDbSymbolTableRecord
100
AcDbBlockTableRecord
  2
*Model_Space
340
22
  0
BLOCK_RECORD
  5
1B
330
1
100
AcDbSymbolTableRecord
100
AcDbBlockTableRecord
  2
*Paper_Space
340
1E
  0
BLOCK_RECORD
  5
5F
330
1
100
AcDbSymbolTableRecord
100
AcDbBlockTableRecord
  2
SEANNOT_GROUP
340
0
102
{BLKREFS
331
60
102
}
  0
BLOCK_RECORD
  5
67
330
1
100
AcDbSymbolTableRecord
100
AcDbBlockTableRecord
  2
SEANNOT_GROUP1
340
0
102
{BLKREFS
331
68
102
}
  0
BLOCK_RECORD
  5
6D
330
1
100
AcDbSymbolTableRecord
100
AcDbBlockTableRecord
  2
SEANNOT_GROUP2
340
0
102
{BLKREFS
331
6E
102
}
  0
BLOCK_RECORD
  5
77
330
1
100
AcDbSymbolTableRecord
100
AcDbBlockTableRecord
  2
SE
340
0
102
{BLKREFS
331
78
102
}
  0
BLOCK_RECORD
  5
C4
330
1
100
AcDbSymbolTableRecord
100
AcDbBlockTableRecord
  2
SE1
340
0
102
{BLKREFS
331
C5
102
}
  0
BLOCK_RECORD
  5
103
330
1
100
AcDbSymbolTableRecord
100
AcDbBlockTableRecord
  2
SE2
340
0
102
{BLKREFS
331
104
102
}
  0
ENDTAB
  0
ENDSEC
  0
SECTION
  2
BLOCKS
  0
BLOCK
  5
20
330
1F
100
AcDbEntity
  8
0
100
AcDbBlockBegin
  2
*Model_Space
 70
     0
 10
0.0
 20
0.0
 30
0.0
  3
*Model_Space
  1

  0
ENDBLK
  5
21
330
1F
100
AcDbEntity
  8
0
100
AcDbBlockEnd
  0
BLOCK
  5
1C
330
1B
100
AcDbEntity
 67
     1
  8
0
100
AcDbBlockBegin
  2
*Paper_Space
 70
     0
 10
0.0
 20
0.0
 30
0.0
  3
*Paper_Space
  1

  0
ENDBLK
  5
1D
330
1B
100
AcDbEntity
 67
     1
  8
0
100
AcDbBlockEnd
  0
BLOCK
  5
64
330
5F
100
AcDbEntity
  8
0
100
AcDbBlockBegin
  2
SEANNOT_GROUP
 70
     0
 10
0.0
 20
0.0
 30
0.0
  3
SEANNOT_GROUP
  1

  0
LINE
  5
62
330
5F
100
AcDbEntity
  8
Default
  6
CENTER2
 62
     7
100
AcDbLine
 10
129.9833175621
 20
262.701151691
 30
0.0
 11
89.9833184562
 21
262.701151691
 31
0.0
  0
LINE
  5
63
330
5F
100
AcDbEntity
  8
Default
  6
CENTER2
 62
     7
100
AcDbLine
 10
109.9833180091
 20
282.7011512439
 30
0.0
 11
109.9833180091
 21
242.701152138
 31
0.0
  0
ENDBLK
  5
65
330
5F
100
AcDbEntity
  8
0
100
AcDbBlockEnd
  0
BLOCK
  5
6B
330
67
100
AcDbEntity
  8
0
100
AcDbBlockBegin
  2
SEANNOT_GROUP1
 70
     0
 10
0.0
 20
0.0
 30
0.0
  3
SEANNOT_GROUP1
  1

  0
LINE
  5
69
330
67
100
AcDbEntity
  8
Default
  6
CENTER2
 62
     7
100
AcDbLine
 10
306.6510983828
 20
262.701151691
 30
0.0
 11
266.6510992769
 21
262.701151691
 31
0.0
  0
LINE
  5
6A
330
67
100
AcDbEntity
  8
Default
  6
CENTER2
 62
     7
100
AcDbLine
 10
286.6510988299
 20
282.7011512439
 30
0.0
 11
286.6510988299
 21
242.701152138
 31
0.0
  0
ENDBLK
  5
6C
330
67
100
AcDbEntity
  8
0
100
AcDbBlockEnd
  0
BLOCK
  5
75
330
6D
100
AcDbEntity
  8
0
100
AcDbBlockBegin
  2
SEANNOT_GROUP2
 70
     0
 10
0.0
 20
0.0
 30
0.0
  3
SEANNOT_GROUP2
  1

  0
LINE
  5
6F
330
6D
100
AcDbEntity
  8
Default
  6
CENTER2
 62
     7
100
AcDbLine
 10
129.9833175621
 20
148.85
 30
0.0
 11
89.9833184562
 21
148.85
 31
0.0
  0
LINE
  5
70
330
6D
100
AcDbEntity
  8
Default
  6
CENTER2
 62
     7
100
AcDbLine
 10
109.9833180091
 20
168.849999553
 30
0.0
 11
109.9833180091
 21
128.850000447
 31
0.0
  0
LINE
  5
71
330
6D
100
AcDbEntity
  8
Default
  6
CENTER2
 62
     7
100
AcDbLine
 10
134.9833174503
 20
148.85
 30
0.0
 11
123.9833180091
 21
148.85
 31
0.0
  0
LINE
  5
72
330
6D
100
AcDbEntity
  8
Default
  6
CENTER2
 62
     7
100
AcDbLine
 10
109.9833180091
 20
173.8499994412
 30
0.0
 11
109.9833180091
 21
162.85
 31
0.0
  0
LINE
  5
73
330
6D
100
AcDbEntity
  8
Default
  6
CENTER2
 62
     7
100
AcDbLine
 10
84.9833185679
 20
148.85
 30
0.0
 11
95.9833180091
 21
148.85
 31
0.0
  0
LINE
  5
74
330
6D
100
AcDbEntity
  8
Default
  6
CENTER2
 62
     7
100
AcDbLine
 10
109.9833180091
 20
123.8500005588
 30
0.0
 11
109.9833180091
 21
134.85
 31
0.0
  0
ENDBLK
  5
76
330
6D
100
AcDbEntity
  8
0
100
AcDbBlockEnd
  0
BLOCK
  5
C2
330
77
100
AcDbEntity
  8
0
100
AcDbBlockBegin
  2
SE
 70
     0
 10
0.0
 20
0.0
 30
0.0
  3
SE
  1

  0
LINE
  5
7A
330
77
100
AcDbEntity
  8
403421038_ROSETT
  6
Continuous
 62
     7
100
AcDbLine
 10
151.2833180091
 20
272.701151691
 30
0.0
 11
150.8833180091
 21
272.701151691
 31
0.0
  0
LINE
  5
7B
330
77
100
AcDbEntity
  8
403421038_ROSETT
  6
Continuous
 62
     7
100
AcDbLine
 10
152.4833180091
 20
271.501151691
 30
0.0
 11
152.4833180091
 21
262.701151691
 31
0.0
  0
LINE
  5
7C
330
77
100
AcDbEntity
  8
403421038_ROSETT
  6
Continuous
 62
     7
100
AcDbLine
 10
152.4833180091
 20
262.701151691
 30
0.0
 11
150.8833180091
 21
262.701151691
 31
0.0
  0
ARC
  5
7D
330
77
100
AcDbEntity
  8
403421038_ROSETT
  6
Continuous
 62
     7
100
AcDbCircle
 10
151.2833180091
 20
271.501151691
 30
0.0
 40
1.2
100
AcDbArc
 50
0.0
 51
90.0
  0
LINE
  5
7E
330
77
100
AcDbEntity
  8
403421038_ROSETT
  6
Continuous
 62
     7
100
AcDbLine
 10
69.0833180091
 20
272.701151691
 30
0.0
 11
150.8833180091
 21
272.701151691
 31
0.0
  0
LINE
  5
7F
330
77
100
AcDbEntity
  8
403421038_ROSETT
  6
Continuous
 62
     7
100
AcDbLine
 10
69.0833180091
 20
272.701151691
 30
0.0
 11
68.6833180091
 21
272.701151691
 31
0.0
  0
ARC
  5
80
330
77
100
AcDbEntity
  8
403421038_ROSETT
  6
Continuous
 62
     7
100
AcDbCircle
 10
68.6833180091
 20
271.501151691
 30
0.0
 40
1.2
100
AcDbArc
 50
90.0
 51
180.0
  0
LINE
  5
81
330
77
100
AcDbEntity
  8
403421038_ROSETT
  6
Continuous
 62
     7
100
AcDbLine
 10
69.0833180091
 20
262.701151691
 30
0.0
 11
150.8833180091
 21
262.701151691
 31
0.0
  0
LINE
  5
82
330
77
100
AcDbEntity
  8
403421038_ROSETT
  6
Continuous
 62
     7
100
AcDbLine
 10
69.0833180091
 20
262.701151691
 30
0.0
 11
67.4833180091
 21
262.701151691
 31
0.0
  0
LINE
  5
83
330
77
100
AcDbEntity
  8
403421038_ROSETT
  6
Continuous
 62
     7
100
AcDbLine
 10
67.4833180091
 20
262.701151691
 30
0.0
 11
67.4833180091
 21
271.501151691
 31
0.0
  0
ELLIPSE
  5
85
330
77
100
AcDbEntity
  8
$DDT_AUDIT_GENERATED_(84)
  6
Continuous
 62
     7
100
AcDbEllipse
 10
109.7001215727
 20
178.9413314911
 30
0.0
 11
0.0
 21
119.8695065422804
 31
0.0
210
0.0
220
0.0
230
1.0
 40
1.0
 41
0.0805130233525462
 42
0.2144429868454443
  0
ELLIPSE
  5
86
330
77
100
AcDbEntity
  8
$DDT_AUDIT_GENERATED_(84)
  6
Continuous
 62
     7
100
AcDbEllipse
 10
110.2665144457
 20
178.9413314911
 30
0.0
 11
0.0
 21
119.8695065422456
 31
0.0
210
0.0
220
0.0
230
1.0
 40
1.0
 41
0.0805130233524678
 42
0.2144429868454099
  0
ARC
  5
87
330
77
100
AcDbEntity
  8
$DDT_AUDIT_GENERATED_(84)
  6
Continuous
 62
     7
100
AcDbCircle
 10
100.6661505391
 20
298.095859416
 30
0.0
 40
0.3291432174244898
100
AcDbArc
 50
89.2785407621
 51
97.0274426268
  0
ELLIPSE
  5
88
330
77
100
AcDbEntity
  8
$DDT_AUDIT_GENERATED_(84)
  6
Continuous
 62
     7
100
AcDbEllipse
 10
84.9627643244
 20
295.1224218444
 30
0.0
 11
0.0557737942237825
 21
-0.1920658321458643
 31
0.0
210
0.0
220
0.0
230
1.0
 40
0.4849014378
 41
2.996982397021126
 42
3.143929101066806
  0
ELLIPSE
  5
89
330
77
100
AcDbEntity
  8
$DDT_AUDIT_GENERATED_(84)
  6
Continuous
 62
     7
100
AcDbEllipse
 10
109.7001215729
 20
178.9413314936
 30
0.0
 11
0.0
 21
119.1030956472657
 31
0.0
210
0.0
220
0.0
230
1.0
 40
1.0
 41
-0.2144429868468394
 42
-0.0805130233511557
  0
ARC
  5
8A
330
77
100
AcDbEntity
  8
$DDT_AUDIT_GENERATED_(84)
  6
Continuous
 62
     7
100
AcDbCircle
 10
119.3004806369
 20
298.0958625421
 30
0.0
 40
0.32914070719727
100
AcDbArc
 50
82.9716541939
 51
91.8375645967
  0
ELLIPSE
  5
8B
330
77
100
AcDbEntity
  8
$DDT_AUDIT_GENERATED_(84)
  6
Continuous
 62
     7
100
AcDbEllipse
 10
110.266514446
 20
178.9413314939
 30
0.0
 11
0.0
 21
119.1030956469248
 31
0.0
210
0.0
220
0.0
230
1.0
 40
1.0
 41
-0.2144429868470377
 42
-0.0805130233509652
  0
ELLIPSE
  5
8C
330
77
100
AcDbEntity
  8
$DDT_AUDIT_GENERATED_(84)
  6
Continuous
 62
     7
100
AcDbEllipse
 10
135.0038716939
 20
295.1224218444
 30
0.0
 11
-0.05577379422374087
 21
-0.1920658321458366
 31
0.0
210
0.0
220
0.0
230
1.0
 40
0.4849014378
 41
3.138059668990834
 42
3.286202910157893
  0
ARC
  5
8D
330
77
100
AcDbEntity
  8
$DDT_AUDIT_GENERATED_(84)
  6
Continuous
 62
     7
100
AcDbCircle
 10
109.9833180091
 20
178.9413314916
 30
0.0
 40
120.0
100
AcDbArc
 50
75.8812106652
 51
84.6702822967
  0
ARC
  5
8E
330
77
100
AcDbEntity
  8
$DDT_AUDIT_GENERATED_(84)
  6
Continuous
 62
     7
100
AcDbCircle
 10
121.0833180091
 20
297.9246916727
 30
0.0
 40
0.5000000000000078
100
AcDbArc
 50
84.6702822967
 51
90.0
  0
LINE
  5
8F
330
77
100
AcDbEntity
  8
$DDT_AUDIT_GENERATED_(84)
  6
Continuous
 62
     7
100
AcDbLine
 10
121.0833180091
 20
298.4246916727
 30
0.0
 11
119.8661866237
 21
298.4246916727
 31
0.0
  0
ARC
  5
90
330
77
100
AcDbEntity
  8
$DDT_AUDIT_GENERATED_(84)
  6
Continuous
 62
     7
100
AcDbCircle
 10
139.1333180091
 20
294.8314842225
 30
0.0
 40
0.5000000000000004
100
AcDbArc
 50
37.1595025667
 51
75.8812106652
  0
ARC
  5
91
330
77
100
AcDbEntity
  8
$DDT_AUDIT_GENERATED_(84)
  6
Continuous
 62
     7
100
AcDbCircle
 10
80.8333180091
 20
294.8314842225
 30
0.0
 40
0.5000000000000081
100
AcDbArc
 50
104.1187893348
 51
142.8404974333
  0
ARC
  5
92
330
77
100
AcDbEntity
  8
$DDT_AUDIT_GENERATED_(84)
  6
Continuous
 62
     7
100
AcDbCircle
 10
109.9833180091
 20
178.9413314916
 30
0.0
 40
120.0
100
AcDbArc
 50
95.3297177033
 51
104.1187893348
  0
ARC
  5
93
330
77
100
AcDbEntity
  8
$DDT_AUDIT_GENERATED_(84)
  6
Continuous
 62
     7
100
AcDbCircle
 10
98.8833180091
 20
297.9246916727
 30
0.0
 40
0.5000000000000004
100
AcDbArc
 50
90.0
 51
95.3297177033
  0
LINE
  5
94
330
77
100
AcDbEntity
  8
$DDT_AUDIT_GENERATED_(84)
  6
Continuous
 62
     7
100
AcDbLine
 10
100.1009130084
 20
298.4246916727
 30
0.0
 11
98.8833180091
 21
298.4246916727
 31
0.0
  0
SPLINE
  5
95
330
77
100
AcDbEntity
  8
$DDT_AUDIT_GENERATED_(84)
  6
Continuous
 62
     7
100
AcDbSpline
210
0.0
220
0.0
230
1.0
 70
     8
 71
     3
 72
    10
 73
     6
 74
     0
 42
0.0000000138290303
 43
0.0000000001
 40
0.727129422057959
 40
0.727129422057959
 40
0.727129422057959
 40
0.727129422057959
 40
0.7639919570118217
 40
0.9069554942140291
 40
1.0
 40
1.0
 40
1.0
 40
1.0
 10
100.2921123097082
 20
298.382274076625
 30
0.0
 10
100.2839177170581
 20
298.3859556704274
 30
0.0
 10
100.2434535240342
 20
298.4030041025076
 30
0.0
 10
100.1783350501104
 20
298.4222285119107
 30
0.0
 10
100.1259846948334
 20
298.4217529476833
 30
0.0
 10
100.1018142285319
 20
298.4212771189846
 30
0.0
  0
SPLINE
  5
96
330
77
100
AcDbEntity
  8
$DDT_AUDIT_GENERATED_(84)
  6
Continuous
 62
     7
100
AcDbSpline
210
0.0
220
0.0
230
1.0
 70
     8
 71
     3
 72
    11
 73
     7
 74
     0
 42
0.0000000171265943
 43
0.0000000001
 40
0.0
 40
0.0
 40
0.0
 40
0.0
 40
0.1403268930201839
 40
0.3202839053042075
 40
0.5007777389213369
 40
0.5528503515624686
 40
0.5528503515624686
 40
0.5528503515624686
 40
0.5528503515624686
 10
84.90729126468473
 20
295.3124586887167
 30
0.0
 10
84.87940669520866
 20
295.3038844836381
 30
0.0
 10
84.82538979124105
 20
295.28657533936
 30
0.0
 10
84.7416658313627
 20
295.2322846494624
 30
0.0
 10
84.68263148960521
 20
295.1773516125893
 30
0.0
 10
84.65243647125598
 20
295.1424556696256
 30
0.0
 10
84.64584269719882
 20
295.1344964262675
 30
0.0
  0
LINE
  5
97
330
77
100
AcDbEntity
  8
$DDT_AUDIT_GENERATED_(84)
  6
Continuous
 62
     7
100
AcDbLine
 10
119.3020087193
 20
298.4246916727
 30
0.0
 11
100.6651363415
 21
298.4246916727
 31
0.0
  0
SPLINE
  5
98
330
77
100
AcDbEntity
  8
$DDT_AUDIT_GENERATED_(84)
  6
Continuous
 62
     7
100
AcDbSpline
210
0.0
220
0.0
230
1.0
 70
     8
 71
     3
 72
    10
 73
     6
 74
     0
 42
0.000000013797433
 43
0.0000000001
 40
0.0
 40
0.0
 40
0.0
 40
0.0
 40
0.1034878768686418
 40
0.2473816972264355
 40
0.2748767963772278
 40
0.2748767963772278
 40
0.2748767963772278
 40
0.2748767963772278
 10
119.8668384172134
 20
298.422230150982
 30
0.0
 10
119.8398452665448
 20
298.4221798277822
 30
0.0
 10
119.7848423431944
 20
298.4214225200463
 30
0.0
 10
119.7192753066787
 20
298.4016149860736
 30
0.0
 10
119.6806609750511
 20
298.3850949291605
 30
0.0
 10
119.6745234874687
 20
298.3823375248339
 30
0.0
  0
SPLINE
  5
99
330
77
100
AcDbEntity
  8
$DDT_AUDIT_GENERATED_(84)
  6
Continuous
 62
     7
100
AcDbSpline
210
0.0
220
0.0
230
1.0
 70
     8
 71
     3
 72
    11
 73
     7
 74
     0
 42
0.0000000171175552
 43
0.0000000001
 40
0.447873132201172
 40
0.447873132201172
 40
0.447873132201172
 40
0.447873132201172
 40
0.526273017539496
 40
0.7300992811290721
 40
0.9117718673590761
 40
1.0
 40
1.0
 40
1.0
 40
1.0
 10
135.3204629536105
 20
295.134869002362
 30
0.0
 10
135.3105291401656
 20
295.1468360776775
 30
0.0
 10
135.2733833871661
 20
295.188756065802
 30
0.0
 10
135.2047997271191
 20
295.2475650678491
 30
0.0
 10
135.1231732975
 20
295.2952114935713
 30
0.0
 10
135.0768729324586
 20
295.3072253920939
 30
0.0
 10
135.0591288274657
 20
295.3116769527978
 30
0.0
  0
ARC
  5
9B
330
77
100
AcDbEntity
  8
$DDT_AUDIT_GENERATED_(9A)
  6
Continuous
 62
     7
100
AcDbCircle
 10
110.0027884561
 20
178.9433117795
 30
0.0
 40
120.0
100
AcDbArc
 50
90.0092964537
 51
94.8096077531
  0
ARC
  5
9C
330
77
100
AcDbEntity
  8
$DDT_AUDIT_GENERATED_(9A)
  6
Continuous
 62
     7
100
AcDbCircle
 10
109.9638475621
 20
178.9433117795
 30
0.0
 40
120.0
100
AcDbArc
 50
85.1903922469
 51
89.9907035463
  0
ARC
  5
9D
330
77
100
AcDbEntity
  8
$DDT_AUDIT_GENERATED_(9A)
  6
Continuous
 62
     7
100
AcDbCircle
 10
119.9833180091
 20
298.0225299998
 30
0.0
 40
0.5000000000000022
100
AcDbArc
 50
53.544957611
 51
85.1903922469
  0
ARC
  5
9E
330
77
100
AcDbEntity
  8
$DDT_AUDIT_GENERATED_(9A)
  6
Continuous
 62
     7
100
AcDbCircle
 10
99.9833180091
 20
298.0225299998
 30
0.0
 40
0.5000000000000212
100
AcDbArc
 50
94.8096077531
 51
126.455042389
  0
LINE
  5
A0
330
77
100
AcDbEntity
  8
$DDT_AUDIT_GENERATED_(9F)
  6
Continuous
 62
     7
100
AcDbLine
 10
147.1833180091
 20
272.901151691
 30
0.0
 11
147.1833180091
 21
273.401151691
 31
0.0
  0
LINE
  5
A1
330
77
100
AcDbEntity
  8
$DDT_AUDIT_GENERATED_(9F)
  6
Continuous
 62
     7
100
AcDbLine
 10
72.7833180091
 20
273.401151691
 30
0.0
 11
72.7833180091
 21
272.901151691
 31
0.0
  0
ARC
  5
A2
330
77
100
AcDbEntity
  8
$DDT_AUDIT_GENERATED_(9F)
  6
Continuous
 62
     7
100
AcDbCircle
 10
72.9833180091
 20
272.901151691
 30
0.0
 40
0.1999999999999919
100
AcDbArc
 50
180.0
 51
270.0
  0
ARC
  5
A3
330
77
100
AcDbEntity
  8
$DDT_AUDIT_GENERATED_(9F)
  6
Continuous
 62
     7
100
AcDbCircle
 10
146.9833180091
 20
272.901151691
 30
0.0
 40
0.1999999999999988
100
AcDbArc
 50
270.0
 51
0.0
  0
ARC
  5
A5
330
77
100
AcDbEntity
  8
$DDT_AUDIT_GENERATED_(A4)
  6
Continuous
 62
     7
100
AcDbCircle
 10
140.1833180091
 20
294.6335022054
 30
0.0
 40
0.500000000000003
100
AcDbArc
 50
73.5082523661
 51
90.0
  0
ARC
  5
A6
330
77
100
AcDbEntity
  8
$DDT_AUDIT_GENERATED_(A4)
  6
Continuous
 62
     7
100
AcDbCircle
 10
79.7833180091
 20
294.6335022054
 30
0.0
 40
0.5000000000000004
100
AcDbArc
 50
90.0
 51
106.4917476339
  0
LINE
  5
A7
330
77
100
AcDbEntity
  8
$DDT_AUDIT_GENERATED_(A4)
  6
Continuous
 62
     7
100
AcDbLine
 10
140.1833180091
 20
295.1335022054
 30
0.0
 11
79.7833180091
 21
295.1335022054
 31
0.0
  0
ARC
  5
A8
330
77
100
AcDbEntity
  8
$DDT_AUDIT_GENERATED_(A4)
  6
Continuous
 62
     7
100
AcDbCircle
 10
113.706648432
 20
180.0496566903
 30
0.0
 40
120.0
100
AcDbArc
 50
106.4917476339
 51
107.4141198051
  0
ARC
  5
A9
330
77
100
AcDbEntity
  8
$DDT_AUDIT_GENERATED_(A4)
  6
Continuous
 62
     7
100
AcDbCircle
 10
106.2599875863
 20
180.0496566903
 30
0.0
 40
120.0
100
AcDbArc
 50
72.5858801949
 51
73.5082523661
  0
ARC
  5
AA
330
77
100
AcDbEntity
  8
$DDT_AUDIT_GENERATED_(A4)
  6
Continuous
 62
     7
100
AcDbCircle
 10
77.8833180092
 20
294.2633992847
 30
0.0
 40
0.3000000000000032
100
AcDbArc
 50
107.4141198051
 51
152.6661355888
  0
ARC
  5
AB
330
77
100
AcDbEntity
  8
$DDT_AUDIT_GENERATED_(A4)
  6
Continuous
 62
     7
100
AcDbCircle
 10
142.0833180091
 20
294.2633992847
 30
0.0
 40
0.3000000000000086
100
AcDbArc
 50
27.3338644112
 51
72.5858801949
  0
LINE
  5
AD
330
77
100
AcDbEntity
  8
$DDT_AUDIT_GENERATED_(AC)
  6
Continuous
 62
     7
100
AcDbLine
 10
142.4833180091
 20
294.401151691
 30
0.0
 11
77.4833180091
 21
294.401151691
 31
0.0
  0
LINE
  5
AE
330
77
100
AcDbEntity
  8
$DDT_AUDIT_GENERATED_(AC)
  6
Continuous
 62
     7
100
AcDbLine
 10
148.4833180091
 20
291.8229304707
 30
0.0
 11
71.4833180091
 21
291.8229304707
 31
0.0
  0
LINE
  5
AF
330
77
100
AcDbEntity
  8
$DDT_AUDIT_GENERATED_(AC)
  6
Continuous
 62
     7
100
AcDbLine
 10
148.2833180091
 20
273.401151691
 30
0.0
 11
71.6833180091
 21
273.401151691
 31
0.0
  0
LINE
  5
B0
330
77
100
AcDbEntity
  8
$DDT_AUDIT_GENERATED_(AC)
  6
Continuous
 62
     7
100
AcDbLine
 10
147.9833180091
 20
281.5475983004
 30
0.0
 11
71.9833180091
 21
281.5475983004
 31
0.0
  0
LINE
  5
B1
330
77
100
AcDbEntity
  8
$DDT_AUDIT_GENERATED_(AC)
  6
Continuous
 62
     7
100
AcDbLine
 10
148.2833180091
 20
281.0475983004
 30
0.0
 11
71.6833180091
 21
281.0475983004
 31
0.0
  0
ARC
  5
B2
330
77
100
AcDbEntity
  8
$DDT_AUDIT_GENERATED_(AC)
  6
Continuous
 62
     7
100
AcDbCircle
 10
109.9833180091
 20
178.8860011695
 30
0.0
 40
120.0
100
AcDbArc
 50
71.631576492
 51
74.286138952
  0
ARC
  5
B3
330
77
100
AcDbEntity
  8
$DDT_AUDIT_GENERATED_(AC)
  6
Continuous
 62
     7
100
AcDbCircle
 10
109.9833180091
 20
178.8860011695
 30
0.0
 40
120.0
100
AcDbArc
 50
105.713861048
 51
108.368423508
  0
ARC
  5
B4
330
77
100
AcDbEntity
  8
$DDT_AUDIT_GENERATED_(AC)
  6
Continuous
 62
     7
100
AcDbCircle
 10
147.4833180091
 20
291.8229304707
 30
0.0
 40
1.000000000000001
100
AcDbArc
 50
0.0
 51
71.6315764918
  0
ARC
  5
B5
330
77
100
AcDbEntity
  8
$DDT_AUDIT_GENERATED_(AC)
  6
Continuous
 62
     7
100
AcDbCircle
 10
72.4833180091
 20
291.8229304707
 30
0.0
 40
1.000000000000001
100
AcDbArc
 50
108.3684235082
 51
180.0
  0
LINE
  5
B6
330
77
100
AcDbEntity
  8
$DDT_AUDIT_GENERATED_(AC)
  6
Continuous
 62
     7
100
AcDbLine
 10
148.4833180091
 20
273.601151691
 30
0.0
 11
148.4833180091
 21
280.8475983004
 31
0.0
  0
LINE
  5
B7
330
77
100
AcDbEntity
  8
$DDT_AUDIT_GENERATED_(AC)
  6
Continuous
 62
     7
100
AcDbLine
 10
71.4833180091
 20
280.8475983004
 30
0.0
 11
71.4833180091
 21
273.601151691
 31
0.0
  0
ARC
  5
B8
330
77
100
AcDbEntity
  8
$DDT_AUDIT_GENERATED_(AC)
  6
Continuous
 62
     7
100
AcDbCircle
 10
148.2833180091
 20
273.601151691
 30
0.0
 40
0.1999999999999988
100
AcDbArc
 50
270.0
 51
0.0
  0
ARC
  5
B9
330
77
100
AcDbEntity
  8
$DDT_AUDIT_GENERATED_(AC)
  6
Continuous
 62
     7
100
AcDbCircle
 10
71.6833180091
 20
273.601151691
 30
0.0
 40
0.1999999999999988
100
AcDbArc
 50
180.0
 51
270.0
  0
LINE
  5
BA
330
77
100
AcDbEntity
  8
$DDT_AUDIT_GENERATED_(AC)
  6
Continuous
 62
     7
100
AcDbLine
 10
148.4833180091
 20
282.0475983004
 30
0.0
 11
148.4833180091
 21
291.8229304707
 31
0.0
  0
LINE
  5
BB
330
77
100
AcDbEntity
  8
$DDT_AUDIT_GENERATED_(AC)
  6
Continuous
 62
     7
100
AcDbLine
 10
71.4833180091
 20
291.8229304707
 30
0.0
 11
71.4833180091
 21
282.0475983004
 31
0.0
  0
ARC
  5
BC
330
77
100
AcDbEntity
  8
$DDT_AUDIT_GENERATED_(AC)
  6
Continuous
 62
     7
100
AcDbCircle
 10
147.9833180091
 20
282.0475983004
 30
0.0
 40
0.5000000000000004
100
AcDbArc
 50
270.0
 51
0.0
  0
ARC
  5
BD
330
77
100
AcDbEntity
  8
$DDT_AUDIT_GENERATED_(AC)
  6
Continuous
 62
     7
100
AcDbCircle
 10
71.9833180091
 20
282.0475983004
 30
0.0
 40
0.5000000000000004
100
AcDbArc
 50
180.0
 51
270.0
  0
LINE
  5
BE
330
77
100
AcDbEntity
  8
$DDT_AUDIT_GENERATED_(AC)
  6
Continuous
 62
     7
100
AcDbLine
 10
147.9333180091
 20
281.0475983004
 30
0.0
 11
147.9333180091
 21
281.5475983004
 31
0.0
  0
LINE
  5
BF
330
77
100
AcDbEntity
  8
$DDT_AUDIT_GENERATED_(AC)
  6
Continuous
 62
     7
100
AcDbLine
 10
72.0333180091
 20
281.5475983004
 30
0.0
 11
72.0333180091
 21
281.0475983004
 31
0.0
  0
ARC
  5
C0
330
77
100
AcDbEntity
  8
$DDT_AUDIT_GENERATED_(AC)
  6
Continuous
 62
     7
100
AcDbCircle
 10
148.2833180091
 20
280.8475983004
 30
0.0
 40
0.1999999999999988
100
AcDbArc
 50
0.0
 51
90.0
  0
ARC
  5
C1
330
77
100
AcDbEntity
  8
$DDT_AUDIT_GENERATED_(AC)
  6
Continuous
 62
     7
100
AcDbCircle
 10
71.6833180091
 20
280.8475983004
 30
0.0
 40
0.1999999999999988
100
AcDbArc
 50
90.0
 51
180.0
  0
ENDBLK
  5
C3
330
77
100
AcDbEntity
  8
0
100
AcDbBlockEnd
  0
BLOCK
  5
101
330
C4
100
AcDbEntity
  8
0
100
AcDbBlockBegin
  2
SE1
 70
     0
 10
0.0
 20
0.0
 30
0.0
  3
SE1
  1

  0
LINE
  5
C6
330
C4
100
AcDbEntity
  8
403421038_ROSETT
  6
Continuous
 62
     7
100
AcDbLine
 10
245.7510988299
 20
272.701151691
 30
0.0
 11
327.5510988299
 21
272.701151691
 31
0.0
  0
LINE
  5
C7
330
C4
100
AcDbEntity
  8
403421038_ROSETT
  6
Continuous
 62
     7
100
AcDbLine
 10
245.7510988299
 20
272.701151691
 30
0.0
 11
245.3510988299
 21
272.701151691
 31
0.0
  0
ARC
  5
C8
330
C4
100
AcDbEntity
  8
403421038_ROSETT
  6
Continuous
 62
     7
100
AcDbCircle
 10
245.3510988299
 20
271.501151691
 30
0.0
 40
1.2
100
AcDbArc
 50
90.0
 51
180.0
  0
LINE
  5
C9
330
C4
100
AcDbEntity
  8
403421038_ROSETT
  6
Continuous
 62
     7
100
AcDbLine
 10
245.7510988299
 20
262.701151691
 30
0.0
 11
327.5510988299
 21
262.701151691
 31
0.0
  0
LINE
  5
CA
330
C4
100
AcDbEntity
  8
403421038_ROSETT
  6
Continuous
 62
     7
100
AcDbLine
 10
245.7510988299
 20
262.701151691
 30
0.0
 11
244.1510988299
 21
262.701151691
 31
0.0
  0
LINE
  5
CB
330
C4
100
AcDbEntity
  8
403421038_ROSETT
  6
Continuous
 62
     7
100
AcDbLine
 10
244.1510988299
 20
262.701151691
 30
0.0
 11
244.1510988299
 21
271.501151691
 31
0.0
  0
LINE
  5
CC
330
C4
100
AcDbEntity
  8
403421038_ROSETT
  6
Continuous
 62
     7
100
AcDbLine
 10
327.9510988299
 20
272.701151691
 30
0.0
 11
327.5510988299
 21
272.701151691
 31
0.0
  0
LINE
  5
CD
330
C4
100
AcDbEntity
  8
403421038_ROSETT
  6
Continuous
 62
     7
100
AcDbLine
 10
329.1510988299
 20
271.501151691
 30
0.0
 11
329.1510988299
 21
262.701151691
 31
0.0
  0
LINE
  5
CE
330
C4
100
AcDbEntity
  8
403421038_ROSETT
  6
Continuous
 62
     7
100
AcDbLine
 10
329.1510988299
 20
262.701151691
 30
0.0
 11
327.5510988299
 21
262.701151691
 31
0.0
  0
ARC
  5
CF
330
C4
100
AcDbEntity
  8
403421038_ROSETT
  6
Continuous
 62
     7
100
AcDbCircle
 10
327.9510988299
 20
271.501151691
 30
0.0
 40
1.2
100
AcDbArc
 50
0.0
 51
90.0
  0
ARC
  5
D0
330
C4
100
AcDbEntity
  8
$DDT_AUDIT_GENERATED_(84)
  6
Continuous
 62
     7
100
AcDbCircle
 10
286.6510988299
 20
178.9413314916
 30
0.0
 40
119.9986633221944
100
AcDbArc
 50
95.3228720578
 51
104.1162517581
  0
ARC
  5
D1
330
C4
100
AcDbEntity
  8
$DDT_AUDIT_GENERATED_(84)
  6
Continuous
 62
     7
100
AcDbCircle
 10
257.5084382466
 20
294.8275069762
 30
0.0
 40
0.5043113205652775
100
AcDbArc
 50
104.2134164547
 51
142.5424482165
  0
ARC
  5
D2
330
C4
100
AcDbEntity
  8
$DDT_AUDIT_GENERATED_(84)
  6
Continuous
 62
     7
100
AcDbCircle
 10
275.568012698
 20
297.9379983028
 30
0.0
 40
0.4869988005872432
100
AcDbArc
 50
89.500032881
 51
95.7696688466
  0
ELLIPSE
  5
D3
330
C4
100
AcDbEntity
  8
$DDT_AUDIT_GENERATED_(84)
  6
Continuous
 62
     7
100
AcDbEllipse
 10
291.7181509945
 20
298.223394669
 30
0.0
 11
-0.03663729415859934
 21
-0.1966156369079958
 31
0.0
210
0.0
220
0.0
230
1.0
 40
0.8622908816
 41
3.141999871964356
 42
3.305629858918387
  0
ARC
  5
D4
330
C4
100
AcDbEntity
  8
$DDT_AUDIT_GENERATED_(84)
  6
Continuous
 62
     7
100
AcDbCircle
 10
315.8010988299
 20
294.8314842225
 30
0.0
 40
0.5000000000000004
100
AcDbArc
 50
37.1595025667
 51
75.8812106652
  0
ARC
  5
D5
330
C4
100
AcDbEntity
  8
$DDT_AUDIT_GENERATED_(84)
  6
Continuous
 62
     7
100
AcDbCircle
 10
286.6510988299
 20
178.9413314916
 30
0.0
 40
120.0
100
AcDbArc
 50
75.8812106652
 51
84.6702822967
  0
LINE
  5
D6
330
C4
100
AcDbEntity
  8
$DDT_AUDIT_GENERATED_(84)
  6
Continuous
 62
     7
100
AcDbLine
 10
291.7059077194
 20
298.4246916727
 30
0.0
 11
275.565468543
 21
298.4246916727
 31
0.0
  0
SPLINE
  5
D7
330
C4
100
AcDbEntity
  8
$DDT_AUDIT_GENERATED_(84)
  6
Continuous
 62
     7
100
AcDbSpline
210
0.0
220
0.0
230
1.0
 70
     8
 71
     3
 72
     8
 73
     4
 74
     0
 42
0.0000002038928513
 43
0.0000000001
 40
0.0
 40
0.0
 40
0.0
 40
0.0
 40
1.0
 40
1.0
 40
1.0
 40
1.0
 10
291.753800663276
 20
298.41744786877
 30
0.0
 10
291.7279060048775
 20
298.4239013569027
 30
0.0
 10
291.7120203267661
 20
298.4259339517537
 30
0.0
 10
291.7061436289417
 20
298.4235456533229
 30
0.0
  0
SPLINE
  5
D8
330
C4
100
AcDbEntity
  8
$DDT_AUDIT_GENERATED_(84)
  6
Continuous
 62
     7
100
AcDbSpline
210
0.0
220
0.0
230
1.0
 70
     8
 71
     3
 72
    12
 73
     8
 74
     0
 42
0.0000000167439391
 43
0.0000000001
 40
0.0
 40
0.0
 40
0.0
 40
0.0
 40
0.0319800493563285
 40
0.1598635884787198
 40
0.2930104288445878
 40
0.4346761206303959
 40
0.5285643142497503
 40
0.5285643142497503
 40
0.5285643142497503
 40
0.5285643142497503
 10
292.682440771369
 20
298.4225394756391
 30
0.0
 10
292.6754603950206
 20
298.4232578213775
 30
0.0
 10
292.645506110468
 20
298.4262305354679
 30
0.0
 10
292.5870263098925
 20
298.4107877620926
 30
0.0
 10
292.5160177736251
 20
298.3789666021213
 30
0.0
 10
292.4571017261282
 20
298.3364997186326
 30
0.0
 10
292.4211159191556
 20
298.3046235375718
 30
0.0
 10
292.406808220322
 20
298.2912866371203
 30
0.0
  0
ARC
  5
D9
330
C4
100
AcDbEntity
  8
$DDT_AUDIT_GENERATED_(84)
  6
Continuous
 62
     7
100
AcDbCircle
 10
285.3461337988
 20
264.8601472926
 30
0.0
 40
34.16628832403598
100
AcDbArc
 50
62.9946870185
 51
79.1888509268
  0
SPLINE
  5
DA
330
C4
100
AcDbEntity
  8
$DDT_AUDIT_GENERATED_(84)
  6
Continuous
 62
     7
100
AcDbSpline
210
0.0
220
0.0
230
1.0
 70
     8
 71
     3
 72
    11
 73
     7
 74
     0
 42
0.0000000226610947
 43
0.0000000001
 40
0.4415233332631354
 40
0.4415233332631354
 40
0.4415233332631354
 40
0.4415233332631354
 40
0.5067535857938381
 40
0.7472201846701891
 40
0.9406105204184445
 40
1.0
 40
1.0
 40
1.0
 40
1.0
 10
301.0363405599768
 20
295.1344636246404
 30
0.0
 10
301.0303477932216
 20
295.1427431009973
 30
0.0
 10
301.0021626435698
 20
295.1807675000495
 30
0.0
 10
300.9546032215839
 20
295.2348486112951
 30
0.0
 10
300.899426681382
 20
295.2822958086277
 30
0.0
 10
300.8675193735699
 20
295.2957240567187
 30
0.0
 10
300.8587605247871
 20
295.2993702302551
 30
0.0
  0
ARC
  5
DB
330
C4
100
AcDbEntity
  8
$DDT_AUDIT_GENERATED_(84)
  6
Continuous
 62
     7
100
AcDbCircle
 10
297.7510988299
 20
297.9246916727
 30
0.0
 40
0.5000000000000084
100
AcDbArc
 50
84.6702822967
 51
90.0
  0
LINE
  5
DC
330
C4
100
AcDbEntity
  8
$DDT_AUDIT_GENERATED_(84)
  6
Continuous
 62
     7
100
AcDbLine
 10
297.7510988299
 20
298.4246916727
 30
0.0
 11
292.683143601
 21
298.4246916727
 31
0.0
  0
ARC
  5
DD
330
C4
100
AcDbEntity
  8
$DDT_AUDIT_GENERATED_(9A)
  6
Continuous
 62
     7
100
AcDbCircle
 10
286.6705692769
 20
178.9433117795
 30
0.0
 40
120.0
100
AcDbArc
 50
90.0092964537
 51
94.8096077531
  0
ARC
  5
DE
330
C4
100
AcDbEntity
  8
$DDT_AUDIT_GENERATED_(9A)
  6
Continuous
 62
     7
100
AcDbCircle
 10
286.6316283829
 20
178.9433117795
 30
0.0
 40
120.0
100
AcDbArc
 50
85.1903922469
 51
89.9907035463
  0
ARC
  5
DF
330
C4
100
AcDbEntity
  8
$DDT_AUDIT_GENERATED_(9A)
  6
Continuous
 62
     7
100
AcDbCircle
 10
296.6510988299
 20
298.0225299998
 30
0.0
 40
0.5000000000000057
100
AcDbArc
 50
53.544957611
 51
85.1903922469
  0
ARC
  5
E0
330
C4
100
AcDbEntity
  8
$DDT_AUDIT_GENERATED_(9A)
  6
Continuous
 62
     7
100
AcDbCircle
 10
276.6510988299
 20
298.0225299998
 30
0.0
 40
0.5000000000000213
100
AcDbArc
 50
94.8096077531
 51
126.455042389
  0
LINE
  5
E1
330
C4
100
AcDbEntity
  8
$DDT_AUDIT_GENERATED_(9F)
  6
Continuous
 62
     7
100
AcDbLine
 10
323.8510988299
 20
272.901151691
 30
0.0
 11
323.8510988299
 21
273.401151691
 31
0.0
  0
LINE
  5
E2
330
C4
100
AcDbEntity
  8
$DDT_AUDIT_GENERATED_(9F)
  6
Continuous
 62
     7
100
AcDbLine
 10
249.4510988299
 20
273.401151691
 30
0.0
 11
249.4510988299
 21
272.901151691
 31
0.0
  0
ARC
  5
E3
330
C4
100
AcDbEntity
  8
$DDT_AUDIT_GENERATED_(9F)
  6
Continuous
 62
     7
100
AcDbCircle
 10
249.6510988299
 20
272.901151691
 30
0.0
 40
0.1999999999999919
100
AcDbArc
 50
180.0
 51
270.0
  0
ARC
  5
E4
330
C4
100
AcDbEntity
  8
$DDT_AUDIT_GENERATED_(9F)
  6
Continuous
 62
     7
100
AcDbCircle
 10
323.6510988299
 20
272.901151691
 30
0.0
 40
0.1999999999999988
100
AcDbArc
 50
270.0
 51
0.0
  0
ARC
  5
E5
330
C4
100
AcDbEntity
  8
$DDT_AUDIT_GENERATED_(A4)
  6
Continuous
 62
     7
100
AcDbCircle
 10
316.8510988299
 20
294.6335022054
 30
0.0
 40
0.500000000000003
100
AcDbArc
 50
73.5082523661
 51
90.0
  0
ARC
  5
E6
330
C4
100
AcDbEntity
  8
$DDT_AUDIT_GENERATED_(A4)
  6
Continuous
 62
     7
100
AcDbCircle
 10
256.4510988299
 20
294.6335022054
 30
0.0
 40
0.5000000000000004
100
AcDbArc
 50
90.0
 51
106.4917476339
  0
LINE
  5
E7
330
C4
100
AcDbEntity
  8
$DDT_AUDIT_GENERATED_(A4)
  6
Continuous
 62
     7
100
AcDbLine
 10
316.8510988299
 20
295.1335022054
 30
0.0
 11
256.4510988299
 21
295.1335022054
 31
0.0
  0
ARC
  5
E8
330
C4
100
AcDbEntity
  8
$DDT_AUDIT_GENERATED_(A4)
  6
Continuous
 62
     7
100
AcDbCircle
 10
290.3744292527
 20
180.0496566903
 30
0.0
 40
120.0
100
AcDbArc
 50
106.4917476339
 51
107.4141198051
  0
ARC
  5
E9
330
C4
100
AcDbEntity
  8
$DDT_AUDIT_GENERATED_(A4)
  6
Continuous
 62
     7
100
AcDbCircle
 10
282.927768407
 20
180.0496566903
 30
0.0
 40
120.0
100
AcDbArc
 50
72.5858801949
 51
73.5082523661
  0
ARC
  5
EA
330
C4
100
AcDbEntity
  8
$DDT_AUDIT_GENERATED_(A4)
  6
Continuous
 62
     7
100
AcDbCircle
 10
254.5510988299
 20
294.2633992847
 30
0.0
 40
0.3000000000000032
100
AcDbArc
 50
107.4141198051
 51
152.6661355888
  0
ARC
  5
EB
330
C4
100
AcDbEntity
  8
$DDT_AUDIT_GENERATED_(A4)
  6
Continuous
 62
     7
100
AcDbCircle
 10
318.7510988298
 20
294.2633992847
 30
0.0
 40
0.3000000000000086
100
AcDbArc
 50
27.3338644112
 51
72.5858801949
  0
LINE
  5
EC
330
C4
100
AcDbEntity
  8
$DDT_AUDIT_GENERATED_(AC)
  6
Continuous
 62
     7
100
AcDbLine
 10
254.1510988299
 20
294.401151691
 30
0.0
 11
319.1510988299
 21
294.401151691
 31
0.0
  0
LINE
  5
ED
330
C4
100
AcDbEntity
  8
$DDT_AUDIT_GENERATED_(AC)
  6
Continuous
 62
     7
100
AcDbLine
 10
248.1510988299
 20
291.8229304707
 30
0.0
 11
325.1510988299
 21
291.8229304707
 31
0.0
  0
LINE
  5
EE
330
C4
100
AcDbEntity
  8
$DDT_AUDIT_GENERATED_(AC)
  6
Continuous
 62
     7
100
AcDbLine
 10
248.3510988299
 20
273.401151691
 30
0.0
 11
324.9510988299
 21
273.401151691
 31
0.0
  0
LINE
  5
EF
330
C4
100
AcDbEntity
  8
$DDT_AUDIT_GENERATED_(AC)
  6
Continuous
 62
     7
100
AcDbLine
 10
248.6510988299
 20
281.5475983004
 30
0.0
 11
324.6510988299
 21
281.5475983004
 31
0.0
  0
LINE
  5
F0
330
C4
100
AcDbEntity
  8
$DDT_AUDIT_GENERATED_(AC)
  6
Continuous
 62
     7
100
AcDbLine
 10
248.3510988299
 20
281.0475983004
 30
0.0
 11
324.9510988299
 21
281.0475983004
 31
0.0
  0
ARC
  5
F1
330
C4
100
AcDbEntity
  8
$DDT_AUDIT_GENERATED_(AC)
  6
Continuous
 62
     7
100
AcDbCircle
 10
286.6510988299
 20
178.8860011695
 30
0.0
 40
120.0
100
AcDbArc
 50
71.631576492
 51
74.286138952
  0
ARC
  5
F2
330
C4
100
AcDbEntity
  8
$DDT_AUDIT_GENERATED_(AC)
  6
Continuous
 62
     7
100
AcDbCircle
 10
286.6510988299
 20
178.8860011695
 30
0.0
 40
120.0
100
AcDbArc
 50
105.713861048
 51
108.368423508
  0
ARC
  5
F3
330
C4
100
AcDbEntity
  8
$DDT_AUDIT_GENERATED_(AC)
  6
Continuous
 62
     7
100
AcDbCircle
 10
324.1510988299
 20
291.8229304707
 30
0.0
 40
1.000000000000001
100
AcDbArc
 50
0.0
 51
71.6315764918
  0
ARC
  5
F4
330
C4
100
AcDbEntity
  8
$DDT_AUDIT_GENERATED_(AC)
  6
Continuous
 62
     7
100
AcDbCircle
 10
249.1510988299
 20
291.8229304707
 30
0.0
 40
1.000000000000001
100
AcDbArc
 50
108.3684235082
 51
180.0
  0
LINE
  5
F5
330
C4
100
AcDbEntity
  8
$DDT_AUDIT_GENERATED_(AC)
  6
Continuous
 62
     7
100
AcDbLine
 10
325.1510988299
 20
273.601151691
 30
0.0
 11
325.1510988299
 21
280.8475983004
 31
0.0
  0
LINE
  5
F6
330
C4
100
AcDbEntity
  8
$DDT_AUDIT_GENERATED_(AC)
  6
Continuous
 62
     7
100
AcDbLine
 10
248.1510988299
 20
280.8475983004
 30
0.0
 11
248.1510988299
 21
273.601151691
 31
0.0
  0
ARC
  5
F7
330
C4
100
AcDbEntity
  8
$DDT_AUDIT_GENERATED_(AC)
  6
Continuous
 62
     7
100
AcDbCircle
 10
324.9510988299
 20
273.601151691
 30
0.0
 40
0.1999999999999988
100
AcDbArc
 50
270.0
 51
0.0
  0
ARC
  5
F8
330
C4
100
AcDbEntity
  8
$DDT_AUDIT_GENERATED_(AC)
  6
Continuous
 62
     7
100
AcDbCircle
 10
248.3510988299
 20
273.601151691
 30
0.0
 40
0.1999999999999988
100
AcDbArc
 50
180.0
 51
270.0
  0
LINE
  5
F9
330
C4
100
AcDbEntity
  8
$DDT_AUDIT_GENERATED_(AC)
  6
Continuous
 62
     7
100
AcDbLine
 10
325.1510988299
 20
282.0475983004
 30
0.0
 11
325.1510988299
 21
291.8229304707
 31
0.0
  0
LINE
  5
FA
330
C4
100
AcDbEntity
  8
$DDT_AUDIT_GENERATED_(AC)
  6
Continuous
 62
     7
100
AcDbLine
 10
248.1510988299
 20
291.8229304707
 30
0.0
 11
248.1510988299
 21
282.0475983004
 31
0.0
  0
ARC
  5
FB
330
C4
100
AcDbEntity
  8
$DDT_AUDIT_GENERATED_(AC)
  6
Continuous
 62
     7
100
AcDbCircle
 10
324.6510988299
 20
282.0475983004
 30
0.0
 40
0.5000000000000004
100
AcDbArc
 50
270.0
 51
0.0
  0
ARC
  5
FC
330
C4
100
AcDbEntity
  8
$DDT_AUDIT_GENERATED_(AC)
  6
Continuous
 62
     7
100
AcDbCircle
 10
248.6510988299
 20
282.0475983004
 30
0.0
 40
0.5000000000000004
100
AcDbArc
 50
180.0
 51
270.0
  0
LINE
  5
FD
330
C4
100
AcDbEntity
  8
$DDT_AUDIT_GENERATED_(AC)
  6
Continuous
 62
     7
100
AcDbLine
 10
324.6010988299
 20
281.0475983004
 30
0.0
 11
324.6010988299
 21
281.5475983004
 31
0.0
  0
LINE
  5
FE
330
C4
100
AcDbEntity
  8
$DDT_AUDIT_GENERATED_(AC)
  6
Continuous
 62
     7
100
AcDbLine
 10
248.7010988299
 20
281.5475983004
 30
0.0
 11
248.7010988299
 21
281.0475983004
 31
0.0
  0
ARC
  5
FF
330
C4
100
AcDbEntity
  8
$DDT_AUDIT_GENERATED_(AC)
  6
Continuous
 62
     7
100
AcDbCircle
 10
324.9510988299
 20
280.8475983004
 30
0.0
 40
0.1999999999999988
100
AcDbArc
 50
0.0
 51
90.0
  0
ARC
  5
100
330
C4
100
AcDbEntity
  8
$DDT_AUDIT_GENERATED_(AC)
  6
Continuous
 62
     7
100
AcDbCircle
 10
248.3510988299
 20
280.8475983004
 30
0.0
 40
0.1999999999999988
100
AcDbArc
 50
90.0
 51
180.0
  0
ENDBLK
  5
102
330
C4
100
AcDbEntity
  8
0
100
AcDbBlockEnd
  0
BLOCK
  5
13A
330
103
100
AcDbEntity
  8
0
100
AcDbBlockBegin
  2
SE2
 70
     0
 10
0.0
 20
0.0
 30
0.0
  3
SE2
  1

  0
LINE
  5
105
330
103
100
AcDbEntity
  8
403421038_ROSETT
  6
Continuous
 62
     7
100
AcDbLine
 10
69.0833180091
 20
191.35
 30
0.0
 11
150.8833180091
 21
191.35
 31
0.0
  0
ARC
  5
106
330
103
100
AcDbEntity
  8
403421038_ROSETT
  6
Continuous
 62
     7
100
AcDbCircle
 10
69.0833180091
 20
189.75
 30
0.0
 40
1.599999999999997
100
AcDbArc
 50
90.0
 51
180.0
  0
LINE
  5
107
330
103
100
AcDbEntity
  8
403421038_ROSETT
  6
Continuous
 62
     7
100
AcDbLine
 10
152.4833180091
 20
189.75
 30
0.0
 11
152.4833180091
 21
107.95
 31
0.0
  0
ARC
  5
108
330
103
100
AcDbEntity
  8
403421038_ROSETT
  6
Continuous
 62
     7
100
AcDbCircle
 10
150.8833180091
 20
189.75
 30
0.0
 40
1.599999999999997
100
AcDbArc
 50
0.0
 51
90.0
  0
LINE
  5
109
330
103
100
AcDbEntity
  8
403421038_ROSETT
  6
Continuous
 62
     7
100
AcDbLine
 10
150.8833180091
 20
106.35
 30
0.0
 11
69.0833180091
 21
106.35
 31
0.0
  0
ARC
  5
10A
330
103
100
AcDbEntity
  8
403421038_ROSETT
  6
Continuous
 62
     7
100
AcDbCircle
 10
150.8833180091
 20
107.95
 30
0.0
 40
1.599999999999997
100
AcDbArc
 50
270.0
 51
0.0
  0
LINE
  5
10B
330
103
100
AcDbEntity
  8
403421038_ROSETT
  6
Continuous
 62
     7
100
AcDbLine
 10
67.4833180091
 20
107.95
 30
0.0
 11
67.4833180091
 21
189.75
 31
0.0
  0
ARC
  5
10C
330
103
100
AcDbEntity
  8
403421038_ROSETT
  6
Continuous
 62
     7
100
AcDbCircle
 10
69.0833180091
 20
107.95
 30
0.0
 40
1.599999999999997
100
AcDbArc
 50
180.0
 51
270.0
  0
ARC
  5
10D
330
103
100
AcDbEntity
  8
$DDT_AUDIT_GENERATED_(84)
  6
Continuous
 62
     7
100
AcDbCircle
 10
114.2699421218
 20
140.2601889592
 30
0.0
 40
0.9999999999974168
100
AcDbArc
 50
296.5208432036
 51
309.8170048638
  0
ARC
  5
10E
330
103
100
AcDbEntity
  8
$DDT_AUDIT_GENERATED_(84)
  6
Continuous
 62
     7
100
AcDbCircle
 10
105.6966938965
 20
140.2601889592
 30
0.0
 40
0.9999999999974307
100
AcDbArc
 50
232.1321853734
 51
243.4791567964
  0
ARC
  5
10F
330
103
100
AcDbEntity
  8
$DDT_AUDIT_GENERATED_(84)
  6
Continuous
 62
     7
100
AcDbCircle
 10
115.2790005279
 20
156.8572308984
 30
0.0
 40
0.999999999997396
100
AcDbArc
 50
56.5208432036
 51
69.8170048638
  0
ARC
  5
110
330
103
100
AcDbEntity
  8
$DDT_AUDIT_GENERATED_(84)
  6
Continuous
 62
     7
100
AcDbCircle
 10
104.6876354904
 20
156.8572308984
 30
0.0
 40
0.9999999999974081
100
AcDbArc
 50
110.4293928618
 51
123.4791567964
  0
ARC
  5
111
330
103
100
AcDbEntity
  8
$DDT_AUDIT_GENERATED_(84)
  6
Continuous
 62
     7
100
AcDbCircle
 10
112.9193366
 20
158.826963207
 30
0.0
 40
0.1999999999992814
100
AcDbArc
 50
38.991172864
 51
73.6019098395
  0
ARC
  5
112
330
103
100
AcDbEntity
  8
$DDT_AUDIT_GENERATED_(84)
  6
Continuous
 62
     7
100
AcDbCircle
 10
107.0472994183
 20
158.826963207
 30
0.0
 40
0.1999999999993421
100
AcDbArc
 50
106.3980901605
 51
141.6597978509
  0
ARC
  5
113
330
103
100
AcDbEntity
  8
$DDT_AUDIT_GENERATED_(84)
  6
Continuous
 62
     7
100
AcDbCircle
 10
99.8750051238
 20
146.4041850821
 30
0.0
 40
0.1999999999993276
100
AcDbArc
 50
164.632207675
 51
193.6019098395
  0
ARC
  5
114
330
103
100
AcDbEntity
  8
$DDT_AUDIT_GENERATED_(84)
  6
Continuous
 62
     7
100
AcDbCircle
 10
102.8110237147
 20
141.3188517108
 30
0.0
 40
0.1999999999992862
100
AcDbArc
 50
226.3980901605
 51
261.6597978508
  0
ARC
  5
115
330
103
100
AcDbEntity
  8
$DDT_AUDIT_GENERATED_(84)
  6
Continuous
 62
     7
100
AcDbCircle
 10
117.1556123036
 20
141.3188517108
 30
0.0
 40
0.1999999999993415
100
AcDbArc
 50
284.6322076749
 51
313.6019098395
  0
LINE
  5
116
330
103
100
AcDbEntity
  8
$DDT_AUDIT_GENERATED_(84)
  6
Continuous
 62
     7
100
AcDbLine
 10
110.3602839324
 20
159.9696957143
 30
0.0
 11
110.3602839324
 21
178.0840225049
 31
0.0
  0
LINE
  5
117
330
103
100
AcDbEntity
  8
$DDT_AUDIT_GENERATED_(84)
  6
Continuous
 62
     7
100
AcDbLine
 10
109.6063520859
 20
178.0840225049
 30
0.0
 11
109.6063520859
 21
159.9696957143
 31
0.0
  0
LINE
  5
118
330
103
100
AcDbEntity
  8
$DDT_AUDIT_GENERATED_(84)
  6
Continuous
 62
     7
100
AcDbLine
 10
109.4169251361
 20
159.9820439336
 30
0.0
 11
109.4169251361
 21
178.1164863536
 31
0.0
  0
ARC
  5
119
330
103
100
AcDbEntity
  8
$DDT_AUDIT_GENERATED_(84)
  6
Continuous
 62
     7
100
AcDbCircle
 10
109.9833180091
 20
148.85
 30
0.0
 40
10.6
100
AcDbArc
 50
91.5202003476
 51
208.4797996524
  0
ARC
  5
11A
330
103
100
AcDbEntity
  8
$DDT_AUDIT_GENERATED_(84)
  6
Continuous
 62
     7
100
AcDbCircle
 10
109.9833180091
 20
148.85
 30
0.0
 40
10.59999999999756
100
AcDbArc
 50
88.4797996524
 51
91.5202003476
  0
ARC
  5
11B
330
103
100
AcDbEntity
  8
$DDT_AUDIT_GENERATED_(84)
  6
Continuous
 62
     7
100
AcDbCircle
 10
109.9833180091
 20
148.85
 30
0.0
 40
29.64999999999999
100
AcDbArc
 50
330.8209857233
 51
89.1790142767
  0
ARC
  5
11C
330
103
100
AcDbEntity
  8
$DDT_AUDIT_GENERATED_(84)
  6
Continuous
 62
     7
100
AcDbCircle
 10
109.9833180091
 20
148.85
 30
0.0
 40
29.65000000002824
100
AcDbArc
 50
89.1790142767
 51
90.8209857233
  0
LINE
  5
11D
330
103
100
AcDbEntity
  8
$DDT_AUDIT_GENERATED_(84)
  6
Continuous
 62
     7
100
AcDbLine
 10
110.5497108822
 20
178.1164863536
 30
0.0
 11
110.5497108822
 21
159.9820439336
 31
0.0
  0
LINE
  5
11E
330
103
100
AcDbEntity
  8
$DDT_AUDIT_GENERATED_(84)
  6
Continuous
 62
     7
100
AcDbLine
 10
84.8543948267
 20
133.9065266816
 30
0.0
 11
100.5418619998
 21
142.9636900769
 31
0.0
  0
LINE
  5
11F
330
103
100
AcDbEntity
  8
$DDT_AUDIT_GENERATED_(84)
  6
Continuous
 62
     7
100
AcDbLine
 10
100.1648960765
 20
143.6166142088
 30
0.0
 11
84.4774289034
 21
134.5594508135
 31
0.0
  0
ARC
  5
120
330
103
100
AcDbEntity
  8
$DDT_AUDIT_GENERATED_(84)
  6
Continuous
 62
     7
100
AcDbCircle
 10
109.9833180091
 20
148.85
 30
0.0
 40
29.64999999999999
100
AcDbArc
 50
90.8209857233
 51
209.1790142767
  0
ARC
  5
121
330
103
100
AcDbEntity
  8
$DDT_AUDIT_GENERATED_(84)
  6
Continuous
 62
     7
100
AcDbCircle
 10
109.9833180092
 20
148.85
 30
0.0
 40
29.65000000003449
100
AcDbArc
 50
209.1790142767
 51
210.8209857233
  0
LINE
  5
122
330
103
100
AcDbEntity
  8
$DDT_AUDIT_GENERATED_(84)
  6
Continuous
 62
     7
100
AcDbLine
 10
84.3546009109
 20
134.7072674398
 30
0.0
 11
100.0594887301
 21
143.7744886498
 31
0.0
  0
LINE
  5
123
330
103
100
AcDbEntity
  8
$DDT_AUDIT_GENERATED_(84)
  6
Continuous
 62
     7
100
AcDbLine
 10
100.6258816032
 20
142.7934674166
 30
0.0
 11
84.920993784
 21
133.7262462066
 31
0.0
  0
ARC
  5
124
330
103
100
AcDbEntity
  8
$DDT_AUDIT_GENERATED_(84)
  6
Continuous
 62
     7
100
AcDbCircle
 10
109.9833180091
 20
148.85
 30
0.0
 40
10.6
100
AcDbArc
 50
211.5202003476
 51
328.4797996524
  0
ARC
  5
125
330
103
100
AcDbEntity
  8
$DDT_AUDIT_GENERATED_(84)
  6
Continuous
 62
     7
100
AcDbCircle
 10
109.9833180091
 20
148.85
 30
0.0
 40
10.60000000000025
100
AcDbArc
 50
208.4797996524
 51
211.5202003476
  0
LINE
  5
126
330
103
100
AcDbEntity
  8
$DDT_AUDIT_GENERATED_(84)
  6
Continuous
 62
     7
100
AcDbLine
 10
135.4892071149
 20
134.5594508135
 30
0.0
 11
119.8017399418
 21
143.6166142088
 31
0.0
  0
LINE
  5
127
330
103
100
AcDbEntity
  8
$DDT_AUDIT_GENERATED_(84)
  6
Continuous
 62
     7
100
AcDbLine
 10
119.4247740185
 20
142.9636900769
 30
0.0
 11
135.1122411916
 21
133.9065266816
 31
0.0
  0
LINE
  5
128
330
103
100
AcDbEntity
  8
$DDT_AUDIT_GENERATED_(84)
  6
Continuous
 62
     7
100
AcDbLine
 10
135.0456422343
 20
133.7262462066
 30
0.0
 11
119.3407544151
 21
142.7934674166
 31
0.0
  0
ARC
  5
129
330
103
100
AcDbEntity
  8
$DDT_AUDIT_GENERATED_(84)
  6
Continuous
 62
     7
100
AcDbCircle
 10
109.9833180091
 20
148.85
 30
0.0
 40
10.6
100
AcDbArc
 50
331.5202003476
 51
88.4797996524
  0
ARC
  5
12A
330
103
100
AcDbEntity
  8
$DDT_AUDIT_GENERATED_(84)
  6
Continuous
 62
     7
100
AcDbCircle
 10
109.9833180091
 20
148.85
 30
0.0
 40
10.59999999999834
100
AcDbArc
 50
328.4797996524
 51
331.5202003476
  0
ARC
  5
12B
330
103
100
AcDbEntity
  8
$DDT_AUDIT_GENERATED_(84)
  6
Continuous
 62
     7
100
AcDbCircle
 10
109.9833180091
 20
148.85
 30
0.0
 40
29.64999999999999
100
AcDbArc
 50
210.8209857233
 51
329.1790142767
  0
LINE
  5
12C
330
103
100
AcDbEntity
  8
$DDT_AUDIT_GENERATED_(84)
  6
Continuous
 62
     7
100
AcDbLine
 10
119.9071472882
 20
143.7744886498
 30
0.0
 11
135.6120351074
 21
134.7072674398
 31
0.0
  0
ARC
  5
12D
330
103
100
AcDbEntity
  8
$DDT_AUDIT_GENERATED_(84)
  6
Continuous
 62
     7
100
AcDbCircle
 10
109.9833180092
 20
148.85
 30
0.0
 40
29.64999999998699
100
AcDbArc
 50
329.1790142767
 51
330.8209857233
  0
ARC
  5
12E
330
103
100
AcDbEntity
  8
$DDT_AUDIT_GENERATED_(84)
  6
Continuous
 62
     7
100
AcDbCircle
 10
106.8894879114
 20
139.2355205379
 30
0.0
 40
0.500000000000178
100
AcDbArc
 50
252.1624154354
 51
273.5084789659
  0
ARC
  5
12F
330
103
100
AcDbEntity
  8
$DDT_AUDIT_GENERATED_(84)
  6
Continuous
 62
     7
100
AcDbCircle
 10
113.0771481069
 20
139.2355205379
 30
0.0
 40
0.5000000000001564
100
AcDbArc
 50
265.6452657515
 51
287.8375845646
  0
ARC
  5
130
330
103
100
AcDbEntity
  8
$DDT_AUDIT_GENERATED_(84)
  6
Continuous
 62
     7
100
AcDbCircle
 10
116.7627864186
 20
156.3365751906
 30
0.0
 40
0.5000000000001507
100
AcDbArc
 50
25.6452657515
 51
47.8375845646
  0
ARC
  5
131
330
103
100
AcDbEntity
  8
$DDT_AUDIT_GENERATED_(84)
  6
Continuous
 62
     7
100
AcDbCircle
 10
103.2038495997
 20
156.3365751906
 30
0.0
 40
0.500000000000157
100
AcDbArc
 50
132.1624154354
 51
154.2818141074
  0
CIRCLE
  5
132
330
103
100
AcDbEntity
  8
$DDT_AUDIT_GENERATED_(9A)
  6
Continuous
 62
     7
100
AcDbCircle
 10
109.9833180091
 20
148.85
 30
0.0
 40
10.5
  0
CIRCLE
  5
133
330
103
100
AcDbEntity
  8
$DDT_AUDIT_GENERATED_(A4)
  6
Continuous
 62
     7
100
AcDbCircle
 10
109.9833180091
 20
148.85
 30
0.0
 40
29.7
  0
CIRCLE
  5
134
330
103
100
AcDbEntity
  8
$DDT_AUDIT_GENERATED_(A4)
  6
Continuous
 62
     7
100
AcDbCircle
 10
109.9833180091
 20
148.85
 30
0.0
 40
32.39999999998249
  0
CIRCLE
  5
135
330
103
100
AcDbEntity
  8
$DDT_AUDIT_GENERATED_(AC)
  6
Continuous
 62
     7
100
AcDbCircle
 10
109.9833180091
 20
148.85
 30
0.0
 40
32.50000000000002
  0
CIRCLE
  5
136
330
103
100
AcDbEntity
  8
$DDT_AUDIT_GENERATED_(AC)
  6
Continuous
 62
     7
100
AcDbCircle
 10
109.9833180091
 20
148.85
 30
0.0
 40
38.49999999999999
  0
ARC
  5
138
330
103
100
AcDbEntity
  8
$DDT_AUDIT_GENERATED_(137)
  6
Continuous
 62
     7
100
AcDbCircle
 10
109.9833180091
 20
148.85
 30
0.0
 40
10.60000000000001
100
AcDbArc
 50
88.4797996524
 51
211.5202003476
  0
ARC
  5
139
330
103
100
AcDbEntity
  8
$DDT_AUDIT_GENERATED_(137)
  6
Continuous
 62
     7
100
AcDbCircle
 10
109.9833180091
 20
148.85
 30
0.0
 40
10.60000000000001
100
AcDbArc
 50
328.4797996524
 51
331.5202003476
  0
ENDBLK
  5
13B
330
103
100
AcDbEntity
  8
0
100
AcDbBlockEnd
  0
ENDSEC
  0
SECTION
  2
ENTITIES
  0
LINE
  5
5E
330
1F
100
AcDbEntity
  8
Default
  6
Continuous
 62
     7
100
AcDbLine
 10
67.4833180091
 20
262.701151691
 30
0.0
 11
152.4833180091
 21
262.701151691
 31
0.0
  0
INSERT
  5
60
330
1F
100
AcDbEntity
  8
Default
100
AcDbBlockReference
  2
SEANNOT_GROUP
 10
0.0
 20
0.0
 30
0.0
  0
LINE
  5
66
330
1F
100
AcDbEntity
  8
Default
  6
Continuous
 62
     7
100
AcDbLine
 10
244.1510988299
 20
262.701151691
 30
0.0
 11
329.1510988299
 21
262.701151691
 31
0.0
  0
INSERT
  5
68
330
1F
100
AcDbEntity
  8
Default
100
AcDbBlockReference
  2
SEANNOT_GROUP1
 10
0.0
 20
0.0
 30
0.0
  0
INSERT
  5
6E
330
1F
100
AcDbEntity
  8
Default
100
AcDbBlockReference
  2
SEANNOT_GROUP2
 10
0.0
 20
0.0
 30
0.0
  0
INSERT
  5
78
330
1F
100
AcDbEntity
  8
Default
100
AcDbBlockReference
  2
SE
 10
0.0
 20
0.0
 30
0.0
  0
INSERT
  5
C5
330
1F
100
AcDbEntity
  8
Default
100
AcDbBlockReference
  2
SE1
 10
0.0
 20
0.0
 30
0.0
  0
INSERT
  5
104
330
1F
100
AcDbEntity
  8
Default
100
AcDbBlockReference
  2
SE2
 10
0.0
 20
0.0
 30
0.0
  0
TEXT
  5
13D
330
1F
100
AcDbEntity
  8
Default
  6
Continuous
 62
     7
100
AcDbText
 10
5.9362635081
 20
53.4225120485
 30
0.0
 40
10.0
  1
Grohe AG^J
  7
SEACAD_seiso_ttf
 11
5.9362635081
 21
63.4225120485
 31
0.0
100
AcDbText
 73
     3
  0
TEXT
  5
13E
330
1F
100
AcDbEntity
  8
Default
  6
Continuous
 62
     7
100
AcDbText
 10
5.9362635081
 20
37.0588756849
 30
0.0
 40
10.0
  1
 
  7
SEACAD_seiso_ttf
 11
5.9362635081
 21
47.0588756849
 31
0.0
100
AcDbText
 73
     3
  0
TEXT
  5
13F
330
1F
100
AcDbEntity
  8
Default
  6
Continuous
 62
     7
100
AcDbText
 10
5.9362635081
 20
20.6952393213
 30
0.0
 40
10.0
  1
ecn:
  7
SEACAD_seiso_ttf
 11
5.9362635081
 21
30.6952393213
 31
0.0
100
AcDbText
 73
     3
  0
TEXT
  5
140
330
1F
100
AcDbEntity
  8
Default
  6
Continuous
 62
     7
100
AcDbText
 10
5.9362635081
 20
4.3316029576
 30
0.0
 40
10.0
  1
unit: mm
  7
SEACAD_seiso_ttf
 11
5.9362635081
 21
14.3316029576
 31
0.0
100
AcDbText
 73
     3
  0
LINE
  5
141
330
1F
100
AcDbEntity
  8
Default
  6
Continuous
 62
     7
100
AcDbLine
 10
0.0
 20
0.0
 30
0.0
 11
100.0
 21
0.0
 31
0.0
  0
LINE
  5
142
330
1F
100
AcDbEntity
  8
Default
  6
Continuous
 62
     7
100
AcDbLine
 10
0.0
 20
0.0
 30
0.0
 11
0.0
 21
100.0
 31
0.0
  0
TEXT
  5
143
330
1F
100
AcDbEntity
  8
Default
  6
Continuous
 62
     7
100
AcDbText
 10
24.3923665681
 20
-18.2375342018
 30
0.0
 40
10.0
  1
100 mm
  7
SEACAD_seiso_ttf
 11
24.3923665681
 21
-8.2375342018
 31
0.0
100
AcDbText
 73
     3
  0
TEXT
  5
144
330
1F
100
AcDbEntity
  8
Default
  6
Continuous
 62
     7
100
AcDbText
 10
-7.6150308803
 20
24.6231930421
 30
0.0
 40
10.0
  1
100 mm
 50
90.0
  7
SEACAD_seiso_ttf
 11
-17.6150308803
 21
24.6231930421
 31
0.0
100
AcDbText
 73
     3
  0
TEXT
  5
145
330
1F
100
AcDbEntity
  8
Default
  6
Continuous
 62
     7
100
AcDbText
 10
28.4878128572
 20
20.0907663715
 30
0.0
 40
10.0
  1
223882
  7
SEACAD_seiso_ttf
 11
28.4878128572
 21
30.0907663715
 31
0.0
100
AcDbText
 73
     3
  0
TEXT
  5
146
330
1F
100
AcDbEntity
  8
Default
  6
Continuous
 62
     7
100
AcDbText
 10
5.9012241913
 20
36.7242780188
 30
0.0
 40
10.0
  1
36355000
  7
SEACAD_seiso_ttf
 11
5.9012241913
 21
46.7242780188
 31
0.0
100
AcDbText
 73
     3
  0
ENDSEC
  0
SECTION
  2
OBJECTS
  0
DICTIONARY
  5
C
330
0
100
AcDbDictionary
281
     1
  3
ACAD_GROUP
350
D
  3
ACAD_LAYOUT
350
1A
  3
ACAD_MLEADERSTYLE
350
14A
  3
ACAD_MLINESTYLE
350
17
  3
ACAD_PLOTSETTINGS
350
19
  3
ACAD_PLOTSTYLENAME
350
E
  3
ACAD_SCALELIST
350
3B
  3
ACAD_TABLESTYLE
350
149
  3
ACAD_VISUALSTYLE
350
2A
  3
AcDbVariableDictionary
350
147
  0
DICTIONARY
  5
D
102
{ACAD_REACTORS
330
C
102
}
330
C
100
AcDbDictionary
281
     1
  0
DICTIONARY
  5
1A
102
{ACAD_REACTORS
330
C
102
}
330
C
100
AcDbDictionary
281
     1
  3
Layout1
350
1E
  3
Model
350
22
  0
DICTIONARY
  5
14A
102
{ACAD_REACTORS
330
C
102
}
330
C
100
AcDbDictionary
281
     1
  0
DICTIONARY
  5
17
102
{ACAD_REACTORS
330
C
102
}
330
C
100
AcDbDictionary
281
     1
  3
Standard
350
18
  0
DICTIONARY
  5
19
102
{ACAD_REACTORS
330
C
102
}
330
C
100
AcDbDictionary
281
     1
  0
ACDBDICTIONARYWDFLT
  5
E
102
{ACAD_REACTORS
330
C
102
}
330
C
100
AcDbDictionary
281
     1
  3
Normal
350
F
100
AcDbDictionaryWithDefault
340
F
  0
DICTIONARY
  5
3B
102
{ACAD_REACTORS
330
C
102
}
330
C
100
AcDbDictionary
281
     1
  3
A0
350
3C
  3
A1
350
3D
  3
A2
350
3E
  3
A3
350
3F
  3
A4
350
40
  3
A5
350
41
  3
A6
350
42
  3
A7
350
43
  3
A8
350
44
  3
A9
350
45
  3
B0
350
46
  3
B1
350
47
  3
B2
350
48
  3
B3
350
49
  3
B4
350
4A
  3
B5
350
4B
  3
B6
350
4C
  3
B7
350
4D
  3
B8
350
4E
  3
B9
350
4F
  3
C0
350
50
  3
C1
350
51
  3
C2
350
52
  3
C3
350
53
  3
C4
350
54
  3
C5
350
55
  3
C6
350
56
  3
C7
350
57
  3
C8
350
58
  3
C9
350
59
  3
D0
350
5A
  3
D1
350
5B
  3
D2
350
5C
  0
DICTIONARY
  5
149
102
{ACAD_REACTORS
330
C
102
}
330
C
100
AcDbDictionary
281
     1
  0
DICTIONARY
  5
2A
102
{ACAD_REACTORS
330
C
102
}
330
C
100
AcDbDictionary
281
     1
  3
2dWireframe
350
2F
  3
3D Hidden
350
31
  3
3dWireframe
350
30
  3
Basic
350
32
  3
Brighten
350
36
  3
ColorChange
350
3A
  3
Conceptual
350
34
  3
Dim
350
35
  3
Facepattern
350
39
  3
Flat
350
2B
  3
FlatWithEdges
350
2C
  3
Gouraud
350
2D
  3
GouraudWithEdges
350
2E
  3
Linepattern
350
38
  3
Realistic
350
33
  3
Thicken
350
37
  0
DICTIONARY
  5
147
102
{ACAD_REACTORS
330
C
102
}
330
C
100
AcDbDictionary
281
     1
  3
CANNOSCALE
350
148
  3
PSOLHEIGHT
350
14C
  3
PSOLWIDTH
350
14B
  0
LAYOUT
  5
1E
102
{ACAD_REACTORS
330
1A
102
}
330
1A
100
AcDbPlotSettings
  1

  2
none_device
  4

  6

 40
0.0
 41
0.0
 42
0.0
 43
0.0
 44
0.0
 45
0.0
 46
0.0
 47
0.0
 48
0.0
 49
0.0
140
0.0
141
0.0
142
1.0
143
1.0
 70
   688
 72
     0
 73
     0
 74
     5
  7

 75
    16
147
1.0
148
0.0
149
0.0
100
AcDbLayout
  1
Layout1
 70
     1
 71
     1
 10
0.0
 20
0.0
 11
3000.0
 21
4500.0
 12
0.0
 22
0.0
 32
0.0
 14
0.0
 24
0.0
 34
0.0
 15
3000.0
 25
4500.0
 35
0.0
146
0.0
 13
0.0
 23
0.0
 33
0.0
 16
1.0
 26
0.0
 36
0.0
 17
0.0
 27
1.0
 37
0.0
 76
     0
330
1B
  0
LAYOUT
  5
22
102
{ACAD_REACTORS
330
1A
102
}
330
1A
100
AcDbPlotSettings
  1

  2
none_device
  4

  6

 40
0.0
 41
0.0
 42
0.0
 43
0.0
 44
0.0
 45
0.0
 46
0.0
 47
0.0
 48
0.0
 49
0.0
140
0.0
141
0.0
142
1.0
143
1.0
 70
  1712
 72
     0
 73
     0
 74
     0
  7

 75
     0
147
1.0
148
0.0
149
0.0
100
AcDbLayout
  1
Model
 70
     1
 71
     0
 10
0.0
 20
0.0
 11
3000.0
 21
4500.0
 12
0.0
 22
0.0
 32
0.0
 14
0.0
 24
0.0
 34
0.0
 15
3000.0
 25
4500.0
 35
0.0
146
0.0
 13
0.0
 23
0.0
 33
0.0
 16
1.0
 26
0.0
 36
0.0
 17
0.0
 27
1.0
 37
0.0
 76
     0
330
1F
331
29
  0
MLINESTYLE
  5
18
102
{ACAD_REACTORS
330
17
102
}
330
17
100
AcDbMlineStyle
  2
Standard
 70
     0
  3

 62
   256
 51
90.0
 52
90.0
 71
     2
 49
0.5
 62
   256
  6
BYLAYER
 49
-0.5
 62
   256
  6
BYLAYER
  0
ACDBPLACEHOLDER
  5
F
102
{ACAD_REACTORS
330
E
102
}
330
E
  0
SCALE
  5
3C
102
{ACAD_REACTORS
330
3B
102
}
330
3B
100
AcDbScale
 70
     0
300
1:1
140
1.0
141
1.0
290
     1
  0
SCALE
  5
3D
102
{ACAD_REACTORS
330
3B
102
}
330
3B
100
AcDbScale
 70
     0
300
1:2
140
1.0
141
2.0
290
     0
  0
SCALE
  5
3E
102
{ACAD_REACTORS
330
3B
102
}
330
3B
100
AcDbScale
 70
     0
300
1:4
140
1.0
141
4.0
290
     0
  0
SCALE
  5
3F
102
{ACAD_REACTORS
330
3B
102
}
330
3B
100
AcDbScale
 70
     0
300
1:5
140
1.0
141
5.0
290
     0
  0
SCALE
  5
40
102
{ACAD_REACTORS
330
3B
102
}
330
3B
100
AcDbScale
 70
     0
300
1:8
140
1.0
141
8.0
290
     0
  0
SCALE
  5
41
102
{ACAD_REACTORS
330
3B
102
}
330
3B
100
AcDbScale
 70
     0
300
1:10
140
1.0
141
10.0
290
     0
  0
SCALE
  5
42
102
{ACAD_REACTORS
330
3B
102
}
330
3B
100
AcDbScale
 70
     0
300
1:16
140
1.0
141
16.0
290
     0
  0
SCALE
  5
43
102
{ACAD_REACTORS
330
3B
102
}
330
3B
100
AcDbScale
 70
     0
300
1:20
140
1.0
141
20.0
290
     0
  0
SCALE
  5
44
102
{ACAD_REACTORS
330
3B
102
}
330
3B
100
AcDbScale
 70
     0
300
1:30
140
1.0
141
30.0
290
     0
  0
SCALE
  5
45
102
{ACAD_REACTORS
330
3B
102
}
330
3B
100
AcDbScale
 70
     0
300
1:40
140
1.0
141
40.0
290
     0
  0
SCALE
  5
46
102
{ACAD_REACTORS
330
3B
102
}
330
3B
100
AcDbScale
 70
     0
300
1:50
140
1.0
141
50.0
290
     0
  0
SCALE
  5
47
102
{ACAD_REACTORS
330
3B
102
}
330
3B
100
AcDbScale
 70
     0
300
1:100
140
1.0
141
100.0
290
     0
  0
SCALE
  5
48
102
{ACAD_REACTORS
330
3B
102
}
330
3B
100
AcDbScale
 70
     0
300
2:1
140
2.0
141
1.0
290
     0
  0
SCALE
  5
49
102
{ACAD_REACTORS
330
3B
102
}
330
3B
100
AcDbScale
 70
     0
300
4:1
140
4.0
141
1.0
290
     0
  0
SCALE
  5
4A
102
{ACAD_REACTORS
330
3B
102
}
330
3B
100
AcDbScale
 70
     0
300
8:1
140
8.0
141
1.0
290
     0
  0
SCALE
  5
4B
102
{ACAD_REACTORS
330
3B
102
}
330
3B
100
AcDbScale
 70
     0
300
10:1
140
10.0
141
1.0
290
     0
  0
SCALE
  5
4C
102
{ACAD_REACTORS
330
3B
102
}
330
3B
100
AcDbScale
 70
     0
300
100:1
140
100.0
141
1.0
290
     0
  0
SCALE
  5
4D
102
{ACAD_REACTORS
330
3B
102
}
330
3B
100
AcDbScale
 70
     0
300
1/128" = 1'-0"
140
0.0078125
141
12.0
290
     0
  0
SCALE
  5
4E
102
{ACAD_REACTORS
330
3B
102
}
330
3B
100
AcDbScale
 70
     0
300
1/64" = 1'-0"
140
0.015625
141
12.0
290
     0
  0
SCALE
  5
4F
102
{ACAD_REACTORS
330
3B
102
}
330
3B
100
AcDbScale
 70
     0
300
1/32" = 1'-0"
140
0.03125
141
12.0
290
     0
  0
SCALE
  5
50
102
{ACAD_REACTORS
330
3B
102
}
330
3B
100
AcDbScale
 70
     0
300
1/16" = 1'-0"
140
0.0625
141
12.0
290
     0
  0
SCALE
  5
51
102
{ACAD_REACTORS
330
3B
102
}
330
3B
100
AcDbScale
 70
     0
300
3/32" = 1'-0"
140
0.09375
141
12.0
290
     0
  0
SCALE
  5
52
102
{ACAD_REACTORS
330
3B
102
}
330
3B
100
AcDbScale
 70
     0
300
1/8" = 1'-0"
140
0.125
141
12.0
290
     0
  0
SCALE
  5
53
102
{ACAD_REACTORS
330
3B
102
}
330
3B
100
AcDbScale
 70
     0
300
3/16" = 1'-0"
140
0.1875
141
12.0
290
     0
  0
SCALE
  5
54
102
{ACAD_REACTORS
330
3B
102
}
330
3B
100
AcDbScale
 70
     0
300
1/4" = 1'-0"
140
0.25
141
12.0
290
     0
  0
SCALE
  5
55
102
{ACAD_REACTORS
330
3B
102
}
330
3B
100
AcDbScale
 70
     0
300
3/8" = 1'-0"
140
0.375
141
12.0
290
     0
  0
SCALE
  5
56
102
{ACAD_REACTORS
330
3B
102
}
330
3B
100
AcDbScale
 70
     0
300
1/2" = 1'-0"
140
0.5
141
12.0
290
     0
  0
SCALE
  5
57
102
{ACAD_REACTORS
330
3B
102
}
330
3B
100
AcDbScale
 70
     0
300
3/4" = 1'-0"
140
0.75
141
12.0
290
     0
  0
SCALE
  5
58
102
{ACAD_REACTORS
330
3B
102
}
330
3B
100
AcDbScale
 70
     0
300
1" = 1'-0"
140
1.0
141
12.0
290
     0
  0
SCALE
  5
59
102
{ACAD_REACTORS
330
3B
102
}
330
3B
100
AcDbScale
 70
     0
300
1-1/2" = 1'-0"
140
1.5
141
12.0
290
     0
  0
SCALE
  5
5A
102
{ACAD_REACTORS
330
3B
102
}
330
3B
100
AcDbScale
 70
     0
300
3" = 1'-0"
140
3.0
141
12.0
290
     0
  0
SCALE
  5
5B
102
{ACAD_REACTORS
330
3B
102
}
330
3B
100
AcDbScale
 70
     0
300
6" = 1'-0"
140
6.0
141
12.0
290
     0
  0
SCALE
  5
5C
102
{ACAD_REACTORS
330
3B
102
}
330
3B
100
AcDbScale
 70
     0
300
1'-0" = 1'-0"
140
12.0
141
12.0
290
     0
  0
VISUALSTYLE
  5
2F
102
{ACAD_REACTORS
330
2A
102
}
330
2A
100
AcDbVisualStyle
  2
2dWireframe
 70
     4
 71
     0
 72
     2
 73
     0
 90
        0
 40
-0.6
 41
-30.0
 62
     5
 63
     7
 74
     1
 91
        4
 64
     7
 65
   257
 75
     1
175
     1
 42
1.0
 92
        0
 66
   257
 43
1.0
 76
     1
 77
     6
 78
     2
 67
     7
 79
     5
170
     0
171
     0
290
     0
174
     0
 93
        1
 44
0.0
173
     0
291
     0
 45
0.0
1001
ACAD
1000
AcDbSavedByObjectVersion
1070
     0
  0
VISUALSTYLE
  5
31
102
{ACAD_REACTORS
330
2A
102
}
330
2A
100
AcDbVisualStyle
  2
3D Hidden
 70
     6
 71
     1
 72
     2
 73
     2
 90
        0
 40
-0.6
 41
-30.0
 62
     5
 63
     7
 74
     2
 91
        2
 64
     7
 65
   257
 75
     2
175
     1
 42
40.0
 92
        0
 66
   257
 43
1.0
 76
     1
 77
     6
 78
     2
 67
     7
 79
     3
170
     0
171
     0
290
     0
174
     0
 93
        1
 44
0.0
173
     0
291
     0
 45
0.0
1001
ACAD
1000
AcDbSavedByObjectVersion
1070
     0
  0
VISUALSTYLE
  5
30
102
{ACAD_REACTORS
330
2A
102
}
330
2A
100
AcDbVisualStyle
  2
3dWireframe
 70
     5
 71
     0
 72
     2
 73
     0
 90
        0
 40
-0.6
 41
-30.0
 62
     5
 63
     7
 74
     1
 91
        4
 64
     7
 65
   257
 75
     1
175
     1
 42
1.0
 92
        0
 66
   257
 43
1.0
 76
     1
 77
     6
 78
     2
 67
     7
 79
     5
170
     0
171
     0
290
     0
174
     0
 93
        1
 44
0.0
173
     0
291
     0
 45
0.0
1001
ACAD
1000
AcDbSavedByObjectVersion
1070
     0
  0
VISUALSTYLE
  5
32
102
{ACAD_REACTORS
330
2A
102
}
330
2A
100
AcDbVisualStyle
  2
Basic
 70
     7
 71
     1
 72
     0
 73
     1
 90
        0
 40
-0.6
 41
-30.0
 62
     5
 63
     7
 74
     0
 91
        4
 64
     7
 65
   257
 75
     1
175
     1
 42
1.0
 92
        8
 66
     7
 43
1.0
 76
     1
 77
     6
 78
     2
 67
     7
 79
     5
170
     0
171
     0
290
     0
174
     0
 93
        1
 44
0.0
173
     0
291
     1
 45
0.0
1001
ACAD
1000
AcDbSavedByObjectVersion
1070
     0
  0
VISUALSTYLE
  5
36
102
{ACAD_REACTORS
330
2A
102
}
330
2A
100
AcDbVisualStyle
  2
Brighten
 70
    12
 71
     2
 72
     2
 73
     0
 90
        0
 40
-0.6
 41
-30.0
 62
     5
 63
     7
 74
     1
 91
        4
 64
     7
 65
   257
 75
     1
175
     1
 42
1.0
 92
        8
 66
     7
 43
1.0
 76
     1
 77
     6
 78
     2
 67
     7
 79
     5
170
     0
171
     0
290
     0
174
     0
 93
        1
 44
50.0
173
     0
291
     1
 45
0.0
1001
ACAD
1000
AcDbSavedByObjectVersion
1070
     0
  0
VISUALSTYLE
  5
3A
102
{ACAD_REACTORS
330
2A
102
}
330
2A
100
AcDbVisualStyle
  2
ColorChange
 70
    16
 71
     2
 72
     2
 73
     3
 90
        0
 40
-0.6
 41
-30.0
 62
     5
 63
     8
 74
     1
 91
        4
 64
     7
 65
   257
 75
     1
175
     1
 42
1.0
 92
        8
 66
     8
 43
1.0
 76
     1
 77
     6
 78
     2
 67
     7
 79
     5
170
     0
171
     0
290
     0
174
     0
 93
        1
 44
0.0
173
     0
291
     1
 45
0.0
1001
ACAD
1000
AcDbSavedByObjectVersion
1070
     0
  0
VISUALSTYLE
  5
34
102
{ACAD_REACTORS
330
2A
102
}
330
2A
100
AcDbVisualStyle
  2
Conceptual
 70
     9
 71
     3
 72
     2
 73
     0
 90
        0
 40
-0.6
 41
-30.0
 62
     5
 63
     7
 74
     2
 91
        2
 64
     7
 65
   257
 75
     1
175
     1
 42
40.0
 92
        8
 66
     7
 43
1.0
 76
     1
 77
     6
 78
     2
 67
     7
 79
     3
170
     0
171
     0
290
     0
174
     0
 93
        1
 44
0.0
173
     0
291
     0
 45
0.0
1001
ACAD
1000
AcDbSavedByObjectVersion
1070
     0
  0
VISUALSTYLE
  5
35
102
{ACAD_REACTORS
330
2A
102
}
330
2A
100
AcDbVisualStyle
  2
Dim
 70
    11
 71
     2
 72
     2
 73
     0
 90
        0
 40
-0.6
 41
-30.0
 62
     5
 63
     7
 74
     1
 91
        4
 64
     7
 65
   257
 75
     1
175
     1
 42
1.0
 92
        8
 66
     7
 43
1.0
 76
     1
 77
     6
 78
     2
 67
     7
 79
     5
170
     0
171
     0
290
     0
174
     0
 93
        1
 44
-50.0
173
     0
291
     1
 45
0.0
1001
ACAD
1000
AcDbSavedByObjectVersion
1070
     0
  0
VISUALSTYLE
  5
39
102
{ACAD_REACTORS
330
2A
102
}
330
2A
100
AcDbVisualStyle
  2
Facepattern
 70
    15
 71
     2
 72
     2
 73
     0
 90
        0
 40
-0.6
 41
-30.0
 62
     5
 63
     7
 74
     1
 91
        4
 64
     7
 65
   257
 75
     1
175
     1
 42
1.0
 92
        8
 66
     7
 43
1.0
 76
     1
 77
     6
 78
     2
 67
     7
 79
     5
170
     0
171
     0
290
     0
174
     0
 93
        1
 44
0.0
173
     0
291
     1
 45
0.0
1001
ACAD
1000
AcDbSavedByObjectVersion
1070
     0
  0
VISUALSTYLE
  5
2B
102
{ACAD_REACTORS
330
2A
102
}
330
2A
100
AcDbVisualStyle
  2
Flat
 70
     0
 71
     2
 72
     1
 73
     1
 90
        2
 40
-0.6
 41
30.0
 62
     5
 63
     7
 74
     0
 91
        4
 64
     7
 65
   257
 75
     1
175
     1
 42
1.0
 92
        8
 66
     7
 43
1.0
 76
     1
 77
     6
 78
     2
 67
     7
 79
     5
170
     0
171
     0
290
     0
174
     0
 93
       13
 44
0.0
173
     0
291
     1
 45
0.0
1001
ACAD
1000
AcDbSavedByObjectVersion
1070
     0
  0
VISUALSTYLE
  5
2C
102
{ACAD_REACTORS
330
2A
102
}
330
2A
100
AcDbVisualStyle
  2
FlatWithEdges
 70
     1
 71
     2
 72
     1
 73
     1
 90
        2
 40
-0.6
 41
30.0
 62
     5
 63
     7
 74
     1
 91
        4
 64
     7
 65
   257
 75
     1
175
     1
 42
1.0
 92
        0
 66
   257
 43
1.0
 76
     1
 77
     6
 78
     2
 67
     7
 79
     5
170
     0
171
     0
290
     0
174
     0
 93
       13
 44
0.0
173
     0
291
     1
 45
0.0
1001
ACAD
1000
AcDbSavedByObjectVersion
1070
     0
  0
VISUALSTYLE
  5
2D
102
{ACAD_REACTORS
330
2A
102
}
330
2A
100
AcDbVisualStyle
  2
Gouraud
 70
     2
 71
     2
 72
     2
 73
     1
 90
        2
 40
-0.6
 41
30.0
 62
     5
 63
     7
 74
     0
 91
        4
 64
     7
 65
   257
 75
     1
175
     1
 42
1.0
 92
        0
 66
     7
 43
1.0
 76
     1
 77
     6
 78
     2
 67
     7
 79
     5
170
     0
171
     0
290
     0
174
     0
 93
       13
 44
0.0
173
     0
291
     1
 45
0.0
1001
ACAD
1000
AcDbSavedByObjectVersion
1070
     0
  0
VISUALSTYLE
  5
2E
102
{ACAD_REACTORS
330
2A
102
}
330
2A
100
AcDbVisualStyle
  2
GouraudWithEdges
 70
     3
 71
     2
 72
     2
 73
     1
 90
        2
 40
-0.6
 41
30.0
 62
     5
 63
     7
 74
     1
 91
        4
 64
     7
 65
   257
 75
     1
175
     1
 42
1.0
 92
        0
 66
   257
 43
1.0
 76
     1
 77
     6
 78
     2
 67
     7
 79
     5
170
     0
171
     0
290
     0
174
     0
 93
       13
 44
0.0
173
     0
291
     1
 45
0.0
1001
ACAD
1000
AcDbSavedByObjectVersion
1070
     0
  0
VISUALSTYLE
  5
38
102
{ACAD_REACTORS
330
2A
102
}
330
2A
100
AcDbVisualStyle
  2
Linepattern
 70
    14
 71
     2
 72
     2
 73
     0
 90
        0
 40
-0.6
 41
-30.0
 62
     5
 63
     7
 74
     1
 91
        4
 64
     7
 65
   257
 75
     7
175
     7
 42
1.0
 92
        8
 66
     7
 43
1.0
 76
     1
 77
     6
 78
     2
 67
     7
 79
     5
170
     0
171
     0
290
     0
174
     0
 93
        1
 44
0.0
173
     0
291
     1
 45
0.0
1001
ACAD
1000
AcDbSavedByObjectVersion
1070
     0
  0
VISUALSTYLE
  5
33
102
{ACAD_REACTORS
330
2A
102
}
330
2A
100
AcDbVisualStyle
  2
Realistic
 70
     8
 71
     2
 72
     2
 73
     0
 90
        0
 40
-0.6
 41
-30.0
 62
     5
 63
     7
 74
     1
 91
        0
 64
     7
 65
   257
 75
     1
175
     1
 42
1.0
 92
        8
 66
     8
 43
1.0
 76
     1
 77
     6
 78
     2
 67
     7
 79
     5
170
     0
171
     0
290
     0
174
     0
 93
       13
 44
0.0
173
     0
291
     0
 45
0.0
1001
ACAD
1000
AcDbSavedByObjectVersion
1070
     0
  0
VISUALSTYLE
  5
37
102
{ACAD_REACTORS
330
2A
102
}
330
2A
100
AcDbVisualStyle
  2
Thicken
 70
    13
 71
     2
 72
     2
 73
     0
 90
        0
 40
-0.6
 41
-30.0
 62
     5
 63
     7
 74
     1
 91
        4
 64
     7
 65
   257
 75
     1
175
     1
 42
1.0
 92
       12
 66
     7
 43
1.0
 76
     1
 77
     6
 78
     2
 67
     7
 79
     5
170
     0
171
     0
290
     0
174
     0
 93
        1
 44
0.0
173
     0
291
     1
 45
0.0
1001
ACAD
1000
AcDbSavedByObjectVersion
1070
     0
  0
DICTIONARYVAR
  5
148
102
{ACAD_REACTORS
330
147
102
}
330
147
100
DictionaryVariables
280
     0
  1
1:1
  0
DICTIONARYVAR
  5
14C
102
{ACAD_REACTORS
330
147
102
}
330
147
100
DictionaryVariables
280
     0
  1
80.000000
  0
DICTIONARYVAR
  5
14B
102
{ACAD_REACTORS
330
147
102
}
330
147
100
DictionaryVariables
280
     0
  1
5.000000
  0
ENDSEC
  0
EOF
