  0
SECTION
  2
HEADER
  9
$ACADVER
  1
AC1015
  9
$ACADMAINTVER
 70
     6
  9
$DWGCODEPAGE
  3
ANSI_1252
  9
$INSBASE
 10
0.0
 20
0.0
 30
0.0
  9
$EXTMIN
 10
0.0
 20
0.0
 30
0.0
  9
$EXTMAX
 10
3000.0
 20
4500.0
 30
0.0
  9
$LIMMIN
 10
0.0
 20
0.0
  9
$LIMMAX
 10
3000.0
 20
4500.0
  9
$ORTHOMODE
 70
     0
  9
$REGENMODE
 70
     1
  9
$FILLMODE
 70
     1
  9
$QTEXTMODE
 70
     0
  9
$MIRRTEXT
 70
     1
  9
$LTSCALE
 40
1.0
  9
$ATTMODE
 70
     1
  9
$TEXTSIZE
 40
2.5
  9
$TRACEWID
 40
1.0
  9
$TEXTSTYLE
  7
Standard
  9
$CLAYER
  8
0
  9
$CELTYPE
  6
ByLayer
  9
$CECOLOR
 62
   256
  9
$CELTSCALE
 40
1.0
  9
$DISPSILH
 70
     0
  9
$DIMSCALE
 40
1.0
  9
$DIMASZ
 40
2.5
  9
$DIMEXO
 40
0.625
  9
$DIMDLI
 40
3.75
  9
$DIMRND
 40
0.0
  9
$DIMDLE
 40
0.0
  9
$DIMEXE
 40
1.25
  9
$DIMTP
 40
0.0
  9
$DIMTM
 40
0.0
  9
$DIMTXT
 40
2.5
  9
$DIMCEN
 40
2.5
  9
$DIMTSZ
 40
0.0
  9
$DIMTOL
 70
     0
  9
$DIMLIM
 70
     0
  9
$DIMTIH
 70
     0
  9
$DIMTOH
 70
     0
  9
$DIMSE1
 70
     0
  9
$DIMSE2
 70
     0
  9
$DIMTAD
 70
     1
  9
$DIMZIN
 70
     8
  9
$DIMBLK
  1

  9
$DIMASO
 70
     1
  9
$DIMSHO
 70
     1
  9
$DIMPOST
  1

  9
$DIMAPOST
  1

  9
$DIMALT
 70
     0
  9
$DIMALTD
 70
     3
  9
$DIMALTF
 40
0.0393700787
  9
$DIMLFAC
 40
1.0
  9
$DIMTOFL
 70
     1
  9
$DIMTVP
 40
0.0
  9
$DIMTIX
 70
     0
  9
$DIMSOXD
 70
     0
  9
$DIMSAH
 70
     0
  9
$DIMBLK1
  1

  9
$DIMBLK2
  1

  9
$DIMSTYLE
  2
ISO-25
  9
$DIMCLRD
 70
     0
  9
$DIMCLRE
 70
     0
  9
$DIMCLRT
 70
     0
  9
$DIMTFAC
 40
1.0
  9
$DIMGAP
 40
0.625
  9
$DIMJUST
 70
     0
  9
$DIMSD1
 70
     0
  9
$DIMSD2
 70
     0
  9
$DIMTOLJ
 70
     0
  9
$DIMTZIN
 70
     8
  9
$DIMALTZ
 70
     0
  9
$DIMALTTZ
 70
     0
  9
$DIMUPT
 70
     0
  9
$DIMDEC
 70
     2
  9
$DIMTDEC
 70
     2
  9
$DIMALTU
 70
     2
  9
$DIMALTTD
 70
     3
  9
$DIMTXSTY
  7
Standard
  9
$DIMAUNIT
 70
     0
  9
$DIMADEC
 70
     0
  9
$DIMALTRND
 40
0.0
  9
$DIMAZIN
 70
     0
  9
$DIMDSEP
 70
    44
  9
$DIMATFIT
 70
     3
  9
$DIMFRAC
 70
     0
  9
$DIMLDRBLK
  1

  9
$DIMLUNIT
 70
     2
  9
$DIMLWD
 70
    -2
  9
$DIMLWE
 70
    -2
  9
$DIMTMOVE
 70
     0
  9
$LUNITS
 70
     2
  9
$LUPREC
 70
     4
  9
$SKETCHINC
 40
1.0
  9
$FILLETRAD
 40
10.0
  9
$AUNITS
 70
     0
  9
$AUPREC
 70
     0
  9
$MENU
  1
.
  9
$ELEVATION
 40
0.0
  9
$PELEVATION
 40
0.0
  9
$THICKNESS
 40
0.0
  9
$LIMCHECK
 70
     0
  9
$CHAMFERA
 40
10.0
  9
$CHAMFERB
 40
10.0
  9
$CHAMFERC
 40
20.0
  9
$CHAMFERD
 40
0.0
  9
$SKPOLY
 70
     0
  9
$TDCREATE
 40
2456023.609236933
  9
$TDUCREATE
 40
2456023.525903599
  9
$TDUPDATE
 40
2456023.609236944
  9
$TDUUPDATE
 40
2456023.525903611
  9
$TDINDWG
 40
0.0000000116
  9
$TDUSRTIMER
 40
0.0000000116
  9
$USRTIMER
 70
     1
  9
$ANGBASE
 50
0.0
  9
$ANGDIR
 70
     0
  9
$PDMODE
 70
     0
  9
$PDSIZE
 40
0.0
  9
$PLINEWID
 40
0.0
  9
$SPLFRAME
 70
     0
  9
$SPLINETYPE
 70
     6
  9
$SPLINESEGS
 70
     8
  9
$HANDSEED
  5
47E
  9
$SURFTAB1
 70
     6
  9
$SURFTAB2
 70
     6
  9
$SURFTYPE
 70
     6
  9
$SURFU
 70
     6
  9
$SURFV
 70
     6
  9
$UCSBASE
  2

  9
$UCSNAME
  2

  9
$UCSORG
 10
0.0
 20
0.0
 30
0.0
  9
$UCSXDIR
 10
1.0
 20
0.0
 30
0.0
  9
$UCSYDIR
 10
0.0
 20
1.0
 30
0.0
  9
$UCSORTHOREF
  2

  9
$UCSORTHOVIEW
 70
     0
  9
$UCSORGTOP
 10
0.0
 20
0.0
 30
0.0
  9
$UCSORGBOTTOM
 10
0.0
 20
0.0
 30
0.0
  9
$UCSORGLEFT
 10
0.0
 20
0.0
 30
0.0
  9
$UCSORGRIGHT
 10
0.0
 20
0.0
 30
0.0
  9
$UCSORGFRONT
 10
0.0
 20
0.0
 30
0.0
  9
$UCSORGBACK
 10
0.0
 20
0.0
 30
0.0
  9
$PUCSBASE
  2

  9
$PUCSNAME
  2

  9
$PUCSORG
 10
0.0
 20
0.0
 30
0.0
  9
$PUCSXDIR
 10
1.0
 20
0.0
 30
0.0
  9
$PUCSYDIR
 10
0.0
 20
1.0
 30
0.0
  9
$PUCSORTHOREF
  2

  9
$PUCSORTHOVIEW
 70
     0
  9
$PUCSORGTOP
 10
0.0
 20
0.0
 30
0.0
  9
$PUCSORGBOTTOM
 10
0.0
 20
0.0
 30
0.0
  9
$PUCSORGLEFT
 10
0.0
 20
0.0
 30
0.0
  9
$PUCSORGRIGHT
 10
0.0
 20
0.0
 30
0.0
  9
$PUCSORGFRONT
 10
0.0
 20
0.0
 30
0.0
  9
$PUCSORGBACK
 10
0.0
 20
0.0
 30
0.0
  9
$USERI1
 70
     0
  9
$USERI2
 70
     0
  9
$USERI3
 70
     0
  9
$USERI4
 70
     0
  9
$USERI5
 70
     0
  9
$USERR1
 40
0.0
  9
$USERR2
 40
0.0
  9
$USERR3
 40
0.0
  9
$USERR4
 40
0.0
  9
$USERR5
 40
0.0
  9
$WORLDVIEW
 70
     1
  9
$SHADEDGE
 70
     3
  9
$SHADEDIF
 70
    70
  9
$TILEMODE
 70
     1
  9
$MAXACTVP
 70
    64
  9
$PINSBASE
 10
0.0
 20
0.0
 30
0.0
  9
$PLIMCHECK
 70
     0
  9
$PEXTMIN
 10
0.0
 20
0.0
 30
0.0
  9
$PEXTMAX
 10
3000.0
 20
4500.0
 30
0.0
  9
$PLIMMIN
 10
0.0
 20
0.0
  9
$PLIMMAX
 10
3000.0
 20
4500.0
  9
$UNITMODE
 70
     0
  9
$VISRETAIN
 70
     1
  9
$PLINEGEN
 70
     0
  9
$PSLTSCALE
 70
     1
  9
$TREEDEPTH
 70
  3020
  9
$CMLSTYLE
  2
Standard
  9
$CMLJUST
 70
     0
  9
$CMLSCALE
 40
20.0
  9
$PROXYGRAPHICS
 70
     1
  9
$MEASUREMENT
 70
     1
  9
$CELWEIGHT
370
    -1
  9
$ENDCAPS
280
     0
  9
$JOINSTYLE
280
     0
  9
$LWDISPLAY
290
     0
  9
$INSUNITS
 70
     4
  9
$HYPERLINKBASE
  1

  9
$STYLESHEET
  1

  9
$XEDIT
290
     1
  9
$CEPSNTYPE
380
     0
  9
$PSTYLEMODE
290
     1
  9
$FINGERPRINTGUID
  2
{A1BE70FD-66F6-4D65-93DF-1135499D0903}
  9
$VERSIONGUID
  2
{FAEB1C32-E019-11D5-929B-00C0DF256EC4}
  9
$EXTNAMES
290
     1
  9
$PSVPSCALE
 40
0.0
  9
$OLESTARTUP
290
     0
  0
ENDSEC
  0
SECTION
  2
CLASSES
  0
CLASS
  1
ACDBDICTIONARYWDFLT
  2
AcDbDictionaryWithDefault
  3
ObjectDBX Classes
 90
        0
280
     0
281
     0
  0
CLASS
  1
VISUALSTYLE
  2
AcDbVisualStyle
  3
ObjectDBX Classes
 90
     4095
280
     0
281
     0
  0
CLASS
  1
SCALE
  2
AcDbScale
  3
ObjectDBX Classes
 90
     1153
280
     0
281
     0
  0
CLASS
  1
DICTIONARYVAR
  2
AcDbDictionaryVar
  3
ObjectDBX Classes
 90
        0
280
     0
281
     0
  0
CLASS
  1
ACDBPLACEHOLDER
  2
AcDbPlaceHolder
  3
ObjectDBX Classes
 90
        0
280
     0
281
     0
  0
CLASS
  1
LAYOUT
  2
AcDbLayout
  3
ObjectDBX Classes
 90
        0
280
     0
281
     0
  0
ENDSEC
  0
SECTION
  2
TABLES
  0
TABLE
  2
VPORT
  5
8
330
0
100
AcDbSymbolTable
 70
     1
  0
VPORT
  5
29
330
8
100
AcDbSymbolTableRecord
100
AcDbViewportTableRecord
  2
*Active
 70
     0
 10
0.0
 20
0.0
 11
1.0
 21
1.0
 12
344.1869158879
 22
148.5
 13
0.0
 23
0.0
 14
10.0
 24
10.0
 15
10.0
 25
10.0
 16
0.0
 26
0.0
 36
1.0
 17
0.0
 27
0.0
 37
0.0
 40
297.0
 41
1.9729729729
 42
50.0
 43
0.0
 44
0.0
 50
0.0
 51
0.0
 71
     0
 72
   100
 73
     1
 74
     3
 75
     0
 76
     0
 77
     0
 78
     0
281
     0
 65
     1
110
0.0
120
0.0
130
0.0
111
1.0
121
0.0
131
0.0
112
0.0
122
1.0
132
0.0
 79
     0
146
0.0
  0
ENDTAB
  0
TABLE
  2
LTYPE
  5
5
330
0
100
AcDbSymbolTable
 70
     2
  0
LTYPE
  5
14
330
5
100
AcDbSymbolTableRecord
100
AcDbLinetypeTableRecord
  2
ByBlock
 70
     0
  3

 72
    65
 73
     0
 40
0.0
  0
LTYPE
  5
15
330
5
100
AcDbSymbolTableRecord
100
AcDbLinetypeTableRecord
  2
ByLayer
 70
     0
  3

 72
    65
 73
     0
 40
0.0
  0
LTYPE
  5
16
330
5
100
AcDbSymbolTableRecord
100
AcDbLinetypeTableRecord
  2
Continuous
 70
     0
  3
Solid line
 72
    65
 73
     0
 40
0.0
  0
LTYPE
  5
60
330
5
100
AcDbSymbolTableRecord
100
AcDbLinetypeTableRecord
  2
CENTER2
 70
     0
  3
Center (.5x) ___ _ ___ _ ___ _ ___ _ ___ _ ___
 72
    65
 73
     4
 40
28.575
 49
19.05
 74
     4
 75
     0
340
0
 46
0.0
 50
0.0
 44
0.0
 45
0.0
 49
-3.175
 74
     4
 75
     0
340
0
 46
0.0
 50
0.0
 44
0.0
 45
0.0
 49
3.175
 74
     4
 75
     0
340
0
 46
0.0
 50
0.0
 44
0.0
 45
0.0
 49
-3.175
 74
     4
 75
     0
340
0
 46
0.0
 50
0.0
 44
0.0
 45
0.0
  0
ENDTAB
  0
TABLE
  2
LAYER
  5
2
330
0
100
AcDbSymbolTable
 70
    10
  0
LAYER
  5
10
330
2
100
AcDbSymbolTableRecord
100
AcDbLayerTableRecord
  2
0
 70
     0
 62
     7
  6
Continuous
370
    -3
390
F
  0
LAYER
  5
5D
330
2
100
AcDbSymbolTableRecord
100
AcDbLayerTableRecord
  2
Default
 70
     0
 62
     7
  6
Continuous
370
    -3
390
F
  0
LAYER
  5
99
330
2
100
AcDbSymbolTableRecord
100
AcDbLayerTableRecord
  2
$DDT_AUDIT_GENERATED_(99)
 70
     0
 62
     7
  6
Continuous
370
    -3
390
F
  0
LAYER
  5
EE
330
2
100
AcDbSymbolTableRecord
100
AcDbLayerTableRecord
  2
$DDT_AUDIT_GENERATED_(EE)
 70
     0
 62
     7
  6
Continuous
370
    -3
390
F
  0
LAYER
  5
F5
330
2
100
AcDbSymbolTableRecord
100
AcDbLayerTableRecord
  2
$DDT_AUDIT_GENERATED_(F5)
 70
     0
 62
     7
  6
Continuous
370
    -3
390
F
  0
LAYER
  5
104
330
2
100
AcDbSymbolTableRecord
100
AcDbLayerTableRecord
  2
$DDT_AUDIT_GENERATED_(104)
 70
     0
 62
     7
  6
Continuous
370
    -3
390
F
  0
LAYER
  5
1A1
330
2
100
AcDbSymbolTableRecord
100
AcDbLayerTableRecord
  2
$DDT_AUDIT_GENERATED_(1A1)
 70
     0
 62
     7
  6
Continuous
370
    -3
390
F
  0
LAYER
  5
1F2
330
2
100
AcDbSymbolTableRecord
100
AcDbLayerTableRecord
  2
$DDT_AUDIT_GENERATED_(1F2)
 70
     0
 62
     7
  6
Continuous
370
    -3
390
F
  0
LAYER
  5
29D
330
2
100
AcDbSymbolTableRecord
100
AcDbLayerTableRecord
  2
$DDT_AUDIT_GENERATED_(29D)
 70
     0
 62
     7
  6
Continuous
370
    -3
390
F
  0
LAYER
  5
2E3
330
2
100
AcDbSymbolTableRecord
100
AcDbLayerTableRecord
  2
$DDT_AUDIT_GENERATED_(2E3)
 70
     0
 62
     7
  6
Continuous
370
    -3
390
F
  0
ENDTAB
  0
TABLE
  2
STYLE
  5
3
330
0
100
AcDbSymbolTable
 70
     2
  0
STYLE
  5
11
330
3
100
AcDbSymbolTableRecord
100
AcDbTextStyleTableRecord
  2
Standard
 70
     0
 40
0.0
 41
1.0
 50
0.0
 71
     0
 42
2.5
  3
txt
  4

  0
STYLE
  5
46D
330
3
100
AcDbSymbolTableRecord
100
AcDbTextStyleTableRecord
  2
SEACAD_seiso_ttf
 70
     0
 40
0.0
 41
1.0
 50
0.0
 71
     0
 42
0.2
  3
seiso.ttf
  4

  0
ENDTAB
  0
TABLE
  2
VIEW
  5
6
330
0
100
AcDbSymbolTable
 70
     0
  0
ENDTAB
  0
TABLE
  2
UCS
  5
7
330
0
100
AcDbSymbolTable
 70
     0
  0
ENDTAB
  0
TABLE
  2
APPID
  5
9
330
0
100
AcDbSymbolTable
 70
     1
  0
APPID
  5
12
330
9
100
AcDbSymbolTableRecord
100
AcDbRegAppTableRecord
  2
ACAD
 70
     0
  0
ENDTAB
  0
TABLE
  2
DIMSTYLE
  5
A
330
0
100
AcDbSymbolTable
 70
     1
100
AcDbDimStyleTable
  0
DIMSTYLE
105
27
330
A
100
AcDbSymbolTableRecord
100
AcDbDimStyleTableRecord
  2
ISO-25
 70
     0
 41
2.5
 42
0.625
 43
3.75
 44
1.25
 73
     0
 74
     0
 77
     1
 78
     8
140
2.5
141
2.5
143
0.0393700787
147
0.625
171
     3
172
     1
271
     2
272
     2
274
     3
278
    44
283
     0
284
     8
340
11
  0
ENDTAB
  0
TABLE
  2
BLOCK_RECORD
  5
1
330
0
100
AcDbSymbolTable
 70
    12
  0
BLOCK_RECORD
  5
1F
330
1
100
AcDbSymbolTableRecord
100
AcDbBlockTableRecord
  2
*Model_Space
340
22
  0
BLOCK_RECORD
  5
1B
330
1
100
AcDbSymbolTableRecord
100
AcDbBlockTableRecord
  2
*Paper_Space
340
1E
  0
BLOCK_RECORD
  5
5E
330
1
100
AcDbSymbolTableRecord
100
AcDbBlockTableRecord
  2
SEANNOT_GROUP
340
0
102
{BLKREFS
331
5F
102
}
  0
BLOCK_RECORD
  5
69
330
1
100
AcDbSymbolTableRecord
100
AcDbBlockTableRecord
  2
SEANNOT_GROUP1
340
0
102
{BLKREFS
331
6A
102
}
  0
BLOCK_RECORD
  5
6F
330
1
100
AcDbSymbolTableRecord
100
AcDbBlockTableRecord
  2
SEANNOT_GROUP2
340
0
102
{BLKREFS
331
70
102
}
  0
BLOCK_RECORD
  5
75
330
1
100
AcDbSymbolTableRecord
100
AcDbBlockTableRecord
  2
SEANNOT_GROUP3
340
0
102
{BLKREFS
331
76
102
}
  0
BLOCK_RECORD
  5
7F
330
1
100
AcDbSymbolTableRecord
100
AcDbBlockTableRecord
  2
SEANNOT_GROUP4
340
0
102
{BLKREFS
331
80
102
}
  0
BLOCK_RECORD
  5
85
330
1
100
AcDbSymbolTableRecord
100
AcDbBlockTableRecord
  2
SEANNOT_GROUP5
340
0
102
{BLKREFS
331
86
102
}
  0
BLOCK_RECORD
  5
8B
330
1
100
AcDbSymbolTableRecord
100
AcDbBlockTableRecord
  2
SEANNOT_GROUP6
340
0
102
{BLKREFS
331
8C
102
}
  0
BLOCK_RECORD
  5
91
330
1
100
AcDbSymbolTableRecord
100
AcDbBlockTableRecord
  2
SEANNOT_GROUP7
340
0
102
{BLKREFS
331
92
102
}
  0
BLOCK_RECORD
  5
97
330
1
100
AcDbSymbolTableRecord
100
AcDbBlockTableRecord
  2
SE
340
0
102
{BLKREFS
331
98
102
}
  0
BLOCK_RECORD
  5
1F6
330
1
100
AcDbSymbolTableRecord
100
AcDbBlockTableRecord
  2
SE1
340
0
102
{BLKREFS
331
1F7
102
}
  0
BLOCK_RECORD
  5
33B
330
1
100
AcDbSymbolTableRecord
100
AcDbBlockTableRecord
  2
SE2
340
0
102
{BLKREFS
331
33C
102
}
  0
ENDTAB
  0
ENDSEC
  0
SECTION
  2
BLOCKS
  0
BLOCK
  5
20
330
1F
100
AcDbEntity
  8
0
100
AcDbBlockBegin
  2
*Model_Space
 70
     0
 10
0.0
 20
0.0
 30
0.0
  3
*Model_Space
  1

  0
ENDBLK
  5
21
330
1F
100
AcDbEntity
  8
0
100
AcDbBlockEnd
  0
BLOCK
  5
1C
330
1B
100
AcDbEntity
 67
     1
  8
0
100
AcDbBlockBegin
  2
*Paper_Space
 70
     0
 10
0.0
 20
0.0
 30
0.0
  3
*Paper_Space
  1

  0
ENDBLK
  5
1D
330
1B
100
AcDbEntity
 67
     1
  8
0
100
AcDbBlockEnd
  0
BLOCK
  5
67
330
5E
100
AcDbEntity
  8
0
100
AcDbBlockBegin
  2
SEANNOT_GROUP
 70
     0
 10
0.0
 20
0.0
 30
0.0
  3
SEANNOT_GROUP
  1

  0
LINE
  5
61
330
5E
100
AcDbEntity
  8
Default
  6
CENTER2
 62
     7
100
AcDbLine
 10
146.9378972709
 20
267.7973535671
 30
0.0
 11
106.937898165
 21
267.7973535671
 31
0.0
  0
LINE
  5
62
330
5E
100
AcDbEntity
  8
Default
  6
CENTER2
 62
     7
100
AcDbLine
 10
126.937897718
 20
287.7973531201
 30
0.0
 11
126.937897718
 21
247.7973540141
 31
0.0
  0
LINE
  5
63
330
5E
100
AcDbEntity
  8
Default
  6
CENTER2
 62
     7
100
AcDbLine
 10
151.9378971592
 20
267.7973535671
 30
0.0
 11
149.687897718
 21
267.7973535671
 31
0.0
  0
LINE
  5
64
330
5E
100
AcDbEntity
  8
Default
  6
CENTER2
 62
     7
100
AcDbLine
 10
126.937897718
 20
292.7973530083
 30
0.0
 11
126.937897718
 21
290.5473535671
 31
0.0
  0
LINE
  5
65
330
5E
100
AcDbEntity
  8
Default
  6
CENTER2
 62
     7
100
AcDbLine
 10
101.9378982768
 20
267.7973535671
 30
0.0
 11
104.187897718
 21
267.7973535671
 31
0.0
  0
LINE
  5
66
330
5E
100
AcDbEntity
  8
Default
  6
CENTER2
 62
     7
100
AcDbLine
 10
126.937897718
 20
242.7973541259
 30
0.0
 11
126.937897718
 21
245.0473535671
 31
0.0
  0
ENDBLK
  5
68
330
5E
100
AcDbEntity
  8
0
100
AcDbBlockEnd
  0
BLOCK
  5
6D
330
69
100
AcDbEntity
  8
0
100
AcDbBlockBegin
  2
SEANNOT_GROUP1
 70
     0
 10
0.0
 20
0.0
 30
0.0
  3
SEANNOT_GROUP1
  1

  0
LINE
  5
6B
330
69
100
AcDbEntity
  8
Default
  6
CENTER2
 62
     7
100
AcDbLine
 10
99.4378972709
 20
267.7973535671
 30
0.0
 11
59.437898165
 21
267.7973535671
 31
0.0
  0
LINE
  5
6C
330
69
100
AcDbEntity
  8
Default
  6
CENTER2
 62
     7
100
AcDbLine
 10
79.437897718
 20
287.7973531201
 30
0.0
 11
79.437897718
 21
247.7973540141
 31
0.0
  0
ENDBLK
  5
6E
330
69
100
AcDbEntity
  8
0
100
AcDbBlockEnd
  0
BLOCK
  5
73
330
6F
100
AcDbEntity
  8
0
100
AcDbBlockBegin
  2
SEANNOT_GROUP2
 70
     0
 10
0.0
 20
0.0
 30
0.0
  3
SEANNOT_GROUP2
  1

  0
LINE
  5
71
330
6F
100
AcDbEntity
  8
Default
  6
CENTER2
 62
     7
100
AcDbLine
 10
194.4378972709
 20
267.7973535671
 30
0.0
 11
154.437898165
 21
267.7973535671
 31
0.0
  0
LINE
  5
72
330
6F
100
AcDbEntity
  8
Default
  6
CENTER2
 62
     7
100
AcDbLine
 10
174.437897718
 20
287.7973531201
 30
0.0
 11
174.437897718
 21
247.7973540141
 31
0.0
  0
ENDBLK
  5
74
330
6F
100
AcDbEntity
  8
0
100
AcDbBlockEnd
  0
BLOCK
  5
7D
330
75
100
AcDbEntity
  8
0
100
AcDbBlockBegin
  2
SEANNOT_GROUP3
 70
     0
 10
0.0
 20
0.0
 30
0.0
  3
SEANNOT_GROUP3
  1

  0
LINE
  5
77
330
75
100
AcDbEntity
  8
Default
  6
CENTER2
 62
     7
100
AcDbLine
 10
302.0341682764
 20
267.7973535671
 30
0.0
 11
262.0341691705
 21
267.7973535671
 31
0.0
  0
LINE
  5
78
330
75
100
AcDbEntity
  8
Default
  6
CENTER2
 62
     7
100
AcDbLine
 10
282.0341687235
 20
287.7973531201
 30
0.0
 11
282.0341687235
 21
247.7973540141
 31
0.0
  0
LINE
  5
79
330
75
100
AcDbEntity
  8
Default
  6
CENTER2
 62
     7
100
AcDbLine
 10
307.0341681647
 20
267.7973535671
 30
0.0
 11
294.8491687235
 21
267.7973535671
 31
0.0
  0
LINE
  5
7A
330
75
100
AcDbEntity
  8
Default
  6
CENTER2
 62
     7
100
AcDbLine
 10
282.0341687235
 20
292.7973530083
 30
0.0
 11
282.0341687235
 21
280.6123535671
 31
0.0
  0
LINE
  5
7B
330
75
100
AcDbEntity
  8
Default
  6
CENTER2
 62
     7
100
AcDbLine
 10
257.0341692823
 20
267.7973535671
 30
0.0
 11
269.2191687235
 21
267.7973535671
 31
0.0
  0
LINE
  5
7C
330
75
100
AcDbEntity
  8
Default
  6
CENTER2
 62
     7
100
AcDbLine
 10
282.0341687235
 20
242.7973541259
 30
0.0
 11
282.0341687235
 21
254.9823535671
 31
0.0
  0
ENDBLK
  5
7E
330
75
100
AcDbEntity
  8
0
100
AcDbBlockEnd
  0
BLOCK
  5
83
330
7F
100
AcDbEntity
  8
0
100
AcDbBlockBegin
  2
SEANNOT_GROUP4
 70
     0
 10
0.0
 20
0.0
 30
0.0
  3
SEANNOT_GROUP4
  1

  0
LINE
  5
81
330
7F
100
AcDbEntity
  8
Default
  6
CENTER2
 62
     7
100
AcDbLine
 10
397.7341682764
 20
267.7973535671
 30
0.0
 11
357.7341691705
 21
267.7973535671
 31
0.0
  0
LINE
  5
82
330
7F
100
AcDbEntity
  8
Default
  6
CENTER2
 62
     7
100
AcDbLine
 10
377.7341687235
 20
287.7973531201
 30
0.0
 11
377.7341687235
 21
247.7973540141
 31
0.0
  0
ENDBLK
  5
84
330
7F
100
AcDbEntity
  8
0
100
AcDbBlockEnd
  0
BLOCK
  5
89
330
85
100
AcDbEntity
  8
0
100
AcDbBlockBegin
  2
SEANNOT_GROUP5
 70
     0
 10
0.0
 20
0.0
 30
0.0
  3
SEANNOT_GROUP5
  1

  0
LINE
  5
87
330
85
100
AcDbEntity
  8
Default
  6
CENTER2
 62
     7
100
AcDbLine
 10
99.4378972709
 20
155.3137468241
 30
0.0
 11
59.437898165
 21
155.3137468241
 31
0.0
  0
LINE
  5
88
330
85
100
AcDbEntity
  8
Default
  6
CENTER2
 62
     7
100
AcDbLine
 10
79.437897718
 20
175.3137463771
 30
0.0
 11
79.437897718
 21
135.3137472711
 31
0.0
  0
ENDBLK
  5
8A
330
85
100
AcDbEntity
  8
0
100
AcDbBlockEnd
  0
BLOCK
  5
8F
330
8B
100
AcDbEntity
  8
0
100
AcDbBlockBegin
  2
SEANNOT_GROUP6
 70
     0
 10
0.0
 20
0.0
 30
0.0
  3
SEANNOT_GROUP6
  1

  0
LINE
  5
8D
330
8B
100
AcDbEntity
  8
Default
  6
CENTER2
 62
     7
100
AcDbLine
 10
194.4378972709
 20
155.3137468241
 30
0.0
 11
154.437898165
 21
155.3137468241
 31
0.0
  0
LINE
  5
8E
330
8B
100
AcDbEntity
  8
Default
  6
CENTER2
 62
     7
100
AcDbLine
 10
174.437897718
 20
175.3137463771
 30
0.0
 11
174.437897718
 21
135.3137472711
 31
0.0
  0
ENDBLK
  5
90
330
8B
100
AcDbEntity
  8
0
100
AcDbBlockEnd
  0
BLOCK
  5
95
330
91
100
AcDbEntity
  8
0
100
AcDbBlockBegin
  2
SEANNOT_GROUP7
 70
     0
 10
0.0
 20
0.0
 30
0.0
  3
SEANNOT_GROUP7
  1

  0
LINE
  5
93
330
91
100
AcDbEntity
  8
Default
  6
CENTER2
 62
     7
100
AcDbLine
 10
146.9378972709
 20
60.6137468241
 30
0.0
 11
106.937898165
 21
60.6137468241
 31
0.0
  0
LINE
  5
94
330
91
100
AcDbEntity
  8
Default
  6
CENTER2
 62
     7
100
AcDbLine
 10
126.937897718
 20
80.6137463771
 30
0.0
 11
126.937897718
 21
40.6137472711
 31
0.0
  0
ENDBLK
  5
96
330
91
100
AcDbEntity
  8
0
100
AcDbBlockEnd
  0
BLOCK
  5
1F4
330
97
100
AcDbEntity
  8
0
100
AcDbBlockBegin
  2
SE
 70
     0
 10
0.0
 20
0.0
 30
0.0
  3
SE
  1

  0
ELLIPSE
  5
9A
330
97
100
AcDbEntity
  8
$DDT_AUDIT_GENERATED_(99)
  6
Continuous
 62
     7
100
AcDbEllipse
 10
161.1935454198
 20
267.7973535671
 30
0.0
 11
0.0
 21
-16.00000000000001
 31
0.0
210
0.0
220
0.0
230
1.0
 40
0.0087268678
 41
0.283230285294594
 42
0.3554212016902312
  0
ELLIPSE
  5
9B
330
97
100
AcDbEntity
  8
$DDT_AUDIT_GENERATED_(99)
  6
Continuous
 62
     7
100
AcDbEllipse
 10
161.1935454198
 20
267.7973535671
 30
0.0
 11
0.0
 21
-16.00000000000001
 31
0.0
210
0.0
220
0.0
230
1.0
 40
0.0087268678
 41
-3.497013855280019
 42
-3.424822938884502
  0
ELLIPSE
  5
9C
330
97
100
AcDbEntity
  8
$DDT_AUDIT_GENERATED_(99)
  6
Continuous
 62
     7
100
AcDbEllipse
 10
92.6822500161
 20
267.7973535671
 30
0.0
 11
-6.938893903907228E-15
 21
-15.99999999999999
 31
0.0
210
0.0
220
0.0
230
1.0
 40
0.0087268678
 41
-0.3554212016902278
 42
-0.2832302852945645
  0
ELLIPSE
  5
9D
330
97
100
AcDbEntity
  8
$DDT_AUDIT_GENERATED_(99)
  6
Continuous
 62
     7
100
AcDbEllipse
 10
92.6822500161
 20
267.7973535671
 30
0.0
 11
-6.938893903907228E-15
 21
-15.99999999999999
 31
0.0
210
0.0
220
0.0
230
1.0
 40
0.0087268678
 41
3.424822938884434
 42
3.497013855280005
  0
CIRCLE
  5
9E
330
97
100
AcDbEntity
  8
$DDT_AUDIT_GENERATED_(99)
  6
Continuous
 62
     7
100
AcDbCircle
 10
167.437897718
 20
239.7973535671
 30
0.0
 40
2.65
  0
CIRCLE
  5
9F
330
97
100
AcDbEntity
  8
$DDT_AUDIT_GENERATED_(99)
  6
Continuous
 62
     7
100
AcDbCircle
 10
167.437897718
 20
295.7973535671
 30
0.0
 40
2.65
  0
CIRCLE
  5
A0
330
97
100
AcDbEntity
  8
$DDT_AUDIT_GENERATED_(99)
  6
Continuous
 62
     7
100
AcDbCircle
 10
86.437897718
 20
239.7973535671
 30
0.0
 40
2.65
  0
CIRCLE
  5
A1
330
97
100
AcDbEntity
  8
$DDT_AUDIT_GENERATED_(99)
  6
Continuous
 62
     7
100
AcDbCircle
 10
86.437897718
 20
295.7973535671
 30
0.0
 40
2.65
  0
LINE
  5
A2
330
97
100
AcDbEntity
  8
$DDT_AUDIT_GENERATED_(99)
  6
Continuous
 62
     7
100
AcDbLine
 10
127.3768096434
 20
233.3628050755
 30
0.0
 11
127.4202916717
 21
233.3193230472
 31
0.0
  0
LINE
  5
A3
330
97
100
AcDbEntity
  8
$DDT_AUDIT_GENERATED_(99)
  6
Continuous
 62
     7
100
AcDbLine
 10
126.4989857925
 20
302.2319020587
 30
0.0
 11
126.4555037642
 21
302.275384087
 31
0.0
  0
LINE
  5
A4
330
97
100
AcDbEntity
  8
$DDT_AUDIT_GENERATED_(99)
  6
Continuous
 62
     7
100
AcDbLine
 10
127.3768096434
 20
233.3628050755
 30
0.0
 11
126.4989857925
 21
233.3628050755
 31
0.0
  0
LINE
  5
A5
330
97
100
AcDbEntity
  8
$DDT_AUDIT_GENERATED_(99)
  6
Continuous
 62
     7
100
AcDbLine
 10
126.4989857925
 20
302.2319020587
 30
0.0
 11
127.3768096434
 21
302.2319020587
 31
0.0
  0
LINE
  5
A6
330
97
100
AcDbEntity
  8
$DDT_AUDIT_GENERATED_(99)
  6
Continuous
 62
     7
100
AcDbLine
 10
127.4202916717
 20
302.275384087
 30
0.0
 11
127.3768096434
 21
302.2319020587
 31
0.0
  0
ELLIPSE
  5
A7
330
97
100
AcDbEntity
  8
$DDT_AUDIT_GENERATED_(99)
  6
Continuous
 62
     7
100
AcDbEllipse
 10
168.4163470972
 20
253.7846933541
 30
0.0
 11
5.734575667671375
 21
4.015393044277507
 31
0.0
210
0.0
220
0.0
230
1.0
 40
0.9999108345
 41
2.672201811320355
 42
3.274118321313801
  0
ELLIPSE
  5
A8
330
97
100
AcDbEntity
  8
$DDT_AUDIT_GENERATED_(99)
  6
Continuous
 62
     7
100
AcDbEllipse
 10
168.4163470972
 20
281.8100137801
 30
0.0
 11
5.734575667686051
 21
-4.015393044256535
 31
0.0
210
0.0
220
0.0
230
1.0
 40
0.9999108345
 41
3.00906698586003
 42
3.610983495855557
  0
ELLIPSE
  5
A9
330
97
100
AcDbEntity
  8
$DDT_AUDIT_GENERATED_(99)
  6
Continuous
 62
     7
100
AcDbEllipse
 10
85.4594483387
 20
253.7846933541
 30
0.0
 11
-5.734575623351127
 21
4.015393107580433
 31
0.0
210
0.0
220
0.0
230
1.0
 40
0.9999108345
 41
3.009066996896679
 42
3.610983506897794
  0
ELLIPSE
  5
AA
330
97
100
AcDbEntity
  8
$DDT_AUDIT_GENERATED_(99)
  6
Continuous
 62
     7
100
AcDbEllipse
 10
85.4594483387
 20
281.8100137801
 30
0.0
 11
-5.734575649395895
 21
-4.015393070384651
 31
0.0
210
0.0
220
0.0
230
0.9999999999999998
 40
0.9999108345
 41
2.672201806767458
 42
3.274118316768578
  0
LINE
  5
AB
330
97
100
AcDbEntity
  8
$DDT_AUDIT_GENERATED_(99)
  6
Continuous
 62
     7
100
AcDbLine
 10
127.4202916717
 20
233.3193230472
 30
0.0
 11
132.404686989
 21
233.3193230472
 31
0.0
  0
LINE
  5
AC
330
97
100
AcDbEntity
  8
$DDT_AUDIT_GENERATED_(99)
  6
Continuous
 62
     7
100
AcDbLine
 10
126.4555037642
 20
233.3193230472
 30
0.0
 11
126.4989857925
 21
233.3628050755
 31
0.0
  0
LINE
  5
AD
330
97
100
AcDbEntity
  8
$DDT_AUDIT_GENERATED_(99)
  6
Continuous
 62
     7
100
AcDbLine
 10
126.4555037642
 20
302.275384087
 30
0.0
 11
121.8669352938
 21
302.275384087
 31
0.0
  0
LINE
  5
AE
330
97
100
AcDbEntity
  8
$DDT_AUDIT_GENERATED_(99)
  6
Continuous
 62
     7
100
AcDbLine
 10
132.9033156179
 20
232.7994897735
 30
0.0
 11
131.8679637689
 21
228.9355040691
 31
0.0
  0
LINE
  5
AF
330
97
100
AcDbEntity
  8
$DDT_AUDIT_GENERATED_(99)
  6
Continuous
 62
     7
100
AcDbLine
 10
132.3509082923
 20
228.3061185125
 30
0.0
 11
137.5248871437
 21
228.3061185125
 31
0.0
  0
LINE
  5
B0
330
97
100
AcDbEntity
  8
$DDT_AUDIT_GENERATED_(99)
  6
Continuous
 62
     7
100
AcDbLine
 10
138.0078316671
 20
228.9355040691
 30
0.0
 11
136.9722680018
 21
232.8002802824
 31
0.0
  0
LINE
  5
B1
330
97
100
AcDbEntity
  8
$DDT_AUDIT_GENERATED_(99)
  6
Continuous
 62
     7
100
AcDbLine
 10
137.4711084469
 20
233.3193230472
 30
0.0
 11
166.489607448
 21
233.3193230472
 31
0.0
  0
ARC
  5
B2
330
97
100
AcDbEntity
  8
$DDT_AUDIT_GENERATED_(99)
  6
Continuous
 62
     7
100
AcDbCircle
 10
132.350957916
 20
228.8061375517
 30
0.0
 40
0.5000190416552937
100
AcDbArc
 50
165.005686249
 51
269.9943137509
  0
LINE
  5
B3
330
97
100
AcDbEntity
  8
$DDT_AUDIT_GENERATED_(99)
  6
Continuous
 62
     7
100
AcDbLine
 10
116.9033156179
 20
232.7994897735
 30
0.0
 11
115.8679637689
 21
228.9355040691
 31
0.0
  0
LINE
  5
B4
330
97
100
AcDbEntity
  8
$DDT_AUDIT_GENERATED_(99)
  6
Continuous
 62
     7
100
AcDbLine
 10
121.4711084469
 20
233.3193230472
 30
0.0
 11
126.4555037642
 21
233.3193230472
 31
0.0
  0
LINE
  5
B5
330
97
100
AcDbEntity
  8
$DDT_AUDIT_GENERATED_(99)
  6
Continuous
 62
     7
100
AcDbLine
 10
122.0078316671
 20
228.9355040691
 30
0.0
 11
120.9722680018
 21
232.8002802824
 31
0.0
  0
LINE
  5
B6
330
97
100
AcDbEntity
  8
$DDT_AUDIT_GENERATED_(99)
  6
Continuous
 62
     7
100
AcDbLine
 10
116.3509082923
 20
228.3061185125
 30
0.0
 11
121.5248871437
 21
228.3061185125
 31
0.0
  0
ARC
  5
B7
330
97
100
AcDbEntity
  8
$DDT_AUDIT_GENERATED_(99)
  6
Continuous
 62
     7
100
AcDbCircle
 10
116.350957916
 20
228.8061375517
 30
0.0
 40
0.5000190416553006
100
AcDbArc
 50
165.005686249
 51
269.994313751
  0
LINE
  5
B8
330
97
100
AcDbEntity
  8
$DDT_AUDIT_GENERATED_(99)
  6
Continuous
 62
     7
100
AcDbLine
 10
132.0088601421
 20
302.275384087
 30
0.0
 11
127.4202916717
 21
302.275384087
 31
0.0
  0
ELLIPSE
  5
B9
330
97
100
AcDbEntity
  8
$DDT_AUDIT_GENERATED_(99)
  6
Continuous
 62
     7
100
AcDbEllipse
 10
133.1257836965
 20
302.1690305329
 30
0.0
 11
-1.035278821206514
 21
-1.971254855875904E-5
 31
0.0
210
0.0
220
0.0
230
1.0
 40
0.008429464
 41
0.526057097132874
 42
1.568537490543717
  0
LINE
  5
BA
330
97
100
AcDbEntity
  8
$DDT_AUDIT_GENERATED_(99)
  6
Continuous
 62
     7
100
AcDbLine
 10
136.7523500966
 20
302.1603036651
 30
0.0
 11
133.1234453393
 21
302.1603036651
 31
0.0
  0
ELLIPSE
  5
BB
330
97
100
AcDbEntity
  8
$DDT_AUDIT_GENERATED_(99)
  6
Continuous
 62
     7
100
AcDbEllipse
 10
136.7500117395
 20
302.1690305329
 30
0.0
 11
1.035278821206513
 21
-1.971254855875904E-5
 31
0.0
210
0.0
220
0.0
230
1.0
 40
0.008429464
 41
4.714647816635896
 42
5.74191027242126
  0
ARC
  5
BC
330
97
100
AcDbEntity
  8
$DDT_AUDIT_GENERATED_(99)
  6
Continuous
 62
     7
100
AcDbCircle
 10
132.0088893566
 20
301.7754255425
 30
0.0
 40
0.4999585453253023
100
AcDbArc
 50
50.9133818063
 51
90.0033480106
  0
ARC
  5
BD
330
97
100
AcDbEntity
  8
$DDT_AUDIT_GENERATED_(99)
  6
Continuous
 62
     7
100
AcDbCircle
 10
137.8669060793
 20
301.7754255425
 30
0.0
 40
0.4999585453253039
100
AcDbArc
 50
89.9966519894
 51
129.0866181859
  0
LINE
  5
BE
330
97
100
AcDbEntity
  8
$DDT_AUDIT_GENERATED_(99)
  6
Continuous
 62
     7
100
AcDbLine
 10
116.0088601421
 20
302.275384087
 30
0.0
 11
87.3861879879
 21
302.275384087
 31
0.0
  0
ELLIPSE
  5
BF
330
97
100
AcDbEntity
  8
$DDT_AUDIT_GENERATED_(99)
  6
Continuous
 62
     7
100
AcDbEllipse
 10
117.1257836965
 20
302.1690305329
 30
0.0
 11
-1.035278821206513
 21
-1.971254855875904E-5
 31
0.0
210
0.0
220
0.0
230
1.0
 40
0.008429464
 41
0.5260570971328452
 42
1.56853749054369
  0
LINE
  5
C0
330
97
100
AcDbEntity
  8
$DDT_AUDIT_GENERATED_(99)
  6
Continuous
 62
     7
100
AcDbLine
 10
120.7523500966
 20
302.1603036651
 30
0.0
 11
117.1234453393
 21
302.1603036651
 31
0.0
  0
ELLIPSE
  5
C1
330
97
100
AcDbEntity
  8
$DDT_AUDIT_GENERATED_(99)
  6
Continuous
 62
     7
100
AcDbEllipse
 10
120.7500117395
 20
302.1690305329
 30
0.0
 11
1.035278821206513
 21
-1.971254855875904E-5
 31
0.0
210
0.0
220
0.0
230
1.0
 40
0.008429464
 41
4.714647816635883
 42
5.74191027242126
  0
ARC
  5
C2
330
97
100
AcDbEntity
  8
$DDT_AUDIT_GENERATED_(99)
  6
Continuous
 62
     7
100
AcDbCircle
 10
116.0088893566
 20
301.7754255425
 30
0.0
 40
0.4999585453253039
100
AcDbArc
 50
50.9133818153
 51
90.0033480106
  0
ARC
  5
C3
330
97
100
AcDbEntity
  8
$DDT_AUDIT_GENERATED_(99)
  6
Continuous
 62
     7
100
AcDbCircle
 10
121.8669060793
 20
301.7754255425
 30
0.0
 40
0.4999585453253039
100
AcDbArc
 50
89.9966519894
 51
129.0866181879
  0
ARC
  5
C4
330
97
100
AcDbEntity
  8
$DDT_AUDIT_GENERATED_(99)
  6
Continuous
 62
     7
100
AcDbCircle
 10
86.4356285507
 20
282.6767869799
 30
0.0
 40
19.62058845546699
100
AcDbArc
 50
87.346604874
 51
89.0560395825
  0
ARC
  5
C5
330
97
100
AcDbEntity
  8
$DDT_AUDIT_GENERATED_(99)
  6
Continuous
 62
     7
100
AcDbCircle
 10
87.4033374563
 20
303.9682325026
 30
0.0
 40
1.692935280069267
100
AcDbArc
 50
267.9894283061
 51
269.4195826754
  0
LINE
  5
C6
330
97
100
AcDbEntity
  8
$DDT_AUDIT_GENERATED_(99)
  6
Continuous
 62
     7
100
AcDbLine
 10
166.489607448
 20
302.275384087
 30
0.0
 11
137.8669352938
 21
302.275384087
 31
0.0
  0
ARC
  5
C7
330
97
100
AcDbEntity
  8
$DDT_AUDIT_GENERATED_(99)
  6
Continuous
 62
     7
100
AcDbCircle
 10
166.4723710767
 20
303.9720752977
 30
0.0
 40
1.696778759005708
100
AcDbArc
 50
270.5820371741
 51
272.0089518441
  0
ARC
  5
C8
330
97
100
AcDbEntity
  8
$DDT_AUDIT_GENERATED_(99)
  6
Continuous
 62
     7
100
AcDbCircle
 10
167.4401658209
 20
282.6768208716
 30
0.0
 40
19.62055455082655
100
AcDbArc
 50
90.9439589404
 51
92.6533966031
  0
LINE
  5
C9
330
97
100
AcDbEntity
  8
$DDT_AUDIT_GENERATED_(99)
  6
Continuous
 62
     7
100
AcDbLine
 10
167.1169280504
 20
302.2947126602
 30
0.0
 11
167.118057873
 21
302.2946941486
 31
0.0
  0
ARC
  5
CA
330
97
100
AcDbEntity
  8
$DDT_AUDIT_GENERATED_(99)
  6
Continuous
 62
     7
100
AcDbCircle
 10
167.4401668852
 20
252.9179201542
 30
0.0
 40
19.62058845543498
100
AcDbArc
 50
267.346604874
 51
269.0560395825
  0
ARC
  5
CB
330
97
100
AcDbEntity
  8
$DDT_AUDIT_GENERATED_(99)
  6
Continuous
 62
     7
100
AcDbCircle
 10
166.4724579796
 20
231.6264746324
 30
0.0
 40
1.692935279245123
100
AcDbArc
 50
87.9894283057
 51
89.4195826757
  0
LINE
  5
CC
330
97
100
AcDbEntity
  8
$DDT_AUDIT_GENERATED_(99)
  6
Continuous
 62
     7
100
AcDbLine
 10
167.1180807411
 20
233.3000133603
 30
0.0
 11
167.1169280504
 21
233.299994474
 31
0.0
  0
ARC
  5
CD
330
97
100
AcDbEntity
  8
$DDT_AUDIT_GENERATED_(99)
  6
Continuous
 62
     7
100
AcDbCircle
 10
86.4356296151
 20
252.9178862625
 30
0.0
 40
19.62055455080931
100
AcDbArc
 50
270.9439589404
 51
272.6533966031
  0
LINE
  5
CE
330
97
100
AcDbEntity
  8
$DDT_AUDIT_GENERATED_(99)
  6
Continuous
 62
     7
100
AcDbLine
 10
86.7588673856
 20
233.299994474
 30
0.0
 11
86.757737563
 21
233.3000129856
 31
0.0
  0
ARC
  5
CF
330
97
100
AcDbEntity
  8
$DDT_AUDIT_GENERATED_(99)
  6
Continuous
 62
     7
100
AcDbCircle
 10
86.437897718
 20
239.7973535671
 30
0.0
 40
6.497359093066301
100
AcDbArc
 50
254.1393610418
 51
270.0
  0
LINE
  5
D0
330
97
100
AcDbEntity
  8
$DDT_AUDIT_GENERATED_(99)
  6
Continuous
 62
     7
100
AcDbLine
 10
87.3861879879
 20
233.3193230472
 30
0.0
 11
116.404686989
 21
233.3193230472
 31
0.0
  0
ARC
  5
D1
330
97
100
AcDbEntity
  8
$DDT_AUDIT_GENERATED_(99)
  6
Continuous
 62
     7
100
AcDbCircle
 10
87.4034243592
 20
231.6226318365
 30
0.0
 40
1.696778758987453
100
AcDbArc
 50
90.5820371741
 51
92.0089518441
  0
LINE
  5
D2
330
97
100
AcDbEntity
  8
$DDT_AUDIT_GENERATED_(99)
  6
Continuous
 62
     7
100
AcDbLine
 10
86.7577146948
 20
302.2946937739
 30
0.0
 11
86.7588673856
 21
302.2947126602
 31
0.0
  0
ARC
  5
D3
330
97
100
AcDbEntity
  8
$DDT_AUDIT_GENERATED_(99)
  6
Continuous
 62
     7
100
AcDbCircle
 10
86.437897718
 20
295.7973535671
 30
0.0
 40
6.497359093066303
100
AcDbArc
 50
90.0
 51
105.8606389582
  0
ARC
  5
D4
330
97
100
AcDbEntity
  8
$DDT_AUDIT_GENERATED_(99)
  6
Continuous
 62
     7
100
AcDbCircle
 10
137.4537204844
 20
232.8528843013
 30
0.0
 40
0.4627591215397062
100
AcDbArc
 50
87.98770105
 51
130.710340667
  0
SPLINE
  5
D5
330
97
100
AcDbEntity
  8
$DDT_AUDIT_GENERATED_(99)
  6
Continuous
 62
     7
100
AcDbSpline
210
0.0
220
0.0
230
1.0
 70
     8
 71
     3
 72
    14
 73
    10
 74
     0
 42
0.0000000126747533
 43
0.0000000001
 40
0.3418343377401601
 40
0.3418343377401601
 40
0.3418343377401601
 40
0.3418343377401601
 40
0.4247832994486565
 40
0.4995669249153337
 40
0.5521797105548663
 40
0.616675818613439
 40
0.7247526273228329
 40
0.8698899264169343
 40
1.0
 40
1.0
 40
1.0
 40
1.0
 10
136.9782745197948
 20
232.7424052314329
 30
0.0
 10
136.978285746233
 20
232.7423406907889
 30
0.0
 10
136.9777690002747
 20
232.7451963409151
 30
0.0
 10
136.9748569217711
 20
232.7628411877746
 30
0.0
 10
136.9711887532278
 20
232.8046196777568
 30
0.0
 10
136.9722810664288
 20
232.8763670502956
 30
0.0
 10
136.9930408372922
 20
232.9830948614951
 30
0.0
 10
137.0527371645891
 20
233.1069036874219
 30
0.0
 10
137.1160845797747
 20
233.1696100302351
 30
0.0
 10
137.1518926868391
 20
233.2036634129361
 30
0.0
  0
ARC
  5
D6
330
97
100
AcDbEntity
  8
$DDT_AUDIT_GENERATED_(99)
  6
Continuous
 62
     7
100
AcDbCircle
 10
137.5248871437
 20
228.8060994741
 30
0.0
 40
0.5000000000000004
100
AcDbArc
 50
270.0
 51
0.0
  0
ARC
  5
D7
330
97
100
AcDbEntity
  8
$DDT_AUDIT_GENERATED_(99)
  6
Continuous
 62
     7
100
AcDbCircle
 10
137.5248871437
 20
228.8060994741
 30
0.0
 40
0.5000000000000004
100
AcDbArc
 50
0.0
 51
15.0
  0
ARC
  5
D8
330
97
100
AcDbEntity
  8
$DDT_AUDIT_GENERATED_(99)
  6
Continuous
 62
     7
100
AcDbCircle
 10
132.4156846412
 20
232.8234388213
 30
0.0
 40
0.4885788273822453
100
AcDbArc
 50
350.4436308
 51
62.9716443458
  0
ARC
  5
D9
330
97
100
AcDbEntity
  8
$DDT_AUDIT_GENERATED_(99)
  6
Continuous
 62
     7
100
AcDbCircle
 10
132.4451946801
 20
232.9628756108
 30
0.0
 40
0.3529138934543223
100
AcDbArc
 50
56.9409689086
 51
96.508097577
  0
ARC
  5
DA
330
97
100
AcDbEntity
  8
$DDT_AUDIT_GENERATED_(99)
  6
Continuous
 62
     7
100
AcDbCircle
 10
121.5248871437
 20
228.8060994741
 30
0.0
 40
0.5000000000000004
100
AcDbArc
 50
270.0
 51
0.0
  0
ARC
  5
DB
330
97
100
AcDbEntity
  8
$DDT_AUDIT_GENERATED_(99)
  6
Continuous
 62
     7
100
AcDbCircle
 10
121.5248871437
 20
228.8060994741
 30
0.0
 40
0.4999999999999996
100
AcDbArc
 50
0.0
 51
15.0
  0
ARC
  5
DC
330
97
100
AcDbEntity
  8
$DDT_AUDIT_GENERATED_(99)
  6
Continuous
 62
     7
100
AcDbCircle
 10
121.4294275474
 20
233.0010462742
 30
0.0
 40
0.3169157065990144
100
AcDbArc
 50
82.6501464057
 51
118.2912293689
  0
SPLINE
  5
DD
330
97
100
AcDbEntity
  8
$DDT_AUDIT_GENERATED_(99)
  6
Continuous
 62
     7
100
AcDbSpline
210
0.0
220
0.0
230
1.0
 70
     8
 71
     3
 72
    15
 73
    11
 74
     0
 42
0.0000000104651055
 43
0.0000000001
 40
0.2989629688715961
 40
0.2989629688715961
 40
0.2989629688715961
 40
0.2989629688715961
 40
0.3715088122539914
 40
0.4369133983317305
 40
0.4829277155793518
 40
0.5393350002606091
 40
0.6338572822993448
 40
0.7607920880466311
 40
0.8754540989238708
 40
1.0
 40
1.0
 40
1.0
 40
1.0
 10
120.9782747245991
 20
232.7424060703442
 30
0.0
 10
120.9782860612447
 20
232.7423419825299
 30
0.0
 10
120.9777693749245
 20
232.7451978785384
 30
0.0
 10
120.9748555535687
 20
232.7628355828568
 30
0.0
 10
120.9711925786414
 20
232.8046353487782
 30
0.0
 10
120.9722576065715
 20
232.8762709456736
 30
0.0
 10
120.9932184958368
 20
232.9838226496948
 30
0.0
 10
121.0520283069068
 20
233.1036865592818
 30
0.0
 10
121.1523078068286
 20
233.2145519814596
 30
0.0
 10
121.2308283870154
 20
233.2559178126386
 30
0.0
 10
121.2792242633824
 20
233.280106372641
 30
0.0
  0
ARC
  5
DE
330
97
100
AcDbEntity
  8
$DDT_AUDIT_GENERATED_(99)
  6
Continuous
 62
     7
100
AcDbCircle
 10
116.4143175019
 20
232.8227835713
 30
0.0
 40
0.4898190004717345
100
AcDbArc
 50
350.5457593227
 51
67.8446821073
  0
ARC
  5
DF
330
97
100
AcDbEntity
  8
$DDT_AUDIT_GENERATED_(99)
  6
Continuous
 62
     7
100
AcDbCircle
 10
116.4399001328
 20
232.9697181007
 30
0.0
 40
0.3455445005060117
100
AcDbArc
 50
62.5780088713
 51
95.7644258684
  0
SPLINE
  5
E0
330
97
100
AcDbEntity
  8
$DDT_AUDIT_GENERATED_(99)
  6
Continuous
 62
     7
100
AcDbSpline
210
0.0
220
0.0
230
1.0
 70
     8
 71
     3
 72
    10
 73
     6
 74
     0
 42
0.0000000300593339
 43
0.0000000001
 40
0.2910538143588781
 40
0.2910538143588781
 40
0.2910538143588781
 40
0.2910538143588781
 40
0.5119803268242109
 40
0.9816500719331658
 40
1.0
 40
1.0
 40
1.0
 40
1.0
 10
132.3370510647639
 20
302.149472986178
 30
0.0
 10
132.31965275749
 20
302.1653406186148
 30
0.0
 10
132.2634283855068
 20
302.2114896291517
 30
0.0
 10
132.187587731771
 20
302.2531682725182
 30
0.0
 10
132.1370199547986
 20
302.2581126763359
 30
0.0
 10
132.1348149405754
 20
302.2583267739143
 30
0.0
  0
SPLINE
  5
E1
330
97
100
AcDbEntity
  8
$DDT_AUDIT_GENERATED_(99)
  6
Continuous
 62
     7
100
AcDbSpline
210
0.0
220
0.0
230
1.0
 70
     8
 71
     3
 72
    11
 73
     7
 74
     0
 42
0.0000000458875806
 43
0.0000000001
 40
0.0
 40
0.0
 40
0.0
 40
0.0
 40
0.0018704354415121
 40
0.2755979754299798
 40
0.4456675804954793
 40
0.4959911053051159
 40
0.4959911053051159
 40
0.4959911053051159
 40
0.4959911053051159
 10
132.2374189469658
 20
302.1646051348178
 30
0.0
 10
132.2371181394185
 20
302.1646085390317
 30
0.0
 10
132.1988540094669
 20
302.1650414720912
 30
0.0
 10
132.1601259734531
 20
302.1659994527715
 30
0.0
 10
132.1334126719302
 20
302.166708337694
 30
0.0
 10
132.1294423011016
 20
302.1670159611362
 30
0.0
 10
132.1293675780914
 20
302.167030084496
 30
0.0
  0
SPLINE
  5
E2
330
97
100
AcDbEntity
  8
$DDT_AUDIT_GENERATED_(99)
  6
Continuous
 62
     7
100
AcDbSpline
210
0.0
220
0.0
230
1.0
 70
     8
 71
     3
 72
    11
 73
     7
 74
     0
 42
0.00000004286249
 43
0.0000000001
 40
0.4792787754452095
 40
0.4792787754452095
 40
0.4792787754452095
 40
0.4792787754452095
 40
0.5107483923008188
 40
0.6584097262373779
 40
0.8889027186007066
 40
1.0
 40
1.0
 40
1.0
 40
1.0
 10
137.7460289614023
 20
302.1669636508791
 30
0.0
 10
137.746025260145
 20
302.1669630086004
 30
0.0
 10
137.7443632050847
 20
302.1668682033112
 30
0.0
 10
137.7256552913099
 20
302.1662016698721
 30
0.0
 10
137.6852151233788
 20
302.1652485967997
 30
0.0
 10
137.64144228629
 20
302.1647018798026
 30
0.0
 10
137.6245730708395
 20
302.1644923869893
 30
0.0
  0
ARC
  5
E3
330
97
100
AcDbEntity
  8
$DDT_AUDIT_GENERATED_(99)
  6
Continuous
 62
     7
100
AcDbCircle
 10
137.8547621528
 20
301.7864758059
 30
0.0
 40
0.4836037290574223
100
AcDbArc
 50
111.9501510775
 51
128.7518112139
  0
SPLINE
  5
E4
330
97
100
AcDbEntity
  8
$DDT_AUDIT_GENERATED_(99)
  6
Continuous
 62
     7
100
AcDbSpline
210
0.0
220
0.0
230
1.0
 70
     8
 71
     3
 72
    10
 73
     6
 74
     0
 42
0.0000000300593339
 43
0.0000000001
 40
0.2910538143586263
 40
0.2910538143586263
 40
0.2910538143586263
 40
0.2910538143586263
 40
0.5119803268242453
 40
0.9816500719332296
 40
1.0
 40
1.0
 40
1.0
 40
1.0
 10
116.337051064764
 20
302.149472986178
 30
0.0
 10
116.31965275749
 20
302.1653406186148
 30
0.0
 10
116.2634283855068
 20
302.2114896291517
 30
0.0
 10
116.187587731771
 20
302.2531682725182
 30
0.0
 10
116.1370199547986
 20
302.2581126763359
 30
0.0
 10
116.1348149405755
 20
302.2583267739143
 30
0.0
  0
SPLINE
  5
E5
330
97
100
AcDbEntity
  8
$DDT_AUDIT_GENERATED_(99)
  6
Continuous
 62
     7
100
AcDbSpline
210
0.0
220
0.0
230
1.0
 70
     8
 71
     3
 72
    11
 73
     7
 74
     0
 42
0.0000000458875806
 43
0.0000000001
 40
0.0
 40
0.0
 40
0.0
 40
0.0
 40
0.0018704354415266
 40
0.2755979754299898
 40
0.4456675804954964
 40
0.4959911053051465
 40
0.4959911053051465
 40
0.4959911053051465
 40
0.4959911053051465
 10
116.2374189469658
 20
302.1646051348178
 30
0.0
 10
116.2371181394185
 20
302.1646085390317
 30
0.0
 10
116.1988540094667
 20
302.1650414720936
 30
0.0
 10
116.1601259734532
 20
302.1659994527708
 30
0.0
 10
116.1334126719301
 20
302.166708337694
 30
0.0
 10
116.1294423011016
 20
302.1670159611362
 30
0.0
 10
116.1293675780914
 20
302.167030084496
 30
0.0
  0
SPLINE
  5
E6
330
97
100
AcDbEntity
  8
$DDT_AUDIT_GENERATED_(99)
  6
Continuous
 62
     7
100
AcDbSpline
210
0.0
220
0.0
230
1.0
 70
     8
 71
     3
 72
    11
 73
     7
 74
     0
 42
0.00000004286249
 43
0.0000000001
 40
0.4792787754452368
 40
0.4792787754452368
 40
0.4792787754452368
 40
0.4792787754452368
 40
0.510748392300837
 40
0.658409726237391
 40
0.8889027186006915
 40
1.0
 40
1.0
 40
1.0
 40
1.0
 10
121.7460289614023
 20
302.1669636508791
 30
0.0
 10
121.746025260145
 20
302.1669630086004
 30
0.0
 10
121.7443632050847
 20
302.1668682033113
 30
0.0
 10
121.7256552913099
 20
302.1662016698721
 30
0.0
 10
121.6852151233788
 20
302.1652485967997
 30
0.0
 10
121.64144228629
 20
302.1647018798026
 30
0.0
 10
121.6245730708395
 20
302.1644923869893
 30
0.0
  0
ARC
  5
E7
330
97
100
AcDbEntity
  8
$DDT_AUDIT_GENERATED_(99)
  6
Continuous
 62
     7
100
AcDbCircle
 10
121.8547621528
 20
301.7864758059
 30
0.0
 40
0.4836037290570616
100
AcDbArc
 50
111.9501510775
 51
128.7518112139
  0
ARC
  5
E8
330
97
100
AcDbEntity
  8
$DDT_AUDIT_GENERATED_(99)
  6
Continuous
 62
     7
100
AcDbCircle
 10
167.437897718
 20
295.7973535671
 30
0.0
 40
6.497370516147051
100
AcDbArc
 50
74.1390064983
 51
90.0
  0
LINE
  5
E9
330
97
100
AcDbEntity
  8
$DDT_AUDIT_GENERATED_(99)
  6
Continuous
 62
     7
100
AcDbLine
 10
167.437897718
 20
302.2947240832
 30
0.0
 11
167.1178482032
 21
302.2947240832
 31
0.0
  0
LINE
  5
EA
330
97
100
AcDbEntity
  8
$DDT_AUDIT_GENERATED_(99)
  6
Continuous
 62
     7
100
AcDbLine
 10
167.1180327183
 20
233.2999830509
 30
0.0
 11
167.437897718
 21
233.2999830509
 31
0.0
  0
ARC
  5
EB
330
97
100
AcDbEntity
  8
$DDT_AUDIT_GENERATED_(99)
  6
Continuous
 62
     7
100
AcDbCircle
 10
167.437897718
 20
239.7973535671
 30
0.0
 40
6.497370516147051
100
AcDbArc
 50
270.0
 51
285.8609935017
  0
LINE
  5
EC
330
97
100
AcDbEntity
  8
$DDT_AUDIT_GENERATED_(99)
  6
Continuous
 62
     7
100
AcDbLine
 10
86.437897718
 20
233.2999830509
 30
0.0
 11
86.7579472327
 21
233.2999830509
 31
0.0
  0
LINE
  5
ED
330
97
100
AcDbEntity
  8
$DDT_AUDIT_GENERATED_(99)
  6
Continuous
 62
     7
100
AcDbLine
 10
86.7577627176
 20
302.2947240832
 30
0.0
 11
86.437897718
 21
302.2947240832
 31
0.0
  0
LINE
  5
EF
330
97
100
AcDbEntity
  8
$DDT_AUDIT_GENERATED_(EE)
  6
Continuous
 62
     7
100
AcDbLine
 10
182.437897718
 20
257.2973535671
 30
0.0
 11
182.437897718
 21
278.2973535671
 31
0.0
  0
LINE
  5
F0
330
97
100
AcDbEntity
  8
$DDT_AUDIT_GENERATED_(EE)
  6
Continuous
 62
     7
100
AcDbLine
 10
190.437897718
 20
261.7973535671
 30
0.0
 11
182.437897718
 21
261.7973535671
 31
0.0
  0
LINE
  5
F1
330
97
100
AcDbEntity
  8
$DDT_AUDIT_GENERATED_(EE)
  6
Continuous
 62
     7
100
AcDbLine
 10
190.437897718
 20
261.7973535671
 30
0.0
 11
190.437897718
 21
273.7973535671
 31
0.0
  0
LINE
  5
F2
330
97
100
AcDbEntity
  8
$DDT_AUDIT_GENERATED_(EE)
  6
Continuous
 62
     7
100
AcDbLine
 10
190.437897718
 20
273.7973535671
 30
0.0
 11
182.437897718
 21
273.7973535671
 31
0.0
  0
LINE
  5
F3
330
97
100
AcDbEntity
  8
$DDT_AUDIT_GENERATED_(EE)
  6
Continuous
 62
     7
100
AcDbLine
 10
182.437897718
 20
278.2973535671
 30
0.0
 11
174.437897718
 21
277.9544964242
 31
0.0
  0
LINE
  5
F4
330
97
100
AcDbEntity
  8
$DDT_AUDIT_GENERATED_(EE)
  6
Continuous
 62
     7
100
AcDbLine
 10
174.437897718
 20
257.6402107099
 30
0.0
 11
182.437897718
 21
257.2973535671
 31
0.0
  0
CIRCLE
  5
F6
330
97
100
AcDbEntity
  8
$DDT_AUDIT_GENERATED_(F5)
  6
Continuous
 62
     7
100
AcDbCircle
 10
100.4213934235
 20
241.2808492726
 30
0.0
 40
3.5
  0
CIRCLE
  5
F7
330
97
100
AcDbEntity
  8
$DDT_AUDIT_GENERATED_(F5)
  6
Continuous
 62
     7
100
AcDbCircle
 10
100.4213934235
 20
241.2808492726
 30
0.0
 40
4.500000000000001
  0
LINE
  5
F8
330
97
100
AcDbEntity
  8
$DDT_AUDIT_GENERATED_(F5)
  6
Continuous
 62
     7
100
AcDbLine
 10
100.2217036403
 20
241.4805390558
 30
0.0
 11
98.6241853749
 21
241.4805390558
 31
0.0
  0
LINE
  5
F9
330
97
100
AcDbEntity
  8
$DDT_AUDIT_GENERATED_(F5)
  6
Continuous
 62
     7
100
AcDbLine
 10
98.6241853749
 20
241.4805390558
 30
0.0
 11
98.6241853749
 21
241.0811594894
 31
0.0
  0
LINE
  5
FA
330
97
100
AcDbEntity
  8
$DDT_AUDIT_GENERATED_(F5)
  6
Continuous
 62
     7
100
AcDbLine
 10
98.6241853749
 20
241.0811594894
 30
0.0
 11
100.2217036403
 21
241.0811594894
 31
0.0
  0
LINE
  5
FB
330
97
100
AcDbEntity
  8
$DDT_AUDIT_GENERATED_(F5)
  6
Continuous
 62
     7
100
AcDbLine
 10
100.2217036403
 20
241.0811594894
 30
0.0
 11
100.2217036403
 21
239.4836412241
 31
0.0
  0
LINE
  5
FC
330
97
100
AcDbEntity
  8
$DDT_AUDIT_GENERATED_(F5)
  6
Continuous
 62
     7
100
AcDbLine
 10
100.2217036403
 20
239.4836412241
 30
0.0
 11
100.6210832066
 21
239.4836412241
 31
0.0
  0
LINE
  5
FD
330
97
100
AcDbEntity
  8
$DDT_AUDIT_GENERATED_(F5)
  6
Continuous
 62
     7
100
AcDbLine
 10
100.6210832066
 20
239.4836412241
 30
0.0
 11
100.6210832066
 21
241.0811594894
 31
0.0
  0
LINE
  5
FE
330
97
100
AcDbEntity
  8
$DDT_AUDIT_GENERATED_(F5)
  6
Continuous
 62
     7
100
AcDbLine
 10
100.6210832066
 20
241.0811594894
 30
0.0
 11
102.218601472
 21
241.0811594894
 31
0.0
  0
LINE
  5
FF
330
97
100
AcDbEntity
  8
$DDT_AUDIT_GENERATED_(F5)
  6
Continuous
 62
     7
100
AcDbLine
 10
102.218601472
 20
241.0811594894
 30
0.0
 11
102.218601472
 21
241.4805390558
 31
0.0
  0
LINE
  5
100
330
97
100
AcDbEntity
  8
$DDT_AUDIT_GENERATED_(F5)
  6
Continuous
 62
     7
100
AcDbLine
 10
102.218601472
 20
241.4805390558
 30
0.0
 11
100.6210832066
 21
241.4805390558
 31
0.0
  0
LINE
  5
101
330
97
100
AcDbEntity
  8
$DDT_AUDIT_GENERATED_(F5)
  6
Continuous
 62
     7
100
AcDbLine
 10
100.6210832066
 20
241.4805390558
 30
0.0
 11
100.6210832066
 21
243.0780573211
 31
0.0
  0
LINE
  5
102
330
97
100
AcDbEntity
  8
$DDT_AUDIT_GENERATED_(F5)
  6
Continuous
 62
     7
100
AcDbLine
 10
100.6210832066
 20
243.0780573211
 30
0.0
 11
100.2217036403
 21
243.0780573211
 31
0.0
  0
LINE
  5
103
330
97
100
AcDbEntity
  8
$DDT_AUDIT_GENERATED_(F5)
  6
Continuous
 62
     7
100
AcDbLine
 10
100.2217036403
 20
243.0780573211
 30
0.0
 11
100.2217036403
 21
241.4805390558
 31
0.0
  0
LINE
  5
105
330
97
100
AcDbEntity
  8
$DDT_AUDIT_GENERATED_(104)
  6
Continuous
 62
     7
100
AcDbLine
 10
154.1881642565
 20
302.0473535671
 30
0.0
 11
176.937897718
 21
302.0473535671
 31
0.0
  0
ARC
  5
106
330
97
100
AcDbEntity
  8
$DDT_AUDIT_GENERATED_(104)
  6
Continuous
 62
     7
100
AcDbCircle
 10
176.937897718
 20
297.0473535671
 30
0.0
 40
5.000000000000001
100
AcDbArc
 50
290.0
 51
90.0
  0
LINE
  5
107
330
97
100
AcDbEntity
  8
$DDT_AUDIT_GENERATED_(104)
  6
Continuous
 62
     7
100
AcDbLine
 10
178.6479984346
 20
292.3488904632
 30
0.0
 11
164.4776717321
 21
287.1913133336
 31
0.0
  0
ARC
  5
108
330
97
100
AcDbEntity
  8
$DDT_AUDIT_GENERATED_(104)
  6
Continuous
 62
     7
100
AcDbCircle
 10
176.937897718
 20
297.0473535671
 30
0.0
 40
4.856879368231557
100
AcDbArc
 50
290.0
 51
90.0
  0
LINE
  5
109
330
97
100
AcDbEntity
  8
$DDT_AUDIT_GENERATED_(104)
  6
Continuous
 62
     7
100
AcDbLine
 10
178.5990482956
 20
292.4833798647
 30
0.0
 11
173.2309677223
 21
290.5295583209
 31
0.0
  0
CIRCLE
  5
10A
330
97
100
AcDbEntity
  8
$DDT_AUDIT_GENERATED_(104)
  6
Continuous
 62
     7
100
AcDbCircle
 10
176.937897718
 20
296.7973535671
 30
0.0
 40
2.319814942326071
  0
CIRCLE
  5
10B
330
97
100
AcDbEntity
  8
$DDT_AUDIT_GENERATED_(104)
  6
Continuous
 62
     7
100
AcDbCircle
 10
176.937897718
 20
296.7973535671
 30
0.0
 40
2.25
  0
LINE
  5
10C
330
97
100
AcDbEntity
  8
$DDT_AUDIT_GENERATED_(104)
  6
Continuous
 62
     7
100
AcDbLine
 10
171.937897718
 20
292.6372508254
 30
0.0
 11
171.937897718
 21
297.5473535671
 31
0.0
  0
ARC
  5
10D
330
97
100
AcDbEntity
  8
$DDT_AUDIT_GENERATED_(104)
  6
Continuous
 62
     7
100
AcDbCircle
 10
169.937897718
 20
292.6372508254
 30
0.0
 40
1.999999999999999
100
AcDbArc
 50
290.0
 51
0.0
  0
ARC
  5
10E
330
97
100
AcDbEntity
  8
$DDT_AUDIT_GENERATED_(104)
  6
Continuous
 62
     7
100
AcDbCircle
 10
163.187897718
 20
297.5473535671
 30
0.0
 40
2.000000000000009
100
AcDbArc
 50
90.0
 51
180.0
  0
LINE
  5
10F
330
97
100
AcDbEntity
  8
$DDT_AUDIT_GENERATED_(104)
  6
Continuous
 62
     7
100
AcDbLine
 10
163.8719380046
 20
288.3010665025
 30
0.0
 11
170.6219380046
 21
290.7578655838
 31
0.0
  0
ARC
  5
110
330
97
100
AcDbEntity
  8
$DDT_AUDIT_GENERATED_(104)
  6
Continuous
 62
     7
100
AcDbCircle
 10
163.187897718
 20
290.1804517441
 30
0.0
 40
2.000000000000002
100
AcDbArc
 50
180.0
 51
290.0
  0
LINE
  5
111
330
97
100
AcDbEntity
  8
$DDT_AUDIT_GENERATED_(104)
  6
Continuous
 62
     7
100
AcDbLine
 10
169.937897718
 20
299.5473535671
 30
0.0
 11
163.187897718
 21
299.5473535671
 31
0.0
  0
ARC
  5
112
330
97
100
AcDbEntity
  8
$DDT_AUDIT_GENERATED_(104)
  6
Continuous
 62
     7
100
AcDbCircle
 10
169.937897718
 20
297.5473535671
 30
0.0
 40
2.000000000000002
100
AcDbArc
 50
0.0
 51
90.0
  0
LINE
  5
113
330
97
100
AcDbEntity
  8
$DDT_AUDIT_GENERATED_(104)
  6
Continuous
 62
     7
100
AcDbLine
 10
172.937897718
 20
301.9042329353
 30
0.0
 11
176.937897718
 21
301.9042329353
 31
0.0
  0
ARC
  5
114
330
97
100
AcDbEntity
  8
$DDT_AUDIT_GENERATED_(104)
  6
Continuous
 62
     7
100
AcDbCircle
 10
172.937897718
 20
301.0473535671
 30
0.0
 40
0.8568793682315543
100
AcDbArc
 50
90.0
 51
180.0
  0
LINE
  5
115
330
97
100
AcDbEntity
  8
$DDT_AUDIT_GENERATED_(104)
  6
Continuous
 62
     7
100
AcDbLine
 10
172.0810183497
 20
291.3347615401
 30
0.0
 11
172.0810183497
 21
301.0473535671
 31
0.0
  0
ARC
  5
116
330
97
100
AcDbEntity
  8
$DDT_AUDIT_GENERATED_(104)
  6
Continuous
 62
     7
100
AcDbCircle
 10
172.937897718
 20
291.3347615401
 30
0.0
 40
0.8568793682315543
100
AcDbArc
 50
180.0
 51
290.0
  0
ARC
  5
117
330
97
100
AcDbEntity
  8
$DDT_AUDIT_GENERATED_(104)
  6
Continuous
 62
     7
100
AcDbCircle
 10
176.937897718
 20
238.5473535671
 30
0.0
 40
5.000000000000002
100
AcDbArc
 50
270.0
 51
70.0
  0
LINE
  5
118
330
97
100
AcDbEntity
  8
$DDT_AUDIT_GENERATED_(104)
  6
Continuous
 62
     7
100
AcDbLine
 10
176.937897718
 20
233.5473535671
 30
0.0
 11
154.1881642565
 21
233.5473535671
 31
0.0
  0
ARC
  5
119
330
97
100
AcDbEntity
  8
$DDT_AUDIT_GENERATED_(104)
  6
Continuous
 62
     7
100
AcDbCircle
 10
176.937897718
 20
238.5473535671
 30
0.0
 40
4.856879368231561
100
AcDbArc
 50
270.0
 51
70.0
  0
LINE
  5
11A
330
97
100
AcDbEntity
  8
$DDT_AUDIT_GENERATED_(104)
  6
Continuous
 62
     7
100
AcDbLine
 10
176.937897718
 20
233.6904741989
 30
0.0
 11
172.937897718
 21
233.6904741989
 31
0.0
  0
CIRCLE
  5
11B
330
97
100
AcDbEntity
  8
$DDT_AUDIT_GENERATED_(104)
  6
Continuous
 62
     7
100
AcDbCircle
 10
176.937897718
 20
238.7973535671
 30
0.0
 40
2.319814942326071
  0
CIRCLE
  5
11C
330
97
100
AcDbEntity
  8
$DDT_AUDIT_GENERATED_(104)
  6
Continuous
 62
     7
100
AcDbCircle
 10
176.937897718
 20
238.7973535671
 30
0.0
 40
2.25
  0
LINE
  5
11D
330
97
100
AcDbEntity
  8
$DDT_AUDIT_GENERATED_(104)
  6
Continuous
 62
     7
100
AcDbLine
 10
170.6219380046
 20
244.8368415504
 30
0.0
 11
163.8719380046
 21
247.2936406317
 31
0.0
  0
ARC
  5
11E
330
97
100
AcDbEntity
  8
$DDT_AUDIT_GENERATED_(104)
  6
Continuous
 62
     7
100
AcDbCircle
 10
169.937897718
 20
242.9574563088
 30
0.0
 40
2.000000000000002
100
AcDbArc
 50
0.0
 51
70.0
  0
LINE
  5
11F
330
97
100
AcDbEntity
  8
$DDT_AUDIT_GENERATED_(104)
  6
Continuous
 62
     7
100
AcDbLine
 10
163.187897718
 20
236.0473535671
 30
0.0
 11
169.937897718
 21
236.0473535671
 31
0.0
  0
ARC
  5
120
330
97
100
AcDbEntity
  8
$DDT_AUDIT_GENERATED_(104)
  6
Continuous
 62
     7
100
AcDbCircle
 10
163.187897718
 20
238.0473535671
 30
0.0
 40
2.000000000000002
100
AcDbArc
 50
180.0
 51
270.0
  0
ARC
  5
121
330
97
100
AcDbEntity
  8
$DDT_AUDIT_GENERATED_(104)
  6
Continuous
 62
     7
100
AcDbCircle
 10
163.187897718
 20
245.4142553901
 30
0.0
 40
2.000000000000009
100
AcDbArc
 50
70.0
 51
180.0
  0
LINE
  5
122
330
97
100
AcDbEntity
  8
$DDT_AUDIT_GENERATED_(104)
  6
Continuous
 62
     7
100
AcDbLine
 10
171.937897718
 20
238.0473535671
 30
0.0
 11
171.937897718
 21
242.9574563088
 31
0.0
  0
ARC
  5
123
330
97
100
AcDbEntity
  8
$DDT_AUDIT_GENERATED_(104)
  6
Continuous
 62
     7
100
AcDbCircle
 10
169.937897718
 20
238.0473535671
 30
0.0
 40
1.999999999999998
100
AcDbArc
 50
270.0
 51
0.0
  0
LINE
  5
124
330
97
100
AcDbEntity
  8
$DDT_AUDIT_GENERATED_(104)
  6
Continuous
 62
     7
100
AcDbLine
 10
172.0112034074
 20
234.5473535671
 30
0.0
 11
172.0112034074
 21
236.5304601457
 31
0.0
  0
LINE
  5
125
330
97
100
AcDbEntity
  8
$DDT_AUDIT_GENERATED_(104)
  6
Continuous
 62
     7
100
AcDbLine
 10
172.0810183497
 20
234.5473535671
 30
0.0
 11
172.0810183497
 21
244.2599455941
 31
0.0
  0
ARC
  5
126
330
97
100
AcDbEntity
  8
$DDT_AUDIT_GENERATED_(104)
  6
Continuous
 62
     7
100
AcDbCircle
 10
172.937897718
 20
234.5473535671
 30
0.0
 40
0.8568793682315612
100
AcDbArc
 50
180.0
 51
270.0
  0
LINE
  5
127
330
97
100
AcDbEntity
  8
$DDT_AUDIT_GENERATED_(104)
  6
Continuous
 62
     7
100
AcDbLine
 10
173.2309677223
 20
245.0651488133
 30
0.0
 11
178.5990482956
 21
243.1113272695
 31
0.0
  0
ARC
  5
128
330
97
100
AcDbEntity
  8
$DDT_AUDIT_GENERATED_(104)
  6
Continuous
 62
     7
100
AcDbCircle
 10
172.937897718
 20
244.2599455941
 30
0.0
 40
0.8568793682315573
100
AcDbArc
 50
70.0
 51
180.0
  0
ARC
  5
129
330
97
100
AcDbEntity
  8
$DDT_AUDIT_GENERATED_(104)
  6
Continuous
 62
     7
100
AcDbCircle
 10
76.937897718
 20
297.0473535671
 30
0.0
 40
5.000000000000004
100
AcDbArc
 50
90.0
 51
250.0
  0
LINE
  5
12A
330
97
100
AcDbEntity
  8
$DDT_AUDIT_GENERATED_(104)
  6
Continuous
 62
     7
100
AcDbLine
 10
76.937897718
 20
302.0473535671
 30
0.0
 11
99.6876311794
 21
302.0473535671
 31
0.0
  0
ARC
  5
12B
330
97
100
AcDbEntity
  8
$DDT_AUDIT_GENERATED_(104)
  6
Continuous
 62
     7
100
AcDbCircle
 10
76.937897718
 20
297.0473535671
 30
0.0
 40
4.856879368231557
100
AcDbArc
 50
90.0
 51
250.0
  0
LINE
  5
12C
330
97
100
AcDbEntity
  8
$DDT_AUDIT_GENERATED_(104)
  6
Continuous
 62
     7
100
AcDbLine
 10
76.937897718
 20
301.9042329353
 30
0.0
 11
80.937897718
 21
301.9042329353
 31
0.0
  0
CIRCLE
  5
12D
330
97
100
AcDbEntity
  8
$DDT_AUDIT_GENERATED_(104)
  6
Continuous
 62
     7
100
AcDbCircle
 10
76.937897718
 20
296.7973535671
 30
0.0
 40
2.319814942326071
  0
CIRCLE
  5
12E
330
97
100
AcDbEntity
  8
$DDT_AUDIT_GENERATED_(104)
  6
Continuous
 62
     7
100
AcDbCircle
 10
76.937897718
 20
296.7973535671
 30
0.0
 40
2.25
  0
LINE
  5
12F
330
97
100
AcDbEntity
  8
$DDT_AUDIT_GENERATED_(104)
  6
Continuous
 62
     7
100
AcDbLine
 10
83.2538574313
 20
290.7578655838
 30
0.0
 11
90.0038574313
 21
288.3010665025
 31
0.0
  0
ARC
  5
130
330
97
100
AcDbEntity
  8
$DDT_AUDIT_GENERATED_(104)
  6
Continuous
 62
     7
100
AcDbCircle
 10
83.937897718
 20
292.6372508254
 30
0.0
 40
2.000000000000002
100
AcDbArc
 50
180.0
 51
250.0
  0
LINE
  5
131
330
97
100
AcDbEntity
  8
$DDT_AUDIT_GENERATED_(104)
  6
Continuous
 62
     7
100
AcDbLine
 10
90.687897718
 20
299.5473535671
 30
0.0
 11
83.937897718
 21
299.5473535671
 31
0.0
  0
ARC
  5
132
330
97
100
AcDbEntity
  8
$DDT_AUDIT_GENERATED_(104)
  6
Continuous
 62
     7
100
AcDbCircle
 10
90.687897718
 20
297.5473535671
 30
0.0
 40
2.000000000000002
100
AcDbArc
 50
0.0
 51
90.0
  0
ARC
  5
133
330
97
100
AcDbEntity
  8
$DDT_AUDIT_GENERATED_(104)
  6
Continuous
 62
     7
100
AcDbCircle
 10
90.687897718
 20
290.1804517441
 30
0.0
 40
1.999999999999999
100
AcDbArc
 50
250.0
 51
0.0
  0
LINE
  5
134
330
97
100
AcDbEntity
  8
$DDT_AUDIT_GENERATED_(104)
  6
Continuous
 62
     7
100
AcDbLine
 10
81.937897718
 20
297.5473535671
 30
0.0
 11
81.937897718
 21
292.6372508254
 31
0.0
  0
ARC
  5
135
330
97
100
AcDbEntity
  8
$DDT_AUDIT_GENERATED_(104)
  6
Continuous
 62
     7
100
AcDbCircle
 10
83.937897718
 20
297.5473535671
 30
0.0
 40
2.000000000000005
100
AcDbArc
 50
90.0
 51
180.0
  0
LINE
  5
136
330
97
100
AcDbEntity
  8
$DDT_AUDIT_GENERATED_(104)
  6
Continuous
 62
     7
100
AcDbLine
 10
81.7947770862
 20
301.0473535671
 30
0.0
 11
81.7947770862
 21
291.3347615401
 31
0.0
  0
ARC
  5
137
330
97
100
AcDbEntity
  8
$DDT_AUDIT_GENERATED_(104)
  6
Continuous
 62
     7
100
AcDbCircle
 10
80.937897718
 20
301.0473535671
 30
0.0
 40
0.8568793682315543
100
AcDbArc
 50
0.0
 51
90.0
  0
LINE
  5
138
330
97
100
AcDbEntity
  8
$DDT_AUDIT_GENERATED_(104)
  6
Continuous
 62
     7
100
AcDbLine
 10
80.6448277136
 20
290.5295583209
 30
0.0
 11
75.2767471403
 21
292.4833798647
 31
0.0
  0
ARC
  5
139
330
97
100
AcDbEntity
  8
$DDT_AUDIT_GENERATED_(104)
  6
Continuous
 62
     7
100
AcDbCircle
 10
80.937897718
 20
291.3347615401
 30
0.0
 40
0.8568793682315542
100
AcDbArc
 50
250.0
 51
0.0
  0
LINE
  5
13A
330
97
100
AcDbEntity
  8
$DDT_AUDIT_GENERATED_(104)
  6
Continuous
 62
     7
100
AcDbLine
 10
99.6876311794
 20
233.5473535671
 30
0.0
 11
76.937897718
 21
233.5473535671
 31
0.0
  0
ARC
  5
13B
330
97
100
AcDbEntity
  8
$DDT_AUDIT_GENERATED_(104)
  6
Continuous
 62
     7
100
AcDbCircle
 10
76.937897718
 20
238.5473535671
 30
0.0
 40
4.999999999999997
100
AcDbArc
 50
110.0
 51
270.0
  0
LINE
  5
13C
330
97
100
AcDbEntity
  8
$DDT_AUDIT_GENERATED_(104)
  6
Continuous
 62
     7
100
AcDbLine
 10
75.2277970013
 20
243.245816671
 30
0.0
 11
89.3981237039
 21
248.4033938006
 31
0.0
  0
ARC
  5
13D
330
97
100
AcDbEntity
  8
$DDT_AUDIT_GENERATED_(104)
  6
Continuous
 62
     7
100
AcDbCircle
 10
76.937897718
 20
238.5473535671
 30
0.0
 40
4.856879368231548
100
AcDbArc
 50
110.0
 51
270.0
  0
LINE
  5
13E
330
97
100
AcDbEntity
  8
$DDT_AUDIT_GENERATED_(104)
  6
Continuous
 62
     7
100
AcDbLine
 10
75.2767471403
 20
243.1113272695
 30
0.0
 11
80.6448277136
 21
245.0651488133
 31
0.0
  0
CIRCLE
  5
13F
330
97
100
AcDbEntity
  8
$DDT_AUDIT_GENERATED_(104)
  6
Continuous
 62
     7
100
AcDbCircle
 10
76.937897718
 20
238.7973535671
 30
0.0
 40
2.319814942326071
  0
CIRCLE
  5
140
330
97
100
AcDbEntity
  8
$DDT_AUDIT_GENERATED_(104)
  6
Continuous
 62
     7
100
AcDbCircle
 10
76.937897718
 20
238.7973535671
 30
0.0
 40
2.25
  0
LINE
  5
141
330
97
100
AcDbEntity
  8
$DDT_AUDIT_GENERATED_(104)
  6
Continuous
 62
     7
100
AcDbLine
 10
81.937897718
 20
242.9574563088
 30
0.0
 11
81.937897718
 21
238.0473535671
 31
0.0
  0
ARC
  5
142
330
97
100
AcDbEntity
  8
$DDT_AUDIT_GENERATED_(104)
  6
Continuous
 62
     7
100
AcDbCircle
 10
83.937897718
 20
242.9574563088
 30
0.0
 40
2.000000000000002
100
AcDbArc
 50
110.0
 51
180.0
  0
ARC
  5
143
330
97
100
AcDbEntity
  8
$DDT_AUDIT_GENERATED_(104)
  6
Continuous
 62
     7
100
AcDbCircle
 10
90.687897718
 20
238.0473535671
 30
0.0
 40
2.000000000000002
100
AcDbArc
 50
270.0
 51
0.0
  0
LINE
  5
144
330
97
100
AcDbEntity
  8
$DDT_AUDIT_GENERATED_(104)
  6
Continuous
 62
     7
100
AcDbLine
 10
90.0038574313
 20
247.2936406317
 30
0.0
 11
83.2538574313
 21
244.8368415504
 31
0.0
  0
ARC
  5
145
330
97
100
AcDbEntity
  8
$DDT_AUDIT_GENERATED_(104)
  6
Continuous
 62
     7
100
AcDbCircle
 10
90.687897718
 20
245.4142553901
 30
0.0
 40
2.000000000000002
100
AcDbArc
 50
0.0
 51
110.0
  0
LINE
  5
146
330
97
100
AcDbEntity
  8
$DDT_AUDIT_GENERATED_(104)
  6
Continuous
 62
     7
100
AcDbLine
 10
83.937897718
 20
236.0473535671
 30
0.0
 11
90.687897718
 21
236.0473535671
 31
0.0
  0
ARC
  5
147
330
97
100
AcDbEntity
  8
$DDT_AUDIT_GENERATED_(104)
  6
Continuous
 62
     7
100
AcDbCircle
 10
83.937897718
 20
238.0473535671
 30
0.0
 40
2.000000000000002
100
AcDbArc
 50
180.0
 51
270.0
  0
LINE
  5
148
330
97
100
AcDbEntity
  8
$DDT_AUDIT_GENERATED_(104)
  6
Continuous
 62
     7
100
AcDbLine
 10
80.937897718
 20
233.6904741989
 30
0.0
 11
76.937897718
 21
233.6904741989
 31
0.0
  0
ARC
  5
149
330
97
100
AcDbEntity
  8
$DDT_AUDIT_GENERATED_(104)
  6
Continuous
 62
     7
100
AcDbCircle
 10
80.937897718
 20
234.5473535671
 30
0.0
 40
0.8568793682315543
100
AcDbArc
 50
270.0
 51
0.0
  0
LINE
  5
14A
330
97
100
AcDbEntity
  8
$DDT_AUDIT_GENERATED_(104)
  6
Continuous
 62
     7
100
AcDbLine
 10
81.7947770862
 20
244.2599455941
 30
0.0
 11
81.7947770862
 21
234.5473535671
 31
0.0
  0
ARC
  5
14B
330
97
100
AcDbEntity
  8
$DDT_AUDIT_GENERATED_(104)
  6
Continuous
 62
     7
100
AcDbCircle
 10
80.937897718
 20
244.2599455941
 30
0.0
 40
0.8568793682315543
100
AcDbArc
 50
0.0
 51
110.0
  0
CIRCLE
  5
14C
330
97
100
AcDbEntity
  8
$DDT_AUDIT_GENERATED_(104)
  6
Continuous
 62
     7
100
AcDbCircle
 10
100.4213934235
 20
294.3138578616
 30
0.0
 40
4.715092528836965
  0
CIRCLE
  5
14D
330
97
100
AcDbEntity
  8
$DDT_AUDIT_GENERATED_(104)
  6
Continuous
 62
     7
100
AcDbCircle
 10
153.4544020125
 20
241.2808492726
 30
0.0
 40
4.715092528836965
  0
CIRCLE
  5
14E
330
97
100
AcDbEntity
  8
$DDT_AUDIT_GENERATED_(104)
  6
Continuous
 62
     7
100
AcDbCircle
 10
153.4544020125
 20
294.3138578616
 30
0.0
 40
4.715092528836965
  0
CIRCLE
  5
14F
330
97
100
AcDbEntity
  8
$DDT_AUDIT_GENERATED_(104)
  6
Continuous
 62
     7
100
AcDbCircle
 10
100.4213934235
 20
241.2808492726
 30
0.0
 40
4.715092528836965
  0
LINE
  5
150
330
97
100
AcDbEntity
  8
$DDT_AUDIT_GENERATED_(104)
  6
Continuous
 62
     7
100
AcDbLine
 10
98.1148733076
 20
268.7240478776
 30
0.0
 11
99.0415676182
 21
267.7973535671
 31
0.0
  0
LINE
  5
151
330
97
100
AcDbEntity
  8
$DDT_AUDIT_GENERATED_(104)
  6
Continuous
 62
     7
100
AcDbLine
 10
98.1211938644
 20
268.7214298173
 30
0.0
 11
98.1148733076
 21
268.7240478776
 31
0.0
  0
LINE
  5
152
330
97
100
AcDbEntity
  8
$DDT_AUDIT_GENERATED_(104)
  6
Continuous
 62
     7
100
AcDbLine
 10
99.0415676182
 20
267.7973535671
 30
0.0
 11
98.1148733076
 21
266.8706592565
 31
0.0
  0
LINE
  5
153
330
97
100
AcDbEntity
  8
$DDT_AUDIT_GENERATED_(104)
  6
Continuous
 62
     7
100
AcDbLine
 10
99.0452701146
 20
267.7973535671
 30
0.0
 11
99.0415676182
 21
267.7973535671
 31
0.0
  0
LINE
  5
154
330
97
100
AcDbEntity
  8
$DDT_AUDIT_GENERATED_(104)
  6
Continuous
 62
     7
100
AcDbLine
 10
98.1148733076
 20
266.8706592565
 30
0.0
 11
100.713062876
 21
266.8706592565
 31
0.0
  0
LINE
  5
155
330
97
100
AcDbEntity
  8
$DDT_AUDIT_GENERATED_(104)
  6
Continuous
 62
     7
100
AcDbLine
 10
98.1211938644
 20
266.8732773169
 30
0.0
 11
98.1148733076
 21
266.8706592565
 31
0.0
  0
LINE
  5
156
330
97
100
AcDbEntity
  8
$DDT_AUDIT_GENERATED_(104)
  6
Continuous
 62
     7
100
AcDbLine
 10
100.713062876
 20
266.8706592565
 30
0.0
 11
101.6275929256
 21
267.5706592565
 31
0.0
  0
LINE
  5
157
330
97
100
AcDbEntity
  8
$DDT_AUDIT_GENERATED_(104)
  6
Continuous
 62
     7
100
AcDbLine
 10
100.7121759174
 20
266.8732773169
 30
0.0
 11
100.713062876
 21
266.8706592565
 31
0.0
  0
LINE
  5
158
330
97
100
AcDbEntity
  8
$DDT_AUDIT_GENERATED_(104)
  6
Continuous
 62
     7
100
AcDbLine
 10
101.6275929256
 20
267.5706592565
 30
0.0
 11
103.6112034074
 21
267.5706592565
 31
0.0
  0
LINE
  5
159
330
97
100
AcDbEntity
  8
$DDT_AUDIT_GENERATED_(104)
  6
Continuous
 62
     7
100
AcDbLine
 10
101.626705967
 20
267.5732773169
 30
0.0
 11
101.6275929256
 21
267.5706592565
 31
0.0
  0
LINE
  5
15A
330
97
100
AcDbEntity
  8
$DDT_AUDIT_GENERATED_(104)
  6
Continuous
 62
     7
100
AcDbLine
 10
103.6112034074
 20
267.5706592565
 30
0.0
 11
103.6112034074
 21
266.9073121013
 31
0.0
  0
LINE
  5
15B
330
97
100
AcDbEntity
  8
$DDT_AUDIT_GENERATED_(104)
  6
Continuous
 62
     7
100
AcDbLine
 10
103.6138214677
 20
267.5732773169
 30
0.0
 11
103.6112034074
 21
267.5706592565
 31
0.0
  0
LINE
  5
15C
330
97
100
AcDbEntity
  8
$DDT_AUDIT_GENERATED_(104)
  6
Continuous
 62
     7
100
AcDbLine
 10
103.6112034074
 20
266.9073121013
 30
0.0
 11
105.7473029254
 21
267.7973535671
 31
0.0
  0
LINE
  5
15D
330
97
100
AcDbEntity
  8
$DDT_AUDIT_GENERATED_(104)
  6
Continuous
 62
     7
100
AcDbLine
 10
103.6138214677
 20
266.9112391918
 30
0.0
 11
103.6112034074
 21
266.9073121013
 31
0.0
  0
LINE
  5
15E
330
97
100
AcDbEntity
  8
$DDT_AUDIT_GENERATED_(104)
  6
Continuous
 62
     7
100
AcDbLine
 10
105.7473029254
 20
267.7973535671
 30
0.0
 11
103.6112034074
 21
268.6873950329
 31
0.0
  0
LINE
  5
15F
330
97
100
AcDbEntity
  8
$DDT_AUDIT_GENERATED_(104)
  6
Continuous
 62
     7
100
AcDbLine
 10
105.7404959685
 20
267.7973535671
 30
0.0
 11
105.7473029254
 21
267.7973535671
 31
0.0
  0
LINE
  5
160
330
97
100
AcDbEntity
  8
$DDT_AUDIT_GENERATED_(104)
  6
Continuous
 62
     7
100
AcDbLine
 10
103.6112034074
 20
268.6873950329
 30
0.0
 11
103.6112034074
 21
268.0240478776
 31
0.0
  0
LINE
  5
161
330
97
100
AcDbEntity
  8
$DDT_AUDIT_GENERATED_(104)
  6
Continuous
 62
     7
100
AcDbLine
 10
103.6138214677
 20
268.6834679424
 30
0.0
 11
103.6112034074
 21
268.6873950329
 31
0.0
  0
LINE
  5
162
330
97
100
AcDbEntity
  8
$DDT_AUDIT_GENERATED_(104)
  6
Continuous
 62
     7
100
AcDbLine
 10
103.6112034074
 20
268.0240478776
 30
0.0
 11
101.6275929256
 21
268.0240478776
 31
0.0
  0
LINE
  5
163
330
97
100
AcDbEntity
  8
$DDT_AUDIT_GENERATED_(104)
  6
Continuous
 62
     7
100
AcDbLine
 10
103.6138214677
 20
268.0214298173
 30
0.0
 11
103.6112034074
 21
268.0240478776
 31
0.0
  0
LINE
  5
164
330
97
100
AcDbEntity
  8
$DDT_AUDIT_GENERATED_(104)
  6
Continuous
 62
     7
100
AcDbLine
 10
101.6275929256
 20
268.0240478776
 30
0.0
 11
100.713062876
 21
268.7240478776
 31
0.0
  0
LINE
  5
165
330
97
100
AcDbEntity
  8
$DDT_AUDIT_GENERATED_(104)
  6
Continuous
 62
     7
100
AcDbLine
 10
101.626705967
 20
268.0214298173
 30
0.0
 11
101.6275929256
 21
268.0240478776
 31
0.0
  0
LINE
  5
166
330
97
100
AcDbEntity
  8
$DDT_AUDIT_GENERATED_(104)
  6
Continuous
 62
     7
100
AcDbLine
 10
100.713062876
 20
268.7240478776
 30
0.0
 11
98.1148733076
 21
268.7240478776
 31
0.0
  0
LINE
  5
167
330
97
100
AcDbEntity
  8
$DDT_AUDIT_GENERATED_(104)
  6
Continuous
 62
     7
100
AcDbLine
 10
100.7121759174
 20
268.7214298173
 30
0.0
 11
100.713062876
 21
268.7240478776
 31
0.0
  0
LINE
  5
168
330
97
100
AcDbEntity
  8
$DDT_AUDIT_GENERATED_(104)
  6
Continuous
 62
     7
100
AcDbLine
 10
98.1211938644
 20
268.7214298173
 30
0.0
 11
99.0452701146
 21
267.7973535671
 31
0.0
  0
LINE
  5
169
330
97
100
AcDbEntity
  8
$DDT_AUDIT_GENERATED_(104)
  6
Continuous
 62
     7
100
AcDbLine
 10
99.0452701146
 20
267.7973535671
 30
0.0
 11
98.1211938644
 21
266.8732773169
 31
0.0
  0
LINE
  5
16A
330
97
100
AcDbEntity
  8
$DDT_AUDIT_GENERATED_(104)
  6
Continuous
 62
     7
100
AcDbLine
 10
98.1211938644
 20
266.8732773169
 30
0.0
 11
100.7121759174
 21
266.8732773169
 31
0.0
  0
LINE
  5
16B
330
97
100
AcDbEntity
  8
$DDT_AUDIT_GENERATED_(104)
  6
Continuous
 62
     7
100
AcDbLine
 10
100.7121759174
 20
266.8732773169
 30
0.0
 11
101.626705967
 21
267.5732773169
 31
0.0
  0
LINE
  5
16C
330
97
100
AcDbEntity
  8
$DDT_AUDIT_GENERATED_(104)
  6
Continuous
 62
     7
100
AcDbLine
 10
101.626705967
 20
267.5732773169
 30
0.0
 11
103.6138214677
 21
267.5732773169
 31
0.0
  0
LINE
  5
16D
330
97
100
AcDbEntity
  8
$DDT_AUDIT_GENERATED_(104)
  6
Continuous
 62
     7
100
AcDbLine
 10
103.6138214677
 20
267.5732773169
 30
0.0
 11
103.6138214677
 21
266.9112391918
 31
0.0
  0
LINE
  5
16E
330
97
100
AcDbEntity
  8
$DDT_AUDIT_GENERATED_(104)
  6
Continuous
 62
     7
100
AcDbLine
 10
103.6138214677
 20
266.9112391918
 30
0.0
 11
105.7404959685
 21
267.7973535671
 31
0.0
  0
LINE
  5
16F
330
97
100
AcDbEntity
  8
$DDT_AUDIT_GENERATED_(104)
  6
Continuous
 62
     7
100
AcDbLine
 10
105.7404959685
 20
267.7973535671
 30
0.0
 11
103.6138214677
 21
268.6834679424
 31
0.0
  0
LINE
  5
170
330
97
100
AcDbEntity
  8
$DDT_AUDIT_GENERATED_(104)
  6
Continuous
 62
     7
100
AcDbLine
 10
103.6138214677
 20
268.6834679424
 30
0.0
 11
103.6138214677
 21
268.0214298173
 31
0.0
  0
LINE
  5
171
330
97
100
AcDbEntity
  8
$DDT_AUDIT_GENERATED_(104)
  6
Continuous
 62
     7
100
AcDbLine
 10
103.6138214677
 20
268.0214298173
 30
0.0
 11
101.626705967
 21
268.0214298173
 31
0.0
  0
LINE
  5
172
330
97
100
AcDbEntity
  8
$DDT_AUDIT_GENERATED_(104)
  6
Continuous
 62
     7
100
AcDbLine
 10
101.626705967
 20
268.0214298173
 30
0.0
 11
100.7121759174
 21
268.7214298173
 31
0.0
  0
LINE
  5
173
330
97
100
AcDbEntity
  8
$DDT_AUDIT_GENERATED_(104)
  6
Continuous
 62
     7
100
AcDbLine
 10
100.7121759174
 20
268.7214298173
 30
0.0
 11
98.1211938644
 21
268.7214298173
 31
0.0
  0
LINE
  5
174
330
97
100
AcDbEntity
  8
$DDT_AUDIT_GENERATED_(104)
  6
Continuous
 62
     7
100
AcDbLine
 10
161.187897718
 20
238.0473535671
 30
0.0
 11
161.187897718
 21
240.5470870285
 31
0.0
  0
LINE
  5
175
330
97
100
AcDbEntity
  8
$DDT_AUDIT_GENERATED_(104)
  6
Continuous
 62
     7
100
AcDbLine
 10
161.187897718
 20
290.1804517441
 30
0.0
 11
161.187897718
 21
295.0476240835
 31
0.0
  0
LINE
  5
176
330
97
100
AcDbEntity
  8
$DDT_AUDIT_GENERATED_(104)
  6
Continuous
 62
     7
100
AcDbLine
 10
92.687897718
 20
297.5473535671
 30
0.0
 11
92.687897718
 21
295.0476201056
 31
0.0
  0
LINE
  5
177
330
97
100
AcDbEntity
  8
$DDT_AUDIT_GENERATED_(104)
  6
Continuous
 62
     7
100
AcDbLine
 10
92.687897718
 20
245.4142553901
 30
0.0
 11
92.687897718
 21
240.5470830507
 31
0.0
  0
LINE
  5
178
330
97
100
AcDbEntity
  8
$DDT_AUDIT_GENERATED_(104)
  6
Continuous
 62
     7
100
AcDbLine
 10
92.687897718
 20
295.0476201056
 30
0.0
 11
92.687897718
 21
290.1804517441
 31
0.0
  0
LINE
  5
179
330
97
100
AcDbEntity
  8
$DDT_AUDIT_GENERATED_(104)
  6
Continuous
 62
     7
100
AcDbLine
 10
92.687897718
 20
240.5470830507
 30
0.0
 11
92.687897718
 21
238.0473535671
 31
0.0
  0
LINE
  5
17A
330
97
100
AcDbEntity
  8
$DDT_AUDIT_GENERATED_(104)
  6
Continuous
 62
     7
100
AcDbLine
 10
99.6876311794
 20
233.5473535671
 30
0.0
 11
154.1881642565
 21
233.5473535671
 31
0.0
  0
LINE
  5
17B
330
97
100
AcDbEntity
  8
$DDT_AUDIT_GENERATED_(104)
  6
Continuous
 62
     7
100
AcDbLine
 10
161.187897718
 20
240.5470870285
 30
0.0
 11
161.187897718
 21
245.4142553901
 31
0.0
  0
LINE
  5
17C
330
97
100
AcDbEntity
  8
$DDT_AUDIT_GENERATED_(104)
  6
Continuous
 62
     7
100
AcDbLine
 10
161.187897718
 20
295.0476240835
 30
0.0
 11
161.187897718
 21
297.5473535671
 31
0.0
  0
LINE
  5
17D
330
97
100
AcDbEntity
  8
$DDT_AUDIT_GENERATED_(104)
  6
Continuous
 62
     7
100
AcDbLine
 10
154.1881642565
 20
302.0473535671
 30
0.0
 11
99.6876311794
 21
302.0473535671
 31
0.0
  0
ELLIPSE
  5
17E
330
97
100
AcDbEntity
  8
$DDT_AUDIT_GENERATED_(104)
  6
Continuous
 62
     7
100
AcDbEllipse
 10
87.687707326
 20
253.1019446241
 30
0.0
 11
-4.095992644903903
 21
2.868044926413223
 31
0.0
210
0.0
220
0.0
230
0.9999999999999998
 40
0.9999432559
 41
2.530754076900406
 42
3.752431230279172
  0
LINE
  5
17F
330
97
100
AcDbEntity
  8
$DDT_AUDIT_GENERATED_(104)
  6
Continuous
 62
     7
100
AcDbLine
 10
164.4776717321
 20
248.4033938006
 30
0.0
 11
178.6479984346
 21
243.245816671
 31
0.0
  0
LINE
  5
180
330
97
100
AcDbEntity
  8
$DDT_AUDIT_GENERATED_(104)
  6
Continuous
 62
     7
100
AcDbLine
 10
161.187897718
 20
253.1016780014
 30
0.0
 11
161.187897718
 21
282.4930291328
 31
0.0
  0
ELLIPSE
  5
181
330
97
100
AcDbEntity
  8
$DDT_AUDIT_GENERATED_(104)
  6
Continuous
 62
     7
100
AcDbEllipse
 10
166.1880881099
 20
253.1019446241
 30
0.0
 11
4.095992644903899
 21
2.868044926413227
 31
0.0
210
0.0
220
0.0
230
1.0
 40
0.9999432559
 41
2.530754076900398
 42
3.752431230279175
  0
ELLIPSE
  5
182
330
97
100
AcDbEntity
  8
$DDT_AUDIT_GENERATED_(104)
  6
Continuous
 62
     7
100
AcDbEllipse
 10
166.1880881099
 20
282.4927625101
 30
0.0
 11
4.095992644903903
 21
-2.868044926413223
 31
0.0
210
0.0
220
0.0
230
0.9999999999999998
 40
0.9999432559
 41
2.530754076900405
 42
3.752431230279176
  0
LINE
  5
183
330
97
100
AcDbEntity
  8
$DDT_AUDIT_GENERATED_(104)
  6
Continuous
 62
     7
100
AcDbLine
 10
89.3981237039
 20
287.1913133336
 30
0.0
 11
75.2277970013
 21
292.3488904632
 31
0.0
  0
LINE
  5
184
330
97
100
AcDbEntity
  8
$DDT_AUDIT_GENERATED_(104)
  6
Continuous
 62
     7
100
AcDbLine
 10
92.687897718
 20
282.4930291328
 30
0.0
 11
92.687897718
 21
253.1016780014
 31
0.0
  0
ELLIPSE
  5
185
330
97
100
AcDbEntity
  8
$DDT_AUDIT_GENERATED_(104)
  6
Continuous
 62
     7
100
AcDbEllipse
 10
87.687707326
 20
282.4927625101
 30
0.0
 11
-4.095992644903899
 21
-2.868044926413227
 31
0.0
210
0.0
220
0.0
230
1.0
 40
0.9999432559
 41
2.530754076900413
 42
3.752431230279176
  0
LINE
  5
186
330
97
100
AcDbEntity
  8
$DDT_AUDIT_GENERATED_(104)
  6
Continuous
 62
     7
100
AcDbLine
 10
173.2563251978
 20
290.4598892294
 30
0.0
 11
164.4086913988
 21
287.2396138829
 31
0.0
  0
LINE
  5
187
330
97
100
AcDbEntity
  8
$DDT_AUDIT_GENERATED_(104)
  6
Continuous
 62
     7
100
AcDbLine
 10
164.4086913988
 20
248.3550932513
 30
0.0
 11
173.2563251978
 21
245.1348179047
 31
0.0
  0
ARC
  5
188
330
97
100
AcDbEntity
  8
$DDT_AUDIT_GENERATED_(104)
  6
Continuous
 62
     7
100
AcDbCircle
 10
-189.476339537
 20
236.2581468694
 30
0.0
 40
361.4876455129722
100
AcDbArc
 50
0.0431616491
 51
0.2835903586
  0
LINE
  5
189
330
97
100
AcDbEntity
  8
$DDT_AUDIT_GENERATED_(104)
  6
Continuous
 62
     7
100
AcDbLine
 10
80.937897718
 20
301.9783732339
 30
0.0
 11
172.937897718
 21
301.9783732339
 31
0.0
  0
ARC
  5
18A
330
97
100
AcDbEntity
  8
$DDT_AUDIT_GENERATED_(104)
  6
Continuous
 62
     7
100
AcDbCircle
 10
172.937897718
 20
234.5473535671
 30
0.0
 40
0.9266943105576219
100
AcDbArc
 50
180.0
 51
207.7190115476
  0
LINE
  5
18B
330
97
100
AcDbEntity
  8
$DDT_AUDIT_GENERATED_(104)
  6
Continuous
 62
     7
100
AcDbLine
 10
172.937897718
 20
233.6163339003
 30
0.0
 11
80.937897718
 21
233.6163339003
 31
0.0
  0
ARC
  5
18C
330
97
100
AcDbEntity
  8
$DDT_AUDIT_GENERATED_(104)
  6
Continuous
 62
     7
100
AcDbCircle
 10
172.9444323564
 20
234.550039727
 30
0.0
 40
0.9337286930629195
100
AcDbArc
 50
207.678414223
 51
269.5990160083
  0
LINE
  5
18D
330
97
100
AcDbEntity
  8
$DDT_AUDIT_GENERATED_(104)
  6
Continuous
 62
     7
100
AcDbLine
 10
89.4671040371
 20
287.2396138829
 30
0.0
 11
80.6194702381
 21
290.4598892294
 31
0.0
  0
LINE
  5
18E
330
97
100
AcDbEntity
  8
$DDT_AUDIT_GENERATED_(104)
  6
Continuous
 62
     7
100
AcDbLine
 10
80.6194702381
 20
245.1348179047
 30
0.0
 11
89.4671040371
 21
248.3550932513
 31
0.0
  0
ARC
  5
18F
330
97
100
AcDbEntity
  8
$DDT_AUDIT_GENERATED_(104)
  6
Continuous
 62
     7
100
AcDbCircle
 10
80.9268377011
 20
234.5499708177
 30
0.0
 40
0.9337024245251024
100
AcDbArc
 50
270.6787035061
 51
342.4119232921
  0
ARC
  5
190
330
97
100
AcDbEntity
  8
$DDT_AUDIT_GENERATED_(104)
  6
Continuous
 62
     7
100
AcDbCircle
 10
361.1715250721
 20
235.8418839114
 30
0.0
 40
279.3113151258607
100
AcDbArc
 50
179.5475821801
 51
179.9634838708
  0
ARC
  5
191
330
97
100
AcDbEntity
  8
$DDT_AUDIT_GENERATED_(104)
  6
Continuous
 62
     7
100
AcDbCircle
 10
172.9489577349
 20
301.0447363164
 30
0.0
 40
0.9337024245251243
100
AcDbArc
 50
90.6787035061
 51
162.4119232921
  0
ARC
  5
192
330
97
100
AcDbEntity
  8
$DDT_AUDIT_GENERATED_(104)
  6
Continuous
 62
     7
100
AcDbCircle
 10
-107.2957296361
 20
299.7528232228
 30
0.0
 40
279.3113151258601
100
AcDbArc
 50
359.5475821801
 51
359.9634838708
  0
ARC
  5
193
330
97
100
AcDbEntity
  8
$DDT_AUDIT_GENERATED_(104)
  6
Continuous
 62
     7
100
AcDbCircle
 10
361.1715250721
 20
299.7528232228
 30
0.0
 40
279.3113151258602
100
AcDbArc
 50
180.0365161292
 51
180.4524178199
  0
ARC
  5
194
330
97
100
AcDbEntity
  8
$DDT_AUDIT_GENERATED_(104)
  6
Continuous
 62
     7
100
AcDbCircle
 10
80.9268377011
 20
301.0447363164
 30
0.0
 40
0.933702424525124
100
AcDbArc
 50
17.5880767079
 51
89.3212964939
  0
ARC
  5
195
330
97
100
AcDbEntity
  8
$DDT_AUDIT_GENERATED_(104)
  6
Continuous
 62
     7
100
AcDbCircle
 10
435.5522167747
 20
245.6062087457
 30
0.0
 40
353.6932175725144
100
AcDbArc
 50
180.2180855587
 51
180.4290830207
  0
ARC
  5
196
330
97
100
AcDbEntity
  8
$DDT_AUDIT_GENERATED_(104)
  6
Continuous
 62
     7
100
AcDbCircle
 10
80.9283998541
 20
244.2537034344
 30
0.0
 40
0.9337024245251372
100
AcDbArc
 50
37.5880767079
 51
109.3212964939
  0
ARC
  5
197
330
97
100
AcDbEntity
  8
$DDT_AUDIT_GENERATED_(104)
  6
Continuous
 62
     7
100
AcDbCircle
 10
80.9273283468
 20
244.2545086006
 30
0.0
 40
0.934248827374014
100
AcDbArc
 50
0.3334427937
 51
25.4221330428
  0
ARC
  5
198
330
97
100
AcDbEntity
  8
$DDT_AUDIT_GENERATED_(104)
  6
Continuous
 62
     7
100
AcDbCircle
 10
-181.6764213387
 20
289.9884983885
 30
0.0
 40
353.6932175725144
100
AcDbArc
 50
0.2180855587
 51
0.4290830207
  0
ARC
  5
199
330
97
100
AcDbEntity
  8
$DDT_AUDIT_GENERATED_(104)
  6
Continuous
 62
     7
100
AcDbCircle
 10
172.9473955818
 20
291.3410036998
 30
0.0
 40
0.9337024245251271
100
AcDbArc
 50
217.5880767079
 51
289.3212964939
  0
ARC
  5
19A
330
97
100
AcDbEntity
  8
$DDT_AUDIT_GENERATED_(104)
  6
Continuous
 62
     7
100
AcDbCircle
 10
172.9484670891
 20
291.3401985336
 30
0.0
 40
0.934248827374014
100
AcDbArc
 50
180.3334427937
 51
205.4221330428
  0
ARC
  5
19B
330
97
100
AcDbEntity
  8
$DDT_AUDIT_GENERATED_(104)
  6
Continuous
 62
     7
100
AcDbCircle
 10
172.9484665177
 20
244.2545087312
 30
0.0
 40
0.9342482552509955
100
AcDbArc
 50
154.57785915
 51
179.6665650134
  0
ARC
  5
19C
330
97
100
AcDbEntity
  8
$DDT_AUDIT_GENERATED_(104)
  6
Continuous
 62
     7
100
AcDbCircle
 10
172.9473955818
 20
244.2537034344
 30
0.0
 40
0.9337024245251372
100
AcDbArc
 50
70.6787035061
 51
142.4119232921
  0
ARC
  5
19D
330
97
100
AcDbEntity
  8
$DDT_AUDIT_GENERATED_(104)
  6
Continuous
 62
     7
100
AcDbCircle
 10
-181.6764213387
 20
245.6062087457
 30
0.0
 40
353.6932175725145
100
AcDbArc
 50
359.5709169793
 51
359.7819144413
  0
ARC
  5
19E
330
97
100
AcDbEntity
  8
$DDT_AUDIT_GENERATED_(104)
  6
Continuous
 62
     7
100
AcDbCircle
 10
435.5522167747
 20
289.9884983885
 30
0.0
 40
353.6932175725085
100
AcDbArc
 50
179.5709169793
 51
179.7819144413
  0
ARC
  5
19F
330
97
100
AcDbEntity
  8
$DDT_AUDIT_GENERATED_(104)
  6
Continuous
 62
     7
100
AcDbCircle
 10
80.9283998541
 20
291.3410036998
 30
0.0
 40
0.9337024245251342
100
AcDbArc
 50
250.6787035061
 51
322.4119232921
  0
ARC
  5
1A0
330
97
100
AcDbEntity
  8
$DDT_AUDIT_GENERATED_(104)
  6
Continuous
 62
     7
100
AcDbCircle
 10
80.9273289182
 20
291.340198403
 30
0.0
 40
0.934248255250872
100
AcDbArc
 50
334.57785915
 51
359.6665650134
  0
LINE
  5
1A2
330
97
100
AcDbEntity
  8
$DDT_AUDIT_GENERATED_(1A1)
  6
Continuous
 62
     7
100
AcDbLine
 10
174.437897718
 20
280.7973535671
 30
0.0
 11
174.437897718
 21
254.7973535671
 31
0.0
  0
LINE
  5
1A3
330
97
100
AcDbEntity
  8
$DDT_AUDIT_GENERATED_(1A1)
  6
Continuous
 62
     7
100
AcDbLine
 10
79.437897718
 20
254.7973535671
 30
0.0
 11
79.437897718
 21
280.7973535671
 31
0.0
  0
LINE
  5
1A4
330
97
100
AcDbEntity
  8
$DDT_AUDIT_GENERATED_(1A1)
  6
Continuous
 62
     7
100
AcDbLine
 10
172.437897718
 20
254.2973535671
 30
0.0
 11
174.3743970628
 21
254.2973535671
 31
0.0
  0
LINE
  5
1A5
330
97
100
AcDbEntity
  8
$DDT_AUDIT_GENERATED_(1A1)
  6
Continuous
 62
     7
100
AcDbLine
 10
164.437897718
 20
252.7973535671
 30
0.0
 11
164.437897718
 21
254.2973535671
 31
0.0
  0
LINE
  5
1A6
330
97
100
AcDbEntity
  8
$DDT_AUDIT_GENERATED_(1A1)
  6
Continuous
 62
     7
100
AcDbLine
 10
164.437897718
 20
254.2973535671
 30
0.0
 11
172.437897718
 21
254.2973535671
 31
0.0
  0
LINE
  5
1A7
330
97
100
AcDbEntity
  8
$DDT_AUDIT_GENERATED_(1A1)
  6
Continuous
 62
     7
100
AcDbLine
 10
174.3743970628
 20
281.2973535671
 30
0.0
 11
172.437897718
 21
281.2973535671
 31
0.0
  0
LINE
  5
1A8
330
97
100
AcDbEntity
  8
$DDT_AUDIT_GENERATED_(1A1)
  6
Continuous
 62
     7
100
AcDbLine
 10
164.437897718
 20
281.2973535671
 30
0.0
 11
172.437897718
 21
281.2973535671
 31
0.0
  0
LINE
  5
1A9
330
97
100
AcDbEntity
  8
$DDT_AUDIT_GENERATED_(1A1)
  6
Continuous
 62
     7
100
AcDbLine
 10
164.437897718
 20
282.7973535671
 30
0.0
 11
164.437897718
 21
281.2973535671
 31
0.0
  0
SPLINE
  5
1AA
330
97
100
AcDbEntity
  8
$DDT_AUDIT_GENERATED_(1A1)
  6
Continuous
 62
     7
100
AcDbSpline
210
0.0
220
0.0
230
1.0
 70
     8
 71
     3
 72
    22
 73
    18
 74
     0
 42
0.000000000769506
 43
0.0000000001
 40
0.0
 40
0.0
 40
0.0
 40
0.0
 40
0.0625000000000005
 40
0.0625000000000005
 40
0.1250000000000009
 40
0.1250000000000009
 40
0.2500000000000006
 40
0.2500000000000006
 40
0.5000000000000001
 40
0.5000000000000001
 40
0.7499999999999997
 40
0.7499999999999997
 40
0.8749999999999999
 40
0.8749999999999999
 40
0.9375
 40
0.9375
 40
1.0
 40
1.0
 40
1.0
 40
1.0
 10
172.4378977179636
 20
255.3849777406351
 30
0.0
 10
172.7476956851413
 20
255.3849777406351
 30
0.0
 10
173.030442002794
 20
255.5352715560206
 30
0.0
 10
173.4489472356338
 20
255.9181727322403
 30
0.0
 10
173.6029111364085
 20
256.1517701701594
 30
0.0
 10
173.9697844212419
 20
256.8741597965721
 30
0.0
 10
174.0958481040478
 20
257.3928124384525
 30
0.0
 10
174.3554855387927
 20
258.9393349366644
 30
0.0
 10
174.3740640464771
 20
259.9922743806858
 30
0.0
 10
174.3747109636845
 20
262.0781088660905
 30
0.0
 10
174.3575436034333
 20
263.1201794336453
 30
0.0
 10
174.1026725029759
 20
264.6721943084885
 30
0.0
 10
173.9781334984297
 20
265.198164802545
 30
0.0
 10
173.6093773027874
 20
265.9330497922982
 30
0.0
 10
173.4582020433923
 20
266.1655884696362
 30
0.0
 10
173.0366216817862
 20
266.5561711176487
 30
0.0
 10
172.7515964296154
 20
266.7097293935414
 30
0.0
 10
172.4378977179636
 20
266.7097293935412
 30
0.0
  0
LINE
  5
1AB
330
97
100
AcDbEntity
  8
$DDT_AUDIT_GENERATED_(1A1)
  6
Continuous
 62
     7
100
AcDbLine
 10
164.437897718
 20
255.3849777406
 30
0.0
 11
172.437897718
 21
255.3849777406
 31
0.0
  0
LINE
  5
1AC
330
97
100
AcDbEntity
  8
$DDT_AUDIT_GENERATED_(1A1)
  6
Continuous
 62
     7
100
AcDbLine
 10
164.437897718
 20
266.7097293935
 30
0.0
 11
164.437897718
 21
255.3849777406
 31
0.0
  0
LINE
  5
1AD
330
97
100
AcDbEntity
  8
$DDT_AUDIT_GENERATED_(1A1)
  6
Continuous
 62
     7
100
AcDbLine
 10
164.437897718
 20
266.7097293935
 30
0.0
 11
172.437897718
 21
266.7097293935
 31
0.0
  0
SPLINE
  5
1AE
330
97
100
AcDbEntity
  8
$DDT_AUDIT_GENERATED_(1A1)
  6
Continuous
 62
     7
100
AcDbSpline
210
0.0
220
0.0
230
1.0
 70
     8
 71
     3
 72
    22
 73
    18
 74
     0
 42
0.000000000769506
 43
0.0000000001
 40
0.0
 40
0.0
 40
0.0
 40
0.0
 40
0.0625000000000002
 40
0.0625000000000002
 40
0.1250000000000004
 40
0.1250000000000004
 40
0.2500000000000003
 40
0.2500000000000003
 40
0.5000000000000002
 40
0.5000000000000002
 40
0.7500000000000001
 40
0.7500000000000001
 40
0.8749999999999997
 40
0.8749999999999997
 40
0.9374999999999999
 40
0.9374999999999999
 40
1.0
 40
1.0
 40
1.0
 40
1.0
 10
172.4378977179636
 20
268.8849777406351
 30
0.0
 10
172.7476956851413
 20
268.8849777406351
 30
0.0
 10
173.030442002794
 20
269.0352715560206
 30
0.0
 10
173.4489472356338
 20
269.4181727322404
 30
0.0
 10
173.6029111364085
 20
269.6517701701594
 30
0.0
 10
173.9697844212419
 20
270.3741597965721
 30
0.0
 10
174.0958481040478
 20
270.8928124384524
 30
0.0
 10
174.3554855387927
 20
272.4393349366644
 30
0.0
 10
174.3740640464771
 20
273.4922743806858
 30
0.0
 10
174.3747109636845
 20
275.5781088660905
 30
0.0
 10
174.3575436034333
 20
276.6201794336453
 30
0.0
 10
174.1026725029759
 20
278.1721943084885
 30
0.0
 10
173.9781334984297
 20
278.698164802545
 30
0.0
 10
173.6093773027874
 20
279.4330497922982
 30
0.0
 10
173.4582020433922
 20
279.6655884696362
 30
0.0
 10
173.0366216817862
 20
280.0561711176488
 30
0.0
 10
172.7515964296155
 20
280.2097293935414
 30
0.0
 10
172.4378977179636
 20
280.2097293935413
 30
0.0
  0
LINE
  5
1AF
330
97
100
AcDbEntity
  8
$DDT_AUDIT_GENERATED_(1A1)
  6
Continuous
 62
     7
100
AcDbLine
 10
164.437897718
 20
268.8849777406
 30
0.0
 11
172.437897718
 21
268.8849777406
 31
0.0
  0
LINE
  5
1B0
330
97
100
AcDbEntity
  8
$DDT_AUDIT_GENERATED_(1A1)
  6
Continuous
 62
     7
100
AcDbLine
 10
164.437897718
 20
280.2097293935
 30
0.0
 11
164.437897718
 21
268.8849777406
 31
0.0
  0
LINE
  5
1B1
330
97
100
AcDbEntity
  8
$DDT_AUDIT_GENERATED_(1A1)
  6
Continuous
 62
     7
100
AcDbLine
 10
164.437897718
 20
280.2097293935
 30
0.0
 11
172.437897718
 21
280.2097293935
 31
0.0
  0
LINE
  5
1B2
330
97
100
AcDbEntity
  8
$DDT_AUDIT_GENERATED_(1A1)
  6
Continuous
 62
     7
100
AcDbLine
 10
81.437897718
 20
254.2973535671
 30
0.0
 11
79.5013983732
 21
254.2973535671
 31
0.0
  0
LINE
  5
1B3
330
97
100
AcDbEntity
  8
$DDT_AUDIT_GENERATED_(1A1)
  6
Continuous
 62
     7
100
AcDbLine
 10
89.437897718
 20
254.2973535671
 30
0.0
 11
81.437897718
 21
254.2973535671
 31
0.0
  0
LINE
  5
1B4
330
97
100
AcDbEntity
  8
$DDT_AUDIT_GENERATED_(1A1)
  6
Continuous
 62
     7
100
AcDbLine
 10
89.437897718
 20
252.7973535671
 30
0.0
 11
89.437897718
 21
254.2973535671
 31
0.0
  0
LINE
  5
1B5
330
97
100
AcDbEntity
  8
$DDT_AUDIT_GENERATED_(1A1)
  6
Continuous
 62
     7
100
AcDbLine
 10
79.5013983732
 20
281.2973535671
 30
0.0
 11
81.437897718
 21
281.2973535671
 31
0.0
  0
LINE
  5
1B6
330
97
100
AcDbEntity
  8
$DDT_AUDIT_GENERATED_(1A1)
  6
Continuous
 62
     7
100
AcDbLine
 10
89.437897718
 20
281.2973535671
 30
0.0
 11
89.437897718
 21
282.7973535671
 31
0.0
  0
LINE
  5
1B7
330
97
100
AcDbEntity
  8
$DDT_AUDIT_GENERATED_(1A1)
  6
Continuous
 62
     7
100
AcDbLine
 10
89.437897718
 20
281.2973535671
 30
0.0
 11
81.437897718
 21
281.2973535671
 31
0.0
  0
SPLINE
  5
1B8
330
97
100
AcDbEntity
  8
$DDT_AUDIT_GENERATED_(1A1)
  6
Continuous
 62
     7
100
AcDbSpline
210
0.0
220
0.0
230
1.0
 70
     8
 71
     3
 72
    22
 73
    18
 74
     0
 42
0.000000000769506
 43
0.0000000001
 40
0.0
 40
0.0
 40
0.0
 40
0.0
 40
0.0625000000000006
 40
0.0625000000000006
 40
0.1250000000000011
 40
0.1250000000000011
 40
0.2500000000000011
 40
0.2500000000000011
 40
0.500000000000001
 40
0.500000000000001
 40
0.7500000000000009
 40
0.7500000000000009
 40
0.8750000000000011
 40
0.8750000000000011
 40
0.9375000000000006
 40
0.9375000000000006
 40
1.0
 40
1.0
 40
1.0
 40
1.0
 10
81.43789771796362
 20
266.7097293935412
 30
0.0
 10
81.12809975078594
 20
266.7097293935412
 30
0.0
 10
80.84535343313324
 20
266.5594355781558
 30
0.0
 10
80.42684820029348
 20
266.1765344019361
 30
0.0
 10
80.2728842995188
 20
265.942936964017
 30
0.0
 10
79.90601101468529
 20
265.2205473376043
 30
0.0
 10
79.77994733187946
 20
264.7018946957239
 30
0.0
 10
79.52030989713457
 20
263.155372197512
 30
0.0
 10
79.50173138945011
 20
262.1024327534905
 30
0.0
 10
79.5010844722428
 20
260.0165982680858
 30
0.0
 10
79.51825183249397
 20
258.9745277005311
 30
0.0
 10
79.77312293295135
 20
257.4225128256879
 30
0.0
 10
79.8976619374975
 20
256.8965423316314
 30
0.0
 10
80.26641813313992
 20
256.1616573418782
 30
0.0
 10
80.417593392535
 20
255.9291186645402
 30
0.0
 10
80.839173754141
 20
255.5385360165276
 30
0.0
 10
81.12419900631183
 20
255.384977740635
 30
0.0
 10
81.43789771796364
 20
255.3849777406351
 30
0.0
  0
LINE
  5
1B9
330
97
100
AcDbEntity
  8
$DDT_AUDIT_GENERATED_(1A1)
  6
Continuous
 62
     7
100
AcDbLine
 10
89.437897718
 20
266.7097293935
 30
0.0
 11
81.437897718
 21
266.7097293935
 31
0.0
  0
LINE
  5
1BA
330
97
100
AcDbEntity
  8
$DDT_AUDIT_GENERATED_(1A1)
  6
Continuous
 62
     7
100
AcDbLine
 10
89.437897718
 20
255.3849777406
 30
0.0
 11
89.437897718
 21
266.7097293935
 31
0.0
  0
LINE
  5
1BB
330
97
100
AcDbEntity
  8
$DDT_AUDIT_GENERATED_(1A1)
  6
Continuous
 62
     7
100
AcDbLine
 10
89.437897718
 20
255.3849777406
 30
0.0
 11
81.437897718
 21
255.3849777406
 31
0.0
  0
SPLINE
  5
1BC
330
97
100
AcDbEntity
  8
$DDT_AUDIT_GENERATED_(1A1)
  6
Continuous
 62
     7
100
AcDbSpline
210
0.0
220
0.0
230
1.0
 70
     8
 71
     3
 72
    22
 73
    18
 74
     0
 42
0.000000000769506
 43
0.0000000001
 40
0.0
 40
0.0
 40
0.0
 40
0.0
 40
0.0624999999999998
 40
0.0624999999999998
 40
0.1249999999999997
 40
0.1249999999999997
 40
0.2499999999999999
 40
0.2499999999999999
 40
0.4999999999999998
 40
0.4999999999999998
 40
0.7499999999999997
 40
0.7499999999999997
 40
0.8749999999999992
 40
0.8749999999999992
 40
0.9374999999999996
 40
0.9374999999999996
 40
1.0
 40
1.0
 40
1.0
 40
1.0
 10
81.43789771796361
 20
280.2097293935412
 30
0.0
 10
81.12809975078592
 20
280.2097293935412
 30
0.0
 10
80.84535343313323
 20
280.0594355781558
 30
0.0
 10
80.42684820029348
 20
279.6765344019361
 30
0.0
 10
80.27288429951876
 20
279.442936964017
 30
0.0
 10
79.90601101468529
 20
278.7205473376043
 30
0.0
 10
79.77994733187946
 20
278.2018946957239
 30
0.0
 10
79.52030989713457
 20
276.655372197512
 30
0.0
 10
79.50173138945013
 20
275.6024327534906
 30
0.0
 10
79.5010844722428
 20
273.5165982680858
 30
0.0
 10
79.51825183249397
 20
272.4745277005311
 30
0.0
 10
79.77312293295132
 20
270.9225128256879
 30
0.0
 10
79.89766193749749
 20
270.3965423316314
 30
0.0
 10
80.2664181331399
 20
269.6616573418782
 30
0.0
 10
80.417593392535
 20
269.4291186645402
 30
0.0
 10
80.83917375414099
 20
269.0385360165276
 30
0.0
 10
81.1241990063118
 20
268.884977740635
 30
0.0
 10
81.43789771796362
 20
268.8849777406351
 30
0.0
  0
LINE
  5
1BD
330
97
100
AcDbEntity
  8
$DDT_AUDIT_GENERATED_(1A1)
  6
Continuous
 62
     7
100
AcDbLine
 10
89.437897718
 20
280.2097293935
 30
0.0
 11
81.437897718
 21
280.2097293935
 31
0.0
  0
LINE
  5
1BE
330
97
100
AcDbEntity
  8
$DDT_AUDIT_GENERATED_(1A1)
  6
Continuous
 62
     7
100
AcDbLine
 10
89.437897718
 20
268.8849777406
 30
0.0
 11
89.437897718
 21
280.2097293935
 31
0.0
  0
LINE
  5
1BF
330
97
100
AcDbEntity
  8
$DDT_AUDIT_GENERATED_(1A1)
  6
Continuous
 62
     7
100
AcDbLine
 10
89.437897718
 20
268.8849777406
 30
0.0
 11
81.437897718
 21
268.8849777406
 31
0.0
  0
LINE
  5
1C0
330
97
100
AcDbEntity
  8
$DDT_AUDIT_GENERATED_(1A1)
  6
Continuous
 62
     7
100
AcDbLine
 10
161.1971676839
 20
252.7973535671
 30
0.0
 11
164.437897718
 21
252.7973535671
 31
0.0
  0
LINE
  5
1C1
330
97
100
AcDbEntity
  8
$DDT_AUDIT_GENERATED_(1A1)
  6
Continuous
 62
     7
100
AcDbLine
 10
164.437897718
 20
282.7973535671
 30
0.0
 11
161.1971676839
 21
282.7973535671
 31
0.0
  0
LINE
  5
1C2
330
97
100
AcDbEntity
  8
$DDT_AUDIT_GENERATED_(1A1)
  6
Continuous
 62
     7
100
AcDbLine
 10
89.437897718
 20
252.7973535671
 30
0.0
 11
92.678627752
 21
252.7973535671
 31
0.0
  0
LINE
  5
1C3
330
97
100
AcDbEntity
  8
$DDT_AUDIT_GENERATED_(1A1)
  6
Continuous
 62
     7
100
AcDbLine
 10
92.678627752
 20
282.7973535671
 30
0.0
 11
89.437897718
 21
282.7973535671
 31
0.0
  0
ARC
  5
1C4
330
97
100
AcDbEntity
  8
$DDT_AUDIT_GENERATED_(1A1)
  6
Continuous
 62
     7
100
AcDbCircle
 10
172.437897718
 20
254.7973535671
 30
0.0
 40
2.0
100
AcDbArc
 50
345.509462551
 51
0.0
  0
ARC
  5
1C5
330
97
100
AcDbEntity
  8
$DDT_AUDIT_GENERATED_(1A1)
  6
Continuous
 62
     7
100
AcDbCircle
 10
172.437897718
 20
280.7973535671
 30
0.0
 40
2.000000000000002
100
AcDbArc
 50
0.0
 51
14.4955397592
  0
ARC
  5
1C6
330
97
100
AcDbEntity
  8
$DDT_AUDIT_GENERATED_(1A1)
  6
Continuous
 62
     7
100
AcDbCircle
 10
81.437897718
 20
254.7973535671
 30
0.0
 40
2.000000000000002
100
AcDbArc
 50
180.0
 51
194.4955397592
  0
ARC
  5
1C7
330
97
100
AcDbEntity
  8
$DDT_AUDIT_GENERATED_(1A1)
  6
Continuous
 62
     7
100
AcDbCircle
 10
81.437897718
 20
280.7973535671
 30
0.0
 40
2.0
100
AcDbArc
 50
165.509462551
 51
180.0
  0
CIRCLE
  5
1C8
330
97
100
AcDbEntity
  8
$DDT_AUDIT_GENERATED_(F5)
  6
Continuous
 62
     7
100
AcDbCircle
 10
100.4213934235
 20
294.3138578616
 30
0.0
 40
3.5
  0
CIRCLE
  5
1C9
330
97
100
AcDbEntity
  8
$DDT_AUDIT_GENERATED_(F5)
  6
Continuous
 62
     7
100
AcDbCircle
 10
100.4213934235
 20
294.3138578616
 30
0.0
 40
4.500000000000001
  0
LINE
  5
1CA
330
97
100
AcDbEntity
  8
$DDT_AUDIT_GENERATED_(F5)
  6
Continuous
 62
     7
100
AcDbLine
 10
100.2217036403
 20
294.5135476448
 30
0.0
 11
98.6241853749
 21
294.5135476448
 31
0.0
  0
LINE
  5
1CB
330
97
100
AcDbEntity
  8
$DDT_AUDIT_GENERATED_(F5)
  6
Continuous
 62
     7
100
AcDbLine
 10
98.6241853749
 20
294.5135476448
 30
0.0
 11
98.6241853749
 21
294.1141680784
 31
0.0
  0
LINE
  5
1CC
330
97
100
AcDbEntity
  8
$DDT_AUDIT_GENERATED_(F5)
  6
Continuous
 62
     7
100
AcDbLine
 10
98.6241853749
 20
294.1141680784
 30
0.0
 11
100.2217036403
 21
294.1141680784
 31
0.0
  0
LINE
  5
1CD
330
97
100
AcDbEntity
  8
$DDT_AUDIT_GENERATED_(F5)
  6
Continuous
 62
     7
100
AcDbLine
 10
100.2217036403
 20
294.1141680784
 30
0.0
 11
100.2217036403
 21
292.516649813
 31
0.0
  0
LINE
  5
1CE
330
97
100
AcDbEntity
  8
$DDT_AUDIT_GENERATED_(F5)
  6
Continuous
 62
     7
100
AcDbLine
 10
100.2217036403
 20
292.516649813
 30
0.0
 11
100.6210832066
 21
292.516649813
 31
0.0
  0
LINE
  5
1CF
330
97
100
AcDbEntity
  8
$DDT_AUDIT_GENERATED_(F5)
  6
Continuous
 62
     7
100
AcDbLine
 10
100.6210832066
 20
292.516649813
 30
0.0
 11
100.6210832066
 21
294.1141680784
 31
0.0
  0
LINE
  5
1D0
330
97
100
AcDbEntity
  8
$DDT_AUDIT_GENERATED_(F5)
  6
Continuous
 62
     7
100
AcDbLine
 10
100.6210832066
 20
294.1141680784
 30
0.0
 11
102.218601472
 21
294.1141680784
 31
0.0
  0
LINE
  5
1D1
330
97
100
AcDbEntity
  8
$DDT_AUDIT_GENERATED_(F5)
  6
Continuous
 62
     7
100
AcDbLine
 10
102.218601472
 20
294.1141680784
 30
0.0
 11
102.218601472
 21
294.5135476448
 31
0.0
  0
LINE
  5
1D2
330
97
100
AcDbEntity
  8
$DDT_AUDIT_GENERATED_(F5)
  6
Continuous
 62
     7
100
AcDbLine
 10
102.218601472
 20
294.5135476448
 30
0.0
 11
100.6210832066
 21
294.5135476448
 31
0.0
  0
LINE
  5
1D3
330
97
100
AcDbEntity
  8
$DDT_AUDIT_GENERATED_(F5)
  6
Continuous
 62
     7
100
AcDbLine
 10
100.6210832066
 20
294.5135476448
 30
0.0
 11
100.6210832066
 21
296.1110659101
 31
0.0
  0
LINE
  5
1D4
330
97
100
AcDbEntity
  8
$DDT_AUDIT_GENERATED_(F5)
  6
Continuous
 62
     7
100
AcDbLine
 10
100.6210832066
 20
296.1110659101
 30
0.0
 11
100.2217036403
 21
296.1110659101
 31
0.0
  0
LINE
  5
1D5
330
97
100
AcDbEntity
  8
$DDT_AUDIT_GENERATED_(F5)
  6
Continuous
 62
     7
100
AcDbLine
 10
100.2217036403
 20
296.1110659101
 30
0.0
 11
100.2217036403
 21
294.5135476448
 31
0.0
  0
CIRCLE
  5
1D6
330
97
100
AcDbEntity
  8
$DDT_AUDIT_GENERATED_(F5)
  6
Continuous
 62
     7
100
AcDbCircle
 10
153.4544020125
 20
241.2808492726
 30
0.0
 40
3.5
  0
CIRCLE
  5
1D7
330
97
100
AcDbEntity
  8
$DDT_AUDIT_GENERATED_(F5)
  6
Continuous
 62
     7
100
AcDbCircle
 10
153.4544020125
 20
241.2808492726
 30
0.0
 40
4.500000000000001
  0
LINE
  5
1D8
330
97
100
AcDbEntity
  8
$DDT_AUDIT_GENERATED_(F5)
  6
Continuous
 62
     7
100
AcDbLine
 10
153.6540917956
 20
241.0811594894
 30
0.0
 11
155.251610061
 21
241.0811594894
 31
0.0
  0
LINE
  5
1D9
330
97
100
AcDbEntity
  8
$DDT_AUDIT_GENERATED_(F5)
  6
Continuous
 62
     7
100
AcDbLine
 10
155.251610061
 20
241.0811594894
 30
0.0
 11
155.251610061
 21
241.4805390558
 31
0.0
  0
LINE
  5
1DA
330
97
100
AcDbEntity
  8
$DDT_AUDIT_GENERATED_(F5)
  6
Continuous
 62
     7
100
AcDbLine
 10
155.251610061
 20
241.4805390558
 30
0.0
 11
153.6540917956
 21
241.4805390558
 31
0.0
  0
LINE
  5
1DB
330
97
100
AcDbEntity
  8
$DDT_AUDIT_GENERATED_(F5)
  6
Continuous
 62
     7
100
AcDbLine
 10
153.6540917956
 20
241.4805390558
 30
0.0
 11
153.6540917956
 21
243.0780573211
 31
0.0
  0
LINE
  5
1DC
330
97
100
AcDbEntity
  8
$DDT_AUDIT_GENERATED_(F5)
  6
Continuous
 62
     7
100
AcDbLine
 10
153.6540917956
 20
243.0780573211
 30
0.0
 11
153.2547122293
 21
243.0780573211
 31
0.0
  0
LINE
  5
1DD
330
97
100
AcDbEntity
  8
$DDT_AUDIT_GENERATED_(F5)
  6
Continuous
 62
     7
100
AcDbLine
 10
153.2547122293
 20
243.0780573211
 30
0.0
 11
153.2547122293
 21
241.4805390558
 31
0.0
  0
LINE
  5
1DE
330
97
100
AcDbEntity
  8
$DDT_AUDIT_GENERATED_(F5)
  6
Continuous
 62
     7
100
AcDbLine
 10
153.2547122293
 20
241.4805390558
 30
0.0
 11
151.6571939639
 21
241.4805390558
 31
0.0
  0
LINE
  5
1DF
330
97
100
AcDbEntity
  8
$DDT_AUDIT_GENERATED_(F5)
  6
Continuous
 62
     7
100
AcDbLine
 10
151.6571939639
 20
241.4805390558
 30
0.0
 11
151.6571939639
 21
241.0811594894
 31
0.0
  0
LINE
  5
1E0
330
97
100
AcDbEntity
  8
$DDT_AUDIT_GENERATED_(F5)
  6
Continuous
 62
     7
100
AcDbLine
 10
151.6571939639
 20
241.0811594894
 30
0.0
 11
153.2547122293
 21
241.0811594894
 31
0.0
  0
LINE
  5
1E1
330
97
100
AcDbEntity
  8
$DDT_AUDIT_GENERATED_(F5)
  6
Continuous
 62
     7
100
AcDbLine
 10
153.2547122293
 20
241.0811594894
 30
0.0
 11
153.2547122293
 21
239.4836412241
 31
0.0
  0
LINE
  5
1E2
330
97
100
AcDbEntity
  8
$DDT_AUDIT_GENERATED_(F5)
  6
Continuous
 62
     7
100
AcDbLine
 10
153.2547122293
 20
239.4836412241
 30
0.0
 11
153.6540917956
 21
239.4836412241
 31
0.0
  0
LINE
  5
1E3
330
97
100
AcDbEntity
  8
$DDT_AUDIT_GENERATED_(F5)
  6
Continuous
 62
     7
100
AcDbLine
 10
153.6540917956
 20
239.4836412241
 30
0.0
 11
153.6540917956
 21
241.0811594894
 31
0.0
  0
CIRCLE
  5
1E4
330
97
100
AcDbEntity
  8
$DDT_AUDIT_GENERATED_(F5)
  6
Continuous
 62
     7
100
AcDbCircle
 10
153.4544020125
 20
294.3138578616
 30
0.0
 40
3.5
  0
CIRCLE
  5
1E5
330
97
100
AcDbEntity
  8
$DDT_AUDIT_GENERATED_(F5)
  6
Continuous
 62
     7
100
AcDbCircle
 10
153.4544020125
 20
294.3138578616
 30
0.0
 40
4.500000000000001
  0
LINE
  5
1E6
330
97
100
AcDbEntity
  8
$DDT_AUDIT_GENERATED_(F5)
  6
Continuous
 62
     7
100
AcDbLine
 10
153.2547122293
 20
294.5135476448
 30
0.0
 11
151.6571939639
 21
294.5135476448
 31
0.0
  0
LINE
  5
1E7
330
97
100
AcDbEntity
  8
$DDT_AUDIT_GENERATED_(F5)
  6
Continuous
 62
     7
100
AcDbLine
 10
151.6571939639
 20
294.5135476448
 30
0.0
 11
151.6571939639
 21
294.1141680784
 31
0.0
  0
LINE
  5
1E8
330
97
100
AcDbEntity
  8
$DDT_AUDIT_GENERATED_(F5)
  6
Continuous
 62
     7
100
AcDbLine
 10
151.6571939639
 20
294.1141680784
 30
0.0
 11
153.2547122293
 21
294.1141680784
 31
0.0
  0
LINE
  5
1E9
330
97
100
AcDbEntity
  8
$DDT_AUDIT_GENERATED_(F5)
  6
Continuous
 62
     7
100
AcDbLine
 10
153.2547122293
 20
294.1141680784
 30
0.0
 11
153.2547122293
 21
292.516649813
 31
0.0
  0
LINE
  5
1EA
330
97
100
AcDbEntity
  8
$DDT_AUDIT_GENERATED_(F5)
  6
Continuous
 62
     7
100
AcDbLine
 10
153.2547122293
 20
292.516649813
 30
0.0
 11
153.6540917956
 21
292.516649813
 31
0.0
  0
LINE
  5
1EB
330
97
100
AcDbEntity
  8
$DDT_AUDIT_GENERATED_(F5)
  6
Continuous
 62
     7
100
AcDbLine
 10
153.6540917956
 20
292.516649813
 30
0.0
 11
153.6540917956
 21
294.1141680784
 31
0.0
  0
LINE
  5
1EC
330
97
100
AcDbEntity
  8
$DDT_AUDIT_GENERATED_(F5)
  6
Continuous
 62
     7
100
AcDbLine
 10
153.6540917956
 20
294.1141680784
 30
0.0
 11
155.251610061
 21
294.1141680784
 31
0.0
  0
LINE
  5
1ED
330
97
100
AcDbEntity
  8
$DDT_AUDIT_GENERATED_(F5)
  6
Continuous
 62
     7
100
AcDbLine
 10
155.251610061
 20
294.1141680784
 30
0.0
 11
155.251610061
 21
294.5135476448
 31
0.0
  0
LINE
  5
1EE
330
97
100
AcDbEntity
  8
$DDT_AUDIT_GENERATED_(F5)
  6
Continuous
 62
     7
100
AcDbLine
 10
155.251610061
 20
294.5135476448
 30
0.0
 11
153.6540917956
 21
294.5135476448
 31
0.0
  0
LINE
  5
1EF
330
97
100
AcDbEntity
  8
$DDT_AUDIT_GENERATED_(F5)
  6
Continuous
 62
     7
100
AcDbLine
 10
153.6540917956
 20
294.5135476448
 30
0.0
 11
153.6540917956
 21
296.1110659101
 31
0.0
  0
LINE
  5
1F0
330
97
100
AcDbEntity
  8
$DDT_AUDIT_GENERATED_(F5)
  6
Continuous
 62
     7
100
AcDbLine
 10
153.6540917956
 20
296.1110659101
 30
0.0
 11
153.2547122293
 21
296.1110659101
 31
0.0
  0
LINE
  5
1F1
330
97
100
AcDbEntity
  8
$DDT_AUDIT_GENERATED_(F5)
  6
Continuous
 62
     7
100
AcDbLine
 10
153.2547122293
 20
296.1110659101
 30
0.0
 11
153.2547122293
 21
294.5135476448
 31
0.0
  0
CIRCLE
  5
1F3
330
97
100
AcDbEntity
  8
$DDT_AUDIT_GENERATED_(1F2)
  6
Continuous
 62
     7
100
AcDbCircle
 10
126.937897718
 20
267.7973535671
 30
0.0
 40
19.25
  0
ENDBLK
  5
1F5
330
97
100
AcDbEntity
  8
0
100
AcDbBlockEnd
  0
BLOCK
  5
339
330
1F6
100
AcDbEntity
  8
0
100
AcDbBlockBegin
  2
SE1
 70
     0
 10
0.0
 20
0.0
 30
0.0
  3
SE1
  1

  0
LINE
  5
1F8
330
1F6
100
AcDbEntity
  8
$DDT_AUDIT_GENERATED_(99)
  6
Continuous
 62
     7
100
AcDbLine
 10
282.0945441555
 20
283.7967443361
 30
0.0
 11
283.742895259
 21
283.8111292783
 31
0.0
  0
ARC
  5
1F9
330
1F6
100
AcDbEntity
  8
$DDT_AUDIT_GENERATED_(99)
  6
Continuous
 62
     7
100
AcDbCircle
 10
282.2341687235
 20
267.7973535671
 30
0.0
 40
16.00000000000001
100
AcDbArc
 50
90.5
 51
269.5
  0
LINE
  5
1FA
330
1F6
100
AcDbEntity
  8
$DDT_AUDIT_GENERATED_(99)
  6
Continuous
 62
     7
100
AcDbLine
 10
254.7341687235
 20
268.2973535671
 30
0.0
 11
254.7341687235
 21
267.2973535671
 31
0.0
  0
LINE
  5
1FB
330
1F6
100
AcDbEntity
  8
$DDT_AUDIT_GENERATED_(99)
  6
Continuous
 62
     7
100
AcDbLine
 10
261.7341687235
 20
267.3584416416
 30
0.0
 11
256.7516217945
 21
267.3149596133
 31
0.0
  0
LINE
  5
1FC
330
1F6
100
AcDbEntity
  8
$DDT_AUDIT_GENERATED_(99)
  6
Continuous
 62
     7
100
AcDbLine
 10
261.7341687235
 20
267.3584416416
 30
0.0
 11
261.7341687235
 21
268.2362654926
 31
0.0
  0
LINE
  5
1FD
330
1F6
100
AcDbEntity
  8
$DDT_AUDIT_GENERATED_(99)
  6
Continuous
 62
     7
100
AcDbLine
 10
256.725442188
 20
268.2799759868
 30
0.0
 11
256.725442188
 21
267.3147311473
 31
0.0
  0
LINE
  5
1FE
330
1F6
100
AcDbEntity
  8
$DDT_AUDIT_GENERATED_(99)
  6
Continuous
 62
     7
100
AcDbLine
 10
255.7341687235
 20
267.3060804349
 30
0.0
 11
255.7341687235
 21
268.2886266993
 31
0.0
  0
LINE
  5
1FF
330
1F6
100
AcDbEntity
  8
$DDT_AUDIT_GENERATED_(99)
  6
Continuous
 62
     7
100
AcDbLine
 10
292.5341687235
 20
294.9633810693
 30
0.0
 11
292.5341687235
 21
291.7565481805
 31
0.0
  0
LINE
  5
200
330
1F6
100
AcDbEntity
  8
$DDT_AUDIT_GENERATED_(99)
  6
Continuous
 62
     7
100
AcDbLine
 10
292.5341687235
 20
294.9633810693
 30
0.0
 11
265.225442188
 21
295.2017007153
 31
0.0
  0
LINE
  5
201
330
1F6
100
AcDbEntity
  8
$DDT_AUDIT_GENERATED_(99)
  6
Continuous
 62
     7
100
AcDbLine
 10
292.5341687235
 20
301.9631145307
 30
0.0
 11
292.5341687235
 21
294.9633810693
 31
0.0
  0
LINE
  5
202
330
1F6
100
AcDbEntity
  8
$DDT_AUDIT_GENERATED_(99)
  6
Continuous
 62
     7
100
AcDbLine
 10
292.5341687235
 20
233.6315926035
 30
0.0
 11
265.225442188
 21
233.3932729575
 31
0.0
  0
LINE
  5
203
330
1F6
100
AcDbEntity
  8
$DDT_AUDIT_GENERATED_(99)
  6
Continuous
 62
     7
100
AcDbLine
 10
292.5341687235
 20
240.6313260649
 30
0.0
 11
292.5341687235
 21
233.6315926035
 31
0.0
  0
LINE
  5
204
330
1F6
100
AcDbEntity
  8
$DDT_AUDIT_GENERATED_(99)
  6
Continuous
 62
     7
100
AcDbLine
 10
256.7516217945
 20
253.7842134334
 30
0.0
 11
263.242895259
 21
253.7445477369
 31
0.0
  0
LINE
  5
205
330
1F6
100
AcDbEntity
  8
$DDT_AUDIT_GENERATED_(99)
  6
Continuous
 62
     7
100
AcDbLine
 10
256.7516217945
 20
267.3149596133
 30
0.0
 11
256.7516217945
 21
253.7842134334
 31
0.0
  0
LINE
  5
206
330
1F6
100
AcDbEntity
  8
$DDT_AUDIT_GENERATED_(99)
  6
Continuous
 62
     7
100
AcDbLine
 10
254.7341687235
 20
253.7842134334
 30
0.0
 11
254.7341687235
 21
267.2973535671
 31
0.0
  0
LINE
  5
207
330
1F6
100
AcDbEntity
  8
$DDT_AUDIT_GENERATED_(99)
  6
Continuous
 62
     7
100
AcDbLine
 10
254.7341687235
 20
267.2973535671
 30
0.0
 11
256.7516217945
 21
267.3149596133
 31
0.0
  0
ELLIPSE
  5
208
330
1F6
100
AcDbEntity
  8
$DDT_AUDIT_GENERATED_(99)
  6
Continuous
 62
     7
100
AcDbEllipse
 10
256.7341687235
 20
253.7846933541
 30
0.0
 11
0.01222135090287899
 21
-7.000205366260885
 31
0.0
210
0.0
220
0.0
230
1.0
 40
0.0024930954
 41
0.3490462627321023
 42
1.570723416110166
  0
LINE
  5
209
330
1F6
100
AcDbEntity
  8
$DDT_AUDIT_GENERATED_(99)
  6
Continuous
 62
     7
100
AcDbLine
 10
256.7516217945
 20
247.2066155522
 30
0.0
 11
256.7516217945
 21
246.2090454179
 31
0.0
  0
LINE
  5
20A
330
1F6
100
AcDbEntity
  8
$DDT_AUDIT_GENERATED_(99)
  6
Continuous
 62
     7
100
AcDbLine
 10
254.7341687235
 20
253.7842134334
 30
0.0
 11
256.7516217945
 21
253.7842134334
 31
0.0
  0
LINE
  5
20B
330
1F6
100
AcDbEntity
  8
$DDT_AUDIT_GENERATED_(99)
  6
Continuous
 62
     7
100
AcDbLine
 10
256.7516217945
 20
268.2797475209
 30
0.0
 11
261.7341687235
 21
268.2362654926
 31
0.0
  0
LINE
  5
20C
330
1F6
100
AcDbEntity
  8
$DDT_AUDIT_GENERATED_(99)
  6
Continuous
 62
     7
100
AcDbLine
 10
256.7516217945
 20
281.8104937008
 30
0.0
 11
256.7516217945
 21
268.2797475209
 31
0.0
  0
LINE
  5
20D
330
1F6
100
AcDbEntity
  8
$DDT_AUDIT_GENERATED_(99)
  6
Continuous
 62
     7
100
AcDbLine
 10
256.7516217945
 20
268.2797475209
 30
0.0
 11
254.7341687235
 21
268.2973535671
 31
0.0
  0
LINE
  5
20E
330
1F6
100
AcDbEntity
  8
$DDT_AUDIT_GENERATED_(99)
  6
Continuous
 62
     7
100
AcDbLine
 10
254.7341687235
 20
281.8104937008
 30
0.0
 11
254.7341687235
 21
289.2886260346
 31
0.0
  0
LINE
  5
20F
330
1F6
100
AcDbEntity
  8
$DDT_AUDIT_GENERATED_(99)
  6
Continuous
 62
     7
100
AcDbLine
 10
254.7341687235
 20
268.2973535671
 30
0.0
 11
254.7341687235
 21
281.8104937008
 31
0.0
  0
LINE
  5
210
330
1F6
100
AcDbEntity
  8
$DDT_AUDIT_GENERATED_(99)
  6
Continuous
 62
     7
100
AcDbLine
 10
256.7516217945
 20
288.388091582
 30
0.0
 11
263.242895259
 21
288.4277572785
 31
0.0
  0
ELLIPSE
  5
211
330
1F6
100
AcDbEntity
  8
$DDT_AUDIT_GENERATED_(99)
  6
Continuous
 62
     7
100
AcDbEllipse
 10
256.7341687235
 20
281.8100137801
 30
0.0
 11
0.0
 21
0.01745966812870947
 31
0.0
210
0.0
220
0.0
230
1.0
 40
1.0
 41
-1.543305470512687
 42
-0.0026532112523365
  0
ELLIPSE
  5
212
330
1F6
100
AcDbEntity
  8
$DDT_AUDIT_GENERATED_(99)
  6
Continuous
 62
     7
100
AcDbEllipse
 10
256.7341687235
 20
290.2674052624
 30
0.0
 11
1.999999999999998
 21
-6.232758045525032E-14
 31
0.0
210
0.0
220
0.0
230
1.0
 40
0.9396926208
 41
3.692601171309811
 42
4.721115626644686
  0
LINE
  5
213
330
1F6
100
AcDbEntity
  8
$DDT_AUDIT_GENERATED_(99)
  6
Continuous
 62
     7
100
AcDbLine
 10
256.7516217945
 20
281.8104937008
 30
0.0
 11
254.7341687235
 21
281.8104937008
 31
0.0
  0
LINE
  5
214
330
1F6
100
AcDbEntity
  8
$DDT_AUDIT_GENERATED_(99)
  6
Continuous
 62
     7
100
AcDbLine
 10
263.242895259
 20
302.2187356016
 30
0.0
 11
254.5367866841
 21
302.2947126602
 31
0.0
  0
LINE
  5
215
330
1F6
100
AcDbEntity
  8
$DDT_AUDIT_GENERATED_(99)
  6
Continuous
 62
     7
100
AcDbLine
 10
265.225442188
 20
302.2014341767
 30
0.0
 11
292.5341687235
 21
301.9631145307
 31
0.0
  0
LINE
  5
216
330
1F6
100
AcDbEntity
  8
$DDT_AUDIT_GENERATED_(99)
  6
Continuous
 62
     7
100
AcDbLine
 10
264.2341687235
 20
289.3674141186
 30
0.0
 11
264.2341687235
 21
287.1217987541
 31
0.0
  0
LINE
  5
217
330
1F6
100
AcDbEntity
  8
$DDT_AUDIT_GENERATED_(99)
  6
Continuous
 62
     7
100
AcDbLine
 10
264.2341687235
 20
290.7028850941
 30
0.0
 11
264.2341687235
 21
289.3674141186
 31
0.0
  0
LINE
  5
218
330
1F6
100
AcDbEntity
  8
$DDT_AUDIT_GENERATED_(99)
  6
Continuous
 62
     7
100
AcDbLine
 10
264.2341687235
 20
301.2187736786
 30
0.0
 11
264.2341687235
 21
290.7028850941
 31
0.0
  0
ELLIPSE
  5
219
330
1F6
100
AcDbEntity
  8
$DDT_AUDIT_GENERATED_(99)
  6
Continuous
 62
     7
100
AcDbEllipse
 10
265.2341687235
 20
295.2010914727
 30
0.0
 11
0.008726643976255262
 21
-7.000342704427457
 31
0.0
210
0.0
220
0.0
230
0.9999999999999999
 40
0.0012464765
 41
3.141580221439291
 42
4.71230039613162
  0
LINE
  5
21A
330
1F6
100
AcDbEntity
  8
$DDT_AUDIT_GENERATED_(99)
  6
Continuous
 62
     7
100
AcDbLine
 10
263.242895259
 20
289.763228254
 30
0.0
 11
254.5367866841
 21
289.6918331727
 31
0.0
  0
LINE
  5
21B
330
1F6
100
AcDbEntity
  8
$DDT_AUDIT_GENERATED_(99)
  6
Continuous
 62
     7
100
AcDbLine
 10
263.242895259
 20
289.763228254
 30
0.0
 11
263.242895259
 21
302.2187356016
 31
0.0
  0
LINE
  5
21C
330
1F6
100
AcDbEntity
  8
$DDT_AUDIT_GENERATED_(99)
  6
Continuous
 62
     7
100
AcDbLine
 10
263.242895259
 20
281.8501593973
 30
0.0
 11
256.7516217945
 21
281.8104937008
 31
0.0
  0
LINE
  5
21D
330
1F6
100
AcDbEntity
  8
$DDT_AUDIT_GENERATED_(99)
  6
Continuous
 62
     7
100
AcDbLine
 10
265.225442188
 20
295.2017007153
 30
0.0
 11
265.225442188
 21
287.1217987541
 31
0.0
  0
LINE
  5
21E
330
1F6
100
AcDbEntity
  8
$DDT_AUDIT_GENERATED_(99)
  6
Continuous
 62
     7
100
AcDbLine
 10
263.242895259
 20
288.4277572785
 30
0.0
 11
263.242895259
 21
289.763228254
 31
0.0
  0
ELLIPSE
  5
21F
330
1F6
100
AcDbEntity
  8
$DDT_AUDIT_GENERATED_(99)
  6
Continuous
 62
     7
100
AcDbEllipse
 10
263.2341687235
 20
281.849732801
 30
0.0
 11
0.0
 21
0.008736956343910175
 31
0.0
210
0.0
220
0.0
230
1.0
 40
1.0
 41
-1.5219502629017
 42
-0.0013266187149292
  0
LINE
  5
220
330
1F6
100
AcDbEntity
  8
$DDT_AUDIT_GENERATED_(99)
  6
Continuous
 62
     7
100
AcDbLine
 10
263.242895259
 20
302.2187356016
 30
0.0
 11
265.225442188
 21
302.2014341767
 31
0.0
  0
SPLINE
  5
221
330
1F6
100
AcDbEntity
  8
$DDT_AUDIT_GENERATED_(99)
  6
Continuous
 62
     7
100
AcDbSpline
210
0.0
220
0.0
230
1.0
 70
     8
 71
     3
 72
    14
 73
    10
 74
     0
 42
0.0000000017530194
 43
0.0000000001
 40
0.0
 40
0.0
 40
0.0
 40
0.0
 40
0.2500000000000012
 40
0.2500000000000012
 40
0.3750000000000008
 40
0.3750000000000008
 40
0.5000000000000006
 40
0.5000000000000006
 40
1.0
 40
1.0
 40
1.0
 40
1.0
 10
265.2254421879595
 20
287.1217987541093
 30
0.0
 10
265.2254421879595
 20
286.6411300336417
 30
0.0
 10
265.152680196702
 20
286.1724935826149
 30
0.0
 10
264.976174904817
 20
285.480678257677
 30
0.0
 10
264.9054125992075
 20
285.2512920168072
 30
0.0
 10
264.7474115088286
 20
284.8020959530299
 30
0.0
 10
264.6600376986607
 20
284.5815410796187
 30
0.0
 10
264.1915446982838
 20
283.4940368180688
 30
0.0
 10
263.7170884224591
 20
282.6715582096806
 30
0.0
 10
263.2428952589563
 20
281.8501593972707
 30
0.0
  0
ARC
  5
222
330
1F6
100
AcDbEntity
  8
$DDT_AUDIT_GENERATED_(99)
  6
Continuous
 62
     7
100
AcDbCircle
 10
239.6627031914
 20
289.013172347
 30
0.0
 40
24.6441516887594
100
AcDbArc
 50
343.1026631223
 51
355.5983718766
  0
LINE
  5
223
330
1F6
100
AcDbEntity
  8
$DDT_AUDIT_GENERATED_(99)
  6
Continuous
 62
     7
100
AcDbLine
 10
264.2341687235
 20
287.1217987541
 30
0.0
 11
265.225442188
 21
287.1217987541
 31
0.0
  0
ELLIPSE
  5
224
330
1F6
100
AcDbEntity
  8
$DDT_AUDIT_GENERATED_(99)
  6
Continuous
 62
     7
100
AcDbEllipse
 10
263.2341687235
 20
289.3674141186
 30
0.0
 11
-1.000000000000003
 21
6.877661563949861E-15
 31
0.0
210
0.0
220
0.0
230
1.0
 40
0.9396926208
 41
1.579522973054841
 42
3.141592653589793
  0
LINE
  5
225
330
1F6
100
AcDbEntity
  8
$DDT_AUDIT_GENERATED_(99)
  6
Continuous
 62
     7
100
AcDbLine
 10
264.2341687235
 20
295.2017007153
 30
0.0
 11
265.225442188
 21
295.2017007153
 31
0.0
  0
ELLIPSE
  5
226
330
1F6
100
AcDbEntity
  8
$DDT_AUDIT_GENERATED_(99)
  6
Continuous
 62
     7
100
AcDbEllipse
 10
263.2341687235
 20
290.7028850941
 30
0.0
 11
-1.000000000000001
 21
-7.000126243864596E-15
 31
0.0
210
0.0
220
0.0
230
1.0
 40
0.9396926208
 41
1.579522973054828
 42
3.141592653589793
  0
ARC
  5
227
330
1F6
100
AcDbEntity
  8
$DDT_AUDIT_GENERATED_(99)
  6
Continuous
 62
     7
100
AcDbCircle
 10
265.313796377
 20
301.1209943574
 30
0.0
 40
1.084046431651253
100
AcDbArc
 50
94.6750245822
 51
174.8249754178
  0
ARC
  5
228
330
1F6
100
AcDbEntity
  8
$DDT_AUDIT_GENERATED_(99)
  6
Continuous
 62
     7
100
AcDbCircle
 10
263.2341687235
 20
301.2187736786
 30
0.0
 40
1.00000000000001
100
AcDbArc
 50
0.0
 51
89.5
  0
LINE
  5
229
330
1F6
100
AcDbEntity
  8
$DDT_AUDIT_GENERATED_(99)
  6
Continuous
 62
     7
100
AcDbLine
 10
264.2341687235
 20
248.4729083801
 30
0.0
 11
264.2341687235
 21
246.2272930155
 31
0.0
  0
LINE
  5
22A
330
1F6
100
AcDbEntity
  8
$DDT_AUDIT_GENERATED_(99)
  6
Continuous
 62
     7
100
AcDbLine
 10
264.2341687235
 20
246.2272930155
 30
0.0
 11
264.2341687235
 21
244.89182204
 31
0.0
  0
LINE
  5
22B
330
1F6
100
AcDbEntity
  8
$DDT_AUDIT_GENERATED_(99)
  6
Continuous
 62
     7
100
AcDbLine
 10
264.2341687235
 20
244.89182204
 30
0.0
 11
264.2341687235
 21
234.3759334556
 31
0.0
  0
LINE
  5
22C
330
1F6
100
AcDbEntity
  8
$DDT_AUDIT_GENERATED_(99)
  6
Continuous
 62
     7
100
AcDbLine
 10
263.242895259
 20
233.3759715325
 30
0.0
 11
254.5367866841
 21
233.299994474
 31
0.0
  0
LINE
  5
22D
330
1F6
100
AcDbEntity
  8
$DDT_AUDIT_GENERATED_(99)
  6
Continuous
 62
     7
100
AcDbLine
 10
263.242895259
 20
245.8314788802
 30
0.0
 11
254.5367866841
 21
245.9028739614
 31
0.0
  0
LINE
  5
22E
330
1F6
100
AcDbEntity
  8
$DDT_AUDIT_GENERATED_(99)
  6
Continuous
 62
     7
100
AcDbLine
 10
263.242895259
 20
233.3759715325
 30
0.0
 11
263.242895259
 21
245.8314788802
 31
0.0
  0
LINE
  5
22F
330
1F6
100
AcDbEntity
  8
$DDT_AUDIT_GENERATED_(99)
  6
Continuous
 62
     7
100
AcDbLine
 10
263.242895259
 20
247.1669498557
 30
0.0
 11
256.7516217945
 21
247.2066155522
 31
0.0
  0
LINE
  5
230
330
1F6
100
AcDbEntity
  8
$DDT_AUDIT_GENERATED_(99)
  6
Continuous
 62
     7
100
AcDbLine
 10
263.242895259
 20
245.8314788802
 30
0.0
 11
263.242895259
 21
247.1669498557
 31
0.0
  0
LINE
  5
231
330
1F6
100
AcDbEntity
  8
$DDT_AUDIT_GENERATED_(99)
  6
Continuous
 62
     7
100
AcDbLine
 10
265.225442188
 20
240.3930064189
 30
0.0
 11
292.5341687235
 21
240.6313260649
 31
0.0
  0
ELLIPSE
  5
232
330
1F6
100
AcDbEntity
  8
$DDT_AUDIT_GENERATED_(99)
  6
Continuous
 62
     7
100
AcDbEllipse
 10
265.2341687235
 20
240.3936156615
 30
0.0
 11
0.0
 21
0.008747776764182119
 31
0.0
210
0.0
220
0.0
230
1.0
 40
1.0
 41
1.640498170744749
 42
3.140346067337157
  0
ELLIPSE
  5
233
330
1F6
100
AcDbEntity
  8
$DDT_AUDIT_GENERATED_(99)
  6
Continuous
 62
     7
100
AcDbEllipse
 10
263.2341687235
 20
253.7449743331
 30
0.0
 11
0.006110580496576727
 21
-7.000168026751091
 31
0.0
210
0.0
220
0.0
230
1.0
 40
0.0012465639
 41
0.3490571444142168
 42
1.570734297787979
  0
LINE
  5
234
330
1F6
100
AcDbEntity
  8
$DDT_AUDIT_GENERATED_(99)
  6
Continuous
 62
     7
100
AcDbLine
 10
265.225442188
 20
248.4729083801
 30
0.0
 11
265.225442188
 21
240.3930064189
 31
0.0
  0
LINE
  5
235
330
1F6
100
AcDbEntity
  8
$DDT_AUDIT_GENERATED_(99)
  6
Continuous
 62
     7
100
AcDbLine
 10
265.225442188
 20
233.3932729575
 30
0.0
 11
263.242895259
 21
233.3759715325
 31
0.0
  0
SPLINE
  5
236
330
1F6
100
AcDbEntity
  8
$DDT_AUDIT_GENERATED_(99)
  6
Continuous
 62
     7
100
AcDbSpline
210
0.0
220
0.0
230
1.0
 70
     8
 71
     3
 72
    14
 73
    10
 74
     0
 42
0.0000000017530194
 43
0.0000000001
 40
0.0
 40
0.0
 40
0.0
 40
0.0
 40
0.4999999999999978
 40
0.4999999999999978
 40
0.6249999999999984
 40
0.6249999999999984
 40
0.749999999999999
 40
0.749999999999999
 40
1.0
 40
1.0
 40
1.0
 40
1.0
 10
263.2428952589563
 20
253.7445477369056
 30
0.0
 10
263.7170884225627
 20
252.9231489245555
 30
0.0
 10
264.1915446982838
 20
252.1006703161075
 30
0.0
 10
264.6600376986607
 20
251.0131660545576
 30
0.0
 10
264.7474115088286
 20
250.7926111811463
 30
0.0
 10
264.9054125992075
 20
250.3434151173691
 30
0.0
 10
264.976174904817
 20
250.1140288764992
 30
0.0
 10
265.152680196702
 20
249.4222135515614
 30
0.0
 10
265.2254421879595
 20
248.9535771005346
 30
0.0
 10
265.2254421879595
 20
248.472908380067
 30
0.0
  0
LINE
  5
237
330
1F6
100
AcDbEntity
  8
$DDT_AUDIT_GENERATED_(99)
  6
Continuous
 62
     7
100
AcDbLine
 10
264.2341687235
 20
248.4729083801
 30
0.0
 11
265.225442188
 21
248.4729083801
 31
0.0
  0
LINE
  5
238
330
1F6
100
AcDbEntity
  8
$DDT_AUDIT_GENERATED_(99)
  6
Continuous
 62
     7
100
AcDbLine
 10
265.225442188
 20
240.3930064189
 30
0.0
 11
264.2341687235
 21
240.3930064189
 31
0.0
  0
ARC
  5
239
330
1F6
100
AcDbEntity
  8
$DDT_AUDIT_GENERATED_(99)
  6
Continuous
 62
     7
100
AcDbCircle
 10
239.6627031914
 20
246.5815347872
 30
0.0
 40
24.64415168875929
100
AcDbArc
 50
4.4016281234
 51
16.8973368777
  0
ARC
  5
23A
330
1F6
100
AcDbEntity
  8
$DDT_AUDIT_GENERATED_(99)
  6
Continuous
 62
     7
100
AcDbCircle
 10
265.313796377
 20
234.4737127768
 30
0.0
 40
1.084046431654062
100
AcDbArc
 50
185.1750245823
 51
265.3249754177
  0
ELLIPSE
  5
23B
330
1F6
100
AcDbEntity
  8
$DDT_AUDIT_GENERATED_(99)
  6
Continuous
 62
     7
100
AcDbEllipse
 10
263.2341687235
 20
246.2272930155
 30
0.0
 11
0.9999999999999991
 21
1.393902014777182E-14
 31
0.0
210
0.0
220
0.0
230
1.0
 40
0.9396926208
 41
0.0000000000000154
 42
1.562069680534946
  0
ELLIPSE
  5
23C
330
1F6
100
AcDbEntity
  8
$DDT_AUDIT_GENERATED_(99)
  6
Continuous
 62
     7
100
AcDbEllipse
 10
263.2341687235
 20
244.89182204
 30
0.0
 11
1.000000000000001
 21
-3.408214611996247E-15
 31
0.0
210
0.0
220
0.0
230
1.0
 40
0.9396926208
 41
0.0
 42
1.562069680534962
  0
ARC
  5
23D
330
1F6
100
AcDbEntity
  8
$DDT_AUDIT_GENERATED_(99)
  6
Continuous
 62
     7
100
AcDbCircle
 10
263.2341687235
 20
234.3759334556
 30
0.0
 40
0.9999999999999961
100
AcDbArc
 50
270.5
 51
0.0
  0
LINE
  5
23E
330
1F6
100
AcDbEntity
  8
$DDT_AUDIT_GENERATED_(99)
  6
Continuous
 62
     7
100
AcDbLine
 10
255.2385319912
 20
233.1833270469
 30
0.0
 11
255.2385319912
 21
228.9355040691
 31
0.0
  0
LINE
  5
23F
330
1F6
100
AcDbEntity
  8
$DDT_AUDIT_GENERATED_(99)
  6
Continuous
 62
     7
100
AcDbLine
 10
255.2385319912
 20
228.9355040691
 30
0.0
 11
268.7385319912
 21
229.0533167843
 31
0.0
  0
ARC
  5
240
330
1F6
100
AcDbEntity
  8
$DDT_AUDIT_GENERATED_(99)
  6
Continuous
 62
     7
100
AcDbCircle
 10
256.7298054557
 20
235.1898422983
 30
0.0
 40
2.500000000000022
100
AcDbArc
 50
233.3796922505
 51
270.5
  0
LINE
  5
241
330
1F6
100
AcDbEntity
  8
$DDT_AUDIT_GENERATED_(99)
  6
Continuous
 62
     7
100
AcDbLine
 10
268.7385319912
 20
229.0533167843
 30
0.0
 11
268.7385319912
 21
232.7945456711
 31
0.0
  0
LINE
  5
242
330
1F6
100
AcDbEntity
  8
$DDT_AUDIT_GENERATED_(99)
  6
Continuous
 62
     7
100
AcDbLine
 10
268.7385319912
 20
232.7945456711
 30
0.0
 11
256.7516217945
 21
232.6899374906
 31
0.0
  0
LINE
  5
243
330
1F6
100
AcDbEntity
  8
$DDT_AUDIT_GENERATED_(99)
  6
Continuous
 62
     7
100
AcDbLine
 10
269.2341687235
 20
232.9326009787
 30
0.0
 11
269.2341687235
 21
228.9239121892
 31
0.0
  0
LINE
  5
244
330
1F6
100
AcDbEntity
  8
$DDT_AUDIT_GENERATED_(99)
  6
Continuous
 62
     7
100
AcDbLine
 10
268.7385319912
 20
228.4239312277
 30
0.0
 11
255.2385319912
 21
228.3061185125
 31
0.0
  0
LINE
  5
245
330
1F6
100
AcDbEntity
  8
$DDT_AUDIT_GENERATED_(99)
  6
Continuous
 62
     7
100
AcDbLine
 10
254.7341687235
 20
228.8060994741
 30
0.0
 11
254.7341687235
 21
233.0539224519
 31
0.0
  0
LINE
  5
246
330
1F6
100
AcDbEntity
  8
$DDT_AUDIT_GENERATED_(99)
  6
Continuous
 62
     7
100
AcDbLine
 10
254.7341687235
 20
233.0539224519
 30
0.0
 11
254.7341687235
 21
233.2988543654
 31
0.0
  0
ELLIPSE
  5
247
330
1F6
100
AcDbEntity
  8
$DDT_AUDIT_GENERATED_(99)
  6
Continuous
 62
     7
100
AcDbEllipse
 10
255.2341687235
 20
228.8060994741
 30
0.0
 11
0.004363267749187069
 21
-0.4999809615320872
 31
0.0
210
0.0
220
0.0
230
1.0
 40
0.0113719071
 41
0.0000000000070042
 42
1.832496472144882
  0
ARC
  5
248
330
1F6
100
AcDbEntity
  8
$DDT_AUDIT_GENERATED_(99)
  6
Continuous
 62
     7
100
AcDbCircle
 10
255.2341687235
 20
228.8060994741
 30
0.0
 40
0.5
100
AcDbArc
 50
180.0
 51
270.5
  0
ARC
  5
249
330
1F6
100
AcDbEntity
  8
$DDT_AUDIT_GENERATED_(99)
  6
Continuous
 62
     7
100
AcDbCircle
 10
268.7341687235
 20
228.9239121892
 30
0.0
 40
0.5000000000000014
100
AcDbArc
 50
270.5
 51
0.0
  0
ELLIPSE
  5
24A
330
1F6
100
AcDbEntity
  8
$DDT_AUDIT_GENERATED_(99)
  6
Continuous
 62
     7
100
AcDbEllipse
 10
268.7341687235
 20
228.9239121892
 30
0.0
 11
0.0
 21
0.5000000000000031
 31
0.0
210
0.0
220
0.0
230
1.0
 40
1.0
 41
3.150319299849844
 42
6.249480048612478
  0
ELLIPSE
  5
24B
330
1F6
100
AcDbEntity
  8
$DDT_AUDIT_GENERATED_(99)
  6
Continuous
 62
     7
100
AcDbEllipse
 10
255.2341687235
 20
228.8060994741
 30
0.0
 11
-0.5000000000000002
 21
-1.390840397779314E-14
 31
0.0
210
0.0
220
0.0
230
1.0
 40
0.2588190451
 41
4.703662334124631
 42
6.283185307179586
  0
ELLIPSE
  5
24C
330
1F6
100
AcDbEntity
  8
$DDT_AUDIT_GENERATED_(99)
  6
Continuous
 62
     7
100
AcDbEllipse
 10
268.7341687235
 20
228.9239121892
 30
0.0
 11
-0.4999999999999987
 21
-6.969510073885912E-15
 31
0.0
210
0.0
220
0.0
230
1.0
 40
0.2588190451
 41
3.141592653589739
 42
4.703662334124634
  0
ELLIPSE
  5
24D
330
1F6
100
AcDbEntity
  8
$DDT_AUDIT_GENERATED_(99)
  6
Continuous
 62
     7
100
AcDbEllipse
 10
255.2341687235
 20
233.0539224519
 30
0.0
 11
-0.5000000000000001
 21
-3.061616997868384E-17
 31
0.0
210
0.0
220
0.0
230
1.0
 40
0.2588190451
 41
4.703662334124638
 42
6.283185307179586
  0
ARC
  5
24E
330
1F6
100
AcDbEntity
  8
$DDT_AUDIT_GENERATED_(99)
  6
Continuous
 62
     7
100
AcDbCircle
 10
269.7341687235
 20
232.9326009787
 30
0.0
 40
0.5000000000000004
100
AcDbArc
 50
90.5
 51
180.0
  0
ELLIPSE
  5
24F
330
1F6
100
AcDbEntity
  8
$DDT_AUDIT_GENERATED_(99)
  6
Continuous
 62
     7
100
AcDbEllipse
 10
268.7341687235
 20
232.9238741109
 30
0.0
 11
0.4999941437094906
 21
0.009353099976752741
 31
0.0
210
0.0
220
0.0
230
0.9999999999999999
 40
0.2587345691
 41
4.71627566716468
 42
6.278345347698993
  0
ARC
  5
250
330
1F6
100
AcDbEntity
  8
$DDT_AUDIT_GENERATED_(99)
  6
Continuous
 62
     7
100
AcDbCircle
 10
260.4349141345
 20
235.5378780544
 30
0.0
 40
5.704936268344845
100
AcDbArc
 50
203.0841017907
 51
204.3759229353
  0
ELLIPSE
  5
251
330
1F6
100
AcDbEntity
  8
$DDT_AUDIT_GENERATED_(99)
  6
Continuous
 62
     7
100
AcDbEllipse
 10
268.742895259
 20
232.9239502662
 30
0.0
 11
0.004363267749187719
 21
-0.4999809615320872
 31
0.0
210
0.0
220
0.0
230
1.0
 40
0.0113719071
 41
3.141592653586686
 42
4.974089125735145
  0
ELLIPSE
  5
252
330
1F6
100
AcDbEntity
  8
$DDT_AUDIT_GENERATED_(99)
  6
Continuous
 62
     7
100
AcDbEllipse
 10
256.7559850622
 20
232.8193420857
 30
0.0
 11
0.0
 21
0.5000000000000031
 31
0.0
210
0.0
220
0.0
230
1.0
 40
1.0
 41
0.0087266462600515
 42
3.107887395022707
  0
LINE
  5
253
330
1F6
100
AcDbEntity
  8
$DDT_AUDIT_GENERATED_(99)
  6
Continuous
 62
     7
100
AcDbLine
 10
292.5341687235
 20
301.9631145307
 30
0.0
 11
292.9341687235
 21
301.9596237836
 31
0.0
  0
LINE
  5
254
330
1F6
100
AcDbEntity
  8
$DDT_AUDIT_GENERATED_(99)
  6
Continuous
 62
     7
100
AcDbLine
 10
292.9341687235
 20
233.6350833506
 30
0.0
 11
292.5341687235
 21
233.6315926035
 31
0.0
  0
ARC
  5
255
330
1F6
100
AcDbEntity
  8
$DDT_AUDIT_GENERATED_(99)
  6
Continuous
 62
     7
100
AcDbCircle
 10
257.4958668418
 20
311.4421136864
 30
0.0
 40
22.05942695566162
100
AcDbArc
 50
262.2910317638
 51
267.7820521799
  0
SPLINE
  5
256
330
1F6
100
AcDbEntity
  8
$DDT_AUDIT_GENERATED_(99)
  6
Continuous
 62
     7
100
AcDbSpline
210
0.0
220
0.0
230
1.0
 70
     8
 71
     3
 72
     8
 73
     4
 74
     0
 42
0.0000000055002888
 43
0.0000000001
 40
0.5026428976390445
 40
0.5026428976390445
 40
0.5026428976390445
 40
0.5026428976390445
 40
0.5220149561826793
 40
0.5220149561826793
 40
0.5220149561826793
 40
0.5220149561826793
 10
255.4936139908099
 20
289.2753705540902
 30
0.0
 10
255.5052914057805
 20
289.2751758655533
 30
0.0
 10
255.5170295782118
 20
289.2750790029383
 30
0.0
 10
255.5288320437767
 20
289.2750782135233
 30
0.0
  0
SPLINE
  5
257
330
1F6
100
AcDbEntity
  8
$DDT_AUDIT_GENERATED_(99)
  6
Continuous
 62
     7
100
AcDbSpline
210
0.0
220
0.0
230
1.0
 70
     8
 71
     3
 72
    14
 73
    10
 74
     0
 42
0.0000000042599782
 43
0.0000000001
 40
0.5220149561826793
 40
0.5220149561826793
 40
0.5220149561826793
 40
0.5220149561826793
 40
0.7500000000000037
 40
0.7500000000000037
 40
0.875000000000002
 40
0.875000000000002
 40
0.937500000000001
 40
0.937500000000001
 40
1.0
 40
1.0
 40
1.0
 40
1.0
 10
255.5288320437767
 20
289.2750782135233
 30
0.0
 10
255.6677323894946
 20
289.2750689230904
 30
0.0
 10
255.8155375678852
 20
289.2883661200073
 30
0.0
 10
256.0670918507636
 20
289.3251327291567
 30
0.0
 10
256.1599711579675
 20
289.3413479829844
 30
0.0
 10
256.3181214451789
 20
289.3671008002134
 30
0.0
 10
256.3739589345109
 20
289.3759129680986
 30
0.0
 10
256.4978308409476
 20
289.3912367853935
 30
0.0
 10
256.5656723206785
 20
289.3977611050794
 30
0.0
 10
256.6421488226015
 20
289.399212716835
 30
0.0
  0
LINE
  5
258
330
1F6
100
AcDbEntity
  8
$DDT_AUDIT_GENERATED_(99)
  6
Continuous
 62
     7
100
AcDbLine
 10
256.7516217945
 20
289.3856617163
 30
0.0
 11
256.7516217945
 21
288.388091582
 31
0.0
  0
SPLINE
  5
259
330
1F6
100
AcDbEntity
  8
$DDT_AUDIT_GENERATED_(99)
  6
Continuous
 62
     7
100
AcDbSpline
210
0.0
220
0.0
230
1.0
 70
     8
 71
     3
 72
    20
 73
    16
 74
     0
 42
0.0000000053414966
 43
0.0000000001
 40
0.0
 40
0.0
 40
0.0
 40
0.0
 40
0.03125
 40
0.03125
 40
0.0625
 40
0.0625
 40
0.125
 40
0.125
 40
0.25
 40
0.25
 40
0.5
 40
0.5
 40
0.75
 40
0.75
 40
0.8889823500251041
 40
0.8889823500251041
 40
0.8889823500251041
 40
0.8889823500251041
 10
256.7516217944546
 20
289.385661716287
 30
0.0
 10
256.7131287149304
 20
289.3881977665703
 30
0.0
 10
256.6734869399052
 20
289.3886097766605
 30
0.0
 10
256.5981338539071
 20
289.3854195754495
 30
0.0
 10
256.5627204187086
 20
289.3819671194378
 30
0.0
 10
256.4659439570523
 20
289.3694456572761
 30
0.0
 10
256.4110983368727
 20
289.3583326427228
 30
0.0
 10
256.2607713474389
 20
289.3258217870097
 30
0.0
 10
256.1764802584721
 20
289.3042189554561
 30
0.0
 10
255.9343771771564
 20
289.2485213780931
 30
0.0
 10
255.7937076858364
 20
289.2233713830879
 30
0.0
 10
255.528526536563
 20
289.2029309839143
 30
0.0
 10
255.4056760603783
 20
289.2073389342359
 30
0.0
 10
255.2302918260505
 20
289.2404794468529
 30
0.0
 10
255.1706843783453
 20
289.2576262795366
 30
0.0
 10
255.1152299979223
 20
289.2804666489218
 30
0.0
  0
ARC
  5
25A
330
1F6
100
AcDbEntity
  8
$DDT_AUDIT_GENERATED_(99)
  6
Continuous
 62
     7
100
AcDbCircle
 10
256.5972603766
 20
288.5876082797
 30
0.0
 40
0.8128448406821344
100
AcDbArc
 50
79.0528949309
 51
86.83429429
  0
ARC
  5
25B
330
1F6
100
AcDbEntity
  8
$DDT_AUDIT_GENERATED_(99)
  6
Continuous
 62
     7
100
AcDbCircle
 10
254.5280324525
 20
246.0629950151
 30
0.0
 40
0.0510984381983267
100
AcDbArc
 50
271.00982207
 51
279.8646292164
  0
LINE
  5
25C
330
1F6
100
AcDbEntity
  8
$DDT_AUDIT_GENERATED_(99)
  6
Continuous
 62
     7
100
AcDbLine
 10
254.2341687235
 20
245.6209769094
 30
0.0
 11
254.2341687235
 21
245.7274939814
 31
0.0
  0
LINE
  5
25D
330
1F6
100
AcDbEntity
  8
$DDT_AUDIT_GENERATED_(99)
  6
Continuous
 62
     7
100
AcDbLine
 10
254.2341687235
 20
233.5999830509
 30
0.0
 11
254.2341687235
 21
245.6209769094
 31
0.0
  0
LINE
  5
25E
330
1F6
100
AcDbEntity
  8
$DDT_AUDIT_GENERATED_(99)
  6
Continuous
 62
     7
100
AcDbLine
 10
254.2341687235
 20
246.0025443882
 30
0.0
 11
254.2341687235
 21
245.7274939814
 31
0.0
  0
LINE
  5
25F
330
1F6
100
AcDbEntity
  8
$DDT_AUDIT_GENERATED_(99)
  6
Continuous
 62
     7
100
AcDbLine
 10
254.5367866841
 20
246.0126520532
 30
0.0
 11
254.5367866841
 21
245.9028739614
 31
0.0
  0
LINE
  5
260
330
1F6
100
AcDbEntity
  8
$DDT_AUDIT_GENERATED_(99)
  6
Continuous
 62
     7
100
AcDbLine
 10
254.5367866841
 20
245.9028739614
 30
0.0
 11
254.5367866841
 21
233.299994474
 31
0.0
  0
ARC
  5
261
330
1F6
100
AcDbEntity
  8
$DDT_AUDIT_GENERATED_(99)
  6
Continuous
 62
     7
100
AcDbCircle
 10
254.5341687235
 20
233.5999830509
 30
0.0
 40
0.2999999999999982
100
AcDbArc
 50
180.0
 51
270.5
  0
ELLIPSE
  5
262
330
1F6
100
AcDbEntity
  8
$DDT_AUDIT_GENERATED_(99)
  6
Continuous
 62
     7
100
AcDbEllipse
 10
254.5341687235
 20
245.6209769094
 30
0.0
 11
-0.3
 21
6.920524201920018E-15
 31
0.0
210
0.0
220
0.0
230
1.0
 40
0.9396926208
 41
4.703662334124868
 42
6.283185307179586
  0
ARC
  5
263
330
1F6
100
AcDbEntity
  8
$DDT_AUDIT_GENERATED_(99)
  6
Continuous
 62
     7
100
AcDbCircle
 10
254.5262668618
 20
245.7197149734
 30
0.0
 40
0.2922017032552322
100
AcDbArc
 50
89.4772081333
 51
178.4744887308
  0
LINE
  5
264
330
1F6
100
AcDbEntity
  8
$DDT_AUDIT_GENERATED_(99)
  6
Continuous
 62
     7
100
AcDbLine
 10
254.5289330015
 20
246.011904513
 30
0.0
 11
254.5289330015
 21
246.3024986967
 31
0.0
  0
ARC
  5
265
330
1F6
100
AcDbEntity
  8
$DDT_AUDIT_GENERATED_(99)
  6
Continuous
 62
     7
100
AcDbCircle
 10
257.4958668418
 20
224.1525934481
 30
0.0
 40
22.05942695531566
100
AcDbArc
 50
92.2179478201
 51
97.7089682363
  0
SPLINE
  5
266
330
1F6
100
AcDbEntity
  8
$DDT_AUDIT_GENERATED_(99)
  6
Continuous
 62
     7
100
AcDbSpline
210
0.0
220
0.0
230
1.0
 70
     8
 71
     3
 72
    14
 73
    10
 74
     0
 42
0.0000000043089614
 43
0.0000000001
 40
0.0
 40
0.0
 40
0.0
 40
0.0
 40
0.0624999999999982
 40
0.0624999999999982
 40
0.1249999999999964
 40
0.1249999999999964
 40
0.249999999999997
 40
0.249999999999997
 40
0.4983989062293397
 40
0.4983989062293397
 40
0.4983989062293397
 40
0.4983989062293397
 10
256.6421488225676
 20
246.1954944173393
 30
0.0
 10
256.5650754429449
 20
246.1969573585228
 30
0.0
 10
256.4967136073997
 20
246.2035803706086
 30
0.0
 10
256.372540532042
 20
246.2189984021659
 30
0.0
 10
256.3172431311668
 20
246.2277453437374
 30
0.0
 10
256.1594877789407
 20
246.2534459752934
 30
0.0
 10
256.0657779619386
 20
246.2697802149638
 30
0.0
 10
255.8011384222614
 20
246.308417995382
 30
0.0
 10
255.6434610788681
 20
246.3217877719187
 30
0.0
 10
255.4943513368783
 20
246.3193488745993
 30
0.0
  0
ELLIPSE
  5
267
330
1F6
100
AcDbEntity
  8
$DDT_AUDIT_GENERATED_(99)
  6
Continuous
 62
     7
100
AcDbEllipse
 10
256.7341687235
 20
245.3273018718
 30
0.0
 11
-1.999999999999994
 21
-6.257250981507979E-14
 31
0.0
210
0.0
220
0.0
230
1.0
 40
0.9396926208
 41
4.703662334124694
 42
5.732176789459517
  0
SPLINE
  5
268
330
1F6
100
AcDbEntity
  8
$DDT_AUDIT_GENERATED_(99)
  6
Continuous
 62
     7
100
AcDbSpline
210
0.0
220
0.0
230
1.0
 70
     8
 71
     3
 72
    14
 73
    10
 74
     0
 42
0.0000000052581337
 43
0.0000000001
 40
0.1456934699301801
 40
0.1456934699301801
 40
0.1456934699301801
 40
0.1456934699301801
 40
0.4999999999999977
 40
0.4999999999999977
 40
0.7499999999999964
 40
0.7499999999999964
 40
0.8749999999999982
 40
0.8749999999999982
 40
1.0
 40
1.0
 40
1.0
 40
1.0
 10
255.156004670186
 20
246.330287190277
 30
0.0
 10
255.3006910968031
 20
246.3813462075757
 30
0.0
 10
255.4708095593608
 20
246.396127767326
 30
0.0
 10
255.7937433063528
 20
246.3714012076876
 30
0.0
 10
255.9362836896161
 20
246.3457877042545
 30
0.0
 10
256.1780677081968
 20
246.2901023746832
 30
0.0
 10
256.2629598116712
 20
246.2683423786902
 30
0.0
 10
256.4635847819557
 20
246.2250946483574
 30
0.0
 10
256.5991364604564
 20
246.1989991841436
 30
0.0
 10
256.7516217944546
 20
246.2090454178893
 30
0.0
  0
LINE
  5
269
330
1F6
100
AcDbEntity
  8
$DDT_AUDIT_GENERATED_(99)
  6
Continuous
 62
     7
100
AcDbLine
 10
254.7341687235
 20
246.3060810996
 30
0.0
 11
254.7341687235
 21
253.7842134334
 31
0.0
  0
ARC
  5
26A
330
1F6
100
AcDbEntity
  8
$DDT_AUDIT_GENERATED_(99)
  6
Continuous
 62
     7
100
AcDbCircle
 10
256.5972603765
 20
247.0070988555
 30
0.0
 40
0.8128448416242763
100
AcDbArc
 50
273.1657057121
 51
280.9471050646
  0
ARC
  5
26B
330
1F6
100
AcDbEntity
  8
$DDT_AUDIT_GENERATED_(99)
  6
Continuous
 62
     7
100
AcDbCircle
 10
254.528074613
 20
289.5321550591
 30
0.0
 40
0.0506548355707856
100
AcDbArc
 50
80.0965200384
 51
89.0290286753
  0
LINE
  5
26C
330
1F6
100
AcDbEntity
  8
$DDT_AUDIT_GENERATED_(99)
  6
Continuous
 62
     7
100
AcDbLine
 10
254.5289330015
 20
289.2922084375
 30
0.0
 11
254.5289330015
 21
289.5828026211
 31
0.0
  0
LINE
  5
26D
330
1F6
100
AcDbEntity
  8
$DDT_AUDIT_GENERATED_(99)
  6
Continuous
 62
     7
100
AcDbLine
 10
254.2341687235
 20
289.9737302248
 30
0.0
 11
254.2341687235
 21
301.9947240832
 31
0.0
  0
LINE
  5
26E
330
1F6
100
AcDbEntity
  8
$DDT_AUDIT_GENERATED_(99)
  6
Continuous
 62
     7
100
AcDbLine
 10
254.2341687235
 20
289.8672131528
 30
0.0
 11
254.2341687235
 21
289.9737302248
 31
0.0
  0
LINE
  5
26F
330
1F6
100
AcDbEntity
  8
$DDT_AUDIT_GENERATED_(99)
  6
Continuous
 62
     7
100
AcDbLine
 10
254.2341687235
 20
289.8672131528
 30
0.0
 11
254.2341687235
 21
289.592162746
 31
0.0
  0
LINE
  5
270
330
1F6
100
AcDbEntity
  8
$DDT_AUDIT_GENERATED_(99)
  6
Continuous
 62
     7
100
AcDbLine
 10
254.5367866841
 20
302.2947126602
 30
0.0
 11
254.5367866841
 21
289.6918331727
 31
0.0
  0
LINE
  5
271
330
1F6
100
AcDbEntity
  8
$DDT_AUDIT_GENERATED_(99)
  6
Continuous
 62
     7
100
AcDbLine
 10
254.5367866841
 20
289.6918331727
 30
0.0
 11
254.5367866841
 21
289.582055081
 31
0.0
  0
ARC
  5
272
330
1F6
100
AcDbEntity
  8
$DDT_AUDIT_GENERATED_(99)
  6
Continuous
 62
     7
100
AcDbCircle
 10
254.5341687235
 20
301.9947240832
 30
0.0
 40
0.2999999999999982
100
AcDbArc
 50
89.5
 51
180.0
  0
ELLIPSE
  5
273
330
1F6
100
AcDbEntity
  8
$DDT_AUDIT_GENERATED_(99)
  6
Continuous
 62
     7
100
AcDbEllipse
 10
254.5341687235
 20
289.9737302248
 30
0.0
 11
0.2999999999999989
 21
6.957263605894440E-15
 31
0.0
210
0.0
220
0.0
230
1.0
 40
0.9396926208
 41
3.141592653589769
 42
4.721115626644511
  0
ARC
  5
274
330
1F6
100
AcDbEntity
  8
$DDT_AUDIT_GENERATED_(99)
  6
Continuous
 62
     7
100
AcDbCircle
 10
254.5262668618
 20
289.8749921608
 30
0.0
 40
0.2922017032552552
100
AcDbArc
 50
181.5255112692
 51
270.5227918667
  0
LINE
  5
275
330
1F6
100
AcDbEntity
  8
$DDT_AUDIT_GENERATED_(99)
  6
Continuous
 62
     7
100
AcDbLine
 10
292.5341687235
 20
235.993658568
 30
0.0
 11
292.9341687235
 21
235.9901678209
 31
0.0
  0
LINE
  5
276
330
1F6
100
AcDbEntity
  8
$DDT_AUDIT_GENERATED_(99)
  6
Continuous
 62
     7
100
AcDbLine
 10
292.9341687235
 20
234.9953658631
 30
0.0
 11
292.5341687235
 21
235.0023473574
 31
0.0
  0
LINE
  5
277
330
1F6
100
AcDbEntity
  8
$DDT_AUDIT_GENERATED_(99)
  6
Continuous
 62
     7
100
AcDbLine
 10
292.9341687235
 20
299.6045393133
 30
0.0
 11
292.5341687235
 21
299.6010485662
 31
0.0
  0
LINE
  5
278
330
1F6
100
AcDbEntity
  8
$DDT_AUDIT_GENERATED_(99)
  6
Continuous
 62
     7
100
AcDbLine
 10
292.5341687235
 20
300.5923597768
 30
0.0
 11
292.9341687235
 21
300.599341271
 31
0.0
  0
ELLIPSE
  5
279
330
1F6
100
AcDbEntity
  8
$DDT_AUDIT_GENERATED_(99)
  6
Continuous
 62
     7
100
AcDbEllipse
 10
285.7341687235
 20
286.5416677868
 30
0.0
 11
-1.991197975151481
 21
-0.01737692147437213
 31
0.0
210
0.0
220
0.0
230
0.9999999999999999
 40
0.5021911109
 41
4.961825745043688
 42
5.234153695054919
  0
ARC
  5
27A
330
1F6
100
AcDbEntity
  8
$DDT_AUDIT_GENERATED_(99)
  6
Continuous
 62
     7
100
AcDbCircle
 10
285.7341687235
 20
286.5416677868
 30
0.0
 40
0.9999999999999996
100
AcDbArc
 50
120.0
 51
180.0
  0
ELLIPSE
  5
27B
330
1F6
100
AcDbEntity
  8
$DDT_AUDIT_GENERATED_(99)
  6
Continuous
 62
     7
100
AcDbEllipse
 10
285.7341687235
 20
249.0530393473
 30
0.0
 11
-1.991197975151477
 21
0.01737692147437189
 31
0.0
210
0.0
220
0.0
230
0.9999999999999999
 40
0.5021911109
 41
1.049031612124666
 42
1.321359562135898
  0
ARC
  5
27C
330
1F6
100
AcDbEntity
  8
$DDT_AUDIT_GENERATED_(99)
  6
Continuous
 62
     7
100
AcDbCircle
 10
285.7341687235
 20
249.0530393473
 30
0.0
 40
0.9999999999999974
100
AcDbArc
 50
180.0
 51
240.0
  0
LINE
  5
27D
330
1F6
100
AcDbEntity
  8
$DDT_AUDIT_GENERATED_(99)
  6
Continuous
 62
     7
100
AcDbLine
 10
284.7341687235
 20
284.8110912013
 30
0.0
 11
284.7341687235
 21
289.6550041478
 31
0.0
  0
LINE
  5
27E
330
1F6
100
AcDbEntity
  8
$DDT_AUDIT_GENERATED_(99)
  6
Continuous
 62
     7
100
AcDbLine
 10
283.742895259
 20
251.7835778559
 30
0.0
 11
282.0945441555
 21
251.7979627981
 31
0.0
  0
ARC
  5
27F
330
1F6
100
AcDbEntity
  8
$DDT_AUDIT_GENERATED_(99)
  6
Continuous
 62
     7
100
AcDbCircle
 10
283.7341687235
 20
250.7836159328
 30
0.0
 40
1.000000000000001
100
AcDbArc
 50
0.0
 51
89.5
  0
ARC
  5
280
330
1F6
100
AcDbEntity
  8
$DDT_AUDIT_GENERATED_(99)
  6
Continuous
 62
     7
100
AcDbCircle
 10
283.7341687235
 20
284.8110912013
 30
0.0
 40
0.9999999999999961
100
AcDbArc
 50
270.5
 51
0.0
  0
LINE
  5
281
330
1F6
100
AcDbEntity
  8
$DDT_AUDIT_GENERATED_(99)
  6
Continuous
 62
     7
100
AcDbLine
 10
285.716716317
 20
246.0001496713
 30
0.0
 11
285.716716317
 21
245.9397029864
 31
0.0
  0
LINE
  5
282
330
1F6
100
AcDbEntity
  8
$DDT_AUDIT_GENERATED_(99)
  6
Continuous
 62
     7
100
AcDbLine
 10
285.716716317
 20
245.9397029864
 30
0.0
 11
285.8382366922
 21
245.9375818403
 31
0.0
  0
LINE
  5
283
330
1F6
100
AcDbEntity
  8
$DDT_AUDIT_GENERATED_(99)
  6
Continuous
 62
     7
100
AcDbLine
 10
284.7341687235
 20
245.9397029864
 30
0.0
 11
284.7341687235
 21
250.7836159328
 31
0.0
  0
LINE
  5
284
330
1F6
100
AcDbEntity
  8
$DDT_AUDIT_GENERATED_(99)
  6
Continuous
 62
     7
100
AcDbLine
 10
292.5341687235
 20
243.8381589537
 30
0.0
 11
292.5341687235
 21
240.6313260649
 31
0.0
  0
LINE
  5
285
330
1F6
100
AcDbEntity
  8
$DDT_AUDIT_GENERATED_(99)
  6
Continuous
 62
     7
100
AcDbLine
 10
292.5341687235
 20
243.8381589537
 30
0.0
 11
292.5341687235
 21
245.6060423565
 31
0.0
  0
LINE
  5
286
330
1F6
100
AcDbEntity
  8
$DDT_AUDIT_GENERATED_(99)
  6
Continuous
 62
     7
100
AcDbLine
 10
285.716716317
 20
244.9398552912
 30
0.0
 11
291.5516211299
 21
244.8380066488
 31
0.0
  0
ARC
  5
287
330
1F6
100
AcDbEntity
  8
$DDT_AUDIT_GENERATED_(99)
  6
Continuous
 62
     7
100
AcDbCircle
 10
291.5341687235
 20
243.8381589537
 30
0.0
 40
0.999999999999994
100
AcDbArc
 50
0.0
 51
89.0
  0
LINE
  5
288
330
1F6
100
AcDbEntity
  8
$DDT_AUDIT_GENERATED_(99)
  6
Continuous
 62
     7
100
AcDbLine
 10
284.7341687235
 20
248.0617281367
 30
0.0
 11
285.2341687235
 21
248.0573647028
 31
0.0
  0
ARC
  5
289
330
1F6
100
AcDbEntity
  8
$DDT_AUDIT_GENERATED_(99)
  6
Continuous
 62
     7
100
AcDbCircle
 10
285.7341687235
 20
245.9397029864
 30
0.0
 40
1.000000000000005
100
AcDbArc
 50
180.0
 51
269.0
  0
ELLIPSE
  5
28A
330
1F6
100
AcDbEntity
  8
$DDT_AUDIT_GENERATED_(99)
  6
Continuous
 62
     7
100
AcDbEllipse
 10
285.7341687235
 20
245.9397029864
 30
0.0
 11
0.01745240643728074
 21
0.999847695156396
 31
0.0
210
0.0
220
0.0
230
1.0
 40
0.0174497492
 41
1.571100913290058
 42
3.141592653587867
  0
LINE
  5
28B
330
1F6
100
AcDbEntity
  8
$DDT_AUDIT_GENERATED_(99)
  6
Continuous
 62
     7
100
AcDbLine
 10
284.7341687235
 20
245.9397029864
 30
0.0
 11
285.716716317
 21
245.9397029864
 31
0.0
  0
ELLIPSE
  5
28C
330
1F6
100
AcDbEntity
  8
$DDT_AUDIT_GENERATED_(99)
  6
Continuous
 62
     7
100
AcDbEllipse
 10
291.5341687235
 20
245.8384636098
 30
0.0
 11
-0.01746302178853166
 21
1.000456960987967
 31
0.0
210
0.0
220
0.0
230
0.9999999999999999
 40
0.0174285023
 41
3.140984037324813
 42
4.711475777592494
  0
LINE
  5
28D
330
1F6
100
AcDbEntity
  8
$DDT_AUDIT_GENERATED_(99)
  6
Continuous
 62
     7
100
AcDbLine
 10
284.7341687235
 20
247.0704169261
 30
0.0
 11
285.2341687235
 21
247.0616900584
 31
0.0
  0
LINE
  5
28E
330
1F6
100
AcDbEntity
  8
$DDT_AUDIT_GENERATED_(99)
  6
Continuous
 62
     7
100
AcDbLine
 10
285.716716317
 20
289.6550041478
 30
0.0
 11
285.716716317
 21
289.5945574629
 31
0.0
  0
LINE
  5
28F
330
1F6
100
AcDbEntity
  8
$DDT_AUDIT_GENERATED_(99)
  6
Continuous
 62
     7
100
AcDbLine
 10
285.8382366922
 20
289.6571252939
 30
0.0
 11
285.716716317
 21
289.6550041478
 31
0.0
  0
LINE
  5
290
330
1F6
100
AcDbEntity
  8
$DDT_AUDIT_GENERATED_(99)
  6
Continuous
 62
     7
100
AcDbLine
 10
292.5341687235
 20
289.9886647777
 30
0.0
 11
292.5341687235
 21
291.7565481805
 31
0.0
  0
LINE
  5
291
330
1F6
100
AcDbEntity
  8
$DDT_AUDIT_GENERATED_(99)
  6
Continuous
 62
     7
100
AcDbLine
 10
291.5516211299
 20
290.7567004853
 30
0.0
 11
285.716716317
 21
290.654851843
 31
0.0
  0
ARC
  5
292
330
1F6
100
AcDbEntity
  8
$DDT_AUDIT_GENERATED_(99)
  6
Continuous
 62
     7
100
AcDbCircle
 10
291.5341687235
 20
291.7565481805
 30
0.0
 40
1.000000000000004
100
AcDbArc
 50
271.0
 51
0.0
  0
LINE
  5
293
330
1F6
100
AcDbEntity
  8
$DDT_AUDIT_GENERATED_(99)
  6
Continuous
 62
     7
100
AcDbLine
 10
285.2341687235
 20
287.5373424313
 30
0.0
 11
284.7341687235
 21
287.5329789974
 31
0.0
  0
ARC
  5
294
330
1F6
100
AcDbEntity
  8
$DDT_AUDIT_GENERATED_(99)
  6
Continuous
 62
     7
100
AcDbCircle
 10
285.7341687235
 20
289.6550041478
 30
0.0
 40
0.9999999999999974
100
AcDbArc
 50
91.0
 51
180.0
  0
LINE
  5
295
330
1F6
100
AcDbEntity
  8
$DDT_AUDIT_GENERATED_(99)
  6
Continuous
 62
     7
100
AcDbLine
 10
285.716716317
 20
289.6550041478
 30
0.0
 11
284.7341687235
 21
289.6550041478
 31
0.0
  0
ELLIPSE
  5
296
330
1F6
100
AcDbEntity
  8
$DDT_AUDIT_GENERATED_(99)
  6
Continuous
 62
     7
100
AcDbEllipse
 10
285.7341687235
 20
289.6550041478
 30
0.0
 11
-0.01745240643728086
 21
0.9998476951564029
 31
0.0
210
0.0
220
0.0
230
1.0
 40
0.0174497492
 41
0.0000000000018688
 42
1.570491740299735
  0
LINE
  5
297
330
1F6
100
AcDbEntity
  8
$DDT_AUDIT_GENERATED_(99)
  6
Continuous
 62
     7
100
AcDbLine
 10
285.2341687235
 20
288.5330170758
 30
0.0
 11
284.7341687235
 21
288.524290208
 31
0.0
  0
ELLIPSE
  5
298
330
1F6
100
AcDbEntity
  8
$DDT_AUDIT_GENERATED_(99)
  6
Continuous
 62
     7
100
AcDbEllipse
 10
291.5341687235
 20
289.7562435244
 30
0.0
 11
-0.01746302178853153
 21
-1.00045696098796
 31
0.0
210
0.0
220
0.0
230
0.9999999999999999
 40
0.0174285023
 41
1.57170952958715
 42
3.142201269838355
  0
LINE
  5
299
330
1F6
100
AcDbEntity
  8
$DDT_AUDIT_GENERATED_(99)
  6
Continuous
 62
     7
100
AcDbLine
 10
254.5289330015
 20
289.2922084375
 30
0.0
 11
255.4978137944
 21
289.2752965603
 31
0.0
  0
ARC
  5
29A
330
1F6
100
AcDbEntity
  8
$DDT_AUDIT_GENERATED_(99)
  6
Continuous
 62
     7
100
AcDbCircle
 10
254.5341687235
 20
246.0025443882
 30
0.0
 40
0.3000000000000008
100
AcDbArc
 50
91.0
 51
180.0
  0
LINE
  5
29B
330
1F6
100
AcDbEntity
  8
$DDT_AUDIT_GENERATED_(99)
  6
Continuous
 62
     7
100
AcDbLine
 10
255.5013302074
 20
246.3194719531
 30
0.0
 11
254.5289330015
 21
246.3024986967
 31
0.0
  0
ARC
  5
29C
330
1F6
100
AcDbEntity
  8
$DDT_AUDIT_GENERATED_(99)
  6
Continuous
 62
     7
100
AcDbCircle
 10
254.5341687235
 20
289.592162746
 30
0.0
 40
0.3
100
AcDbArc
 50
180.0
 51
269.0
  0
ARC
  5
29E
330
1F6
100
AcDbEntity
  8
$DDT_AUDIT_GENERATED_(29D)
  6
Continuous
 62
     7
100
AcDbCircle
 10
293.5341687235
 20
298.0638578616
 30
0.0
 40
0.9999999999999974
100
AcDbArc
 50
126.8698976458
 51
180.0
  0
ARC
  5
29F
330
1F6
100
AcDbEntity
  8
$DDT_AUDIT_GENERATED_(29D)
  6
Continuous
 62
     7
100
AcDbCircle
 10
293.5341687235
 20
290.5638578616
 30
0.0
 40
1.000000000000001
100
AcDbArc
 50
180.0
 51
208.1148750737
  0
LINE
  5
2A0
330
1F6
100
AcDbEntity
  8
$DDT_AUDIT_GENERATED_(104)
  6
Continuous
 62
     7
100
AcDbLine
 10
298.5341687235
 20
292.3488904632
 30
0.0
 11
314.9341687235
 21
292.4833798647
 31
0.0
  0
LINE
  5
2A1
330
1F6
100
AcDbEntity
  8
$DDT_AUDIT_GENERATED_(104)
  6
Continuous
 62
     7
100
AcDbLine
 10
298.5341687235
 20
302.0473535671
 30
0.0
 11
314.9341687235
 21
301.9042329353
 31
0.0
  0
LINE
  5
2A2
330
1F6
100
AcDbEntity
  8
$DDT_AUDIT_GENERATED_(104)
  6
Continuous
 62
     7
100
AcDbLine
 10
298.5341687235
 20
292.3488904632
 30
0.0
 11
298.5341687235
 21
302.0473535671
 31
0.0
  0
LINE
  5
2A3
330
1F6
100
AcDbEntity
  8
$DDT_AUDIT_GENERATED_(104)
  6
Continuous
 62
     7
100
AcDbLine
 10
314.9341687235
 20
292.4833798647
 30
0.0
 11
314.9341687235
 21
301.9042329353
 31
0.0
  0
LINE
  5
2A4
330
1F6
100
AcDbEntity
  8
$DDT_AUDIT_GENERATED_(104)
  6
Continuous
 62
     7
100
AcDbLine
 10
314.9341687235
 20
290.5295583209
 30
0.0
 11
314.9341687235
 21
292.4833798647
 31
0.0
  0
LINE
  5
2A5
330
1F6
100
AcDbEntity
  8
$DDT_AUDIT_GENERATED_(104)
  6
Continuous
 62
     7
100
AcDbLine
 10
306.4385319912
 20
290.4598892294
 30
0.0
 11
314.9341687235
 21
290.5295583209
 31
0.0
  0
LINE
  5
2A6
330
1F6
100
AcDbEntity
  8
$DDT_AUDIT_GENERATED_(104)
  6
Continuous
 62
     7
100
AcDbLine
 10
314.9341687235
 20
290.4778821719
 30
0.0
 11
314.9341687235
 21
290.5295583209
 31
0.0
  0
LINE
  5
2A7
330
1F6
100
AcDbEntity
  8
$DDT_AUDIT_GENERATED_(104)
  6
Continuous
 62
     7
100
AcDbLine
 10
298.5341687235
 20
233.5473535671
 30
0.0
 11
314.9341687235
 21
233.6904741989
 31
0.0
  0
LINE
  5
2A8
330
1F6
100
AcDbEntity
  8
$DDT_AUDIT_GENERATED_(104)
  6
Continuous
 62
     7
100
AcDbLine
 10
298.5341687235
 20
243.245816671
 30
0.0
 11
314.9341687235
 21
243.1113272695
 31
0.0
  0
LINE
  5
2A9
330
1F6
100
AcDbEntity
  8
$DDT_AUDIT_GENERATED_(104)
  6
Continuous
 62
     7
100
AcDbLine
 10
298.5341687235
 20
233.5473535671
 30
0.0
 11
298.5341687235
 21
243.245816671
 31
0.0
  0
LINE
  5
2AA
330
1F6
100
AcDbEntity
  8
$DDT_AUDIT_GENERATED_(104)
  6
Continuous
 62
     7
100
AcDbLine
 10
298.5341687235
 20
243.245816671
 30
0.0
 11
298.5341687235
 21
248.4033938006
 31
0.0
  0
LINE
  5
2AB
330
1F6
100
AcDbEntity
  8
$DDT_AUDIT_GENERATED_(104)
  6
Continuous
 62
     7
100
AcDbLine
 10
314.9341687235
 20
233.6904741989
 30
0.0
 11
314.9341687235
 21
243.1113272695
 31
0.0
  0
LINE
  5
2AC
330
1F6
100
AcDbEntity
  8
$DDT_AUDIT_GENERATED_(104)
  6
Continuous
 62
     7
100
AcDbLine
 10
314.9341687235
 20
243.1113272695
 30
0.0
 11
314.9341687235
 21
245.0651488133
 31
0.0
  0
LINE
  5
2AD
330
1F6
100
AcDbEntity
  8
$DDT_AUDIT_GENERATED_(104)
  6
Continuous
 62
     7
100
AcDbLine
 10
314.9341687235
 20
245.0651488133
 30
0.0
 11
306.4385319912
 21
245.1348179047
 31
0.0
  0
LINE
  5
2AE
330
1F6
100
AcDbEntity
  8
$DDT_AUDIT_GENERATED_(104)
  6
Continuous
 62
     7
100
AcDbLine
 10
314.9341687235
 20
245.0651488133
 30
0.0
 11
314.9341687235
 21
245.1168249623
 31
0.0
  0
LINE
  5
2AF
330
1F6
100
AcDbEntity
  8
$DDT_AUDIT_GENERATED_(104)
  6
Continuous
 62
     7
100
AcDbLine
 10
307.2341687235
 20
268.7214298173
 30
0.0
 11
306.9341687235
 21
268.7240478776
 31
0.0
  0
LINE
  5
2B0
330
1F6
100
AcDbEntity
  8
$DDT_AUDIT_GENERATED_(104)
  6
Continuous
 62
     7
100
AcDbLine
 10
307.2341687235
 20
267.7973535671
 30
0.0
 11
306.9341687235
 21
267.7973535671
 31
0.0
  0
LINE
  5
2B1
330
1F6
100
AcDbEntity
  8
$DDT_AUDIT_GENERATED_(104)
  6
Continuous
 62
     7
100
AcDbLine
 10
307.2341687235
 20
266.8732773169
 30
0.0
 11
306.9341687235
 21
266.8706592565
 31
0.0
  0
LINE
  5
2B2
330
1F6
100
AcDbEntity
  8
$DDT_AUDIT_GENERATED_(104)
  6
Continuous
 62
     7
100
AcDbLine
 10
307.2341687235
 20
268.7214298173
 30
0.0
 11
307.2341687235
 21
267.7973535671
 31
0.0
  0
LINE
  5
2B3
330
1F6
100
AcDbEntity
  8
$DDT_AUDIT_GENERATED_(104)
  6
Continuous
 62
     7
100
AcDbLine
 10
307.2341687235
 20
267.7973535671
 30
0.0
 11
307.2341687235
 21
266.8732773169
 31
0.0
  0
LINE
  5
2B4
330
1F6
100
AcDbEntity
  8
$DDT_AUDIT_GENERATED_(104)
  6
Continuous
 62
     7
100
AcDbLine
 10
292.9341687235
 20
301.9984831075
 30
0.0
 11
298.5341687235
 21
302.0473535671
 31
0.0
  0
LINE
  5
2B5
330
1F6
100
AcDbEntity
  8
$DDT_AUDIT_GENERATED_(104)
  6
Continuous
 62
     7
100
AcDbLine
 10
292.9341687235
 20
294.998749646
 30
0.0
 11
292.9341687235
 21
290.7886647777
 31
0.0
  0
LINE
  5
2B6
330
1F6
100
AcDbEntity
  8
$DDT_AUDIT_GENERATED_(104)
  6
Continuous
 62
     7
100
AcDbLine
 10
298.5341687235
 20
295.0476201056
 30
0.0
 11
292.9341687235
 21
294.998749646
 31
0.0
  0
LINE
  5
2B7
330
1F6
100
AcDbEntity
  8
$DDT_AUDIT_GENERATED_(104)
  6
Continuous
 62
     7
100
AcDbLine
 10
292.9341687235
 20
294.998749646
 30
0.0
 11
292.9341687235
 21
301.9984831075
 31
0.0
  0
LINE
  5
2B8
330
1F6
100
AcDbEntity
  8
$DDT_AUDIT_GENERATED_(104)
  6
Continuous
 62
     7
100
AcDbLine
 10
292.9341687235
 20
240.5959574882
 30
0.0
 11
298.5341687235
 21
240.5470830507
 31
0.0
  0
LINE
  5
2B9
330
1F6
100
AcDbEntity
  8
$DDT_AUDIT_GENERATED_(104)
  6
Continuous
 62
     7
100
AcDbLine
 10
298.5341687235
 20
233.5473535671
 30
0.0
 11
292.9341687235
 21
233.5962240267
 31
0.0
  0
LINE
  5
2BA
330
1F6
100
AcDbEntity
  8
$DDT_AUDIT_GENERATED_(104)
  6
Continuous
 62
     7
100
AcDbLine
 10
292.9341687235
 20
233.5962240267
 30
0.0
 11
292.9341687235
 21
240.5959574882
 31
0.0
  0
LINE
  5
2BB
330
1F6
100
AcDbEntity
  8
$DDT_AUDIT_GENERATED_(104)
  6
Continuous
 62
     7
100
AcDbLine
 10
292.9341687235
 20
244.8060423565
 30
0.0
 11
292.9341687235
 21
240.5959574882
 31
0.0
  0
ARC
  5
2BC
330
1F6
100
AcDbEntity
  8
$DDT_AUDIT_GENERATED_(104)
  6
Continuous
 62
     7
100
AcDbCircle
 10
291.9341687235
 20
244.8060423565
 30
0.0
 40
0.9999999999999996
100
AcDbArc
 50
0.0
 51
89.5
  0
LINE
  5
2BD
330
1F6
100
AcDbEntity
  8
$DDT_AUDIT_GENERATED_(104)
  6
Continuous
 62
     7
100
AcDbLine
 10
285.2341687235
 20
246.8558616597
 30
0.0
 11
285.2341687235
 21
251.4037572563
 31
0.0
  0
LINE
  5
2BE
330
1F6
100
AcDbEntity
  8
$DDT_AUDIT_GENERATED_(104)
  6
Continuous
 62
     7
100
AcDbLine
 10
286.225442188
 20
245.8558997366
 30
0.0
 11
291.942895259
 21
245.8060042796
 31
0.0
  0
ARC
  5
2BF
330
1F6
100
AcDbEntity
  8
$DDT_AUDIT_GENERATED_(104)
  6
Continuous
 62
     7
100
AcDbCircle
 10
286.2341687235
 20
246.8558616597
 30
0.0
 40
0.9999999999999974
100
AcDbArc
 50
180.0
 51
269.5
  0
ARC
  5
2C0
330
1F6
100
AcDbEntity
  8
$DDT_AUDIT_GENERATED_(104)
  6
Continuous
 62
     7
100
AcDbCircle
 10
291.9341687235
 20
290.7886647777
 30
0.0
 40
1.000000000000001
100
AcDbArc
 50
270.5
 51
0.0
  0
LINE
  5
2C1
330
1F6
100
AcDbEntity
  8
$DDT_AUDIT_GENERATED_(104)
  6
Continuous
 62
     7
100
AcDbLine
 10
286.225442188
 20
289.7388073976
 30
0.0
 11
291.942895259
 21
289.7887028546
 31
0.0
  0
ARC
  5
2C2
330
1F6
100
AcDbEntity
  8
$DDT_AUDIT_GENERATED_(104)
  6
Continuous
 62
     7
100
AcDbCircle
 10
286.2341687235
 20
288.7388454745
 30
0.0
 40
0.9999999999999996
100
AcDbArc
 50
90.5
 51
180.0
  0
LINE
  5
2C3
330
1F6
100
AcDbEntity
  8
$DDT_AUDIT_GENERATED_(104)
  6
Continuous
 62
     7
100
AcDbLine
 10
285.2341687235
 20
284.1909498778
 30
0.0
 11
285.2341687235
 21
288.7388454745
 31
0.0
  0
ARC
  5
2C4
330
1F6
100
AcDbEntity
  8
$DDT_AUDIT_GENERATED_(104)
  6
Continuous
 62
     7
100
AcDbCircle
 10
281.7341687235
 20
267.7973535671
 30
0.0
 40
16.0
100
AcDbArc
 50
285.349477017
 51
74.650522983
  0
ARC
  5
2C5
330
1F6
100
AcDbEntity
  8
$DDT_AUDIT_GENERATED_(104)
  6
Continuous
 62
     7
100
AcDbCircle
 10
286.2341687235
 20
284.1909498778
 30
0.0
 40
1.000000000000004
100
AcDbArc
 50
180.0
 51
254.650522983
  0
ARC
  5
2C6
330
1F6
100
AcDbEntity
  8
$DDT_AUDIT_GENERATED_(104)
  6
Continuous
 62
     7
100
AcDbCircle
 10
286.2341687235
 20
251.4037572563
 30
0.0
 40
1.0
100
AcDbArc
 50
105.349477017
 51
180.0
  0
LINE
  5
2C7
330
1F6
100
AcDbEntity
  8
$DDT_AUDIT_GENERATED_(104)
  6
Continuous
 62
     7
100
AcDbLine
 10
298.5341687235
 20
253.1016780014
 30
0.0
 11
306.4385319912
 21
253.0533774521
 31
0.0
  0
LINE
  5
2C8
330
1F6
100
AcDbEntity
  8
$DDT_AUDIT_GENERATED_(104)
  6
Continuous
 62
     7
100
AcDbLine
 10
298.5341687235
 20
248.4033938006
 30
0.0
 11
298.5341687235
 21
253.1016780014
 31
0.0
  0
LINE
  5
2C9
330
1F6
100
AcDbEntity
  8
$DDT_AUDIT_GENERATED_(104)
  6
Continuous
 62
     7
100
AcDbLine
 10
298.5341687235
 20
287.1913133336
 30
0.0
 11
298.5341687235
 21
292.3488904632
 31
0.0
  0
LINE
  5
2CA
330
1F6
100
AcDbEntity
  8
$DDT_AUDIT_GENERATED_(104)
  6
Continuous
 62
     7
100
AcDbLine
 10
298.5341687235
 20
287.1913133336
 30
0.0
 11
306.4385319912
 21
287.2396138829
 31
0.0
  0
LINE
  5
2CB
330
1F6
100
AcDbEntity
  8
$DDT_AUDIT_GENERATED_(104)
  6
Continuous
 62
     7
100
AcDbLine
 10
298.5341687235
 20
282.4930291328
 30
0.0
 11
298.5341687235
 21
253.1016780014
 31
0.0
  0
LINE
  5
2CC
330
1F6
100
AcDbEntity
  8
$DDT_AUDIT_GENERATED_(104)
  6
Continuous
 62
     7
100
AcDbLine
 10
298.5341687235
 20
282.4930291328
 30
0.0
 11
298.5341687235
 21
287.1913133336
 31
0.0
  0
LINE
  5
2CD
330
1F6
100
AcDbEntity
  8
$DDT_AUDIT_GENERATED_(104)
  6
Continuous
 62
     7
100
AcDbLine
 10
306.4385319912
 20
287.2396138829
 30
0.0
 11
306.4385319912
 21
290.4598892294
 31
0.0
  0
LINE
  5
2CE
330
1F6
100
AcDbEntity
  8
$DDT_AUDIT_GENERATED_(104)
  6
Continuous
 62
     7
100
AcDbLine
 10
306.9341687235
 20
247.8852648312
 30
0.0
 11
306.9341687235
 21
245.1866399046
 31
0.0
  0
LINE
  5
2CF
330
1F6
100
AcDbEntity
  8
$DDT_AUDIT_GENERATED_(104)
  6
Continuous
 62
     7
100
AcDbLine
 10
306.9341687235
 20
253.0533774521
 30
0.0
 11
306.9341687235
 21
247.8852648312
 31
0.0
  0
LINE
  5
2D0
330
1F6
100
AcDbEntity
  8
$DDT_AUDIT_GENERATED_(104)
  6
Continuous
 62
     7
100
AcDbLine
 10
306.9341687235
 20
282.5413296821
 30
0.0
 11
306.9341687235
 21
253.0533774521
 31
0.0
  0
LINE
  5
2D1
330
1F6
100
AcDbEntity
  8
$DDT_AUDIT_GENERATED_(104)
  6
Continuous
 62
     7
100
AcDbLine
 10
306.9341687235
 20
287.709442303
 30
0.0
 11
306.9341687235
 21
282.5413296821
 31
0.0
  0
LINE
  5
2D2
330
1F6
100
AcDbEntity
  8
$DDT_AUDIT_GENERATED_(104)
  6
Continuous
 62
     7
100
AcDbLine
 10
306.4385319912
 20
282.5413296821
 30
0.0
 11
298.5341687235
 21
282.4930291328
 31
0.0
  0
ELLIPSE
  5
2D3
330
1F6
100
AcDbEntity
  8
$DDT_AUDIT_GENERATED_(104)
  6
Continuous
 62
     7
100
AcDbEllipse
 10
306.4341687235
 20
282.5410363971
 30
0.0
 11
0.0
 21
0.00437311347818588
 31
0.0
210
0.0
220
0.0
230
1.0
 40
1.0
 41
-1.50368047923764
 42
-0.000928635636668
  0
LINE
  5
2D4
330
1F6
100
AcDbEntity
  8
$DDT_AUDIT_GENERATED_(104)
  6
Continuous
 62
     7
100
AcDbLine
 10
306.4385319912
 20
253.0533774521
 30
0.0
 11
306.4385319912
 21
282.5413296821
 31
0.0
  0
LINE
  5
2D5
330
1F6
100
AcDbEntity
  8
$DDT_AUDIT_GENERATED_(104)
  6
Continuous
 62
     7
100
AcDbLine
 10
306.4385319912
 20
248.3550932513
 30
0.0
 11
298.5341687235
 21
248.4033938006
 31
0.0
  0
ELLIPSE
  5
2D6
330
1F6
100
AcDbEntity
  8
$DDT_AUDIT_GENERATED_(104)
  6
Continuous
 62
     7
100
AcDbEllipse
 10
306.4341687235
 20
253.053670737
 30
0.0
 11
0.003055277856503809
 21
-5.000112017829888
 31
0.0
210
0.0
220
0.0
230
0.9999999999999997
 40
0.0008725978
 41
0.3490599845543896
 42
1.570737137931877
  0
LINE
  5
2D7
330
1F6
100
AcDbEntity
  8
$DDT_AUDIT_GENERATED_(104)
  6
Continuous
 62
     7
100
AcDbLine
 10
306.4385319912
 20
245.1348179047
 30
0.0
 11
306.4385319912
 21
248.3550932513
 31
0.0
  0
ELLIPSE
  5
2D8
330
1F6
100
AcDbEntity
  8
$DDT_AUDIT_GENERATED_(104)
  6
Continuous
 62
     7
100
AcDbEllipse
 10
306.4341687235
 20
247.8852648312
 30
0.0
 11
-0.5000000000000004
 21
-3.472508568951483E-14
 31
0.0
210
0.0
220
0.0
230
1.0
 40
0.9396926208
 41
3.141592653589793
 42
4.703662334124573
  0
LINE
  5
2D9
330
1F6
100
AcDbEntity
  8
$DDT_AUDIT_GENERATED_(104)
  6
Continuous
 62
     7
100
AcDbLine
 10
306.4385319912
 20
253.0533774521
 30
0.0
 11
306.9341687235
 21
253.0533774521
 31
0.0
  0
LINE
  5
2DA
330
1F6
100
AcDbEntity
  8
$DDT_AUDIT_GENERATED_(104)
  6
Continuous
 62
     7
100
AcDbLine
 10
306.4385319912
 20
282.5413296821
 30
0.0
 11
306.9341687235
 21
282.5413296821
 31
0.0
  0
ELLIPSE
  5
2DB
330
1F6
100
AcDbEntity
  8
$DDT_AUDIT_GENERATED_(104)
  6
Continuous
 62
     7
100
AcDbEllipse
 10
306.4341687235
 20
287.709442303
 30
0.0
 11
-0.5000000000000073
 21
7.282776982104721E-14
 31
0.0
210
0.0
220
0.0
230
1.0
 40
0.9396926208
 41
1.579522973055085
 42
3.141592653589793
  0
SPLINE
  5
2DC
330
1F6
100
AcDbEntity
  8
$DDT_AUDIT_GENERATED_(104)
  6
Continuous
 62
     7
100
AcDbSpline
210
0.0
220
0.0
230
1.0
 70
     8
 71
     3
 72
    10
 73
     6
 74
     0
 42
0.0000000080361356
 43
0.0000000001
 40
0.671012377543844
 40
0.671012377543844
 40
0.671012377543844
 40
0.671012377543844
 40
0.7499999999999996
 40
0.7499999999999996
 40
1.0
 40
1.0
 40
1.0
 40
1.0
 10
306.8428721053886
 20
245.1874992557962
 30
0.0
 10
306.8114431062763
 20
245.1877295068543
 30
0.0
 10
306.7797148220338
 20
245.1868036689427
 30
0.0
 10
306.6465412368971
 20
245.1786204602252
 30
0.0
 10
306.5422404758104
 20
245.1615744646851
 30
0.0
 10
306.4385319912071
 20
245.1348179047478
 30
0.0
  0
SPLINE
  5
2DD
330
1F6
100
AcDbEntity
  8
$DDT_AUDIT_GENERATED_(104)
  6
Continuous
 62
     7
100
AcDbSpline
210
0.0
220
0.0
230
1.0
 70
     8
 71
     3
 72
    14
 73
    10
 74
     0
 42
0.0000000159596065
 43
0.0000000001
 40
0.0
 40
0.0
 40
0.0
 40
0.0
 40
0.4999999999999941
 40
0.4999999999999941
 40
0.7499999999999909
 40
0.7499999999999909
 40
0.8749999999999954
 40
0.8749999999999954
 40
0.9216890333778538
 40
0.9216890333778538
 40
0.9216890333778538
 40
0.9216890333778538
 10
306.4385319912071
 20
245.1348179047478
 30
0.0
 10
306.5401745497242
 20
245.2171597313676
 30
0.0
 10
306.6426607574411
 20
245.2725263078297
 30
0.0
 10
306.7817467066956
 20
245.2944114900792
 30
0.0
 10
306.8265692639087
 20
245.2914945513486
 30
0.0
 10
306.8824748540903
 20
245.2595339536859
 30
0.0
 10
306.8992104638415
 20
245.2443414426141
 30
0.0
 10
306.9170586304237
 20
245.2130618527466
 30
0.0
 10
306.921350666588
 20
245.2036483195369
 30
0.0
 10
306.9248234997028
 20
245.1930590436037
 30
0.0
  0
SPLINE
  5
2DE
330
1F6
100
AcDbEntity
  8
$DDT_AUDIT_GENERATED_(104)
  6
Continuous
 62
     7
100
AcDbSpline
210
0.0
220
0.0
230
1.0
 70
     8
 71
     3
 72
    10
 73
     6
 74
     0
 42
0.0000000080362293
 43
0.0000000001
 40
0.0
 40
0.0
 40
0.0
 40
0.0
 40
0.2499999999999996
 40
0.2499999999999996
 40
0.3290833023649915
 40
0.3290833023649915
 40
0.3290833023649915
 40
0.3290833023649915
 10
306.4385319912071
 20
290.4598892294284
 30
0.0
 10
306.5422404758069
 20
290.4331326694895
 30
0.0
 10
306.6465412368971
 20
290.416086673951
 30
0.0
 10
306.7797535530852
 20
290.4079010853
 30
0.0
 10
306.8115199726259
 20
290.4069753858598
 30
0.0
 10
306.8429863165392
 20
290.4072087201979
 30
0.0
  0
LINE
  5
2DF
330
1F6
100
AcDbEntity
  8
$DDT_AUDIT_GENERATED_(104)
  6
Continuous
 62
     7
100
AcDbLine
 10
306.9341687235
 20
290.4080672296
 30
0.0
 11
306.9341687235
 21
287.709442303
 31
0.0
  0
SPLINE
  5
2E0
330
1F6
100
AcDbEntity
  8
$DDT_AUDIT_GENERATED_(104)
  6
Continuous
 62
     7
100
AcDbSpline
210
0.0
220
0.0
230
1.0
 70
     8
 71
     3
 72
    14
 73
    10
 74
     0
 42
0.0000000159596065
 43
0.0000000001
 40
0.0783109666221491
 40
0.0783109666221491
 40
0.0783109666221491
 40
0.0783109666221491
 40
0.1250000000000046
 40
0.1250000000000046
 40
0.2500000000000092
 40
0.2500000000000092
 40
0.5000000000000061
 40
0.5000000000000061
 40
1.0
 40
1.0
 40
1.0
 40
1.0
 10
306.9248234997028
 20
290.4016480905726
 30
0.0
 10
306.921350666588
 20
290.3910588146393
 30
0.0
 10
306.9170586304237
 20
290.3816452814295
 30
0.0
 10
306.8992104638415
 20
290.3503656915621
 30
0.0
 10
306.8824748540903
 20
290.3351731804904
 30
0.0
 10
306.8265692639087
 20
290.3032125828276
 30
0.0
 10
306.7817467066956
 20
290.3002956440971
 30
0.0
 10
306.6426607574411
 20
290.3221808263466
 30
0.0
 10
306.540174549709
 20
290.3775474028064
 30
0.0
 10
306.4385319912071
 20
290.4598892294284
 30
0.0
  0
LINE
  5
2E1
330
1F6
100
AcDbEntity
  8
$DDT_AUDIT_GENERATED_(104)
  6
Continuous
 62
     7
100
AcDbLine
 10
306.8304752899
 20
290.4071623107
 30
0.0
 11
314.9341687235
 21
290.4778821719
 31
0.0
  0
LINE
  5
2E2
330
1F6
100
AcDbEntity
  8
$DDT_AUDIT_GENERATED_(104)
  6
Continuous
 62
     7
100
AcDbLine
 10
314.9341687235
 20
245.1168249623
 30
0.0
 11
306.8304752899
 21
245.1875448235
 31
0.0
  0
LINE
  5
2E4
330
1F6
100
AcDbEntity
  8
$DDT_AUDIT_GENERATED_(2E3)
  6
Continuous
 62
     7
100
AcDbLine
 10
323.5341687235
 20
285.3473535671
 30
0.0
 11
323.5341687235
 21
250.2473535671
 31
0.0
  0
LINE
  5
2E5
330
1F6
100
AcDbEntity
  8
$DDT_AUDIT_GENERATED_(2E3)
  6
Continuous
 62
     7
100
AcDbLine
 10
322.8413484004
 20
285.7473535671
 30
0.0
 11
322.8413484004
 21
249.8473535671
 31
0.0
  0
LINE
  5
2E6
330
1F6
100
AcDbEntity
  8
$DDT_AUDIT_GENERATED_(2E3)
  6
Continuous
 62
     7
100
AcDbLine
 10
370.7341687235
 20
285.3473535671
 30
0.0
 11
323.5341687235
 21
285.3473535671
 31
0.0
  0
LINE
  5
2E7
330
1F6
100
AcDbEntity
  8
$DDT_AUDIT_GENERATED_(2E3)
  6
Continuous
 62
     7
100
AcDbLine
 10
323.5341687235
 20
250.2473535671
 30
0.0
 11
370.7341687235
 21
250.2473535671
 31
0.0
  0
LINE
  5
2E8
330
1F6
100
AcDbEntity
  8
$DDT_AUDIT_GENERATED_(2E3)
  6
Continuous
 62
     7
100
AcDbLine
 10
322.8413484004
 20
249.8473535671
 30
0.0
 11
323.5341687235
 21
250.2473535671
 31
0.0
  0
LINE
  5
2E9
330
1F6
100
AcDbEntity
  8
$DDT_AUDIT_GENERATED_(2E3)
  6
Continuous
 62
     7
100
AcDbLine
 10
323.5341687235
 20
285.3473535671
 30
0.0
 11
322.8413484004
 21
285.7473535671
 31
0.0
  0
LINE
  5
2EA
330
1F6
100
AcDbEntity
  8
$DDT_AUDIT_GENERATED_(2E3)
  6
Continuous
 62
     7
100
AcDbLine
 10
322.8413484004
 20
285.7473535671
 30
0.0
 11
306.9341687235
 21
285.7473535671
 31
0.0
  0
LINE
  5
2EB
330
1F6
100
AcDbEntity
  8
$DDT_AUDIT_GENERATED_(2E3)
  6
Continuous
 62
     7
100
AcDbLine
 10
306.9341687235
 20
249.8473535671
 30
0.0
 11
322.8413484004
 21
249.8473535671
 31
0.0
  0
ARC
  5
2EC
330
1F6
100
AcDbEntity
  8
$DDT_AUDIT_GENERATED_(29D)
  6
Continuous
 62
     7
100
AcDbCircle
 10
293.5341687235
 20
245.0308492726
 30
0.0
 40
1.000000000000001
100
AcDbArc
 50
151.8851249263
 51
180.0
  0
ARC
  5
2ED
330
1F6
100
AcDbEntity
  8
$DDT_AUDIT_GENERATED_(29D)
  6
Continuous
 62
     7
100
AcDbCircle
 10
293.5341687235
 20
237.5308492726
 30
0.0
 40
1.000000000000001
100
AcDbArc
 50
180.0
 51
233.1301023542
  0
LINE
  5
2EE
330
1F6
100
AcDbEntity
  8
$DDT_AUDIT_GENERATED_(1A1)
  6
Continuous
 62
     7
100
AcDbLine
 10
285.1788291008
 20
284.7973535671
 30
0.0
 11
285.2341687235
 21
284.7973535671
 31
0.0
  0
LINE
  5
2EF
330
1F6
100
AcDbEntity
  8
$DDT_AUDIT_GENERATED_(1A1)
  6
Continuous
 62
     7
100
AcDbLine
 10
284.7316632653
 20
284.7973535671
 30
0.0
 11
285.1788291008
 21
284.7973535671
 31
0.0
  0
LINE
  5
2F0
330
1F6
100
AcDbEntity
  8
$DDT_AUDIT_GENERATED_(1A1)
  6
Continuous
 62
     7
100
AcDbLine
 10
278.8895083461
 20
283.4438626653
 30
0.0
 11
278.8895083461
 21
283.1592241253
 31
0.0
  0
LINE
  5
2F1
330
1F6
100
AcDbEntity
  8
$DDT_AUDIT_GENERATED_(1A1)
  6
Continuous
 62
     7
100
AcDbLine
 10
285.1788291008
 20
284.7973535671
 30
0.0
 11
285.1788291008
 21
283.1592241253
 31
0.0
  0
LINE
  5
2F2
330
1F6
100
AcDbEntity
  8
$DDT_AUDIT_GENERATED_(1A1)
  6
Continuous
 62
     7
100
AcDbLine
 10
285.1788291008
 20
250.7973535671
 30
0.0
 11
284.7341635633
 21
250.7973535671
 31
0.0
  0
LINE
  5
2F3
330
1F6
100
AcDbEntity
  8
$DDT_AUDIT_GENERATED_(1A1)
  6
Continuous
 62
     7
100
AcDbLine
 10
285.1788291008
 20
250.7973535671
 30
0.0
 11
285.1788291008
 21
252.4354830089
 31
0.0
  0
LINE
  5
2F4
330
1F6
100
AcDbEntity
  8
$DDT_AUDIT_GENERATED_(1A1)
  6
Continuous
 62
     7
100
AcDbLine
 10
278.8895083461
 20
252.1508444689
 30
0.0
 11
278.8895083461
 21
252.4354830089
 31
0.0
  0
CIRCLE
  5
2F5
330
1F6
100
AcDbEntity
  8
$DDT_AUDIT_GENERATED_(1A1)
  6
Continuous
 62
     7
100
AcDbCircle
 10
282.0341687235
 20
267.7973535671
 30
0.0
 40
13.0
  0
ARC
  5
2F6
330
1F6
100
AcDbEntity
  8
$DDT_AUDIT_GENERATED_(1A1)
  6
Continuous
 62
     7
100
AcDbCircle
 10
282.0341687235
 20
267.7973535671
 30
0.0
 40
15.0
100
AcDbArc
 50
235.8419327632
 51
244.1580672368
  0
LINE
  5
2F7
330
1F6
100
AcDbEntity
  8
$DDT_AUDIT_GENERATED_(1A1)
  6
Continuous
 62
     7
100
AcDbLine
 10
285.2341687235
 20
250.7973535671
 30
0.0
 11
285.1788291008
 21
250.7973535671
 31
0.0
  0
ARC
  5
2F8
330
1F6
100
AcDbEntity
  8
$DDT_AUDIT_GENERATED_(1A1)
  6
Continuous
 62
     7
100
AcDbCircle
 10
282.233492745
 20
274.5464878827
 30
0.0
 40
22.30631172514584
100
AcDbArc
 50
277.5875204456
 51
283.6756670098
  0
ARC
  5
2F9
330
1F6
100
AcDbEntity
  8
$DDT_AUDIT_GENERATED_(1A1)
  6
Continuous
 62
     7
100
AcDbCircle
 10
282.0341687235
 20
259.6693699848
 30
0.0
 40
23.69941215366909
100
AcDbArc
 50
82.374970748
 51
97.625029252
  0
ARC
  5
2FA
330
1F6
100
AcDbEntity
  8
$DDT_AUDIT_GENERATED_(1A1)
  6
Continuous
 62
     7
100
AcDbCircle
 10
282.233492745
 20
261.0482192515
 30
0.0
 40
22.30631172517631
100
AcDbArc
 50
77.1475764146
 51
82.4124795544
  0
ARC
  5
2FB
330
1F6
100
AcDbEntity
  8
$DDT_AUDIT_GENERATED_(1A1)
  6
Continuous
 62
     7
100
AcDbCircle
 10
282.0341687235
 20
275.9253371493
 30
0.0
 40
23.69941215366472
100
AcDbArc
 50
262.374970748
 51
277.625029252
  0
ARC
  5
2FC
330
1F6
100
AcDbEntity
  8
$DDT_AUDIT_GENERATED_(1A1)
  6
Continuous
 62
     7
100
AcDbCircle
 10
281.8348447019
 20
274.5464878827
 30
0.0
 40
22.30631172517566
100
AcDbArc
 50
256.1389878742
 51
262.4124795544
  0
ARC
  5
2FD
330
1F6
100
AcDbEntity
  8
$DDT_AUDIT_GENERATED_(1A1)
  6
Continuous
 62
     7
100
AcDbCircle
 10
281.8348447019
 20
261.0482192515
 30
0.0
 40
22.30631172514528
100
AcDbArc
 50
97.5875204456
 51
103.7110534414
  0
ELLIPSE
  5
2FE
330
1F6
100
AcDbEntity
  8
$DDT_AUDIT_GENERATED_(1A1)
  6
Continuous
 62
     7
100
AcDbEllipse
 10
275.5950521519
 20
283.5306869004
 30
0.0
 11
-0.7575431260666254
 21
1.850980392156858
 31
0.0
210
0.0
220
0.0
230
0.9999999999999999
 40
0.2322793549
 41
2.144859333128982
 42
3.141592653589793
  0
ELLIPSE
  5
2FF
330
1F6
100
AcDbEntity
  8
$DDT_AUDIT_GENERATED_(1A1)
  6
Continuous
 62
     7
100
AcDbEllipse
 10
275.5950521519
 20
252.0640202338
 30
0.0
 11
0.7575431260666495
 21
1.850980392156863
 31
0.0
210
0.0
220
0.0
230
1.0
 40
0.2322793549
 41
0.0
 42
0.9967333204608624
  0
ELLIPSE
  5
300
330
1F6
100
AcDbEntity
  8
$DDT_AUDIT_GENERATED_(1A1)
  6
Continuous
 62
     7
100
AcDbEllipse
 10
278.8895083461
 20
284.5039723486
 30
0.0
 11
-0.3699600443935296
 21
1.965484562532184
 31
0.0
210
0.0
220
0.0
230
1.0
 40
0.1657044523
 41
2.292641110789745
 42
3.141592653589891
  0
ELLIPSE
  5
301
330
1F6
100
AcDbEntity
  8
$DDT_AUDIT_GENERATED_(1A1)
  6
Continuous
 62
     7
100
AcDbEllipse
 10
278.8895083461
 20
251.0907347856
 30
0.0
 11
0.3699600443943795
 21
1.965484562532028
 31
0.0
210
0.0
220
0.0
230
1.0
 40
0.1657044523
 41
0.0
 42
0.8489515428001282
  0
ELLIPSE
  5
302
330
1F6
100
AcDbEntity
  8
$DDT_AUDIT_GENERATED_(1A1)
  6
Continuous
 62
     7
100
AcDbEllipse
 10
285.1788291008
 20
284.5039723486
 30
0.0
 11
0.369960044394369
 21
1.965484562532062
 31
0.0
210
0.0
220
0.0
230
0.9999999999999999
 40
0.1657044523
 41
3.141592653589829
 42
3.990544196389904
  0
ELLIPSE
  5
303
330
1F6
100
AcDbEntity
  8
$DDT_AUDIT_GENERATED_(1A1)
  6
Continuous
 62
     7
100
AcDbEllipse
 10
285.1788291008
 20
251.0907347856
 30
0.0
 11
-0.3699600443943866
 21
1.965484562531981
 31
0.0
210
0.0
220
0.0
230
1.0
 40
0.1657044523
 41
5.434233764379439
 42
6.283185307179586
  0
ELLIPSE
  5
304
330
1F6
100
AcDbEntity
  8
$DDT_AUDIT_GENERATED_(1A1)
  6
Continuous
 62
     7
100
AcDbEllipse
 10
288.473285295
 20
283.5306869004
 30
0.0
 11
0.7575431260666357
 21
1.850980392156859
 31
0.0
210
0.0
220
0.0
230
1.0
 40
0.2322793549
 41
3.141592653589793
 42
4.113586933987468
  0
ELLIPSE
  5
305
330
1F6
100
AcDbEntity
  8
$DDT_AUDIT_GENERATED_(1A1)
  6
Continuous
 62
     7
100
AcDbEllipse
 10
288.473285295
 20
252.0640202338
 30
0.0
 11
-0.7575431260666566
 21
1.85098039215687
 31
0.0
210
0.0
220
0.0
230
1.0
 40
0.2322793549
 41
5.311191026768574
 42
6.283185307179586
  0
ELLIPSE
  5
306
330
1F6
100
AcDbEntity
  8
$DDT_AUDIT_GENERATED_(1A1)
  6
Continuous
 62
     7
100
AcDbEllipse
 10
290.5346778055
 20
282.519491501
 30
0.0
 11
1.000059892008465
 21
1.732016227520996
 31
0.0
210
0.0
220
0.0
230
0.9999999999999998
 40
0.2767210208
 41
3.141592653589802
 42
4.090127764942334
  0
ELLIPSE
  5
307
330
1F6
100
AcDbEntity
  8
$DDT_AUDIT_GENERATED_(1A1)
  6
Continuous
 62
     7
100
AcDbEllipse
 10
290.5346778055
 20
253.0752156332
 30
0.0
 11
-1.000059892008173
 21
1.732016227521158
 31
0.0
210
0.0
220
0.0
230
1.0
 40
0.2767210208
 41
5.334650195840059
 42
6.283185307179586
  0
ELLIPSE
  5
308
330
1F6
100
AcDbEntity
  8
$DDT_AUDIT_GENERATED_(1A1)
  6
Continuous
 62
     7
100
AcDbEllipse
 10
290.5346778055
 20
282.519491501
 30
0.0
 11
1.000059892006168
 21
1.732016227521904
 31
0.0
210
0.0
220
0.0
230
0.9999999999999998
 40
0.99983031
 41
3.141592653588524
 42
4.0349388755161
  0
ELLIPSE
  5
309
330
1F6
100
AcDbEntity
  8
$DDT_AUDIT_GENERATED_(1A1)
  6
Continuous
 62
     7
100
AcDbEllipse
 10
290.5346778055
 20
253.0752156332
 30
0.0
 11
-1.000059891951615
 21
1.732016227552881
 31
0.0
210
0.0
220
0.0
230
1.0
 40
0.99983031
 41
5.389839085284818
 42
6.283185307179586
  0
LINE
  5
30A
330
1F6
100
AcDbEntity
  8
$DDT_AUDIT_GENERATED_(1A1)
  6
Continuous
 62
     7
100
AcDbLine
 10
293.6357274085
 20
278.4909451465
 30
0.0
 11
293.0635804882
 21
277.9635758804
 31
0.0
  0
LINE
  5
30B
330
1F6
100
AcDbEntity
  8
$DDT_AUDIT_GENERATED_(1A1)
  6
Continuous
 62
     7
100
AcDbLine
 10
293.0635804882
 20
257.6311312537
 30
0.0
 11
293.6357274085
 21
257.1037619877
 31
0.0
  0
LINE
  5
30C
330
1F6
100
AcDbEntity
  8
$DDT_AUDIT_GENERATED_(1A1)
  6
Continuous
 62
     7
100
AcDbLine
 10
288.4160345584
 20
274.5827064293
 30
0.0
 11
288.5338640674
 21
267.83225838
 31
0.0
  0
LINE
  5
30D
330
1F6
100
AcDbEntity
  8
$DDT_AUDIT_GENERATED_(1A1)
  6
Continuous
 62
     7
100
AcDbLine
 10
288.5338640674
 20
267.83225838
 30
0.0
 11
272.7192341207
 21
267.83225838
 31
0.0
  0
LINE
  5
30E
330
1F6
100
AcDbEntity
  8
$DDT_AUDIT_GENERATED_(1A1)
  6
Continuous
 62
     7
100
AcDbLine
 10
272.7192341207
 20
267.7624487542
 30
0.0
 11
288.5338640674
 21
267.7624487542
 31
0.0
  0
LINE
  5
30F
330
1F6
100
AcDbEntity
  8
$DDT_AUDIT_GENERATED_(1A1)
  6
Continuous
 62
     7
100
AcDbLine
 10
288.5338640674
 20
267.7624487542
 30
0.0
 11
288.4160345584
 21
261.0120007048
 31
0.0
  0
ELLIPSE
  5
310
330
1F6
100
AcDbEntity
  8
$DDT_AUDIT_GENERATED_(1A1)
  6
Continuous
 62
     7
100
AcDbEllipse
 10
288.5338640674
 20
267.7973535671
 30
0.0
 11
-1.999695390312785
 21
0.03490481287456725
 31
0.0
210
0.0
220
0.0
230
1.0
 40
0.0174497492
 41
1.571100913290058
 42
3.141592653588036
  0
ELLIPSE
  5
311
330
1F6
100
AcDbEntity
  8
$DDT_AUDIT_GENERATED_(1A1)
  6
Continuous
 62
     7
100
AcDbEllipse
 10
288.5338640674
 20
267.7973535671
 30
0.0
 11
1.999695390312778
 21
0.03490481287457742
 31
0.0
210
0.0
220
0.0
230
0.9999999999999999
 40
0.0174497492
 41
0.0
 42
1.570491740299735
  0
LINE
  5
312
330
1F6
100
AcDbEntity
  8
$DDT_AUDIT_GENERATED_(1A1)
  6
Continuous
 62
     7
100
AcDbLine
 10
288.5338640674
 20
267.83225838
 30
0.0
 11
288.5338640674
 21
267.7624487542
 31
0.0
  0
ARC
  5
313
330
1F6
100
AcDbEntity
  8
$DDT_AUDIT_GENERATED_(1A1)
  6
Continuous
 62
     7
100
AcDbCircle
 10
288.5338640674
 20
267.7973535671
 30
0.0
 40
2.000000000000002
100
AcDbArc
 50
359.0
 51
1.0
  0
LINE
  5
314
330
1F6
100
AcDbEntity
  8
$DDT_AUDIT_GENERATED_(1A1)
  6
Continuous
 62
     7
100
AcDbLine
 10
290.469735184
 20
264.1059585653
 30
0.0
 11
290.5335594577
 21
267.7624487542
 31
0.0
  0
LINE
  5
315
330
1F6
100
AcDbEntity
  8
$DDT_AUDIT_GENERATED_(1A1)
  6
Continuous
 62
     7
100
AcDbLine
 10
290.5335594577
 20
267.83225838
 30
0.0
 11
290.469735184
 21
271.4887485688
 31
0.0
  0
LINE
  5
316
330
1F6
100
AcDbEntity
  8
$DDT_AUDIT_GENERATED_(1A1)
  6
Continuous
 62
     7
100
AcDbLine
 10
290.469735184
 20
271.4887485688
 30
0.0
 11
290.4619766658
 21
271.7648815489
 31
0.0
  0
CIRCLE
  5
317
330
1F6
100
AcDbEntity
  8
$DDT_AUDIT_GENERATED_(1A1)
  6
Continuous
 62
     7
100
AcDbCircle
 10
282.0341687235
 20
267.7973535671
 30
0.0
 40
9.314999999999998
  0
CIRCLE
  5
318
330
1F6
100
AcDbEntity
  8
$DDT_AUDIT_GENERATED_(1A1)
  6
Continuous
 62
     7
100
AcDbCircle
 10
282.0341687235
 20
267.7973535671
 30
0.0
 40
9.4615
  0
LINE
  5
319
330
1F6
100
AcDbEntity
  8
$DDT_AUDIT_GENERATED_(1A1)
  6
Continuous
 62
     7
100
AcDbLine
 10
296.5341687235
 20
261.8233443407
 30
0.0
 11
296.5341687235
 21
263.9567806932
 31
0.0
  0
LINE
  5
31A
330
1F6
100
AcDbEntity
  8
$DDT_AUDIT_GENERATED_(1A1)
  6
Continuous
 62
     7
100
AcDbLine
 10
296.5341687235
 20
271.637926441
 30
0.0
 11
296.5341687235
 21
273.8029692333
 31
0.0
  0
CIRCLE
  5
31B
330
1F6
100
AcDbEntity
  8
$DDT_AUDIT_GENERATED_(1A1)
  6
Continuous
 62
     7
100
AcDbCircle
 10
282.0341687235
 20
267.7973535671
 30
0.0
 40
9.985314043509145
  0
CIRCLE
  5
31C
330
1F6
100
AcDbEntity
  8
$DDT_AUDIT_GENERATED_(1A1)
  6
Continuous
 62
     7
100
AcDbCircle
 10
282.0341687235
 20
267.7973535671
 30
0.0
 40
11.45
  0
LINE
  5
31D
330
1F6
100
AcDbEntity
  8
$DDT_AUDIT_GENERATED_(1A1)
  6
Continuous
 62
     7
100
AcDbLine
 10
288.5725171388
 20
254.2973535671
 30
0.0
 11
275.4958203081
 21
254.2973535671
 31
0.0
  0
ARC
  5
31E
330
1F6
100
AcDbEntity
  8
$DDT_AUDIT_GENERATED_(1A1)
  6
Continuous
 62
     7
100
AcDbCircle
 10
282.0341687235
 20
267.7973535671
 30
0.0
 40
15.0
100
AcDbArc
 50
244.1580672368
 51
295.8419327632
  0
ARC
  5
31F
330
1F6
100
AcDbEntity
  8
$DDT_AUDIT_GENERATED_(1A1)
  6
Continuous
 62
     7
100
AcDbCircle
 10
282.0341687235
 20
267.7973535671
 30
0.0
 40
15.0
100
AcDbArc
 50
55.8419327632
 51
64.1580672368
  0
LINE
  5
320
330
1F6
100
AcDbEntity
  8
$DDT_AUDIT_GENERATED_(1A1)
  6
Continuous
 62
     7
100
AcDbLine
 10
275.4958203081
 20
281.2973535671
 30
0.0
 11
288.5725171388
 21
281.2973535671
 31
0.0
  0
ARC
  5
321
330
1F6
100
AcDbEntity
  8
$DDT_AUDIT_GENERATED_(1A1)
  6
Continuous
 62
     7
100
AcDbCircle
 10
282.0341687235
 20
267.7973535671
 30
0.0
 40
15.0
100
AcDbArc
 50
64.1580672368
 51
115.8419327632
  0
ARC
  5
322
330
1F6
100
AcDbEntity
  8
$DDT_AUDIT_GENERATED_(1A1)
  6
Continuous
 62
     7
100
AcDbCircle
 10
282.0341687235
 20
267.7973535671
 30
0.0
 40
15.0
100
AcDbArc
 50
115.8419327632
 51
124.1580672368
  0
LINE
  5
323
330
1F6
100
AcDbEntity
  8
$DDT_AUDIT_GENERATED_(1A1)
  6
Continuous
 62
     7
100
AcDbLine
 10
267.0736515647
 20
268.8849777406
 30
0.0
 11
273.61199998
 21
280.2097293935
 31
0.0
  0
ARC
  5
324
330
1F6
100
AcDbEntity
  8
$DDT_AUDIT_GENERATED_(1A1)
  6
Continuous
 62
     7
100
AcDbCircle
 10
282.0341687235
 20
267.7973535671
 30
0.0
 40
15.0
100
AcDbArc
 50
124.1580672368
 51
175.8419327632
  0
ARC
  5
325
330
1F6
100
AcDbEntity
  8
$DDT_AUDIT_GENERATED_(1A1)
  6
Continuous
 62
     7
100
AcDbCircle
 10
282.0341687235
 20
267.7973535671
 30
0.0
 40
15.00000000000001
100
AcDbArc
 50
295.8419327632
 51
304.1580672368
  0
LINE
  5
326
330
1F6
100
AcDbEntity
  8
$DDT_AUDIT_GENERATED_(1A1)
  6
Continuous
 62
     7
100
AcDbLine
 10
296.9946858822
 20
266.7097293935
 30
0.0
 11
290.4563374669
 21
255.3849777406
 31
0.0
  0
ARC
  5
327
330
1F6
100
AcDbEntity
  8
$DDT_AUDIT_GENERATED_(1A1)
  6
Continuous
 62
     7
100
AcDbCircle
 10
282.0341687235
 20
267.7973535671
 30
0.0
 40
15.0
100
AcDbArc
 50
304.1580672368
 51
355.8419327632
  0
ARC
  5
328
330
1F6
100
AcDbEntity
  8
$DDT_AUDIT_GENERATED_(1A1)
  6
Continuous
 62
     7
100
AcDbCircle
 10
282.0341687235
 20
267.7973535671
 30
0.0
 40
15.0
100
AcDbArc
 50
355.8419327632
 51
4.1580672368
  0
LINE
  5
329
330
1F6
100
AcDbEntity
  8
$DDT_AUDIT_GENERATED_(1A1)
  6
Continuous
 62
     7
100
AcDbLine
 10
290.4563374669
 20
280.2097293935
 30
0.0
 11
296.9946858822
 21
268.8849777406
 31
0.0
  0
ARC
  5
32A
330
1F6
100
AcDbEntity
  8
$DDT_AUDIT_GENERATED_(1A1)
  6
Continuous
 62
     7
100
AcDbCircle
 10
282.0341687235
 20
267.7973535671
 30
0.0
 40
15.0
100
AcDbArc
 50
4.1580672368
 51
55.8419327632
  0
ARC
  5
32B
330
1F6
100
AcDbEntity
  8
$DDT_AUDIT_GENERATED_(1A1)
  6
Continuous
 62
     7
100
AcDbCircle
 10
282.0341687235
 20
267.7973535671
 30
0.0
 40
15.0
100
AcDbArc
 50
175.8419327632
 51
184.1580672368
  0
LINE
  5
32C
330
1F6
100
AcDbEntity
  8
$DDT_AUDIT_GENERATED_(1A1)
  6
Continuous
 62
     7
100
AcDbLine
 10
273.61199998
 20
255.3849777406
 30
0.0
 11
267.0736515647
 21
266.7097293935
 31
0.0
  0
ARC
  5
32D
330
1F6
100
AcDbEntity
  8
$DDT_AUDIT_GENERATED_(1A1)
  6
Continuous
 62
     7
100
AcDbCircle
 10
282.0341687235
 20
267.7973535671
 30
0.0
 40
15.0
100
AcDbArc
 50
184.1580672368
 51
235.8419327632
  0
CIRCLE
  5
32E
330
1F6
100
AcDbEntity
  8
$DDT_AUDIT_GENERATED_(1A1)
  6
Continuous
 62
     7
100
AcDbCircle
 10
282.0341687235
 20
267.7973535671
 30
0.0
 40
12.5
  0
ARC
  5
32F
330
1F6
100
AcDbEntity
  8
$DDT_AUDIT_GENERATED_(1A1)
  6
Continuous
 62
     7
100
AcDbCircle
 10
282.0341687235
 20
267.7973535671
 30
0.0
 40
10.91184
100
AcDbArc
 50
255.0
 51
195.0
  0
ARC
  5
330
330
1F6
100
AcDbEntity
  8
$DDT_AUDIT_GENERATED_(1A1)
  6
Continuous
 62
     7
100
AcDbCircle
 10
282.0341687235
 20
267.7973535671
 30
0.0
 40
11.43565404350915
100
AcDbArc
 50
255.0
 51
195.0
  0
ARC
  5
331
330
1F6
100
AcDbEntity
  8
$DDT_AUDIT_GENERATED_(1A1)
  6
Continuous
 62
     7
100
AcDbCircle
 10
282.0341687235
 20
267.7973535671
 30
0.0
 40
10.91184
100
AcDbArc
 50
255.0
 51
195.0
  0
LINE
  5
332
330
1F6
100
AcDbEntity
  8
$DDT_AUDIT_GENERATED_(1F2)
  6
Continuous
 62
     7
100
AcDbLine
 10
370.7341687235
 20
248.5473535671
 30
0.0
 11
370.7341687235
 21
287.0473535671
 31
0.0
  0
LINE
  5
333
330
1F6
100
AcDbEntity
  8
$DDT_AUDIT_GENERATED_(1F2)
  6
Continuous
 62
     7
100
AcDbLine
 10
376.7341687235
 20
248.5473535671
 30
0.0
 11
376.7341687235
 21
287.0473535671
 31
0.0
  0
LINE
  5
334
330
1F6
100
AcDbEntity
  8
$DDT_AUDIT_GENERATED_(1F2)
  6
Continuous
 62
     7
100
AcDbLine
 10
377.7341687235
 20
249.5473535671
 30
0.0
 11
377.7341687235
 21
286.0473535671
 31
0.0
  0
LINE
  5
335
330
1F6
100
AcDbEntity
  8
$DDT_AUDIT_GENERATED_(1F2)
  6
Continuous
 62
     7
100
AcDbLine
 10
370.7341687235
 20
248.5473535671
 30
0.0
 11
376.7341687235
 21
248.5473535671
 31
0.0
  0
LINE
  5
336
330
1F6
100
AcDbEntity
  8
$DDT_AUDIT_GENERATED_(1F2)
  6
Continuous
 62
     7
100
AcDbLine
 10
376.7341687235
 20
287.0473535671
 30
0.0
 11
370.7341687235
 21
287.0473535671
 31
0.0
  0
ARC
  5
337
330
1F6
100
AcDbEntity
  8
$DDT_AUDIT_GENERATED_(1F2)
  6
Continuous
 62
     7
100
AcDbCircle
 10
376.7341687235
 20
286.0473535671
 30
0.0
 40
1.000000000000001
100
AcDbArc
 50
0.0
 51
90.0
  0
ARC
  5
338
330
1F6
100
AcDbEntity
  8
$DDT_AUDIT_GENERATED_(1F2)
  6
Continuous
 62
     7
100
AcDbCircle
 10
376.7341687235
 20
249.5473535671
 30
0.0
 40
1.000000000000001
100
AcDbArc
 50
270.0
 51
0.0
  0
ENDBLK
  5
33A
330
1F6
100
AcDbEntity
  8
0
100
AcDbBlockEnd
  0
BLOCK
  5
46B
330
33B
100
AcDbEntity
  8
0
100
AcDbBlockBegin
  2
SE2
 70
     0
 10
0.0
 20
0.0
 30
0.0
  3
SE2
  1

  0
LINE
  5
33D
330
33B
100
AcDbEntity
  8
$DDT_AUDIT_GENERATED_(99)
  6
Continuous
 62
     7
100
AcDbLine
 10
127.437897718
 20
182.6137468241
 30
0.0
 11
126.437897718
 21
182.6137468241
 31
0.0
  0
LINE
  5
33E
330
33B
100
AcDbEntity
  8
$DDT_AUDIT_GENERATED_(99)
  6
Continuous
 62
     7
100
AcDbLine
 10
126.4989857925
 20
175.6137468241
 30
0.0
 11
126.4555037642
 21
180.5962937531
 31
0.0
  0
LINE
  5
33F
330
33B
100
AcDbEntity
  8
$DDT_AUDIT_GENERATED_(99)
  6
Continuous
 62
     7
100
AcDbLine
 10
126.4989857925
 20
175.6137468241
 30
0.0
 11
127.3768096434
 21
175.6137468241
 31
0.0
  0
LINE
  5
340
330
33B
100
AcDbEntity
  8
$DDT_AUDIT_GENERATED_(99)
  6
Continuous
 62
     7
100
AcDbLine
 10
127.4205201377
 20
180.6224733596
 30
0.0
 11
126.4552752982
 21
180.6224733596
 31
0.0
  0
LINE
  5
341
330
33B
100
AcDbEntity
  8
$DDT_AUDIT_GENERATED_(99)
  6
Continuous
 62
     7
100
AcDbLine
 10
126.4466245858
 20
181.6137468241
 30
0.0
 11
127.4291708502
 21
181.6137468241
 31
0.0
  0
LINE
  5
342
330
33B
100
AcDbEntity
  8
$DDT_AUDIT_GENERATED_(99)
  6
Continuous
 62
     7
100
AcDbLine
 10
92.7721367543
 20
144.8137468241
 30
0.0
 11
92.5338171083
 21
172.1224733596
 31
0.0
  0
LINE
  5
343
330
33B
100
AcDbEntity
  8
$DDT_AUDIT_GENERATED_(99)
  6
Continuous
 62
     7
100
AcDbLine
 10
99.7718702158
 20
144.8137468241
 30
0.0
 11
92.7721367543
 21
144.8137468241
 31
0.0
  0
LINE
  5
344
330
33B
100
AcDbEntity
  8
$DDT_AUDIT_GENERATED_(99)
  6
Continuous
 62
     7
100
AcDbLine
 10
154.1039252201
 20
144.8137468241
 30
0.0
 11
134.6792089286
 21
144.8137468241
 31
0.0
  0
LINE
  5
345
330
33B
100
AcDbEntity
  8
$DDT_AUDIT_GENERATED_(99)
  6
Continuous
 62
     7
100
AcDbLine
 10
154.1039252201
 20
144.8137468241
 30
0.0
 11
154.3422448661
 21
172.1224733596
 31
0.0
  0
LINE
  5
346
330
33B
100
AcDbEntity
  8
$DDT_AUDIT_GENERATED_(99)
  6
Continuous
 62
     7
100
AcDbLine
 10
161.1036586816
 20
144.8137468241
 30
0.0
 11
154.1039252201
 21
144.8137468241
 31
0.0
  0
LINE
  5
347
330
33B
100
AcDbEntity
  8
$DDT_AUDIT_GENERATED_(99)
  6
Continuous
 62
     7
100
AcDbLine
 10
127.4202916717
 20
180.5962937531
 30
0.0
 11
127.3768096434
 21
175.6137468241
 31
0.0
  0
LINE
  5
348
330
33B
100
AcDbEntity
  8
$DDT_AUDIT_GENERATED_(99)
  6
Continuous
 62
     7
100
AcDbLine
 10
127.4202916717
 20
180.5962937531
 30
0.0
 11
127.437897718
 21
182.6137468241
 31
0.0
  0
LINE
  5
349
330
33B
100
AcDbEntity
  8
$DDT_AUDIT_GENERATED_(99)
  6
Continuous
 62
     7
100
AcDbLine
 10
127.437897718
 20
182.6137468241
 30
0.0
 11
131.5932813173
 21
182.6137468241
 31
0.0
  0
LINE
  5
34A
330
33B
100
AcDbEntity
  8
$DDT_AUDIT_GENERATED_(99)
  6
Continuous
 62
     7
100
AcDbLine
 10
126.4555037642
 20
180.5962937531
 30
0.0
 11
121.8669352938
 21
180.5962937531
 31
0.0
  0
LINE
  5
34B
330
33B
100
AcDbEntity
  8
$DDT_AUDIT_GENERATED_(99)
  6
Continuous
 62
     7
100
AcDbLine
 10
126.437897718
 20
182.6137468241
 30
0.0
 11
126.4555037642
 21
180.5962937531
 31
0.0
  0
LINE
  5
34C
330
33B
100
AcDbEntity
  8
$DDT_AUDIT_GENERATED_(99)
  6
Continuous
 62
     7
100
AcDbLine
 10
86.437897718
 20
174.1050202886
 30
0.0
 11
86.437897718
 21
182.8111288634
 31
0.0
  0
LINE
  5
34D
330
33B
100
AcDbEntity
  8
$DDT_AUDIT_GENERATED_(99)
  6
Continuous
 62
     7
100
AcDbLine
 10
99.5335505698
 20
172.1224733596
 30
0.0
 11
99.7718702158
 21
144.8137468241
 31
0.0
  0
LINE
  5
34E
330
33B
100
AcDbEntity
  8
$DDT_AUDIT_GENERATED_(99)
  6
Continuous
 62
     7
100
AcDbLine
 10
86.437897718
 20
174.1050202886
 30
0.0
 11
94.2618541679
 21
174.1050202886
 31
0.0
  0
LINE
  5
34F
330
33B
100
AcDbEntity
  8
$DDT_AUDIT_GENERATED_(99)
  6
Continuous
 62
     7
100
AcDbLine
 10
86.437897718
 20
173.1137468241
 30
0.0
 11
81.0164776065
 21
173.1137468241
 31
0.0
  0
LINE
  5
350
330
33B
100
AcDbEntity
  8
$DDT_AUDIT_GENERATED_(99)
  6
Continuous
 62
     7
100
AcDbLine
 10
94.2618541679
 20
173.1137468241
 30
0.0
 11
86.437897718
 21
173.1137468241
 31
0.0
  0
ELLIPSE
  5
351
330
33B
100
AcDbEntity
  8
$DDT_AUDIT_GENERATED_(99)
  6
Continuous
 62
     7
100
AcDbEllipse
 10
99.5341598124
 20
172.1137468241
 30
0.0
 11
7.000342704427467
 21
-0.008726643976254833
 31
0.0
210
0.0
220
0.0
230
0.9999999999999999
 40
0.0012464765
 41
1.570884911047968
 42
3.141605085543828
  0
LINE
  5
352
330
33B
100
AcDbEntity
  8
$DDT_AUDIT_GENERATED_(99)
  6
Continuous
 62
     7
100
AcDbLine
 10
80.0165156834
 20
174.1050202886
 30
0.0
 11
86.437897718
 21
174.1050202886
 31
0.0
  0
SPLINE
  5
353
330
33B
100
AcDbEntity
  8
$DDT_AUDIT_GENERATED_(99)
  6
Continuous
 62
     7
100
AcDbSpline
210
0.0
220
0.0
230
1.0
 70
     8
 71
     3
 72
    14
 73
    10
 74
     0
 42
0.0000000017530037
 43
0.0000000001
 40
0.0
 40
0.0
 40
0.0
 40
0.0
 40
0.2499999999999989
 40
0.2499999999999989
 40
0.3749999999999984
 40
0.3749999999999984
 40
0.4999999999999979
 40
0.4999999999999979
 40
1.0
 40
1.0
 40
1.0
 40
1.0
 10
94.26185416789036
 20
174.10502028859
 30
0.0
 10
94.74252706416509
 20
174.10502028859
 30
0.0
 10
95.21116749621378
 20
174.0322570189388
 30
0.0
 10
95.90298880761908
 20
173.855749806753
 30
0.0
 10
96.13237698853119
 20
173.7849868690258
 30
0.0
 10
96.5815770630154
 20
173.6269847086734
 30
0.0
 10
96.8021340414163
 20
173.5396104438397
 30
0.0
 10
97.88964942278203
 20
173.0711159261357
 30
0.0
 10
98.71213928534453
 20
172.5966614696735
 30
0.0
 10
99.53355056978963
 20
172.1224733595867
 30
0.0
  0
ARC
  5
354
330
33B
100
AcDbEntity
  8
$DDT_AUDIT_GENERATED_(99)
  6
Continuous
 62
     7
100
AcDbCircle
 10
91.5338551853
 20
172.1137468241
 30
0.0
 40
0.9999999999999991
100
AcDbArc
 50
0.5
 51
90.0
  0
ARC
  5
355
330
33B
100
AcDbEntity
  8
$DDT_AUDIT_GENERATED_(99)
  6
Continuous
 62
     7
100
AcDbCircle
 10
92.3703994886
 20
148.5414378526
 30
0.0
 40
24.64499886375391
100
AcDbArc
 50
73.1029257931
 51
85.5983344105
  0
LINE
  5
356
330
33B
100
AcDbEntity
  8
$DDT_AUDIT_GENERATED_(99)
  6
Continuous
 62
     7
100
AcDbLine
 10
86.437897718
 20
174.1050202886
 30
0.0
 11
86.437897718
 21
173.1137468241
 31
0.0
  0
LINE
  5
357
330
33B
100
AcDbEntity
  8
$DDT_AUDIT_GENERATED_(99)
  6
Continuous
 62
     7
100
AcDbLine
 10
94.2618541679
 20
173.1137468241
 30
0.0
 11
94.2618541679
 21
174.1050202886
 31
0.0
  0
LINE
  5
358
330
33B
100
AcDbEntity
  8
$DDT_AUDIT_GENERATED_(99)
  6
Continuous
 62
     7
100
AcDbLine
 10
167.437897718
 20
173.1137468241
 30
0.0
 11
159.613941268
 21
173.1137468241
 31
0.0
  0
LINE
  5
359
330
33B
100
AcDbEntity
  8
$DDT_AUDIT_GENERATED_(99)
  6
Continuous
 62
     7
100
AcDbLine
 10
172.8593178295
 20
173.1137468241
 30
0.0
 11
167.437897718
 21
173.1137468241
 31
0.0
  0
LINE
  5
35A
330
33B
100
AcDbEntity
  8
$DDT_AUDIT_GENERATED_(99)
  6
Continuous
 62
     7
100
AcDbLine
 10
161.3419783276
 20
172.1224733596
 30
0.0
 11
161.1036586816
 21
144.8137468241
 31
0.0
  0
ELLIPSE
  5
35B
330
33B
100
AcDbEntity
  8
$DDT_AUDIT_GENERATED_(99)
  6
Continuous
 62
     7
100
AcDbEllipse
 10
154.3416356236
 20
172.1137468241
 30
0.0
 11
-7.000342704427457
 21
-0.008726643976254833
 31
0.0
210
0.0
220
0.0
230
0.9999999999999999
 40
0.0012464765
 41
3.141580221760785
 42
4.712300396131612
  0
LINE
  5
35C
330
33B
100
AcDbEntity
  8
$DDT_AUDIT_GENERATED_(99)
  6
Continuous
 62
     7
100
AcDbLine
 10
167.437897718
 20
174.1050202886
 30
0.0
 11
167.437897718
 21
182.8111288634
 31
0.0
  0
LINE
  5
35D
330
33B
100
AcDbEntity
  8
$DDT_AUDIT_GENERATED_(99)
  6
Continuous
 62
     7
100
AcDbLine
 10
167.437897718
 20
174.1050202886
 30
0.0
 11
173.8592797525
 21
174.1050202886
 31
0.0
  0
LINE
  5
35E
330
33B
100
AcDbEntity
  8
$DDT_AUDIT_GENERATED_(99)
  6
Continuous
 62
     7
100
AcDbLine
 10
159.613941268
 20
174.1050202886
 30
0.0
 11
167.437897718
 21
174.1050202886
 31
0.0
  0
SPLINE
  5
35F
330
33B
100
AcDbEntity
  8
$DDT_AUDIT_GENERATED_(99)
  6
Continuous
 62
     7
100
AcDbSpline
210
0.0
220
0.0
230
1.0
 70
     8
 71
     3
 72
    14
 73
    10
 74
     0
 42
0.0000000017530037
 43
0.0000000001
 40
0.0
 40
0.0
 40
0.0
 40
0.0
 40
0.4999999999999983
 40
0.4999999999999983
 40
0.6249999999999988
 40
0.6249999999999988
 40
0.7499999999999991
 40
0.7499999999999991
 40
1.0
 40
1.0
 40
1.0
 40
1.0
 10
154.3422448661377
 20
172.1224733595867
 30
0.0
 10
155.1636561505787
 20
172.5966614696805
 30
0.0
 10
155.9861460131453
 20
173.0711159261357
 30
0.0
 10
157.073661394511
 20
173.5396104438397
 30
0.0
 10
157.2942183729119
 20
173.6269847086734
 30
0.0
 10
157.7434184473961
 20
173.7849868690258
 30
0.0
 10
157.9728066283082
 20
173.855749806753
 30
0.0
 10
158.6646279397135
 20
174.0322570189388
 30
0.0
 10
159.1332683717622
 20
174.10502028859
 30
0.0
 10
159.6139412680369
 20
174.10502028859
 30
0.0
  0
ARC
  5
360
330
33B
100
AcDbEntity
  8
$DDT_AUDIT_GENERATED_(99)
  6
Continuous
 62
     7
100
AcDbCircle
 10
161.5053959474
 20
148.5414378526
 30
0.0
 40
24.64499886375341
100
AcDbArc
 50
94.4016655895
 51
106.8970742069
  0
LINE
  5
361
330
33B
100
AcDbEntity
  8
$DDT_AUDIT_GENERATED_(99)
  6
Continuous
 62
     7
100
AcDbLine
 10
159.613941268
 20
174.1050202886
 30
0.0
 11
159.613941268
 21
173.1137468241
 31
0.0
  0
ARC
  5
362
330
33B
100
AcDbEntity
  8
$DDT_AUDIT_GENERATED_(99)
  6
Continuous
 62
     7
100
AcDbCircle
 10
162.3419402507
 20
172.1137468241
 30
0.0
 40
0.9999999999999991
100
AcDbArc
 50
90.0
 51
179.5
  0
LINE
  5
363
330
33B
100
AcDbEntity
  8
$DDT_AUDIT_GENERATED_(99)
  6
Continuous
 62
     7
100
AcDbLine
 10
167.437897718
 20
174.1050202886
 30
0.0
 11
167.437897718
 21
173.1137468241
 31
0.0
  0
LINE
  5
364
330
33B
100
AcDbEntity
  8
$DDT_AUDIT_GENERATED_(99)
  6
Continuous
 62
     7
100
AcDbLine
 10
132.0088601421
 20
180.5962937531
 30
0.0
 11
127.4202916717
 21
180.5962937531
 31
0.0
  0
LINE
  5
365
330
33B
100
AcDbEntity
  8
$DDT_AUDIT_GENERATED_(99)
  6
Continuous
 62
     7
100
AcDbLine
 10
132.0905265305
 20
168.4006570208
 30
0.0
 11
132.0088601421
 21
180.5962937531
 31
0.0
  0
ELLIPSE
  5
366
330
33B
100
AcDbEntity
  8
$DDT_AUDIT_GENERATED_(99)
  6
Continuous
 62
     7
100
AcDbEllipse
 10
133.1257836965
 20
168.4093835563
 30
0.0
 11
1.034768135897354
 21
0.03366324994411203
 31
0.0
210
0.0
220
0.0
230
1.0
 40
0.9658523465
 41
3.116649688714304
 42
4.678719369249613
  0
LINE
  5
367
330
33B
100
AcDbEntity
  8
$DDT_AUDIT_GENERATED_(99)
  6
Continuous
 62
     7
100
AcDbLine
 10
136.7523500966
 20
167.4093835563
 30
0.0
 11
133.1234453393
 21
167.4093835563
 31
0.0
  0
ELLIPSE
  5
368
330
33B
100
AcDbEntity
  8
$DDT_AUDIT_GENERATED_(99)
  6
Continuous
 62
     7
100
AcDbEllipse
 10
136.7500117395
 20
168.4093835563
 30
0.0
 11
-1.034768135897353
 21
0.03366324994409989
 31
0.0
210
0.0
220
0.0
230
0.9999999999999998
 40
0.9658523465
 41
1.604465937929989
 42
3.166535618465127
  0
LINE
  5
369
330
33B
100
AcDbEntity
  8
$DDT_AUDIT_GENERATED_(99)
  6
Continuous
 62
     7
100
AcDbLine
 10
137.8669352938
 20
180.5962937531
 30
0.0
 11
137.7852689055
 21
168.4006570208
 31
0.0
  0
LINE
  5
36A
330
33B
100
AcDbEntity
  8
$DDT_AUDIT_GENERATED_(99)
  6
Continuous
 62
     7
100
AcDbLine
 10
133.1234453393
 20
167.9137468241
 30
0.0
 11
136.7523500966
 21
167.9137468241
 31
0.0
  0
LINE
  5
36B
330
33B
100
AcDbEntity
  8
$DDT_AUDIT_GENERATED_(99)
  6
Continuous
 62
     7
100
AcDbLine
 10
138.2825141186
 20
182.6137468241
 30
0.0
 11
162.3159183738
 21
182.6137468241
 31
0.0
  0
ELLIPSE
  5
36C
330
33B
100
AcDbEntity
  8
$DDT_AUDIT_GENERATED_(99)
  6
Continuous
 62
     7
100
AcDbEllipse
 10
138.2689620411
 20
180.6137468241
 30
0.0
 11
0.0
 21
2.000045914174291
 31
0.0
210
0.0
220
0.0
230
1.0
 40
1.0
 41
-0.0067759350593082
 42
1.614181795814059
  0
LINE
  5
36D
330
33B
100
AcDbEntity
  8
$DDT_AUDIT_GENERATED_(99)
  6
Continuous
 62
     7
100
AcDbLine
 10
137.6275055614
 20
182.1181100918
 30
0.0
 11
132.2467512106
 21
182.1181100918
 31
0.0
  0
LINE
  5
36E
330
33B
100
AcDbEntity
  8
$DDT_AUDIT_GENERATED_(99)
  6
Continuous
 62
     7
100
AcDbLine
 10
132.5905085226
 20
168.4093835563
 30
0.0
 11
137.2852869133
 21
168.4093835563
 31
0.0
  0
ELLIPSE
  5
36F
330
33B
100
AcDbEntity
  8
$DDT_AUDIT_GENERATED_(99)
  6
Continuous
 62
     7
100
AcDbEllipse
 10
131.6068333948
 20
180.6137468241
 30
0.0
 11
0.01412237849986436
 21
-1.999997986545619
 31
0.0
210
0.0
220
0.0
230
1.0
 40
0.2009522794
 41
1.560650717983898
 42
3.140173691038041
  0
LINE
  5
370
330
33B
100
AcDbEntity
  8
$DDT_AUDIT_GENERATED_(99)
  6
Continuous
 62
     7
100
AcDbLine
 10
138.2857585767
 20
182.6137468241
 30
0.0
 11
137.7749863912
 21
182.6137468241
 31
0.0
  0
LINE
  5
371
330
33B
100
AcDbEntity
  8
$DDT_AUDIT_GENERATED_(99)
  6
Continuous
 62
     7
100
AcDbLine
 10
132.1008090447
 20
182.6137468241
 30
0.0
 11
137.7749863912
 21
182.6137468241
 31
0.0
  0
LINE
  5
372
330
33B
100
AcDbEntity
  8
$DDT_AUDIT_GENERATED_(99)
  6
Continuous
 62
     7
100
AcDbLine
 10
132.1008090447
 20
182.6137468241
 30
0.0
 11
131.5842053395
 21
182.6137468241
 31
0.0
  0
ELLIPSE
  5
373
330
33B
100
AcDbEntity
  8
$DDT_AUDIT_GENERATED_(99)
  6
Continuous
 62
     7
100
AcDbEllipse
 10
132.0088601421
 20
180.6006570208
 30
0.0
 11
-0.4999887900637486
 21
-0.003348105522404856
 31
0.0
210
0.0
220
0.0
230
0.9999999999999997
 40
0.0087263399
 41
1.570737892071477
 42
3.141232724214741
  0
LINE
  5
374
330
33B
100
AcDbEntity
  8
$DDT_AUDIT_GENERATED_(99)
  6
Continuous
 62
     7
100
AcDbLine
 10
132.1008090447
 20
182.6137468241
 30
0.0
 11
132.1008090447
 21
182.3655478725
 31
0.0
  0
ELLIPSE
  5
375
330
33B
100
AcDbEntity
  8
$DDT_AUDIT_GENERATED_(99)
  6
Continuous
 62
     7
100
AcDbEllipse
 10
132.0905265305
 20
168.4050202886
 30
0.0
 11
-0.4999887900637477
 21
-0.003348105522403555
 31
0.0
210
0.0
220
0.0
230
1.0
 40
0.0087263399
 41
1.570737892071476
 42
3.141592653589793
  0
LINE
  5
376
330
33B
100
AcDbEntity
  8
$DDT_AUDIT_GENERATED_(99)
  6
Continuous
 62
     7
100
AcDbLine
 10
137.7749863912
 20
182.6137468241
 30
0.0
 11
137.7749863912
 21
182.3631148099
 31
0.0
  0
LINE
  5
377
330
33B
100
AcDbEntity
  8
$DDT_AUDIT_GENERATED_(99)
  6
Continuous
 62
     7
100
AcDbLine
 10
133.1234453393
 20
167.9137468241
 30
0.0
 11
133.1234453393
 21
167.4093835563
 31
0.0
  0
LINE
  5
378
330
33B
100
AcDbEntity
  8
$DDT_AUDIT_GENERATED_(99)
  6
Continuous
 62
     7
100
AcDbLine
 10
136.7523500966
 20
167.9137468241
 30
0.0
 11
136.7523500966
 21
167.4093835563
 31
0.0
  0
ELLIPSE
  5
379
330
33B
100
AcDbEntity
  8
$DDT_AUDIT_GENERATED_(99)
  6
Continuous
 62
     7
100
AcDbEllipse
 10
137.7852689055
 20
168.4050202886
 30
0.0
 11
0.4999887900637486
 21
-0.00334810552240529
 31
0.0
210
0.0
220
0.0
230
0.9999999999999997
 40
0.0087263399
 41
3.141592653589676
 42
4.712447415108111
  0
ELLIPSE
  5
37A
330
33B
100
AcDbEntity
  8
$DDT_AUDIT_GENERATED_(99)
  6
Continuous
 62
     7
100
AcDbEllipse
 10
137.8669352938
 20
180.6006570208
 30
0.0
 11
0.4999887900637486
 21
-0.003348105522404856
 31
0.0
210
0.0
220
0.0
230
0.9999999999999997
 40
0.0087263399
 41
3.141253088539232
 42
4.71244741510811
  0
LINE
  5
37B
330
33B
100
AcDbEntity
  8
$DDT_AUDIT_GENERATED_(99)
  6
Continuous
 62
     7
100
AcDbLine
 10
116.0088601421
 20
180.5962937531
 30
0.0
 11
87.3861879879
 21
180.5962937531
 31
0.0
  0
LINE
  5
37C
330
33B
100
AcDbEntity
  8
$DDT_AUDIT_GENERATED_(99)
  6
Continuous
 62
     7
100
AcDbLine
 10
116.0905265305
 20
168.4006570208
 30
0.0
 11
116.0088601421
 21
180.5962937531
 31
0.0
  0
ELLIPSE
  5
37D
330
33B
100
AcDbEntity
  8
$DDT_AUDIT_GENERATED_(99)
  6
Continuous
 62
     7
100
AcDbEllipse
 10
117.1257836965
 20
168.4093835563
 30
0.0
 11
1.034768135897354
 21
0.03366324994410162
 31
0.0
210
0.0
220
0.0
230
0.9999999999999999
 40
0.9658523465
 41
3.116649688715416
 42
4.678719369249595
  0
LINE
  5
37E
330
33B
100
AcDbEntity
  8
$DDT_AUDIT_GENERATED_(99)
  6
Continuous
 62
     7
100
AcDbLine
 10
120.7523500966
 20
167.4093835563
 30
0.0
 11
117.1234453393
 21
167.4093835563
 31
0.0
  0
ELLIPSE
  5
37F
330
33B
100
AcDbEntity
  8
$DDT_AUDIT_GENERATED_(99)
  6
Continuous
 62
     7
100
AcDbEllipse
 10
120.7500117395
 20
168.4093835563
 30
0.0
 11
-1.034768135897357
 21
0.03366324994410336
 31
0.0
210
0.0
220
0.0
230
1.0
 40
0.9658523465
 41
1.604465937929979
 42
3.166535618464401
  0
LINE
  5
380
330
33B
100
AcDbEntity
  8
$DDT_AUDIT_GENERATED_(99)
  6
Continuous
 62
     7
100
AcDbLine
 10
121.8669352938
 20
180.5962937531
 30
0.0
 11
121.7852689055
 21
168.4006570208
 31
0.0
  0
LINE
  5
381
330
33B
100
AcDbEntity
  8
$DDT_AUDIT_GENERATED_(99)
  6
Continuous
 62
     7
100
AcDbLine
 10
117.1234453393
 20
167.9137468241
 30
0.0
 11
120.7523500966
 21
167.9137468241
 31
0.0
  0
LINE
  5
382
330
33B
100
AcDbEntity
  8
$DDT_AUDIT_GENERATED_(99)
  6
Continuous
 62
     7
100
AcDbLine
 10
122.2825141186
 20
182.6137468241
 30
0.0
 11
126.437897718
 21
182.6137468241
 31
0.0
  0
ELLIPSE
  5
383
330
33B
100
AcDbEntity
  8
$DDT_AUDIT_GENERATED_(99)
  6
Continuous
 62
     7
100
AcDbEllipse
 10
122.2689620411
 20
180.6137468241
 30
0.0
 11
0.0
 21
2.000045914174293
 31
0.0
210
0.0
220
0.0
230
1.0
 40
1.0
 41
-0.0067759350594645
 42
1.614181795814059
  0
LINE
  5
384
330
33B
100
AcDbEntity
  8
$DDT_AUDIT_GENERATED_(99)
  6
Continuous
 62
     7
100
AcDbLine
 10
121.6275055614
 20
182.1181100918
 30
0.0
 11
116.2467512106
 21
182.1181100918
 31
0.0
  0
LINE
  5
385
330
33B
100
AcDbEntity
  8
$DDT_AUDIT_GENERATED_(99)
  6
Continuous
 62
     7
100
AcDbLine
 10
116.5905085226
 20
168.4093835563
 30
0.0
 11
121.2852869133
 21
168.4093835563
 31
0.0
  0
ELLIPSE
  5
386
330
33B
100
AcDbEntity
  8
$DDT_AUDIT_GENERATED_(99)
  6
Continuous
 62
     7
100
AcDbEllipse
 10
115.6068333948
 20
180.6137468241
 30
0.0
 11
0.01412237849986522
 21
-1.999997986545615
 31
0.0
210
0.0
220
0.0
230
1.0
 40
0.2009522794
 41
1.560650717983898
 42
3.14017369103898
  0
LINE
  5
387
330
33B
100
AcDbEntity
  8
$DDT_AUDIT_GENERATED_(99)
  6
Continuous
 62
     7
100
AcDbLine
 10
122.2857585767
 20
182.6137468241
 30
0.0
 11
121.7749863912
 21
182.6137468241
 31
0.0
  0
LINE
  5
388
330
33B
100
AcDbEntity
  8
$DDT_AUDIT_GENERATED_(99)
  6
Continuous
 62
     7
100
AcDbLine
 10
116.1008090447
 20
182.6137468241
 30
0.0
 11
121.7749863912
 21
182.6137468241
 31
0.0
  0
LINE
  5
389
330
33B
100
AcDbEntity
  8
$DDT_AUDIT_GENERATED_(99)
  6
Continuous
 62
     7
100
AcDbLine
 10
116.1008090447
 20
182.6137468241
 30
0.0
 11
115.5842053395
 21
182.6137468241
 31
0.0
  0
ELLIPSE
  5
38A
330
33B
100
AcDbEntity
  8
$DDT_AUDIT_GENERATED_(99)
  6
Continuous
 62
     7
100
AcDbEllipse
 10
116.0088601421
 20
180.6006570208
 30
0.0
 11
-0.4999887900637486
 21
-0.003348105522404856
 31
0.0
210
0.0
220
0.0
230
0.9999999999999997
 40
0.0087263399
 41
1.570737892071477
 42
3.141232724281059
  0
LINE
  5
38B
330
33B
100
AcDbEntity
  8
$DDT_AUDIT_GENERATED_(99)
  6
Continuous
 62
     7
100
AcDbLine
 10
116.1008090447
 20
182.6137468241
 30
0.0
 11
116.1008090447
 21
182.3655478725
 31
0.0
  0
ELLIPSE
  5
38C
330
33B
100
AcDbEntity
  8
$DDT_AUDIT_GENERATED_(99)
  6
Continuous
 62
     7
100
AcDbEllipse
 10
116.0905265305
 20
168.4050202886
 30
0.0
 11
-0.4999887900637486
 21
-0.003348105522407024
 31
0.0
210
0.0
220
0.0
230
0.9999999999999997
 40
0.0087263399
 41
1.570737892071476
 42
3.141592653589793
  0
LINE
  5
38D
330
33B
100
AcDbEntity
  8
$DDT_AUDIT_GENERATED_(99)
  6
Continuous
 62
     7
100
AcDbLine
 10
121.7749863912
 20
182.6137468241
 30
0.0
 11
121.7749863912
 21
182.3631148099
 31
0.0
  0
LINE
  5
38E
330
33B
100
AcDbEntity
  8
$DDT_AUDIT_GENERATED_(99)
  6
Continuous
 62
     7
100
AcDbLine
 10
117.1234453393
 20
167.9137468241
 30
0.0
 11
117.1234453393
 21
167.4093835563
 31
0.0
  0
LINE
  5
38F
330
33B
100
AcDbEntity
  8
$DDT_AUDIT_GENERATED_(99)
  6
Continuous
 62
     7
100
AcDbLine
 10
120.7523500966
 20
167.9137468241
 30
0.0
 11
120.7523500966
 21
167.4093835563
 31
0.0
  0
ELLIPSE
  5
390
330
33B
100
AcDbEntity
  8
$DDT_AUDIT_GENERATED_(99)
  6
Continuous
 62
     7
100
AcDbEllipse
 10
121.7852689055
 20
168.4050202886
 30
0.0
 11
0.4999887900637512
 21
-0.00334810552240529
 31
0.0
210
0.0
220
0.0
230
0.9999999999999998
 40
0.0087263399
 41
3.141592653589672
 42
4.712447415108111
  0
ELLIPSE
  5
391
330
33B
100
AcDbEntity
  8
$DDT_AUDIT_GENERATED_(99)
  6
Continuous
 62
     7
100
AcDbEllipse
 10
121.8669352938
 20
180.6006570208
 30
0.0
 11
0.4999887900637504
 21
-0.003348105522403989
 31
0.0
210
0.0
220
0.0
230
0.9999999999999998
 40
0.0087263399
 41
3.141253088378044
 42
4.712447415108111
  0
LINE
  5
392
330
33B
100
AcDbEntity
  8
$DDT_AUDIT_GENERATED_(99)
  6
Continuous
 62
     7
100
AcDbLine
 10
120.2124091031
 20
142.0050202886
 30
0.0
 11
120.1965484304
 21
143.8224733596
 31
0.0
  0
ARC
  5
393
330
33B
100
AcDbEntity
  8
$DDT_AUDIT_GENERATED_(99)
  6
Continuous
 62
     7
100
AcDbCircle
 10
121.2123710262
 20
142.0137468241
 30
0.0
 40
0.9999999999999979
100
AcDbArc
 50
180.5
 51
270.0
  0
LINE
  5
394
330
33B
100
AcDbEntity
  8
$DDT_AUDIT_GENERATED_(99)
  6
Continuous
 62
     7
100
AcDbLine
 10
119.1965865074
 20
144.8137468241
 30
0.0
 11
99.7718702158
 21
144.8137468241
 31
0.0
  0
ARC
  5
395
330
33B
100
AcDbEntity
  8
$DDT_AUDIT_GENERATED_(99)
  6
Continuous
 62
     7
100
AcDbCircle
 10
119.1965865074
 20
143.8137468241
 30
0.0
 40
1.000000000000001
100
AcDbArc
 50
0.5
 51
90.0
  0
LINE
  5
396
330
33B
100
AcDbEntity
  8
$DDT_AUDIT_GENERATED_(99)
  6
Continuous
 62
     7
100
AcDbLine
 10
132.6634244098
 20
141.0137468241
 30
0.0
 11
121.2123710262
 21
141.0137468241
 31
0.0
  0
LINE
  5
397
330
33B
100
AcDbEntity
  8
$DDT_AUDIT_GENERATED_(99)
  6
Continuous
 62
     7
100
AcDbLine
 10
133.6633863328
 20
142.0050202886
 30
0.0
 11
133.6792470055
 21
143.8224733596
 31
0.0
  0
ARC
  5
398
330
33B
100
AcDbEntity
  8
$DDT_AUDIT_GENERATED_(99)
  6
Continuous
 62
     7
100
AcDbCircle
 10
132.6634244098
 20
142.0137468241
 30
0.0
 40
1.000000000000001
100
AcDbArc
 50
270.0
 51
359.5
  0
ARC
  5
399
330
33B
100
AcDbEntity
  8
$DDT_AUDIT_GENERATED_(99)
  6
Continuous
 62
     7
100
AcDbCircle
 10
134.6792089286
 20
143.8137468241
 30
0.0
 40
0.9999999999999996
100
AcDbArc
 50
90.0
 51
179.5
  0
ARC
  5
39A
330
33B
100
AcDbEntity
  8
$DDT_AUDIT_GENERATED_(99)
  6
Continuous
 62
     7
100
AcDbCircle
 10
78.9884719335
 20
179.5177771832
 30
0.0
 40
8.439502993105378
100
AcDbArc
 50
8.0921358132
 51
22.9688440724
  0
SPLINE
  5
39B
330
33B
100
AcDbEntity
  8
$DDT_AUDIT_GENERATED_(99)
  6
Continuous
 62
     7
100
AcDbSpline
210
0.0
220
0.0
230
1.0
 70
     8
 71
     3
 72
    18
 73
    14
 74
     0
 42
0.0000000024535169
 43
0.0000000001
 40
0.0
 40
0.0
 40
0.0
 40
0.0
 40
0.0624999999999988
 40
0.0624999999999988
 40
0.1249999999999975
 40
0.1249999999999975
 40
0.2499999999999983
 40
0.2499999999999983
 40
0.4999999999999989
 40
0.4999999999999989
 40
0.7499999999999994
 40
0.7499999999999994
 40
1.0
 40
1.0
 40
1.0
 40
1.0
 10
87.34394269342783
 20
180.7057667249749
 30
0.0
 10
87.3597733521413
 20
180.7995709204535
 30
0.0
 10
87.41065924218356
 20
180.8806561260089
 30
0.0
 10
87.52614019364212
 20
181.0248679311786
 30
0.0
 10
87.59217719388299
 20
181.0889886090844
 30
0.0
 10
87.7989165046662
 20
181.2725176606941
 30
0.0
 10
87.9457844409449
 20
181.3804426952319
 30
0.0
 10
88.38862019956201
 20
181.6892541952671
 30
0.0
 10
88.6901752636407
 20
181.8741824665119
 30
0.0
 10
89.29332245676608
 20
182.2179120005496
 30
0.0
 10
89.59039134834349
 20
182.3723895639895
 30
0.0
 10
90.17154818067308
 20
182.636351298527
 30
0.0
 10
90.45951484125145
 20
182.7470510266595
 30
0.0
 10
90.73005845819101
 20
182.818982546015
 30
0.0
  0
LINE
  5
39C
330
33B
100
AcDbEntity
  8
$DDT_AUDIT_GENERATED_(99)
  6
Continuous
 62
     7
100
AcDbLine
 10
91.5598770621
 20
182.6137468241
 30
0.0
 11
115.5932813173
 21
182.6137468241
 31
0.0
  0
SPLINE
  5
39D
330
33B
100
AcDbEntity
  8
$DDT_AUDIT_GENERATED_(99)
  6
Continuous
 62
     7
100
AcDbSpline
210
0.0
220
0.0
230
1.0
 70
     8
 71
     3
 72
    16
 73
    12
 74
     0
 42
0.0000000020677814
 43
0.0000000001
 40
0.0
 40
0.0
 40
0.0
 40
0.0
 40
0.5000000000000017
 40
0.5000000000000017
 40
0.7500000000000024
 40
0.7500000000000024
 40
0.8750000000000012
 40
0.8750000000000012
 40
0.9375000000000007
 40
0.9375000000000007
 40
1.0
 40
1.0
 40
1.0
 40
1.0
 10
91.55987706210908
 20
182.6137468240884
 30
0.0
 10
90.9252997719633
 20
182.6137468240884
 30
0.0
 10
90.1897581770913
 20
182.347383420636
 30
0.0
 10
89.06902825527024
 20
181.8511687790376
 30
0.0
 10
88.68585748835562
 20
181.6638949425179
 30
0.0
 10
88.1180125193003
 20
181.3472831639073
 30
0.0
 10
87.92899815526813
 20
181.2367074073558
 30
0.0
 10
87.66103000516087
 20
181.0448632449819
 30
0.0
 10
87.57372822541537
 20
180.977262365017
 30
0.0
 10
87.42435480723371
 20
180.8134426211951
 30
0.0
 10
87.36241225758725
 20
180.7060582765078
 30
0.0
 10
87.38618798791778
 20
180.5962937530916
 30
0.0
  0
ARC
  5
39E
330
33B
100
AcDbEntity
  8
$DDT_AUDIT_GENERATED_(99)
  6
Continuous
 62
     7
100
AcDbCircle
 10
87.6746802555
 20
180.7705097145
 30
0.0
 40
0.337014821159884
100
AcDbArc
 50
191.0757863362
 51
211.1271202855
  0
ELLIPSE
  5
39F
330
33B
100
AcDbEntity
  8
$DDT_AUDIT_GENERATED_(99)
  6
Continuous
 62
     7
100
AcDbEllipse
 10
91.5598770621
 20
182.9137468241
 30
0.0
 11
-6.938893903907229E-15
 21
-0.3000000000000002
 31
0.0
210
0.0
220
0.0
230
1.0
 40
0.7528407006
 41
4.879837059604434
 42
6.283185307179586
  0
LINE
  5
3A0
330
33B
100
AcDbEntity
  8
$DDT_AUDIT_GENERATED_(99)
  6
Continuous
 62
     7
100
AcDbLine
 10
166.489607448
 20
180.5962937531
 30
0.0
 11
137.8669352938
 21
180.5962937531
 31
0.0
  0
SPLINE
  5
3A1
330
33B
100
AcDbEntity
  8
$DDT_AUDIT_GENERATED_(99)
  6
Continuous
 62
     7
100
AcDbSpline
210
0.0
220
0.0
230
1.0
 70
     8
 71
     3
 72
    16
 73
    12
 74
     0
 42
0.0000000020676682
 43
0.0000000001
 40
0.0
 40
0.0
 40
0.0
 40
0.0
 40
0.0624999999999985
 40
0.0624999999999985
 40
0.124999999999997
 40
0.124999999999997
 40
0.2499999999999971
 40
0.2499999999999971
 40
0.4999999999999981
 40
0.4999999999999981
 40
1.0
 40
1.0
 40
1.0
 40
1.0
 10
166.4896074480095
 20
180.5962937530916
 30
0.0
 10
166.5136223921374
 20
180.7071626458834
 30
0.0
 10
166.4504677646175
 20
180.8150368892752
 30
0.0
 10
166.2993811090624
 20
180.9796679517183
 30
0.0
 10
166.2121144761358
 20
181.0468986980846
 30
0.0
 10
165.9444356968937
 20
181.2381169550647
 30
0.0
 10
165.7548296676869
 20
181.3489755175705
 30
0.0
 10
165.1907358478298
 20
181.6633579979647
 30
0.0
 10
164.8132113385075
 20
181.8481056253534
 30
0.0
 10
163.6905095177039
 20
182.3458183224676
 30
0.0
 10
162.9495489250256
 20
182.6137468240884
 30
0.0
 10
162.3159183738182
 20
182.6137468240884
 30
0.0
  0
ARC
  5
3A2
330
33B
100
AcDbEntity
  8
$DDT_AUDIT_GENERATED_(99)
  6
Continuous
 62
     7
100
AcDbCircle
 10
166.2004936637
 20
180.7707495559
 30
0.0
 40
0.3376708565931816
100
AcDbArc
 50
328.8925584962
 51
348.9045348766
  0
SPLINE
  5
3A3
330
33B
100
AcDbEntity
  8
$DDT_AUDIT_GENERATED_(99)
  6
Continuous
 62
     7
100
AcDbSpline
210
0.0
220
0.0
230
1.0
 70
     8
 71
     3
 72
    20
 73
    16
 74
     0
 42
0.0000000024540432
 43
0.0000000001
 40
0.0
 40
0.0
 40
0.0
 40
0.0
 40
0.1250000000000013
 40
0.1250000000000013
 40
0.2500000000000026
 40
0.2500000000000026
 40
0.5000000000000039
 40
0.5000000000000039
 40
0.7500000000000051
 40
0.7500000000000051
 40
0.8750000000000039
 40
0.8750000000000039
 40
0.937500000000002
 40
0.937500000000002
 40
1.0
 40
1.0
 40
1.0
 40
1.0
 10
163.1457369777192
 20
182.8189825460196
 30
0.0
 10
163.2819270434604
 20
182.7827726421951
 30
0.0
 10
163.4228219001801
 20
182.7365790862461
 30
0.0
 10
163.7062223970315
 20
182.6304621390171
 30
0.0
 10
163.8495484912104
 20
182.5703495547941
 30
0.0
 10
164.2846232236463
 20
182.3727559116168
 30
0.0
 10
164.5835470906279
 20
182.2173125279708
 30
0.0
 10
165.185284001447
 20
181.8743613761533
 30
0.0
 10
165.4864067594658
 20
181.6897306266861
 30
0.0
 10
165.9290628478144
 20
181.3811334845034
 30
0.0
 10
166.0758481996343
 20
181.2733375950672
 30
0.0
 10
166.2829943749853
 20
181.0895895837426
 30
0.0
 10
166.3495085298983
 20
181.0250910825668
 30
0.0
 10
166.4656273657181
 20
180.8800026972875
 30
0.0
 10
166.5161748844361
 20
180.7986655038524
 30
0.0
 10
166.5318527424937
 20
180.7057667249445
 30
0.0
  0
ARC
  5
3A4
330
33B
100
AcDbEntity
  8
$DDT_AUDIT_GENERATED_(99)
  6
Continuous
 62
     7
100
AcDbCircle
 10
174.8838295046
 20
179.5187481572
 30
0.0
 40
8.435907118634589
100
AcDbArc
 50
157.0279673227
 51
171.9110527918
  0
ARC
  5
3A5
330
33B
100
AcDbEntity
  8
$DDT_AUDIT_GENERATED_(99)
  6
Continuous
 62
     7
100
AcDbCircle
 10
167.1027360593
 20
182.8191136596
 30
0.0
 40
0.0162840283546396
100
AcDbArc
 50
330.6367226591
 51
359.5386683441
  0
LINE
  5
3A6
330
33B
100
AcDbEntity
  8
$DDT_AUDIT_GENERATED_(99)
  6
Continuous
 62
     7
100
AcDbLine
 10
167.1190195598
 20
182.818982546
 30
0.0
 11
163.1457369777
 21
182.818982546
 31
0.0
  0
ELLIPSE
  5
3A7
330
33B
100
AcDbEntity
  8
$DDT_AUDIT_GENERATED_(99)
  6
Continuous
 62
     7
100
AcDbEllipse
 10
162.3159183738
 20
182.9137468241
 30
0.0
 11
0.0
 21
0.3000000000000114
 31
0.0
210
0.0
220
0.0
230
1.0
 40
1.0
 41
3.141592653589793
 42
4.491527590321633
  0
ARC
  5
3A8
330
33B
100
AcDbEntity
  8
$DDT_AUDIT_GENERATED_(99)
  6
Continuous
 62
     7
100
AcDbCircle
 10
162.4939194151
 20
178.1180813351
 30
0.0
 40
4.74587592858226
100
AcDbArc
 50
82.1058162748
 51
89.4604337148
  0
LINE
  5
3A9
330
33B
100
AcDbEntity
  8
$DDT_AUDIT_GENERATED_(99)
  6
Continuous
 62
     7
100
AcDbLine
 10
160.9301649957
 20
182.8637468241
 30
0.0
 11
162.5386116562
 21
182.8637468241
 31
0.0
  0
LINE
  5
3AA
330
33B
100
AcDbEntity
  8
$DDT_AUDIT_GENERATED_(99)
  6
Continuous
 62
     7
100
AcDbLine
 10
167.437897718
 20
183.1137468241
 30
0.0
 11
173.6352682341
 21
183.1137468241
 31
0.0
  0
LINE
  5
3AB
330
33B
100
AcDbEntity
  8
$DDT_AUDIT_GENERATED_(99)
  6
Continuous
 62
     7
100
AcDbLine
 10
167.1264626342
 20
183.1137468241
 30
0.0
 11
167.437897718
 21
183.1137468241
 31
0.0
  0
LINE
  5
3AC
330
33B
100
AcDbEntity
  8
$DDT_AUDIT_GENERATED_(99)
  6
Continuous
 62
     7
100
AcDbLine
 10
163.343649873
 20
183.1137468241
 30
0.0
 11
167.1264626342
 21
183.1137468241
 31
0.0
  0
LINE
  5
3AD
330
33B
100
AcDbEntity
  8
$DDT_AUDIT_GENERATED_(99)
  6
Continuous
 62
     7
100
AcDbLine
 10
162.7613049387
 20
183.1137468241
 30
0.0
 11
163.343649873
 21
183.1137468241
 31
0.0
  0
LINE
  5
3AE
330
33B
100
AcDbEntity
  8
$DDT_AUDIT_GENERATED_(99)
  6
Continuous
 62
     7
100
AcDbLine
 10
162.7613049387
 20
183.1137468241
 30
0.0
 11
161.2259689849
 21
183.1137468241
 31
0.0
  0
LINE
  5
3AF
330
33B
100
AcDbEntity
  8
$DDT_AUDIT_GENERATED_(99)
  6
Continuous
 62
     7
100
AcDbLine
 10
173.935256811
 20
182.8111288634
 30
0.0
 11
167.437897718
 21
182.8111288634
 31
0.0
  0
LINE
  5
3B0
330
33B
100
AcDbEntity
  8
$DDT_AUDIT_GENERATED_(99)
  6
Continuous
 62
     7
100
AcDbLine
 10
167.437897718
 20
182.8111288634
 30
0.0
 11
167.1169280504
 21
182.8111288634
 31
0.0
  0
LINE
  5
3B1
330
33B
100
AcDbEntity
  8
$DDT_AUDIT_GENERATED_(99)
  6
Continuous
 62
     7
100
AcDbLine
 10
167.437897718
 20
182.8111288634
 30
0.0
 11
167.437897718
 21
183.1137468241
 31
0.0
  0
ELLIPSE
  5
3B2
330
33B
100
AcDbEntity
  8
$DDT_AUDIT_GENERATED_(99)
  6
Continuous
 62
     7
100
AcDbEllipse
 10
162.7613049387
 20
182.8137468241
 30
0.0
 11
0.0
 21
0.3000000000000114
 31
0.0
210
0.0
220
0.0
230
1.0
 40
1.0
 41
0.0
 42
1.349934936731962
  0
ARC
  5
3B3
330
33B
100
AcDbEntity
  8
$DDT_AUDIT_GENERATED_(99)
  6
Continuous
 62
     7
100
AcDbCircle
 10
170.0555443884
 20
182.8923086528
 30
0.0
 40
2.937440175840052
100
AcDbArc
 50
175.6766709903
 51
181.4303994777
  0
ELLIPSE
  5
3B4
330
33B
100
AcDbEntity
  8
$DDT_AUDIT_GENERATED_(99)
  6
Continuous
 62
     7
100
AcDbEllipse
 10
163.343649873
 20
182.8137468241
 30
0.0
 11
0.0
 21
0.3000000000000114
 31
0.0
210
0.0
220
0.0
230
1.0
 40
1.0
 41
0.0
 42
1.544347817570719
  0
ARC
  5
3B5
330
33B
100
AcDbEntity
  8
$DDT_AUDIT_GENERATED_(99)
  6
Continuous
 62
     7
100
AcDbCircle
 10
86.7739177851
 20
182.8193422619
 30
0.0
 40
0.0171456828689126
100
AcDbArc
 50
181.2021518032
 51
208.6224571956
  0
LINE
  5
3B6
330
33B
100
AcDbEntity
  8
$DDT_AUDIT_GENERATED_(99)
  6
Continuous
 62
     7
100
AcDbLine
 10
90.7300584582
 20
182.818982546
 30
0.0
 11
86.7567758761
 21
182.818982546
 31
0.0
  0
LINE
  5
3B7
330
33B
100
AcDbEntity
  8
$DDT_AUDIT_GENERATED_(99)
  6
Continuous
 62
     7
100
AcDbLine
 10
91.3371837797
 20
182.8637468241
 30
0.0
 11
92.9456304402
 21
182.8637468241
 31
0.0
  0
ARC
  5
3B8
330
33B
100
AcDbEntity
  8
$DDT_AUDIT_GENERATED_(99)
  6
Continuous
 62
     7
100
AcDbCircle
 10
91.3818128489
 20
178.1189381186
 30
0.0
 40
4.745018588486786
100
AcDbArc
 50
90.5389009473
 51
97.8948490636
  0
LINE
  5
3B9
330
33B
100
AcDbEntity
  8
$DDT_AUDIT_GENERATED_(99)
  6
Continuous
 62
     7
100
AcDbLine
 10
86.437897718
 20
183.1137468241
 30
0.0
 11
86.7493328018
 21
183.1137468241
 31
0.0
  0
LINE
  5
3BA
330
33B
100
AcDbEntity
  8
$DDT_AUDIT_GENERATED_(99)
  6
Continuous
 62
     7
100
AcDbLine
 10
80.2405272018
 20
183.1137468241
 30
0.0
 11
86.437897718
 21
183.1137468241
 31
0.0
  0
LINE
  5
3BB
330
33B
100
AcDbEntity
  8
$DDT_AUDIT_GENERATED_(99)
  6
Continuous
 62
     7
100
AcDbLine
 10
92.6498264511
 20
183.1137468241
 30
0.0
 11
91.1144904973
 21
183.1137468241
 31
0.0
  0
LINE
  5
3BC
330
33B
100
AcDbEntity
  8
$DDT_AUDIT_GENERATED_(99)
  6
Continuous
 62
     7
100
AcDbLine
 10
90.5321455629
 20
183.1137468241
 30
0.0
 11
91.1144904973
 21
183.1137468241
 31
0.0
  0
LINE
  5
3BD
330
33B
100
AcDbEntity
  8
$DDT_AUDIT_GENERATED_(99)
  6
Continuous
 62
     7
100
AcDbLine
 10
86.7493328018
 20
183.1137468241
 30
0.0
 11
90.5321455629
 21
183.1137468241
 31
0.0
  0
LINE
  5
3BE
330
33B
100
AcDbEntity
  8
$DDT_AUDIT_GENERATED_(99)
  6
Continuous
 62
     7
100
AcDbLine
 10
86.7588673856
 20
182.8111288634
 30
0.0
 11
86.437897718
 21
182.8111288634
 31
0.0
  0
LINE
  5
3BF
330
33B
100
AcDbEntity
  8
$DDT_AUDIT_GENERATED_(99)
  6
Continuous
 62
     7
100
AcDbLine
 10
86.437897718
 20
182.8111288634
 30
0.0
 11
79.9405386249
 21
182.8111288634
 31
0.0
  0
ARC
  5
3C0
330
33B
100
AcDbEntity
  8
$DDT_AUDIT_GENERATED_(99)
  6
Continuous
 62
     7
100
AcDbCircle
 10
83.8202510475
 20
182.8923086528
 30
0.0
 40
2.937440175898503
100
AcDbArc
 50
358.5696005224
 51
4.3233290097
  0
ELLIPSE
  5
3C1
330
33B
100
AcDbEntity
  8
$DDT_AUDIT_GENERATED_(99)
  6
Continuous
 62
     7
100
AcDbEllipse
 10
90.5321455629
 20
182.8137468241
 30
0.0
 11
0.0
 21
0.1979821378670453
 31
0.0
210
0.0
220
0.0
230
1.0
 40
1.0
 41
-1.544347817593729
 42
0.0
  0
LINE
  5
3C2
330
33B
100
AcDbEntity
  8
$DDT_AUDIT_GENERATED_(99)
  6
Continuous
 62
     7
100
AcDbLine
 10
86.437897718
 20
182.8111288634
 30
0.0
 11
86.437897718
 21
183.1137468241
 31
0.0
  0
ELLIPSE
  5
3C3
330
33B
100
AcDbEntity
  8
$DDT_AUDIT_GENERATED_(99)
  6
Continuous
 62
     7
100
AcDbEllipse
 10
91.1144904973
 20
182.8137468241
 30
0.0
 11
0.0
 21
0.2282373721319389
 31
0.0
210
0.0
220
0.0
230
1.0
 40
1.0
 41
-1.349934936731962
 42
0.0
  0
LINE
  5
3C4
330
33B
100
AcDbEntity
  8
$DDT_AUDIT_GENERATED_(99)
  6
Continuous
 62
     7
100
AcDbLine
 10
173.8592797525
 20
174.1050202886
 30
0.0
 11
173.935256811
 21
182.8111288634
 31
0.0
  0
LINE
  5
3C5
330
33B
100
AcDbEntity
  8
$DDT_AUDIT_GENERATED_(99)
  6
Continuous
 62
     7
100
AcDbLine
 10
79.9405386249
 20
182.8111288634
 30
0.0
 11
80.0165156834
 21
174.1050202886
 31
0.0
  0
ARC
  5
3C6
330
33B
100
AcDbEntity
  8
$DDT_AUDIT_GENERATED_(99)
  6
Continuous
 62
     7
100
AcDbCircle
 10
81.0164776065
 20
174.1137468241
 30
0.0
 40
1.000000000000003
100
AcDbArc
 50
180.5
 51
270.0
  0
ARC
  5
3C7
330
33B
100
AcDbEntity
  8
$DDT_AUDIT_GENERATED_(99)
  6
Continuous
 62
     7
100
AcDbCircle
 10
172.8593178295
 20
174.1137468241
 30
0.0
 40
1.000000000000001
100
AcDbArc
 50
270.0
 51
359.5
  0
SPLINE
  5
3C8
330
33B
100
AcDbEntity
  8
$DDT_AUDIT_GENERATED_(99)
  6
Continuous
 62
     7
100
AcDbSpline
210
0.0
220
0.0
230
1.0
 70
     8
 71
     3
 72
    16
 73
    12
 74
     0
 42
0.000000004117147
 43
0.0000000001
 40
0.0
 40
0.0
 40
0.0
 40
0.0
 40
0.0699230257163245
 40
0.2039653718043548
 40
0.3402675355053025
 40
0.4816209267231187
 40
0.6341540947112351
 40
0.7487786481638182
 40
0.8429137878742523
 40
0.9330420656036585
 40
1.0
 40
1.0
 40
1.0
 40
1.0
 10
132.5088489321788
 20
180.6040051263632
 30
0.0
 10
132.5077199990335
 20
180.6788871068057
 30
0.0
 10
132.5043511567703
 20
180.864714555823
 30
0.0
 10
132.479590786451
 20
181.1987792482444
 30
0.0
 10
132.4264555445132
 20
181.5596419102687
 30
0.0
 10
132.345721088872
 20
181.893227870832
 30
0.0
 10
132.2431832665998
 20
182.1571442499981
 30
0.0
 10
132.113327696422
 20
182.3610616811499
 30
0.0
 10
131.9572046260213
 20
182.5086690550036
 30
0.0
 10
131.7721074201364
 20
182.5990662747982
 30
0.0
 10
131.6532383708649
 20
182.6093574724497
 30
0.0
 10
131.593281317279
 20
182.6137468240884
 30
0.0
  0
LINE
  5
3C9
330
33B
100
AcDbEntity
  8
$DDT_AUDIT_GENERATED_(99)
  6
Continuous
 62
     7
100
AcDbLine
 10
132.5905153205
 20
168.4083683941
 30
0.0
 11
132.5088489322
 21
180.6040051264
 31
0.0
  0
ARC
  5
3CA
330
33B
100
AcDbEntity
  8
$DDT_AUDIT_GENERATED_(99)
  6
Continuous
 62
     7
100
AcDbCircle
 10
133.1059009081
 20
168.4292570902
 30
0.0
 40
0.5158087257461572
100
AcDbArc
 50
182.3209407759
 51
271.949202749
  0
ARC
  5
3CB
330
33B
100
AcDbEntity
  8
$DDT_AUDIT_GENERATED_(99)
  6
Continuous
 62
     7
100
AcDbCircle
 10
136.7687720965
 20
168.4304664539
 30
0.0
 40
0.5169805198409446
100
AcDbArc
 50
268.1796807592
 51
357.5501757158
  0
SPLINE
  5
3CC
330
33B
100
AcDbEntity
  8
$DDT_AUDIT_GENERATED_(99)
  6
Continuous
 62
     7
100
AcDbSpline
210
0.0
220
0.0
230
1.0
 70
     8
 71
     3
 72
    16
 73
    12
 74
     0
 42
0.000000004117988
 43
0.0000000001
 40
0.0
 40
0.0
 40
0.0
 40
0.0
 40
0.0927788300841372
 40
0.1795751061210523
 40
0.2687273036528939
 40
0.3732200832407501
 40
0.5102344462846459
 40
0.6487604695006126
 40
0.791962045947327
 40
0.928408853743186
 40
1.0
 40
1.0
 40
1.0
 40
1.0
 10
138.2825141186483
 20
182.6137468240884
 30
0.0
 10
138.1995872571179
 20
182.6051399950084
 30
0.0
 10
138.0638886080772
 20
182.5890640641777
 30
0.0
 10
137.8800359437071
 20
182.4774910237574
 30
0.0
 10
137.7439845388881
 20
182.3348149622445
 30
0.0
 10
137.6291053877758
 20
182.1460077139097
 30
0.0
 10
137.5331258044725
 20
181.9003090164025
 30
0.0
 10
137.4529756727992
 20
181.579216120079
 30
0.0
 10
137.3976357385297
 20
181.2146687292311
 30
0.0
 10
137.3716052173941
 20
180.8701988184115
 30
0.0
 10
137.3681175634901
 20
180.6806675212638
 30
0.0
 10
137.3669465037484
 20
180.6040051263632
 30
0.0
  0
LINE
  5
3CD
330
33B
100
AcDbEntity
  8
$DDT_AUDIT_GENERATED_(99)
  6
Continuous
 62
     7
100
AcDbLine
 10
137.3669465037
 20
180.6040051264
 30
0.0
 11
137.2852801154
 21
168.4083683941
 31
0.0
  0
SPLINE
  5
3CE
330
33B
100
AcDbEntity
  8
$DDT_AUDIT_GENERATED_(99)
  6
Continuous
 62
     7
100
AcDbSpline
210
0.0
220
0.0
230
1.0
 70
     8
 71
     3
 72
    16
 73
    12
 74
     0
 42
0.000000004117147
 43
0.0000000001
 40
0.0
 40
0.0
 40
0.0
 40
0.0
 40
0.0699230257163244
 40
0.2039653718043515
 40
0.3402675355053079
 40
0.4816209267231217
 40
0.6341540947112326
 40
0.7487786481638142
 40
0.8429137878742482
 40
0.9330420656036545
 40
1.0
 40
1.0
 40
1.0
 40
1.0
 10
116.5088489321788
 20
180.6040051263632
 30
0.0
 10
116.5077199990335
 20
180.6788871068057
 30
0.0
 10
116.5043511567702
 20
180.864714555823
 30
0.0
 10
116.479590786451
 20
181.1987792482444
 30
0.0
 10
116.4264555445132
 20
181.5596419102687
 30
0.0
 10
116.345721088872
 20
181.893227870832
 30
0.0
 10
116.2431832665998
 20
182.1571442499981
 30
0.0
 10
116.113327696422
 20
182.3610616811499
 30
0.0
 10
115.9572046260213
 20
182.5086690550036
 30
0.0
 10
115.7721074201364
 20
182.5990662747982
 30
0.0
 10
115.6532383708649
 20
182.6093574724497
 30
0.0
 10
115.593281317279
 20
182.6137468240884
 30
0.0
  0
LINE
  5
3CF
330
33B
100
AcDbEntity
  8
$DDT_AUDIT_GENERATED_(99)
  6
Continuous
 62
     7
100
AcDbLine
 10
116.5905153205
 20
168.4083683941
 30
0.0
 11
116.5088489322
 21
180.6040051264
 31
0.0
  0
ARC
  5
3D0
330
33B
100
AcDbEntity
  8
$DDT_AUDIT_GENERATED_(99)
  6
Continuous
 62
     7
100
AcDbCircle
 10
117.1059009081
 20
168.4292570902
 30
0.0
 40
0.5158087257461513
100
AcDbArc
 50
182.3209407759
 51
271.949202749
  0
ARC
  5
3D1
330
33B
100
AcDbEntity
  8
$DDT_AUDIT_GENERATED_(99)
  6
Continuous
 62
     7
100
AcDbCircle
 10
120.7687720965
 20
168.4304664539
 30
0.0
 40
0.5169805198409432
100
AcDbArc
 50
268.1796807592
 51
357.5501757158
  0
SPLINE
  5
3D2
330
33B
100
AcDbEntity
  8
$DDT_AUDIT_GENERATED_(99)
  6
Continuous
 62
     7
100
AcDbSpline
210
0.0
220
0.0
230
1.0
 70
     8
 71
     3
 72
    16
 73
    12
 74
     0
 42
0.000000004117988
 43
0.0000000001
 40
0.0
 40
0.0
 40
0.0
 40
0.0
 40
0.0927788300841372
 40
0.1795751061210522
 40
0.2687273036528944
 40
0.3732200832407536
 40
0.5102344462846484
 40
0.6487604695006091
 40
0.7919620459473151
 40
0.9284088537431762
 40
1.0
 40
1.0
 40
1.0
 40
1.0
 10
122.2825141186483
 20
182.6137468240884
 30
0.0
 10
122.1995872571179
 20
182.6051399950084
 30
0.0
 10
122.0638886080772
 20
182.5890640641777
 30
0.0
 10
121.8800359437071
 20
182.4774910237574
 30
0.0
 10
121.7439845388881
 20
182.3348149622445
 30
0.0
 10
121.6291053877758
 20
182.1460077139097
 30
0.0
 10
121.5331258044725
 20
181.9003090164025
 30
0.0
 10
121.4529756727992
 20
181.579216120079
 30
0.0
 10
121.3976357385297
 20
181.2146687292311
 30
0.0
 10
121.3716052173941
 20
180.8701988184116
 30
0.0
 10
121.3681175634901
 20
180.6806675212638
 30
0.0
 10
121.3669465037485
 20
180.6040051263632
 30
0.0
  0
LINE
  5
3D3
330
33B
100
AcDbEntity
  8
$DDT_AUDIT_GENERATED_(99)
  6
Continuous
 62
     7
100
AcDbLine
 10
121.3669465037
 20
180.6040051264
 30
0.0
 11
121.2852801154
 21
168.4083683941
 31
0.0
  0
ARC
  5
3D4
330
33B
100
AcDbEntity
  8
$DDT_AUDIT_GENERATED_(99)
  6
Continuous
 62
     7
100
AcDbCircle
 10
93.2414344294
 20
182.9137468241
 30
0.0
 40
0.3
100
AcDbArc
 50
189.5940682269
 51
270.0
  0
ARC
  5
3D5
330
33B
100
AcDbEntity
  8
$DDT_AUDIT_GENERATED_(99)
  6
Continuous
 62
     7
100
AcDbCircle
 10
160.6343610066
 20
182.9137468241
 30
0.0
 40
0.2999999999999822
100
AcDbArc
 50
270.0
 51
350.4059317731
  0
ARC
  5
3D6
330
33B
100
AcDbEntity
  8
$DDT_AUDIT_GENERATED_(99)
  6
Continuous
 62
     7
100
AcDbCircle
 10
173.6352682341
 20
182.8137468241
 30
0.0
 40
0.2999999999999976
100
AcDbArc
 50
359.5
 51
90.0
  0
ARC
  5
3D7
330
33B
100
AcDbEntity
  8
$DDT_AUDIT_GENERATED_(99)
  6
Continuous
 62
     7
100
AcDbCircle
 10
161.2259689849
 20
182.8137468241
 30
0.0
 40
0.3
100
AcDbArc
 50
90.0
 51
170.4059317731
  0
ARC
  5
3D8
330
33B
100
AcDbEntity
  8
$DDT_AUDIT_GENERATED_(99)
  6
Continuous
 62
     7
100
AcDbCircle
 10
80.2405272018
 20
182.8137468241
 30
0.0
 40
0.3
100
AcDbArc
 50
90.0
 51
180.5
  0
ARC
  5
3D9
330
33B
100
AcDbEntity
  8
$DDT_AUDIT_GENERATED_(99)
  6
Continuous
 62
     7
100
AcDbCircle
 10
92.6498264511
 20
182.8137468241
 30
0.0
 40
0.2999999999999962
100
AcDbArc
 50
9.5940682269
 51
90.0
  0
ARC
  5
3DA
330
33B
100
AcDbEntity
  8
$DDT_AUDIT_GENERATED_(29D)
  6
Continuous
 62
     7
100
AcDbCircle
 10
157.2044020125
 20
143.8137468241
 30
0.0
 40
1.000000000000001
100
AcDbArc
 50
36.8698976458
 51
90.0
  0
ARC
  5
3DB
330
33B
100
AcDbEntity
  8
$DDT_AUDIT_GENERATED_(29D)
  6
Continuous
 62
     7
100
AcDbCircle
 10
149.7044020125
 20
143.8137468241
 30
0.0
 40
1.000000000000001
100
AcDbArc
 50
90.0
 51
143.1301023542
  0
LINE
  5
3DC
330
33B
100
AcDbEntity
  8
$DDT_AUDIT_GENERATED_(EE)
  6
Continuous
 62
     7
100
AcDbLine
 10
182.437897718
 20
144.8137468241
 30
0.0
 11
182.437897718
 21
165.8137468241
 31
0.0
  0
LINE
  5
3DD
330
33B
100
AcDbEntity
  8
$DDT_AUDIT_GENERATED_(EE)
  6
Continuous
 62
     7
100
AcDbLine
 10
182.437897718
 20
161.3137468241
 30
0.0
 11
190.437897718
 21
161.3137468241
 31
0.0
  0
LINE
  5
3DE
330
33B
100
AcDbEntity
  8
$DDT_AUDIT_GENERATED_(EE)
  6
Continuous
 62
     7
100
AcDbLine
 10
190.437897718
 20
149.3137468241
 30
0.0
 11
182.437897718
 21
149.3137468241
 31
0.0
  0
LINE
  5
3DF
330
33B
100
AcDbEntity
  8
$DDT_AUDIT_GENERATED_(EE)
  6
Continuous
 62
     7
100
AcDbLine
 10
190.437897718
 20
149.3137468241
 30
0.0
 11
190.437897718
 21
161.3137468241
 31
0.0
  0
LINE
  5
3E0
330
33B
100
AcDbEntity
  8
$DDT_AUDIT_GENERATED_(EE)
  6
Continuous
 62
     7
100
AcDbLine
 10
182.437897718
 20
165.8137468241
 30
0.0
 11
174.437897718
 21
165.4708896812
 31
0.0
  0
LINE
  5
3E1
330
33B
100
AcDbEntity
  8
$DDT_AUDIT_GENERATED_(EE)
  6
Continuous
 62
     7
100
AcDbLine
 10
174.437897718
 20
145.1566039669
 30
0.0
 11
182.437897718
 21
144.8137468241
 31
0.0
  0
ARC
  5
3E2
330
33B
100
AcDbEntity
  8
$DDT_AUDIT_GENERATED_(29D)
  6
Continuous
 62
     7
100
AcDbCircle
 10
104.1713934235
 20
143.8137468241
 30
0.0
 40
1.000000000000001
100
AcDbArc
 50
36.8698976458
 51
90.0
  0
ARC
  5
3E3
330
33B
100
AcDbEntity
  8
$DDT_AUDIT_GENERATED_(29D)
  6
Continuous
 62
     7
100
AcDbCircle
 10
96.6713934235
 20
143.8137468241
 30
0.0
 40
1.000000000000001
100
AcDbArc
 50
90.0
 51
143.1301023542
  0
LINE
  5
3E4
330
33B
100
AcDbEntity
  8
$DDT_AUDIT_GENERATED_(104)
  6
Continuous
 62
     7
100
AcDbLine
 10
176.937897718
 20
138.8137468241
 30
0.0
 11
176.937897718
 21
122.4137468241
 31
0.0
  0
LINE
  5
3E5
330
33B
100
AcDbEntity
  8
$DDT_AUDIT_GENERATED_(104)
  6
Continuous
 62
     7
100
AcDbLine
 10
154.1881642565
 20
138.8137468241
 30
0.0
 11
176.937897718
 21
138.8137468241
 31
0.0
  0
LINE
  5
3E6
330
33B
100
AcDbEntity
  8
$DDT_AUDIT_GENERATED_(104)
  6
Continuous
 62
     7
100
AcDbLine
 10
176.937897718
 20
138.8137468241
 30
0.0
 11
181.937897718
 21
138.8137468241
 31
0.0
  0
LINE
  5
3E7
330
33B
100
AcDbEntity
  8
$DDT_AUDIT_GENERATED_(104)
  6
Continuous
 62
     7
100
AcDbLine
 10
176.937897718
 20
122.4137468241
 30
0.0
 11
181.7947770862
 21
122.4137468241
 31
0.0
  0
LINE
  5
3E8
330
33B
100
AcDbEntity
  8
$DDT_AUDIT_GENERATED_(104)
  6
Continuous
 62
     7
100
AcDbLine
 10
172.0810183497
 20
122.4137468241
 30
0.0
 11
172.0155287636
 21
129.9181100918
 31
0.0
  0
LINE
  5
3E9
330
33B
100
AcDbEntity
  8
$DDT_AUDIT_GENERATED_(104)
  6
Continuous
 62
     7
100
AcDbLine
 10
172.937897718
 20
122.4137468241
 30
0.0
 11
176.937897718
 21
122.4137468241
 31
0.0
  0
LINE
  5
3EA
330
33B
100
AcDbEntity
  8
$DDT_AUDIT_GENERATED_(104)
  6
Continuous
 62
     7
100
AcDbLine
 10
172.937897718
 20
130.9093835563
 30
0.0
 11
172.937897718
 21
122.4137468241
 31
0.0
  0
LINE
  5
3EB
330
33B
100
AcDbEntity
  8
$DDT_AUDIT_GENERATED_(104)
  6
Continuous
 62
     7
100
AcDbLine
 10
172.937897718
 20
122.4137468241
 30
0.0
 11
172.0810183497
 21
122.4137468241
 31
0.0
  0
LINE
  5
3EC
330
33B
100
AcDbEntity
  8
$DDT_AUDIT_GENERATED_(104)
  6
Continuous
 62
     7
100
AcDbLine
 10
76.937897718
 20
138.8137468241
 30
0.0
 11
76.937897718
 21
122.4137468241
 31
0.0
  0
LINE
  5
3ED
330
33B
100
AcDbEntity
  8
$DDT_AUDIT_GENERATED_(104)
  6
Continuous
 62
     7
100
AcDbLine
 10
71.937897718
 20
138.8137468241
 30
0.0
 11
76.937897718
 21
138.8137468241
 31
0.0
  0
LINE
  5
3EE
330
33B
100
AcDbEntity
  8
$DDT_AUDIT_GENERATED_(104)
  6
Continuous
 62
     7
100
AcDbLine
 10
76.937897718
 20
138.8137468241
 30
0.0
 11
99.6876311794
 21
138.8137468241
 31
0.0
  0
LINE
  5
3EF
330
33B
100
AcDbEntity
  8
$DDT_AUDIT_GENERATED_(104)
  6
Continuous
 62
     7
100
AcDbLine
 10
72.0810183497
 20
122.4137468241
 30
0.0
 11
76.937897718
 21
122.4137468241
 31
0.0
  0
LINE
  5
3F0
330
33B
100
AcDbEntity
  8
$DDT_AUDIT_GENERATED_(104)
  6
Continuous
 62
     7
100
AcDbLine
 10
76.937897718
 20
122.4137468241
 30
0.0
 11
80.937897718
 21
122.4137468241
 31
0.0
  0
LINE
  5
3F1
330
33B
100
AcDbEntity
  8
$DDT_AUDIT_GENERATED_(104)
  6
Continuous
 62
     7
100
AcDbLine
 10
80.937897718
 20
122.4137468241
 30
0.0
 11
80.937897718
 21
130.9093835563
 31
0.0
  0
LINE
  5
3F2
330
33B
100
AcDbEntity
  8
$DDT_AUDIT_GENERATED_(104)
  6
Continuous
 62
     7
100
AcDbLine
 10
81.7947770862
 20
122.4137468241
 30
0.0
 11
80.937897718
 21
122.4137468241
 31
0.0
  0
LINE
  5
3F3
330
33B
100
AcDbEntity
  8
$DDT_AUDIT_GENERATED_(104)
  6
Continuous
 62
     7
100
AcDbLine
 10
98.1211938644
 20
130.1137468241
 30
0.0
 11
98.1148733076
 21
130.4137468241
 31
0.0
  0
LINE
  5
3F4
330
33B
100
AcDbEntity
  8
$DDT_AUDIT_GENERATED_(104)
  6
Continuous
 62
     7
100
AcDbLine
 10
105.7404959685
 20
130.1137468241
 30
0.0
 11
105.7473029254
 21
130.4137468241
 31
0.0
  0
LINE
  5
3F5
330
33B
100
AcDbEntity
  8
$DDT_AUDIT_GENERATED_(104)
  6
Continuous
 62
     7
100
AcDbLine
 10
103.6138214677
 20
130.1137468241
 30
0.0
 11
103.6112034074
 21
130.4137468241
 31
0.0
  0
LINE
  5
3F6
330
33B
100
AcDbEntity
  8
$DDT_AUDIT_GENERATED_(104)
  6
Continuous
 62
     7
100
AcDbLine
 10
101.626705967
 20
130.1137468241
 30
0.0
 11
101.6275929256
 21
130.4137468241
 31
0.0
  0
LINE
  5
3F7
330
33B
100
AcDbEntity
  8
$DDT_AUDIT_GENERATED_(104)
  6
Continuous
 62
     7
100
AcDbLine
 10
100.7121759174
 20
130.1137468241
 30
0.0
 11
100.713062876
 21
130.4137468241
 31
0.0
  0
LINE
  5
3F8
330
33B
100
AcDbEntity
  8
$DDT_AUDIT_GENERATED_(104)
  6
Continuous
 62
     7
100
AcDbLine
 10
105.7404959685
 20
130.1137468241
 30
0.0
 11
103.6138214677
 21
130.1137468241
 31
0.0
  0
LINE
  5
3F9
330
33B
100
AcDbEntity
  8
$DDT_AUDIT_GENERATED_(104)
  6
Continuous
 62
     7
100
AcDbLine
 10
103.6138214677
 20
130.1137468241
 30
0.0
 11
101.626705967
 21
130.1137468241
 31
0.0
  0
LINE
  5
3FA
330
33B
100
AcDbEntity
  8
$DDT_AUDIT_GENERATED_(104)
  6
Continuous
 62
     7
100
AcDbLine
 10
101.626705967
 20
130.1137468241
 30
0.0
 11
100.7121759174
 21
130.1137468241
 31
0.0
  0
LINE
  5
3FB
330
33B
100
AcDbEntity
  8
$DDT_AUDIT_GENERATED_(104)
  6
Continuous
 62
     7
100
AcDbLine
 10
100.7121759174
 20
130.1137468241
 30
0.0
 11
98.1211938644
 21
130.1137468241
 31
0.0
  0
LINE
  5
3FC
330
33B
100
AcDbEntity
  8
$DDT_AUDIT_GENERATED_(104)
  6
Continuous
 62
     7
100
AcDbLine
 10
99.736501639
 20
144.4137468241
 30
0.0
 11
99.6876311794
 21
138.8137468241
 31
0.0
  0
LINE
  5
3FD
330
33B
100
AcDbEntity
  8
$DDT_AUDIT_GENERATED_(104)
  6
Continuous
 62
     7
100
AcDbLine
 10
92.687897718
 20
138.8137468241
 30
0.0
 11
92.7367681776
 21
144.4137468241
 31
0.0
  0
LINE
  5
3FE
330
33B
100
AcDbEntity
  8
$DDT_AUDIT_GENERATED_(104)
  6
Continuous
 62
     7
100
AcDbLine
 10
92.7367681776
 20
144.4137468241
 30
0.0
 11
99.736501639
 21
144.4137468241
 31
0.0
  0
LINE
  5
3FF
330
33B
100
AcDbEntity
  8
$DDT_AUDIT_GENERATED_(104)
  6
Continuous
 62
     7
100
AcDbLine
 10
161.1390272583
 20
144.4137468241
 30
0.0
 11
161.187897718
 21
138.8137468241
 31
0.0
  0
LINE
  5
400
330
33B
100
AcDbEntity
  8
$DDT_AUDIT_GENERATED_(104)
  6
Continuous
 62
     7
100
AcDbLine
 10
154.1881642565
 20
138.8137468241
 30
0.0
 11
99.6876311794
 21
138.8137468241
 31
0.0
  0
LINE
  5
401
330
33B
100
AcDbEntity
  8
$DDT_AUDIT_GENERATED_(104)
  6
Continuous
 62
     7
100
AcDbLine
 10
154.1392937969
 20
144.4137468241
 30
0.0
 11
135.533931342
 21
144.4137468241
 31
0.0
  0
LINE
  5
402
330
33B
100
AcDbEntity
  8
$DDT_AUDIT_GENERATED_(104)
  6
Continuous
 62
     7
100
AcDbLine
 10
154.1881642565
 20
138.8137468241
 30
0.0
 11
154.1392937969
 21
144.4137468241
 31
0.0
  0
LINE
  5
403
330
33B
100
AcDbEntity
  8
$DDT_AUDIT_GENERATED_(104)
  6
Continuous
 62
     7
100
AcDbLine
 10
154.1392937969
 20
144.4137468241
 30
0.0
 11
161.1390272583
 21
144.4137468241
 31
0.0
  0
ARC
  5
404
330
33B
100
AcDbEntity
  8
$DDT_AUDIT_GENERATED_(104)
  6
Continuous
 62
     7
100
AcDbCircle
 10
133.5181468233
 20
141.6137468241
 30
0.0
 40
0.9999999999999993
100
AcDbArc
 50
270.0
 51
359.5
  0
LINE
  5
405
330
33B
100
AcDbEntity
  8
$DDT_AUDIT_GENERATED_(104)
  6
Continuous
 62
     7
100
AcDbLine
 10
120.3576486127
 20
140.6137468241
 30
0.0
 11
133.5181468233
 21
140.6137468241
 31
0.0
  0
LINE
  5
406
330
33B
100
AcDbEntity
  8
$DDT_AUDIT_GENERATED_(104)
  6
Continuous
 62
     7
100
AcDbLine
 10
119.3576866896
 20
141.6050202886
 30
0.0
 11
119.3418260169
 21
143.4224733596
 31
0.0
  0
ARC
  5
407
330
33B
100
AcDbEntity
  8
$DDT_AUDIT_GENERATED_(104)
  6
Continuous
 62
     7
100
AcDbCircle
 10
120.3576486127
 20
141.6137468241
 30
0.0
 40
1.000000000000001
100
AcDbArc
 50
180.5
 51
270.0
  0
LINE
  5
408
330
33B
100
AcDbEntity
  8
$DDT_AUDIT_GENERATED_(104)
  6
Continuous
 62
     7
100
AcDbLine
 10
134.533969419
 20
143.4224733596
 30
0.0
 11
134.5181087463
 21
141.6050202886
 31
0.0
  0
ARC
  5
409
330
33B
100
AcDbEntity
  8
$DDT_AUDIT_GENERATED_(104)
  6
Continuous
 62
     7
100
AcDbCircle
 10
135.533931342
 20
143.4137468241
 30
0.0
 40
1.000000000000001
100
AcDbArc
 50
90.0
 51
179.5
  0
LINE
  5
40A
330
33B
100
AcDbEntity
  8
$DDT_AUDIT_GENERATED_(104)
  6
Continuous
 62
     7
100
AcDbLine
 10
118.3418640939
 20
144.4137468241
 30
0.0
 11
99.736501639
 21
144.4137468241
 31
0.0
  0
ARC
  5
40B
330
33B
100
AcDbEntity
  8
$DDT_AUDIT_GENERATED_(104)
  6
Continuous
 62
     7
100
AcDbCircle
 10
118.3418640939
 20
143.4137468241
 30
0.0
 40
1.0
100
AcDbArc
 50
0.5
 51
90.0
  0
LINE
  5
40C
330
33B
100
AcDbEntity
  8
$DDT_AUDIT_GENERATED_(104)
  6
Continuous
 62
     7
100
AcDbLine
 10
161.1303765459
 20
145.4050202886
 30
0.0
 11
161.1390272583
 21
144.4137468241
 31
0.0
  0
LINE
  5
40D
330
33B
100
AcDbEntity
  8
$DDT_AUDIT_GENERATED_(104)
  6
Continuous
 62
     7
100
AcDbLine
 10
161.1195975964
 20
146.6401655579
 30
0.0
 11
161.1303765459
 21
145.4050202886
 31
0.0
  0
LINE
  5
40E
330
33B
100
AcDbEntity
  8
$DDT_AUDIT_GENERATED_(104)
  6
Continuous
 62
     7
100
AcDbLine
 10
92.7454188901
 20
145.4050202886
 30
0.0
 11
92.766976789
 21
145.4050202886
 31
0.0
  0
LINE
  5
40F
330
33B
100
AcDbEntity
  8
$DDT_AUDIT_GENERATED_(104)
  6
Continuous
 62
     7
100
AcDbLine
 10
92.7367681776
 20
144.4137468241
 30
0.0
 11
92.7454188901
 21
145.4050202886
 31
0.0
  0
LINE
  5
410
330
33B
100
AcDbEntity
  8
$DDT_AUDIT_GENERATED_(104)
  6
Continuous
 62
     7
100
AcDbLine
 10
92.7561978395
 20
146.6401655579
 30
0.0
 11
92.7454188901
 21
145.4050202886
 31
0.0
  0
LINE
  5
411
330
33B
100
AcDbEntity
  8
$DDT_AUDIT_GENERATED_(104)
  6
Continuous
 62
     7
100
AcDbLine
 10
80.937897718
 20
130.9093835563
 30
0.0
 11
172.937897718
 21
130.9093835563
 31
0.0
  0
LINE
  5
412
330
33B
100
AcDbEntity
  8
$DDT_AUDIT_GENERATED_(104)
  6
Continuous
 62
     7
100
AcDbLine
 10
161.1088186469
 20
145.4050202886
 30
0.0
 11
161.1303765459
 21
145.4050202886
 31
0.0
  0
LINE
  5
413
330
33B
100
AcDbEntity
  8
$DDT_AUDIT_GENERATED_(104)
  6
Continuous
 62
     7
100
AcDbLine
 10
160.2909128363
 20
144.8137468241
 30
0.0
 11
160.283931342
 21
144.4137468241
 31
0.0
  0
LINE
  5
414
330
33B
100
AcDbEntity
  8
$DDT_AUDIT_GENERATED_(104)
  6
Continuous
 62
     7
100
AcDbLine
 10
94.5796845574
 20
144.8137468241
 30
0.0
 11
94.5831753045
 21
144.4137468241
 31
0.0
  0
LINE
  5
415
330
33B
100
AcDbEntity
  8
$DDT_AUDIT_GENERATED_(104)
  6
Continuous
 62
     7
100
AcDbLine
 10
93.5918640939
 20
144.4137468241
 30
0.0
 11
93.5848825996
 21
144.8137468241
 31
0.0
  0
SPLINE
  5
416
330
33B
100
AcDbEntity
  8
$DDT_AUDIT_GENERATED_(104)
  6
Continuous
 62
     7
100
AcDbSpline
210
0.0
220
0.0
230
1.0
 70
     8
 71
     3
 72
    10
 73
     6
 74
     0
 42
0.0000000042074338
 43
0.0000000001
 40
0.3914559145307119
 40
0.3914559145307119
 40
0.3914559145307119
 40
0.3914559145307119
 40
0.5000000000000028
 40
0.5000000000000028
 40
0.6067088317474182
 40
0.6067088317474182
 40
0.6067088317474182
 40
0.6067088317474182
 10
159.2569951925215
 20
144.4217596014051
 30
0.0
 10
159.3029929204564
 20
144.494557549988
 30
0.0
 10
159.3536270725703
 20
144.5644180583951
 30
0.0
 10
159.461337511831
 20
144.6968691774675
 30
0.0
 10
159.518055612088
 20
144.7592481771263
 30
0.0
 10
159.5773559930106
 20
144.8189964061358
 30
0.0
  0
SPLINE
  5
417
330
33B
100
AcDbEntity
  8
$DDT_AUDIT_GENERATED_(104)
  6
Continuous
 62
     7
100
AcDbSpline
210
0.0
220
0.0
230
1.0
 70
     8
 71
     3
 72
    10
 73
     6
 74
     0
 42
0.0000000046654811
 43
0.0000000001
 40
0.3412603980309749
 40
0.3412603980309749
 40
0.3412603980309749
 40
0.3412603980309749
 40
0.5
 40
0.5
 40
0.5630518886644995
 40
0.5630518886644995
 40
0.5630518886644995
 40
0.5630518886644995
 10
159.8561688917068
 20
144.8132441964309
 30
0.0
 10
159.7880411911026
 20
144.7221627037307
 30
0.0
 10
159.7210918193565
 20
144.630601378733
 30
0.0
 10
159.6320690658098
 20
144.4996679802774
 30
0.0
 10
159.6073278409813
 20
144.4621207998845
 30
0.0
 10
159.5833849604209
 20
144.424110255899
 30
0.0
  0
LINE
  5
418
330
33B
100
AcDbEntity
  8
$DDT_AUDIT_GENERATED_(104)
  6
Continuous
 62
     7
100
AcDbLine
 10
95.3634082213
 20
144.4137468241
 30
0.0
 11
95.3424451096
 21
144.8137468241
 31
0.0
  0
LINE
  5
419
330
33B
100
AcDbEntity
  8
$DDT_AUDIT_GENERATED_(104)
  6
Continuous
 62
     7
100
AcDbLine
 10
94.8796959809
 20
144.8137468241
 30
0.0
 11
94.883186728
 21
144.4137468241
 31
0.0
  0
LINE
  5
41A
330
33B
100
AcDbEntity
  8
$DDT_AUDIT_GENERATED_(104)
  6
Continuous
 62
     7
100
AcDbLine
 10
95.6428568134
 20
144.8137468241
 30
0.0
 11
95.6638199251
 21
144.4137468241
 31
0.0
  0
LINE
  5
41B
330
33B
100
AcDbEntity
  8
$DDT_AUDIT_GENERATED_(104)
  6
Continuous
 62
     7
100
AcDbLine
 10
158.2119755108
 20
144.4137468241
 30
0.0
 11
158.2329386225
 21
144.8137468241
 31
0.0
  0
LINE
  5
41C
330
33B
100
AcDbEntity
  8
$DDT_AUDIT_GENERATED_(104)
  6
Continuous
 62
     7
100
AcDbLine
 10
158.5332131248
 20
144.8137468241
 30
0.0
 11
158.5122500131
 21
144.4137468241
 31
0.0
  0
LINE
  5
41D
330
33B
100
AcDbEntity
  8
$DDT_AUDIT_GENERATED_(104)
  6
Continuous
 62
     7
100
AcDbLine
 10
172.0589025649
 20
129.9181100918
 30
0.0
 11
172.0155287636
 21
129.9181100918
 31
0.0
  0
SPLINE
  5
41E
330
33B
100
AcDbEntity
  8
$DDT_AUDIT_GENERATED_(104)
  6
Continuous
 62
     7
100
AcDbSpline
210
0.0
220
0.0
230
1.0
 70
     8
 71
     3
 72
    14
 73
    10
 74
     0
 42
0.0000000074583888
 43
0.0000000001
 40
0.0
 40
0.0
 40
0.0
 40
0.0
 40
0.25
 40
0.25
 40
0.5
 40
0.5
 40
0.75
 40
0.75
 40
1.0
 40
1.0
 40
1.0
 40
1.0
 10
172.9378977179636
 20
130.9093835563392
 30
0.0
 10
172.8571801652015
 20
130.8056750717381
 30
0.0
 10
172.7760636355517
 20
130.7013743106493
 30
0.0
 10
172.6168608863369
 20
130.4989752292756
 30
0.0
 10
172.5383771043554
 20
130.4002376061107
 30
0.0
 10
172.3826501735835
 20
130.2110803285001
 30
0.0
 10
172.3066874831042
 20
130.1217854782938
 30
0.0
 10
172.1645430902861
 20
129.9747871441946
 30
0.0
 10
172.0994320140717
 20
129.9181100918376
 30
0.0
 10
172.0589025648521
 20
129.9181100918376
 30
0.0
  0
LINE
  5
41F
330
33B
100
AcDbEntity
  8
$DDT_AUDIT_GENERATED_(104)
  6
Continuous
 62
     7
100
AcDbLine
 10
171.5824328834
 20
130.4137468241
 30
0.0
 11
82.2933625525
 21
130.4137468241
 31
0.0
  0
SPLINE
  5
420
330
33B
100
AcDbEntity
  8
$DDT_AUDIT_GENERATED_(104)
  6
Continuous
 62
     7
100
AcDbSpline
210
0.0
220
0.0
230
1.0
 70
     8
 71
     3
 72
    14
 73
    10
 74
     0
 42
0.0000000069097245
 43
0.0000000001
 40
0.0
 40
0.0
 40
0.0
 40
0.0
 40
0.1250000000000038
 40
0.1250000000000038
 40
0.2500000000000076
 40
0.2500000000000076
 40
0.500000000000005
 40
0.500000000000005
 40
1.0
 40
1.0
 40
1.0
 40
1.0
 10
171.582432883414
 20
130.4137468240884
 30
0.0
 10
171.6184805359131
 20
130.4137468240884
 30
0.0
 10
171.663393876186
 20
130.4227159942577
 30
0.0
 10
171.7631163405716
 20
130.4487050837048
 30
0.0
 10
171.8160637198503
 20
130.4654406934561
 30
0.0
 10
171.9807203263968
 20
130.5213462836376
 30
0.0
 10
172.0979271999767
 20
130.5661688408507
 30
0.0
 10
172.4503382046548
 20
130.7052547901052
 30
0.0
 10
172.6947092523418
 20
130.8077409978175
 30
0.0
 10
172.9378977179636
 20
130.9093835563392
 30
0.0
  0
ARC
  5
421
330
33B
100
AcDbEntity
  8
$DDT_AUDIT_GENERATED_(104)
  6
Continuous
 62
     7
100
AcDbCircle
 10
171.5155478021
 20
129.9137468241
 30
0.0
 40
0.5000000000000004
100
AcDbArc
 50
0.5
 51
90.0
  0
ELLIPSE
  5
422
330
33B
100
AcDbEntity
  8
$DDT_AUDIT_GENERATED_(104)
  6
Continuous
 62
     7
100
AcDbEllipse
 10
171.5824328834
 20
129.9137468241
 30
0.0
 11
0.0
 21
0.4764896593161494
 31
0.0
210
0.0
220
0.0
230
1.0
 40
1.0
 41
-1.561639089812354
 42
0.0
  0
LINE
  5
423
330
33B
100
AcDbEntity
  8
$DDT_AUDIT_GENERATED_(104)
  6
Continuous
 62
     7
100
AcDbLine
 10
81.8602666723
 20
129.9181100918
 30
0.0
 11
81.7947770862
 21
122.4137468241
 31
0.0
  0
SPLINE
  5
424
330
33B
100
AcDbEntity
  8
$DDT_AUDIT_GENERATED_(104)
  6
Continuous
 62
     7
100
AcDbSpline
210
0.0
220
0.0
230
1.0
 70
     8
 71
     3
 72
    14
 73
    10
 74
     0
 42
0.0000000074583888
 43
0.0000000001
 40
0.0
 40
0.0
 40
0.0
 40
0.0
 40
0.25
 40
0.25
 40
0.5
 40
0.5
 40
0.75
 40
0.75
 40
1.0
 40
1.0
 40
1.0
 40
1.0
 10
81.81689287107513
 20
129.9181100918375
 30
0.0
 10
81.7763634218555
 20
129.9181100918375
 30
0.0
 10
81.71125234564116
 20
129.9747871441945
 30
0.0
 10
81.56910795282307
 20
130.1217854782937
 30
0.0
 10
81.49314526234372
 20
130.2110803285
 30
0.0
 10
81.3374183315718
 20
130.4002376061107
 30
0.0
 10
81.25893454959039
 20
130.4989752292756
 30
0.0
 10
81.09973180037561
 20
130.7013743106492
 30
0.0
 10
81.0186152707258
 20
130.8056750717381
 30
0.0
 10
80.93789771796361
 20
130.9093835563392
 30
0.0
  0
LINE
  5
425
330
33B
100
AcDbEntity
  8
$DDT_AUDIT_GENERATED_(104)
  6
Continuous
 62
     7
100
AcDbLine
 10
81.8602666723
 20
129.9181100918
 30
0.0
 11
81.8168928711
 21
129.9181100918
 31
0.0
  0
SPLINE
  5
426
330
33B
100
AcDbEntity
  8
$DDT_AUDIT_GENERATED_(104)
  6
Continuous
 62
     7
100
AcDbSpline
210
0.0
220
0.0
230
1.0
 70
     8
 71
     3
 72
    14
 73
    10
 74
     0
 42
0.0000000069097245
 43
0.0000000001
 40
0.0
 40
0.0
 40
0.0
 40
0.0
 40
0.499999999999995
 40
0.499999999999995
 40
0.7499999999999925
 40
0.7499999999999925
 40
0.8749999999999962
 40
0.8749999999999962
 40
1.0
 40
1.0
 40
1.0
 40
1.0
 10
80.93789771796361
 20
130.9093835563392
 30
0.0
 10
81.18108618358549
 20
130.8077409978175
 30
0.0
 10
81.42545723127245
 20
130.7052547901052
 30
0.0
 10
81.77786823595049
 20
130.5661688408507
 30
0.0
 10
81.89507510953048
 20
130.5213462836376
 30
0.0
 10
82.05973171607694
 20
130.465440693456
 30
0.0
 10
82.11267909535569
 20
130.4487050837048
 30
0.0
 10
82.21240155974124
 20
130.4227159942576
 30
0.0
 10
82.25731490001415
 20
130.4137468240883
 30
0.0
 10
82.29336255251327
 20
130.4137468240883
 30
0.0
  0
ELLIPSE
  5
427
330
33B
100
AcDbEntity
  8
$DDT_AUDIT_GENERATED_(104)
  6
Continuous
 62
     7
100
AcDbEllipse
 10
82.2933625525
 20
129.9137468241
 30
0.0
 11
0.0
 21
0.5
 31
0.0
210
0.0
220
0.0
230
1.0
 40
1.0
 41
0.0
 42
1.561639089812354
  0
ARC
  5
428
330
33B
100
AcDbEntity
  8
$DDT_AUDIT_GENERATED_(104)
  6
Continuous
 62
     7
100
AcDbCircle
 10
82.3602476338
 20
129.9137468241
 30
0.0
 40
0.5000000000000004
100
AcDbArc
 50
90.0
 51
179.5
  0
LINE
  5
429
330
33B
100
AcDbEntity
  8
$DDT_AUDIT_GENERATED_(104)
  6
Continuous
 62
     7
100
AcDbLine
 10
181.7947770862
 20
122.4137468241
 30
0.0
 11
181.937897718
 21
138.8137468241
 31
0.0
  0
LINE
  5
42A
330
33B
100
AcDbEntity
  8
$DDT_AUDIT_GENERATED_(104)
  6
Continuous
 62
     7
100
AcDbLine
 10
71.937897718
 20
138.8137468241
 30
0.0
 11
72.0810183497
 21
122.4137468241
 31
0.0
  0
LINE
  5
42B
330
33B
100
AcDbEntity
  8
$DDT_AUDIT_GENERATED_(2E3)
  6
Continuous
 62
     7
100
AcDbLine
 10
109.387897718
 20
113.8137468241
 30
0.0
 11
144.487897718
 21
113.8137468241
 31
0.0
  0
LINE
  5
42C
330
33B
100
AcDbEntity
  8
$DDT_AUDIT_GENERATED_(2E3)
  6
Continuous
 62
     7
100
AcDbLine
 10
108.987897718
 20
114.5065671471
 30
0.0
 11
144.887897718
 21
114.5065671471
 31
0.0
  0
LINE
  5
42D
330
33B
100
AcDbEntity
  8
$DDT_AUDIT_GENERATED_(2E3)
  6
Continuous
 62
     7
100
AcDbLine
 10
144.487897718
 20
66.6137468241
 30
0.0
 11
144.487897718
 21
113.8137468241
 31
0.0
  0
LINE
  5
42E
330
33B
100
AcDbEntity
  8
$DDT_AUDIT_GENERATED_(2E3)
  6
Continuous
 62
     7
100
AcDbLine
 10
109.387897718
 20
113.8137468241
 30
0.0
 11
109.387897718
 21
66.6137468241
 31
0.0
  0
LINE
  5
42F
330
33B
100
AcDbEntity
  8
$DDT_AUDIT_GENERATED_(2E3)
  6
Continuous
 62
     7
100
AcDbLine
 10
108.987897718
 20
114.5065671471
 30
0.0
 11
109.387897718
 21
113.8137468241
 31
0.0
  0
LINE
  5
430
330
33B
100
AcDbEntity
  8
$DDT_AUDIT_GENERATED_(2E3)
  6
Continuous
 62
     7
100
AcDbLine
 10
144.487897718
 20
113.8137468241
 30
0.0
 11
144.887897718
 21
114.5065671471
 31
0.0
  0
LINE
  5
431
330
33B
100
AcDbEntity
  8
$DDT_AUDIT_GENERATED_(2E3)
  6
Continuous
 62
     7
100
AcDbLine
 10
144.887897718
 20
114.5065671471
 30
0.0
 11
144.887897718
 21
130.4137468241
 31
0.0
  0
LINE
  5
432
330
33B
100
AcDbEntity
  8
$DDT_AUDIT_GENERATED_(2E3)
  6
Continuous
 62
     7
100
AcDbLine
 10
108.987897718
 20
130.4137468241
 30
0.0
 11
108.987897718
 21
114.5065671471
 31
0.0
  0
LINE
  5
433
330
33B
100
AcDbEntity
  8
$DDT_AUDIT_GENERATED_(1A1)
  6
Continuous
 62
     7
100
AcDbLine
 10
174.437897718
 20
142.3137468241
 30
0.0
 11
174.437897718
 21
168.3137468241
 31
0.0
  0
LINE
  5
434
330
33B
100
AcDbEntity
  8
$DDT_AUDIT_GENERATED_(1A1)
  6
Continuous
 62
     7
100
AcDbLine
 10
79.437897718
 20
142.3137468241
 30
0.0
 11
79.437897718
 21
168.3137234453
 31
0.0
  0
LINE
  5
435
330
33B
100
AcDbEntity
  8
$DDT_AUDIT_GENERATED_(1A1)
  6
Continuous
 62
     7
100
AcDbLine
 10
134.528657143
 20
142.8137468241
 30
0.0
 11
133.6704439824
 21
142.8137468241
 31
0.0
  0
LINE
  5
436
330
33B
100
AcDbEntity
  8
$DDT_AUDIT_GENERATED_(1A1)
  6
Continuous
 62
     7
100
AcDbLine
 10
120.2053514535
 20
142.8137468241
 30
0.0
 11
119.3471382929
 21
142.8137468241
 31
0.0
  0
LINE
  5
437
330
33B
100
AcDbEntity
  8
$DDT_AUDIT_GENERATED_(1A1)
  6
Continuous
 62
     7
100
AcDbLine
 10
109.5389182324
 20
144.8137468241
 30
0.0
 11
109.5389182324
 21
144.4137468241
 31
0.0
  0
LINE
  5
438
330
33B
100
AcDbEntity
  8
$DDT_AUDIT_GENERATED_(1A1)
  6
Continuous
 62
     7
100
AcDbLine
 10
144.3368772035
 20
144.8137468241
 30
0.0
 11
144.3368772035
 21
144.4137468241
 31
0.0
  0
LINE
  5
439
330
33B
100
AcDbEntity
  8
$DDT_AUDIT_GENERATED_(1A1)
  6
Continuous
 62
     7
100
AcDbLine
 10
119.7576486127
 20
140.8137468241
 30
0.0
 11
134.1181468233
 21
140.8137468241
 31
0.0
  0
SPLINE
  5
43A
330
33B
100
AcDbEntity
  8
$DDT_AUDIT_GENERATED_(1A1)
  6
Continuous
 62
     7
100
AcDbSpline
210
0.0
220
0.0
230
1.0
 70
     8
 71
     3
 72
    14
 73
    10
 74
     0
 42
0.0000000087886086
 43
0.0000000001
 40
0.0
 40
0.0
 40
0.0
 40
0.0
 40
0.1250000000000006
 40
0.1250000000000006
 40
0.2500000000000012
 40
0.2500000000000012
 40
0.3750000000000018
 40
0.3750000000000018
 40
0.4084889430839114
 40
0.4084889430839114
 40
0.4084889430839114
 40
0.4084889430839114
 10
144.7308221655843
 20
144.8137468240884
 30
0.0
 10
144.7035071579267
 20
144.8137468240884
 30
0.0
 10
144.6791927872903
 20
144.8010613050922
 30
0.0
 10
144.636076512265
 20
144.7509173741039
 30
0.0
 10
144.6171136043739
 20
144.7128016245875
 30
0.0
 10
144.5853238411684
 20
144.6132302744169
 30
0.0
 10
144.5724111303293
 20
144.5521455056178
 30
0.0
 10
144.5590301683779
 20
144.4603237048377
 30
0.0
 10
144.55637491804
 20
144.440070727188
 30
0.0
 10
144.5538846279567
 20
144.4190434409209
 30
0.0
  0
SPLINE
  5
43B
330
33B
100
AcDbEntity
  8
$DDT_AUDIT_GENERATED_(1A1)
  6
Continuous
 62
     7
100
AcDbSpline
210
0.0
220
0.0
230
1.0
 70
     8
 71
     3
 72
    14
 73
    10
 74
     0
 42
0.0000000087886086
 43
0.0000000001
 40
0.0
 40
0.0
 40
0.0
 40
0.0
 40
0.1250000000000006
 40
0.1250000000000006
 40
0.2500000000000012
 40
0.2500000000000012
 40
0.3750000000000018
 40
0.3750000000000018
 40
0.4084889430839196
 40
0.4084889430839196
 40
0.4084889430839196
 40
0.4084889430839196
 10
109.144973270343
 20
144.8137468240884
 30
0.0
 10
109.1722882780005
 20
144.8137468240884
 30
0.0
 10
109.196602648637
 20
144.8010613050922
 30
0.0
 10
109.2397189236623
 20
144.7509173741039
 30
0.0
 10
109.2586818315533
 20
144.7128016245875
 30
0.0
 10
109.2904715947588
 20
144.6132302744169
 30
0.0
 10
109.303384305598
 20
144.5521455056177
 30
0.0
 10
109.3167652675493
 20
144.4603237048377
 30
0.0
 10
109.3194205178873
 20
144.440070727188
 30
0.0
 10
109.3219108079705
 20
144.4190434409209
 30
0.0
  0
LINE
  5
43C
330
33B
100
AcDbEntity
  8
$DDT_AUDIT_GENERATED_(1A1)
  6
Continuous
 62
     7
100
AcDbLine
 10
172.437897718
 20
161.8520952394
 30
0.0
 11
172.437897718
 21
163.7359155675
 31
0.0
  0
SPLINE
  5
43D
330
33B
100
AcDbEntity
  8
$DDT_AUDIT_GENERATED_(1A1)
  6
Continuous
 62
     7
100
AcDbSpline
210
0.0
220
0.0
230
1.0
 70
     8
 71
     3
 72
    22
 73
    18
 74
     0
 42
0.0000000006828055
 43
0.0000000001
 40
0.0
 40
0.0
 40
0.0
 40
0.0
 40
0.0625000000000003
 40
0.0625000000000003
 40
0.1250000000000005
 40
0.1250000000000005
 40
0.2500000000000004
 40
0.2500000000000004
 40
0.5000000000000003
 40
0.5000000000000003
 40
0.7500000000000002
 40
0.7500000000000002
 40
0.8750000000000002
 40
0.8750000000000002
 40
0.9375000000000002
 40
0.9375000000000002
 40
1.0
 40
1.0
 40
1.0
 40
1.0
 10
172.4378977179636
 20
148.7753984087774
 30
0.0
 10
172.7447030420981
 20
148.7753984087773
 30
0.0
 10
173.0283060186396
 20
148.947400987828
 30
0.0
 10
173.4471294765234
 20
149.3884504498577
 30
0.0
 10
173.6005214100983
 20
149.6563309354598
 30
0.0
 10
173.9685553833774
 20
150.4902858004702
 30
0.0
 10
174.0938099448612
 20
151.0837954262922
 30
0.0
 10
174.3547985177879
 20
152.867064076828
 30
0.0
 10
174.3738108545184
 20
154.0816985336852
 30
0.0
 10
174.3749561639824
 20
156.4961946947258
 30
0.0
 10
174.3581070421949
 20
157.7183183617513
 30
0.0
 10
174.0979599372648
 20
159.5247738205442
 30
0.0
 10
173.9724887187533
 20
160.1242649793078
 30
0.0
 10
173.6049125927809
 20
160.9631756893459
 30
0.0
 10
173.4529014672473
 20
161.2314310321815
 30
0.0
 10
173.0309008278325
 20
161.6788639294995
 30
0.0
 10
172.7442184289117
 20
161.8520952393994
 30
0.0
 10
172.4378977179636
 20
161.8520952393994
 30
0.0
  0
LINE
  5
43E
330
33B
100
AcDbEntity
  8
$DDT_AUDIT_GENERATED_(1A1)
  6
Continuous
 62
     7
100
AcDbLine
 10
164.437897718
 20
148.7753984088
 30
0.0
 11
172.437897718
 21
148.7753984088
 31
0.0
  0
LINE
  5
43F
330
33B
100
AcDbEntity
  8
$DDT_AUDIT_GENERATED_(1A1)
  6
Continuous
 62
     7
100
AcDbLine
 10
164.437897718
 20
161.8520952394
 30
0.0
 11
164.437897718
 21
148.7753984088
 31
0.0
  0
LINE
  5
440
330
33B
100
AcDbEntity
  8
$DDT_AUDIT_GENERATED_(1A1)
  6
Continuous
 62
     7
100
AcDbLine
 10
164.437897718
 20
161.8520952394
 30
0.0
 11
172.437897718
 21
161.8520952394
 31
0.0
  0
LINE
  5
441
330
33B
100
AcDbEntity
  8
$DDT_AUDIT_GENERATED_(1A1)
  6
Continuous
 62
     7
100
AcDbLine
 10
172.437897718
 20
170.2742639828
 30
0.0
 11
172.437897718
 21
170.3137468241
 31
0.0
  0
SPLINE
  5
442
330
33B
100
AcDbEntity
  8
$DDT_AUDIT_GENERATED_(1A1)
  6
Continuous
 62
     7
100
AcDbSpline
210
0.0
220
0.0
230
1.0
 70
     8
 71
     3
 72
    22
 73
    18
 74
     0
 42
0.0000000011597492
 43
0.0000000001
 40
0.0
 40
0.0
 40
0.0
 40
0.0
 40
0.0625000000000002
 40
0.0625000000000002
 40
0.1250000000000003
 40
0.1250000000000003
 40
0.2500000000000001
 40
0.2500000000000001
 40
0.5
 40
0.5
 40
0.7499999999999999
 40
0.7499999999999999
 40
0.8749999999999997
 40
0.8749999999999997
 40
0.9374999999999998
 40
0.9374999999999998
 40
1.0
 40
1.0
 40
1.0
 40
1.0
 10
172.4378977179636
 20
163.7359155675228
 30
0.0
 10
172.7476956851413
 20
163.7359155675228
 30
0.0
 10
173.030442002794
 20
163.8226877422931
 30
0.0
 10
173.4489472356338
 20
164.0437558394566
 30
0.0
 10
173.6029111364085
 20
164.1786233831212
 30
0.0
 10
173.9697844212419
 20
164.5956952283904
 30
0.0
 10
174.0958481040478
 20
164.8951394707959
 30
0.0
 10
174.3554855387927
 20
165.7880246514463
 30
0.0
 10
174.3740640464771
 20
166.3959395228925
 30
0.0
 10
174.3747109636845
 20
167.6001966245259
 30
0.0
 10
174.3575436034333
 20
168.2018363472182
 30
0.0
 10
174.1026725029759
 20
169.0978925529953
 30
0.0
 10
173.9781334984297
 20
169.4015617593246
 30
0.0
 10
173.6093773027873
 20
169.825847805982
 30
0.0
 10
173.4582020433922
 20
169.9601040739401
 30
0.0
 10
173.0366216817862
 20
170.1856070709109
 30
0.0
 10
172.7515964296154
 20
170.2742639828338
 30
0.0
 10
172.4378977179636
 20
170.2742639828338
 30
0.0
  0
LINE
  5
443
330
33B
100
AcDbEntity
  8
$DDT_AUDIT_GENERATED_(1A1)
  6
Continuous
 62
     7
100
AcDbLine
 10
164.437897718
 20
163.7359155675
 30
0.0
 11
172.437897718
 21
163.7359155675
 31
0.0
  0
LINE
  5
444
330
33B
100
AcDbEntity
  8
$DDT_AUDIT_GENERATED_(1A1)
  6
Continuous
 62
     7
100
AcDbLine
 10
164.437897718
 20
170.2742639828
 30
0.0
 11
164.437897718
 21
163.7359155675
 31
0.0
  0
LINE
  5
445
330
33B
100
AcDbEntity
  8
$DDT_AUDIT_GENERATED_(1A1)
  6
Continuous
 62
     7
100
AcDbLine
 10
164.437897718
 20
170.2742639828
 30
0.0
 11
172.437897718
 21
170.2742639828
 31
0.0
  0
LINE
  5
446
330
33B
100
AcDbEntity
  8
$DDT_AUDIT_GENERATED_(1A1)
  6
Continuous
 62
     7
100
AcDbLine
 10
172.437897718
 20
140.3532296653
 30
0.0
 11
172.437897718
 21
140.3137468241
 31
0.0
  0
LINE
  5
447
330
33B
100
AcDbEntity
  8
$DDT_AUDIT_GENERATED_(1A1)
  6
Continuous
 62
     7
100
AcDbLine
 10
172.437897718
 20
146.8915780807
 30
0.0
 11
172.437897718
 21
148.7753984088
 31
0.0
  0
SPLINE
  5
448
330
33B
100
AcDbEntity
  8
$DDT_AUDIT_GENERATED_(1A1)
  6
Continuous
 62
     7
100
AcDbSpline
210
0.0
220
0.0
230
1.0
 70
     8
 71
     3
 72
    22
 73
    18
 74
     0
 42
0.0000000011597492
 43
0.0000000001
 40
0.0
 40
0.0
 40
0.0
 40
0.0
 40
0.0625000000000002
 40
0.0625000000000002
 40
0.1250000000000004
 40
0.1250000000000004
 40
0.2500000000000003
 40
0.2500000000000003
 40
0.5000000000000002
 40
0.5000000000000002
 40
0.7500000000000001
 40
0.7500000000000001
 40
0.8749999999999997
 40
0.8749999999999997
 40
0.9374999999999999
 40
0.9374999999999999
 40
1.0
 40
1.0
 40
1.0
 40
1.0
 10
172.4378977179636
 20
140.353229665343
 30
0.0
 10
172.7476956851413
 20
140.353229665343
 30
0.0
 10
173.030442002794
 20
140.4400018401133
 30
0.0
 10
173.4489472356338
 20
140.6610699372768
 30
0.0
 10
173.6029111364085
 20
140.7959374809413
 30
0.0
 10
173.9697844212419
 20
141.2130093262105
 30
0.0
 10
174.0958481040478
 20
141.512453568616
 30
0.0
 10
174.3554855387927
 20
142.4053387492665
 30
0.0
 10
174.3740640464771
 20
143.0132536207127
 30
0.0
 10
174.3747109636845
 20
144.2175107223461
 30
0.0
 10
174.3575436034333
 20
144.8191504450384
 30
0.0
 10
174.1026725029759
 20
145.7152066508154
 30
0.0
 10
173.9781334984297
 20
146.0188758571448
 30
0.0
 10
173.6093773027874
 20
146.4431619038022
 30
0.0
 10
173.4582020433922
 20
146.5774181717603
 30
0.0
 10
173.0366216817862
 20
146.8029211687311
 30
0.0
 10
172.7515964296155
 20
146.891578080654
 30
0.0
 10
172.4378977179636
 20
146.891578080654
 30
0.0
  0
LINE
  5
449
330
33B
100
AcDbEntity
  8
$DDT_AUDIT_GENERATED_(1A1)
  6
Continuous
 62
     7
100
AcDbLine
 10
164.437897718
 20
140.3532296653
 30
0.0
 11
172.437897718
 21
140.3532296653
 31
0.0
  0
LINE
  5
44A
330
33B
100
AcDbEntity
  8
$DDT_AUDIT_GENERATED_(1A1)
  6
Continuous
 62
     7
100
AcDbLine
 10
164.437897718
 20
146.8915780807
 30
0.0
 11
164.437897718
 21
140.3532296653
 31
0.0
  0
LINE
  5
44B
330
33B
100
AcDbEntity
  8
$DDT_AUDIT_GENERATED_(1A1)
  6
Continuous
 62
     7
100
AcDbLine
 10
164.437897718
 20
146.8915780807
 30
0.0
 11
172.437897718
 21
146.8915780807
 31
0.0
  0
LINE
  5
44C
330
33B
100
AcDbEntity
  8
$DDT_AUDIT_GENERATED_(1A1)
  6
Continuous
 62
     7
100
AcDbLine
 10
81.437897718
 20
148.7753984088
 30
0.0
 11
81.437897718
 21
146.8915780807
 31
0.0
  0
SPLINE
  5
44D
330
33B
100
AcDbEntity
  8
$DDT_AUDIT_GENERATED_(1A1)
  6
Continuous
 62
     7
100
AcDbSpline
210
0.0
220
0.0
230
1.0
 70
     8
 71
     3
 72
    22
 73
    18
 74
     0
 42
0.0000000006828055
 43
0.0000000001
 40
0.0
 40
0.0
 40
0.0
 40
0.0
 40
0.0624999999999999
 40
0.0624999999999999
 40
0.1249999999999998
 40
0.1249999999999998
 40
0.2500000000000002
 40
0.2500000000000002
 40
0.5000000000000001
 40
0.5000000000000001
 40
0.7500000000000001
 40
0.7500000000000001
 40
0.8749999999999998
 40
0.8749999999999998
 40
0.9374999999999999
 40
0.9374999999999999
 40
1.0
 40
1.0
 40
1.0
 40
1.0
 10
81.43789771796361
 20
161.8520952393994
 30
0.0
 10
81.13109239382923
 20
161.8520952393994
 30
0.0
 10
80.8474894172877
 20
161.6800926603487
 30
0.0
 10
80.42866595940383
 20
161.2390431983191
 30
0.0
 10
80.2752740258289
 20
160.971162712717
 30
0.0
 10
79.90724005254984
 20
160.1372078477066
 30
0.0
 10
79.781985491066
 20
159.5436982218847
 30
0.0
 10
79.52099691813935
 20
157.7604295713488
 30
0.0
 10
79.50198458140886
 20
156.5457951144917
 30
0.0
 10
79.50083927194486
 20
154.131298953451
 30
0.0
 10
79.5176883937323
 20
152.9091752864255
 30
0.0
 10
79.77783549866241
 20
151.1027198276326
 30
0.0
 10
79.90330671717393
 20
150.503228668869
 30
0.0
 10
80.2708828431463
 20
149.6643179588309
 30
0.0
 10
80.42289396867996
 20
149.3960626159953
 30
0.0
 10
80.84489460809469
 20
148.9486297186772
 30
0.0
 10
81.13157700701551
 20
148.7753984087773
 30
0.0
 10
81.43789771796361
 20
148.7753984087773
 30
0.0
  0
LINE
  5
44E
330
33B
100
AcDbEntity
  8
$DDT_AUDIT_GENERATED_(1A1)
  6
Continuous
 62
     7
100
AcDbLine
 10
89.437897718
 20
161.8520952394
 30
0.0
 11
81.437897718
 21
161.8520952394
 31
0.0
  0
LINE
  5
44F
330
33B
100
AcDbEntity
  8
$DDT_AUDIT_GENERATED_(1A1)
  6
Continuous
 62
     7
100
AcDbLine
 10
89.437897718
 20
148.7753984088
 30
0.0
 11
89.437897718
 21
161.8520952394
 31
0.0
  0
LINE
  5
450
330
33B
100
AcDbEntity
  8
$DDT_AUDIT_GENERATED_(1A1)
  6
Continuous
 62
     7
100
AcDbLine
 10
89.437897718
 20
148.7753984088
 30
0.0
 11
81.437897718
 21
148.7753984088
 31
0.0
  0
LINE
  5
451
330
33B
100
AcDbEntity
  8
$DDT_AUDIT_GENERATED_(1A1)
  6
Continuous
 62
     7
100
AcDbLine
 10
81.437897718
 20
163.7359155675
 30
0.0
 11
81.437897718
 21
161.8520952394
 31
0.0
  0
SPLINE
  5
452
330
33B
100
AcDbEntity
  8
$DDT_AUDIT_GENERATED_(1A1)
  6
Continuous
 62
     7
100
AcDbSpline
210
0.0
220
0.0
230
1.0
 70
     8
 71
     3
 72
    22
 73
    18
 74
     0
 42
0.0000000011597492
 43
0.0000000001
 40
0.0
 40
0.0
 40
0.0
 40
0.0
 40
0.0625000000000002
 40
0.0625000000000002
 40
0.1250000000000005
 40
0.1250000000000005
 40
0.2500000000000004
 40
0.2500000000000004
 40
0.5000000000000006
 40
0.5000000000000006
 40
0.7500000000000007
 40
0.7500000000000007
 40
0.875000000000001
 40
0.875000000000001
 40
0.9375000000000006
 40
0.9375000000000006
 40
1.0
 40
1.0
 40
1.0
 40
1.0
 10
81.43789771796361
 20
170.2742639828338
 30
0.0
 10
81.12809975078592
 20
170.2742639828338
 30
0.0
 10
80.84535343313323
 20
170.1874918080634
 30
0.0
 10
80.42684820029348
 20
169.9664237109
 30
0.0
 10
80.27288429951878
 20
169.8315561672354
 30
0.0
 10
79.90601101468529
 20
169.4144843219662
 30
0.0
 10
79.77994733187946
 20
169.1150400795607
 30
0.0
 10
79.52030989713457
 20
168.2221548989102
 30
0.0
 10
79.50173138945011
 20
167.6142400274641
 30
0.0
 10
79.50108447224277
 20
166.4099829258306
 30
0.0
 10
79.51825183249393
 20
165.8083432031384
 30
0.0
 10
79.77312293295134
 20
164.9122869973613
 30
0.0
 10
79.89766193749749
 20
164.608617791032
 30
0.0
 10
80.26641813313992
 20
164.1843317443746
 30
0.0
 10
80.41759339253498
 20
164.0500754764165
 30
0.0
 10
80.83917375414097
 20
163.8245724794456
 30
0.0
 10
81.1241990063118
 20
163.7359155675227
 30
0.0
 10
81.43789771796361
 20
163.7359155675228
 30
0.0
  0
LINE
  5
453
330
33B
100
AcDbEntity
  8
$DDT_AUDIT_GENERATED_(1A1)
  6
Continuous
 62
     7
100
AcDbLine
 10
89.437897718
 20
170.2742639828
 30
0.0
 11
81.437897718
 21
170.2742639828
 31
0.0
  0
LINE
  5
454
330
33B
100
AcDbEntity
  8
$DDT_AUDIT_GENERATED_(1A1)
  6
Continuous
 62
     7
100
AcDbLine
 10
89.437897718
 20
163.7359155675
 30
0.0
 11
89.437897718
 21
170.2742639828
 31
0.0
  0
LINE
  5
455
330
33B
100
AcDbEntity
  8
$DDT_AUDIT_GENERATED_(1A1)
  6
Continuous
 62
     7
100
AcDbLine
 10
89.437897718
 20
163.7359155675
 30
0.0
 11
81.437897718
 21
163.7359155675
 31
0.0
  0
LINE
  5
456
330
33B
100
AcDbEntity
  8
$DDT_AUDIT_GENERATED_(1A1)
  6
Continuous
 62
     7
100
AcDbLine
 10
81.437897718
 20
140.3532296653
 30
0.0
 11
81.437897718
 21
140.3137468241
 31
0.0
  0
SPLINE
  5
457
330
33B
100
AcDbEntity
  8
$DDT_AUDIT_GENERATED_(1A1)
  6
Continuous
 62
     7
100
AcDbSpline
210
0.0
220
0.0
230
1.0
 70
     8
 71
     3
 72
    22
 73
    18
 74
     0
 42
0.0000000011597492
 43
0.0000000001
 40
0.0
 40
0.0
 40
0.0
 40
0.0
 40
0.0624999999999998
 40
0.0624999999999998
 40
0.1249999999999997
 40
0.1249999999999997
 40
0.2499999999999999
 40
0.2499999999999999
 40
0.4999999999999998
 40
0.4999999999999998
 40
0.7499999999999997
 40
0.7499999999999997
 40
0.8749999999999992
 40
0.8749999999999992
 40
0.9374999999999996
 40
0.9374999999999996
 40
1.0
 40
1.0
 40
1.0
 40
1.0
 10
81.43789771796361
 20
146.8915780806539
 30
0.0
 10
81.12809975078592
 20
146.891578080654
 30
0.0
 10
80.84535343313323
 20
146.8048059058836
 30
0.0
 10
80.42684820029348
 20
146.5837378087202
 30
0.0
 10
80.27288429951876
 20
146.4488702650556
 30
0.0
 10
79.90601101468529
 20
146.0317984197864
 30
0.0
 10
79.77994733187946
 20
145.7323541773809
 30
0.0
 10
79.52030989713457
 20
144.8394689967304
 30
0.0
 10
79.50173138945013
 20
144.2315541252842
 30
0.0
 10
79.5010844722428
 20
143.0272970236508
 30
0.0
 10
79.51825183249397
 20
142.4256573009585
 30
0.0
 10
79.77312293295132
 20
141.5296010951814
 30
0.0
 10
79.89766193749749
 20
141.2259318888521
 30
0.0
 10
80.2664181331399
 20
140.8016458421947
 30
0.0
 10
80.417593392535
 20
140.6673895742366
 30
0.0
 10
80.83917375414099
 20
140.4418865772658
 30
0.0
 10
81.1241990063118
 20
140.3532296653429
 30
0.0
 10
81.43789771796362
 20
140.353229665343
 30
0.0
  0
LINE
  5
458
330
33B
100
AcDbEntity
  8
$DDT_AUDIT_GENERATED_(1A1)
  6
Continuous
 62
     7
100
AcDbLine
 10
89.437897718
 20
146.8915780807
 30
0.0
 11
81.437897718
 21
146.8915780807
 31
0.0
  0
LINE
  5
459
330
33B
100
AcDbEntity
  8
$DDT_AUDIT_GENERATED_(1A1)
  6
Continuous
 62
     7
100
AcDbLine
 10
89.437897718
 20
140.3532296653
 30
0.0
 11
89.437897718
 21
146.8915780807
 31
0.0
  0
LINE
  5
45A
330
33B
100
AcDbEntity
  8
$DDT_AUDIT_GENERATED_(1A1)
  6
Continuous
 62
     7
100
AcDbLine
 10
89.437897718
 20
140.3532296653
 30
0.0
 11
81.437897718
 21
140.3532296653
 31
0.0
  0
LINE
  5
45B
330
33B
100
AcDbEntity
  8
$DDT_AUDIT_GENERATED_(1A1)
  6
Continuous
 62
     7
100
AcDbLine
 10
81.437897718
 20
170.2742639828
 30
0.0
 11
81.437897718
 21
170.3137468241
 31
0.0
  0
LINE
  5
45C
330
33B
100
AcDbEntity
  8
$DDT_AUDIT_GENERATED_(1A1)
  6
Continuous
 62
     7
100
AcDbLine
 10
161.1748074163
 20
140.3137468241
 30
0.0
 11
172.437897718
 21
140.3137468241
 31
0.0
  0
LINE
  5
45D
330
33B
100
AcDbEntity
  8
$DDT_AUDIT_GENERATED_(1A1)
  6
Continuous
 62
     7
100
AcDbLine
 10
172.437897718
 20
170.3137468241
 30
0.0
 11
161.3261938102
 21
170.3137468241
 31
0.0
  0
LINE
  5
45E
330
33B
100
AcDbEntity
  8
$DDT_AUDIT_GENERATED_(1A1)
  6
Continuous
 62
     7
100
AcDbLine
 10
81.437897718
 20
140.3137468241
 30
0.0
 11
92.7009880196
 21
140.3137468241
 31
0.0
  0
LINE
  5
45F
330
33B
100
AcDbEntity
  8
$DDT_AUDIT_GENERATED_(1A1)
  6
Continuous
 62
     7
100
AcDbLine
 10
92.5496016257
 20
170.3137468241
 30
0.0
 11
81.437897718
 21
170.3137468241
 31
0.0
  0
ARC
  5
460
330
33B
100
AcDbEntity
  8
$DDT_AUDIT_GENERATED_(1A1)
  6
Continuous
 62
     7
100
AcDbCircle
 10
172.437897718
 20
142.3137468241
 30
0.0
 40
2.000000000000002
100
AcDbArc
 50
270.0
 51
0.0
  0
ARC
  5
461
330
33B
100
AcDbEntity
  8
$DDT_AUDIT_GENERATED_(1A1)
  6
Continuous
 62
     7
100
AcDbCircle
 10
172.437897718
 20
168.3137468241
 30
0.0
 40
2.000000000000002
100
AcDbArc
 50
0.0
 51
90.0
  0
ARC
  5
462
330
33B
100
AcDbEntity
  8
$DDT_AUDIT_GENERATED_(1A1)
  6
Continuous
 62
     7
100
AcDbCircle
 10
81.437897718
 20
142.3137468241
 30
0.0
 40
2.000000000000002
100
AcDbArc
 50
180.0
 51
270.0
  0
ARC
  5
463
330
33B
100
AcDbEntity
  8
$DDT_AUDIT_GENERATED_(1A1)
  6
Continuous
 62
     7
100
AcDbCircle
 10
81.437897718
 20
168.3137468241
 30
0.0
 40
2.0
100
AcDbArc
 50
90.0
 51
180.0
  0
LINE
  5
464
330
33B
100
AcDbEntity
  8
$DDT_AUDIT_GENERATED_(1F2)
  6
Continuous
 62
     7
100
AcDbLine
 10
146.187897718
 20
66.6137468241
 30
0.0
 11
107.687897718
 21
66.6137468241
 31
0.0
  0
LINE
  5
465
330
33B
100
AcDbEntity
  8
$DDT_AUDIT_GENERATED_(1F2)
  6
Continuous
 62
     7
100
AcDbLine
 10
146.187897718
 20
60.6137468241
 30
0.0
 11
107.687897718
 21
60.6137468241
 31
0.0
  0
LINE
  5
466
330
33B
100
AcDbEntity
  8
$DDT_AUDIT_GENERATED_(1F2)
  6
Continuous
 62
     7
100
AcDbLine
 10
108.687897718
 20
59.6137468241
 30
0.0
 11
145.187897718
 21
59.6137468241
 31
0.0
  0
LINE
  5
467
330
33B
100
AcDbEntity
  8
$DDT_AUDIT_GENERATED_(1F2)
  6
Continuous
 62
     7
100
AcDbLine
 10
107.687897718
 20
66.6137468241
 30
0.0
 11
107.687897718
 21
60.6137468241
 31
0.0
  0
LINE
  5
468
330
33B
100
AcDbEntity
  8
$DDT_AUDIT_GENERATED_(1F2)
  6
Continuous
 62
     7
100
AcDbLine
 10
146.187897718
 20
60.6137468241
 30
0.0
 11
146.187897718
 21
66.6137468241
 31
0.0
  0
ARC
  5
469
330
33B
100
AcDbEntity
  8
$DDT_AUDIT_GENERATED_(1F2)
  6
Continuous
 62
     7
100
AcDbCircle
 10
145.187897718
 20
60.6137468241
 30
0.0
 40
1.000000000000001
100
AcDbArc
 50
270.0
 51
0.0
  0
ARC
  5
46A
330
33B
100
AcDbEntity
  8
$DDT_AUDIT_GENERATED_(1F2)
  6
Continuous
 62
     7
100
AcDbCircle
 10
108.687897718
 20
60.6137468241
 30
0.0
 40
1.000000000000001
100
AcDbArc
 50
180.0
 51
270.0
  0
ENDBLK
  5
46C
330
33B
100
AcDbEntity
  8
0
100
AcDbBlockEnd
  0
ENDSEC
  0
SECTION
  2
ENTITIES
  0
INSERT
  5
5F
330
1F
100
AcDbEntity
  8
Default
100
AcDbBlockReference
  2
SEANNOT_GROUP
 10
0.0
 20
0.0
 30
0.0
  0
INSERT
  5
6A
330
1F
100
AcDbEntity
  8
Default
100
AcDbBlockReference
  2
SEANNOT_GROUP1
 10
0.0
 20
0.0
 30
0.0
  0
INSERT
  5
70
330
1F
100
AcDbEntity
  8
Default
100
AcDbBlockReference
  2
SEANNOT_GROUP2
 10
0.0
 20
0.0
 30
0.0
  0
INSERT
  5
76
330
1F
100
AcDbEntity
  8
Default
100
AcDbBlockReference
  2
SEANNOT_GROUP3
 10
0.0
 20
0.0
 30
0.0
  0
INSERT
  5
80
330
1F
100
AcDbEntity
  8
Default
100
AcDbBlockReference
  2
SEANNOT_GROUP4
 10
0.0
 20
0.0
 30
0.0
  0
INSERT
  5
86
330
1F
100
AcDbEntity
  8
Default
100
AcDbBlockReference
  2
SEANNOT_GROUP5
 10
0.0
 20
0.0
 30
0.0
  0
INSERT
  5
8C
330
1F
100
AcDbEntity
  8
Default
100
AcDbBlockReference
  2
SEANNOT_GROUP6
 10
0.0
 20
0.0
 30
0.0
  0
INSERT
  5
92
330
1F
100
AcDbEntity
  8
Default
100
AcDbBlockReference
  2
SEANNOT_GROUP7
 10
0.0
 20
0.0
 30
0.0
  0
INSERT
  5
98
330
1F
100
AcDbEntity
  8
Default
100
AcDbBlockReference
  2
SE
 10
0.0
 20
0.0
 30
0.0
  0
INSERT
  5
1F7
330
1F
100
AcDbEntity
  8
Default
100
AcDbBlockReference
  2
SE1
 10
0.0
 20
0.0
 30
0.0
  0
INSERT
  5
33C
330
1F
100
AcDbEntity
  8
Default
100
AcDbBlockReference
  2
SE2
 10
0.0
 20
0.0
 30
0.0
  0
TEXT
  5
46E
330
1F
100
AcDbEntity
  8
Default
  6
Continuous
 62
     7
100
AcDbText
 10
5.9362635081
 20
53.4225120485
 30
0.0
 40
10.0
  1
Grohe AG^J
  7
SEACAD_seiso_ttf
 11
5.9362635081
 21
63.4225120485
 31
0.0
100
AcDbText
 73
     3
  0
TEXT
  5
46F
330
1F
100
AcDbEntity
  8
Default
  6
Continuous
 62
     7
100
AcDbText
 10
5.9362635081
 20
37.0588756849
 30
0.0
 40
10.0
  1
 
  7
SEACAD_seiso_ttf
 11
5.9362635081
 21
47.0588756849
 31
0.0
100
AcDbText
 73
     3
  0
TEXT
  5
470
330
1F
100
AcDbEntity
  8
Default
  6
Continuous
 62
     7
100
AcDbText
 10
5.9362635081
 20
20.6952393213
 30
0.0
 40
10.0
  1
ecn:
  7
SEACAD_seiso_ttf
 11
5.9362635081
 21
30.6952393213
 31
0.0
100
AcDbText
 73
     3
  0
TEXT
  5
471
330
1F
100
AcDbEntity
  8
Default
  6
Continuous
 62
     7
100
AcDbText
 10
5.9362635081
 20
4.3316029576
 30
0.0
 40
10.0
  1
unit: mm
  7
SEACAD_seiso_ttf
 11
5.9362635081
 21
14.3316029576
 31
0.0
100
AcDbText
 73
     3
  0
LINE
  5
472
330
1F
100
AcDbEntity
  8
Default
  6
Continuous
 62
     7
100
AcDbLine
 10
0.0
 20
0.0
 30
0.0
 11
100.0
 21
0.0
 31
0.0
  0
LINE
  5
473
330
1F
100
AcDbEntity
  8
Default
  6
Continuous
 62
     7
100
AcDbLine
 10
0.0
 20
0.0
 30
0.0
 11
0.0
 21
100.0
 31
0.0
  0
TEXT
  5
474
330
1F
100
AcDbEntity
  8
Default
  6
Continuous
 62
     7
100
AcDbText
 10
24.3923665681
 20
-18.2375342018
 30
0.0
 40
10.0
  1
100 mm
  7
SEACAD_seiso_ttf
 11
24.3923665681
 21
-8.2375342018
 31
0.0
100
AcDbText
 73
     3
  0
TEXT
  5
475
330
1F
100
AcDbEntity
  8
Default
  6
Continuous
 62
     7
100
AcDbText
 10
-7.6150308803
 20
24.6231930421
 30
0.0
 40
10.0
  1
100 mm
 50
90.0
  7
SEACAD_seiso_ttf
 11
-17.6150308803
 21
24.6231930421
 31
0.0
100
AcDbText
 73
     3
  0
TEXT
  5
476
330
1F
100
AcDbEntity
  8
Default
  6
Continuous
 62
     7
100
AcDbText
 10
28.4878128572
 20
20.0907663715
 30
0.0
 40
10.0
  1
224925
  7
SEACAD_seiso_ttf
 11
28.4878128572
 21
30.0907663715
 31
0.0
100
AcDbText
 73
     3
  0
TEXT
  5
477
330
1F
100
AcDbEntity
  8
Default
  6
Continuous
 62
     7
100
AcDbText
 10
5.9012241913
 20
36.7242780188
 30
0.0
 40
10.0
  1
35035000
  7
SEACAD_seiso_ttf
 11
5.9012241913
 21
46.7242780188
 31
0.0
100
AcDbText
 73
     3
  0
ENDSEC
  0
SECTION
  2
OBJECTS
  0
DICTIONARY
  5
C
330
0
100
AcDbDictionary
281
     1
  3
ACAD_GROUP
350
D
  3
ACAD_LAYOUT
350
1A
  3
ACAD_MLEADERSTYLE
350
47B
  3
ACAD_MLINESTYLE
350
17
  3
ACAD_PLOTSETTINGS
350
19
  3
ACAD_PLOTSTYLENAME
350
E
  3
ACAD_SCALELIST
350
3B
  3
ACAD_TABLESTYLE
350
47A
  3
ACAD_VISUALSTYLE
350
2A
  3
AcDbVariableDictionary
350
478
  0
DICTIONARY
  5
D
102
{ACAD_REACTORS
330
C
102
}
330
C
100
AcDbDictionary
281
     1
  0
DICTIONARY
  5
1A
102
{ACAD_REACTORS
330
C
102
}
330
C
100
AcDbDictionary
281
     1
  3
Layout1
350
1E
  3
Model
350
22
  0
DICTIONARY
  5
47B
102
{ACAD_REACTORS
330
C
102
}
330
C
100
AcDbDictionary
281
     1
  0
DICTIONARY
  5
17
102
{ACAD_REACTORS
330
C
102
}
330
C
100
AcDbDictionary
281
     1
  3
Standard
350
18
  0
DICTIONARY
  5
19
102
{ACAD_REACTORS
330
C
102
}
330
C
100
AcDbDictionary
281
     1
  0
ACDBDICTIONARYWDFLT
  5
E
102
{ACAD_REACTORS
330
C
102
}
330
C
100
AcDbDictionary
281
     1
  3
Normal
350
F
100
AcDbDictionaryWithDefault
340
F
  0
DICTIONARY
  5
3B
102
{ACAD_REACTORS
330
C
102
}
330
C
100
AcDbDictionary
281
     1
  3
A0
350
3C
  3
A1
350
3D
  3
A2
350
3E
  3
A3
350
3F
  3
A4
350
40
  3
A5
350
41
  3
A6
350
42
  3
A7
350
43
  3
A8
350
44
  3
A9
350
45
  3
B0
350
46
  3
B1
350
47
  3
B2
350
48
  3
B3
350
49
  3
B4
350
4A
  3
B5
350
4B
  3
B6
350
4C
  3
B7
350
4D
  3
B8
350
4E
  3
B9
350
4F
  3
C0
350
50
  3
C1
350
51
  3
C2
350
52
  3
C3
350
53
  3
C4
350
54
  3
C5
350
55
  3
C6
350
56
  3
C7
350
57
  3
C8
350
58
  3
C9
350
59
  3
D0
350
5A
  3
D1
350
5B
  3
D2
350
5C
  0
DICTIONARY
  5
47A
102
{ACAD_REACTORS
330
C
102
}
330
C
100
AcDbDictionary
281
     1
  0
DICTIONARY
  5
2A
102
{ACAD_REACTORS
330
C
102
}
330
C
100
AcDbDictionary
281
     1
  3
2dWireframe
350
2F
  3
3D Hidden
350
31
  3
3dWireframe
350
30
  3
Basic
350
32
  3
Brighten
350
36
  3
ColorChange
350
3A
  3
Conceptual
350
34
  3
Dim
350
35
  3
Facepattern
350
39
  3
Flat
350
2B
  3
FlatWithEdges
350
2C
  3
Gouraud
350
2D
  3
GouraudWithEdges
350
2E
  3
Linepattern
350
38
  3
Realistic
350
33
  3
Thicken
350
37
  0
DICTIONARY
  5
478
102
{ACAD_REACTORS
330
C
102
}
330
C
100
AcDbDictionary
281
     1
  3
CANNOSCALE
350
479
  3
PSOLHEIGHT
350
47D
  3
PSOLWIDTH
350
47C
  0
LAYOUT
  5
1E
102
{ACAD_REACTORS
330
1A
102
}
330
1A
100
AcDbPlotSettings
  1

  2
none_device
  4

  6

 40
0.0
 41
0.0
 42
0.0
 43
0.0
 44
0.0
 45
0.0
 46
0.0
 47
0.0
 48
0.0
 49
0.0
140
0.0
141
0.0
142
1.0
143
1.0
 70
   688
 72
     0
 73
     0
 74
     5
  7

 75
    16
147
1.0
148
0.0
149
0.0
100
AcDbLayout
  1
Layout1
 70
     1
 71
     1
 10
0.0
 20
0.0
 11
3000.0
 21
4500.0
 12
0.0
 22
0.0
 32
0.0
 14
0.0
 24
0.0
 34
0.0
 15
3000.0
 25
4500.0
 35
0.0
146
0.0
 13
0.0
 23
0.0
 33
0.0
 16
1.0
 26
0.0
 36
0.0
 17
0.0
 27
1.0
 37
0.0
 76
     0
330
1B
  0
LAYOUT
  5
22
102
{ACAD_REACTORS
330
1A
102
}
330
1A
100
AcDbPlotSettings
  1

  2
none_device
  4

  6

 40
0.0
 41
0.0
 42
0.0
 43
0.0
 44
0.0
 45
0.0
 46
0.0
 47
0.0
 48
0.0
 49
0.0
140
0.0
141
0.0
142
1.0
143
1.0
 70
  1712
 72
     0
 73
     0
 74
     0
  7

 75
     0
147
1.0
148
0.0
149
0.0
100
AcDbLayout
  1
Model
 70
     1
 71
     0
 10
0.0
 20
0.0
 11
3000.0
 21
4500.0
 12
0.0
 22
0.0
 32
0.0
 14
0.0
 24
0.0
 34
0.0
 15
3000.0
 25
4500.0
 35
0.0
146
0.0
 13
0.0
 23
0.0
 33
0.0
 16
1.0
 26
0.0
 36
0.0
 17
0.0
 27
1.0
 37
0.0
 76
     0
330
1F
331
29
  0
MLINESTYLE
  5
18
102
{ACAD_REACTORS
330
17
102
}
330
17
100
AcDbMlineStyle
  2
Standard
 70
     0
  3

 62
   256
 51
90.0
 52
90.0
 71
     2
 49
0.5
 62
   256
  6
BYLAYER
 49
-0.5
 62
   256
  6
BYLAYER
  0
ACDBPLACEHOLDER
  5
F
102
{ACAD_REACTORS
330
E
102
}
330
E
  0
SCALE
  5
3C
102
{ACAD_REACTORS
330
3B
102
}
330
3B
100
AcDbScale
 70
     0
300
1:1
140
1.0
141
1.0
290
     1
  0
SCALE
  5
3D
102
{ACAD_REACTORS
330
3B
102
}
330
3B
100
AcDbScale
 70
     0
300
1:2
140
1.0
141
2.0
290
     0
  0
SCALE
  5
3E
102
{ACAD_REACTORS
330
3B
102
}
330
3B
100
AcDbScale
 70
     0
300
1:4
140
1.0
141
4.0
290
     0
  0
SCALE
  5
3F
102
{ACAD_REACTORS
330
3B
102
}
330
3B
100
AcDbScale
 70
     0
300
1:5
140
1.0
141
5.0
290
     0
  0
SCALE
  5
40
102
{ACAD_REACTORS
330
3B
102
}
330
3B
100
AcDbScale
 70
     0
300
1:8
140
1.0
141
8.0
290
     0
  0
SCALE
  5
41
102
{ACAD_REACTORS
330
3B
102
}
330
3B
100
AcDbScale
 70
     0
300
1:10
140
1.0
141
10.0
290
     0
  0
SCALE
  5
42
102
{ACAD_REACTORS
330
3B
102
}
330
3B
100
AcDbScale
 70
     0
300
1:16
140
1.0
141
16.0
290
     0
  0
SCALE
  5
43
102
{ACAD_REACTORS
330
3B
102
}
330
3B
100
AcDbScale
 70
     0
300
1:20
140
1.0
141
20.0
290
     0
  0
SCALE
  5
44
102
{ACAD_REACTORS
330
3B
102
}
330
3B
100
AcDbScale
 70
     0
300
1:30
140
1.0
141
30.0
290
     0
  0
SCALE
  5
45
102
{ACAD_REACTORS
330
3B
102
}
330
3B
100
AcDbScale
 70
     0
300
1:40
140
1.0
141
40.0
290
     0
  0
SCALE
  5
46
102
{ACAD_REACTORS
330
3B
102
}
330
3B
100
AcDbScale
 70
     0
300
1:50
140
1.0
141
50.0
290
     0
  0
SCALE
  5
47
102
{ACAD_REACTORS
330
3B
102
}
330
3B
100
AcDbScale
 70
     0
300
1:100
140
1.0
141
100.0
290
     0
  0
SCALE
  5
48
102
{ACAD_REACTORS
330
3B
102
}
330
3B
100
AcDbScale
 70
     0
300
2:1
140
2.0
141
1.0
290
     0
  0
SCALE
  5
49
102
{ACAD_REACTORS
330
3B
102
}
330
3B
100
AcDbScale
 70
     0
300
4:1
140
4.0
141
1.0
290
     0
  0
SCALE
  5
4A
102
{ACAD_REACTORS
330
3B
102
}
330
3B
100
AcDbScale
 70
     0
300
8:1
140
8.0
141
1.0
290
     0
  0
SCALE
  5
4B
102
{ACAD_REACTORS
330
3B
102
}
330
3B
100
AcDbScale
 70
     0
300
10:1
140
10.0
141
1.0
290
     0
  0
SCALE
  5
4C
102
{ACAD_REACTORS
330
3B
102
}
330
3B
100
AcDbScale
 70
     0
300
100:1
140
100.0
141
1.0
290
     0
  0
SCALE
  5
4D
102
{ACAD_REACTORS
330
3B
102
}
330
3B
100
AcDbScale
 70
     0
300
1/128" = 1'-0"
140
0.0078125
141
12.0
290
     0
  0
SCALE
  5
4E
102
{ACAD_REACTORS
330
3B
102
}
330
3B
100
AcDbScale
 70
     0
300
1/64" = 1'-0"
140
0.015625
141
12.0
290
     0
  0
SCALE
  5
4F
102
{ACAD_REACTORS
330
3B
102
}
330
3B
100
AcDbScale
 70
     0
300
1/32" = 1'-0"
140
0.03125
141
12.0
290
     0
  0
SCALE
  5
50
102
{ACAD_REACTORS
330
3B
102
}
330
3B
100
AcDbScale
 70
     0
300
1/16" = 1'-0"
140
0.0625
141
12.0
290
     0
  0
SCALE
  5
51
102
{ACAD_REACTORS
330
3B
102
}
330
3B
100
AcDbScale
 70
     0
300
3/32" = 1'-0"
140
0.09375
141
12.0
290
     0
  0
SCALE
  5
52
102
{ACAD_REACTORS
330
3B
102
}
330
3B
100
AcDbScale
 70
     0
300
1/8" = 1'-0"
140
0.125
141
12.0
290
     0
  0
SCALE
  5
53
102
{ACAD_REACTORS
330
3B
102
}
330
3B
100
AcDbScale
 70
     0
300
3/16" = 1'-0"
140
0.1875
141
12.0
290
     0
  0
SCALE
  5
54
102
{ACAD_REACTORS
330
3B
102
}
330
3B
100
AcDbScale
 70
     0
300
1/4" = 1'-0"
140
0.25
141
12.0
290
     0
  0
SCALE
  5
55
102
{ACAD_REACTORS
330
3B
102
}
330
3B
100
AcDbScale
 70
     0
300
3/8" = 1'-0"
140
0.375
141
12.0
290
     0
  0
SCALE
  5
56
102
{ACAD_REACTORS
330
3B
102
}
330
3B
100
AcDbScale
 70
     0
300
1/2" = 1'-0"
140
0.5
141
12.0
290
     0
  0
SCALE
  5
57
102
{ACAD_REACTORS
330
3B
102
}
330
3B
100
AcDbScale
 70
     0
300
3/4" = 1'-0"
140
0.75
141
12.0
290
     0
  0
SCALE
  5
58
102
{ACAD_REACTORS
330
3B
102
}
330
3B
100
AcDbScale
 70
     0
300
1" = 1'-0"
140
1.0
141
12.0
290
     0
  0
SCALE
  5
59
102
{ACAD_REACTORS
330
3B
102
}
330
3B
100
AcDbScale
 70
     0
300
1-1/2" = 1'-0"
140
1.5
141
12.0
290
     0
  0
SCALE
  5
5A
102
{ACAD_REACTORS
330
3B
102
}
330
3B
100
AcDbScale
 70
     0
300
3" = 1'-0"
140
3.0
141
12.0
290
     0
  0
SCALE
  5
5B
102
{ACAD_REACTORS
330
3B
102
}
330
3B
100
AcDbScale
 70
     0
300
6" = 1'-0"
140
6.0
141
12.0
290
     0
  0
SCALE
  5
5C
102
{ACAD_REACTORS
330
3B
102
}
330
3B
100
AcDbScale
 70
     0
300
1'-0" = 1'-0"
140
12.0
141
12.0
290
     0
  0
VISUALSTYLE
  5
2F
102
{ACAD_REACTORS
330
2A
102
}
330
2A
100
AcDbVisualStyle
  2
2dWireframe
 70
     4
 71
     0
 72
     2
 73
     0
 90
        0
 40
-0.6
 41
-30.0
 62
     5
 63
     7
 74
     1
 91
        4
 64
     7
 65
   257
 75
     1
175
     1
 42
1.0
 92
        0
 66
   257
 43
1.0
 76
     1
 77
     6
 78
     2
 67
     7
 79
     5
170
     0
171
     0
290
     0
174
     0
 93
        1
 44
0.0
173
     0
291
     0
 45
0.0
1001
ACAD
1000
AcDbSavedByObjectVersion
1070
     0
  0
VISUALSTYLE
  5
31
102
{ACAD_REACTORS
330
2A
102
}
330
2A
100
AcDbVisualStyle
  2
3D Hidden
 70
     6
 71
     1
 72
     2
 73
     2
 90
        0
 40
-0.6
 41
-30.0
 62
     5
 63
     7
 74
     2
 91
        2
 64
     7
 65
   257
 75
     2
175
     1
 42
40.0
 92
        0
 66
   257
 43
1.0
 76
     1
 77
     6
 78
     2
 67
     7
 79
     3
170
     0
171
     0
290
     0
174
     0
 93
        1
 44
0.0
173
     0
291
     0
 45
0.0
1001
ACAD
1000
AcDbSavedByObjectVersion
1070
     0
  0
VISUALSTYLE
  5
30
102
{ACAD_REACTORS
330
2A
102
}
330
2A
100
AcDbVisualStyle
  2
3dWireframe
 70
     5
 71
     0
 72
     2
 73
     0
 90
        0
 40
-0.6
 41
-30.0
 62
     5
 63
     7
 74
     1
 91
        4
 64
     7
 65
   257
 75
     1
175
     1
 42
1.0
 92
        0
 66
   257
 43
1.0
 76
     1
 77
     6
 78
     2
 67
     7
 79
     5
170
     0
171
     0
290
     0
174
     0
 93
        1
 44
0.0
173
     0
291
     0
 45
0.0
1001
ACAD
1000
AcDbSavedByObjectVersion
1070
     0
  0
VISUALSTYLE
  5
32
102
{ACAD_REACTORS
330
2A
102
}
330
2A
100
AcDbVisualStyle
  2
Basic
 70
     7
 71
     1
 72
     0
 73
     1
 90
        0
 40
-0.6
 41
-30.0
 62
     5
 63
     7
 74
     0
 91
        4
 64
     7
 65
   257
 75
     1
175
     1
 42
1.0
 92
        8
 66
     7
 43
1.0
 76
     1
 77
     6
 78
     2
 67
     7
 79
     5
170
     0
171
     0
290
     0
174
     0
 93
        1
 44
0.0
173
     0
291
     1
 45
0.0
1001
ACAD
1000
AcDbSavedByObjectVersion
1070
     0
  0
VISUALSTYLE
  5
36
102
{ACAD_REACTORS
330
2A
102
}
330
2A
100
AcDbVisualStyle
  2
Brighten
 70
    12
 71
     2
 72
     2
 73
     0
 90
        0
 40
-0.6
 41
-30.0
 62
     5
 63
     7
 74
     1
 91
        4
 64
     7
 65
   257
 75
     1
175
     1
 42
1.0
 92
        8
 66
     7
 43
1.0
 76
     1
 77
     6
 78
     2
 67
     7
 79
     5
170
     0
171
     0
290
     0
174
     0
 93
        1
 44
50.0
173
     0
291
     1
 45
0.0
1001
ACAD
1000
AcDbSavedByObjectVersion
1070
     0
  0
VISUALSTYLE
  5
3A
102
{ACAD_REACTORS
330
2A
102
}
330
2A
100
AcDbVisualStyle
  2
ColorChange
 70
    16
 71
     2
 72
     2
 73
     3
 90
        0
 40
-0.6
 41
-30.0
 62
     5
 63
     8
 74
     1
 91
        4
 64
     7
 65
   257
 75
     1
175
     1
 42
1.0
 92
        8
 66
     8
 43
1.0
 76
     1
 77
     6
 78
     2
 67
     7
 79
     5
170
     0
171
     0
290
     0
174
     0
 93
        1
 44
0.0
173
     0
291
     1
 45
0.0
1001
ACAD
1000
AcDbSavedByObjectVersion
1070
     0
  0
VISUALSTYLE
  5
34
102
{ACAD_REACTORS
330
2A
102
}
330
2A
100
AcDbVisualStyle
  2
Conceptual
 70
     9
 71
     3
 72
     2
 73
     0
 90
        0
 40
-0.6
 41
-30.0
 62
     5
 63
     7
 74
     2
 91
        2
 64
     7
 65
   257
 75
     1
175
     1
 42
40.0
 92
        8
 66
     7
 43
1.0
 76
     1
 77
     6
 78
     2
 67
     7
 79
     3
170
     0
171
     0
290
     0
174
     0
 93
        1
 44
0.0
173
     0
291
     0
 45
0.0
1001
ACAD
1000
AcDbSavedByObjectVersion
1070
     0
  0
VISUALSTYLE
  5
35
102
{ACAD_REACTORS
330
2A
102
}
330
2A
100
AcDbVisualStyle
  2
Dim
 70
    11
 71
     2
 72
     2
 73
     0
 90
        0
 40
-0.6
 41
-30.0
 62
     5
 63
     7
 74
     1
 91
        4
 64
     7
 65
   257
 75
     1
175
     1
 42
1.0
 92
        8
 66
     7
 43
1.0
 76
     1
 77
     6
 78
     2
 67
     7
 79
     5
170
     0
171
     0
290
     0
174
     0
 93
        1
 44
-50.0
173
     0
291
     1
 45
0.0
1001
ACAD
1000
AcDbSavedByObjectVersion
1070
     0
  0
VISUALSTYLE
  5
39
102
{ACAD_REACTORS
330
2A
102
}
330
2A
100
AcDbVisualStyle
  2
Facepattern
 70
    15
 71
     2
 72
     2
 73
     0
 90
        0
 40
-0.6
 41
-30.0
 62
     5
 63
     7
 74
     1
 91
        4
 64
     7
 65
   257
 75
     1
175
     1
 42
1.0
 92
        8
 66
     7
 43
1.0
 76
     1
 77
     6
 78
     2
 67
     7
 79
     5
170
     0
171
     0
290
     0
174
     0
 93
        1
 44
0.0
173
     0
291
     1
 45
0.0
1001
ACAD
1000
AcDbSavedByObjectVersion
1070
     0
  0
VISUALSTYLE
  5
2B
102
{ACAD_REACTORS
330
2A
102
}
330
2A
100
AcDbVisualStyle
  2
Flat
 70
     0
 71
     2
 72
     1
 73
     1
 90
        2
 40
-0.6
 41
30.0
 62
     5
 63
     7
 74
     0
 91
        4
 64
     7
 65
   257
 75
     1
175
     1
 42
1.0
 92
        8
 66
     7
 43
1.0
 76
     1
 77
     6
 78
     2
 67
     7
 79
     5
170
     0
171
     0
290
     0
174
     0
 93
       13
 44
0.0
173
     0
291
     1
 45
0.0
1001
ACAD
1000
AcDbSavedByObjectVersion
1070
     0
  0
VISUALSTYLE
  5
2C
102
{ACAD_REACTORS
330
2A
102
}
330
2A
100
AcDbVisualStyle
  2
FlatWithEdges
 70
     1
 71
     2
 72
     1
 73
     1
 90
        2
 40
-0.6
 41
30.0
 62
     5
 63
     7
 74
     1
 91
        4
 64
     7
 65
   257
 75
     1
175
     1
 42
1.0
 92
        0
 66
   257
 43
1.0
 76
     1
 77
     6
 78
     2
 67
     7
 79
     5
170
     0
171
     0
290
     0
174
     0
 93
       13
 44
0.0
173
     0
291
     1
 45
0.0
1001
ACAD
1000
AcDbSavedByObjectVersion
1070
     0
  0
VISUALSTYLE
  5
2D
102
{ACAD_REACTORS
330
2A
102
}
330
2A
100
AcDbVisualStyle
  2
Gouraud
 70
     2
 71
     2
 72
     2
 73
     1
 90
        2
 40
-0.6
 41
30.0
 62
     5
 63
     7
 74
     0
 91
        4
 64
     7
 65
   257
 75
     1
175
     1
 42
1.0
 92
        0
 66
     7
 43
1.0
 76
     1
 77
     6
 78
     2
 67
     7
 79
     5
170
     0
171
     0
290
     0
174
     0
 93
       13
 44
0.0
173
     0
291
     1
 45
0.0
1001
ACAD
1000
AcDbSavedByObjectVersion
1070
     0
  0
VISUALSTYLE
  5
2E
102
{ACAD_REACTORS
330
2A
102
}
330
2A
100
AcDbVisualStyle
  2
GouraudWithEdges
 70
     3
 71
     2
 72
     2
 73
     1
 90
        2
 40
-0.6
 41
30.0
 62
     5
 63
     7
 74
     1
 91
        4
 64
     7
 65
   257
 75
     1
175
     1
 42
1.0
 92
        0
 66
   257
 43
1.0
 76
     1
 77
     6
 78
     2
 67
     7
 79
     5
170
     0
171
     0
290
     0
174
     0
 93
       13
 44
0.0
173
     0
291
     1
 45
0.0
1001
ACAD
1000
AcDbSavedByObjectVersion
1070
     0
  0
VISUALSTYLE
  5
38
102
{ACAD_REACTORS
330
2A
102
}
330
2A
100
AcDbVisualStyle
  2
Linepattern
 70
    14
 71
     2
 72
     2
 73
     0
 90
        0
 40
-0.6
 41
-30.0
 62
     5
 63
     7
 74
     1
 91
        4
 64
     7
 65
   257
 75
     7
175
     7
 42
1.0
 92
        8
 66
     7
 43
1.0
 76
     1
 77
     6
 78
     2
 67
     7
 79
     5
170
     0
171
     0
290
     0
174
     0
 93
        1
 44
0.0
173
     0
291
     1
 45
0.0
1001
ACAD
1000
AcDbSavedByObjectVersion
1070
     0
  0
VISUALSTYLE
  5
33
102
{ACAD_REACTORS
330
2A
102
}
330
2A
100
AcDbVisualStyle
  2
Realistic
 70
     8
 71
     2
 72
     2
 73
     0
 90
        0
 40
-0.6
 41
-30.0
 62
     5
 63
     7
 74
     1
 91
        0
 64
     7
 65
   257
 75
     1
175
     1
 42
1.0
 92
        8
 66
     8
 43
1.0
 76
     1
 77
     6
 78
     2
 67
     7
 79
     5
170
     0
171
     0
290
     0
174
     0
 93
       13
 44
0.0
173
     0
291
     0
 45
0.0
1001
ACAD
1000
AcDbSavedByObjectVersion
1070
     0
  0
VISUALSTYLE
  5
37
102
{ACAD_REACTORS
330
2A
102
}
330
2A
100
AcDbVisualStyle
  2
Thicken
 70
    13
 71
     2
 72
     2
 73
     0
 90
        0
 40
-0.6
 41
-30.0
 62
     5
 63
     7
 74
     1
 91
        4
 64
     7
 65
   257
 75
     1
175
     1
 42
1.0
 92
       12
 66
     7
 43
1.0
 76
     1
 77
     6
 78
     2
 67
     7
 79
     5
170
     0
171
     0
290
     0
174
     0
 93
        1
 44
0.0
173
     0
291
     1
 45
0.0
1001
ACAD
1000
AcDbSavedByObjectVersion
1070
     0
  0
DICTIONARYVAR
  5
479
102
{ACAD_REACTORS
330
478
102
}
330
478
100
DictionaryVariables
280
     0
  1
1:1
  0
DICTIONARYVAR
  5
47D
102
{ACAD_REACTORS
330
478
102
}
330
478
100
DictionaryVariables
280
     0
  1
80.000000
  0
DICTIONARYVAR
  5
47C
102
{ACAD_REACTORS
330
478
102
}
330
478
100
DictionaryVariables
280
     0
  1
5.000000
  0
ENDSEC
  0
EOF
