  0
SECTION
  2
HEADER
  9
$ACADVER
  1
AC1015
  9
$ACADMAINTVER
 70
     6
  9
$DWGCODEPAGE
  3
ANSI_1252
  9
$INSBASE
 10
0.0
 20
0.0
 30
0.0
  9
$EXTMIN
 10
0.0
 20
0.0
 30
0.0
  9
$EXTMAX
 10
3000.0
 20
4500.0
 30
0.0
  9
$LIMMIN
 10
0.0
 20
0.0
  9
$LIMMAX
 10
3000.0
 20
4500.0
  9
$ORTHOMODE
 70
     0
  9
$REGENMODE
 70
     1
  9
$FILLMODE
 70
     1
  9
$QTEXTMODE
 70
     0
  9
$MIRRTEXT
 70
     1
  9
$LTSCALE
 40
1.0
  9
$ATTMODE
 70
     1
  9
$TEXTSIZE
 40
2.5
  9
$TRACEWID
 40
1.0
  9
$TEXTSTYLE
  7
Standard
  9
$CLAYER
  8
0
  9
$CELTYPE
  6
ByLayer
  9
$CECOLOR
 62
   256
  9
$CELTSCALE
 40
1.0
  9
$DISPSILH
 70
     0
  9
$DIMSCALE
 40
1.0
  9
$DIMASZ
 40
2.5
  9
$DIMEXO
 40
0.625
  9
$DIMDLI
 40
3.75
  9
$DIMRND
 40
0.0
  9
$DIMDLE
 40
0.0
  9
$DIMEXE
 40
1.25
  9
$DIMTP
 40
0.0
  9
$DIMTM
 40
0.0
  9
$DIMTXT
 40
2.5
  9
$DIMCEN
 40
2.5
  9
$DIMTSZ
 40
0.0
  9
$DIMTOL
 70
     0
  9
$DIMLIM
 70
     0
  9
$DIMTIH
 70
     0
  9
$DIMTOH
 70
     0
  9
$DIMSE1
 70
     0
  9
$DIMSE2
 70
     0
  9
$DIMTAD
 70
     1
  9
$DIMZIN
 70
     8
  9
$DIMBLK
  1

  9
$DIMASO
 70
     1
  9
$DIMSHO
 70
     1
  9
$DIMPOST
  1

  9
$DIMAPOST
  1

  9
$DIMALT
 70
     0
  9
$DIMALTD
 70
     3
  9
$DIMALTF
 40
0.0393700787
  9
$DIMLFAC
 40
1.0
  9
$DIMTOFL
 70
     1
  9
$DIMTVP
 40
0.0
  9
$DIMTIX
 70
     0
  9
$DIMSOXD
 70
     0
  9
$DIMSAH
 70
     0
  9
$DIMBLK1
  1

  9
$DIMBLK2
  1

  9
$DIMSTYLE
  2
ISO-25
  9
$DIMCLRD
 70
     0
  9
$DIMCLRE
 70
     0
  9
$DIMCLRT
 70
     0
  9
$DIMTFAC
 40
1.0
  9
$DIMGAP
 40
0.625
  9
$DIMJUST
 70
     0
  9
$DIMSD1
 70
     0
  9
$DIMSD2
 70
     0
  9
$DIMTOLJ
 70
     0
  9
$DIMTZIN
 70
     8
  9
$DIMALTZ
 70
     0
  9
$DIMALTTZ
 70
     0
  9
$DIMUPT
 70
     0
  9
$DIMDEC
 70
     2
  9
$DIMTDEC
 70
     2
  9
$DIMALTU
 70
     2
  9
$DIMALTTD
 70
     3
  9
$DIMTXSTY
  7
Standard
  9
$DIMAUNIT
 70
     0
  9
$DIMADEC
 70
     0
  9
$DIMALTRND
 40
0.0
  9
$DIMAZIN
 70
     0
  9
$DIMDSEP
 70
    44
  9
$DIMATFIT
 70
     3
  9
$DIMFRAC
 70
     0
  9
$DIMLDRBLK
  1

  9
$DIMLUNIT
 70
     2
  9
$DIMLWD
 70
    -2
  9
$DIMLWE
 70
    -2
  9
$DIMTMOVE
 70
     0
  9
$LUNITS
 70
     2
  9
$LUPREC
 70
     4
  9
$SKETCHINC
 40
1.0
  9
$FILLETRAD
 40
10.0
  9
$AUNITS
 70
     0
  9
$AUPREC
 70
     0
  9
$MENU
  1
.
  9
$ELEVATION
 40
0.0
  9
$PELEVATION
 40
0.0
  9
$THICKNESS
 40
0.0
  9
$LIMCHECK
 70
     0
  9
$CHAMFERA
 40
10.0
  9
$CHAMFERB
 40
10.0
  9
$CHAMFERC
 40
20.0
  9
$CHAMFERD
 40
0.0
  9
$SKPOLY
 70
     0
  9
$TDCREATE
 40
2455986.540125255
  9
$TDUCREATE
 40
2455986.498458588
  9
$TDUPDATE
 40
2455986.540125266
  9
$TDUUPDATE
 40
2455986.4984586
  9
$TDINDWG
 40
0.0000000116
  9
$TDUSRTIMER
 40
0.0000000116
  9
$USRTIMER
 70
     1
  9
$ANGBASE
 50
0.0
  9
$ANGDIR
 70
     0
  9
$PDMODE
 70
     0
  9
$PDSIZE
 40
0.0
  9
$PLINEWID
 40
0.0
  9
$SPLFRAME
 70
     0
  9
$SPLINETYPE
 70
     6
  9
$SPLINESEGS
 70
     8
  9
$HANDSEED
  5
1D9
  9
$SURFTAB1
 70
     6
  9
$SURFTAB2
 70
     6
  9
$SURFTYPE
 70
     6
  9
$SURFU
 70
     6
  9
$SURFV
 70
     6
  9
$UCSBASE
  2

  9
$UCSNAME
  2

  9
$UCSORG
 10
0.0
 20
0.0
 30
0.0
  9
$UCSXDIR
 10
1.0
 20
0.0
 30
0.0
  9
$UCSYDIR
 10
0.0
 20
1.0
 30
0.0
  9
$UCSORTHOREF
  2

  9
$UCSORTHOVIEW
 70
     0
  9
$UCSORGTOP
 10
0.0
 20
0.0
 30
0.0
  9
$UCSORGBOTTOM
 10
0.0
 20
0.0
 30
0.0
  9
$UCSORGLEFT
 10
0.0
 20
0.0
 30
0.0
  9
$UCSORGRIGHT
 10
0.0
 20
0.0
 30
0.0
  9
$UCSORGFRONT
 10
0.0
 20
0.0
 30
0.0
  9
$UCSORGBACK
 10
0.0
 20
0.0
 30
0.0
  9
$PUCSBASE
  2

  9
$PUCSNAME
  2

  9
$PUCSORG
 10
0.0
 20
0.0
 30
0.0
  9
$PUCSXDIR
 10
1.0
 20
0.0
 30
0.0
  9
$PUCSYDIR
 10
0.0
 20
1.0
 30
0.0
  9
$PUCSORTHOREF
  2

  9
$PUCSORTHOVIEW
 70
     0
  9
$PUCSORGTOP
 10
0.0
 20
0.0
 30
0.0
  9
$PUCSORGBOTTOM
 10
0.0
 20
0.0
 30
0.0
  9
$PUCSORGLEFT
 10
0.0
 20
0.0
 30
0.0
  9
$PUCSORGRIGHT
 10
0.0
 20
0.0
 30
0.0
  9
$PUCSORGFRONT
 10
0.0
 20
0.0
 30
0.0
  9
$PUCSORGBACK
 10
0.0
 20
0.0
 30
0.0
  9
$USERI1
 70
     0
  9
$USERI2
 70
     0
  9
$USERI3
 70
     0
  9
$USERI4
 70
     0
  9
$USERI5
 70
     0
  9
$USERR1
 40
0.0
  9
$USERR2
 40
0.0
  9
$USERR3
 40
0.0
  9
$USERR4
 40
0.0
  9
$USERR5
 40
0.0
  9
$WORLDVIEW
 70
     1
  9
$SHADEDGE
 70
     3
  9
$SHADEDIF
 70
    70
  9
$TILEMODE
 70
     1
  9
$MAXACTVP
 70
    64
  9
$PINSBASE
 10
0.0
 20
0.0
 30
0.0
  9
$PLIMCHECK
 70
     0
  9
$PEXTMIN
 10
0.0
 20
0.0
 30
0.0
  9
$PEXTMAX
 10
3000.0
 20
4500.0
 30
0.0
  9
$PLIMMIN
 10
0.0
 20
0.0
  9
$PLIMMAX
 10
3000.0
 20
4500.0
  9
$UNITMODE
 70
     0
  9
$VISRETAIN
 70
     1
  9
$PLINEGEN
 70
     0
  9
$PSLTSCALE
 70
     1
  9
$TREEDEPTH
 70
  3020
  9
$CMLSTYLE
  2
Standard
  9
$CMLJUST
 70
     0
  9
$CMLSCALE
 40
20.0
  9
$PROXYGRAPHICS
 70
     1
  9
$MEASUREMENT
 70
     1
  9
$CELWEIGHT
370
    -1
  9
$ENDCAPS
280
     0
  9
$JOINSTYLE
280
     0
  9
$LWDISPLAY
290
     0
  9
$INSUNITS
 70
     4
  9
$HYPERLINKBASE
  1

  9
$STYLESHEET
  1

  9
$XEDIT
290
     1
  9
$CEPSNTYPE
380
     0
  9
$PSTYLEMODE
290
     1
  9
$FINGERPRINTGUID
  2
{81F2EF7F-1B37-4C85-B06B-BF740E02FE2E}
  9
$VERSIONGUID
  2
{FAEB1C32-E019-11D5-929B-00C0DF256EC4}
  9
$EXTNAMES
290
     1
  9
$PSVPSCALE
 40
0.0
  9
$OLESTARTUP
290
     0
  0
ENDSEC
  0
SECTION
  2
CLASSES
  0
CLASS
  1
ACDBDICTIONARYWDFLT
  2
AcDbDictionaryWithDefault
  3
ObjectDBX Classes
 90
        0
280
     0
281
     0
  0
CLASS
  1
VISUALSTYLE
  2
AcDbVisualStyle
  3
ObjectDBX Classes
 90
     4095
280
     0
281
     0
  0
CLASS
  1
SCALE
  2
AcDbScale
  3
ObjectDBX Classes
 90
     1153
280
     0
281
     0
  0
CLASS
  1
DICTIONARYVAR
  2
AcDbDictionaryVar
  3
ObjectDBX Classes
 90
        0
280
     0
281
     0
  0
CLASS
  1
ACDBPLACEHOLDER
  2
AcDbPlaceHolder
  3
ObjectDBX Classes
 90
        0
280
     0
281
     0
  0
CLASS
  1
LAYOUT
  2
AcDbLayout
  3
ObjectDBX Classes
 90
        0
280
     0
281
     0
  0
ENDSEC
  0
SECTION
  2
TABLES
  0
TABLE
  2
VPORT
  5
8
330
0
100
AcDbSymbolTable
 70
     1
  0
VPORT
  5
29
330
8
100
AcDbSymbolTableRecord
100
AcDbViewportTableRecord
  2
*Active
 70
     0
 10
0.0
 20
0.0
 11
1.0
 21
1.0
 12
344.1869158879
 22
148.5
 13
0.0
 23
0.0
 14
10.0
 24
10.0
 15
10.0
 25
10.0
 16
0.0
 26
0.0
 36
1.0
 17
0.0
 27
0.0
 37
0.0
 40
297.0
 41
1.9729729729
 42
50.0
 43
0.0
 44
0.0
 50
0.0
 51
0.0
 71
     0
 72
   100
 73
     1
 74
     3
 75
     0
 76
     0
 77
     0
 78
     0
281
     0
 65
     1
110
0.0
120
0.0
130
0.0
111
1.0
121
0.0
131
0.0
112
0.0
122
1.0
132
0.0
 79
     0
146
0.0
  0
ENDTAB
  0
TABLE
  2
LTYPE
  5
5
330
0
100
AcDbSymbolTable
 70
     2
  0
LTYPE
  5
14
330
5
100
AcDbSymbolTableRecord
100
AcDbLinetypeTableRecord
  2
ByBlock
 70
     0
  3

 72
    65
 73
     0
 40
0.0
  0
LTYPE
  5
15
330
5
100
AcDbSymbolTableRecord
100
AcDbLinetypeTableRecord
  2
ByLayer
 70
     0
  3

 72
    65
 73
     0
 40
0.0
  0
LTYPE
  5
16
330
5
100
AcDbSymbolTableRecord
100
AcDbLinetypeTableRecord
  2
Continuous
 70
     0
  3
Solid line
 72
    65
 73
     0
 40
0.0
  0
LTYPE
  5
60
330
5
100
AcDbSymbolTableRecord
100
AcDbLinetypeTableRecord
  2
CENTER2
 70
     0
  3
Center (.5x) ___ _ ___ _ ___ _ ___ _ ___ _ ___
 72
    65
 73
     4
 40
28.575
 49
19.05
 74
     4
 75
     0
340
0
 46
0.0
 50
0.0
 44
0.0
 45
0.0
 49
-3.175
 74
     4
 75
     0
340
0
 46
0.0
 50
0.0
 44
0.0
 45
0.0
 49
3.175
 74
     4
 75
     0
340
0
 46
0.0
 50
0.0
 44
0.0
 45
0.0
 49
-3.175
 74
     4
 75
     0
340
0
 46
0.0
 50
0.0
 44
0.0
 45
0.0
  0
ENDTAB
  0
TABLE
  2
LAYER
  5
2
330
0
100
AcDbSymbolTable
 70
     5
  0
LAYER
  5
10
330
2
100
AcDbSymbolTableRecord
100
AcDbLayerTableRecord
  2
0
 70
     0
 62
     7
  6
Continuous
370
    -3
390
F
  0
LAYER
  5
5D
330
2
100
AcDbSymbolTableRecord
100
AcDbLayerTableRecord
  2
Default
 70
     0
 62
     7
  6
Continuous
370
    -3
390
F
  0
LAYER
  5
83
330
2
100
AcDbSymbolTableRecord
100
AcDbLayerTableRecord
  2
DV1_Default
 70
     0
 62
     7
  6
Continuous
370
    -3
390
F
  0
LAYER
  5
DA
330
2
100
AcDbSymbolTableRecord
100
AcDbLayerTableRecord
  2
DV2_Default
 70
     0
 62
     7
  6
Continuous
370
    -3
390
F
  0
LAYER
  5
141
330
2
100
AcDbSymbolTableRecord
100
AcDbLayerTableRecord
  2
DV3_Default
 70
     0
 62
     7
  6
Continuous
370
    -3
390
F
  0
ENDTAB
  0
TABLE
  2
STYLE
  5
3
330
0
100
AcDbSymbolTable
 70
     2
  0
STYLE
  5
11
330
3
100
AcDbSymbolTableRecord
100
AcDbTextStyleTableRecord
  2
Standard
 70
     0
 40
0.0
 41
1.0
 50
0.0
 71
     0
 42
2.5
  3
txt
  4

  0
STYLE
  5
1C8
330
3
100
AcDbSymbolTableRecord
100
AcDbTextStyleTableRecord
  2
SEACAD_seiso_ttf
 70
     0
 40
0.0
 41
1.0
 50
0.0
 71
     0
 42
0.2
  3
seiso.ttf
  4

  0
ENDTAB
  0
TABLE
  2
VIEW
  5
6
330
0
100
AcDbSymbolTable
 70
     0
  0
ENDTAB
  0
TABLE
  2
UCS
  5
7
330
0
100
AcDbSymbolTable
 70
     0
  0
ENDTAB
  0
TABLE
  2
APPID
  5
9
330
0
100
AcDbSymbolTable
 70
     1
  0
APPID
  5
12
330
9
100
AcDbSymbolTableRecord
100
AcDbRegAppTableRecord
  2
ACAD
 70
     0
  0
ENDTAB
  0
TABLE
  2
DIMSTYLE
  5
A
330
0
100
AcDbSymbolTable
 70
     1
100
AcDbDimStyleTable
  0
DIMSTYLE
105
27
330
A
100
AcDbSymbolTableRecord
100
AcDbDimStyleTableRecord
  2
ISO-25
 70
     0
 41
2.5
 42
0.625
 43
3.75
 44
1.25
 73
     0
 74
     0
 77
     1
 78
     8
140
2.5
141
2.5
143
0.0393700787
147
0.625
171
     3
172
     1
271
     2
272
     2
274
     3
278
    44
283
     0
284
     8
340
11
  0
ENDTAB
  0
TABLE
  2
BLOCK_RECORD
  5
1
330
0
100
AcDbSymbolTable
 70
     9
  0
BLOCK_RECORD
  5
1F
330
1
100
AcDbSymbolTableRecord
100
AcDbBlockTableRecord
  2
*Model_Space
340
22
  0
BLOCK_RECORD
  5
1B
330
1
100
AcDbSymbolTableRecord
100
AcDbBlockTableRecord
  2
*Paper_Space
340
1E
  0
BLOCK_RECORD
  5
5E
330
1
100
AcDbSymbolTableRecord
100
AcDbBlockTableRecord
  2
SEANNOT_GROUP
340
0
102
{BLKREFS
331
5F
102
}
  0
BLOCK_RECORD
  5
65
330
1
100
AcDbSymbolTableRecord
100
AcDbBlockTableRecord
  2
SEANNOT_GROUP1
340
0
102
{BLKREFS
331
66
102
}
  0
BLOCK_RECORD
  5
6B
330
1
100
AcDbSymbolTableRecord
100
AcDbBlockTableRecord
  2
SEANNOT_GROUP2
340
0
102
{BLKREFS
331
6C
102
}
  0
BLOCK_RECORD
  5
73
330
1
100
AcDbSymbolTableRecord
100
AcDbBlockTableRecord
  2
SEANNOT_GROUP3
340
0
102
{BLKREFS
331
74
102
}
  0
BLOCK_RECORD
  5
7B
330
1
100
AcDbSymbolTableRecord
100
AcDbBlockTableRecord
  2
SEANNOT_GROUP4
340
0
102
{BLKREFS
331
7C
102
}
  0
BLOCK_RECORD
  5
81
330
1
100
AcDbSymbolTableRecord
100
AcDbBlockTableRecord
  2
SE
340
0
102
{BLKREFS
331
82
102
}
  0
BLOCK_RECORD
  5
D8
330
1
100
AcDbSymbolTableRecord
100
AcDbBlockTableRecord
  2
SE1
340
0
102
{BLKREFS
331
D9
102
}
  0
BLOCK_RECORD
  5
13F
330
1
100
AcDbSymbolTableRecord
100
AcDbBlockTableRecord
  2
SE2
340
0
102
{BLKREFS
331
140
102
}
  0
ENDTAB
  0
ENDSEC
  0
SECTION
  2
BLOCKS
  0
BLOCK
  5
20
330
1F
100
AcDbEntity
  8
0
100
AcDbBlockBegin
  2
*Model_Space
 70
     0
 10
0.0
 20
0.0
 30
0.0
  3
*Model_Space
  1

  0
ENDBLK
  5
21
330
1F
100
AcDbEntity
  8
0
100
AcDbBlockEnd
  0
BLOCK
  5
1C
330
1B
100
AcDbEntity
 67
     1
  8
0
100
AcDbBlockBegin
  2
*Paper_Space
 70
     0
 10
0.0
 20
0.0
 30
0.0
  3
*Paper_Space
  1

  0
ENDBLK
  5
1D
330
1B
100
AcDbEntity
 67
     1
  8
0
100
AcDbBlockEnd
  0
BLOCK
  5
63
330
5E
100
AcDbEntity
  8
0
100
AcDbBlockBegin
  2
SEANNOT_GROUP
 70
     0
 10
0.0
 20
0.0
 30
0.0
  3
SEANNOT_GROUP
  1

  0
LINE
  5
61
330
5E
100
AcDbEntity
  8
Default
  6
CENTER2
 62
     7
100
AcDbLine
 10
205.2771855117
 20
841.3492349954
 30
0.0
 11
165.2771864058
 21
841.3492349954
 31
0.0
  0
LINE
  5
62
330
5E
100
AcDbEntity
  8
Default
  6
CENTER2
 62
     7
100
AcDbLine
 10
185.2771859587
 20
861.3492345484
 30
0.0
 11
185.2771859587
 21
821.3492354424
 31
0.0
  0
ENDBLK
  5
64
330
5E
100
AcDbEntity
  8
0
100
AcDbBlockEnd
  0
BLOCK
  5
69
330
65
100
AcDbEntity
  8
0
100
AcDbBlockBegin
  2
SEANNOT_GROUP1
 70
     0
 10
0.0
 20
0.0
 30
0.0
  3
SEANNOT_GROUP1
  1

  0
LINE
  5
67
330
65
100
AcDbEntity
  8
Default
  6
CENTER2
 62
     7
100
AcDbLine
 10
205.2771855117
 20
242.5492349954
 30
0.0
 11
165.2771864058
 21
242.5492349954
 31
0.0
  0
LINE
  5
68
330
65
100
AcDbEntity
  8
Default
  6
CENTER2
 62
     7
100
AcDbLine
 10
185.2771859587
 20
262.5492345484
 30
0.0
 11
185.2771859587
 21
222.5492354424
 31
0.0
  0
ENDBLK
  5
6A
330
65
100
AcDbEntity
  8
0
100
AcDbBlockEnd
  0
BLOCK
  5
6F
330
6B
100
AcDbEntity
  8
0
100
AcDbBlockBegin
  2
SEANNOT_GROUP2
 70
     0
 10
0.0
 20
0.0
 30
0.0
  3
SEANNOT_GROUP2
  1

  0
LINE
  5
6D
330
6B
100
AcDbEntity
  8
Default
  6
CENTER2
 62
     7
100
AcDbLine
 10
75.079999553
 20
166.8487707912
 30
0.0
 11
35.080000447
 21
166.8487707912
 31
0.0
  0
LINE
  5
6E
330
6B
100
AcDbEntity
  8
Default
  6
CENTER2
 62
     7
100
AcDbLine
 10
55.08
 20
186.8487703441
 30
0.0
 11
55.08
 21
146.8487712382
 31
0.0
  0
ENDBLK
  5
70
330
6B
100
AcDbEntity
  8
0
100
AcDbBlockEnd
  0
BLOCK
  5
77
330
73
100
AcDbEntity
  8
0
100
AcDbBlockBegin
  2
SEANNOT_GROUP3
 70
     0
 10
0.0
 20
0.0
 30
0.0
  3
SEANNOT_GROUP3
  1

  0
LINE
  5
75
330
73
100
AcDbEntity
  8
Default
  6
CENTER2
 62
     7
100
AcDbLine
 10
75.079999553
 20
841.3492349954
 30
0.0
 11
35.080000447
 21
841.3492349954
 31
0.0
  0
LINE
  5
76
330
73
100
AcDbEntity
  8
Default
  6
CENTER2
 62
     7
100
AcDbLine
 10
55.08
 20
861.3492345484
 30
0.0
 11
55.08
 21
821.3492354424
 31
0.0
  0
ENDBLK
  5
78
330
73
100
AcDbEntity
  8
0
100
AcDbBlockEnd
  0
BLOCK
  5
7F
330
7B
100
AcDbEntity
  8
0
100
AcDbBlockBegin
  2
SEANNOT_GROUP4
 70
     0
 10
0.0
 20
0.0
 30
0.0
  3
SEANNOT_GROUP4
  1

  0
LINE
  5
7D
330
7B
100
AcDbEntity
  8
Default
  6
CENTER2
 62
     7
100
AcDbLine
 10
75.079999553
 20
242.5492349954
 30
0.0
 11
35.080000447
 21
242.5492349954
 31
0.0
  0
LINE
  5
7E
330
7B
100
AcDbEntity
  8
Default
  6
CENTER2
 62
     7
100
AcDbLine
 10
55.08
 20
262.5492345484
 30
0.0
 11
55.08
 21
222.5492354424
 31
0.0
  0
ENDBLK
  5
80
330
7B
100
AcDbEntity
  8
0
100
AcDbBlockEnd
  0
BLOCK
  5
D6
330
81
100
AcDbEntity
  8
0
100
AcDbBlockBegin
  2
SE
 70
     0
 10
0.0
 20
0.0
 30
0.0
  3
SE
  1

  0
LINE
  5
84
330
81
100
AcDbEntity
  8
DV1_Default
  6
Continuous
 62
     7
100
AcDbLine
 10
40.58
 20
851.9492349954
 30
0.0
 11
69.58
 21
851.9492349954
 31
0.0
  0
LINE
  5
85
330
81
100
AcDbEntity
  8
DV1_Default
  6
Continuous
 62
     7
100
AcDbLine
 10
40.58
 20
851.9492349954
 30
0.0
 11
40.08
 21
851.9492349954
 31
0.0
  0
LINE
  5
86
330
81
100
AcDbEntity
  8
DV1_Default
  6
Continuous
 62
     7
100
AcDbLine
 10
70.08
 20
851.9492349954
 30
0.0
 11
69.58
 21
851.9492349954
 31
0.0
  0
LINE
  5
87
330
81
100
AcDbEntity
  8
DV1_Default
  6
Continuous
 62
     7
100
AcDbLine
 10
40.58
 20
853.9492349954
 30
0.0
 11
69.58
 21
853.9492349954
 31
0.0
  0
ARC
  5
88
330
81
100
AcDbEntity
  8
DV1_Default
  6
Continuous
 62
     7
100
AcDbCircle
 10
40.58
 20
853.4492349954
 30
0.0
 40
0.4999999999999987
100
AcDbArc
 50
90.0
 51
180.0
  0
LINE
  5
89
330
81
100
AcDbEntity
  8
DV1_Default
  6
Continuous
 62
     7
100
AcDbLine
 10
70.08
 20
853.4492349954
 30
0.0
 11
70.08
 21
851.9492349954
 31
0.0
  0
LINE
  5
8A
330
81
100
AcDbEntity
  8
DV1_Default
  6
Continuous
 62
     7
100
AcDbLine
 10
40.08
 20
851.9492349954
 30
0.0
 11
40.08
 21
853.4492349954
 31
0.0
  0
ARC
  5
8B
330
81
100
AcDbEntity
  8
DV1_Default
  6
Continuous
 62
     7
100
AcDbCircle
 10
69.58
 20
853.4492349954
 30
0.0
 40
0.5000000000000004
100
AcDbArc
 50
0.0
 51
90.0
  0
LINE
  5
8C
330
81
100
AcDbEntity
  8
DV1_Default
  6
Continuous
 62
     7
100
AcDbLine
 10
70.08
 20
231.9492349954
 30
0.0
 11
69.58
 21
231.9492349954
 31
0.0
  0
LINE
  5
8D
330
81
100
AcDbEntity
  8
DV1_Default
  6
Continuous
 62
     7
100
AcDbLine
 10
40.58
 20
231.9492349954
 30
0.0
 11
69.58
 21
231.9492349954
 31
0.0
  0
LINE
  5
8E
330
81
100
AcDbEntity
  8
DV1_Default
  6
Continuous
 62
     7
100
AcDbLine
 10
40.58
 20
231.9492349954
 30
0.0
 11
40.08
 21
231.9492349954
 31
0.0
  0
LINE
  5
8F
330
81
100
AcDbEntity
  8
DV1_Default
  6
Continuous
 62
     7
100
AcDbLine
 10
40.08
 20
851.9492349954
 30
0.0
 11
40.58
 21
851.9492349954
 31
0.0
  0
LINE
  5
90
330
81
100
AcDbEntity
  8
DV1_Default
  6
Continuous
 62
     7
100
AcDbLine
 10
40.58
 20
851.9492349954
 30
0.0
 11
69.58
 21
851.9492349954
 31
0.0
  0
LINE
  5
91
330
81
100
AcDbEntity
  8
DV1_Default
  6
Continuous
 62
     7
100
AcDbLine
 10
69.58
 20
851.9492349954
 30
0.0
 11
70.08
 21
851.9492349954
 31
0.0
  0
LINE
  5
92
330
81
100
AcDbEntity
  8
DV1_Default
  6
Continuous
 62
     7
100
AcDbLine
 10
70.08
 20
851.9492349954
 30
0.0
 11
70.08
 21
555.4492349954
 31
0.0
  0
LINE
  5
93
330
81
100
AcDbEntity
  8
DV1_Default
  6
Continuous
 62
     7
100
AcDbLine
 10
70.08
 20
528.4492349954
 30
0.0
 11
70.08
 21
231.9492349954
 31
0.0
  0
LINE
  5
94
330
81
100
AcDbEntity
  8
DV1_Default
  6
Continuous
 62
     7
100
AcDbLine
 10
40.08
 20
851.9492349954
 30
0.0
 11
40.08
 21
555.4492349954
 31
0.0
  0
LINE
  5
95
330
81
100
AcDbEntity
  8
DV1_Default
  6
Continuous
 62
     7
100
AcDbLine
 10
40.08
 20
528.4492349954
 30
0.0
 11
40.08
 21
231.9492349954
 31
0.0
  0
LINE
  5
96
330
81
100
AcDbEntity
  8
DV1_Default
  6
Continuous
 62
     7
100
AcDbLine
 10
27.3499999997
 20
554.3492371564
 30
0.0
 11
27.5800000016
 21
554.1192370134
 31
0.0
  0
LINE
  5
97
330
81
100
AcDbEntity
  8
DV1_Default
  6
Continuous
 62
     7
100
AcDbLine
 10
27.5800000016
 20
529.7792337512
 30
0.0
 11
27.3499999997
 21
529.5492330689
 31
0.0
  0
LINE
  5
98
330
81
100
AcDbEntity
  8
DV1_Default
  6
Continuous
 62
     7
100
AcDbLine
 10
6.35
 20
529.1281548243
 30
0.0
 11
6.35
 21
529.6281357858
 31
0.0
  0
LINE
  5
99
330
81
100
AcDbEntity
  8
DV1_Default
  6
Continuous
 62
     7
100
AcDbLine
 10
6.35
 20
529.6281357858
 30
0.0
 11
6.35
 21
554.270334205
 31
0.0
  0
LINE
  5
9A
330
81
100
AcDbEntity
  8
DV1_Default
  6
Continuous
 62
     7
100
AcDbLine
 10
6.35
 20
554.270334205
 30
0.0
 11
6.35
 21
554.7703151665
 31
0.0
  0
LINE
  5
9B
330
81
100
AcDbEntity
  8
DV1_Default
  6
Continuous
 62
     7
100
AcDbLine
 10
27.3499999998
 20
555.2474820062
 30
0.0
 11
27.3499999997
 21
554.4475124677
 31
0.0
  0
LINE
  5
9C
330
81
100
AcDbEntity
  8
DV1_Default
  6
Continuous
 62
     7
100
AcDbLine
 10
27.3499999997
 20
554.4475124677
 30
0.0
 11
27.3499999997
 21
529.4509575231
 31
0.0
  0
LINE
  5
9D
330
81
100
AcDbEntity
  8
DV1_Default
  6
Continuous
 62
     7
100
AcDbLine
 10
27.3499999997
 20
529.4509575231
 30
0.0
 11
27.3499999998
 21
528.6509879846
 31
0.0
  0
ARC
  5
9E
330
81
100
AcDbEntity
  8
DV1_Default
  6
Continuous
 62
     7
100
AcDbCircle
 10
27.1499857209
 20
555.2474634712
 30
0.0
 40
0.200014279806408
100
AcDbArc
 50
0.005309481
 51
90.4958634496
  0
SPLINE
  5
9F
330
81
100
AcDbEntity
  8
DV1_Default
  6
Continuous
 62
     7
100
AcDbSpline
210
0.0
220
0.0
230
1.0
 70
     8
 71
     3
 72
    10
 73
     6
 74
     0
 42
0.000000030867438
 43
0.0000000001
 40
0.0
 40
0.0
 40
0.0
 40
0.0
 40
0.5
 40
0.5
 40
1.0
 40
1.0
 40
1.0
 40
1.0
 10
27.34999999982998
 20
528.6509879846313
 30
0.0
 10
27.34999999999999
 20
528.5983372188623
 30
0.0
 10
27.32819474875484
 20
528.5460178238606
 30
0.0
 10
27.25341114102507
 20
528.4718839951505
 30
0.0
 10
27.2009034538861
 20
528.4505361412412
 30
0.0
 10
27.14825472893999
 20
528.4509997301515
 30
0.0
  0
LINE
  5
A0
330
81
100
AcDbEntity
  8
DV1_Default
  6
Continuous
 62
     7
100
AcDbLine
 10
6.8456367646
 20
555.2702924158
 30
0.0
 11
27.1482547289
 21
555.4474702606
 31
0.0
  0
LINE
  5
A1
330
81
100
AcDbEntity
  8
DV1_Default
  6
Continuous
 62
     7
100
AcDbLine
 10
27.1482547289
 20
528.4509997302
 30
0.0
 11
6.8456367646
 21
528.628177575
 31
0.0
  0
SPLINE
  5
A2
330
81
100
AcDbEntity
  8
DV1_Default
  6
Continuous
 62
     7
100
AcDbSpline
210
0.0
220
0.0
230
1.0
 70
     8
 71
     3
 72
    10
 73
     6
 74
     0
 42
0.0000000124916392
 43
0.0000000001
 40
0.0
 40
0.0
 40
0.0
 40
0.0
 40
0.5
 40
0.5
 40
1.0
 40
1.0
 40
1.0
 40
1.0
 10
6.350000000029985
 20
554.7703151664914
 30
0.0
 10
6.349999999999994
 20
554.9004876398698
 30
0.0
 10
6.403263974211856
 20
555.0298759418187
 30
0.0
 10
6.586550650166903
 20
555.2147691156222
 30
0.0
 10
6.715469215444248
 20
555.2691601733144
 30
0.0
 10
6.845636764649984
 20
555.2702924157815
 30
0.0
  0
ARC
  5
A3
330
81
100
AcDbEntity
  8
DV1_Default
  6
Continuous
 62
     7
100
AcDbCircle
 10
6.85
 20
529.128163642
 30
0.0
 40
0.499999999999989
100
AcDbArc
 50
180.0010104397
 51
269.5000088167
  0
LINE
  5
A4
330
81
100
AcDbEntity
  8
DV1_Default
  6
Continuous
 62
     7
100
AcDbLine
 10
82.58
 20
531.4892349954
 30
0.0
 11
82.88
 21
531.4892349954
 31
0.0
  0
LINE
  5
A5
330
81
100
AcDbEntity
  8
DV1_Default
  6
Continuous
 62
     7
100
AcDbLine
 10
82.58
 20
552.4092349954
 30
0.0
 11
82.88
 21
552.4092349954
 31
0.0
  0
ARC
  5
A6
330
81
100
AcDbEntity
  8
DV1_Default
  6
Continuous
 62
     7
100
AcDbCircle
 10
82.88
 20
548.4589497273
 30
0.0
 40
0.3000000000740336
100
AcDbArc
 50
89.9999999999
 51
180.0002892482
  0
ARC
  5
A7
330
81
100
AcDbEntity
  8
DV1_Default
  6
Continuous
 62
     7
100
AcDbCircle
 10
82.88
 20
535.4395202633
 30
0.0
 40
0.2999999999983744
100
AcDbArc
 50
179.9997107371
 51
269.9999999994
  0
LINE
  5
A8
330
81
100
AcDbEntity
  8
DV1_Default
  6
Continuous
 62
     7
100
AcDbLine
 10
122.58
 20
529.7992349954
 30
0.0
 11
122.58
 21
554.0992349954
 31
0.0
  0
ARC
  5
A9
330
81
100
AcDbEntity
  8
DV1_Default
  6
Continuous
 62
     7
100
AcDbCircle
 10
121.58
 20
554.0992349954
 30
0.0
 40
1.000000000000001
100
AcDbArc
 50
0.0
 51
90.0
  0
ARC
  5
AA
330
81
100
AcDbEntity
  8
DV1_Default
  6
Continuous
 62
     7
100
AcDbCircle
 10
121.58
 20
529.7992349954
 30
0.0
 40
1.000000000000001
100
AcDbArc
 50
270.0
 51
0.0
  0
LINE
  5
AB
330
81
100
AcDbEntity
  8
DV1_Default
  6
Continuous
 62
     7
100
AcDbLine
 10
82.88
 20
529.7992349954
 30
0.0
 11
82.88
 21
528.9992349954
 31
0.0
  0
LINE
  5
AC
330
81
100
AcDbEntity
  8
DV1_Default
  6
Continuous
 62
     7
100
AcDbLine
 10
82.88
 20
554.0992349954
 30
0.0
 11
82.88
 21
529.7992349954
 31
0.0
  0
LINE
  5
AD
330
81
100
AcDbEntity
  8
DV1_Default
  6
Continuous
 62
     7
100
AcDbLine
 10
82.88
 20
554.8992349954
 30
0.0
 11
82.88
 21
554.0992349954
 31
0.0
  0
ARC
  5
AE
330
81
100
AcDbEntity
  8
DV1_Default
  6
Continuous
 62
     7
100
AcDbCircle
 10
83.08
 20
554.8992349954
 30
0.0
 40
0.2000000000000005
100
AcDbArc
 50
90.0
 51
180.0
  0
LINE
  5
AF
330
81
100
AcDbEntity
  8
DV1_Default
  6
Continuous
 62
     7
100
AcDbLine
 10
121.58
 20
555.0992349954
 30
0.0
 11
83.08
 21
555.0992349954
 31
0.0
  0
ARC
  5
B0
330
81
100
AcDbEntity
  8
DV1_Default
  6
Continuous
 62
     7
100
AcDbCircle
 10
83.08
 20
528.9992349954
 30
0.0
 40
0.2000000000000005
100
AcDbArc
 50
180.0
 51
270.0
  0
LINE
  5
B1
330
81
100
AcDbEntity
  8
DV1_Default
  6
Continuous
 62
     7
100
AcDbLine
 10
83.08
 20
528.7992349954
 30
0.0
 11
121.58
 21
528.7992349954
 31
0.0
  0
LINE
  5
B2
330
81
100
AcDbEntity
  8
DV1_Default
  6
Continuous
 62
     7
100
AcDbLine
 10
72.48
 20
528.723516899
 30
0.0
 11
72.48
 21
528.4492349954
 31
0.0
  0
LINE
  5
B3
330
81
100
AcDbEntity
  8
DV1_Default
  6
Continuous
 62
     7
100
AcDbLine
 10
72.48
 20
528.4492349954
 30
0.0
 11
71.98
 21
528.4492349954
 31
0.0
  0
LINE
  5
B4
330
81
100
AcDbEntity
  8
DV1_Default
  6
Continuous
 62
     7
100
AcDbLine
 10
38.18
 20
528.4492349954
 30
0.0
 11
71.98
 21
528.4492349954
 31
0.0
  0
LINE
  5
B5
330
81
100
AcDbEntity
  8
DV1_Default
  6
Continuous
 62
     7
100
AcDbLine
 10
38.18
 20
528.4492349954
 30
0.0
 11
37.68
 21
528.4492349954
 31
0.0
  0
LINE
  5
B6
330
81
100
AcDbEntity
  8
DV1_Default
  6
Continuous
 62
     7
100
AcDbLine
 10
37.68
 20
528.5109331519
 30
0.0
 11
37.68
 21
528.4492349954
 31
0.0
  0
LINE
  5
B7
330
81
100
AcDbEntity
  8
DV1_Default
  6
Continuous
 62
     7
100
AcDbLine
 10
37.68
 20
555.4492349954
 30
0.0
 11
38.18
 21
555.4492349954
 31
0.0
  0
LINE
  5
B8
330
81
100
AcDbEntity
  8
DV1_Default
  6
Continuous
 62
     7
100
AcDbLine
 10
38.18
 20
555.4492349954
 30
0.0
 11
71.98
 21
555.4492349954
 31
0.0
  0
LINE
  5
B9
330
81
100
AcDbEntity
  8
DV1_Default
  6
Continuous
 62
     7
100
AcDbLine
 10
71.98
 20
555.4492349954
 30
0.0
 11
72.48
 21
555.4492349954
 31
0.0
  0
LINE
  5
BA
330
81
100
AcDbEntity
  8
DV1_Default
  6
Continuous
 62
     7
100
AcDbLine
 10
72.48
 20
555.4492349954
 30
0.0
 11
72.48
 21
555.1749530918
 31
0.0
  0
LINE
  5
BB
330
81
100
AcDbEntity
  8
DV1_Default
  6
Continuous
 62
     7
100
AcDbLine
 10
37.68
 20
555.4492349954
 30
0.0
 11
37.68
 21
555.3875368389
 31
0.0
  0
LINE
  5
BC
330
81
100
AcDbEntity
  8
DV1_Default
  6
Continuous
 62
     7
100
AcDbLine
 10
27.5800000012
 20
528.6504604727
 30
0.0
 11
27.5800000016
 21
529.4504455465
 31
0.0
  0
LINE
  5
BD
330
81
100
AcDbEntity
  8
DV1_Default
  6
Continuous
 62
     7
100
AcDbLine
 10
27.5800000016
 20
529.4504455465
 30
0.0
 11
27.5800000016
 21
554.4480244443
 31
0.0
  0
LINE
  5
BE
330
81
100
AcDbEntity
  8
DV1_Default
  6
Continuous
 62
     7
100
AcDbLine
 10
27.5800000016
 20
554.4480244443
 30
0.0
 11
27.5800000012
 21
555.2480095181
 31
0.0
  0
ARC
  5
BF
330
81
100
AcDbEntity
  8
DV1_Default
  6
Continuous
 62
     7
100
AcDbCircle
 10
27.7800073549
 20
528.6504722977
 30
0.0
 40
0.2000073540527708
100
AcDbArc
 50
180.0033874803
 51
270.3478723759
  0
SPLINE
  5
C0
330
81
100
AcDbEntity
  8
DV1_Default
  6
Continuous
 62
     7
100
AcDbSpline
210
0.0
220
0.0
230
1.0
 70
     8
 71
     3
 72
    10
 73
     6
 74
     0
 42
0.0000000309211864
 43
0.0000000001
 40
0.0
 40
0.0
 40
0.0
 40
0.0
 40
0.5
 40
0.5
 40
1.0
 40
1.0
 40
1.0
 40
1.0
 10
27.58000000121999
 20
555.2480095181014
 30
0.0
 10
27.57999999999999
 20
555.3005730174103
 30
0.0
 10
27.60172989322501
 20
555.3528078505788
 30
0.0
 10
27.67629260618038
 20
555.4269164713669
 30
0.0
 10
27.72865920430432
 20
555.4483268767025
 30
0.0
 10
27.78122169581398
 20
555.4480013515724
 30
0.0
  0
LINE
  5
C1
330
81
100
AcDbEntity
  8
DV1_Default
  6
Continuous
 62
     7
100
AcDbLine
 10
27.7812217229
 20
555.4480057865
 30
0.0
 11
82.3812217229
 21
555.1144692178
 31
0.0
  0
LINE
  5
C2
330
81
100
AcDbEntity
  8
DV1_Default
  6
Continuous
 62
     7
100
AcDbLine
 10
82.5799999984
 20
554.1144878755
 30
0.0
 11
82.5799999984
 21
529.7839821153
 31
0.0
  0
LINE
  5
C3
330
81
100
AcDbEntity
  8
DV1_Default
  6
Continuous
 62
     7
100
AcDbLine
 10
82.5799999984
 20
529.7839821153
 30
0.0
 11
82.5799999988
 21
528.9839970415
 31
0.0
  0
LINE
  5
C4
330
81
100
AcDbEntity
  8
DV1_Default
  6
Continuous
 62
     7
100
AcDbLine
 10
82.5799999988
 20
554.9144729493
 30
0.0
 11
82.5799999984
 21
554.1144878755
 31
0.0
  0
ARC
  5
C5
330
81
100
AcDbEntity
  8
DV1_Default
  6
Continuous
 62
     7
100
AcDbCircle
 10
82.3799925368
 20
554.914461107
 30
0.0
 40
0.2000074622893504
100
AcDbArc
 50
0.0033924615
 51
89.6478827538
  0
SPLINE
  5
C6
330
81
100
AcDbEntity
  8
DV1_Default
  6
Continuous
 62
     7
100
AcDbSpline
210
0.0
220
0.0
230
1.0
 70
     8
 71
     3
 72
    10
 73
     6
 74
     0
 42
0.0000000311743445
 43
0.0000000001
 40
0.0
 40
0.0
 40
0.0
 40
0.0
 40
0.5
 40
0.5
 40
1.0
 40
1.0
 40
1.0
 40
1.0
 10
82.57999999878
 20
528.9839970414614
 30
0.0
 10
82.57999999999998
 20
528.9318407856506
 30
0.0
 10
82.55861986950616
 20
528.8800008048092
 30
0.0
 10
82.48508541623669
 20
528.806015777519
 30
0.0
 10
82.43337700558797
 20
528.7843193754728
 30
0.0
 10
82.38122169581624
 20
528.7840052076591
 30
0.0
  0
LINE
  5
C7
330
81
100
AcDbEntity
  8
DV1_Default
  6
Continuous
 62
     7
100
AcDbLine
 10
82.3812217229
 20
528.784000773
 30
0.0
 11
27.7812217229
 21
528.4504642042
 31
0.0
  0
ARC
  5
C8
330
81
100
AcDbEntity
  8
DV1_Default
  6
Continuous
 62
     7
100
AcDbCircle
 10
55.08
 20
809.3510287534
 30
0.0
 40
45.00000000000009
100
AcDbArc
 50
82.6738803946
 51
97.3261196054
  0
ARC
  5
C9
330
81
100
AcDbEntity
  8
DV1_Default
  6
Continuous
 62
     7
100
AcDbCircle
 10
49.38
 20
853.686116438
 30
0.0
 40
0.3000000000000357
100
AcDbArc
 50
97.3260754247
 51
118.7100569516
  0
ARC
  5
CA
330
81
100
AcDbEntity
  8
DV1_Default
  6
Continuous
 62
     7
100
AcDbCircle
 10
60.78
 20
853.686116438
 30
0.0
 40
0.3000000000000017
100
AcDbArc
 50
61.2899430484
 51
82.6739245753
  0
LINE
  5
CB
330
81
100
AcDbEntity
  8
DV1_Default
  6
Continuous
 62
     7
100
AcDbLine
 10
69.58
 20
231.9492349954
 30
0.0
 11
40.58
 21
231.9492349954
 31
0.0
  0
LINE
  5
CC
330
81
100
AcDbEntity
  8
DV1_Default
  6
Continuous
 62
     7
100
AcDbLine
 10
69.58
 20
231.9492349954
 30
0.0
 11
70.08
 21
231.9492349954
 31
0.0
  0
LINE
  5
CD
330
81
100
AcDbEntity
  8
DV1_Default
  6
Continuous
 62
     7
100
AcDbLine
 10
40.08
 20
231.9492349954
 30
0.0
 11
40.58
 21
231.9492349954
 31
0.0
  0
LINE
  5
CE
330
81
100
AcDbEntity
  8
DV1_Default
  6
Continuous
 62
     7
100
AcDbLine
 10
69.58
 20
229.9492349954
 30
0.0
 11
40.58
 21
229.9492349954
 31
0.0
  0
ARC
  5
CF
330
81
100
AcDbEntity
  8
DV1_Default
  6
Continuous
 62
     7
100
AcDbCircle
 10
69.58
 20
230.4492349954
 30
0.0
 40
0.4999999999999987
100
AcDbArc
 50
270.0
 51
0.0
  0
LINE
  5
D0
330
81
100
AcDbEntity
  8
DV1_Default
  6
Continuous
 62
     7
100
AcDbLine
 10
40.08
 20
230.4492349954
 30
0.0
 11
40.08
 21
231.9492349954
 31
0.0
  0
LINE
  5
D1
330
81
100
AcDbEntity
  8
DV1_Default
  6
Continuous
 62
     7
100
AcDbLine
 10
70.08
 20
231.9492349954
 30
0.0
 11
70.08
 21
230.4492349954
 31
0.0
  0
ARC
  5
D2
330
81
100
AcDbEntity
  8
DV1_Default
  6
Continuous
 62
     7
100
AcDbCircle
 10
40.58
 20
230.4492349954
 30
0.0
 40
0.5000000000000004
100
AcDbArc
 50
180.0
 51
270.0
  0
ARC
  5
D3
330
81
100
AcDbEntity
  8
DV1_Default
  6
Continuous
 62
     7
100
AcDbCircle
 10
55.08
 20
274.5474412374
 30
0.0
 40
45.00000000000009
100
AcDbArc
 50
262.6738803946
 51
277.3261196054
  0
ARC
  5
D4
330
81
100
AcDbEntity
  8
DV1_Default
  6
Continuous
 62
     7
100
AcDbCircle
 10
60.78
 20
230.2123535528
 30
0.0
 40
0.3000000000000357
100
AcDbArc
 50
277.3260754247
 51
298.7100569516
  0
ARC
  5
D5
330
81
100
AcDbEntity
  8
DV1_Default
  6
Continuous
 62
     7
100
AcDbCircle
 10
49.38
 20
230.2123535528
 30
0.0
 40
0.3000000000000017
100
AcDbArc
 50
241.2899430484
 51
262.6739245753
  0
ENDBLK
  5
D7
330
81
100
AcDbEntity
  8
0
100
AcDbBlockEnd
  0
BLOCK
  5
13D
330
D8
100
AcDbEntity
  8
0
100
AcDbBlockBegin
  2
SE1
 70
     0
 10
0.0
 20
0.0
 30
0.0
  3
SE1
  1

  0
LINE
  5
DB
330
D8
100
AcDbEntity
  8
DV2_Default
  6
Continuous
 62
     7
100
AcDbLine
 10
235.2771859587
 20
851.9492349954
 30
0.0
 11
234.7771859587
 21
851.9492349954
 31
0.0
  0
LINE
  5
DC
330
D8
100
AcDbEntity
  8
DV2_Default
  6
Continuous
 62
     7
100
AcDbLine
 10
220.7771859587
 20
851.9492349954
 30
0.0
 11
234.7771859587
 21
851.9492349954
 31
0.0
  0
LINE
  5
DD
330
D8
100
AcDbEntity
  8
DV2_Default
  6
Continuous
 62
     7
100
AcDbLine
 10
220.7771859587
 20
851.9492349954
 30
0.0
 11
220.2771859587
 21
851.9492349954
 31
0.0
  0
LINE
  5
DE
330
D8
100
AcDbEntity
  8
DV2_Default
  6
Continuous
 62
     7
100
AcDbLine
 10
220.7771859587
 20
853.9492349954
 30
0.0
 11
234.7771859587
 21
853.9492349954
 31
0.0
  0
ARC
  5
DF
330
D8
100
AcDbEntity
  8
DV2_Default
  6
Continuous
 62
     7
100
AcDbCircle
 10
220.7771859587
 20
853.4492349954
 30
0.0
 40
0.4999999999999996
100
AcDbArc
 50
90.0
 51
180.0
  0
LINE
  5
E0
330
D8
100
AcDbEntity
  8
DV2_Default
  6
Continuous
 62
     7
100
AcDbLine
 10
235.2771859587
 20
851.9492349954
 30
0.0
 11
235.2771859587
 21
853.4492349954
 31
0.0
  0
ARC
  5
E1
330
D8
100
AcDbEntity
  8
DV2_Default
  6
Continuous
 62
     7
100
AcDbCircle
 10
234.7771859587
 20
853.4492349954
 30
0.0
 40
0.4999999999999996
100
AcDbArc
 50
0.0
 51
90.0
  0
LINE
  5
E2
330
D8
100
AcDbEntity
  8
DV2_Default
  6
Continuous
 62
     7
100
AcDbLine
 10
185.2771859587
 20
230.0714085392
 30
0.0
 11
185.2771859587
 21
230.5714054931
 31
0.0
  0
LINE
  5
E3
330
D8
100
AcDbEntity
  8
DV2_Default
  6
Continuous
 62
     7
100
AcDbLine
 10
185.2771859587
 20
254.5270644977
 30
0.0
 11
185.2771859587
 21
230.5714054931
 31
0.0
  0
LINE
  5
E4
330
D8
100
AcDbEntity
  8
DV2_Default
  6
Continuous
 62
     7
100
AcDbLine
 10
185.2771859587
 20
254.5270644977
 30
0.0
 11
185.2771859587
 21
255.0270614515
 31
0.0
  0
LINE
  5
E5
330
D8
100
AcDbEntity
  8
DV2_Default
  6
Continuous
 62
     7
100
AcDbLine
 10
220.2771859587
 20
254.6492380416
 30
0.0
 11
220.2771859587
 21
230.4492319492
 31
0.0
  0
LINE
  5
E6
330
D8
100
AcDbEntity
  8
DV2_Default
  6
Continuous
 62
     7
100
AcDbLine
 10
220.2771859587
 20
230.4492319492
 30
0.0
 11
220.2771859587
 21
229.9492349954
 31
0.0
  0
LINE
  5
E7
330
D8
100
AcDbEntity
  8
DV2_Default
  6
Continuous
 62
     7
100
AcDbLine
 10
220.2771859587
 20
255.1492349954
 30
0.0
 11
220.2771859587
 21
254.6492380416
 31
0.0
  0
LINE
  5
E8
330
D8
100
AcDbEntity
  8
DV2_Default
  6
Continuous
 62
     7
100
AcDbLine
 10
220.2771859587
 20
255.1492349954
 30
0.0
 11
185.2771859587
 21
255.0270614515
 31
0.0
  0
LINE
  5
E9
330
D8
100
AcDbEntity
  8
DV2_Default
  6
Continuous
 62
     7
100
AcDbLine
 10
220.2771859587
 20
229.9492349954
 30
0.0
 11
185.2771859587
 21
230.0714085392
 31
0.0
  0
LINE
  5
EA
330
D8
100
AcDbEntity
  8
DV2_Default
  6
Continuous
 62
     7
100
AcDbLine
 10
220.2771859587
 20
853.8270614515
 30
0.0
 11
220.2771859587
 21
853.3270644977
 31
0.0
  0
LINE
  5
EB
330
D8
100
AcDbEntity
  8
DV2_Default
  6
Continuous
 62
     7
100
AcDbLine
 10
220.2771859587
 20
829.3714054931
 30
0.0
 11
220.2771859587
 21
853.3270644977
 31
0.0
  0
LINE
  5
EC
330
D8
100
AcDbEntity
  8
DV2_Default
  6
Continuous
 62
     7
100
AcDbLine
 10
220.2771859587
 20
829.3714054931
 30
0.0
 11
220.2771859587
 21
828.8714085392
 31
0.0
  0
LINE
  5
ED
330
D8
100
AcDbEntity
  8
DV2_Default
  6
Continuous
 62
     7
100
AcDbLine
 10
185.2771859587
 20
829.2492319492
 30
0.0
 11
185.2771859587
 21
853.4492380416
 31
0.0
  0
LINE
  5
EE
330
D8
100
AcDbEntity
  8
DV2_Default
  6
Continuous
 62
     7
100
AcDbLine
 10
185.2771859587
 20
853.4492380416
 30
0.0
 11
185.2771859587
 21
853.9492349954
 31
0.0
  0
LINE
  5
EF
330
D8
100
AcDbEntity
  8
DV2_Default
  6
Continuous
 62
     7
100
AcDbLine
 10
185.2771859587
 20
828.7492349954
 30
0.0
 11
185.2771859587
 21
829.2492319492
 31
0.0
  0
LINE
  5
F0
330
D8
100
AcDbEntity
  8
DV2_Default
  6
Continuous
 62
     7
100
AcDbLine
 10
185.2771859587
 20
828.7492349954
 30
0.0
 11
220.2771859587
 21
828.8714085392
 31
0.0
  0
LINE
  5
F1
330
D8
100
AcDbEntity
  8
DV2_Default
  6
Continuous
 62
     7
100
AcDbLine
 10
185.2771859587
 20
853.9492349954
 30
0.0
 11
220.2771859587
 21
853.8270614515
 31
0.0
  0
LINE
  5
F2
330
D8
100
AcDbEntity
  8
DV2_Default
  6
Continuous
 62
     7
100
AcDbLine
 10
235.2771859587
 20
231.9492349954
 30
0.0
 11
234.7771859587
 21
231.9492349954
 31
0.0
  0
LINE
  5
F3
330
D8
100
AcDbEntity
  8
DV2_Default
  6
Continuous
 62
     7
100
AcDbLine
 10
220.7771859587
 20
231.9492349954
 30
0.0
 11
234.7771859587
 21
231.9492349954
 31
0.0
  0
LINE
  5
F4
330
D8
100
AcDbEntity
  8
DV2_Default
  6
Continuous
 62
     7
100
AcDbLine
 10
220.7771859587
 20
231.9492349954
 30
0.0
 11
220.2771859587
 21
231.9492349954
 31
0.0
  0
LINE
  5
F5
330
D8
100
AcDbEntity
  8
DV2_Default
  6
Continuous
 62
     7
100
AcDbLine
 10
220.7771859587
 20
851.9492349954
 30
0.0
 11
234.7771859587
 21
851.9492349954
 31
0.0
  0
LINE
  5
F6
330
D8
100
AcDbEntity
  8
DV2_Default
  6
Continuous
 62
     7
100
AcDbLine
 10
234.7771859587
 20
851.9492349954
 30
0.0
 11
235.2771859587
 21
851.9492349954
 31
0.0
  0
LINE
  5
F7
330
D8
100
AcDbEntity
  8
DV2_Default
  6
Continuous
 62
     7
100
AcDbLine
 10
220.2771859587
 20
851.9492349954
 30
0.0
 11
220.7771859587
 21
851.9492349954
 31
0.0
  0
LINE
  5
F8
330
D8
100
AcDbEntity
  8
DV2_Default
  6
Continuous
 62
     7
100
AcDbLine
 10
220.2771859587
 20
829.3714054931
 30
0.0
 11
220.2771859587
 21
555.4492349954
 31
0.0
  0
LINE
  5
F9
330
D8
100
AcDbEntity
  8
DV2_Default
  6
Continuous
 62
     7
100
AcDbLine
 10
220.2771859587
 20
528.4492349954
 30
0.0
 11
220.2771859587
 21
254.6492380416
 31
0.0
  0
LINE
  5
FA
330
D8
100
AcDbEntity
  8
DV2_Default
  6
Continuous
 62
     7
100
AcDbLine
 10
235.2771859587
 20
851.9492349954
 30
0.0
 11
235.2771859587
 21
555.4492349954
 31
0.0
  0
LINE
  5
FB
330
D8
100
AcDbEntity
  8
DV2_Default
  6
Continuous
 62
     7
100
AcDbLine
 10
235.2771859587
 20
528.4492349954
 30
0.0
 11
235.2771859587
 21
231.9492349954
 31
0.0
  0
ARC
  5
FC
330
D8
100
AcDbEntity
  8
DV2_Default
  6
Continuous
 62
     7
100
AcDbCircle
 10
218.2771859587
 20
532.4492349954
 30
0.0
 40
0.5000000000000004
100
AcDbArc
 50
179.9999999459
 51
270.0
  0
LINE
  5
FD
330
D8
100
AcDbEntity
  8
DV2_Default
  6
Continuous
 62
     7
100
AcDbLine
 10
237.2771859587
 20
531.9492349954
 30
0.0
 11
218.2771859587
 21
531.9492349954
 31
0.0
  0
ARC
  5
FE
330
D8
100
AcDbEntity
  8
DV2_Default
  6
Continuous
 62
     7
100
AcDbCircle
 10
237.2771859587
 20
532.4492349954
 30
0.0
 40
0.5000000000000004
100
AcDbArc
 50
270.0
 51
0.0
  0
LINE
  5
FF
330
D8
100
AcDbEntity
  8
DV2_Default
  6
Continuous
 62
     7
100
AcDbLine
 10
237.7771859587
 20
551.4492349954
 30
0.0
 11
237.7771859587
 21
532.4492349954
 31
0.0
  0
ARC
  5
100
330
D8
100
AcDbEntity
  8
DV2_Default
  6
Continuous
 62
     7
100
AcDbCircle
 10
237.2771859587
 20
551.4492349954
 30
0.0
 40
0.5000000000000004
100
AcDbArc
 50
0.0
 51
90.0
  0
LINE
  5
101
330
D8
100
AcDbEntity
  8
DV2_Default
  6
Continuous
 62
     7
100
AcDbLine
 10
218.2771859587
 20
551.9492349954
 30
0.0
 11
237.2771859587
 21
551.9492349954
 31
0.0
  0
ARC
  5
102
330
D8
100
AcDbEntity
  8
DV2_Default
  6
Continuous
 62
     7
100
AcDbCircle
 10
218.2771859587
 20
551.4492349954
 30
0.0
 40
0.5000000000000004
100
AcDbArc
 50
90.0
 51
180.0
  0
LINE
  5
103
330
D8
100
AcDbEntity
  8
DV2_Default
  6
Continuous
 62
     7
100
AcDbLine
 10
217.7771859587
 20
532.4492349959
 30
0.0
 11
217.7771859587
 21
551.4492349954
 31
0.0
  0
ARC
  5
104
330
D8
100
AcDbEntity
  8
DV2_Default
  6
Continuous
 62
     7
100
AcDbCircle
 10
237.3271859587
 20
532.3992349954
 30
0.0
 40
0.5000000000000004
100
AcDbArc
 50
270.0
 51
0.0
  0
LINE
  5
105
330
D8
100
AcDbEntity
  8
DV2_Default
  6
Continuous
 62
     7
100
AcDbLine
 10
218.2271859587
 20
531.8992349954
 30
0.0
 11
237.3271859587
 21
531.8992349954
 31
0.0
  0
ARC
  5
106
330
D8
100
AcDbEntity
  8
DV2_Default
  6
Continuous
 62
     7
100
AcDbCircle
 10
218.2271859587
 20
532.3992349954
 30
0.0
 40
0.5000000000000004
100
AcDbArc
 50
180.0
 51
270.0
  0
LINE
  5
107
330
D8
100
AcDbEntity
  8
DV2_Default
  6
Continuous
 62
     7
100
AcDbLine
 10
217.7271859587
 20
551.4992349954
 30
0.0
 11
217.7271859587
 21
532.3992349954
 31
0.0
  0
ARC
  5
108
330
D8
100
AcDbEntity
  8
DV2_Default
  6
Continuous
 62
     7
100
AcDbCircle
 10
218.2271859587
 20
551.4992349954
 30
0.0
 40
0.5000000000000004
100
AcDbArc
 50
90.0
 51
180.0
  0
LINE
  5
109
330
D8
100
AcDbEntity
  8
DV2_Default
  6
Continuous
 62
     7
100
AcDbLine
 10
237.3271859587
 20
551.9992349954
 30
0.0
 11
218.2271859587
 21
551.9992349954
 31
0.0
  0
ARC
  5
10A
330
D8
100
AcDbEntity
  8
DV2_Default
  6
Continuous
 62
     7
100
AcDbCircle
 10
237.3271859587
 20
551.4992349954
 30
0.0
 40
0.5000000000000004
100
AcDbArc
 50
0.0
 51
90.0
  0
LINE
  5
10B
330
D8
100
AcDbEntity
  8
DV2_Default
  6
Continuous
 62
     7
100
AcDbLine
 10
237.8271859587
 20
532.3992349954
 30
0.0
 11
237.8271859587
 21
551.4992349954
 31
0.0
  0
LINE
  5
10C
330
D8
100
AcDbEntity
  8
DV2_Default
  6
Continuous
 62
     7
100
AcDbLine
 10
222.2271859587
 20
551.9992349954
 30
0.0
 11
222.2271859587
 21
551.9492349954
 31
0.0
  0
LINE
  5
10D
330
D8
100
AcDbEntity
  8
DV2_Default
  6
Continuous
 62
     7
100
AcDbLine
 10
219.2271859587
 20
551.9992349954
 30
0.0
 11
219.2271859587
 21
551.9492349954
 31
0.0
  0
LINE
  5
10E
330
D8
100
AcDbEntity
  8
DV2_Default
  6
Continuous
 62
     7
100
AcDbLine
 10
233.3271859587
 20
531.8992349954
 30
0.0
 11
233.3271859587
 21
531.9492349954
 31
0.0
  0
LINE
  5
10F
330
D8
100
AcDbEntity
  8
DV2_Default
  6
Continuous
 62
     7
100
AcDbLine
 10
236.3271859587
 20
531.8992349954
 30
0.0
 11
236.3271859587
 21
531.9492349954
 31
0.0
  0
ARC
  5
110
330
D8
100
AcDbEntity
  8
DV2_Default
  6
Continuous
 62
     7
100
AcDbCircle
 10
210.7789173304
 20
554.44750495
 30
0.0
 40
0.9999653106361429
100
AcDbArc
 50
90.0005066886
 51
179.9995693164
  0
LINE
  5
111
330
D8
100
AcDbEntity
  8
DV2_Default
  6
Continuous
 62
     7
100
AcDbLine
 10
210.7789084873
 20
555.4474702606
 30
0.0
 11
244.7754634292
 21
555.4474702606
 31
0.0
  0
ARC
  5
112
330
D8
100
AcDbEntity
  8
DV2_Default
  6
Continuous
 62
     7
100
AcDbCircle
 10
244.7754519001
 20
554.4475022631
 30
0.0
 40
0.9999679976214764
100
AcDbArc
 50
0.0005846709
 51
89.9993394101
  0
LINE
  5
113
330
D8
100
AcDbEntity
  8
DV2_Default
  6
Continuous
 62
     7
100
AcDbLine
 10
245.7754198977
 20
554.4475124672
 30
0.0
 11
245.7754198977
 21
529.4509575242
 31
0.0
  0
ARC
  5
114
330
D8
100
AcDbEntity
  8
DV2_Default
  6
Continuous
 62
     7
100
AcDbCircle
 10
244.7754545871
 20
529.4509650407
 30
0.0
 40
0.9999653106361429
100
AcDbArc
 50
270.0005066886
 51
359.9995693163
  0
LINE
  5
115
330
D8
100
AcDbEntity
  8
DV2_Default
  6
Continuous
 62
     7
100
AcDbLine
 10
244.7754634301
 20
528.4509997302
 30
0.0
 11
210.7789084883
 21
528.4509997302
 31
0.0
  0
ARC
  5
116
330
D8
100
AcDbEntity
  8
DV2_Default
  6
Continuous
 62
     7
100
AcDbCircle
 10
210.7789200174
 20
529.4509677277
 30
0.0
 40
0.9999679976214764
100
AcDbArc
 50
180.0005846709
 51
269.9993394101
  0
LINE
  5
117
330
D8
100
AcDbEntity
  8
DV2_Default
  6
Continuous
 62
     7
100
AcDbLine
 10
209.7789520198
 20
529.4509575236
 30
0.0
 11
209.7789520198
 21
554.4475124666
 31
0.0
  0
ARC
  5
118
330
D8
100
AcDbEntity
  8
DV2_Default
  6
Continuous
 62
     7
100
AcDbCircle
 10
210.9561334192
 20
554.2702888533
 30
0.0
 40
1.000003563556534
100
AcDbArc
 50
90.0026738967
 51
179.9974015811
  0
ARC
  5
119
330
D8
100
AcDbEntity
  8
DV2_Default
  6
Continuous
 62
     7
100
AcDbCircle
 10
244.598240303
 20
554.2702906581
 30
0.0
 40
1.000001758717393
100
AcDbArc
 50
0.0024949891
 51
89.9974294575
  0
ARC
  5
11A
330
D8
100
AcDbEntity
  8
DV2_Default
  6
Continuous
 62
     7
100
AcDbCircle
 10
244.5982384982
 20
529.6281811375
 30
0.0
 40
1.000003563556564
100
AcDbArc
 50
270.0026738967
 51
359.9974015811
  0
ARC
  5
11B
330
D8
100
AcDbEntity
  8
DV2_Default
  6
Continuous
 62
     7
100
AcDbCircle
 10
210.9561316145
 20
529.6281793327
 30
0.0
 40
1.0000017587174
100
AcDbArc
 50
180.0024949891
 51
269.9974294575
  0
LINE
  5
11C
330
D8
100
AcDbEntity
  8
DV2_Default
  6
Continuous
 62
     7
100
AcDbLine
 10
237.6771859587
 20
528.4492349954
 30
0.0
 11
237.1771859587
 21
528.4492349954
 31
0.0
  0
LINE
  5
11D
330
D8
100
AcDbEntity
  8
DV2_Default
  6
Continuous
 62
     7
100
AcDbLine
 10
218.3771859587
 20
528.4492349954
 30
0.0
 11
237.1771859587
 21
528.4492349954
 31
0.0
  0
LINE
  5
11E
330
D8
100
AcDbEntity
  8
DV2_Default
  6
Continuous
 62
     7
100
AcDbLine
 10
218.3771859587
 20
528.4492349954
 30
0.0
 11
217.8771859587
 21
528.4492349954
 31
0.0
  0
LINE
  5
11F
330
D8
100
AcDbEntity
  8
DV2_Default
  6
Continuous
 62
     7
100
AcDbLine
 10
217.8771859587
 20
528.4504642042
 30
0.0
 11
217.8771859587
 21
528.4492349954
 31
0.0
  0
LINE
  5
120
330
D8
100
AcDbEntity
  8
DV2_Default
  6
Continuous
 62
     7
100
AcDbLine
 10
237.6771859587
 20
528.4504642042
 30
0.0
 11
237.6771859587
 21
528.4492349954
 31
0.0
  0
LINE
  5
121
330
D8
100
AcDbEntity
  8
DV2_Default
  6
Continuous
 62
     7
100
AcDbLine
 10
217.8771859587
 20
555.4492349954
 30
0.0
 11
218.3771859587
 21
555.4492349954
 31
0.0
  0
LINE
  5
122
330
D8
100
AcDbEntity
  8
DV2_Default
  6
Continuous
 62
     7
100
AcDbLine
 10
218.3771859587
 20
555.4492349954
 30
0.0
 11
237.1771859587
 21
555.4492349954
 31
0.0
  0
LINE
  5
123
330
D8
100
AcDbEntity
  8
DV2_Default
  6
Continuous
 62
     7
100
AcDbLine
 10
237.1771859587
 20
555.4492349954
 30
0.0
 11
237.6771859587
 21
555.4492349954
 31
0.0
  0
LINE
  5
124
330
D8
100
AcDbEntity
  8
DV2_Default
  6
Continuous
 62
     7
100
AcDbLine
 10
237.6771859587
 20
555.4492349954
 30
0.0
 11
237.6771859587
 21
555.4480057865
 31
0.0
  0
LINE
  5
125
330
D8
100
AcDbEntity
  8
DV2_Default
  6
Continuous
 62
     7
100
AcDbLine
 10
217.8771859587
 20
555.4492349954
 30
0.0
 11
217.8771859587
 21
555.4480057865
 31
0.0
  0
ARC
  5
126
330
D8
100
AcDbEntity
  8
DV2_Default
  6
Continuous
 62
     7
100
AcDbCircle
 10
210.7783834846
 20
554.4480460401
 30
0.0
 40
0.9999553207225075
100
AcDbArc
 50
89.9992527852
 51
180.0012373786
  0
LINE
  5
127
330
D8
100
AcDbEntity
  8
DV2_Default
  6
Continuous
 62
     7
100
AcDbLine
 10
209.7784151676
 20
554.4480244447
 30
0.0
 11
209.7784151676
 21
529.4504455457
 31
0.0
  0
ARC
  5
128
330
D8
100
AcDbEntity
  8
DV2_Default
  6
Continuous
 62
     7
100
AcDbCircle
 10
210.7783799557
 20
529.4504204287
 30
0.0
 40
0.9999517896145576
100
AcDbArc
 50
179.9985608346
 51
270.0009486988
  0
LINE
  5
129
330
D8
100
AcDbEntity
  8
DV2_Default
  6
Continuous
 62
     7
100
AcDbLine
 10
210.7783965133
 20
528.4504642042
 30
0.0
 11
244.7759753921
 21
528.4504642042
 31
0.0
  0
ARC
  5
12A
330
D8
100
AcDbEntity
  8
DV2_Default
  6
Continuous
 62
     7
100
AcDbCircle
 10
244.7759884329
 20
529.4504239507
 30
0.0
 40
0.9999553207225075
100
AcDbArc
 50
269.9992527852
 51
0.0012373786
  0
LINE
  5
12B
330
D8
100
AcDbEntity
  8
DV2_Default
  6
Continuous
 62
     7
100
AcDbLine
 10
245.7759567499
 20
529.4504455461
 30
0.0
 11
245.7759567499
 21
554.4480244451
 31
0.0
  0
ARC
  5
12C
330
D8
100
AcDbEntity
  8
DV2_Default
  6
Continuous
 62
     7
100
AcDbCircle
 10
244.7759919618
 20
554.4480495621
 30
0.0
 40
0.9999517896145576
100
AcDbArc
 50
359.9985608346
 51
90.0009486988
  0
LINE
  5
12D
330
D8
100
AcDbEntity
  8
DV2_Default
  6
Continuous
 62
     7
100
AcDbLine
 10
244.7759754042
 20
555.4480057865
 30
0.0
 11
210.7783965254
 21
555.4480057865
 31
0.0
  0
ARC
  5
12E
330
D8
100
AcDbEntity
  8
DV2_Default
  6
Continuous
 62
     7
100
AcDbCircle
 10
227.7771859587
 20
809.3510287534
 30
0.0
 40
45.00000000000009
100
AcDbArc
 50
82.6738803946
 51
90.0
  0
ARC
  5
12F
330
D8
100
AcDbEntity
  8
DV2_Default
  6
Continuous
 62
     7
100
AcDbCircle
 10
227.7771859587
 20
809.3510287534
 30
0.0
 40
44.99999999999999
100
AcDbArc
 50
90.0
 51
97.3261196054
  0
ARC
  5
130
330
D8
100
AcDbEntity
  8
DV2_Default
  6
Continuous
 62
     7
100
AcDbCircle
 10
222.0771859587
 20
853.686116438
 30
0.0
 40
0.3000000000000357
100
AcDbArc
 50
97.3260754246
 51
118.7100569516
  0
ARC
  5
131
330
D8
100
AcDbEntity
  8
DV2_Default
  6
Continuous
 62
     7
100
AcDbCircle
 10
233.4771859587
 20
853.686116438
 30
0.0
 40
0.3000000000000017
100
AcDbArc
 50
61.2899430484
 51
82.6739245753
  0
LINE
  5
132
330
D8
100
AcDbEntity
  8
DV2_Default
  6
Continuous
 62
     7
100
AcDbLine
 10
220.2771859587
 20
231.9492349954
 30
0.0
 11
220.7771859587
 21
231.9492349954
 31
0.0
  0
LINE
  5
133
330
D8
100
AcDbEntity
  8
DV2_Default
  6
Continuous
 62
     7
100
AcDbLine
 10
234.7771859587
 20
231.9492349954
 30
0.0
 11
220.7771859587
 21
231.9492349954
 31
0.0
  0
LINE
  5
134
330
D8
100
AcDbEntity
  8
DV2_Default
  6
Continuous
 62
     7
100
AcDbLine
 10
234.7771859587
 20
231.9492349954
 30
0.0
 11
235.2771859587
 21
231.9492349954
 31
0.0
  0
LINE
  5
135
330
D8
100
AcDbEntity
  8
DV2_Default
  6
Continuous
 62
     7
100
AcDbLine
 10
234.7771859587
 20
229.9492349954
 30
0.0
 11
220.7771859587
 21
229.9492349954
 31
0.0
  0
LINE
  5
136
330
D8
100
AcDbEntity
  8
DV2_Default
  6
Continuous
 62
     7
100
AcDbLine
 10
235.2771859587
 20
230.4492349954
 30
0.0
 11
235.2771859587
 21
231.9492349954
 31
0.0
  0
ARC
  5
137
330
D8
100
AcDbEntity
  8
DV2_Default
  6
Continuous
 62
     7
100
AcDbCircle
 10
234.7771859587
 20
230.4492349954
 30
0.0
 40
0.5000000000000004
100
AcDbArc
 50
270.0
 51
0.0
  0
ARC
  5
138
330
D8
100
AcDbEntity
  8
DV2_Default
  6
Continuous
 62
     7
100
AcDbCircle
 10
220.7771859587
 20
230.4492349954
 30
0.0
 40
0.5000000000000004
100
AcDbArc
 50
180.0
 51
270.0
  0
ARC
  5
139
330
D8
100
AcDbEntity
  8
DV2_Default
  6
Continuous
 62
     7
100
AcDbCircle
 10
227.7771859587
 20
274.5474412374
 30
0.0
 40
45.00000000000009
100
AcDbArc
 50
262.6738803946
 51
270.0
  0
ARC
  5
13A
330
D8
100
AcDbEntity
  8
DV2_Default
  6
Continuous
 62
     7
100
AcDbCircle
 10
227.7771859587
 20
274.5474412374
 30
0.0
 40
44.99999999999999
100
AcDbArc
 50
270.0
 51
277.3261196054
  0
ARC
  5
13B
330
D8
100
AcDbEntity
  8
DV2_Default
  6
Continuous
 62
     7
100
AcDbCircle
 10
233.4771859587
 20
230.2123535528
 30
0.0
 40
0.3000000000000357
100
AcDbArc
 50
277.3260754247
 51
298.7100569516
  0
ARC
  5
13C
330
D8
100
AcDbEntity
  8
DV2_Default
  6
Continuous
 62
     7
100
AcDbCircle
 10
222.0771859587
 20
230.2123535528
 30
0.0
 40
0.3000000000000017
100
AcDbArc
 50
241.2899430484
 51
262.6739245753
  0
ENDBLK
  5
13E
330
D8
100
AcDbEntity
  8
0
100
AcDbBlockEnd
  0
BLOCK
  5
1C6
330
13F
100
AcDbEntity
  8
0
100
AcDbBlockBegin
  2
SE2
 70
     0
 10
0.0
 20
0.0
 30
0.0
  3
SE2
  1

  0
ARC
  5
142
330
13F
100
AcDbEntity
  8
DV3_Default
  6
Continuous
 62
     7
100
AcDbCircle
 10
55.08
 20
124.3487707912
 30
0.0
 40
5.999999999999877
100
AcDbArc
 50
194.4775121859
 51
165.5224878141
  0
LINE
  5
143
330
13F
100
AcDbEntity
  8
DV3_Default
  6
Continuous
 62
     7
100
AcDbLine
 10
48.08
 20
122.8487707912
 30
0.0
 11
49.2705249807
 21
122.8487707912
 31
0.0
  0
LINE
  5
144
330
13F
100
AcDbEntity
  8
DV3_Default
  6
Continuous
 62
     7
100
AcDbLine
 10
48.08
 20
125.8487707912
 30
0.0
 11
48.08
 21
122.8487707912
 31
0.0
  0
LINE
  5
145
330
13F
100
AcDbEntity
  8
DV3_Default
  6
Continuous
 62
     7
100
AcDbLine
 10
49.2705249807
 20
125.8487707912
 30
0.0
 11
48.08
 21
125.8487707912
 31
0.0
  0
LINE
  5
146
330
13F
100
AcDbEntity
  8
DV3_Default
  6
Continuous
 62
     7
100
AcDbLine
 10
40.08
 20
131.3487707912
 30
0.0
 11
40.08
 21
117.3487707912
 31
0.0
  0
ARC
  5
147
330
13F
100
AcDbEntity
  8
DV3_Default
  6
Continuous
 62
     7
100
AcDbCircle
 10
40.58
 20
131.3487707912
 30
0.0
 40
0.4999999999999996
100
AcDbArc
 50
90.0
 51
180.0
  0
ARC
  5
148
330
13F
100
AcDbEntity
  8
DV3_Default
  6
Continuous
 62
     7
100
AcDbCircle
 10
69.58
 20
131.3487707912
 30
0.0
 40
0.4999999999999996
100
AcDbArc
 50
0.0
 51
90.0
  0
LINE
  5
149
330
13F
100
AcDbEntity
  8
DV3_Default
  6
Continuous
 62
     7
100
AcDbLine
 10
70.08
 20
117.3487707912
 30
0.0
 11
70.08
 21
131.3487707912
 31
0.0
  0
ARC
  5
14A
330
13F
100
AcDbEntity
  8
DV3_Default
  6
Continuous
 62
     7
100
AcDbCircle
 10
69.58
 20
117.3487707912
 30
0.0
 40
0.4999999999999987
100
AcDbArc
 50
270.0
 51
0.0
  0
LINE
  5
14B
330
13F
100
AcDbEntity
  8
DV3_Default
  6
Continuous
 62
     7
100
AcDbLine
 10
40.58
 20
116.8487707912
 30
0.0
 11
69.58
 21
116.8487707912
 31
0.0
  0
ARC
  5
14C
330
13F
100
AcDbEntity
  8
DV3_Default
  6
Continuous
 62
     7
100
AcDbCircle
 10
40.58
 20
117.3487707912
 30
0.0
 40
0.4999999999999987
100
AcDbArc
 50
180.0
 51
270.0
  0
LINE
  5
14D
330
13F
100
AcDbEntity
  8
DV3_Default
  6
Continuous
 62
     7
100
AcDbLine
 10
70.08
 20
131.8487707912
 30
0.0
 11
69.9578264561
 21
131.8487707912
 31
0.0
  0
LINE
  5
14E
330
13F
100
AcDbEntity
  8
DV3_Default
  6
Continuous
 62
     7
100
AcDbLine
 10
40.2021735439
 20
131.8487707912
 30
0.0
 11
40.08
 21
131.8487707912
 31
0.0
  0
LINE
  5
14F
330
13F
100
AcDbEntity
  8
DV3_Default
  6
Continuous
 62
     7
100
AcDbLine
 10
40.08
 20
131.8487707912
 30
0.0
 11
40.0806999637
 21
132.0492948083
 31
0.0
  0
LINE
  5
150
330
13F
100
AcDbEntity
  8
DV3_Default
  6
Continuous
 62
     7
100
AcDbLine
 10
40.1163847427
 20
142.2721894221
 30
0.0
 11
40.1410867719
 21
149.3487707911
 31
0.0
  0
LINE
  5
151
330
13F
100
AcDbEntity
  8
DV3_Default
  6
Continuous
 62
     7
100
AcDbLine
 10
70.08
 20
131.8487707912
 30
0.0
 11
70.0793000363
 21
132.0492948083
 31
0.0
  0
LINE
  5
152
330
13F
100
AcDbEntity
  8
DV3_Default
  6
Continuous
 62
     7
100
AcDbLine
 10
70.0442534264
 20
142.0893682017
 30
0.0
 11
70.0189132281
 21
149.3487707912
 31
0.0
  0
LINE
  5
153
330
13F
100
AcDbEntity
  8
DV3_Default
  6
Continuous
 62
     7
100
AcDbLine
 10
69.9578264561
 20
131.8487707912
 30
0.0
 11
69.4578295023
 21
131.8487707912
 31
0.0
  0
LINE
  5
154
330
13F
100
AcDbEntity
  8
DV3_Default
  6
Continuous
 62
     7
100
AcDbLine
 10
40.7021704977
 20
131.8487707912
 30
0.0
 11
69.4578295023
 21
131.8487707912
 31
0.0
  0
LINE
  5
155
330
13F
100
AcDbEntity
  8
DV3_Default
  6
Continuous
 62
     7
100
AcDbLine
 10
40.7021704977
 20
131.8487707912
 30
0.0
 11
40.2021735439
 21
131.8487707912
 31
0.0
  0
LINE
  5
156
330
13F
100
AcDbEntity
  8
DV3_Default
  6
Continuous
 62
     7
100
AcDbLine
 10
40.08
 20
166.8487707912
 30
0.0
 11
40.5799969538
 21
166.8487707912
 31
0.0
  0
LINE
  5
157
330
13F
100
AcDbEntity
  8
DV3_Default
  6
Continuous
 62
     7
100
AcDbLine
 10
40.5799969538
 20
166.8487707912
 30
0.0
 11
69.5800030462
 21
166.8487707912
 31
0.0
  0
LINE
  5
158
330
13F
100
AcDbEntity
  8
DV3_Default
  6
Continuous
 62
     7
100
AcDbLine
 10
69.5800030462
 20
166.8487707912
 30
0.0
 11
70.08
 21
166.8487707912
 31
0.0
  0
LINE
  5
159
330
13F
100
AcDbEntity
  8
DV3_Default
  6
Continuous
 62
     7
100
AcDbLine
 10
70.08
 20
166.8487707912
 30
0.0
 11
69.9578264561
 21
131.8487707912
 31
0.0
  0
LINE
  5
15A
330
13F
100
AcDbEntity
  8
DV3_Default
  6
Continuous
 62
     7
100
AcDbLine
 10
40.08
 20
166.8487707912
 30
0.0
 11
40.2021735439
 21
131.8487707912
 31
0.0
  0
LINE
  5
15B
330
13F
100
AcDbEntity
  8
DV3_Default
  6
Continuous
 62
     7
100
AcDbLine
 10
27.5800000012
 20
107.6787687728
 30
0.0
 11
27.3499999998
 21
107.4487686302
 31
0.0
  0
LINE
  5
15C
330
13F
100
AcDbEntity
  8
DV3_Default
  6
Continuous
 62
     7
100
AcDbLine
 10
27.3499999998
 20
141.2487729521
 30
0.0
 11
27.5800000012
 21
141.0187728095
 31
0.0
  0
LINE
  5
15D
330
13F
100
AcDbEntity
  8
DV3_Default
  6
Continuous
 62
     7
100
AcDbLine
 10
6.35
 20
107.0276906201
 30
0.0
 11
6.35
 21
107.5276715816
 31
0.0
  0
LINE
  5
15E
330
13F
100
AcDbEntity
  8
DV3_Default
  6
Continuous
 62
     7
100
AcDbLine
 10
6.35
 20
107.5276715816
 30
0.0
 11
6.35
 21
141.1698700007
 31
0.0
  0
LINE
  5
15F
330
13F
100
AcDbEntity
  8
DV3_Default
  6
Continuous
 62
     7
100
AcDbLine
 10
6.35
 20
141.1698700007
 30
0.0
 11
6.35
 21
141.6698509623
 31
0.0
  0
LINE
  5
160
330
13F
100
AcDbEntity
  8
DV3_Default
  6
Continuous
 62
     7
100
AcDbLine
 10
27.3499999998
 20
141.3470482635
 30
0.0
 11
27.3499999998
 21
107.3504933188
 31
0.0
  0
LINE
  5
161
330
13F
100
AcDbEntity
  8
DV3_Default
  6
Continuous
 62
     7
100
AcDbLine
 10
27.3499999998
 20
107.3504933188
 30
0.0
 11
27.3499999997
 21
106.5505237804
 31
0.0
  0
LINE
  5
162
330
13F
100
AcDbEntity
  8
DV3_Default
  6
Continuous
 62
     7
100
AcDbLine
 10
27.3499999997
 20
142.1470178019
 30
0.0
 11
27.3499999998
 21
141.3470482635
 31
0.0
  0
ARC
  5
163
330
13F
100
AcDbEntity
  8
DV3_Default
  6
Continuous
 62
     7
100
AcDbCircle
 10
27.1499753644
 20
142.146987493
 30
0.0
 40
0.2000246376454617
100
AcDbArc
 50
0.0086817862
 51
90.4928677905
  0
SPLINE
  5
164
330
13F
100
AcDbEntity
  8
DV3_Default
  6
Continuous
 62
     7
100
AcDbSpline
210
0.0
220
0.0
230
1.0
 70
     8
 71
     3
 72
    10
 73
     6
 74
     0
 42
0.000000030867438
 43
0.0000000001
 40
0.0
 40
0.0
 40
0.0
 40
0.0
 40
0.5
 40
0.5
 40
1.0
 40
1.0
 40
1.0
 40
1.0
 10
27.34999999971999
 20
106.5505237803906
 30
0.0
 10
27.34999999999999
 20
106.4978730146208
 30
0.0
 10
27.32819474875421
 20
106.4455536196183
 30
0.0
 10
27.25341114102261
 20
106.3714197909081
 30
0.0
 10
27.20090345388246
 20
106.3500719369993
 30
0.0
 10
27.14825474050998
 20
106.3505368522006
 30
0.0
  0
ARC
  5
165
330
13F
100
AcDbEntity
  8
DV3_Default
  6
Continuous
 62
     7
100
AcDbCircle
 10
27.1499753644
 20
106.5505540893
 30
0.0
 40
0.2000246376454616
100
AcDbArc
 50
269.5071322095
 51
359.9913182138
  0
SPLINE
  5
166
330
13F
100
AcDbEntity
  8
DV3_Default
  6
Continuous
 62
     7
100
AcDbSpline
210
0.0
220
0.0
230
1.0
 70
     8
 71
     3
 72
    10
 73
     6
 74
     0
 42
0.000000030867438
 43
0.0000000001
 40
0.0
 40
0.0
 40
0.0
 40
0.0
 40
0.5
 40
0.5
 40
1.0
 40
1.0
 40
1.0
 40
1.0
 10
27.34999999971999
 20
142.1470178019106
 30
0.0
 10
27.34999999999999
 20
142.1996685676804
 30
0.0
 10
27.32819474875421
 20
142.251987962683
 30
0.0
 10
27.25341114102261
 20
142.3261217913931
 30
0.0
 10
27.20090345388246
 20
142.3474696453019
 30
0.0
 10
27.14825474050998
 20
142.3470047301007
 30
0.0
  0
LINE
  5
167
330
13F
100
AcDbEntity
  8
DV3_Default
  6
Continuous
 62
     7
100
AcDbLine
 10
27.1482547405
 20
142.3470047301
 30
0.0
 11
6.8456367762
 21
142.1698268932
 31
0.0
  0
LINE
  5
168
330
13F
100
AcDbEntity
  8
DV3_Default
  6
Continuous
 62
     7
100
AcDbLine
 10
6.8456367761
 20
106.5277146891
 30
0.0
 11
27.1482547405
 21
106.3505368522
 31
0.0
  0
SPLINE
  5
169
330
13F
100
AcDbEntity
  8
DV3_Default
  6
Continuous
 62
     7
100
AcDbSpline
210
0.0
220
0.0
230
1.0
 70
     8
 71
     3
 72
    10
 73
     6
 74
     0
 42
0.0000000124916392
 43
0.0000000001
 40
0.0
 40
0.0
 40
0.0
 40
0.0
 40
0.5
 40
0.5
 40
1.0
 40
1.0
 40
1.0
 40
1.0
 10
6.350000000039991
 20
141.6698509622506
 30
0.0
 10
6.349999999999994
 20
141.8000234356282
 30
0.0
 10
6.403263974211135
 20
141.9294117375762
 30
0.0
 10
6.586550650164003
 20
142.1143049113795
 30
0.0
 10
6.715469215439959
 20
142.1686959690723
 30
0.0
 10
6.845636776149994
 20
142.1698268931806
 30
0.0
  0
ARC
  5
16A
330
13F
100
AcDbEntity
  8
DV3_Default
  6
Continuous
 62
     7
100
AcDbCircle
 10
6.8500143285
 20
107.0277098552
 30
0.0
 40
0.5000143288297707
100
AcDbArc
 50
180.0022041189
 51
269.4983774185
  0
LINE
  5
16B
330
13F
100
AcDbEntity
  8
DV3_Default
  6
Continuous
 62
     7
100
AcDbLine
 10
82.58
 20
126.3487707912
 30
0.0
 11
82.88
 21
126.3487707912
 31
0.0
  0
LINE
  5
16C
330
13F
100
AcDbEntity
  8
DV3_Default
  6
Continuous
 62
     7
100
AcDbLine
 10
82.58
 20
122.3487707912
 30
0.0
 11
82.88
 21
122.3487707912
 31
0.0
  0
ARC
  5
16D
330
13F
100
AcDbEntity
  8
DV3_Default
  6
Continuous
 62
     7
100
AcDbCircle
 10
82.88
 20
114.0487707912
 30
0.0
 40
0.3000000000002927
100
AcDbArc
 50
90.0
 51
180.000578525
  0
ARC
  5
16E
330
13F
100
AcDbEntity
  8
DV3_Default
  6
Continuous
 62
     7
100
AcDbCircle
 10
82.88
 20
134.6487707912
 30
0.0
 40
0.2999999999999982
100
AcDbArc
 50
180.0
 51
270.0
  0
LINE
  5
16F
330
13F
100
AcDbEntity
  8
DV3_Default
  6
Continuous
 62
     7
100
AcDbLine
 10
82.58
 20
115.8987707912
 30
0.0
 11
82.88
 21
115.8987707912
 31
0.0
  0
LINE
  5
170
330
13F
100
AcDbEntity
  8
DV3_Default
  6
Continuous
 62
     7
100
AcDbLine
 10
82.88
 20
132.7987707912
 30
0.0
 11
82.58
 21
132.7987707912
 31
0.0
  0
ARC
  5
171
330
13F
100
AcDbEntity
  8
DV3_Default
  6
Continuous
 62
     7
100
AcDbCircle
 10
82.88
 20
111.8987707912
 30
0.0
 40
0.300000000000011
100
AcDbArc
 50
180.0000167447
 51
270.0
  0
ARC
  5
172
330
13F
100
AcDbEntity
  8
DV3_Default
  6
Continuous
 62
     7
100
AcDbCircle
 10
82.88
 20
136.7987707912
 30
0.0
 40
0.3000000000000017
100
AcDbArc
 50
90.0
 51
179.9999832553
  0
LINE
  5
173
330
13F
100
AcDbEntity
  8
DV3_Default
  6
Continuous
 62
     7
100
AcDbLine
 10
83.08
 20
141.9987707912
 30
0.0
 11
121.5800000001
 21
141.9987707912
 31
0.0
  0
ARC
  5
174
330
13F
100
AcDbEntity
  8
DV3_Default
  6
Continuous
 62
     7
100
AcDbCircle
 10
83.08
 20
141.7987707912
 30
0.0
 40
0.1999999999999988
100
AcDbArc
 50
90.0
 51
180.0
  0
LINE
  5
175
330
13F
100
AcDbEntity
  8
DV3_Default
  6
Continuous
 62
     7
100
AcDbLine
 10
82.88
 20
141.7987707912
 30
0.0
 11
82.88
 21
140.9987707912
 31
0.0
  0
ARC
  5
176
330
13F
100
AcDbEntity
  8
DV3_Default
  6
Continuous
 62
     7
100
AcDbCircle
 10
121.58
 20
140.9987707912
 30
0.0
 40
0.9999999999999974
100
AcDbArc
 50
0.0
 51
89.9999999948
  0
LINE
  5
177
330
13F
100
AcDbEntity
  8
DV3_Default
  6
Continuous
 62
     7
100
AcDbLine
 10
122.58
 20
115.3583412203
 30
0.0
 11
122.58
 21
107.6987707922
 31
0.0
  0
LINE
  5
178
330
13F
100
AcDbEntity
  8
DV3_Default
  6
Continuous
 62
     7
100
AcDbLine
 10
122.58
 20
140.9987707901
 30
0.0
 11
122.58
 21
133.339200362
 31
0.0
  0
ARC
  5
179
330
13F
100
AcDbEntity
  8
DV3_Default
  6
Continuous
 62
     7
100
AcDbCircle
 10
121.58
 20
115.3583412195
 30
0.0
 40
1.000000000000716
100
AcDbArc
 50
0.0000000425
 51
79.9999999934
  0
LINE
  5
17A
330
13F
100
AcDbEntity
  8
DV3_Default
  6
Continuous
 62
     7
100
AcDbLine
 10
119.6739854846
 20
116.7098497089
 30
0.0
 11
121.2806186952
 21
116.4265568978
 31
0.0
  0
LINE
  5
17B
330
13F
100
AcDbEntity
  8
DV3_Default
  6
Continuous
 62
     7
100
AcDbLine
 10
121.2806186952
 20
116.4265568978
 30
0.0
 11
121.7536481778
 21
116.3431489725
 31
0.0
  0
ARC
  5
17C
330
13F
100
AcDbEntity
  8
DV3_Default
  6
Continuous
 62
     7
100
AcDbCircle
 10
121.58
 20
107.6987707912
 30
0.0
 40
1.000000000000001
100
AcDbArc
 50
270.0000000052
 51
0.0
  0
SPLINE
  5
17D
330
13F
100
AcDbEntity
  8
DV3_Default
  6
Continuous
 62
     7
100
AcDbSpline
210
0.0
220
0.0
230
1.0
 70
    11
 71
     3
 72
    24
 73
    20
 74
     0
 42
0.0000000004613962
 43
0.0000000001
 40
0.0
 40
0.0
 40
0.0
 40
0.0
 40
0.1249999999999999
 40
0.1249999999999999
 40
0.2499999999999999
 40
0.2499999999999999
 40
0.3124999999999999
 40
0.3124999999999999
 40
0.375
 40
0.375
 40
0.5
 40
0.5
 40
0.625
 40
0.625
 40
0.7500000000000001
 40
0.7500000000000001
 40
0.875
 40
0.875
 40
1.0
 40
1.0
 40
1.0
 40
1.0
 10
103.1774903248681
 20
119.2573799497985
 30
0.0
 10
103.0954864511643
 20
119.2588113327385
 30
0.0
 10
102.6925292266941
 20
119.819239866428
 30
0.0
 10
101.9478483470684
 20
121.6419453747579
 30
0.0
 10
101.6290452253941
 20
122.9518662349917
 30
0.0
 10
101.6188158094957
 20
124.9724166198626
 30
0.0
 10
101.6874104859641
 20
125.6477608287202
 30
0.0
 10
101.9357453782163
 20
126.8900218007741
 30
0.0
 10
102.1106905508794
 20
127.4440970149002
 30
0.0
 10
102.6686816568184
 20
128.8383021652064
 30
0.0
 10
103.0782574129117
 20
129.4156518179591
 30
0.0
 10
103.2660325864973
 20
129.4631400543878
 30
0.0
 10
103.0116354209373
 20
128.9093954931388
 30
0.0
 10
102.4351248143528
 20
127.0631069884655
 30
0.0
 10
102.1588578908936
 20
125.7490623935623
 30
0.0
 10
102.1481190728348
 20
123.0410712586639
 30
0.0
 10
102.417001596249
 20
121.7065551918997
 30
0.0
 10
102.9943959889416
 20
119.8301041363396
 30
0.0
 10
103.2594941985719
 20
119.2559485668585
 30
0.0
 10
103.1774903248681
 20
119.2573799497985
 30
0.0
  0
LINE
  5
17E
330
13F
100
AcDbEntity
  8
DV3_Default
  6
Continuous
 62
     7
100
AcDbLine
 10
82.88
 20
107.6987707912
 30
0.0
 11
82.88
 21
106.8987707912
 31
0.0
  0
LINE
  5
17F
330
13F
100
AcDbEntity
  8
DV3_Default
  6
Continuous
 62
     7
100
AcDbLine
 10
82.88
 20
140.9987707912
 30
0.0
 11
82.88
 21
107.6987707912
 31
0.0
  0
ARC
  5
180
330
13F
100
AcDbEntity
  8
DV3_Default
  6
Continuous
 62
     7
100
AcDbCircle
 10
121.58
 20
133.3392003628
 30
0.0
 40
1.000000000000001
100
AcDbArc
 50
280.0000000066
 51
359.9999999575
  0
LINE
  5
181
330
13F
100
AcDbEntity
  8
DV3_Default
  6
Continuous
 62
     7
100
AcDbLine
 10
121.7536481778
 20
132.3543926098
 30
0.0
 11
121.2806178557
 21
132.2709845687
 31
0.0
  0
LINE
  5
182
330
13F
100
AcDbEntity
  8
DV3_Default
  6
Continuous
 62
     7
100
AcDbLine
 10
121.2806178557
 20
132.2709845687
 30
0.0
 11
119.673986765
 21
131.9876920579
 31
0.0
  0
ARC
  5
183
330
13F
100
AcDbEntity
  8
DV3_Default
  6
Continuous
 62
     7
100
AcDbCircle
 10
83.08
 20
106.8987707912
 30
0.0
 40
0.1999999999999988
100
AcDbArc
 50
180.0
 51
270.0
  0
LINE
  5
184
330
13F
100
AcDbEntity
  8
DV3_Default
  6
Continuous
 62
     7
100
AcDbLine
 10
121.5800000001
 20
106.6987707912
 30
0.0
 11
83.08
 21
106.6987707912
 31
0.0
  0
ARC
  5
185
330
13F
100
AcDbEntity
  8
DV3_Default
  6
Continuous
 62
     7
100
AcDbCircle
 10
119.5003373718
 20
115.7250420341
 30
0.0
 40
0.9999999101692942
100
AcDbArc
 50
79.9999999815
 51
128.7462145066
  0
ARC
  5
186
330
13F
100
AcDbEntity
  8
DV3_Default
  6
Continuous
 62
     7
100
AcDbCircle
 10
112.58
 20
124.3487707912
 30
0.0
 40
10.05711280738872
100
AcDbArc
 50
51.2537820756
 51
308.7462146391
  0
ARC
  5
187
330
13F
100
AcDbEntity
  8
DV3_Default
  6
Continuous
 62
     7
100
AcDbCircle
 10
119.5003383123
 20
132.9724997098
 30
0.0
 40
1.000000885949977
100
AcDbArc
 50
231.2537822977
 51
280.0000610611
  0
LINE
  5
188
330
13F
100
AcDbEntity
  8
DV3_Default
  6
Continuous
 62
     7
100
AcDbLine
 10
70.28
 20
131.0987707912
 30
0.0
 11
70.08
 21
131.0987707912
 31
0.0
  0
LINE
  5
189
330
13F
100
AcDbEntity
  8
DV3_Default
  6
Continuous
 62
     7
100
AcDbLine
 10
70.28
 20
117.5987707912
 30
0.0
 11
70.08
 21
117.5987707912
 31
0.0
  0
LINE
  5
18A
330
13F
100
AcDbEntity
  8
DV3_Default
  6
Continuous
 62
     7
100
AcDbLine
 10
41.78
 20
116.5487707912
 30
0.0
 11
40.38
 21
116.5487707912
 31
0.0
  0
LINE
  5
18B
330
13F
100
AcDbEntity
  8
DV3_Default
  6
Continuous
 62
     7
100
AcDbLine
 10
48.78
 20
116.5487707912
 30
0.0
 11
42.38
 21
116.5487707912
 31
0.0
  0
LINE
  5
18C
330
13F
100
AcDbEntity
  8
DV3_Default
  6
Continuous
 62
     7
100
AcDbLine
 10
60.78
 20
116.5487707912
 30
0.0
 11
49.38
 21
116.5487707912
 31
0.0
  0
LINE
  5
18D
330
13F
100
AcDbEntity
  8
DV3_Default
  6
Continuous
 62
     7
100
AcDbLine
 10
67.78
 20
116.5487707912
 30
0.0
 11
61.38
 21
116.5487707912
 31
0.0
  0
LINE
  5
18E
330
13F
100
AcDbEntity
  8
DV3_Default
  6
Continuous
 62
     7
100
AcDbLine
 10
69.78
 20
116.5487707912
 30
0.0
 11
68.38
 21
116.5487707912
 31
0.0
  0
ARC
  5
18F
330
13F
100
AcDbEntity
  8
DV3_Default
  6
Continuous
 62
     7
100
AcDbCircle
 10
69.78
 20
117.0487707912
 30
0.0
 40
0.5000000000000004
100
AcDbArc
 50
270.0
 51
0.0
  0
LINE
  5
190
330
13F
100
AcDbEntity
  8
DV3_Default
  6
Continuous
 62
     7
100
AcDbLine
 10
70.28
 20
120.5487707912
 30
0.0
 11
70.28
 21
117.0487707912
 31
0.0
  0
LINE
  5
191
330
13F
100
AcDbEntity
  8
DV3_Default
  6
Continuous
 62
     7
100
AcDbLine
 10
70.28
 20
127.5487707912
 30
0.0
 11
70.28
 21
121.1487707912
 31
0.0
  0
LINE
  5
192
330
13F
100
AcDbEntity
  8
DV3_Default
  6
Continuous
 62
     7
100
AcDbLine
 10
70.28
 20
131.6487707912
 30
0.0
 11
70.28
 21
128.1487707912
 31
0.0
  0
ARC
  5
193
330
13F
100
AcDbEntity
  8
DV3_Default
  6
Continuous
 62
     7
100
AcDbCircle
 10
69.78
 20
131.6487707912
 30
0.0
 40
0.4999999999999996
100
AcDbArc
 50
0.0
 51
69.0522395896
  0
ARC
  5
194
330
13F
100
AcDbEntity
  8
DV3_Default
  6
Continuous
 62
     7
100
AcDbCircle
 10
40.38
 20
131.6487707912
 30
0.0
 40
0.5000000000000004
100
AcDbArc
 50
110.9477604104
 51
180.0
  0
LINE
  5
195
330
13F
100
AcDbEntity
  8
DV3_Default
  6
Continuous
 62
     7
100
AcDbLine
 10
39.88
 20
121.1487707912
 30
0.0
 11
39.88
 21
127.5487707912
 31
0.0
  0
LINE
  5
196
330
13F
100
AcDbEntity
  8
DV3_Default
  6
Continuous
 62
     7
100
AcDbLine
 10
39.88
 20
117.0487707912
 30
0.0
 11
39.88
 21
120.5487707912
 31
0.0
  0
LINE
  5
197
330
13F
100
AcDbEntity
  8
DV3_Default
  6
Continuous
 62
     7
100
AcDbLine
 10
39.88
 20
128.1487707912
 30
0.0
 11
39.88
 21
131.6487707912
 31
0.0
  0
ARC
  5
198
330
13F
100
AcDbEntity
  8
DV3_Default
  6
Continuous
 62
     7
100
AcDbCircle
 10
39.88
 20
127.8487707912
 30
0.0
 40
0.2999999999999999
100
AcDbArc
 50
270.0
 51
311.8103148958
  0
ARC
  5
199
330
13F
100
AcDbEntity
  8
DV3_Default
  6
Continuous
 62
     7
100
AcDbCircle
 10
39.88
 20
127.8487707912
 30
0.0
 40
0.2999999999999999
100
AcDbArc
 50
48.1896851042
 51
90.0
  0
ARC
  5
19A
330
13F
100
AcDbEntity
  8
DV3_Default
  6
Continuous
 62
     7
100
AcDbCircle
 10
39.88
 20
120.8487707912
 30
0.0
 40
0.2999999999999999
100
AcDbArc
 50
270.0
 51
311.8103148958
  0
ARC
  5
19B
330
13F
100
AcDbEntity
  8
DV3_Default
  6
Continuous
 62
     7
100
AcDbCircle
 10
39.88
 20
120.8487707912
 30
0.0
 40
0.2999999999999999
100
AcDbArc
 50
48.1896851042
 51
90.0
  0
LINE
  5
19C
330
13F
100
AcDbEntity
  8
DV3_Default
  6
Continuous
 62
     7
100
AcDbLine
 10
72.48
 20
114.9487707912
 30
0.0
 11
72.48
 21
133.7487707912
 31
0.0
  0
ARC
  5
19D
330
13F
100
AcDbEntity
  8
DV3_Default
  6
Continuous
 62
     7
100
AcDbCircle
 10
71.98
 20
133.7487707912
 30
0.0
 40
0.5000000000000004
100
AcDbArc
 50
0.0
 51
90.0
  0
LINE
  5
19E
330
13F
100
AcDbEntity
  8
DV3_Default
  6
Continuous
 62
     7
100
AcDbLine
 10
71.98
 20
134.2487707912
 30
0.0
 11
69.9662040706
 21
134.2487707912
 31
0.0
  0
LINE
  5
19F
330
13F
100
AcDbEntity
  8
DV3_Default
  6
Continuous
 62
     7
100
AcDbLine
 10
40.1937959294
 20
134.2487707912
 30
0.0
 11
38.18
 21
134.2487707912
 31
0.0
  0
ARC
  5
1A0
330
13F
100
AcDbEntity
  8
DV3_Default
  6
Continuous
 62
     7
100
AcDbCircle
 10
38.18
 20
133.7487707912
 30
0.0
 40
0.5000000000000004
100
AcDbArc
 50
90.0
 51
180.0
  0
LINE
  5
1A1
330
13F
100
AcDbEntity
  8
DV3_Default
  6
Continuous
 62
     7
100
AcDbLine
 10
37.68
 20
133.7487707912
 30
0.0
 11
37.68
 21
114.9487707912
 31
0.0
  0
ARC
  5
1A2
330
13F
100
AcDbEntity
  8
DV3_Default
  6
Continuous
 62
     7
100
AcDbCircle
 10
38.18
 20
114.9487707912
 30
0.0
 40
0.5000000000000004
100
AcDbArc
 50
180.0
 51
270.0
  0
LINE
  5
1A3
330
13F
100
AcDbEntity
  8
DV3_Default
  6
Continuous
 62
     7
100
AcDbLine
 10
38.18
 20
114.4487707912
 30
0.0
 11
71.98
 21
114.4487707912
 31
0.0
  0
ARC
  5
1A4
330
13F
100
AcDbEntity
  8
DV3_Default
  6
Continuous
 62
     7
100
AcDbCircle
 10
71.98
 20
114.9487707912
 30
0.0
 40
0.5000000000000004
100
AcDbArc
 50
270.0
 51
0.0
  0
ARC
  5
1A5
330
13F
100
AcDbEntity
  8
DV3_Default
  6
Continuous
 62
     7
100
AcDbCircle
 10
70.28
 20
127.8487707912
 30
0.0
 40
0.2999999999999999
100
AcDbArc
 50
228.1896851042
 51
270.0
  0
ARC
  5
1A6
330
13F
100
AcDbEntity
  8
DV3_Default
  6
Continuous
 62
     7
100
AcDbCircle
 10
70.28
 20
127.8487707912
 30
0.0
 40
0.2999999999999999
100
AcDbArc
 50
90.0
 51
131.8103148958
  0
ARC
  5
1A7
330
13F
100
AcDbEntity
  8
DV3_Default
  6
Continuous
 62
     7
100
AcDbCircle
 10
70.28
 20
120.8487707912
 30
0.0
 40
0.2999999999999999
100
AcDbArc
 50
228.1896851042
 51
270.0
  0
ARC
  5
1A8
330
13F
100
AcDbEntity
  8
DV3_Default
  6
Continuous
 62
     7
100
AcDbCircle
 10
70.28
 20
120.8487707912
 30
0.0
 40
0.2999999999999999
100
AcDbArc
 50
90.0
 51
131.8103148958
  0
ARC
  5
1A9
330
13F
100
AcDbEntity
  8
DV3_Default
  6
Continuous
 62
     7
100
AcDbCircle
 10
68.08
 20
116.5487707912
 30
0.0
 40
0.2999999999999999
100
AcDbArc
 50
0.0
 51
180.0
  0
ARC
  5
1AA
330
13F
100
AcDbEntity
  8
DV3_Default
  6
Continuous
 62
     7
100
AcDbCircle
 10
61.08
 20
116.5487707912
 30
0.0
 40
0.2999999999999999
100
AcDbArc
 50
0.0
 51
180.0
  0
ARC
  5
1AB
330
13F
100
AcDbEntity
  8
DV3_Default
  6
Continuous
 62
     7
100
AcDbCircle
 10
49.08
 20
116.5487707912
 30
0.0
 40
0.2999999999999999
100
AcDbArc
 50
0.0
 51
180.0
  0
ARC
  5
1AC
330
13F
100
AcDbEntity
  8
DV3_Default
  6
Continuous
 62
     7
100
AcDbCircle
 10
42.08
 20
116.5487707912
 30
0.0
 40
0.2999999999999999
100
AcDbArc
 50
0.0
 51
180.0
  0
ARC
  5
1AD
330
13F
100
AcDbEntity
  8
DV3_Default
  6
Continuous
 62
     7
100
AcDbCircle
 10
40.38
 20
117.0487707912
 30
0.0
 40
0.4999999999999996
100
AcDbArc
 50
180.0
 51
270.0
  0
LINE
  5
1AE
330
13F
100
AcDbEntity
  8
DV3_Default
  6
Continuous
 62
     7
100
AcDbLine
 10
27.5800000016
 20
106.5499962684
 30
0.0
 11
27.5800000012
 21
107.3499813422
 31
0.0
  0
LINE
  5
1AF
330
13F
100
AcDbEntity
  8
DV3_Default
  6
Continuous
 62
     7
100
AcDbLine
 10
27.5800000012
 20
107.3499813422
 30
0.0
 11
27.5800000012
 21
141.3475602401
 31
0.0
  0
LINE
  5
1B0
330
13F
100
AcDbEntity
  8
DV3_Default
  6
Continuous
 62
     7
100
AcDbLine
 10
27.5800000012
 20
141.3475602401
 30
0.0
 11
27.5800000016
 21
142.1475453139
 31
0.0
  0
SPLINE
  5
1B1
330
13F
100
AcDbEntity
  8
DV3_Default
  6
Continuous
 62
     7
100
AcDbSpline
210
0.0
220
0.0
230
1.0
 70
     8
 71
     3
 72
    10
 73
     6
 74
     0
 42
0.0000000309211863
 43
0.0000000001
 40
0.0
 40
0.0
 40
0.0
 40
0.0
 40
0.5
 40
0.5
 40
1.0
 40
1.0
 40
1.0
 40
1.0
 10
27.58000000157999
 20
142.1475453138606
 30
0.0
 10
27.57999999999999
 20
142.2001088131705
 30
0.0
 10
27.60172989322589
 20
142.25234364634
 30
0.0
 10
27.67629260618384
 20
142.3264522671284
 30
0.0
 10
27.72865920430942
 20
142.3478626724634
 30
0.0
 10
27.78122164350999
 20
142.3475285857906
 30
0.0
  0
ARC
  5
1B2
330
13F
100
AcDbEntity
  8
DV3_Default
  6
Continuous
 62
     7
100
AcDbCircle
 10
27.7800248455
 20
106.5500342659
 30
0.0
 40
0.2000248475171543
100
AcDbArc
 50
180.0108841286
 51
270.3428168358
  0
LINE
  5
1B3
330
13F
100
AcDbEntity
  8
DV3_Default
  6
Continuous
 62
     7
100
AcDbLine
 10
72.48
 20
134.2487707912
 30
0.0
 11
71.98
 21
134.2487707912
 31
0.0
  0
LINE
  5
1B4
330
13F
100
AcDbEntity
  8
DV3_Default
  6
Continuous
 62
     7
100
AcDbLine
 10
38.18
 20
134.2487707912
 30
0.0
 11
37.68
 21
134.2487707912
 31
0.0
  0
LINE
  5
1B5
330
13F
100
AcDbEntity
  8
DV3_Default
  6
Continuous
 62
     7
100
AcDbLine
 10
72.48
 20
114.4487707912
 30
0.0
 11
72.48
 21
114.9487707912
 31
0.0
  0
LINE
  5
1B6
330
13F
100
AcDbEntity
  8
DV3_Default
  6
Continuous
 62
     7
100
AcDbLine
 10
72.48
 20
133.7487707912
 30
0.0
 11
72.48
 21
134.2487707912
 31
0.0
  0
LINE
  5
1B7
330
13F
100
AcDbEntity
  8
DV3_Default
  6
Continuous
 62
     7
100
AcDbLine
 10
37.68
 20
114.4487707912
 30
0.0
 11
38.18
 21
114.4487707912
 31
0.0
  0
LINE
  5
1B8
330
13F
100
AcDbEntity
  8
DV3_Default
  6
Continuous
 62
     7
100
AcDbLine
 10
71.98
 20
114.4487707912
 30
0.0
 11
72.48
 21
114.4487707912
 31
0.0
  0
LINE
  5
1B9
330
13F
100
AcDbEntity
  8
DV3_Default
  6
Continuous
 62
     7
100
AcDbLine
 10
37.68
 20
134.2487707912
 30
0.0
 11
37.68
 21
133.7487707912
 31
0.0
  0
LINE
  5
1BA
330
13F
100
AcDbEntity
  8
DV3_Default
  6
Continuous
 62
     7
100
AcDbLine
 10
37.68
 20
114.9487707912
 30
0.0
 11
37.68
 21
114.4487707912
 31
0.0
  0
LINE
  5
1BB
330
13F
100
AcDbEntity
  8
DV3_Default
  6
Continuous
 62
     7
100
AcDbLine
 10
82.5799999984
 20
141.8140087451
 30
0.0
 11
82.5799999988
 21
141.0140236713
 31
0.0
  0
LINE
  5
1BC
330
13F
100
AcDbEntity
  8
DV3_Default
  6
Continuous
 62
     7
100
AcDbLine
 10
82.5799999988
 20
141.0140236713
 30
0.0
 11
82.5799999988
 21
107.683517911
 31
0.0
  0
LINE
  5
1BD
330
13F
100
AcDbEntity
  8
DV3_Default
  6
Continuous
 62
     7
100
AcDbLine
 10
82.5799999988
 20
107.683517911
 30
0.0
 11
82.5799999984
 21
106.8835328372
 31
0.0
  0
SPLINE
  5
1BE
330
13F
100
AcDbEntity
  8
DV3_Default
  6
Continuous
 62
     7
100
AcDbSpline
210
0.0
220
0.0
230
1.0
 70
     8
 71
     3
 72
    10
 73
     6
 74
     0
 42
0.0000000311743444
 43
0.0000000001
 40
0.0
 40
0.0
 40
0.0
 40
0.0
 40
0.5
 40
0.5
 40
1.0
 40
1.0
 40
1.0
 40
1.0
 10
82.57999999841999
 20
106.8835328372206
 30
0.0
 10
82.57999999999998
 20
106.8313765814109
 30
0.0
 10
82.55861986950703
 20
106.7795366005706
 30
0.0
 10
82.48508541624012
 20
106.7055515732805
 30
0.0
 10
82.43337700559306
 20
106.6838551712337
 30
0.0
 10
82.38122164350999
 20
106.6835495652906
 30
0.0
  0
ARC
  5
1BF
330
13F
100
AcDbEntity
  8
DV3_Default
  6
Continuous
 62
     7
100
AcDbCircle
 10
82.3799748146
 20
106.883570869
 30
0.0
 40
0.2000251874405496
100
AcDbArc
 50
270.3571475108
 51
359.9891060591
  0
SPLINE
  5
1C0
330
13F
100
AcDbEntity
  8
DV3_Default
  6
Continuous
 62
     7
100
AcDbSpline
210
0.0
220
0.0
230
1.0
 70
     8
 71
     3
 72
    10
 73
     6
 74
     0
 42
0.0000000311743444
 43
0.0000000001
 40
0.0
 40
0.0
 40
0.0
 40
0.0
 40
0.5
 40
0.5
 40
1.0
 40
1.0
 40
1.0
 40
1.0
 10
82.57999999841999
 20
141.8140087450806
 30
0.0
 10
82.57999999999998
 20
141.8661650008904
 30
0.0
 10
82.55861986950703
 20
141.9180049817307
 30
0.0
 10
82.48508541624012
 20
141.9919900090208
 30
0.0
 10
82.43337700559306
 20
142.0136864110676
 30
0.0
 10
82.38122164350999
 20
142.0139920170107
 30
0.0
  0
ARC
  5
1C1
330
13F
100
AcDbEntity
  8
DV3_Default
  6
Continuous
 62
     7
100
AcDbCircle
 10
82.3799748146
 20
141.8139707133
 30
0.0
 40
0.2000251874405646
100
AcDbArc
 50
0.0108939409
 51
89.6428524891
  0
LINE
  5
1C2
330
13F
100
AcDbEntity
  8
DV3_Default
  6
Continuous
 62
     7
100
AcDbLine
 10
82.3812217229
 20
142.0140050135
 30
0.0
 11
69.9935741104
 21
142.0896777879
 31
0.0
  0
LINE
  5
1C3
330
13F
100
AcDbEntity
  8
DV3_Default
  6
Continuous
 62
     7
100
AcDbLine
 10
40.1657898547
 20
142.2718876197
 30
0.0
 11
27.7812217229
 21
142.3475415823
 31
0.0
  0
LINE
  5
1C4
330
13F
100
AcDbEntity
  8
DV3_Default
  6
Continuous
 62
     7
100
AcDbLine
 10
27.7812217229
 20
106.35
 30
0.0
 11
82.3812217229
 21
106.6835365688
 31
0.0
  0
ARC
  5
1C5
330
13F
100
AcDbEntity
  8
DV3_Default
  6
Continuous
 62
     7
100
AcDbCircle
 10
55.08
 20
124.3487707912
 30
0.0
 40
6.0
100
AcDbArc
 50
165.5224878141
 51
194.4775121859
  0
ENDBLK
  5
1C7
330
13F
100
AcDbEntity
  8
0
100
AcDbBlockEnd
  0
ENDSEC
  0
SECTION
  2
ENTITIES
  0
INSERT
  5
5F
330
1F
100
AcDbEntity
  8
Default
100
AcDbBlockReference
  2
SEANNOT_GROUP
 10
0.0
 20
0.0
 30
0.0
  0
INSERT
  5
66
330
1F
100
AcDbEntity
  8
Default
100
AcDbBlockReference
  2
SEANNOT_GROUP1
 10
0.0
 20
0.0
 30
0.0
  0
INSERT
  5
6C
330
1F
100
AcDbEntity
  8
Default
100
AcDbBlockReference
  2
SEANNOT_GROUP2
 10
0.0
 20
0.0
 30
0.0
  0
LINE
  5
71
330
1F
100
AcDbEntity
  8
Default
  6
Continuous
 62
     7
100
AcDbLine
 10
55.08
 20
841.3492349954
 30
0.0
 11
51.8662921599
 21
841.3492349954
 31
0.0
  0
LINE
  5
72
330
1F
100
AcDbEntity
  8
Default
  6
Continuous
 62
     7
100
AcDbLine
 10
55.08
 20
841.3492349954
 30
0.0
 11
55.08
 21
838.0487451085
 31
0.0
  0
INSERT
  5
74
330
1F
100
AcDbEntity
  8
Default
100
AcDbBlockReference
  2
SEANNOT_GROUP3
 10
0.0
 20
0.0
 30
0.0
  0
LINE
  5
79
330
1F
100
AcDbEntity
  8
Default
  6
Continuous
 62
     7
100
AcDbLine
 10
58.0732238267
 20
242.5492349954
 30
0.0
 11
55.08
 21
242.5492349954
 31
0.0
  0
LINE
  5
7A
330
1F
100
AcDbEntity
  8
Default
  6
Continuous
 62
     7
100
AcDbLine
 10
55.08
 20
237.0458493097
 30
0.0
 11
55.08
 21
242.5492349954
 31
0.0
  0
INSERT
  5
7C
330
1F
100
AcDbEntity
  8
Default
100
AcDbBlockReference
  2
SEANNOT_GROUP4
 10
0.0
 20
0.0
 30
0.0
  0
INSERT
  5
82
330
1F
100
AcDbEntity
  8
Default
100
AcDbBlockReference
  2
SE
 10
0.0
 20
0.0
 30
0.0
  0
INSERT
  5
D9
330
1F
100
AcDbEntity
  8
Default
100
AcDbBlockReference
  2
SE1
 10
0.0
 20
0.0
 30
0.0
  0
INSERT
  5
140
330
1F
100
AcDbEntity
  8
Default
100
AcDbBlockReference
  2
SE2
 10
0.0
 20
0.0
 30
0.0
  0
TEXT
  5
1C9
330
1F
100
AcDbEntity
  8
Default
  6
Continuous
 62
     7
100
AcDbText
 10
5.9362635081
 20
53.4225120485
 30
0.0
 40
10.0
  1
Grohe AG^J
  7
SEACAD_seiso_ttf
 11
5.9362635081
 21
63.4225120485
 31
0.0
100
AcDbText
 73
     3
  0
TEXT
  5
1CA
330
1F
100
AcDbEntity
  8
Default
  6
Continuous
 62
     7
100
AcDbText
 10
5.9362635081
 20
37.0588756849
 30
0.0
 40
10.0
  1
 
  7
SEACAD_seiso_ttf
 11
5.9362635081
 21
47.0588756849
 31
0.0
100
AcDbText
 73
     3
  0
TEXT
  5
1CB
330
1F
100
AcDbEntity
  8
Default
  6
Continuous
 62
     7
100
AcDbText
 10
5.9362635081
 20
20.6952393213
 30
0.0
 40
10.0
  1
ecn:
  7
SEACAD_seiso_ttf
 11
5.9362635081
 21
30.6952393213
 31
0.0
100
AcDbText
 73
     3
  0
TEXT
  5
1CC
330
1F
100
AcDbEntity
  8
Default
  6
Continuous
 62
     7
100
AcDbText
 10
5.9362635081
 20
4.3316029576
 30
0.0
 40
10.0
  1
unit: mm
  7
SEACAD_seiso_ttf
 11
5.9362635081
 21
14.3316029576
 31
0.0
100
AcDbText
 73
     3
  0
LINE
  5
1CD
330
1F
100
AcDbEntity
  8
Default
  6
Continuous
 62
     7
100
AcDbLine
 10
0.0
 20
0.0
 30
0.0
 11
100.0
 21
0.0
 31
0.0
  0
LINE
  5
1CE
330
1F
100
AcDbEntity
  8
Default
  6
Continuous
 62
     7
100
AcDbLine
 10
0.0
 20
0.0
 30
0.0
 11
0.0
 21
100.0
 31
0.0
  0
TEXT
  5
1CF
330
1F
100
AcDbEntity
  8
Default
  6
Continuous
 62
     7
100
AcDbText
 10
24.3923665681
 20
-18.2375342018
 30
0.0
 40
10.0
  1
100 mm
  7
SEACAD_seiso_ttf
 11
24.3923665681
 21
-8.2375342018
 31
0.0
100
AcDbText
 73
     3
  0
TEXT
  5
1D0
330
1F
100
AcDbEntity
  8
Default
  6
Continuous
 62
     7
100
AcDbText
 10
-7.6150308803
 20
24.6231930421
 30
0.0
 40
10.0
  1
100 mm
 50
90.0
  7
SEACAD_seiso_ttf
 11
-17.6150308803
 21
24.6231930421
 31
0.0
100
AcDbText
 73
     3
  0
TEXT
  5
1D1
330
1F
100
AcDbEntity
  8
Default
  6
Continuous
 62
     7
100
AcDbText
 10
28.4878128572
 20
20.0907663715
 30
0.0
 40
10.0
  1
224286
  7
SEACAD_seiso_ttf
 11
28.4878128572
 21
30.0907663715
 31
0.0
100
AcDbText
 73
     3
  0
TEXT
  5
1D2
330
1F
100
AcDbEntity
  8
Default
  6
Continuous
 62
     7
100
AcDbText
 10
5.9012241913
 20
36.7242780188
 30
0.0
 40
10.0
  1
27892000
  7
SEACAD_seiso_ttf
 11
5.9012241913
 21
46.7242780188
 31
0.0
100
AcDbText
 73
     3
  0
ENDSEC
  0
SECTION
  2
OBJECTS
  0
DICTIONARY
  5
C
330
0
100
AcDbDictionary
281
     1
  3
ACAD_GROUP
350
D
  3
ACAD_LAYOUT
350
1A
  3
ACAD_MLEADERSTYLE
350
1D6
  3
ACAD_MLINESTYLE
350
17
  3
ACAD_PLOTSETTINGS
350
19
  3
ACAD_PLOTSTYLENAME
350
E
  3
ACAD_SCALELIST
350
3B
  3
ACAD_TABLESTYLE
350
1D5
  3
ACAD_VISUALSTYLE
350
2A
  3
AcDbVariableDictionary
350
1D3
  0
DICTIONARY
  5
D
102
{ACAD_REACTORS
330
C
102
}
330
C
100
AcDbDictionary
281
     1
  0
DICTIONARY
  5
1A
102
{ACAD_REACTORS
330
C
102
}
330
C
100
AcDbDictionary
281
     1
  3
Layout1
350
1E
  3
Model
350
22
  0
DICTIONARY
  5
1D6
102
{ACAD_REACTORS
330
C
102
}
330
C
100
AcDbDictionary
281
     1
  0
DICTIONARY
  5
17
102
{ACAD_REACTORS
330
C
102
}
330
C
100
AcDbDictionary
281
     1
  3
Standard
350
18
  0
DICTIONARY
  5
19
102
{ACAD_REACTORS
330
C
102
}
330
C
100
AcDbDictionary
281
     1
  0
ACDBDICTIONARYWDFLT
  5
E
102
{ACAD_REACTORS
330
C
102
}
330
C
100
AcDbDictionary
281
     1
  3
Normal
350
F
100
AcDbDictionaryWithDefault
340
F
  0
DICTIONARY
  5
3B
102
{ACAD_REACTORS
330
C
102
}
330
C
100
AcDbDictionary
281
     1
  3
A0
350
3C
  3
A1
350
3D
  3
A2
350
3E
  3
A3
350
3F
  3
A4
350
40
  3
A5
350
41
  3
A6
350
42
  3
A7
350
43
  3
A8
350
44
  3
A9
350
45
  3
B0
350
46
  3
B1
350
47
  3
B2
350
48
  3
B3
350
49
  3
B4
350
4A
  3
B5
350
4B
  3
B6
350
4C
  3
B7
350
4D
  3
B8
350
4E
  3
B9
350
4F
  3
C0
350
50
  3
C1
350
51
  3
C2
350
52
  3
C3
350
53
  3
C4
350
54
  3
C5
350
55
  3
C6
350
56
  3
C7
350
57
  3
C8
350
58
  3
C9
350
59
  3
D0
350
5A
  3
D1
350
5B
  3
D2
350
5C
  0
DICTIONARY
  5
1D5
102
{ACAD_REACTORS
330
C
102
}
330
C
100
AcDbDictionary
281
     1
  0
DICTIONARY
  5
2A
102
{ACAD_REACTORS
330
C
102
}
330
C
100
AcDbDictionary
281
     1
  3
2dWireframe
350
2F
  3
3D Hidden
350
31
  3
3dWireframe
350
30
  3
Basic
350
32
  3
Brighten
350
36
  3
ColorChange
350
3A
  3
Conceptual
350
34
  3
Dim
350
35
  3
Facepattern
350
39
  3
Flat
350
2B
  3
FlatWithEdges
350
2C
  3
Gouraud
350
2D
  3
GouraudWithEdges
350
2E
  3
Linepattern
350
38
  3
Realistic
350
33
  3
Thicken
350
37
  0
DICTIONARY
  5
1D3
102
{ACAD_REACTORS
330
C
102
}
330
C
100
AcDbDictionary
281
     1
  3
CANNOSCALE
350
1D4
  3
PSOLHEIGHT
350
1D8
  3
PSOLWIDTH
350
1D7
  0
LAYOUT
  5
1E
102
{ACAD_REACTORS
330
1A
102
}
330
1A
100
AcDbPlotSettings
  1

  2
none_device
  4

  6

 40
0.0
 41
0.0
 42
0.0
 43
0.0
 44
0.0
 45
0.0
 46
0.0
 47
0.0
 48
0.0
 49
0.0
140
0.0
141
0.0
142
1.0
143
1.0
 70
   688
 72
     0
 73
     0
 74
     5
  7

 75
    16
147
1.0
148
0.0
149
0.0
100
AcDbLayout
  1
Layout1
 70
     1
 71
     1
 10
0.0
 20
0.0
 11
3000.0
 21
4500.0
 12
0.0
 22
0.0
 32
0.0
 14
0.0
 24
0.0
 34
0.0
 15
3000.0
 25
4500.0
 35
0.0
146
0.0
 13
0.0
 23
0.0
 33
0.0
 16
1.0
 26
0.0
 36
0.0
 17
0.0
 27
1.0
 37
0.0
 76
     0
330
1B
  0
LAYOUT
  5
22
102
{ACAD_REACTORS
330
1A
102
}
330
1A
100
AcDbPlotSettings
  1

  2
none_device
  4

  6

 40
0.0
 41
0.0
 42
0.0
 43
0.0
 44
0.0
 45
0.0
 46
0.0
 47
0.0
 48
0.0
 49
0.0
140
0.0
141
0.0
142
1.0
143
1.0
 70
  1712
 72
     0
 73
     0
 74
     0
  7

 75
     0
147
1.0
148
0.0
149
0.0
100
AcDbLayout
  1
Model
 70
     1
 71
     0
 10
0.0
 20
0.0
 11
3000.0
 21
4500.0
 12
0.0
 22
0.0
 32
0.0
 14
0.0
 24
0.0
 34
0.0
 15
3000.0
 25
4500.0
 35
0.0
146
0.0
 13
0.0
 23
0.0
 33
0.0
 16
1.0
 26
0.0
 36
0.0
 17
0.0
 27
1.0
 37
0.0
 76
     0
330
1F
331
29
  0
MLINESTYLE
  5
18
102
{ACAD_REACTORS
330
17
102
}
330
17
100
AcDbMlineStyle
  2
Standard
 70
     0
  3

 62
   256
 51
90.0
 52
90.0
 71
     2
 49
0.5
 62
   256
  6
BYLAYER
 49
-0.5
 62
   256
  6
BYLAYER
  0
ACDBPLACEHOLDER
  5
F
102
{ACAD_REACTORS
330
E
102
}
330
E
  0
SCALE
  5
3C
102
{ACAD_REACTORS
330
3B
102
}
330
3B
100
AcDbScale
 70
     0
300
1:1
140
1.0
141
1.0
290
     1
  0
SCALE
  5
3D
102
{ACAD_REACTORS
330
3B
102
}
330
3B
100
AcDbScale
 70
     0
300
1:2
140
1.0
141
2.0
290
     0
  0
SCALE
  5
3E
102
{ACAD_REACTORS
330
3B
102
}
330
3B
100
AcDbScale
 70
     0
300
1:4
140
1.0
141
4.0
290
     0
  0
SCALE
  5
3F
102
{ACAD_REACTORS
330
3B
102
}
330
3B
100
AcDbScale
 70
     0
300
1:5
140
1.0
141
5.0
290
     0
  0
SCALE
  5
40
102
{ACAD_REACTORS
330
3B
102
}
330
3B
100
AcDbScale
 70
     0
300
1:8
140
1.0
141
8.0
290
     0
  0
SCALE
  5
41
102
{ACAD_REACTORS
330
3B
102
}
330
3B
100
AcDbScale
 70
     0
300
1:10
140
1.0
141
10.0
290
     0
  0
SCALE
  5
42
102
{ACAD_REACTORS
330
3B
102
}
330
3B
100
AcDbScale
 70
     0
300
1:16
140
1.0
141
16.0
290
     0
  0
SCALE
  5
43
102
{ACAD_REACTORS
330
3B
102
}
330
3B
100
AcDbScale
 70
     0
300
1:20
140
1.0
141
20.0
290
     0
  0
SCALE
  5
44
102
{ACAD_REACTORS
330
3B
102
}
330
3B
100
AcDbScale
 70
     0
300
1:30
140
1.0
141
30.0
290
     0
  0
SCALE
  5
45
102
{ACAD_REACTORS
330
3B
102
}
330
3B
100
AcDbScale
 70
     0
300
1:40
140
1.0
141
40.0
290
     0
  0
SCALE
  5
46
102
{ACAD_REACTORS
330
3B
102
}
330
3B
100
AcDbScale
 70
     0
300
1:50
140
1.0
141
50.0
290
     0
  0
SCALE
  5
47
102
{ACAD_REACTORS
330
3B
102
}
330
3B
100
AcDbScale
 70
     0
300
1:100
140
1.0
141
100.0
290
     0
  0
SCALE
  5
48
102
{ACAD_REACTORS
330
3B
102
}
330
3B
100
AcDbScale
 70
     0
300
2:1
140
2.0
141
1.0
290
     0
  0
SCALE
  5
49
102
{ACAD_REACTORS
330
3B
102
}
330
3B
100
AcDbScale
 70
     0
300
4:1
140
4.0
141
1.0
290
     0
  0
SCALE
  5
4A
102
{ACAD_REACTORS
330
3B
102
}
330
3B
100
AcDbScale
 70
     0
300
8:1
140
8.0
141
1.0
290
     0
  0
SCALE
  5
4B
102
{ACAD_REACTORS
330
3B
102
}
330
3B
100
AcDbScale
 70
     0
300
10:1
140
10.0
141
1.0
290
     0
  0
SCALE
  5
4C
102
{ACAD_REACTORS
330
3B
102
}
330
3B
100
AcDbScale
 70
     0
300
100:1
140
100.0
141
1.0
290
     0
  0
SCALE
  5
4D
102
{ACAD_REACTORS
330
3B
102
}
330
3B
100
AcDbScale
 70
     0
300
1/128" = 1'-0"
140
0.0078125
141
12.0
290
     0
  0
SCALE
  5
4E
102
{ACAD_REACTORS
330
3B
102
}
330
3B
100
AcDbScale
 70
     0
300
1/64" = 1'-0"
140
0.015625
141
12.0
290
     0
  0
SCALE
  5
4F
102
{ACAD_REACTORS
330
3B
102
}
330
3B
100
AcDbScale
 70
     0
300
1/32" = 1'-0"
140
0.03125
141
12.0
290
     0
  0
SCALE
  5
50
102
{ACAD_REACTORS
330
3B
102
}
330
3B
100
AcDbScale
 70
     0
300
1/16" = 1'-0"
140
0.0625
141
12.0
290
     0
  0
SCALE
  5
51
102
{ACAD_REACTORS
330
3B
102
}
330
3B
100
AcDbScale
 70
     0
300
3/32" = 1'-0"
140
0.09375
141
12.0
290
     0
  0
SCALE
  5
52
102
{ACAD_REACTORS
330
3B
102
}
330
3B
100
AcDbScale
 70
     0
300
1/8" = 1'-0"
140
0.125
141
12.0
290
     0
  0
SCALE
  5
53
102
{ACAD_REACTORS
330
3B
102
}
330
3B
100
AcDbScale
 70
     0
300
3/16" = 1'-0"
140
0.1875
141
12.0
290
     0
  0
SCALE
  5
54
102
{ACAD_REACTORS
330
3B
102
}
330
3B
100
AcDbScale
 70
     0
300
1/4" = 1'-0"
140
0.25
141
12.0
290
     0
  0
SCALE
  5
55
102
{ACAD_REACTORS
330
3B
102
}
330
3B
100
AcDbScale
 70
     0
300
3/8" = 1'-0"
140
0.375
141
12.0
290
     0
  0
SCALE
  5
56
102
{ACAD_REACTORS
330
3B
102
}
330
3B
100
AcDbScale
 70
     0
300
1/2" = 1'-0"
140
0.5
141
12.0
290
     0
  0
SCALE
  5
57
102
{ACAD_REACTORS
330
3B
102
}
330
3B
100
AcDbScale
 70
     0
300
3/4" = 1'-0"
140
0.75
141
12.0
290
     0
  0
SCALE
  5
58
102
{ACAD_REACTORS
330
3B
102
}
330
3B
100
AcDbScale
 70
     0
300
1" = 1'-0"
140
1.0
141
12.0
290
     0
  0
SCALE
  5
59
102
{ACAD_REACTORS
330
3B
102
}
330
3B
100
AcDbScale
 70
     0
300
1-1/2" = 1'-0"
140
1.5
141
12.0
290
     0
  0
SCALE
  5
5A
102
{ACAD_REACTORS
330
3B
102
}
330
3B
100
AcDbScale
 70
     0
300
3" = 1'-0"
140
3.0
141
12.0
290
     0
  0
SCALE
  5
5B
102
{ACAD_REACTORS
330
3B
102
}
330
3B
100
AcDbScale
 70
     0
300
6" = 1'-0"
140
6.0
141
12.0
290
     0
  0
SCALE
  5
5C
102
{ACAD_REACTORS
330
3B
102
}
330
3B
100
AcDbScale
 70
     0
300
1'-0" = 1'-0"
140
12.0
141
12.0
290
     0
  0
VISUALSTYLE
  5
2F
102
{ACAD_REACTORS
330
2A
102
}
330
2A
100
AcDbVisualStyle
  2
2dWireframe
 70
     4
 71
     0
 72
     2
 73
     0
 90
        0
 40
-0.6
 41
-30.0
 62
     5
 63
     7
 74
     1
 91
        4
 64
     7
 65
   257
 75
     1
175
     1
 42
1.0
 92
        0
 66
   257
 43
1.0
 76
     1
 77
     6
 78
     2
 67
     7
 79
     5
170
     0
171
     0
290
     0
174
     0
 93
        1
 44
0.0
173
     0
291
     0
 45
0.0
1001
ACAD
1000
AcDbSavedByObjectVersion
1070
     0
  0
VISUALSTYLE
  5
31
102
{ACAD_REACTORS
330
2A
102
}
330
2A
100
AcDbVisualStyle
  2
3D Hidden
 70
     6
 71
     1
 72
     2
 73
     2
 90
        0
 40
-0.6
 41
-30.0
 62
     5
 63
     7
 74
     2
 91
        2
 64
     7
 65
   257
 75
     2
175
     1
 42
40.0
 92
        0
 66
   257
 43
1.0
 76
     1
 77
     6
 78
     2
 67
     7
 79
     3
170
     0
171
     0
290
     0
174
     0
 93
        1
 44
0.0
173
     0
291
     0
 45
0.0
1001
ACAD
1000
AcDbSavedByObjectVersion
1070
     0
  0
VISUALSTYLE
  5
30
102
{ACAD_REACTORS
330
2A
102
}
330
2A
100
AcDbVisualStyle
  2
3dWireframe
 70
     5
 71
     0
 72
     2
 73
     0
 90
        0
 40
-0.6
 41
-30.0
 62
     5
 63
     7
 74
     1
 91
        4
 64
     7
 65
   257
 75
     1
175
     1
 42
1.0
 92
        0
 66
   257
 43
1.0
 76
     1
 77
     6
 78
     2
 67
     7
 79
     5
170
     0
171
     0
290
     0
174
     0
 93
        1
 44
0.0
173
     0
291
     0
 45
0.0
1001
ACAD
1000
AcDbSavedByObjectVersion
1070
     0
  0
VISUALSTYLE
  5
32
102
{ACAD_REACTORS
330
2A
102
}
330
2A
100
AcDbVisualStyle
  2
Basic
 70
     7
 71
     1
 72
     0
 73
     1
 90
        0
 40
-0.6
 41
-30.0
 62
     5
 63
     7
 74
     0
 91
        4
 64
     7
 65
   257
 75
     1
175
     1
 42
1.0
 92
        8
 66
     7
 43
1.0
 76
     1
 77
     6
 78
     2
 67
     7
 79
     5
170
     0
171
     0
290
     0
174
     0
 93
        1
 44
0.0
173
     0
291
     1
 45
0.0
1001
ACAD
1000
AcDbSavedByObjectVersion
1070
     0
  0
VISUALSTYLE
  5
36
102
{ACAD_REACTORS
330
2A
102
}
330
2A
100
AcDbVisualStyle
  2
Brighten
 70
    12
 71
     2
 72
     2
 73
     0
 90
        0
 40
-0.6
 41
-30.0
 62
     5
 63
     7
 74
     1
 91
        4
 64
     7
 65
   257
 75
     1
175
     1
 42
1.0
 92
        8
 66
     7
 43
1.0
 76
     1
 77
     6
 78
     2
 67
     7
 79
     5
170
     0
171
     0
290
     0
174
     0
 93
        1
 44
50.0
173
     0
291
     1
 45
0.0
1001
ACAD
1000
AcDbSavedByObjectVersion
1070
     0
  0
VISUALSTYLE
  5
3A
102
{ACAD_REACTORS
330
2A
102
}
330
2A
100
AcDbVisualStyle
  2
ColorChange
 70
    16
 71
     2
 72
     2
 73
     3
 90
        0
 40
-0.6
 41
-30.0
 62
     5
 63
     8
 74
     1
 91
        4
 64
     7
 65
   257
 75
     1
175
     1
 42
1.0
 92
        8
 66
     8
 43
1.0
 76
     1
 77
     6
 78
     2
 67
     7
 79
     5
170
     0
171
     0
290
     0
174
     0
 93
        1
 44
0.0
173
     0
291
     1
 45
0.0
1001
ACAD
1000
AcDbSavedByObjectVersion
1070
     0
  0
VISUALSTYLE
  5
34
102
{ACAD_REACTORS
330
2A
102
}
330
2A
100
AcDbVisualStyle
  2
Conceptual
 70
     9
 71
     3
 72
     2
 73
     0
 90
        0
 40
-0.6
 41
-30.0
 62
     5
 63
     7
 74
     2
 91
        2
 64
     7
 65
   257
 75
     1
175
     1
 42
40.0
 92
        8
 66
     7
 43
1.0
 76
     1
 77
     6
 78
     2
 67
     7
 79
     3
170
     0
171
     0
290
     0
174
     0
 93
        1
 44
0.0
173
     0
291
     0
 45
0.0
1001
ACAD
1000
AcDbSavedByObjectVersion
1070
     0
  0
VISUALSTYLE
  5
35
102
{ACAD_REACTORS
330
2A
102
}
330
2A
100
AcDbVisualStyle
  2
Dim
 70
    11
 71
     2
 72
     2
 73
     0
 90
        0
 40
-0.6
 41
-30.0
 62
     5
 63
     7
 74
     1
 91
        4
 64
     7
 65
   257
 75
     1
175
     1
 42
1.0
 92
        8
 66
     7
 43
1.0
 76
     1
 77
     6
 78
     2
 67
     7
 79
     5
170
     0
171
     0
290
     0
174
     0
 93
        1
 44
-50.0
173
     0
291
     1
 45
0.0
1001
ACAD
1000
AcDbSavedByObjectVersion
1070
     0
  0
VISUALSTYLE
  5
39
102
{ACAD_REACTORS
330
2A
102
}
330
2A
100
AcDbVisualStyle
  2
Facepattern
 70
    15
 71
     2
 72
     2
 73
     0
 90
        0
 40
-0.6
 41
-30.0
 62
     5
 63
     7
 74
     1
 91
        4
 64
     7
 65
   257
 75
     1
175
     1
 42
1.0
 92
        8
 66
     7
 43
1.0
 76
     1
 77
     6
 78
     2
 67
     7
 79
     5
170
     0
171
     0
290
     0
174
     0
 93
        1
 44
0.0
173
     0
291
     1
 45
0.0
1001
ACAD
1000
AcDbSavedByObjectVersion
1070
     0
  0
VISUALSTYLE
  5
2B
102
{ACAD_REACTORS
330
2A
102
}
330
2A
100
AcDbVisualStyle
  2
Flat
 70
     0
 71
     2
 72
     1
 73
     1
 90
        2
 40
-0.6
 41
30.0
 62
     5
 63
     7
 74
     0
 91
        4
 64
     7
 65
   257
 75
     1
175
     1
 42
1.0
 92
        8
 66
     7
 43
1.0
 76
     1
 77
     6
 78
     2
 67
     7
 79
     5
170
     0
171
     0
290
     0
174
     0
 93
       13
 44
0.0
173
     0
291
     1
 45
0.0
1001
ACAD
1000
AcDbSavedByObjectVersion
1070
     0
  0
VISUALSTYLE
  5
2C
102
{ACAD_REACTORS
330
2A
102
}
330
2A
100
AcDbVisualStyle
  2
FlatWithEdges
 70
     1
 71
     2
 72
     1
 73
     1
 90
        2
 40
-0.6
 41
30.0
 62
     5
 63
     7
 74
     1
 91
        4
 64
     7
 65
   257
 75
     1
175
     1
 42
1.0
 92
        0
 66
   257
 43
1.0
 76
     1
 77
     6
 78
     2
 67
     7
 79
     5
170
     0
171
     0
290
     0
174
     0
 93
       13
 44
0.0
173
     0
291
     1
 45
0.0
1001
ACAD
1000
AcDbSavedByObjectVersion
1070
     0
  0
VISUALSTYLE
  5
2D
102
{ACAD_REACTORS
330
2A
102
}
330
2A
100
AcDbVisualStyle
  2
Gouraud
 70
     2
 71
     2
 72
     2
 73
     1
 90
        2
 40
-0.6
 41
30.0
 62
     5
 63
     7
 74
     0
 91
        4
 64
     7
 65
   257
 75
     1
175
     1
 42
1.0
 92
        0
 66
     7
 43
1.0
 76
     1
 77
     6
 78
     2
 67
     7
 79
     5
170
     0
171
     0
290
     0
174
     0
 93
       13
 44
0.0
173
     0
291
     1
 45
0.0
1001
ACAD
1000
AcDbSavedByObjectVersion
1070
     0
  0
VISUALSTYLE
  5
2E
102
{ACAD_REACTORS
330
2A
102
}
330
2A
100
AcDbVisualStyle
  2
GouraudWithEdges
 70
     3
 71
     2
 72
     2
 73
     1
 90
        2
 40
-0.6
 41
30.0
 62
     5
 63
     7
 74
     1
 91
        4
 64
     7
 65
   257
 75
     1
175
     1
 42
1.0
 92
        0
 66
   257
 43
1.0
 76
     1
 77
     6
 78
     2
 67
     7
 79
     5
170
     0
171
     0
290
     0
174
     0
 93
       13
 44
0.0
173
     0
291
     1
 45
0.0
1001
ACAD
1000
AcDbSavedByObjectVersion
1070
     0
  0
VISUALSTYLE
  5
38
102
{ACAD_REACTORS
330
2A
102
}
330
2A
100
AcDbVisualStyle
  2
Linepattern
 70
    14
 71
     2
 72
     2
 73
     0
 90
        0
 40
-0.6
 41
-30.0
 62
     5
 63
     7
 74
     1
 91
        4
 64
     7
 65
   257
 75
     7
175
     7
 42
1.0
 92
        8
 66
     7
 43
1.0
 76
     1
 77
     6
 78
     2
 67
     7
 79
     5
170
     0
171
     0
290
     0
174
     0
 93
        1
 44
0.0
173
     0
291
     1
 45
0.0
1001
ACAD
1000
AcDbSavedByObjectVersion
1070
     0
  0
VISUALSTYLE
  5
33
102
{ACAD_REACTORS
330
2A
102
}
330
2A
100
AcDbVisualStyle
  2
Realistic
 70
     8
 71
     2
 72
     2
 73
     0
 90
        0
 40
-0.6
 41
-30.0
 62
     5
 63
     7
 74
     1
 91
        0
 64
     7
 65
   257
 75
     1
175
     1
 42
1.0
 92
        8
 66
     8
 43
1.0
 76
     1
 77
     6
 78
     2
 67
     7
 79
     5
170
     0
171
     0
290
     0
174
     0
 93
       13
 44
0.0
173
     0
291
     0
 45
0.0
1001
ACAD
1000
AcDbSavedByObjectVersion
1070
     0
  0
VISUALSTYLE
  5
37
102
{ACAD_REACTORS
330
2A
102
}
330
2A
100
AcDbVisualStyle
  2
Thicken
 70
    13
 71
     2
 72
     2
 73
     0
 90
        0
 40
-0.6
 41
-30.0
 62
     5
 63
     7
 74
     1
 91
        4
 64
     7
 65
   257
 75
     1
175
     1
 42
1.0
 92
       12
 66
     7
 43
1.0
 76
     1
 77
     6
 78
     2
 67
     7
 79
     5
170
     0
171
     0
290
     0
174
     0
 93
        1
 44
0.0
173
     0
291
     1
 45
0.0
1001
ACAD
1000
AcDbSavedByObjectVersion
1070
     0
  0
DICTIONARYVAR
  5
1D4
102
{ACAD_REACTORS
330
1D3
102
}
330
1D3
100
DictionaryVariables
280
     0
  1
1:1
  0
DICTIONARYVAR
  5
1D8
102
{ACAD_REACTORS
330
1D3
102
}
330
1D3
100
DictionaryVariables
280
     0
  1
80.000000
  0
DICTIONARYVAR
  5
1D7
102
{ACAD_REACTORS
330
1D3
102
}
330
1D3
100
DictionaryVariables
280
     0
  1
5.000000
  0
ENDSEC
  0
EOF
