  0
SECTION
  2
HEADER
  9
$ACADVER
  1
AC1015
  9
$ACADMAINTVER
 70
     6
  9
$DWGCODEPAGE
  3
ANSI_1252
  9
$INSBASE
 10
0.0
 20
0.0
 30
0.0
  9
$EXTMIN
 10
0.0
 20
0.0
 30
0.0
  9
$EXTMAX
 10
3000.0
 20
4500.0
 30
0.0
  9
$LIMMIN
 10
0.0
 20
0.0
  9
$LIMMAX
 10
3000.0
 20
4500.0
  9
$ORTHOMODE
 70
     0
  9
$REGENMODE
 70
     1
  9
$FILLMODE
 70
     1
  9
$QTEXTMODE
 70
     0
  9
$MIRRTEXT
 70
     1
  9
$LTSCALE
 40
1.0
  9
$ATTMODE
 70
     1
  9
$TEXTSIZE
 40
2.5
  9
$TRACEWID
 40
1.0
  9
$TEXTSTYLE
  7
Standard
  9
$CLAYER
  8
0
  9
$CELTYPE
  6
ByLayer
  9
$CECOLOR
 62
   256
  9
$CELTSCALE
 40
1.0
  9
$DISPSILH
 70
     0
  9
$DIMSCALE
 40
1.0
  9
$DIMASZ
 40
2.5
  9
$DIMEXO
 40
0.625
  9
$DIMDLI
 40
3.75
  9
$DIMRND
 40
0.0
  9
$DIMDLE
 40
0.0
  9
$DIMEXE
 40
1.25
  9
$DIMTP
 40
0.0
  9
$DIMTM
 40
0.0
  9
$DIMTXT
 40
2.5
  9
$DIMCEN
 40
2.5
  9
$DIMTSZ
 40
0.0
  9
$DIMTOL
 70
     0
  9
$DIMLIM
 70
     0
  9
$DIMTIH
 70
     0
  9
$DIMTOH
 70
     0
  9
$DIMSE1
 70
     0
  9
$DIMSE2
 70
     0
  9
$DIMTAD
 70
     1
  9
$DIMZIN
 70
     8
  9
$DIMBLK
  1

  9
$DIMASO
 70
     1
  9
$DIMSHO
 70
     1
  9
$DIMPOST
  1

  9
$DIMAPOST
  1

  9
$DIMALT
 70
     0
  9
$DIMALTD
 70
     3
  9
$DIMALTF
 40
0.0393700787
  9
$DIMLFAC
 40
1.0
  9
$DIMTOFL
 70
     1
  9
$DIMTVP
 40
0.0
  9
$DIMTIX
 70
     0
  9
$DIMSOXD
 70
     0
  9
$DIMSAH
 70
     0
  9
$DIMBLK1
  1

  9
$DIMBLK2
  1

  9
$DIMSTYLE
  2
ISO-25
  9
$DIMCLRD
 70
     0
  9
$DIMCLRE
 70
     0
  9
$DIMCLRT
 70
     0
  9
$DIMTFAC
 40
1.0
  9
$DIMGAP
 40
0.625
  9
$DIMJUST
 70
     0
  9
$DIMSD1
 70
     0
  9
$DIMSD2
 70
     0
  9
$DIMTOLJ
 70
     0
  9
$DIMTZIN
 70
     8
  9
$DIMALTZ
 70
     0
  9
$DIMALTTZ
 70
     0
  9
$DIMUPT
 70
     0
  9
$DIMDEC
 70
     2
  9
$DIMTDEC
 70
     2
  9
$DIMALTU
 70
     2
  9
$DIMALTTD
 70
     3
  9
$DIMTXSTY
  7
Standard
  9
$DIMAUNIT
 70
     0
  9
$DIMADEC
 70
     0
  9
$DIMALTRND
 40
0.0
  9
$DIMAZIN
 70
     0
  9
$DIMDSEP
 70
    44
  9
$DIMATFIT
 70
     3
  9
$DIMFRAC
 70
     0
  9
$DIMLDRBLK
  1

  9
$DIMLUNIT
 70
     2
  9
$DIMLWD
 70
    -2
  9
$DIMLWE
 70
    -2
  9
$DIMTMOVE
 70
     0
  9
$LUNITS
 70
     2
  9
$LUPREC
 70
     4
  9
$SKETCHINC
 40
1.0
  9
$FILLETRAD
 40
10.0
  9
$AUNITS
 70
     0
  9
$AUPREC
 70
     0
  9
$MENU
  1
.
  9
$ELEVATION
 40
0.0
  9
$PELEVATION
 40
0.0
  9
$THICKNESS
 40
0.0
  9
$LIMCHECK
 70
     0
  9
$CHAMFERA
 40
10.0
  9
$CHAMFERB
 40
10.0
  9
$CHAMFERC
 40
20.0
  9
$CHAMFERD
 40
0.0
  9
$SKPOLY
 70
     0
  9
$TDCREATE
 40
2455985.46896081
  9
$TDUCREATE
 40
2455985.427294143
  9
$TDUPDATE
 40
2455985.468960822
  9
$TDUUPDATE
 40
2455985.427294155
  9
$TDINDWG
 40
0.0000000116
  9
$TDUSRTIMER
 40
0.0000000116
  9
$USRTIMER
 70
     1
  9
$ANGBASE
 50
0.0
  9
$ANGDIR
 70
     0
  9
$PDMODE
 70
     0
  9
$PDSIZE
 40
0.0
  9
$PLINEWID
 40
0.0
  9
$SPLFRAME
 70
     0
  9
$SPLINETYPE
 70
     6
  9
$SPLINESEGS
 70
     8
  9
$HANDSEED
  5
1F4
  9
$SURFTAB1
 70
     6
  9
$SURFTAB2
 70
     6
  9
$SURFTYPE
 70
     6
  9
$SURFU
 70
     6
  9
$SURFV
 70
     6
  9
$UCSBASE
  2

  9
$UCSNAME
  2

  9
$UCSORG
 10
0.0
 20
0.0
 30
0.0
  9
$UCSXDIR
 10
1.0
 20
0.0
 30
0.0
  9
$UCSYDIR
 10
0.0
 20
1.0
 30
0.0
  9
$UCSORTHOREF
  2

  9
$UCSORTHOVIEW
 70
     0
  9
$UCSORGTOP
 10
0.0
 20
0.0
 30
0.0
  9
$UCSORGBOTTOM
 10
0.0
 20
0.0
 30
0.0
  9
$UCSORGLEFT
 10
0.0
 20
0.0
 30
0.0
  9
$UCSORGRIGHT
 10
0.0
 20
0.0
 30
0.0
  9
$UCSORGFRONT
 10
0.0
 20
0.0
 30
0.0
  9
$UCSORGBACK
 10
0.0
 20
0.0
 30
0.0
  9
$PUCSBASE
  2

  9
$PUCSNAME
  2

  9
$PUCSORG
 10
0.0
 20
0.0
 30
0.0
  9
$PUCSXDIR
 10
1.0
 20
0.0
 30
0.0
  9
$PUCSYDIR
 10
0.0
 20
1.0
 30
0.0
  9
$PUCSORTHOREF
  2

  9
$PUCSORTHOVIEW
 70
     0
  9
$PUCSORGTOP
 10
0.0
 20
0.0
 30
0.0
  9
$PUCSORGBOTTOM
 10
0.0
 20
0.0
 30
0.0
  9
$PUCSORGLEFT
 10
0.0
 20
0.0
 30
0.0
  9
$PUCSORGRIGHT
 10
0.0
 20
0.0
 30
0.0
  9
$PUCSORGFRONT
 10
0.0
 20
0.0
 30
0.0
  9
$PUCSORGBACK
 10
0.0
 20
0.0
 30
0.0
  9
$USERI1
 70
     0
  9
$USERI2
 70
     0
  9
$USERI3
 70
     0
  9
$USERI4
 70
     0
  9
$USERI5
 70
     0
  9
$USERR1
 40
0.0
  9
$USERR2
 40
0.0
  9
$USERR3
 40
0.0
  9
$USERR4
 40
0.0
  9
$USERR5
 40
0.0
  9
$WORLDVIEW
 70
     1
  9
$SHADEDGE
 70
     3
  9
$SHADEDIF
 70
    70
  9
$TILEMODE
 70
     1
  9
$MAXACTVP
 70
    64
  9
$PINSBASE
 10
0.0
 20
0.0
 30
0.0
  9
$PLIMCHECK
 70
     0
  9
$PEXTMIN
 10
0.0
 20
0.0
 30
0.0
  9
$PEXTMAX
 10
3000.0
 20
4500.0
 30
0.0
  9
$PLIMMIN
 10
0.0
 20
0.0
  9
$PLIMMAX
 10
3000.0
 20
4500.0
  9
$UNITMODE
 70
     0
  9
$VISRETAIN
 70
     1
  9
$PLINEGEN
 70
     0
  9
$PSLTSCALE
 70
     1
  9
$TREEDEPTH
 70
  3020
  9
$CMLSTYLE
  2
Standard
  9
$CMLJUST
 70
     0
  9
$CMLSCALE
 40
20.0
  9
$PROXYGRAPHICS
 70
     1
  9
$MEASUREMENT
 70
     1
  9
$CELWEIGHT
370
    -1
  9
$ENDCAPS
280
     0
  9
$JOINSTYLE
280
     0
  9
$LWDISPLAY
290
     0
  9
$INSUNITS
 70
     4
  9
$HYPERLINKBASE
  1

  9
$STYLESHEET
  1

  9
$XEDIT
290
     1
  9
$CEPSNTYPE
380
     0
  9
$PSTYLEMODE
290
     1
  9
$FINGERPRINTGUID
  2
{DD2780E2-E85D-4356-9FB5-D32995E1679F}
  9
$VERSIONGUID
  2
{FAEB1C32-E019-11D5-929B-00C0DF256EC4}
  9
$EXTNAMES
290
     1
  9
$PSVPSCALE
 40
0.0
  9
$OLESTARTUP
290
     0
  0
ENDSEC
  0
SECTION
  2
CLASSES
  0
CLASS
  1
ACDBDICTIONARYWDFLT
  2
AcDbDictionaryWithDefault
  3
ObjectDBX Classes
 90
        0
280
     0
281
     0
  0
CLASS
  1
VISUALSTYLE
  2
AcDbVisualStyle
  3
ObjectDBX Classes
 90
     4095
280
     0
281
     0
  0
CLASS
  1
SCALE
  2
AcDbScale
  3
ObjectDBX Classes
 90
     1153
280
     0
281
     0
  0
CLASS
  1
DICTIONARYVAR
  2
AcDbDictionaryVar
  3
ObjectDBX Classes
 90
        0
280
     0
281
     0
  0
CLASS
  1
ACDBPLACEHOLDER
  2
AcDbPlaceHolder
  3
ObjectDBX Classes
 90
        0
280
     0
281
     0
  0
CLASS
  1
LAYOUT
  2
AcDbLayout
  3
ObjectDBX Classes
 90
        0
280
     0
281
     0
  0
ENDSEC
  0
SECTION
  2
TABLES
  0
TABLE
  2
VPORT
  5
8
330
0
100
AcDbSymbolTable
 70
     1
  0
VPORT
  5
29
330
8
100
AcDbSymbolTableRecord
100
AcDbViewportTableRecord
  2
*Active
 70
     0
 10
0.0
 20
0.0
 11
1.0
 21
1.0
 12
344.1869158879
 22
148.5
 13
0.0
 23
0.0
 14
10.0
 24
10.0
 15
10.0
 25
10.0
 16
0.0
 26
0.0
 36
1.0
 17
0.0
 27
0.0
 37
0.0
 40
297.0
 41
1.9729729729
 42
50.0
 43
0.0
 44
0.0
 50
0.0
 51
0.0
 71
     0
 72
   100
 73
     1
 74
     3
 75
     0
 76
     0
 77
     0
 78
     0
281
     0
 65
     1
110
0.0
120
0.0
130
0.0
111
1.0
121
0.0
131
0.0
112
0.0
122
1.0
132
0.0
 79
     0
146
0.0
  0
ENDTAB
  0
TABLE
  2
LTYPE
  5
5
330
0
100
AcDbSymbolTable
 70
     2
  0
LTYPE
  5
14
330
5
100
AcDbSymbolTableRecord
100
AcDbLinetypeTableRecord
  2
ByBlock
 70
     0
  3

 72
    65
 73
     0
 40
0.0
  0
LTYPE
  5
15
330
5
100
AcDbSymbolTableRecord
100
AcDbLinetypeTableRecord
  2
ByLayer
 70
     0
  3

 72
    65
 73
     0
 40
0.0
  0
LTYPE
  5
16
330
5
100
AcDbSymbolTableRecord
100
AcDbLinetypeTableRecord
  2
Continuous
 70
     0
  3
Solid line
 72
    65
 73
     0
 40
0.0
  0
LTYPE
  5
62
330
5
100
AcDbSymbolTableRecord
100
AcDbLinetypeTableRecord
  2
CENTER2
 70
     0
  3
Center (.5x) ___ _ ___ _ ___ _ ___ _ ___ _ ___
 72
    65
 73
     4
 40
28.575
 49
19.05
 74
     4
 75
     0
340
0
 46
0.0
 50
0.0
 44
0.0
 45
0.0
 49
-3.175
 74
     4
 75
     0
340
0
 46
0.0
 50
0.0
 44
0.0
 45
0.0
 49
3.175
 74
     4
 75
     0
340
0
 46
0.0
 50
0.0
 44
0.0
 45
0.0
 49
-3.175
 74
     4
 75
     0
340
0
 46
0.0
 50
0.0
 44
0.0
 45
0.0
  0
ENDTAB
  0
TABLE
  2
LAYER
  5
2
330
0
100
AcDbSymbolTable
 70
    12
  0
LAYER
  5
10
330
2
100
AcDbSymbolTableRecord
100
AcDbLayerTableRecord
  2
0
 70
     0
 62
     7
  6
Continuous
370
    -3
390
F
  0
LAYER
  5
5D
330
2
100
AcDbSymbolTableRecord
100
AcDbLayerTableRecord
  2
Default
 70
     0
 62
     7
  6
Continuous
370
    -3
390
F
  0
LAYER
  5
79
330
2
100
AcDbSymbolTableRecord
100
AcDbLayerTableRecord
  2
$DDT_AUDIT_GENERATED_(79)
 70
     0
 62
     7
  6
Continuous
370
    -3
390
F
  0
LAYER
  5
83
330
2
100
AcDbSymbolTableRecord
100
AcDbLayerTableRecord
  2
$DDT_AUDIT_GENERATED_(83)
 70
     0
 62
     7
  6
Continuous
370
    -3
390
F
  0
LAYER
  5
86
330
2
100
AcDbSymbolTableRecord
100
AcDbLayerTableRecord
  2
$DDT_AUDIT_GENERATED_(86)
 70
     0
 62
     7
  6
Continuous
370
    -3
390
F
  0
LAYER
  5
9D
330
2
100
AcDbSymbolTableRecord
100
AcDbLayerTableRecord
  2
$DDT_AUDIT_GENERATED_(9D)
 70
     0
 62
     7
  6
Continuous
370
    -3
390
F
  0
LAYER
  5
A4
330
2
100
AcDbSymbolTableRecord
100
AcDbLayerTableRecord
  2
$DDT_AUDIT_GENERATED_(A4)
 70
     0
 62
     7
  6
Continuous
370
    -3
390
F
  0
LAYER
  5
B5
330
2
100
AcDbSymbolTableRecord
100
AcDbLayerTableRecord
  2
$DDT_AUDIT_GENERATED_(B5)
 70
     0
 62
     7
  6
Continuous
370
    -3
390
F
  0
LAYER
  5
BA
330
2
100
AcDbSymbolTableRecord
100
AcDbLayerTableRecord
  2
$DDT_AUDIT_GENERATED_(BA)
 70
     0
 62
     7
  6
Continuous
370
    -3
390
F
  0
LAYER
  5
18B
330
2
100
AcDbSymbolTableRecord
100
AcDbLayerTableRecord
  2
$DDT_AUDIT_GENERATED_(18B)
 70
     0
 62
     7
  6
Continuous
370
    -3
390
F
  0
LAYER
  5
19C
330
2
100
AcDbSymbolTableRecord
100
AcDbLayerTableRecord
  2
$DDT_AUDIT_GENERATED_(19C)
 70
     0
 62
     7
  6
Continuous
370
    -3
390
F
  0
LAYER
  5
1C8
330
2
100
AcDbSymbolTableRecord
100
AcDbLayerTableRecord
  2
$DDT_AUDIT_GENERATED_(1C8)
 70
     0
 62
     7
  6
Continuous
370
    -3
390
F
  0
ENDTAB
  0
TABLE
  2
STYLE
  5
3
330
0
100
AcDbSymbolTable
 70
     2
  0
STYLE
  5
11
330
3
100
AcDbSymbolTableRecord
100
AcDbTextStyleTableRecord
  2
Standard
 70
     0
 40
0.0
 41
1.0
 50
0.0
 71
     0
 42
2.5
  3
txt
  4

  0
STYLE
  5
1E3
330
3
100
AcDbSymbolTableRecord
100
AcDbTextStyleTableRecord
  2
SEACAD_seiso_ttf
 70
     0
 40
0.0
 41
1.0
 50
0.0
 71
     0
 42
0.2
  3
seiso.ttf
  4

  0
ENDTAB
  0
TABLE
  2
VIEW
  5
6
330
0
100
AcDbSymbolTable
 70
     0
  0
ENDTAB
  0
TABLE
  2
UCS
  5
7
330
0
100
AcDbSymbolTable
 70
     0
  0
ENDTAB
  0
TABLE
  2
APPID
  5
9
330
0
100
AcDbSymbolTable
 70
     1
  0
APPID
  5
12
330
9
100
AcDbSymbolTableRecord
100
AcDbRegAppTableRecord
  2
ACAD
 70
     0
  0
ENDTAB
  0
TABLE
  2
DIMSTYLE
  5
A
330
0
100
AcDbSymbolTable
 70
     1
100
AcDbDimStyleTable
  0
DIMSTYLE
105
27
330
A
100
AcDbSymbolTableRecord
100
AcDbDimStyleTableRecord
  2
ISO-25
 70
     0
 41
2.5
 42
0.625
 43
3.75
 44
1.25
 73
     0
 74
     0
 77
     1
 78
     8
140
2.5
141
2.5
143
0.0393700787
147
0.625
171
     3
172
     1
271
     2
272
     2
274
     3
278
    44
283
     0
284
     8
340
11
  0
ENDTAB
  0
TABLE
  2
BLOCK_RECORD
  5
1
330
0
100
AcDbSymbolTable
 70
     7
  0
BLOCK_RECORD
  5
1F
330
1
100
AcDbSymbolTableRecord
100
AcDbBlockTableRecord
  2
*Model_Space
340
22
  0
BLOCK_RECORD
  5
1B
330
1
100
AcDbSymbolTableRecord
100
AcDbBlockTableRecord
  2
*Paper_Space
340
1E
  0
BLOCK_RECORD
  5
60
330
1
100
AcDbSymbolTableRecord
100
AcDbBlockTableRecord
  2
SEANNOT_GROUP
340
0
102
{BLKREFS
331
61
102
}
  0
BLOCK_RECORD
  5
6B
330
1
100
AcDbSymbolTableRecord
100
AcDbBlockTableRecord
  2
SEANNOT_GROUP1
340
0
102
{BLKREFS
331
6C
102
}
  0
BLOCK_RECORD
  5
71
330
1
100
AcDbSymbolTableRecord
100
AcDbBlockTableRecord
  2
SEANNOT_GROUP2
340
0
102
{BLKREFS
331
72
102
}
  0
BLOCK_RECORD
  5
77
330
1
100
AcDbSymbolTableRecord
100
AcDbBlockTableRecord
  2
SE
340
0
102
{BLKREFS
331
78
102
}
  0
BLOCK_RECORD
  5
174
330
1
100
AcDbSymbolTableRecord
100
AcDbBlockTableRecord
  2
SE1
340
0
102
{BLKREFS
331
175
102
}
  0
BLOCK_RECORD
  5
1A8
330
1
100
AcDbSymbolTableRecord
100
AcDbBlockTableRecord
  2
SE2
340
0
102
{BLKREFS
331
1A9
102
}
  0
ENDTAB
  0
ENDSEC
  0
SECTION
  2
BLOCKS
  0
BLOCK
  5
20
330
1F
100
AcDbEntity
  8
0
100
AcDbBlockBegin
  2
*Model_Space
 70
     0
 10
0.0
 20
0.0
 30
0.0
  3
*Model_Space
  1

  0
ENDBLK
  5
21
330
1F
100
AcDbEntity
  8
0
100
AcDbBlockEnd
  0
BLOCK
  5
1C
330
1B
100
AcDbEntity
 67
     1
  8
0
100
AcDbBlockBegin
  2
*Paper_Space
 70
     0
 10
0.0
 20
0.0
 30
0.0
  3
*Paper_Space
  1

  0
ENDBLK
  5
1D
330
1B
100
AcDbEntity
 67
     1
  8
0
100
AcDbBlockEnd
  0
BLOCK
  5
69
330
60
100
AcDbEntity
  8
0
100
AcDbBlockBegin
  2
SEANNOT_GROUP
 70
     0
 10
0.0
 20
0.0
 30
0.0
  3
SEANNOT_GROUP
  1

  0
LINE
  5
63
330
60
100
AcDbEntity
  8
Default
  6
CENTER2
 62
     7
100
AcDbLine
 10
51.099999553
 20
239.0999999947
 30
0.0
 11
11.100000447
 21
239.0999999947
 31
0.0
  0
LINE
  5
64
330
60
100
AcDbEntity
  8
Default
  6
CENTER2
 62
     7
100
AcDbLine
 10
31.1
 20
259.0999995477
 30
0.0
 11
31.1
 21
219.1000004417
 31
0.0
  0
LINE
  5
65
330
60
100
AcDbEntity
  8
Default
  6
CENTER2
 62
     7
100
AcDbLine
 10
56.0999994412
 20
239.0999999947
 30
0.0
 11
59.35
 21
239.0999999947
 31
0.0
  0
LINE
  5
66
330
60
100
AcDbEntity
  8
Default
  6
CENTER2
 62
     7
100
AcDbLine
 10
31.1
 20
264.0999994359
 30
0.0
 11
31.1
 21
267.3499999947
 31
0.0
  0
LINE
  5
67
330
60
100
AcDbEntity
  8
Default
  6
CENTER2
 62
     7
100
AcDbLine
 10
6.1000005588
 20
239.0999999947
 30
0.0
 11
2.85
 21
239.0999999947
 31
0.0
  0
LINE
  5
68
330
60
100
AcDbEntity
  8
Default
  6
CENTER2
 62
     7
100
AcDbLine
 10
31.1
 20
214.1000005535
 30
0.0
 11
31.1
 21
210.8499999947
 31
0.0
  0
ENDBLK
  5
6A
330
60
100
AcDbEntity
  8
0
100
AcDbBlockEnd
  0
BLOCK
  5
6F
330
6B
100
AcDbEntity
  8
0
100
AcDbBlockBegin
  2
SEANNOT_GROUP1
 70
     0
 10
0.0
 20
0.0
 30
0.0
  3
SEANNOT_GROUP1
  1

  0
LINE
  5
6D
330
6B
100
AcDbEntity
  8
Default
  6
CENTER2
 62
     7
100
AcDbLine
 10
51.099999553
 20
698.9236712122
 30
0.0
 11
11.100000447
 21
698.9236712122
 31
0.0
  0
LINE
  5
6E
330
6B
100
AcDbEntity
  8
Default
  6
CENTER2
 62
     7
100
AcDbLine
 10
31.1
 20
718.9236707652
 30
0.0
 11
31.1
 21
678.9236716592
 31
0.0
  0
ENDBLK
  5
70
330
6B
100
AcDbEntity
  8
0
100
AcDbBlockEnd
  0
BLOCK
  5
75
330
71
100
AcDbEntity
  8
0
100
AcDbBlockBegin
  2
SEANNOT_GROUP2
 70
     0
 10
0.0
 20
0.0
 30
0.0
  3
SEANNOT_GROUP2
  1

  0
LINE
  5
73
330
71
100
AcDbEntity
  8
Default
  6
CENTER2
 62
     7
100
AcDbLine
 10
232.5563552073
 20
698.9236712122
 30
0.0
 11
192.5563561013
 21
698.9236712122
 31
0.0
  0
LINE
  5
74
330
71
100
AcDbEntity
  8
Default
  6
CENTER2
 62
     7
100
AcDbLine
 10
212.5563556543
 20
718.9236707652
 30
0.0
 11
212.5563556543
 21
678.9236716592
 31
0.0
  0
ENDBLK
  5
76
330
71
100
AcDbEntity
  8
0
100
AcDbBlockEnd
  0
BLOCK
  5
172
330
77
100
AcDbEntity
  8
0
100
AcDbBlockBegin
  2
SE
 70
     0
 10
0.0
 20
0.0
 30
0.0
  3
SE
  1

  0
LINE
  5
7A
330
77
100
AcDbEntity
  8
$DDT_AUDIT_GENERATED_(79)
  6
Continuous
 62
     7
100
AcDbLine
 10
51.1
 20
809.4236712122
 30
0.0
 11
11.1
 21
809.4236712122
 31
0.0
  0
LINE
  5
7B
330
77
100
AcDbEntity
  8
$DDT_AUDIT_GENERATED_(79)
  6
Continuous
 62
     7
100
AcDbLine
 10
79.1
 20
795.1236712122
 30
0.0
 11
79.1
 21
755.1236712122
 31
0.0
  0
LINE
  5
7C
330
77
100
AcDbEntity
  8
$DDT_AUDIT_GENERATED_(79)
  6
Continuous
 62
     7
100
AcDbLine
 10
56.0999998454
 20
755.1236712122
 30
0.0
 11
79.1
 21
755.1236712122
 31
0.0
  0
LINE
  5
7D
330
77
100
AcDbEntity
  8
$DDT_AUDIT_GENERATED_(79)
  6
Continuous
 62
     7
100
AcDbLine
 10
79.1
 20
795.1236712122
 30
0.0
 11
56.099999847
 21
795.1236712122
 31
0.0
  0
ARC
  5
7E
330
77
100
AcDbEntity
  8
$DDT_AUDIT_GENERATED_(79)
  6
Continuous
 62
     7
100
AcDbCircle
 10
56.099999857
 20
800.1236710692
 30
0.0
 40
4.999999857026812
100
AcDbArc
 50
180.0000001151
 51
269.9999998849
  0
ARC
  5
7F
330
77
100
AcDbEntity
  8
$DDT_AUDIT_GENERATED_(79)
  6
Continuous
 62
     7
100
AcDbCircle
 10
56.0999998555
 20
750.1236713567
 30
0.0
 40
4.999999855523591
100
AcDbArc
 50
90.0000001163
 51
179.9999998837
  0
LINE
  5
80
330
77
100
AcDbEntity
  8
$DDT_AUDIT_GENERATED_(79)
  6
Continuous
 62
     7
100
AcDbLine
 10
51.1
 20
800.1236710592
 30
0.0
 11
51.1
 21
809.4236712122
 31
0.0
  0
LINE
  5
81
330
77
100
AcDbEntity
  8
$DDT_AUDIT_GENERATED_(79)
  6
Continuous
 62
     7
100
AcDbLine
 10
51.1
 20
703.9236712122
 30
0.0
 11
51.1
 21
750.1236713668
 31
0.0
  0
LINE
  5
82
330
77
100
AcDbEntity
  8
$DDT_AUDIT_GENERATED_(79)
  6
Continuous
 62
     7
100
AcDbLine
 10
11.1
 20
809.4236712122
 30
0.0
 11
11.1
 21
703.9236712122
 31
0.0
  0
ARC
  5
84
330
77
100
AcDbEntity
  8
$DDT_AUDIT_GENERATED_(83)
  6
Continuous
 62
     7
100
AcDbCircle
 10
70.7
 20
775.1236712122
 30
0.0
 40
20.0
100
AcDbArc
 50
294.8345874897
 51
316.5343095755
  0
ARC
  5
85
330
77
100
AcDbEntity
  8
$DDT_AUDIT_GENERATED_(83)
  6
Continuous
 62
     7
100
AcDbCircle
 10
70.7
 20
775.1236712122
 30
0.0
 40
20.0
100
AcDbArc
 50
60.7137457989
 51
65.1654125103
  0
ELLIPSE
  5
87
330
77
100
AcDbEntity
  8
$DDT_AUDIT_GENERATED_(86)
  6
Continuous
 62
     7
100
AcDbEllipse
 10
81.932004193
 20
775.0987259211
 30
0.0
 11
-9.133626562821638
 21
19.95334036254051
 31
0.0
210
0.0
220
0.0
230
1.0
 40
0.1494871894
 41
-3.220375944903006
 42
-3.209913800708689
  0
ELLIPSE
  5
88
330
77
100
AcDbEntity
  8
$DDT_AUDIT_GENERATED_(86)
  6
Continuous
 62
     7
100
AcDbEllipse
 10
81.6623659791
 20
774.9767907262
 30
0.0
 11
-9.138883634346097
 21
19.65163280992538
 31
0.0
210
0.0
220
0.0
230
1.0
 40
0.1509606162
 41
-4.489727745814155
 42
-3.750636323228868
  0
LINE
  5
89
330
77
100
AcDbEntity
  8
$DDT_AUDIT_GENERATED_(86)
  6
Continuous
 62
     7
100
AcDbLine
 10
80.4834644002
 20
770.5651330172
 30
0.0
 11
80.4834644002
 21
794.7987259211
 31
0.0
  0
ARC
  5
8A
330
77
100
AcDbEntity
  8
$DDT_AUDIT_GENERATED_(86)
  6
Continuous
 62
     7
100
AcDbCircle
 10
83.2848308627
 20
770.5600837213
 30
0.0
 40
2.801371013087893
100
AcDbArc
 50
179.8967278884
 51
206.9229170777
  0
LINE
  5
8B
330
77
100
AcDbEntity
  8
$DDT_AUDIT_GENERATED_(86)
  6
Continuous
 62
     7
100
AcDbLine
 10
100.4834644002
 20
794.6602799234
 30
0.0
 11
100.4834644002
 21
844.1318611842
 31
0.0
  0
LINE
  5
8C
330
77
100
AcDbEntity
  8
$DDT_AUDIT_GENERATED_(86)
  6
Continuous
 62
     7
100
AcDbLine
 10
100.4834644002
 20
844.1318611842
 30
0.0
 11
100.4834644002
 21
847.1259792146
 31
0.0
  0
LINE
  5
8D
330
77
100
AcDbEntity
  8
$DDT_AUDIT_GENERATED_(86)
  6
Continuous
 62
     7
100
AcDbLine
 10
100.4834644002
 20
847.1259792146
 30
0.0
 11
100.4834644002
 21
850.1228319619
 31
0.0
  0
LINE
  5
8E
330
77
100
AcDbEntity
  8
$DDT_AUDIT_GENERATED_(86)
  6
Continuous
 62
     7
100
AcDbLine
 10
100.4834644002
 20
850.2903090964
 30
0.0
 11
100.4834644002
 21
850.1228319619
 31
0.0
  0
LINE
  5
8F
330
77
100
AcDbEntity
  8
$DDT_AUDIT_GENERATED_(86)
  6
Continuous
 62
     7
100
AcDbLine
 10
100.4834644002
 20
791.3601192465
 30
0.0
 11
100.4834644002
 21
794.6602799234
 31
0.0
  0
ELLIPSE
  5
90
330
77
100
AcDbEntity
  8
$DDT_AUDIT_GENERATED_(86)
  6
Continuous
 62
     7
100
AcDbEllipse
 10
98.9834644002
 20
796.5663870609
 30
0.0
 11
1.49999999999996
 21
2.220446049250313E-13
 31
0.0
210
0.0
220
0.0
230
1.0
 40
0.998495867
 41
5.97259373716712
 42
6.283185307179586
  0
ARC
  5
91
330
77
100
AcDbEntity
  8
$DDT_AUDIT_GENERATED_(86)
  6
Continuous
 62
     7
100
AcDbCircle
 10
54.2990985922
 20
848.6244055882
 30
0.0
 40
56.18436272996313
100
AcDbArc
 50
358.4690730606
 51
1.5309269394
  0
SPLINE
  5
92
330
77
100
AcDbEntity
  8
$DDT_AUDIT_GENERATED_(86)
  6
Continuous
 62
     7
100
AcDbSpline
210
0.0
220
0.0
230
1.0
 70
     8
 71
     3
 72
    17
 73
    13
 74
     0
 42
0.0000000022223982
 43
0.0000000001
 40
0.0
 40
0.0
 40
0.0
 40
0.0
 40
0.0635348389760288
 40
0.1812110302023149
 40
0.2981296195149991
 40
0.4144259712345372
 40
0.5303246204744582
 40
0.646156973401824
 40
0.7622227544622274
 40
0.8787622809807949
 40
0.9768850797372698
 40
1.0
 40
1.0
 40
1.0
 40
1.0
 10
87.49021455258034
 20
758.0160403638276
 30
0.0
 10
87.5837379347389
 20
757.891670948814
 30
0.0
 10
87.80996253614194
 20
757.5915613257899
 30
0.0
 10
88.19856812521513
 20
757.1133031872591
 30
0.0
 10
88.62431582986457
 20
756.6215866059822
 30
0.0
 10
89.03005115230441
 20
756.1934059055974
 30
0.0
 10
89.41227929376764
 20
755.8323612664498
 30
0.0
 10
89.77299983968439
 20
755.538829443718
 30
0.0
 10
90.1161390134329
 20
755.3117669281087
 30
0.0
 10
90.4251329891837
 20
755.1707746065562
 30
0.0
 10
90.65422915780434
 20
755.103047646027
 30
0.0
 10
90.76119997897793
 20
755.1057073462046
 30
0.0
 10
90.78501300881449
 20
755.1063867559536
 30
0.0
  0
ARC
  5
93
330
77
100
AcDbEntity
  8
$DDT_AUDIT_GENERATED_(86)
  6
Continuous
 62
     7
100
AcDbCircle
 10
80.7834644002
 20
794.7987259211
 30
0.0
 40
0.2999999999999947
100
AcDbArc
 50
90.0
 51
180.0
  0
ARC
  5
94
330
77
100
AcDbEntity
  8
$DDT_AUDIT_GENERATED_(86)
  6
Continuous
 62
     7
100
AcDbCircle
 10
101.1834644002
 20
850.2903090964
 30
0.0
 40
0.7000000000000062
100
AcDbArc
 50
90.0
 51
180.0
  0
ARC
  5
95
330
77
100
AcDbEntity
  8
$DDT_AUDIT_GENERATED_(86)
  6
Continuous
 62
     7
100
AcDbCircle
 10
99.023104349
 20
796.5409139645
 30
0.0
 40
1.45028336064064
100
AcDbArc
 50
275.3297210636
 51
342.8046329584
  0
ARC
  5
96
330
77
100
AcDbEntity
  8
$DDT_AUDIT_GENERATED_(86)
  6
Continuous
 62
     7
100
AcDbCircle
 10
-289.7665356
 20
775.0987259211
 30
0.0
 40
400.2500000001536
100
AcDbArc
 50
357.231287626
 51
0.0
  0
LINE
  5
97
330
77
100
AcDbEntity
  8
$DDT_AUDIT_GENERATED_(86)
  6
Continuous
 62
     7
100
AcDbLine
 10
109.7538873398
 20
850.9903090964
 30
0.0
 11
101.1834644002
 21
850.9903090964
 31
0.0
  0
LINE
  5
98
330
77
100
AcDbEntity
  8
$DDT_AUDIT_GENERATED_(86)
  6
Continuous
 62
     7
100
AcDbLine
 10
90.8406944879
 20
755.0987259211
 30
0.0
 11
109.317055268
 21
755.0987259211
 31
0.0
  0
LINE
  5
99
330
77
100
AcDbEntity
  8
$DDT_AUDIT_GENERATED_(86)
  6
Continuous
 62
     7
100
AcDbLine
 10
99.1547568738
 20
795.0987259211
 30
0.0
 11
80.7834644002
 21
795.0987259211
 31
0.0
  0
LINE
  5
9A
330
77
100
AcDbEntity
  8
$DDT_AUDIT_GENERATED_(86)
  6
Continuous
 62
     7
100
AcDbLine
 10
110.4834644002
 20
775.0987259211
 30
0.0
 11
110.4834644002
 21
848.6244055882
 31
0.0
  0
ARC
  5
9B
330
77
100
AcDbEntity
  8
$DDT_AUDIT_GENERATED_(86)
  6
Continuous
 62
     7
100
AcDbCircle
 10
109.317055268
 20
755.7987259211
 30
0.0
 40
0.7000000000000062
100
AcDbArc
 50
270.0
 51
357.231287626
  0
SPLINE
  5
9C
330
77
100
AcDbEntity
  8
$DDT_AUDIT_GENERATED_(86)
  6
Continuous
 62
     7
100
AcDbSpline
210
0.0
220
0.0
230
1.0
 70
     8
 71
     3
 72
    17
 73
    13
 74
     0
 42
0.0000000080583544
 43
0.0000000001
 40
0.0
 40
0.0
 40
0.0
 40
0.0
 40
0.0856158748971941
 40
0.3208574221505953
 40
0.3922793441625578
 40
0.4365031618387017
 40
0.498200116137871
 40
0.579581931041815
 40
0.7039421824068233
 40
0.8189064512389785
 40
0.9435496174985083
 40
1.0
 40
1.0
 40
1.0
 40
1.0
 10
110.4624121414749
 20
850.1584710690512
 30
0.0
 10
110.4618839076996
 20
850.1806120430065
 30
0.0
 10
110.459937394028
 20
850.2531926470073
 30
0.0
 10
110.4577641827175
 20
850.2993816514281
 30
0.0
 10
110.450776431825
 20
850.3730660219614
 30
0.0
 10
110.4391569977601
 20
850.4422267804503
 30
0.0
 10
110.4120096194124
 20
850.5397626119495
 30
0.0
 10
110.3470231715662
 20
850.676061221784
 30
0.0
 10
110.2281848131684
 20
850.8191823384112
 30
0.0
 10
110.0545624346252
 20
850.9320019728799
 30
0.0
 10
109.8862615759909
 20
850.9896114593738
 30
0.0
 10
109.789162944497
 20
850.9841417870116
 30
0.0
 10
109.7539003283153
 20
850.9817812269924
 30
0.0
  0
LINE
  5
9E
330
77
100
AcDbEntity
  8
$DDT_AUDIT_GENERATED_(9D)
  6
Continuous
 62
     7
100
AcDbLine
 10
55.85
 20
698.9236712122
 30
0.0
 11
6.35
 21
698.9236712122
 31
0.0
  0
LINE
  5
9F
330
77
100
AcDbEntity
  8
$DDT_AUDIT_GENERATED_(9D)
  6
Continuous
 62
     7
100
AcDbLine
 10
7.05
 20
703.9236712122
 30
0.0
 11
55.15
 21
703.9236712122
 31
0.0
  0
LINE
  5
A0
330
77
100
AcDbEntity
  8
$DDT_AUDIT_GENERATED_(9D)
  6
Continuous
 62
     7
100
AcDbLine
 10
55.85
 20
698.9236712122
 30
0.0
 11
55.85
 21
703.2236712122
 31
0.0
  0
LINE
  5
A1
330
77
100
AcDbEntity
  8
$DDT_AUDIT_GENERATED_(9D)
  6
Continuous
 62
     7
100
AcDbLine
 10
6.35
 20
703.2236712122
 30
0.0
 11
6.35
 21
698.9236712122
 31
0.0
  0
ARC
  5
A2
330
77
100
AcDbEntity
  8
$DDT_AUDIT_GENERATED_(9D)
  6
Continuous
 62
     7
100
AcDbCircle
 10
55.15
 20
703.2236712122
 30
0.0
 40
0.6999999999999993
100
AcDbArc
 50
0.0
 51
90.0
  0
ARC
  5
A3
330
77
100
AcDbEntity
  8
$DDT_AUDIT_GENERATED_(9D)
  6
Continuous
 62
     7
100
AcDbCircle
 10
7.05
 20
703.2236712122
 30
0.0
 40
0.7000000000000001
100
AcDbArc
 50
90.0
 51
180.0
  0
LINE
  5
A5
330
77
100
AcDbEntity
  8
$DDT_AUDIT_GENERATED_(A4)
  6
Continuous
 62
     7
100
AcDbLine
 10
17.735
 20
809.4236712122
 30
0.0
 11
17.735
 21
913.8336745254
 31
0.0
  0
LINE
  5
A6
330
77
100
AcDbEntity
  8
$DDT_AUDIT_GENERATED_(A4)
  6
Continuous
 62
     7
100
AcDbLine
 10
17.735
 20
936.5336711943
 30
0.0
 11
17.735
 21
954.1336712122
 31
0.0
  0
LINE
  5
A7
330
77
100
AcDbEntity
  8
$DDT_AUDIT_GENERATED_(A4)
  6
Continuous
 62
     7
100
AcDbLine
 10
17.735
 20
913.8336745254
 30
0.0
 11
17.735
 21
936.5336712122
 31
0.0
  0
LINE
  5
A8
330
77
100
AcDbEntity
  8
$DDT_AUDIT_GENERATED_(A4)
  6
Continuous
 62
     7
100
AcDbLine
 10
44.465
 20
809.4236712122
 30
0.0
 11
44.465
 21
913.8336741572
 31
0.0
  0
LINE
  5
A9
330
77
100
AcDbEntity
  8
$DDT_AUDIT_GENERATED_(A4)
  6
Continuous
 62
     7
100
AcDbLine
 10
44.465
 20
954.1336712122
 30
0.0
 11
44.465
 21
936.5336712122
 31
0.0
  0
LINE
  5
AA
330
77
100
AcDbEntity
  8
$DDT_AUDIT_GENERATED_(A4)
  6
Continuous
 62
     7
100
AcDbLine
 10
44.465
 20
936.5336712122
 30
0.0
 11
44.465
 21
913.8336741572
 31
0.0
  0
ARC
  5
AB
330
77
100
AcDbEntity
  8
$DDT_AUDIT_GENERATED_(A4)
  6
Continuous
 62
     7
100
AcDbCircle
 10
18.435
 20
954.1336712122
 30
0.0
 40
0.6999999999999993
100
AcDbArc
 50
89.9999797611
 51
180.0000007321
  0
ARC
  5
AC
330
77
100
AcDbEntity
  8
$DDT_AUDIT_GENERATED_(A4)
  6
Continuous
 62
     7
100
AcDbCircle
 10
18.4350009443
 20
936.5336712122
 30
0.0
 40
0.699999999999999
100
AcDbArc
 50
180.0000007322
 51
269.9999613527
  0
ARC
  5
AD
330
77
100
AcDbEntity
  8
$DDT_AUDIT_GENERATED_(A4)
  6
Continuous
 62
     7
100
AcDbCircle
 10
43.765
 20
936.5336712122
 30
0.0
 40
0.6999999999999993
100
AcDbArc
 50
270.0
 51
0.0
  0
ARC
  5
AE
330
77
100
AcDbEntity
  8
$DDT_AUDIT_GENERATED_(A4)
  6
Continuous
 62
     7
100
AcDbCircle
 10
43.765
 20
954.1336712122
 30
0.0
 40
0.6999999999999784
100
AcDbArc
 50
0.0
 51
90.0
  0
LINE
  5
AF
330
77
100
AcDbEntity
  8
$DDT_AUDIT_GENERATED_(A4)
  6
Continuous
 62
     7
100
AcDbLine
 10
37.2649998213
 20
954.8336712122
 30
0.0
 11
43.765
 21
954.8336712122
 31
0.0
  0
LINE
  5
B0
330
77
100
AcDbEntity
  8
$DDT_AUDIT_GENERATED_(A4)
  6
Continuous
 62
     7
100
AcDbLine
 10
24.9349996485
 20
954.8336712122
 30
0.0
 11
37.2649998213
 21
954.8336712122
 31
0.0
  0
LINE
  5
B1
330
77
100
AcDbEntity
  8
$DDT_AUDIT_GENERATED_(A4)
  6
Continuous
 62
     7
100
AcDbLine
 10
18.4350002473
 20
954.8336712122
 30
0.0
 11
24.9349996485
 21
954.8336712122
 31
0.0
  0
LINE
  5
B2
330
77
100
AcDbEntity
  8
$DDT_AUDIT_GENERATED_(A4)
  6
Continuous
 62
     7
100
AcDbLine
 10
18.4350004722
 20
935.8336712122
 30
0.0
 11
24.9350002249
 21
935.8336712122
 31
0.0
  0
LINE
  5
B3
330
77
100
AcDbEntity
  8
$DDT_AUDIT_GENERATED_(A4)
  6
Continuous
 62
     7
100
AcDbLine
 10
37.2649998386
 20
935.8336712122
 30
0.0
 11
24.9350002249
 21
935.8336712122
 31
0.0
  0
LINE
  5
B4
330
77
100
AcDbEntity
  8
$DDT_AUDIT_GENERATED_(A4)
  6
Continuous
 62
     7
100
AcDbLine
 10
43.765
 20
935.8336712122
 30
0.0
 11
37.2649998386
 21
935.8336712122
 31
0.0
  0
ELLIPSE
  5
B6
330
77
100
AcDbEntity
  8
$DDT_AUDIT_GENERATED_(B5)
  6
Continuous
 62
     7
100
AcDbEllipse
 10
31.1
 20
924.8050948682
 30
0.0
 11
10.075
 21
0.0
 31
0.0
210
0.0
220
0.0
230
1.0
 40
0.2588190451
 41
0.0
 42
6.283185307179586
  0
LINE
  5
B7
330
77
100
AcDbEntity
  8
$DDT_AUDIT_GENERATED_(B5)
  6
Continuous
 62
     7
100
AcDbLine
 10
42.675
 20
925.7710206945
 30
0.0
 11
42.675
 21
935.8336712122
 31
0.0
  0
LINE
  5
B8
330
77
100
AcDbEntity
  8
$DDT_AUDIT_GENERATED_(B5)
  6
Continuous
 62
     7
100
AcDbLine
 10
19.525
 20
935.8336712122
 30
0.0
 11
19.525
 21
925.7710206945
 31
0.0
  0
SPLINE
  5
B9
330
77
100
AcDbEntity
  8
$DDT_AUDIT_GENERATED_(B5)
  6
Continuous
 62
     7
100
AcDbSpline
210
0.0
220
0.0
230
1.0
 70
     8
 71
     3
 72
    47
 73
    43
 74
     0
 42
0.0000000003856609
 43
0.0000000001
 40
0.0
 40
0.0
 40
0.0
 40
0.0
 40
0.0139621892337382
 40
0.0328180599147142
 40
0.0519502305065046
 40
0.0721899305962531
 40
0.0943875405746071
 40
0.1192408422384944
 40
0.1466704319259102
 40
0.1753649238176352
 40
0.2037605247051208
 40
0.2315918364955739
 40
0.2589546564838863
 40
0.2859738055596414
 40
0.3127460978055316
 40
0.3393404147462706
 40
0.3658054826560253
 40
0.3921764143476366
 40
0.4184792481306085
 40
0.44473398875888
 40
0.4709566672690264
 40
0.4971607859342366
 40
0.5233583915377666
 40
0.5495594644996762
 40
0.5757732446344646
 40
0.602011999675185
 40
0.6282895889497231
 40
0.6546225417517294
 40
0.681031504745165
 40
0.7075432930241518
 40
0.7341939005132752
 40
0.7610329890431238
 40
0.7881304867315194
 40
0.8155854122765261
 40
0.8435330853542663
 40
0.8721264003505907
 40
0.9013777374564376
 40
0.9251987936361836
 40
0.9463940069622994
 40
0.9657992386506026
 40
0.9841850182061461
 40
1.0
 40
1.0
 40
1.0
 40
1.0
 10
19.53259746702689
 20
925.7723415121723
 30
0.0
 10
19.53308792658282
 20
925.6750251322728
 30
0.0
 10
19.53583142181013
 20
925.4820893450989
 30
0.0
 10
19.6254636025911
 20
925.1599429155273
 30
0.0
 10
19.77741006826533
 20
924.8422312203177
 30
0.0
 10
19.99041895987103
 20
924.5437931406165
 30
0.0
 10
20.26626100817462
 20
924.2602387387066
 30
0.0
 10
20.61710184906415
 20
923.9848768155027
 30
0.0
 10
21.05101720051126
 20
923.7186954414811
 30
0.0
 10
21.5641192181641
 20
923.46767605846
 30
0.0
 10
22.14228207587013
 20
923.2373962484273
 30
0.0
 10
22.77165407779406
 20
923.0297251459679
 30
0.0
 10
23.44698277519128
 20
922.8431739196504
 30
0.0
 10
24.16543011580424
 20
922.6763603110502
 30
0.0
 10
24.92406368131713
 20
922.5285795597597
 30
0.0
 10
25.71935324555804
 20
922.3996226326436
 30
0.0
 10
26.54716940382358
 20
922.2895652516153
 30
0.0
 10
27.40288066102758
 20
922.1986217316602
 30
0.0
 10
28.28145614000587
 20
922.1270522440814
 30
0.0
 10
29.17755767316193
 20
922.0751045382781
 30
0.0
 10
30.08562130281706
 20
922.0429773127063
 30
0.0
 10
30.99993101354401
 20
922.0307975864841
 30
0.0
 10
31.91467021300492
 20
922.0386075723864
 30
0.0
 10
32.82397720440459
 20
922.0663566167002
 30
0.0
 10
33.72203654298325
 20
922.1138997728457
 30
0.0
 10
34.60316066805004
 20
922.1810060222039
 30
0.0
 10
35.46186347082743
 20
922.2673749073166
 30
0.0
 10
36.29290407768242
 20
922.3726585472763
 30
0.0
 10
37.091363755613
 20
922.4964982298484
 30
0.0
 10
37.85273293938317
 20
922.6385824951909
 30
0.0
 10
38.57301335042579
 20
922.7987408472289
 30
0.0
 10
39.24883939870394
 20
922.9770985469761
 30
0.0
 10
39.87761981481304
 20
923.1743410494926
 30
0.0
 10
40.45765412655801
 20
923.3921661061951
 30
0.0
 10
40.98807515411779
 20
923.634048978752
 30
0.0
 10
41.46773804714665
 20
923.9061609652578
 30
0.0
 10
41.86562398441352
 20
924.1982102780988
 30
0.0
 10
42.17718356010467
 20
924.5044693771315
 30
0.0
 10
42.40496717728873
 20
924.812176094233
 30
0.0
 10
42.56352729899448
 20
925.1310748060444
 30
0.0
 10
42.66050505993262
 20
925.4606695406229
 30
0.0
 10
42.66649478993639
 20
925.661323257831
 30
0.0
 10
42.66868473081574
 20
925.7715653371354
 30
0.0
  0
ELLIPSE
  5
BB
330
77
100
AcDbEntity
  8
$DDT_AUDIT_GENERATED_(BA)
  6
Continuous
 62
     7
100
AcDbEllipse
 10
31.1
 20
924.5636134117
 30
0.0
 11
9.000000000000005
 21
0.0
 31
0.0
210
0.0
220
0.0
230
1.0
 40
0.2588190451
 41
0.0
 42
6.283185307179586
  0
ELLIPSE
  5
BC
330
77
100
AcDbEntity
  8
$DDT_AUDIT_GENERATED_(BA)
  6
Continuous
 62
     7
100
AcDbEllipse
 10
31.1
 20
924.5636134117
 30
0.0
 11
-5.249999999999998
 21
0.0
 31
0.0
210
0.0
220
0.0
230
1.0
 40
0.2588190451
 41
0.0
 42
6.283185307179586
  0
ELLIPSE
  5
BD
330
77
100
AcDbEntity
  8
$DDT_AUDIT_GENERATED_(BA)
  6
Continuous
 62
     7
100
AcDbEllipse
 10
31.1
 20
924.5636134117
 30
0.0
 11
-6.249999999999999
 21
0.0
 31
0.0
210
0.0
220
0.0
230
1.0
 40
0.2588190451
 41
0.0
 42
6.283185307179586
  0
ELLIPSE
  5
BE
330
77
100
AcDbEntity
  8
$DDT_AUDIT_GENERATED_(BA)
  6
Continuous
 62
     7
100
AcDbEllipse
 10
31.1
 20
924.5636134117
 30
0.0
 11
2.750000000000003
 21
0.0
 31
0.0
210
0.0
220
0.0
230
1.0
 40
0.2588190451
 41
0.0
 42
6.283185307179586
  0
ELLIPSE
  5
BF
330
77
100
AcDbEntity
  8
$DDT_AUDIT_GENERATED_(BA)
  6
Continuous
 62
     7
100
AcDbEllipse
 10
31.1
 20
924.5636134117
 30
0.0
 11
2.150000000000001
 21
0.0
 31
0.0
210
0.0
220
0.0
230
1.0
 40
0.2588190451
 41
0.0
 42
6.283185307179586
  0
ELLIPSE
  5
C0
330
77
100
AcDbEntity
  8
$DDT_AUDIT_GENERATED_(BA)
  6
Continuous
 62
     7
100
AcDbEllipse
 10
31.1
 20
924.7567985769
 30
0.0
 11
0.5196299438963559
 21
0.0
 31
0.0
210
0.0
220
0.0
230
1.0
 40
0.2588190451
 41
0.0
 42
6.283185307179586
  0
ELLIPSE
  5
C1
330
77
100
AcDbEntity
  8
$DDT_AUDIT_GENERATED_(BA)
  6
Continuous
 62
     7
100
AcDbEllipse
 10
31.1
 20
924.5636134117
 30
0.0
 11
-8.699999999999998
 21
0.0
 31
0.0
210
0.0
220
0.0
230
1.0
 40
0.2588190451
 41
0.0
 42
6.283185307179586
  0
ARC
  5
C2
330
77
100
AcDbEntity
  8
$DDT_AUDIT_GENERATED_(BA)
  6
Continuous
 62
     7
100
AcDbCircle
 10
31.1
 20
902.2291560432
 30
0.0
 40
24.14526157799552
100
AcDbArc
 50
89.7627031576
 51
90.2372968424
  0
LINE
  5
C3
330
77
100
AcDbEntity
  8
$DDT_AUDIT_GENERATED_(BA)
  6
Continuous
 62
     7
100
AcDbLine
 10
31.2
 20
926.3742105403
 30
0.0
 11
31.2
 21
926.8151903526
 31
0.0
  0
LINE
  5
C4
330
77
100
AcDbEntity
  8
$DDT_AUDIT_GENERATED_(BA)
  6
Continuous
 62
     7
100
AcDbLine
 10
31.0
 20
926.3742105403
 30
0.0
 11
31.0
 21
926.8151903526
 31
0.0
  0
ELLIPSE
  5
C5
330
77
100
AcDbEntity
  8
$DDT_AUDIT_GENERATED_(BA)
  6
Continuous
 62
     7
100
AcDbEllipse
 10
31.1
 20
924.995670134
 30
0.0
 11
-0.5196299438963587
 21
0.0
 31
0.0
210
0.0
220
0.0
230
1.0
 40
0.2588190451
 41
-1.125627025772291
 42
-1.068874045770566
  0
ELLIPSE
  5
C6
330
77
100
AcDbEntity
  8
$DDT_AUDIT_GENERATED_(BA)
  6
Continuous
 62
     7
100
AcDbEllipse
 10
31.1
 20
924.995670134
 30
0.0
 11
-0.5196299438963587
 21
0.0
 31
0.0
210
0.0
220
0.0
230
1.0
 40
0.2588190451
 41
4.210466699360374
 42
4.267219679362121
  0
LINE
  5
C7
330
77
100
AcDbEntity
  8
$DDT_AUDIT_GENERATED_(BA)
  6
Continuous
 62
     7
100
AcDbLine
 10
30.85
 20
925.1162996512
 30
0.0
 11
30.85
 21
925.1135721604
 31
0.0
  0
LINE
  5
C8
330
77
100
AcDbEntity
  8
$DDT_AUDIT_GENERATED_(BA)
  6
Continuous
 62
     7
100
AcDbLine
 10
31.35
 20
925.1162996512
 30
0.0
 11
31.35
 21
925.1135721604
 31
0.0
  0
LINE
  5
C9
330
77
100
AcDbEntity
  8
$DDT_AUDIT_GENERATED_(BA)
  6
Continuous
 62
     7
100
AcDbLine
 10
33.0743242009
 20
924.7753629812
 30
0.0
 11
31.6196299439
 21
924.9927368463
 31
0.0
  0
LINE
  5
CA
330
77
100
AcDbEntity
  8
$DDT_AUDIT_GENERATED_(BA)
  6
Continuous
 62
     7
100
AcDbLine
 10
33.0743242009
 20
924.7839205644
 30
0.0
 11
33.0743242009
 21
924.7753629812
 31
0.0
  0
LINE
  5
CB
330
77
100
AcDbEntity
  8
$DDT_AUDIT_GENERATED_(BA)
  6
Continuous
 62
     7
100
AcDbLine
 10
32.8243242009
 20
924.6632910472
 30
0.0
 11
31.6196299439
 21
924.8433076009
 31
0.0
  0
ELLIPSE
  5
CC
330
77
100
AcDbEntity
  8
$DDT_AUDIT_GENERATED_(BA)
  6
Continuous
 62
     7
100
AcDbEllipse
 10
31.1
 20
924.995670134
 30
0.0
 11
2.15000000000131
 21
-7.771561172376096E-13
 31
0.0
210
0.0
220
0.0
230
1.0
 40
0.2588190451
 41
-0.6401414840474029
 42
-0.4070560671487149
  0
LINE
  5
CD
330
77
100
AcDbEntity
  8
$DDT_AUDIT_GENERATED_(BA)
  6
Continuous
 62
     7
100
AcDbLine
 10
29.3756757991
 20
924.6632910472
 30
0.0
 11
30.5803700561
 21
924.8433076009
 31
0.0
  0
LINE
  5
CE
330
77
100
AcDbEntity
  8
$DDT_AUDIT_GENERATED_(BA)
  6
Continuous
 62
     7
100
AcDbLine
 10
29.1256757991
 20
924.7753629812
 30
0.0
 11
30.5803700561
 21
924.9927368463
 31
0.0
  0
ELLIPSE
  5
CF
330
77
100
AcDbEntity
  8
$DDT_AUDIT_GENERATED_(BA)
  6
Continuous
 62
     7
100
AcDbEllipse
 10
31.1
 20
924.995670134
 30
0.0
 11
-2.150000000002894
 21
-9.992007221626409E-13
 31
0.0
210
0.0
220
0.0
230
1.0
 40
0.2588190451
 41
0.407056067148604
 42
0.6401414840470908
  0
LINE
  5
D0
330
77
100
AcDbEntity
  8
$DDT_AUDIT_GENERATED_(BA)
  6
Continuous
 62
     7
100
AcDbLine
 10
29.1256757991
 20
924.7839205644
 30
0.0
 11
29.1256757991
 21
924.7753629812
 31
0.0
  0
ELLIPSE
  5
D1
330
77
100
AcDbEntity
  8
$DDT_AUDIT_GENERATED_(BA)
  6
Continuous
 62
     7
100
AcDbEllipse
 10
31.0999999849
 20
924.7567985623
 30
0.0
 11
6.250000031206222
 21
4.058420266517260E-9
 31
0.0
210
0.0
220
0.0
230
1.0
 40
0.2588190462
 41
1.292996254988387
 42
1.324997620329209
  0
LINE
  5
D2
330
77
100
AcDbEntity
  8
$DDT_AUDIT_GENERATED_(BA)
  6
Continuous
 62
     7
100
AcDbLine
 10
32.814004546
 20
926.3123998343
 30
0.0
 11
33.2615865672
 21
926.744730868
 31
0.0
  0
LINE
  5
D3
330
77
100
AcDbEntity
  8
$DDT_AUDIT_GENERATED_(BA)
  6
Continuous
 62
     7
100
AcDbLine
 10
32.6208193808
 20
926.3257972939
 30
0.0
 11
33.0672516172
 21
926.7570177208
 31
0.0
  0
LINE
  5
D4
330
77
100
AcDbEntity
  8
$DDT_AUDIT_GENERATED_(BA)
  6
Continuous
 62
     7
100
AcDbLine
 10
32.6208193808
 20
926.3257972939
 30
0.0
 11
32.6208193808
 21
926.7806687189
 31
0.0
  0
ELLIPSE
  5
D5
330
77
100
AcDbEntity
  8
$DDT_AUDIT_GENERATED_(BA)
  6
Continuous
 62
     7
100
AcDbEllipse
 10
31.0999999712
 20
924.756798564
 30
0.0
 11
6.250000035997988
 21
6.918632333707820E-9
 31
0.0
210
0.0
220
0.0
230
1.0
 40
0.2588190457
 41
1.031196866243683
 42
1.063198231586847
  0
LINE
  5
D6
330
77
100
AcDbEntity
  8
$DDT_AUDIT_GENERATED_(BA)
  6
Continuous
 62
     7
100
AcDbLine
 10
34.3112025148
 20
926.1445774734
 30
0.0
 11
35.2112520738
 21
926.5480586525
 31
0.0
  0
LINE
  5
D7
330
77
100
AcDbEntity
  8
$DDT_AUDIT_GENERATED_(BA)
  6
Continuous
 62
     7
100
AcDbLine
 10
34.137997434
 20
926.1704593779
 30
0.0
 11
35.0337530424
 21
926.5720156316
 31
0.0
  0
LINE
  5
D8
330
77
100
AcDbEntity
  8
$DDT_AUDIT_GENERATED_(BA)
  6
Continuous
 62
     7
100
AcDbLine
 10
34.137997434
 20
926.1704593779
 30
0.0
 11
34.137997434
 21
926.6735930612
 31
0.0
  0
ELLIPSE
  5
D9
330
77
100
AcDbEntity
  8
$DDT_AUDIT_GENERATED_(BA)
  6
Continuous
 62
     7
100
AcDbEllipse
 10
31.1000000438
 20
924.7567985883
 30
0.0
 11
6.249999953539148
 21
-8.640754778355131E-9
 31
0.0
210
0.0
220
0.0
230
1.0
 40
0.2588190451
 41
0.7693974834061295
 42
0.8013988490554468
  0
LINE
  5
DA
330
77
100
AcDbEntity
  8
$DDT_AUDIT_GENERATED_(BA)
  6
Continuous
 62
     7
100
AcDbLine
 10
35.5895623389
 20
925.882180274
 30
0.0
 11
36.9418930474
 21
926.2321892167
 31
0.0
  0
LINE
  5
DB
330
77
100
AcDbEntity
  8
$DDT_AUDIT_GENERATED_(BA)
  6
Continuous
 62
     7
100
AcDbLine
 10
35.4481409827
 20
925.9187828144
 30
0.0
 11
36.7918758607
 21
926.2665669924
 31
0.0
  0
LINE
  5
DC
330
77
100
AcDbEntity
  8
$DDT_AUDIT_GENERATED_(BA)
  6
Continuous
 62
     7
100
AcDbLine
 10
35.4481409827
 20
925.9187828144
 30
0.0
 11
35.4481409827
 21
926.5139427761
 31
0.0
  0
ELLIPSE
  5
DD
330
77
100
AcDbEntity
  8
$DDT_AUDIT_GENERATED_(BA)
  6
Continuous
 62
     7
100
AcDbEllipse
 10
31.0999999496
 20
924.7567985694
 30
0.0
 11
6.250000050902698
 21
7.026712545155078E-9
 31
0.0
210
0.0
220
0.0
230
1.0
 40
0.2588190445
 41
0.5075980906211055
 42
0.5395994559628088
  0
LINE
  5
DE
330
77
100
AcDbEntity
  8
$DDT_AUDIT_GENERATED_(BA)
  6
Continuous
 62
     7
100
AcDbLine
 10
36.561965909
 20
925.5430901718
 30
0.0
 11
38.3463412454
 21
925.8097280318
 31
0.0
  0
LINE
  5
DF
330
77
100
AcDbEntity
  8
$DDT_AUDIT_GENERATED_(BA)
  6
Continuous
 62
     7
100
AcDbLine
 10
36.461965909
 20
925.5879189454
 30
0.0
 11
38.2334355729
 21
925.8526283205
 31
0.0
  0
LINE
  5
E0
330
77
100
AcDbEntity
  8
$DDT_AUDIT_GENERATED_(BA)
  6
Continuous
 62
     7
100
AcDbLine
 10
36.461965909
 20
925.5879189454
 30
0.0
 11
36.461965909
 21
926.107974933
 31
0.0
  0
ELLIPSE
  5
E1
330
77
100
AcDbEntity
  8
$DDT_AUDIT_GENERATED_(BA)
  6
Continuous
 62
     7
100
AcDbEllipse
 10
31.0999999692
 20
924.7567985748
 30
0.0
 11
6.250000030813838
 21
2.195882364830481E-9
 31
0.0
210
0.0
220
0.0
230
1.0
 40
0.2588190445
 41
0.2457987043660786
 42
0.2778000697750959
  0
LINE
  5
E2
330
77
100
AcDbEntity
  8
$DDT_AUDIT_GENERATED_(BA)
  6
Continuous
 62
     7
100
AcDbLine
 10
37.1621455287
 20
925.1504155968
 30
0.0
 11
39.3214002341
 21
925.3001606753
 31
0.0
  0
LINE
  5
E3
330
77
100
AcDbEntity
  8
$DDT_AUDIT_GENERATED_(BA)
  6
Continuous
 62
     7
100
AcDbLine
 10
37.1103817197
 20
925.2004155968
 30
0.0
 11
39.2535706621
 21
925.3490465089
 31
0.0
  0
LINE
  5
E4
330
77
100
AcDbEntity
  8
$DDT_AUDIT_GENERATED_(BA)
  6
Continuous
 62
     7
100
AcDbLine
 10
37.1103817197
 20
925.2004155968
 30
0.0
 11
37.1103817197
 21
925.6250395326
 31
0.0
  0
ARC
  5
E5
330
77
100
AcDbEntity
  8
$DDT_AUDIT_GENERATED_(BA)
  6
Continuous
 62
     7
100
AcDbCircle
 10
39.0300591161
 20
924.7567985769
 30
0.0
 40
0.5699406006661336
100
AcDbArc
 50
357.3972128852
 51
2.6027871148
  0
ELLIPSE
  5
E6
330
77
100
AcDbEntity
  8
$DDT_AUDIT_GENERATED_(BA)
  6
Continuous
 62
     7
100
AcDbEllipse
 10
31.1
 20
924.7567985769
 30
0.0
 11
8.50000000002653
 21
1.276756478318930E-12
 31
0.0
210
0.0
220
0.0
230
1.0
 40
0.2588190451
 41
0.0117649772881308
 42
0.2291964447861269
  0
ARC
  5
E7
330
77
100
AcDbEntity
  8
$DDT_AUDIT_GENERATED_(BA)
  6
Continuous
 62
     7
100
AcDbCircle
 10
36.9305829289
 20
924.7567985769
 30
0.0
 40
0.4194163591648773
100
AcDbArc
 50
0.0
 51
3.537932298
  0
LINE
  5
E8
330
77
100
AcDbEntity
  8
$DDT_AUDIT_GENERATED_(BA)
  6
Continuous
 62
     7
100
AcDbLine
 10
37.35
 20
924.7309166724
 30
0.0
 11
39.5994117444
 21
924.7309166724
 31
0.0
  0
LINE
  5
E9
330
77
100
AcDbEntity
  8
$DDT_AUDIT_GENERATED_(BA)
  6
Continuous
 62
     7
100
AcDbLine
 10
37.3491999488
 20
924.7826804814
 30
0.0
 11
39.5994117444
 21
924.7826804814
 31
0.0
  0
LINE
  5
EA
330
77
100
AcDbEntity
  8
$DDT_AUDIT_GENERATED_(BA)
  6
Continuous
 62
     7
100
AcDbLine
 10
37.3491999488
 20
924.7826804814
 30
0.0
 11
37.3491999488
 21
925.1633878871
 31
0.0
  0
ELLIPSE
  5
EB
330
77
100
AcDbEntity
  8
$DDT_AUDIT_GENERATED_(BA)
  6
Continuous
 62
     7
100
AcDbEllipse
 10
31.1000004554
 20
924.7567985454
 30
0.0
 11
8.499999544289805
 21
3.267219828018142E-8
 31
0.0
210
0.0
220
0.0
230
1.0
 40
0.2588190513
 41
-0.2735643733427766
 42
-0.2500344181140095
  0
ELLIPSE
  5
EC
330
77
100
AcDbEntity
  8
$DDT_AUDIT_GENERATED_(BA)
  6
Continuous
 62
     7
100
AcDbEllipse
 10
31.1
 20
924.7567985769
 30
0.0
 11
8.500000000029793
 21
-1.387778780781446E-12
 31
0.0
210
0.0
220
0.0
230
1.0
 40
0.2588190451
 41
6.033150896669008
 42
6.271420329891521
  0
LINE
  5
ED
330
77
100
AcDbEntity
  8
$DDT_AUDIT_GENERATED_(BA)
  6
Continuous
 62
     7
100
AcDbLine
 10
39.3356832166
 20
924.2124459487
 30
0.0
 11
39.3356832166
 21
924.7309166724
 31
0.0
  0
LINE
  5
EE
330
77
100
AcDbEntity
  8
$DDT_AUDIT_GENERATED_(BA)
  6
Continuous
 62
     7
100
AcDbLine
 10
37.2678853198
 20
924.3022586266
 30
0.0
 11
39.2839194076
 21
924.1624459487
 31
0.0
  0
LINE
  5
EF
330
77
100
AcDbEntity
  8
$DDT_AUDIT_GENERATED_(BA)
  6
Continuous
 62
     7
100
AcDbLine
 10
37.2972112821
 20
924.3538146992
 30
0.0
 11
39.3356832166
 21
924.2124459487
 31
0.0
  0
ELLIPSE
  5
F0
330
77
100
AcDbEntity
  8
$DDT_AUDIT_GENERATED_(BA)
  6
Continuous
 62
     7
100
AcDbEllipse
 10
31.1000004081
 20
924.7567985158
 30
0.0
 11
8.49999958768786
 21
5.671765834769360E-8
 31
0.0
210
0.0
220
0.0
230
1.0
 40
0.2588190487
 41
-0.5353637669425524
 42
-0.511833811714161
  0
ELLIPSE
  5
F1
330
77
100
AcDbEntity
  8
$DDT_AUDIT_GENERATED_(BA)
  6
Continuous
 62
     7
100
AcDbEllipse
 10
31.1
 20
924.7567985769
 30
0.0
 11
8.500000000031024
 21
-4.024558464266192E-12
 31
0.0
210
0.0
220
0.0
230
1.0
 40
0.2588190451
 41
-0.5118337983091656
 42
-0.2735643650866573
  0
LINE
  5
F2
330
77
100
AcDbEntity
  8
$DDT_AUDIT_GENERATED_(BA)
  6
Continuous
 62
     7
100
AcDbLine
 10
38.5107064878
 20
923.6793081479
 30
0.0
 11
38.5107064878
 21
924.2160685385
 31
0.0
  0
LINE
  5
F3
330
77
100
AcDbEntity
  8
$DDT_AUDIT_GENERATED_(BA)
  6
Continuous
 62
     7
100
AcDbLine
 10
36.7651390521
 20
923.8803752744
 30
0.0
 11
38.4107064878
 21
923.6344793743
 31
0.0
  0
LINE
  5
F4
330
77
100
AcDbEntity
  8
$DDT_AUDIT_GENERATED_(BA)
  6
Continuous
 62
     7
100
AcDbLine
 10
36.8471262658
 20
923.9278956851
 30
0.0
 11
38.5107064878
 21
923.6793081479
 31
0.0
  0
ELLIPSE
  5
F5
330
77
100
AcDbEntity
  8
$DDT_AUDIT_GENERATED_(BA)
  6
Continuous
 62
     7
100
AcDbEllipse
 10
31.1000003338
 20
924.7567984905
 30
0.0
 11
8.499999645908137
 21
6.554037867978479E-8
 31
0.0
210
0.0
220
0.0
230
1.0
 40
0.2588190451
 41
-0.797163156894789
 42
-0.773633201665139
  0
ELLIPSE
  5
F6
330
77
100
AcDbEntity
  8
$DDT_AUDIT_GENERATED_(BA)
  6
Continuous
 62
     7
100
AcDbEllipse
 10
31.1
 20
924.7567985769
 30
0.0
 11
8.500000000013941
 21
-2.442490654175344E-12
 31
0.0
210
0.0
220
0.0
230
1.0
 40
0.2588190451
 41
-0.7736331861086612
 42
-0.5353637528859228
  0
LINE
  5
F7
330
77
100
AcDbEntity
  8
$DDT_AUDIT_GENERATED_(BA)
  6
Continuous
 62
     7
100
AcDbLine
 10
37.1807023586
 20
923.2195995393
 30
0.0
 11
37.1807023586
 21
923.8182779631
 31
0.0
  0
LINE
  5
F8
330
77
100
AcDbEntity
  8
$DDT_AUDIT_GENERATED_(BA)
  6
Continuous
 62
     7
100
AcDbLine
 10
35.8115472642
 20
923.5007578727
 30
0.0
 11
37.0392810024
 21
923.1829969989
 31
0.0
  0
LINE
  5
F9
330
77
100
AcDbEntity
  8
$DDT_AUDIT_GENERATED_(BA)
  6
Continuous
 62
     7
100
AcDbLine
 10
35.9409816896
 20
923.5404628591
 30
0.0
 11
37.1807023586
 21
923.2195995393
 31
0.0
  0
ELLIPSE
  5
FA
330
77
100
AcDbEntity
  8
$DDT_AUDIT_GENERATED_(BA)
  6
Continuous
 62
     7
100
AcDbEllipse
 10
31.1000002361
 20
924.7567984711
 30
0.0
 11
8.499999704873341
 21
5.673614356105361E-8
 31
0.0
210
0.0
220
0.0
230
1.0
 40
0.2588190415
 41
-1.058962542568612
 42
-1.035432587338845
  0
ELLIPSE
  5
FB
330
77
100
AcDbEntity
  8
$DDT_AUDIT_GENERATED_(BA)
  6
Continuous
 62
     7
100
AcDbEllipse
 10
31.1
 20
924.7567985769
 30
0.0
 11
8.499999999997542
 21
-1.665334536937735E-13
 31
0.0
210
0.0
220
0.0
230
1.0
 40
0.2588190451
 41
-1.035432573908635
 42
-0.797163140685619
  0
LINE
  5
FC
330
77
100
AcDbEntity
  8
$DDT_AUDIT_GENERATED_(BA)
  6
Continuous
 62
     7
100
AcDbLine
 10
35.4363084126
 20
922.8646485047
 30
0.0
 11
35.4363084126
 21
923.3986709497
 31
0.0
  0
LINE
  5
FD
330
77
100
AcDbEntity
  8
$DDT_AUDIT_GENERATED_(BA)
  6
Continuous
 62
     7
100
AcDbLine
 10
34.4586154721
 20
923.1994086415
 30
0.0
 11
35.2631033318
 21
922.8387666002
 31
0.0
  0
LINE
  5
FE
330
77
100
AcDbEntity
  8
$DDT_AUDIT_GENERATED_(BA)
  6
Continuous
 62
     7
100
AcDbLine
 10
34.625837826
 20
923.2279725291
 30
0.0
 11
35.4363084126
 21
922.8646485047
 31
0.0
  0
ELLIPSE
  5
FF
330
77
100
AcDbEntity
  8
$DDT_AUDIT_GENERATED_(BA)
  6
Continuous
 62
     7
100
AcDbEllipse
 10
31.1000001134
 20
924.7567984674
 30
0.0
 11
8.499999766326363
 21
3.041444873730370E-8
 31
0.0
210
0.0
220
0.0
230
1.0
 40
0.2588190393
 41
-1.320761923963651
 42
-1.297231968781231
  0
ELLIPSE
  5
100
330
77
100
AcDbEntity
  8
$DDT_AUDIT_GENERATED_(BA)
  6
Continuous
 62
     7
100
AcDbEllipse
 10
31.1
 20
924.7567985769
 30
0.0
 11
8.500000000017456
 21
-3.136380044566067E-12
 31
0.0
210
0.0
220
0.0
230
1.0
 40
0.2588190451
 41
-1.297231961706705
 42
-1.058962528484162
  0
LINE
  5
101
330
77
100
AcDbEntity
  8
$DDT_AUDIT_GENERATED_(BA)
  6
Continuous
 62
     7
100
AcDbLine
 10
33.3964022142
 20
922.6386443707
 30
0.0
 11
33.3964022142
 21
923.0591413163
 31
0.0
  0
LINE
  5
102
330
77
100
AcDbEntity
  8
$DDT_AUDIT_GENERATED_(BA)
  6
Continuous
 62
     7
100
AcDbLine
 10
32.8074491838
 20
923.0075293133
 30
0.0
 11
33.203217049
 21
922.625246911
 31
0.0
  0
LINE
  5
103
330
77
100
AcDbEntity
  8
$DDT_AUDIT_GENERATED_(BA)
  6
Continuous
 62
     7
100
AcDbLine
 10
32.9990333788
 20
923.0224731914
 30
0.0
 11
33.3964022142
 21
922.6386443707
 31
0.0
  0
ARC
  5
104
330
77
100
AcDbEntity
  8
$DDT_AUDIT_GENERATED_(BA)
  6
Continuous
 62
     7
100
AcDbCircle
 10
31.1
 20
955.3961941945
 30
0.0
 40
32.83935750582594
100
AcDbArc
 50
269.82552683
 51
270.17447317
  0
ELLIPSE
  5
105
330
77
100
AcDbEntity
  8
$DDT_AUDIT_GENERATED_(BA)
  6
Continuous
 62
     7
100
AcDbEllipse
 10
31.1
 20
924.7567985769
 30
0.0
 11
8.499999999995264
 21
1.665334536937735E-13
 31
0.0
210
0.0
220
0.0
230
1.0
 40
0.2588190451
 41
4.724153957672646
 42
4.962423390895751
  0
LINE
  5
106
330
77
100
AcDbEntity
  8
$DDT_AUDIT_GENERATED_(BA)
  6
Continuous
 62
     7
100
AcDbLine
 10
31.0
 20
922.9462014483
 30
0.0
 11
31.0
 21
922.5569889453
 31
0.0
  0
LINE
  5
107
330
77
100
AcDbEntity
  8
$DDT_AUDIT_GENERATED_(BA)
  6
Continuous
 62
     7
100
AcDbLine
 10
31.2
 20
922.9462014483
 30
0.0
 11
31.2
 21
922.5569889453
 31
0.0
  0
ELLIPSE
  5
108
330
77
100
AcDbEntity
  8
$DDT_AUDIT_GENERATED_(BA)
  6
Continuous
 62
     7
100
AcDbEllipse
 10
31.0999998782
 20
924.7567984592
 30
0.0
 11
-8.49999974891011
 21
3.265471226754357E-8
 31
0.0
210
0.0
220
0.0
230
1.0
 40
0.2588190389
 41
1.29723196929879
 42
1.320761924526461
  0
ELLIPSE
  5
109
330
77
100
AcDbEntity
  8
$DDT_AUDIT_GENERATED_(BA)
  6
Continuous
 62
     7
100
AcDbEllipse
 10
31.1
 20
924.7567985769
 30
0.0
 11
-8.500000000006271
 21
-5.273559366969494E-13
 31
0.0
210
0.0
220
0.0
230
1.0
 40
0.2588190451
 41
1.3207619162838
 42
1.559031349506601
  0
LINE
  5
10A
330
77
100
AcDbEntity
  8
$DDT_AUDIT_GENERATED_(BA)
  6
Continuous
 62
     7
100
AcDbLine
 10
28.8035977858
 20
922.6386443707
 30
0.0
 11
28.8035977858
 21
923.0591413163
 31
0.0
  0
LINE
  5
10B
330
77
100
AcDbEntity
  8
$DDT_AUDIT_GENERATED_(BA)
  6
Continuous
 62
     7
100
AcDbLine
 10
29.2009666212
 20
923.0224731914
 30
0.0
 11
28.8035977858
 21
922.6386443707
 31
0.0
  0
LINE
  5
10C
330
77
100
AcDbEntity
  8
$DDT_AUDIT_GENERATED_(BA)
  6
Continuous
 62
     7
100
AcDbLine
 10
29.3925508162
 20
923.0075293133
 30
0.0
 11
28.996782951
 21
922.625246911
 31
0.0
  0
ELLIPSE
  5
10D
330
77
100
AcDbEntity
  8
$DDT_AUDIT_GENERATED_(BA)
  6
Continuous
 62
     7
100
AcDbEllipse
 10
31.0999997639
 20
924.7567984711
 30
0.0
 11
-8.499999704861105
 21
5.674372083319668E-8
 31
0.0
210
0.0
220
0.0
230
1.0
 40
0.2588190415
 41
1.035432587339519
 42
1.058962542569312
  0
ELLIPSE
  5
10E
330
77
100
AcDbEntity
  8
$DDT_AUDIT_GENERATED_(BA)
  6
Continuous
 62
     7
100
AcDbEllipse
 10
31.1
 20
924.7567985769
 30
0.0
 11
-8.499999999996291
 21
4.996003610813204E-13
 31
0.0
210
0.0
220
0.0
230
1.0
 40
0.2588190451
 41
1.058962528484802
 42
1.297231961707853
  0
LINE
  5
10F
330
77
100
AcDbEntity
  8
$DDT_AUDIT_GENERATED_(BA)
  6
Continuous
 62
     7
100
AcDbLine
 10
26.7636915874
 20
922.8646485047
 30
0.0
 11
26.7636915874
 21
923.3986709497
 31
0.0
  0
LINE
  5
110
330
77
100
AcDbEntity
  8
$DDT_AUDIT_GENERATED_(BA)
  6
Continuous
 62
     7
100
AcDbLine
 10
27.574162174
 20
923.2279725291
 30
0.0
 11
26.7636915874
 21
922.8646485047
 31
0.0
  0
LINE
  5
111
330
77
100
AcDbEntity
  8
$DDT_AUDIT_GENERATED_(BA)
  6
Continuous
 62
     7
100
AcDbLine
 10
27.7413845279
 20
923.1994086415
 30
0.0
 11
26.9368966682
 21
922.8387666002
 31
0.0
  0
ELLIPSE
  5
112
330
77
100
AcDbEntity
  8
$DDT_AUDIT_GENERATED_(BA)
  6
Continuous
 62
     7
100
AcDbEllipse
 10
31.0999996896
 20
924.7567984965
 30
0.0
 11
-8.499999670801902
 21
6.093234250492685E-8
 31
0.0
210
0.0
220
0.0
230
1.0
 40
0.2588190451
 41
0.7736332005686897
 42
0.7971631557524758
  0
ELLIPSE
  5
113
330
77
100
AcDbEntity
  8
$DDT_AUDIT_GENERATED_(BA)
  6
Continuous
 62
     7
100
AcDbEllipse
 10
31.1
 20
924.7567985769
 30
0.0
 11
-8.499999999995739
 21
7.216449660063518E-13
 31
0.0
210
0.0
220
0.0
230
1.0
 40
0.2588190451
 41
0.7971631406856795
 42
1.035432573908746
  0
LINE
  5
114
330
77
100
AcDbEntity
  8
$DDT_AUDIT_GENERATED_(BA)
  6
Continuous
 62
     7
100
AcDbLine
 10
25.0192976414
 20
923.2195995393
 30
0.0
 11
25.0192976414
 21
923.8182779631
 31
0.0
  0
LINE
  5
115
330
77
100
AcDbEntity
  8
$DDT_AUDIT_GENERATED_(BA)
  6
Continuous
 62
     7
100
AcDbLine
 10
26.2590183104
 20
923.5404628591
 30
0.0
 11
25.0192976414
 21
923.2195995393
 31
0.0
  0
LINE
  5
116
330
77
100
AcDbEntity
  8
$DDT_AUDIT_GENERATED_(BA)
  6
Continuous
 62
     7
100
AcDbLine
 10
26.3884527358
 20
923.5007578727
 30
0.0
 11
25.1607189976
 21
923.1829969989
 31
0.0
  0
ELLIPSE
  5
117
330
77
100
AcDbEntity
  8
$DDT_AUDIT_GENERATED_(BA)
  6
Continuous
 62
     7
100
AcDbEllipse
 10
31.0999995906
 20
924.7567985158
 30
0.0
 11
-8.499999586400858
 21
5.670869329676975E-8
 31
0.0
210
0.0
220
0.0
230
1.0
 40
0.2588190487
 41
0.5118338117509279
 42
0.5353637669813438
  0
ELLIPSE
  5
118
330
77
100
AcDbEntity
  8
$DDT_AUDIT_GENERATED_(BA)
  6
Continuous
 62
     7
100
AcDbEllipse
 10
31.1
 20
924.7567985769
 30
0.0
 11
-8.500000000021302
 21
-3.691491556878645E-12
 31
0.0
210
0.0
220
0.0
230
1.0
 40
0.2588190451
 41
0.5353637528856935
 42
0.7736331861082998
  0
LINE
  5
119
330
77
100
AcDbEntity
  8
$DDT_AUDIT_GENERATED_(BA)
  6
Continuous
 62
     7
100
AcDbLine
 10
23.6892935122
 20
923.6793081479
 30
0.0
 11
23.6892935122
 21
924.2160685385
 31
0.0
  0
LINE
  5
11A
330
77
100
AcDbEntity
  8
$DDT_AUDIT_GENERATED_(BA)
  6
Continuous
 62
     7
100
AcDbLine
 10
25.3528737342
 20
923.9278956851
 30
0.0
 11
23.6892935122
 21
923.6793081479
 31
0.0
  0
LINE
  5
11B
330
77
100
AcDbEntity
  8
$DDT_AUDIT_GENERATED_(BA)
  6
Continuous
 62
     7
100
AcDbLine
 10
25.4348609479
 20
923.8803752744
 30
0.0
 11
23.7892935122
 21
923.6344793743
 31
0.0
  0
ELLIPSE
  5
11C
330
77
100
AcDbEntity
  8
$DDT_AUDIT_GENERATED_(BA)
  6
Continuous
 62
     7
100
AcDbEllipse
 10
31.0999996094
 20
924.7567985499
 30
0.0
 11
-8.499999609127951
 21
2.801933685070424E-8
 31
0.0
210
0.0
220
0.0
230
1.0
 40
0.2588190504
 41
0.2500344170313003
 42
0.2735643721672673
  0
ELLIPSE
  5
11D
330
77
100
AcDbEntity
  8
$DDT_AUDIT_GENERATED_(BA)
  6
Continuous
 62
     7
100
AcDbEllipse
 10
31.1
 20
924.7567985769
 30
0.0
 11
-8.500000000024654
 21
-2.442490654175344E-12
 31
0.0
210
0.0
220
0.0
230
1.0
 40
0.2588190451
 41
0.2735643650867985
 42
0.5118337983093936
  0
LINE
  5
11E
330
77
100
AcDbEntity
  8
$DDT_AUDIT_GENERATED_(BA)
  6
Continuous
 62
     7
100
AcDbLine
 10
22.8643167834
 20
924.2124459487
 30
0.0
 11
22.8643167834
 21
924.7309166724
 31
0.0
  0
LINE
  5
11F
330
77
100
AcDbEntity
  8
$DDT_AUDIT_GENERATED_(BA)
  6
Continuous
 62
     7
100
AcDbLine
 10
24.9027887179
 20
924.3538146992
 30
0.0
 11
22.8643167834
 21
924.2124459487
 31
0.0
  0
LINE
  5
120
330
77
100
AcDbEntity
  8
$DDT_AUDIT_GENERATED_(BA)
  6
Continuous
 62
     7
100
AcDbLine
 10
24.9321146802
 20
924.3022586266
 30
0.0
 11
22.9160805924
 21
924.1624459487
 31
0.0
  0
ARC
  5
121
330
77
100
AcDbEntity
  8
$DDT_AUDIT_GENERATED_(BA)
  6
Continuous
 62
     7
100
AcDbCircle
 10
23.1699408839
 20
924.7567985769
 30
0.0
 40
0.5699406006652947
100
AcDbArc
 50
177.3972128852
 51
182.6027871148
  0
ELLIPSE
  5
122
330
77
100
AcDbEntity
  8
$DDT_AUDIT_GENERATED_(BA)
  6
Continuous
 62
     7
100
AcDbEllipse
 10
31.1
 20
924.7567985769
 30
0.0
 11
-8.500000000031136
 21
-1.443289932012704E-12
 31
0.0
210
0.0
220
0.0
230
1.0
 40
0.2588190451
 41
0.0117649772880931
 42
0.250034410510561
  0
ARC
  5
123
330
77
100
AcDbEntity
  8
$DDT_AUDIT_GENERATED_(BA)
  6
Continuous
 62
     7
100
AcDbCircle
 10
25.2694170711
 20
924.7567985769
 30
0.0
 40
0.419416359164763
100
AcDbArc
 50
176.462067702
 51
180.0
  0
LINE
  5
124
330
77
100
AcDbEntity
  8
$DDT_AUDIT_GENERATED_(BA)
  6
Continuous
 62
     7
100
AcDbLine
 10
24.8508000512
 20
924.7826804814
 30
0.0
 11
24.8508000512
 21
925.1633878871
 31
0.0
  0
LINE
  5
125
330
77
100
AcDbEntity
  8
$DDT_AUDIT_GENERATED_(BA)
  6
Continuous
 62
     7
100
AcDbLine
 10
24.8508000512
 20
924.7826804814
 30
0.0
 11
22.6005882556
 21
924.7826804814
 31
0.0
  0
LINE
  5
126
330
77
100
AcDbEntity
  8
$DDT_AUDIT_GENERATED_(BA)
  6
Continuous
 62
     7
100
AcDbLine
 10
24.85
 20
924.7309166724
 30
0.0
 11
22.6005882556
 21
924.7309166724
 31
0.0
  0
ELLIPSE
  5
127
330
77
100
AcDbEntity
  8
$DDT_AUDIT_GENERATED_(BA)
  6
Continuous
 62
     7
100
AcDbEllipse
 10
31.1
 20
924.7567985769
 30
0.0
 11
-8.500000000029511
 21
1.387778780781445E-12
 31
0.0
210
0.0
220
0.0
230
1.0
 40
0.2588190451
 41
6.053988862393512
 42
6.271420329891568
  0
ELLIPSE
  5
128
330
77
100
AcDbEntity
  8
$DDT_AUDIT_GENERATED_(BA)
  6
Continuous
 62
     7
100
AcDbEllipse
 10
31.1000000307
 20
924.7567985748
 30
0.0
 11
-6.250000030745602
 21
2.190997383522131E-9
 31
0.0
210
0.0
220
0.0
230
1.0
 40
0.2588190445
 41
-0.2778000697766778
 42
-0.2457987043674699
  0
LINE
  5
129
330
77
100
AcDbEntity
  8
$DDT_AUDIT_GENERATED_(BA)
  6
Continuous
 62
     7
100
AcDbLine
 10
25.0896182803
 20
925.2004155968
 30
0.0
 11
25.0896182803
 21
925.6250395326
 31
0.0
  0
LINE
  5
12A
330
77
100
AcDbEntity
  8
$DDT_AUDIT_GENERATED_(BA)
  6
Continuous
 62
     7
100
AcDbLine
 10
25.0896182803
 20
925.2004155968
 30
0.0
 11
22.9464293379
 21
925.3490465089
 31
0.0
  0
LINE
  5
12B
330
77
100
AcDbEntity
  8
$DDT_AUDIT_GENERATED_(BA)
  6
Continuous
 62
     7
100
AcDbLine
 10
25.0378544713
 20
925.1504155968
 30
0.0
 11
22.8785997659
 21
925.3001606753
 31
0.0
  0
ELLIPSE
  5
12C
330
77
100
AcDbEntity
  8
$DDT_AUDIT_GENERATED_(BA)
  6
Continuous
 62
     7
100
AcDbEllipse
 10
31.1000000503
 20
924.7567985694
 30
0.0
 11
-6.250000050794158
 21
7.011807801049486E-9
 31
0.0
210
0.0
220
0.0
230
1.0
 40
0.2588190445
 41
-0.5395994559675668
 42
-0.5075980906255309
  0
LINE
  5
12D
330
77
100
AcDbEntity
  8
$DDT_AUDIT_GENERATED_(BA)
  6
Continuous
 62
     7
100
AcDbLine
 10
25.738034091
 20
925.5879189454
 30
0.0
 11
25.738034091
 21
926.107974933
 31
0.0
  0
LINE
  5
12E
330
77
100
AcDbEntity
  8
$DDT_AUDIT_GENERATED_(BA)
  6
Continuous
 62
     7
100
AcDbLine
 10
25.738034091
 20
925.5879189454
 30
0.0
 11
23.9665644271
 21
925.8526283205
 31
0.0
  0
LINE
  5
12F
330
77
100
AcDbEntity
  8
$DDT_AUDIT_GENERATED_(BA)
  6
Continuous
 62
     7
100
AcDbLine
 10
25.638034091
 20
925.5430901718
 30
0.0
 11
23.8536587546
 21
925.8097280318
 31
0.0
  0
ELLIPSE
  5
130
330
77
100
AcDbEntity
  8
$DDT_AUDIT_GENERATED_(BA)
  6
Continuous
 62
     7
100
AcDbEllipse
 10
31.1000000408
 20
924.7567985663
 30
0.0
 11
-6.250000043322268
 21
8.046008304063434E-9
 31
0.0
210
0.0
220
0.0
230
1.0
 40
0.2588190451
 41
-0.8013988434243107
 42
-0.7693974780815509
  0
LINE
  5
131
330
77
100
AcDbEntity
  8
$DDT_AUDIT_GENERATED_(BA)
  6
Continuous
 62
     7
100
AcDbLine
 10
26.7518590173
 20
925.9187828144
 30
0.0
 11
26.7518590173
 21
926.5139427761
 31
0.0
  0
LINE
  5
132
330
77
100
AcDbEntity
  8
$DDT_AUDIT_GENERATED_(BA)
  6
Continuous
 62
     7
100
AcDbLine
 10
26.7518590173
 20
925.9187828144
 30
0.0
 11
25.4081241393
 21
926.2665669924
 31
0.0
  0
LINE
  5
133
330
77
100
AcDbEntity
  8
$DDT_AUDIT_GENERATED_(BA)
  6
Continuous
 62
     7
100
AcDbLine
 10
26.6104376611
 20
925.882180274
 30
0.0
 11
25.2581069526
 21
926.2321892167
 31
0.0
  0
ELLIPSE
  5
134
330
77
100
AcDbEntity
  8
$DDT_AUDIT_GENERATED_(BA)
  6
Continuous
 62
     7
100
AcDbEllipse
 10
31.0999999759
 20
924.7567985877
 30
0.0
 11
-6.249999969877453
 21
-5.791644941410823E-9
 31
0.0
210
0.0
220
0.0
230
1.0
 40
0.2588190446
 41
-1.063198235912058
 42
-1.031196870298019
  0
LINE
  5
135
330
77
100
AcDbEntity
  8
$DDT_AUDIT_GENERATED_(BA)
  6
Continuous
 62
     7
100
AcDbLine
 10
28.062002566
 20
926.1704593779
 30
0.0
 11
28.062002566
 21
926.6735930612
 31
0.0
  0
LINE
  5
136
330
77
100
AcDbEntity
  8
$DDT_AUDIT_GENERATED_(BA)
  6
Continuous
 62
     7
100
AcDbLine
 10
28.062002566
 20
926.1704593779
 30
0.0
 11
27.1662469576
 21
926.5720156316
 31
0.0
  0
LINE
  5
137
330
77
100
AcDbEntity
  8
$DDT_AUDIT_GENERATED_(BA)
  6
Continuous
 62
     7
100
AcDbLine
 10
27.8887974852
 20
926.1445774734
 30
0.0
 11
26.9887479262
 21
926.5480586525
 31
0.0
  0
ELLIPSE
  5
138
330
77
100
AcDbEntity
  8
$DDT_AUDIT_GENERATED_(BA)
  6
Continuous
 62
     7
100
AcDbEllipse
 10
31.100000015
 20
924.7567985625
 30
0.0
 11
-6.250000030840031
 21
4.019673482957842E-9
 31
0.0
210
0.0
220
0.0
230
1.0
 40
0.2588190461
 41
-1.324997620342981
 42
-1.292996255000285
  0
LINE
  5
139
330
77
100
AcDbEntity
  8
$DDT_AUDIT_GENERATED_(BA)
  6
Continuous
 62
     7
100
AcDbLine
 10
29.5791806192
 20
926.3257972939
 30
0.0
 11
29.5791806192
 21
926.7806687189
 31
0.0
  0
LINE
  5
13A
330
77
100
AcDbEntity
  8
$DDT_AUDIT_GENERATED_(BA)
  6
Continuous
 62
     7
100
AcDbLine
 10
29.5791806192
 20
926.3257972939
 30
0.0
 11
29.1327483828
 21
926.7570177208
 31
0.0
  0
LINE
  5
13B
330
77
100
AcDbEntity
  8
$DDT_AUDIT_GENERATED_(BA)
  6
Continuous
 62
     7
100
AcDbLine
 10
29.385995454
 20
926.3123998343
 30
0.0
 11
28.9384134328
 21
926.744730868
 31
0.0
  0
ARC
  5
13C
330
77
100
AcDbEntity
  8
$DDT_AUDIT_GENERATED_(BA)
  6
Continuous
 62
     7
100
AcDbCircle
 10
31.1
 20
914.8634598755
 30
0.0
 40
10.60509244207737
100
AcDbArc
 50
89.0544904184
 51
90.9455095816
  0
LINE
  5
13D
330
77
100
AcDbEntity
  8
$DDT_AUDIT_GENERATED_(BA)
  6
Continuous
 62
     7
100
AcDbLine
 10
31.275
 20
925.4671083375
 30
0.0
 11
31.275
 21
925.9216582998
 31
0.0
  0
LINE
  5
13E
330
77
100
AcDbEntity
  8
$DDT_AUDIT_GENERATED_(BA)
  6
Continuous
 62
     7
100
AcDbLine
 10
30.925
 20
925.4671083375
 30
0.0
 11
30.925
 21
925.9216582998
 31
0.0
  0
ELLIPSE
  5
13F
330
77
100
AcDbEntity
  8
$DDT_AUDIT_GENERATED_(BA)
  6
Continuous
 62
     7
100
AcDbEllipse
 10
31.1000000001
 20
924.756798577
 30
0.0
 11
2.749999999900639
 21
-1.990074771640593E-11
 31
0.0
210
0.0
220
0.0
230
1.0
 40
0.2588190451
 41
0.9835181589521791
 42
1.110876943469904
  0
LINE
  5
140
330
77
100
AcDbEntity
  8
$DDT_AUDIT_GENERATED_(BA)
  6
Continuous
 62
     7
100
AcDbLine
 10
32.3206586391
 20
925.8851753007
 30
0.0
 11
32.3206586391
 21
925.3945915406
 31
0.0
  0
LINE
  5
141
330
77
100
AcDbEntity
  8
$DDT_AUDIT_GENERATED_(BA)
  6
Continuous
 62
     7
100
AcDbLine
 10
32.6237675304
 20
925.3492982077
 30
0.0
 11
33.5514779715
 21
925.765179421
 31
0.0
  0
LINE
  5
142
330
77
100
AcDbEntity
  8
$DDT_AUDIT_GENERATED_(BA)
  6
Continuous
 62
     7
100
AcDbLine
 10
32.3206586391
 20
925.3945915406
 30
0.0
 11
33.2358903539
 21
925.804878694
 31
0.0
  0
ELLIPSE
  5
143
330
77
100
AcDbEntity
  8
$DDT_AUDIT_GENERATED_(BA)
  6
Continuous
 62
     7
100
AcDbEllipse
 10
31.1
 20
924.7567985769
 30
0.0
 11
2.749999999995287
 21
-6.106226635438361E-13
 31
0.0
210
0.0
220
0.0
230
1.0
 40
0.2588190451
 41
0.4599193833417501
 42
0.5872781678559061
  0
LINE
  5
144
330
77
100
AcDbEntity
  8
$DDT_AUDIT_GENERATED_(BA)
  6
Continuous
 62
     7
100
AcDbLine
 10
33.3892427816
 20
925.6924513751
 30
0.0
 11
33.3892427816
 21
925.1511786341
 31
0.0
  0
LINE
  5
145
330
77
100
AcDbEntity
  8
$DDT_AUDIT_GENERATED_(BA)
  6
Continuous
 62
     7
100
AcDbLine
 10
33.5642427816
 20
925.0727282803
 30
0.0
 11
35.3925621756
 21
925.3459326676
 31
0.0
  0
LINE
  5
146
330
77
100
AcDbEntity
  8
$DDT_AUDIT_GENERATED_(BA)
  6
Continuous
 62
     7
100
AcDbLine
 10
33.3892427816
 20
925.1511786341
 30
0.0
 11
35.1799339617
 21
925.4187602658
 31
0.0
  0
ELLIPSE
  5
147
330
77
100
AcDbEntity
  8
$DDT_AUDIT_GENERATED_(BA)
  6
Continuous
 62
     7
100
AcDbEllipse
 10
31.1
 20
924.7567985769
 30
0.0
 11
-2.750000000001379
 21
0.0
 31
0.0
210
0.0
220
0.0
230
1.0
 40
0.2588190451
 41
3.141592653589793
 42
3.205272045846794
  0
LINE
  5
148
330
77
100
AcDbEntity
  8
$DDT_AUDIT_GENERATED_(BA)
  6
Continuous
 62
     7
100
AcDbLine
 10
33.8444261695
 20
925.1145958725
 30
0.0
 11
33.8444261695
 21
924.8020919098
 31
0.0
  0
LINE
  5
149
330
77
100
AcDbEntity
  8
$DDT_AUDIT_GENERATED_(BA)
  6
Continuous
 62
     7
100
AcDbLine
 10
33.85
 20
924.711505244
 30
0.0
 11
36.3188112082
 21
924.711505244
 31
0.0
  0
LINE
  5
14A
330
77
100
AcDbEntity
  8
$DDT_AUDIT_GENERATED_(BA)
  6
Continuous
 62
     7
100
AcDbLine
 10
33.8444261695
 20
924.8020919098
 30
0.0
 11
36.2685107443
 21
924.8020919098
 31
0.0
  0
ELLIPSE
  5
14B
330
77
100
AcDbEntity
  8
$DDT_AUDIT_GENERATED_(BA)
  6
Continuous
 62
     7
100
AcDbEllipse
 10
31.0999999984
 20
924.7567985772
 30
0.0
 11
5.250000001607113
 21
-2.203237592368623E-10
 31
0.0
210
0.0
220
0.0
230
1.0
 40
0.2588190451
 41
-0.5569382847670568
 42
-0.4902592662561061
  0
LINE
  5
14C
330
77
100
AcDbEntity
  8
$DDT_AUDIT_GENERATED_(BA)
  6
Continuous
 62
     7
100
AcDbLine
 10
33.6820222683
 20
924.318668702
 30
0.0
 11
35.5566067604
 21
924.038550956
 31
0.0
  0
LINE
  5
14D
330
77
100
AcDbEntity
  8
$DDT_AUDIT_GENERATED_(BA)
  6
Continuous
 62
     7
100
AcDbLine
 10
33.7835532961
 20
924.4080974689
 30
0.0
 11
35.7316067604
 21
924.1170013098
 31
0.0
  0
LINE
  5
14E
330
77
100
AcDbEntity
  8
$DDT_AUDIT_GENERATED_(BA)
  6
Continuous
 62
     7
100
AcDbLine
 10
35.7316067604
 20
924.711505244
 30
0.0
 11
35.7316067604
 21
924.1170013098
 31
0.0
  0
ELLIPSE
  5
14F
330
77
100
AcDbEntity
  8
$DDT_AUDIT_GENERATED_(BA)
  6
Continuous
 62
     7
100
AcDbEllipse
 10
31.1000000018
 20
924.7567985761
 30
0.0
 11
5.249999997805351
 21
4.245492846166598E-10
 31
0.0
210
0.0
220
0.0
230
1.0
 40
0.2588190451
 41
-1.080537060634896
 42
-1.013858042090014
  0
LINE
  5
150
330
77
100
AcDbEntity
  8
$DDT_AUDIT_GENERATED_(BA)
  6
Continuous
 62
     7
100
AcDbLine
 10
32.6430745982
 20
923.9744704929
 30
0.0
 11
33.5719868157
 21
923.5580505379
 31
0.0
  0
LINE
  5
151
330
77
100
AcDbEntity
  8
$DDT_AUDIT_GENERATED_(BA)
  6
Continuous
 62
     7
100
AcDbLine
 10
32.9221617668
 20
924.0305324695
 30
0.0
 11
33.875095707
 21
923.6033438708
 31
0.0
  0
LINE
  5
152
330
77
100
AcDbEntity
  8
$DDT_AUDIT_GENERATED_(BA)
  6
Continuous
 62
     7
100
AcDbLine
 10
33.875095707
 20
924.2898178838
 30
0.0
 11
33.875095707
 21
923.6033438708
 31
0.0
  0
ARC
  5
153
330
77
100
AcDbEntity
  8
$DDT_AUDIT_GENERATED_(BA)
  6
Continuous
 62
     7
100
AcDbCircle
 10
31.1
 20
943.6719237742
 30
0.0
 40
20.27392537993508
100
AcDbArc
 50
269.5054294744
 51
270.4945705256
  0
LINE
  5
154
330
77
100
AcDbEntity
  8
$DDT_AUDIT_GENERATED_(BA)
  6
Continuous
 62
     7
100
AcDbLine
 10
30.925
 20
923.8533036511
 30
0.0
 11
30.925
 21
923.3987536888
 31
0.0
  0
LINE
  5
155
330
77
100
AcDbEntity
  8
$DDT_AUDIT_GENERATED_(BA)
  6
Continuous
 62
     7
100
AcDbLine
 10
31.275
 20
923.8533036511
 30
0.0
 11
31.275
 21
923.3987536888
 31
0.0
  0
ELLIPSE
  5
156
330
77
100
AcDbEntity
  8
$DDT_AUDIT_GENERATED_(BA)
  6
Continuous
 62
     7
100
AcDbEllipse
 10
31.0999999981
 20
924.7567985761
 30
0.0
 11
-5.249999997668008
 21
4.518330154468230E-10
 31
0.0
210
0.0
220
0.0
230
1.0
 40
0.2588190451
 41
1.01385804210024
 42
1.080537060646522
  0
LINE
  5
157
330
77
100
AcDbEntity
  8
$DDT_AUDIT_GENERATED_(BA)
  6
Continuous
 62
     7
100
AcDbLine
 10
29.2778382332
 20
924.0305324695
 30
0.0
 11
28.324904293
 21
923.6033438708
 31
0.0
  0
LINE
  5
158
330
77
100
AcDbEntity
  8
$DDT_AUDIT_GENERATED_(BA)
  6
Continuous
 62
     7
100
AcDbLine
 10
29.5569254018
 20
923.9744704929
 30
0.0
 11
28.6280131843
 21
923.5580505379
 31
0.0
  0
LINE
  5
159
330
77
100
AcDbEntity
  8
$DDT_AUDIT_GENERATED_(BA)
  6
Continuous
 62
     7
100
AcDbLine
 10
28.324904293
 20
924.2898178838
 30
0.0
 11
28.324904293
 21
923.6033438708
 31
0.0
  0
ELLIPSE
  5
15A
330
77
100
AcDbEntity
  8
$DDT_AUDIT_GENERATED_(BA)
  6
Continuous
 62
     7
100
AcDbEllipse
 10
31.1000000016
 20
924.7567985772
 30
0.0
 11
-5.250000001581082
 21
-2.166600232555993E-10
 31
0.0
210
0.0
220
0.0
230
1.0
 40
0.2588190451
 41
0.4902592662576147
 42
0.5569382847686932
  0
LINE
  5
15B
330
77
100
AcDbEntity
  8
$DDT_AUDIT_GENERATED_(BA)
  6
Continuous
 62
     7
100
AcDbLine
 10
28.4164467039
 20
924.4080974689
 30
0.0
 11
26.4683932396
 21
924.1170013098
 31
0.0
  0
LINE
  5
15C
330
77
100
AcDbEntity
  8
$DDT_AUDIT_GENERATED_(BA)
  6
Continuous
 62
     7
100
AcDbLine
 10
28.5179777317
 20
924.318668702
 30
0.0
 11
26.6433932396
 21
924.038550956
 31
0.0
  0
LINE
  5
15D
330
77
100
AcDbEntity
  8
$DDT_AUDIT_GENERATED_(BA)
  6
Continuous
 62
     7
100
AcDbLine
 10
26.4683932396
 20
924.711505244
 30
0.0
 11
26.4683932396
 21
924.1170013098
 31
0.0
  0
LINE
  5
15E
330
77
100
AcDbEntity
  8
$DDT_AUDIT_GENERATED_(BA)
  6
Continuous
 62
     7
100
AcDbLine
 10
28.3555738305
 20
925.1145958725
 30
0.0
 11
28.3555738305
 21
924.8020919098
 31
0.0
  0
ELLIPSE
  5
15F
330
77
100
AcDbEntity
  8
$DDT_AUDIT_GENERATED_(BA)
  6
Continuous
 62
     7
100
AcDbEllipse
 10
31.1
 20
924.7567985769
 30
0.0
 11
2.749999999993642
 21
0.0
 31
0.0
210
0.0
220
0.0
230
1.0
 40
0.2588190451
 41
3.0779132613327
 42
3.141592653589793
  0
LINE
  5
160
330
77
100
AcDbEntity
  8
$DDT_AUDIT_GENERATED_(BA)
  6
Continuous
 62
     7
100
AcDbLine
 10
28.3555738305
 20
924.8020919098
 30
0.0
 11
25.9314892557
 21
924.8020919098
 31
0.0
  0
LINE
  5
161
330
77
100
AcDbEntity
  8
$DDT_AUDIT_GENERATED_(BA)
  6
Continuous
 62
     7
100
AcDbLine
 10
28.35
 20
924.711505244
 30
0.0
 11
25.8811887918
 21
924.711505244
 31
0.0
  0
LINE
  5
162
330
77
100
AcDbEntity
  8
$DDT_AUDIT_GENERATED_(BA)
  6
Continuous
 62
     7
100
AcDbLine
 10
28.8107572184
 20
925.6924513751
 30
0.0
 11
28.8107572184
 21
925.1511786341
 31
0.0
  0
ELLIPSE
  5
163
330
77
100
AcDbEntity
  8
$DDT_AUDIT_GENERATED_(BA)
  6
Continuous
 62
     7
100
AcDbEllipse
 10
31.1
 20
924.7567985769
 30
0.0
 11
-2.749999999995423
 21
-5.828670879282072E-13
 31
0.0
210
0.0
220
0.0
230
1.0
 40
0.2588190451
 41
-0.5872781678558727
 42
-0.4599193833417097
  0
LINE
  5
164
330
77
100
AcDbEntity
  8
$DDT_AUDIT_GENERATED_(BA)
  6
Continuous
 62
     7
100
AcDbLine
 10
28.8107572184
 20
925.1511786341
 30
0.0
 11
27.0200660383
 21
925.4187602658
 31
0.0
  0
LINE
  5
165
330
77
100
AcDbEntity
  8
$DDT_AUDIT_GENERATED_(BA)
  6
Continuous
 62
     7
100
AcDbLine
 10
28.6357572184
 20
925.0727282803
 30
0.0
 11
26.8074378244
 21
925.3459326676
 31
0.0
  0
LINE
  5
166
330
77
100
AcDbEntity
  8
$DDT_AUDIT_GENERATED_(BA)
  6
Continuous
 62
     7
100
AcDbLine
 10
29.8793413609
 20
925.8851753007
 30
0.0
 11
29.8793413609
 21
925.3945915406
 31
0.0
  0
ELLIPSE
  5
167
330
77
100
AcDbEntity
  8
$DDT_AUDIT_GENERATED_(BA)
  6
Continuous
 62
     7
100
AcDbEllipse
 10
31.1
 20
924.7567985769
 30
0.0
 11
-2.749999999963051
 21
-7.771561172376096E-12
 31
0.0
210
0.0
220
0.0
230
1.0
 40
0.2588190451
 41
-1.110876943459678
 42
-0.983518158944265
  0
LINE
  5
168
330
77
100
AcDbEntity
  8
$DDT_AUDIT_GENERATED_(BA)
  6
Continuous
 62
     7
100
AcDbLine
 10
29.8793413609
 20
925.3945915406
 30
0.0
 11
28.9641096461
 21
925.804878694
 31
0.0
  0
LINE
  5
169
330
77
100
AcDbEntity
  8
$DDT_AUDIT_GENERATED_(BA)
  6
Continuous
 62
     7
100
AcDbLine
 10
29.5762324696
 20
925.3492982077
 30
0.0
 11
28.6485220285
 21
925.765179421
 31
0.0
  0
LINE
  5
16A
330
77
100
AcDbEntity
  8
$DDT_AUDIT_GENERATED_(BA)
  6
Continuous
 62
     7
100
AcDbLine
 10
22.1
 20
925.977108697
 30
0.0
 11
22.1
 21
924.5636134117
 31
0.0
  0
LINE
  5
16B
330
77
100
AcDbEntity
  8
$DDT_AUDIT_GENERATED_(BA)
  6
Continuous
 62
     7
100
AcDbLine
 10
40.1
 20
924.5636134117
 30
0.0
 11
40.1
 21
925.977108697
 31
0.0
  0
LINE
  5
16C
330
77
100
AcDbEntity
  8
$DDT_AUDIT_GENERATED_(BA)
  6
Continuous
 62
     7
100
AcDbLine
 10
24.85
 20
924.7567985769
 30
0.0
 11
24.85
 21
924.5636134117
 31
0.0
  0
LINE
  5
16D
330
77
100
AcDbEntity
  8
$DDT_AUDIT_GENERATED_(BA)
  6
Continuous
 62
     7
100
AcDbLine
 10
37.35
 20
924.5636134117
 30
0.0
 11
37.35
 21
924.7567985769
 31
0.0
  0
LINE
  5
16E
330
77
100
AcDbEntity
  8
$DDT_AUDIT_GENERATED_(BA)
  6
Continuous
 62
     7
100
AcDbLine
 10
28.35
 20
924.7567985769
 30
0.0
 11
28.35
 21
924.5636134117
 31
0.0
  0
LINE
  5
16F
330
77
100
AcDbEntity
  8
$DDT_AUDIT_GENERATED_(BA)
  6
Continuous
 62
     7
100
AcDbLine
 10
33.85
 20
924.5636134117
 30
0.0
 11
33.85
 21
924.7567985769
 31
0.0
  0
LINE
  5
170
330
77
100
AcDbEntity
  8
$DDT_AUDIT_GENERATED_(BA)
  6
Continuous
 62
     7
100
AcDbLine
 10
30.5803700561
 20
925.1035774767
 30
0.0
 11
30.5803700561
 21
924.7567985769
 31
0.0
  0
LINE
  5
171
330
77
100
AcDbEntity
  8
$DDT_AUDIT_GENERATED_(BA)
  6
Continuous
 62
     7
100
AcDbLine
 10
31.6196299439
 20
924.7567985769
 30
0.0
 11
31.6196299439
 21
925.1035774767
 31
0.0
  0
ENDBLK
  5
173
330
77
100
AcDbEntity
  8
0
100
AcDbBlockEnd
  0
BLOCK
  5
1A6
330
174
100
AcDbEntity
  8
0
100
AcDbBlockBegin
  2
SE1
 70
     0
 10
0.0
 20
0.0
 30
0.0
  3
SE1
  1

  0
LINE
  5
176
330
174
100
AcDbEntity
  8
$DDT_AUDIT_GENERATED_(79)
  6
Continuous
 62
     7
100
AcDbLine
 10
192.5563556543
 20
809.4236712122
 30
0.0
 11
232.5563556543
 21
809.4236712122
 31
0.0
  0
ARC
  5
177
330
174
100
AcDbEntity
  8
$DDT_AUDIT_GENERATED_(79)
  6
Continuous
 62
     7
100
AcDbCircle
 10
-15.8759385761
 20
727.5451394128
 30
0.0
 40
208.6020443705872
100
AcDbArc
 50
357.6883989883
 51
2.3115995156
  0
ARC
  5
178
330
174
100
AcDbEntity
  8
$DDT_AUDIT_GENERATED_(79)
  6
Continuous
 62
     7
100
AcDbCircle
 10
172.8124968434
 20
802.4236712138
 30
0.0
 40
20.00955923385717
100
AcDbArc
 50
351.7449530904
 51
9.3475271988
  0
LINE
  5
179
330
174
100
AcDbEntity
  8
$DDT_AUDIT_GENERATED_(79)
  6
Continuous
 62
     7
100
AcDbLine
 10
232.5563556543
 20
775.1236712122
 30
0.0
 11
232.5563556543
 21
809.4236712122
 31
0.0
  0
LINE
  5
17A
330
174
100
AcDbEntity
  8
$DDT_AUDIT_GENERATED_(79)
  6
Continuous
 62
     7
100
AcDbLine
 10
232.5563556543
 20
703.9236712122
 30
0.0
 11
232.5563556543
 21
775.1236712122
 31
0.0
  0
LINE
  5
17B
330
174
100
AcDbEntity
  8
$DDT_AUDIT_GENERATED_(79)
  6
Continuous
 62
     7
100
AcDbLine
 10
192.5563556543
 20
719.1313627681
 30
0.0
 11
192.5563556543
 21
703.9236712122
 31
0.0
  0
LINE
  5
17C
330
174
100
AcDbEntity
  8
$DDT_AUDIT_GENERATED_(79)
  6
Continuous
 62
     7
100
AcDbLine
 10
192.5563556543
 20
775.1236712122
 30
0.0
 11
192.5563556543
 21
735.9559430726
 31
0.0
  0
LINE
  5
17D
330
174
100
AcDbEntity
  8
$DDT_AUDIT_GENERATED_(79)
  6
Continuous
 62
     7
100
AcDbLine
 10
192.5563556543
 20
799.0736712122
 30
0.0
 11
192.5563556543
 21
775.1236712122
 31
0.0
  0
LINE
  5
17E
330
174
100
AcDbEntity
  8
$DDT_AUDIT_GENERATED_(79)
  6
Continuous
 62
     7
100
AcDbLine
 10
192.5563556543
 20
809.4236712122
 30
0.0
 11
192.5563556543
 21
805.7736712122
 31
0.0
  0
ARC
  5
17F
330
174
100
AcDbEntity
  8
$DDT_AUDIT_GENERATED_(86)
  6
Continuous
 62
     7
100
AcDbCircle
 10
212.5462771025
 20
775.0987259211
 30
0.0
 40
19.99999999999998
100
AcDbArc
 50
178.1809696783
 51
181.8190303217
  0
LINE
  5
180
330
174
100
AcDbEntity
  8
$DDT_AUDIT_GENERATED_(86)
  6
Continuous
 62
     7
100
AcDbLine
 10
222.0563556543
 20
817.3232664575
 30
0.0
 11
234.9006978135
 21
849.1141288766
 31
0.0
  0
ARC
  5
181
330
174
100
AcDbEntity
  8
$DDT_AUDIT_GENERATED_(86)
  6
Continuous
 62
     7
100
AcDbCircle
 10
237.6822493772
 20
847.9903090964
 30
0.0
 40
2.999999999999998
100
AcDbArc
 50
68.0
 51
158.0
  0
LINE
  5
182
330
174
100
AcDbEntity
  8
$DDT_AUDIT_GENERATED_(86)
  6
Continuous
 62
     7
100
AcDbLine
 10
238.8060691575
 20
850.7718606601
 30
0.0
 11
246.223539994
 21
847.7750079128
 31
0.0
  0
ARC
  5
183
330
174
100
AcDbEntity
  8
$DDT_AUDIT_GENERATED_(86)
  6
Continuous
 62
     7
100
AcDbCircle
 10
245.0997202138
 20
844.9934563491
 30
0.0
 40
3.00000000000002
100
AcDbArc
 50
338.0
 51
68.0
  0
LINE
  5
184
330
174
100
AcDbEntity
  8
$DDT_AUDIT_GENERATED_(86)
  6
Continuous
 62
     7
100
AcDbLine
 10
247.8812717775
 20
843.8696365688
 30
0.0
 11
232.5563556543
 21
805.9391381426
 31
0.0
  0
LINE
  5
185
330
174
100
AcDbEntity
  8
$DDT_AUDIT_GENERATED_(9D)
  6
Continuous
 62
     7
100
AcDbLine
 10
187.8063556543
 20
698.9236712122
 30
0.0
 11
237.3063556543
 21
698.9236712122
 31
0.0
  0
LINE
  5
186
330
174
100
AcDbEntity
  8
$DDT_AUDIT_GENERATED_(9D)
  6
Continuous
 62
     7
100
AcDbLine
 10
236.6063556543
 20
703.9236712122
 30
0.0
 11
188.5063556543
 21
703.9236712122
 31
0.0
  0
LINE
  5
187
330
174
100
AcDbEntity
  8
$DDT_AUDIT_GENERATED_(9D)
  6
Continuous
 62
     7
100
AcDbLine
 10
237.3063556543
 20
698.9236712122
 30
0.0
 11
237.3063556543
 21
703.2236712122
 31
0.0
  0
LINE
  5
188
330
174
100
AcDbEntity
  8
$DDT_AUDIT_GENERATED_(9D)
  6
Continuous
 62
     7
100
AcDbLine
 10
187.8063556543
 20
703.2236712122
 30
0.0
 11
187.8063556543
 21
698.9236712122
 31
0.0
  0
ARC
  5
189
330
174
100
AcDbEntity
  8
$DDT_AUDIT_GENERATED_(9D)
  6
Continuous
 62
     7
100
AcDbCircle
 10
236.6063556543
 20
703.2236712122
 30
0.0
 40
0.6999999999999993
100
AcDbArc
 50
0.0
 51
90.0
  0
ARC
  5
18A
330
174
100
AcDbEntity
  8
$DDT_AUDIT_GENERATED_(9D)
  6
Continuous
 62
     7
100
AcDbCircle
 10
188.5063556543
 20
703.2236712122
 30
0.0
 40
0.7000000000000001
100
AcDbArc
 50
90.0
 51
180.0
  0
LINE
  5
18C
330
174
100
AcDbEntity
  8
$DDT_AUDIT_GENERATED_(18B)
  6
Continuous
 62
     7
100
AcDbLine
 10
173.0908730405
 20
737.2974823626
 30
0.0
 11
173.0908730405
 21
741.2974823626
 31
0.0
  0
LINE
  5
18D
330
174
100
AcDbEntity
  8
$DDT_AUDIT_GENERATED_(18B)
  6
Continuous
 62
     7
100
AcDbLine
 10
186.5581604005
 20
741.2974823626
 30
0.0
 11
173.0908730405
 21
741.2974823626
 31
0.0
  0
LINE
  5
18E
330
174
100
AcDbEntity
  8
$DDT_AUDIT_GENERATED_(18B)
  6
Continuous
 62
     7
100
AcDbLine
 10
173.0908730405
 20
737.2974823626
 30
0.0
 11
186.5581604005
 21
737.2974823626
 31
0.0
  0
ARC
  5
18F
330
174
100
AcDbEntity
  8
$DDT_AUDIT_GENERATED_(18B)
  6
Continuous
 62
     7
100
AcDbCircle
 10
186.5581604005
 20
736.2974823626
 30
0.0
 40
0.9999999999999454
100
AcDbArc
 50
18.0
 51
90.0
  0
ARC
  5
190
330
174
100
AcDbEntity
  8
$DDT_AUDIT_GENERATED_(18B)
  6
Continuous
 62
     7
100
AcDbCircle
 10
186.5581604005
 20
736.2974823626
 30
0.0
 40
4.999999999999964
100
AcDbArc
 50
18.0
 51
90.0
  0
LINE
  5
191
330
174
100
AcDbEntity
  8
$DDT_AUDIT_GENERATED_(A4)
  6
Continuous
 62
     7
100
AcDbLine
 10
203.0563556543
 20
809.4236712122
 30
0.0
 11
203.0563556543
 21
913.8336712122
 31
0.0
  0
LINE
  5
192
330
174
100
AcDbEntity
  8
$DDT_AUDIT_GENERATED_(A4)
  6
Continuous
 62
     7
100
AcDbLine
 10
222.0563556543
 20
809.4236712122
 30
0.0
 11
222.0563556543
 21
913.8336745501
 31
0.0
  0
SPLINE
  5
193
330
174
100
AcDbEntity
  8
$DDT_AUDIT_GENERATED_(A4)
  6
Continuous
 62
     7
100
AcDbSpline
210
0.0
220
0.0
230
1.0
 70
     8
 71
     3
 72
    22
 73
    18
 74
     0
 42
0.000000000155004
 43
0.0000000001
 40
0.0
 40
0.0
 40
0.0
 40
0.0
 40
0.1249999999999996
 40
0.1249999999999996
 40
0.2499999999999992
 40
0.2499999999999992
 40
0.3749999999999993
 40
0.3749999999999993
 40
0.4999999999999994
 40
0.4999999999999994
 40
0.6249999999999996
 40
0.6249999999999996
 40
0.7499999999999997
 40
0.7499999999999997
 40
0.8749999999999999
 40
0.8749999999999999
 40
1.0
 40
1.0
 40
1.0
 40
1.0
 10
203.056355654301
 20
913.8336712121888
 30
0.0
 10
203.056355654301
 20
916.5373091887736
 30
0.0
 10
203.3202000703714
 20
919.2402259512207
 30
0.0
 10
204.3727835768942
 20
924.5264805963183
 30
0.0
 10
205.1530323434715
 20
927.0884620769368
 30
0.0
 10
207.2177015512343
 20
932.0513291326932
 30
0.0
 10
208.5035482839565
 20
934.4398459598873
 30
0.0
 10
211.4763754047148
 20
938.8688053147009
 30
0.0
 10
213.1747293371
 20
940.936752519947
 30
0.0
 10
216.9992194328388
 20
944.7555939578594
 30
0.0
 10
219.0661461221962
 20
946.4481552684721
 30
0.0
 10
223.4986537864239
 20
949.4145727930055
 30
0.0
 10
225.8928971390762
 20
950.6987229296827
 30
0.0
 10
230.8481145608868
 20
952.7524318401478
 30
0.0
 10
233.39885978463
 20
953.5253208345501
 30
0.0
 10
238.6452685382231
 20
954.5678721453907
 30
0.0
 10
241.3524462528884
 20
954.8336712121888
 30
0.0
 10
244.056355654301
 20
954.8336712121888
 30
0.0
  0
LINE
  5
194
330
174
100
AcDbEntity
  8
$DDT_AUDIT_GENERATED_(A4)
  6
Continuous
 62
     7
100
AcDbLine
 10
338.1063559992
 20
954.8336712122
 30
0.0
 11
244.0563556543
 21
954.8336712122
 31
0.0
  0
LINE
  5
195
330
174
100
AcDbEntity
  8
$DDT_AUDIT_GENERATED_(A4)
  6
Continuous
 62
     7
100
AcDbLine
 10
345.306355649
 20
936.5336712032
 30
0.0
 11
345.306355649
 21
954.1336712032
 31
0.0
  0
LINE
  5
196
330
174
100
AcDbEntity
  8
$DDT_AUDIT_GENERATED_(A4)
  6
Continuous
 62
     7
100
AcDbLine
 10
244.0563556543
 20
935.8336712122
 30
0.0
 11
338.1063556646
 21
935.8336712122
 31
0.0
  0
SPLINE
  5
197
330
174
100
AcDbEntity
  8
$DDT_AUDIT_GENERATED_(A4)
  6
Continuous
 62
     7
100
AcDbSpline
210
0.0
220
0.0
230
1.0
 70
     8
 71
     3
 72
    20
 73
    16
 74
     0
 42
0.0000000002884975
 43
0.0000000001
 40
0.0
 40
0.0
 40
0.0
 40
0.0
 40
0.1249999999999998
 40
0.1249999999999998
 40
0.2499999999999997
 40
0.2499999999999997
 40
0.3749999999999995
 40
0.3749999999999995
 40
0.4999999999999993
 40
0.4999999999999993
 40
0.7499999999999999
 40
0.7499999999999999
 40
0.8749999999999999
 40
0.8749999999999999
 40
1.0
 40
1.0
 40
1.0
 40
1.0
 10
222.056355654301
 20
913.8336745500632
 30
0.0
 10
222.0563577531977
 20
915.2844607683543
 30
0.0
 10
222.1957290433536
 20
916.731765693602
 30
0.0
 10
222.7540756914403
 20
919.5560613430738
 30
0.0
 10
223.1786141818191
 20
920.954410987153
 30
0.0
 10
224.2843285955612
 20
923.6083618716326
 30
0.0
 10
224.9622515841225
 20
924.8686858808347
 30
0.0
 10
226.5651536026017
 20
927.257670074214
 30
0.0
 10
227.493586605595
 20
928.3844846404845
 30
0.0
 10
230.5334840432561
 20
931.4217207278041
 30
0.0
 10
232.9816711020525
 20
933.0663805743435
 30
0.0
 10
236.9440728240974
 20
934.7137756876198
 30
0.0
 10
238.3330737535605
 20
935.1361366747316
 30
0.0
 10
241.1697414894204
 20
935.6962042634535
 30
0.0
 10
242.6049250829826
 20
935.8336712121888
 30
0.0
 10
244.056355654301
 20
935.8336712121888
 30
0.0
  0
LINE
  5
198
330
174
100
AcDbEntity
  8
$DDT_AUDIT_GENERATED_(A4)
  6
Continuous
 62
     7
100
AcDbLine
 10
338.1063559992
 20
954.8336712122
 30
0.0
 11
344.6063551369
 21
954.8336712122
 31
0.0
  0
ARC
  5
199
330
174
100
AcDbEntity
  8
$DDT_AUDIT_GENERATED_(A4)
  6
Continuous
 62
     7
100
AcDbCircle
 10
344.6063546248
 20
954.1336712122
 30
0.0
 40
0.7000000000000063
100
AcDbArc
 50
0.0
 51
89.9999580825
  0
ARC
  5
19A
330
174
100
AcDbEntity
  8
$DDT_AUDIT_GENERATED_(A4)
  6
Continuous
 62
     7
100
AcDbCircle
 10
344.606355649
 20
936.5336712122
 30
0.0
 40
0.7000000000000055
100
AcDbArc
 50
269.9999396737
 51
359.9999992678
  0
LINE
  5
19B
330
174
100
AcDbEntity
  8
$DDT_AUDIT_GENERATED_(A4)
  6
Continuous
 62
     7
100
AcDbLine
 10
338.1063556646
 20
935.8336712122
 30
0.0
 11
344.606354912
 21
935.8336712122
 31
0.0
  0
LINE
  5
19D
330
174
100
AcDbEntity
  8
$DDT_AUDIT_GENERATED_(19C)
  6
Continuous
 62
     7
100
AcDbLine
 10
192.5563556543
 20
805.7736712122
 30
0.0
 11
192.5563556543
 21
799.0736712122
 31
0.0
  0
LINE
  5
19E
330
174
100
AcDbEntity
  8
$DDT_AUDIT_GENERATED_(B5)
  6
Continuous
 62
     7
100
AcDbLine
 10
319.2293327764
 20
922.0680834663
 30
0.0
 11
339.6586640024
 21
927.5421062702
 31
0.0
  0
LINE
  5
19F
330
174
100
AcDbEntity
  8
$DDT_AUDIT_GENERATED_(B5)
  6
Continuous
 62
     7
100
AcDbLine
 10
340.3657707836
 20
928.7668511416
 30
0.0
 11
338.4722220527
 21
935.8336712122
 31
0.0
  0
LINE
  5
1A0
330
174
100
AcDbEntity
  8
$DDT_AUDIT_GENERATED_(B5)
  6
Continuous
 62
     7
100
AcDbLine
 10
314.5055784762
 20
935.8336712122
 30
0.0
 11
318.004587905
 21
922.7751902475
 31
0.0
  0
ARC
  5
1A1
330
174
100
AcDbEntity
  8
$DDT_AUDIT_GENERATED_(B5)
  6
Continuous
 62
     7
100
AcDbCircle
 10
339.3998449573
 20
928.5080320965
 30
0.0
 40
1.000000000000004
100
AcDbArc
 50
285.0
 51
15.0
  0
ARC
  5
1A2
330
174
100
AcDbEntity
  8
$DDT_AUDIT_GENERATED_(B5)
  6
Continuous
 62
     7
100
AcDbCircle
 10
318.9705137313
 20
923.0340092926
 30
0.0
 40
1.000000000000004
100
AcDbArc
 50
195.0
 51
285.0
  0
LINE
  5
1A3
330
174
100
AcDbEntity
  8
$DDT_AUDIT_GENERATED_(BA)
  6
Continuous
 62
     7
100
AcDbLine
 10
338.2020355873
 20
926.8929848176
 30
0.0
 11
320.8153707141
 21
922.2342420058
 31
0.0
  0
LINE
  5
1A4
330
174
100
AcDbEntity
  8
$DDT_AUDIT_GENERATED_(BA)
  6
Continuous
 62
     7
100
AcDbLine
 10
320.7506659528
 20
922.4757234623
 30
0.0
 11
320.8153707141
 21
922.2342420058
 31
0.0
  0
LINE
  5
1A5
330
174
100
AcDbEntity
  8
$DDT_AUDIT_GENERATED_(BA)
  6
Continuous
 62
     7
100
AcDbLine
 10
338.2020355873
 20
926.8929848176
 30
0.0
 11
338.137330826
 21
927.1344662742
 31
0.0
  0
ENDBLK
  5
1A7
330
174
100
AcDbEntity
  8
0
100
AcDbBlockEnd
  0
BLOCK
  5
1E1
330
1A8
100
AcDbEntity
  8
0
100
AcDbBlockBegin
  2
SE2
 70
     0
 10
0.0
 20
0.0
 30
0.0
  3
SE2
  1

  0
ARC
  5
1AA
330
1A8
100
AcDbEntity
  8
$DDT_AUDIT_GENERATED_(79)
  6
Continuous
 62
     7
100
AcDbCircle
 10
31.1
 20
239.0999999947
 30
0.0
 40
20.0
100
AcDbArc
 50
311.9592017237
 51
0.0
  0
ARC
  5
1AB
330
1A8
100
AcDbEntity
  8
$DDT_AUDIT_GENERATED_(79)
  6
Continuous
 62
     7
100
AcDbCircle
 10
31.1
 20
239.0999999947
 30
0.0
 40
20.0
100
AcDbArc
 50
0.0
 51
227.9746396391
  0
LINE
  5
1AC
330
1A8
100
AcDbEntity
  8
$DDT_AUDIT_GENERATED_(79)
  6
Continuous
 62
     7
100
AcDbLine
 10
79.1
 20
219.0999999947
 30
0.0
 11
79.1
 21
259.0999999947
 31
0.0
  0
LINE
  5
1AD
330
1A8
100
AcDbEntity
  8
$DDT_AUDIT_GENERATED_(79)
  6
Continuous
 62
     7
100
AcDbLine
 10
44.465
 20
219.0999999947
 30
0.0
 11
79.1
 21
219.0999999947
 31
0.0
  0
LINE
  5
1AE
330
1A8
100
AcDbEntity
  8
$DDT_AUDIT_GENERATED_(79)
  6
Continuous
 62
     7
100
AcDbLine
 10
79.1
 20
259.0999999947
 30
0.0
 11
34.45
 21
259.0999999947
 31
0.0
  0
ARC
  5
1AF
330
1A8
100
AcDbEntity
  8
$DDT_AUDIT_GENERATED_(83)
  6
Continuous
 62
     7
100
AcDbCircle
 10
70.7
 20
239.0999999947
 30
0.0
 40
20.0
100
AcDbArc
 50
60.3498648717
 51
65.1654125103
  0
ARC
  5
1B0
330
1A8
100
AcDbEntity
  8
$DDT_AUDIT_GENERATED_(83)
  6
Continuous
 62
     7
100
AcDbCircle
 10
70.7
 20
239.0999999947
 30
0.0
 40
20.0
100
AcDbArc
 50
294.8345874897
 51
299.2862542011
  0
ELLIPSE
  5
1B1
330
1A8
100
AcDbEntity
  8
$DDT_AUDIT_GENERATED_(86)
  6
Continuous
 62
     7
100
AcDbEllipse
 10
81.932004193
 20
239.1100785465
 30
0.0
 11
-4.427857436669388
 21
-19.90988689753844
 31
0.0
210
0.0
220
0.0
230
1.0
 40
0.428292619
 41
3.236556253798285
 42
3.362974196922278
  0
LINE
  5
1B2
330
1A8
100
AcDbEntity
  8
$DDT_AUDIT_GENERATED_(86)
  6
Continuous
 62
     7
100
AcDbLine
 10
80.4834644002
 20
219.4100785465
 30
0.0
 11
80.4834644002
 21
256.0500144899
 31
0.0
  0
LINE
  5
1B3
330
1A8
100
AcDbEntity
  8
$DDT_AUDIT_GENERATED_(86)
  6
Continuous
 62
     7
100
AcDbLine
 10
100.4834644002
 20
204.2566354352
 30
0.0
 11
100.4834644002
 21
205.6950402704
 31
0.0
  0
LINE
  5
1B4
330
1A8
100
AcDbEntity
  8
$DDT_AUDIT_GENERATED_(86)
  6
Continuous
 62
     7
100
AcDbLine
 10
100.4834644002
 20
205.6950402704
 30
0.0
 11
100.4834644002
 21
213.1125111069
 31
0.0
  0
LINE
  5
1B5
330
1A8
100
AcDbEntity
  8
$DDT_AUDIT_GENERATED_(86)
  6
Continuous
 62
     7
100
AcDbLine
 10
100.4834644002
 20
213.1125111069
 30
0.0
 11
100.4834644002
 21
216.1066291373
 31
0.0
  0
LINE
  5
1B6
330
1A8
100
AcDbEntity
  8
$DDT_AUDIT_GENERATED_(86)
  6
Continuous
 62
     7
100
AcDbLine
 10
100.4834644002
 20
216.1066291373
 30
0.0
 11
100.4834644002
 21
236.0944454001
 31
0.0
  0
LINE
  5
1B7
330
1A8
100
AcDbEntity
  8
$DDT_AUDIT_GENERATED_(86)
  6
Continuous
 62
     7
100
AcDbLine
 10
100.4834644002
 20
236.0944454001
 30
0.0
 11
100.4834644002
 21
237.931297318
 31
0.0
  0
ARC
  5
1B8
330
1A8
100
AcDbEntity
  8
$DDT_AUDIT_GENERATED_(86)
  6
Continuous
 62
     7
100
AcDbCircle
 10
-233.6022278989
 20
209.4037756886
 30
0.0
 40
344.0856922170595
100
AcDbArc
 50
359.381342169
 51
0.618657831
  0
SPLINE
  5
1B9
330
1A8
100
AcDbEntity
  8
$DDT_AUDIT_GENERATED_(86)
  6
Continuous
 62
     7
100
AcDbSpline
210
0.0
220
0.0
230
1.0
 70
     8
 71
     3
 72
    14
 73
    10
 74
     0
 42
0.0000000037699926
 43
0.0000000001
 40
0.0
 40
0.0
 40
0.0
 40
0.0
 40
0.125
 40
0.125
 40
0.25
 40
0.25
 40
0.375
 40
0.375
 40
0.4354907152958342
 40
0.4354907152958342
 40
0.4354907152958342
 40
0.4354907152958342
 10
110.4634062933501
 20
205.6885426735878
 30
0.0
 10
110.4618845807831
 20
205.5476177309765
 30
0.0
 10
110.4603016868411
 20
205.4146092677246
 30
0.0
 10
110.4570280245708
 20
205.1637800180708
 30
0.0
 10
110.4553182929908
 20
205.0448187318786
 30
0.0
 10
110.4519134502633
 20
204.8294805020365
 30
0.0
 10
110.4502257283422
 20
204.7332727133609
 30
0.0
 10
110.4477732977172
 20
204.6073635132424
 30
0.0
 10
110.4469797537975
 20
204.5689312863378
 30
0.0
 10
110.4462040580094
 20
204.5335261817622
 30
0.0
  0
ARC
  5
1BA
330
1A8
100
AcDbEntity
  8
$DDT_AUDIT_GENERATED_(86)
  6
Continuous
 62
     7
100
AcDbCircle
 10
86.722296662
 20
251.0548878379
 30
0.0
 40
8.246580587004981
100
AcDbArc
 50
107.0734926992
 51
135.3950091368
  0
ARC
  5
1BB
330
1A8
100
AcDbEntity
  8
$DDT_AUDIT_GENERATED_(86)
  6
Continuous
 62
     7
100
AcDbCircle
 10
80.7834644002
 20
219.4100785465
 30
0.0
 40
0.2999999999999947
100
AcDbArc
 50
180.0
 51
270.0
  0
ARC
  5
1BC
330
1A8
100
AcDbEntity
  8
$DDT_AUDIT_GENERATED_(86)
  6
Continuous
 62
     7
100
AcDbCircle
 10
81.4844761584
 20
256.070181112
 30
0.0
 40
0.9939139575911254
100
AcDbArc
 50
129.0777463205
 51
181.1946037462
  0
ARC
  5
1BD
330
1A8
100
AcDbEntity
  8
$DDT_AUDIT_GENERATED_(86)
  6
Continuous
 62
     7
100
AcDbCircle
 10
101.1834644002
 20
204.2566354352
 30
0.0
 40
0.6999999999999923
100
AcDbArc
 50
180.0
 51
270.0
  0
ARC
  5
1BE
330
1A8
100
AcDbEntity
  8
$DDT_AUDIT_GENERATED_(86)
  6
Continuous
 62
     7
100
AcDbCircle
 10
-289.7665356
 20
239.1100785465
 30
0.0
 40
400.2500000001536
100
AcDbArc
 50
0.0
 51
2.768712374
  0
LINE
  5
1BF
330
1A8
100
AcDbEntity
  8
$DDT_AUDIT_GENERATED_(86)
  6
Continuous
 62
     7
100
AcDbLine
 10
101.1834644002
 20
203.5566354352
 30
0.0
 11
109.7364825282
 21
203.5566354352
 31
0.0
  0
LINE
  5
1C0
330
1A8
100
AcDbEntity
  8
$DDT_AUDIT_GENERATED_(86)
  6
Continuous
 62
     7
100
AcDbLine
 10
80.7834644002
 20
219.1100785465
 30
0.0
 11
100.4834644002
 21
219.1100785465
 31
0.0
  0
LINE
  5
1C1
330
1A8
100
AcDbEntity
  8
$DDT_AUDIT_GENERATED_(86)
  6
Continuous
 62
     7
100
AcDbLine
 10
109.317055268
 20
259.1100785465
 30
0.0
 11
85.53134871
 21
259.1100785465
 31
0.0
  0
LINE
  5
1C2
330
1A8
100
AcDbEntity
  8
$DDT_AUDIT_GENERATED_(86)
  6
Continuous
 62
     7
100
AcDbLine
 10
110.4834644002
 20
209.4037756886
 30
0.0
 11
110.4834644002
 21
239.1100785465
 31
0.0
  0
ARC
  5
1C3
330
1A8
100
AcDbEntity
  8
$DDT_AUDIT_GENERATED_(86)
  6
Continuous
 62
     7
100
AcDbCircle
 10
109.317055268
 20
258.4100785465
 30
0.0
 40
0.7000000000000052
100
AcDbArc
 50
2.768712374
 51
90.0
  0
SPLINE
  5
1C4
330
1A8
100
AcDbEntity
  8
$DDT_AUDIT_GENERATED_(86)
  6
Continuous
 62
     7
100
AcDbSpline
210
0.0
220
0.0
230
1.0
 70
     8
 71
     3
 72
    21
 73
    17
 74
     0
 42
0.0000000072084342
 43
0.0000000001
 40
0.0
 40
0.0
 40
0.0
 40
0.0
 40
0.0209992958051752
 40
0.1252099709046526
 40
0.2122562180464174
 40
0.2877671275158504
 40
0.3533239370198409
 40
0.4088995152628792
 40
0.4532879946514526
 40
0.4823277970101578
 40
0.5031714828832989
 40
0.5295828653992397
 40
0.5801528819237078
 40
0.6930903681119542
 40
0.8888156597102278
 40
1.0
 40
1.0
 40
1.0
 40
1.0
 10
109.7362136770601
 20
203.5621812233944
 30
0.0
 10
109.7522459121271
 20
203.5602490328473
 30
0.0
 10
109.8345183580398
 20
203.5506969409714
 30
0.0
 10
109.987120546882
 20
203.5951187211183
 30
0.0
 10
110.1503604079998
 20
203.6831454675587
 30
0.0
 10
110.2682612805663
 20
203.7935550657961
 30
0.0
 10
110.3471873112111
 20
203.9068519213352
 30
0.0
 10
110.3951276127328
 20
204.0119800376416
 30
0.0
 10
110.4195469759933
 20
204.0977152890668
 30
0.0
 10
110.4293972875699
 20
204.1539074432208
 30
0.0
 10
110.4332860533725
 20
204.1854278126115
 30
0.0
 10
110.4357211535344
 20
204.2117464218562
 30
0.0
 10
110.4377672886752
 20
204.2435652096379
 30
0.0
 10
110.4401317268804
 20
204.29798006984
 30
0.0
 10
110.4430471381164
 20
204.3904903388164
 30
0.0
 10
110.4452221058133
 20
204.4922063696075
 30
0.0
 10
110.4461470323533
 20
204.5359111121197
 30
0.0
  0
ARC
  5
1C5
330
1A8
100
AcDbEntity
  8
$DDT_AUDIT_GENERATED_(9D)
  6
Continuous
 62
     7
100
AcDbCircle
 10
31.1
 20
239.0999999947
 30
0.0
 40
24.75
100
AcDbArc
 50
302.7087611751
 51
306.0911572378
  0
ARC
  5
1C6
330
1A8
100
AcDbEntity
  8
$DDT_AUDIT_GENERATED_(9D)
  6
Continuous
 62
     7
100
AcDbCircle
 10
31.1
 20
239.0999999947
 30
0.0
 40
24.75
100
AcDbArc
 50
94.6350157456
 51
237.3037999147
  0
ARC
  5
1C7
330
1A8
100
AcDbEntity
  8
$DDT_AUDIT_GENERATED_(9D)
  6
Continuous
 62
     7
100
AcDbCircle
 10
31.1
 20
239.0999999947
 30
0.0
 40
24.75
100
AcDbArc
 50
53.9088427622
 51
85.3649842544
  0
ARC
  5
1C9
330
1A8
100
AcDbEntity
  8
$DDT_AUDIT_GENERATED_(1C8)
  6
Continuous
 62
     7
100
AcDbCircle
 10
33.6
 20
239.0999999947
 30
0.0
 40
23.50000000000001
100
AcDbArc
 50
58.3275665736
 51
62.6060275857
  0
ARC
  5
1CA
330
1A8
100
AcDbEntity
  8
$DDT_AUDIT_GENERATED_(1C8)
  6
Continuous
 62
     7
100
AcDbCircle
 10
33.6
 20
239.0999999947
 30
0.0
 40
23.50000000000001
100
AcDbArc
 50
297.5819774605
 51
301.6724334264
  0
LINE
  5
1CB
330
1A8
100
AcDbEntity
  8
$DDT_AUDIT_GENERATED_(1C8)
  6
Continuous
 62
     7
100
AcDbLine
 10
22.6
 20
262.5999999947
 30
0.0
 11
23.3338877165
 21
262.5999999947
 31
0.0
  0
ARC
  5
1CC
330
1A8
100
AcDbEntity
  8
$DDT_AUDIT_GENERATED_(1C8)
  6
Continuous
 62
     7
100
AcDbCircle
 10
22.6
 20
261.5999999947
 30
0.0
 40
1.000000000000001
100
AcDbArc
 50
90.0
 51
157.2777348285
  0
LINE
  5
1CD
330
1A8
100
AcDbEntity
  8
$DDT_AUDIT_GENERATED_(18B)
  6
Continuous
 62
     7
100
AcDbLine
 10
29.1
 20
278.5654826085
 30
0.0
 11
33.1
 21
278.5654826085
 31
0.0
  0
LINE
  5
1CE
330
1A8
100
AcDbEntity
  8
$DDT_AUDIT_GENERATED_(18B)
  6
Continuous
 62
     7
100
AcDbLine
 10
33.1
 20
265.0981952485
 30
0.0
 11
33.1
 21
278.5654826085
 31
0.0
  0
LINE
  5
1CF
330
1A8
100
AcDbEntity
  8
$DDT_AUDIT_GENERATED_(18B)
  6
Continuous
 62
     7
100
AcDbLine
 10
29.1
 20
278.5654826085
 30
0.0
 11
29.1
 21
265.0981952485
 31
0.0
  0
LINE
  5
1D0
330
1A8
100
AcDbEntity
  8
$DDT_AUDIT_GENERATED_(18B)
  6
Continuous
 62
     7
100
AcDbLine
 10
29.1
 20
265.0981952485
 30
0.0
 11
29.1
 21
262.2450256996
 31
0.0
  0
LINE
  5
1D1
330
1A8
100
AcDbEntity
  8
$DDT_AUDIT_GENERATED_(18B)
  6
Continuous
 62
     7
100
AcDbLine
 10
33.1
 20
262.2450256996
 30
0.0
 11
33.1
 21
265.0981952485
 31
0.0
  0
LINE
  5
1D2
330
1A8
100
AcDbEntity
  8
$DDT_AUDIT_GENERATED_(18B)
  6
Continuous
 62
     7
100
AcDbLine
 10
33.1
 20
259.0999999947
 30
0.0
 11
33.1
 21
262.2450256996
 31
0.0
  0
LINE
  5
1D3
330
1A8
100
AcDbEntity
  8
$DDT_AUDIT_GENERATED_(18B)
  6
Continuous
 62
     7
100
AcDbLine
 10
29.1
 20
262.2450256996
 30
0.0
 11
29.1
 21
259.0999999947
 31
0.0
  0
ARC
  5
1D4
330
1A8
100
AcDbEntity
  8
$DDT_AUDIT_GENERATED_(A4)
  6
Continuous
 62
     7
100
AcDbCircle
 10
43.765
 20
247.8999999947
 30
0.0
 40
0.6999999999999993
100
AcDbArc
 50
0.0
 51
90.0
  0
LINE
  5
1D5
330
1A8
100
AcDbEntity
  8
$DDT_AUDIT_GENERATED_(A4)
  6
Continuous
 62
     7
100
AcDbLine
 10
18.435
 20
248.5999999947
 30
0.0
 11
43.765
 21
248.5999999947
 31
0.0
  0
ARC
  5
1D6
330
1A8
100
AcDbEntity
  8
$DDT_AUDIT_GENERATED_(A4)
  6
Continuous
 62
     7
100
AcDbCircle
 10
18.435
 20
247.8999999947
 30
0.0
 40
0.6999999999999993
100
AcDbArc
 50
90.0
 51
180.0
  0
LINE
  5
1D7
330
1A8
100
AcDbEntity
  8
$DDT_AUDIT_GENERATED_(A4)
  6
Continuous
 62
     7
100
AcDbLine
 10
17.735
 20
207.5999999947
 30
0.0
 11
17.735
 21
247.8999999947
 31
0.0
  0
LINE
  5
1D8
330
1A8
100
AcDbEntity
  8
$DDT_AUDIT_GENERATED_(A4)
  6
Continuous
 62
     7
100
AcDbLine
 10
17.735
 20
113.5499996498
 30
0.0
 11
17.735
 21
207.5999999947
 31
0.0
  0
LINE
  5
1D9
330
1A8
100
AcDbEntity
  8
$DDT_AUDIT_GENERATED_(A4)
  6
Continuous
 62
     7
100
AcDbLine
 10
44.465
 20
207.5999999947
 30
0.0
 11
44.465
 21
113.5500002141
 31
0.0
  0
LINE
  5
1DA
330
1A8
100
AcDbEntity
  8
$DDT_AUDIT_GENERATED_(A4)
  6
Continuous
 62
     7
100
AcDbLine
 10
44.465
 20
247.8999999947
 30
0.0
 11
44.465
 21
207.5999999947
 31
0.0
  0
SPLINE
  5
1DB
330
1A8
100
AcDbEntity
  8
$DDT_AUDIT_GENERATED_(A4)
  6
Continuous
 62
     7
100
AcDbSpline
210
0.0
220
0.0
230
1.0
 70
     8
 71
     3
 72
    12
 73
     8
 74
     0
 42
0.0000000008702961
 43
0.0000000001
 40
0.0
 40
0.0
 40
0.0
 40
0.0
 40
0.5000000000000002
 40
0.5000000000000002
 40
0.7500000000000001
 40
0.7500000000000001
 40
1.0
 40
1.0
 40
1.0
 40
1.0
 10
24.93499977509796
 20
106.3500005121195
 30
0.0
 10
23.04147676338312
 20
106.3500006816833
 30
0.0
 10
21.17110471985351
 20
107.1297389117465
 30
0.0
 10
19.17486143036615
 20
109.1287134856794
 30
0.0
 10
18.64193895845826
 20
109.9227789011154
 30
0.0
 10
17.91723547477901
 20
111.6735363944415
 30
0.0
 10
17.73500033796391
 20
112.5989593953649
 30
0.0
 10
17.73500024726447
 20
113.5499996498213
 30
0.0
  0
SPLINE
  5
1DC
330
1A8
100
AcDbEntity
  8
$DDT_AUDIT_GENERATED_(A4)
  6
Continuous
 62
     7
100
AcDbSpline
210
0.0
220
0.0
230
1.0
 70
     8
 71
     3
 72
    12
 73
     8
 74
     0
 42
0.0000000008702963
 43
0.0000000001
 40
0.0
 40
0.0
 40
0.0
 40
0.0
 40
0.5000000000000002
 40
0.5000000000000002
 40
0.7500000000000001
 40
0.7500000000000001
 40
1.0
 40
1.0
 40
1.0
 40
1.0
 10
44.46499999999993
 20
113.5500002140591
 30
0.0
 10
44.4649999999999
 20
111.6564485405366
 30
0.0
 10
43.6851991512014
 20
109.786029873813
 30
0.0
 10
41.68635207338357
 20
107.7899342120741
 30
0.0
 10
40.89223998660478
 20
107.2569442743658
 30
0.0
 10
39.14144447930467
 20
106.5322305362716
 30
0.0
 10
38.2160482697261
 20
106.3500001904521
 30
0.0
 10
37.26499982125189
 20
106.3500001070311
 30
0.0
  0
LINE
  5
1DD
330
1A8
100
AcDbEntity
  8
$DDT_AUDIT_GENERATED_(A4)
  6
Continuous
 62
     7
100
AcDbLine
 10
37.2649998213
 20
106.35
 30
0.0
 11
24.9349997751
 21
106.35
 31
0.0
  0
LINE
  5
1DE
330
1A8
100
AcDbEntity
  8
$DDT_AUDIT_GENERATED_(19C)
  6
Continuous
 62
     7
100
AcDbLine
 10
34.45
 20
259.0999999947
 30
0.0
 11
27.75
 21
259.0999999947
 31
0.0
  0
LINE
  5
1DF
330
1A8
100
AcDbEntity
  8
$DDT_AUDIT_GENERATED_(19C)
  6
Continuous
 62
     7
100
AcDbLine
 10
27.75
 20
259.0999999947
 30
0.0
 11
27.75
 21
258.8174415123
 31
0.0
  0
LINE
  5
1E0
330
1A8
100
AcDbEntity
  8
$DDT_AUDIT_GENERATED_(19C)
  6
Continuous
 62
     7
100
AcDbLine
 10
34.45
 20
258.8174415123
 30
0.0
 11
34.45
 21
259.0999999947
 31
0.0
  0
ENDBLK
  5
1E2
330
1A8
100
AcDbEntity
  8
0
100
AcDbBlockEnd
  0
ENDSEC
  0
SECTION
  2
ENTITIES
  0
LINE
  5
5E
330
1F
100
AcDbEntity
  8
Default
  6
Continuous
 62
     7
100
AcDbLine
 10
187.5092169168
 20
736.6064993569
 30
0.0
 11
192.6195505008
 21
720.878509816
 31
0.0
  0
LINE
  5
5F
330
1F
100
AcDbEntity
  8
Default
  6
Continuous
 62
     7
100
AcDbLine
 10
191.3134429819
 20
737.8425673344
 30
0.0
 11
192.632853809
 21
733.7818383532
 31
0.0
  0
INSERT
  5
61
330
1F
100
AcDbEntity
  8
Default
100
AcDbBlockReference
  2
SEANNOT_GROUP
 10
0.0
 20
0.0
 30
0.0
  0
INSERT
  5
6C
330
1F
100
AcDbEntity
  8
Default
100
AcDbBlockReference
  2
SEANNOT_GROUP1
 10
0.0
 20
0.0
 30
0.0
  0
INSERT
  5
72
330
1F
100
AcDbEntity
  8
Default
100
AcDbBlockReference
  2
SEANNOT_GROUP2
 10
0.0
 20
0.0
 30
0.0
  0
INSERT
  5
78
330
1F
100
AcDbEntity
  8
Default
100
AcDbBlockReference
  2
SE
 10
0.0
 20
0.0
 30
0.0
  0
INSERT
  5
175
330
1F
100
AcDbEntity
  8
Default
100
AcDbBlockReference
  2
SE1
 10
0.0
 20
0.0
 30
0.0
  0
INSERT
  5
1A9
330
1F
100
AcDbEntity
  8
Default
100
AcDbBlockReference
  2
SE2
 10
0.0
 20
0.0
 30
0.0
  0
TEXT
  5
1E4
330
1F
100
AcDbEntity
  8
Default
  6
Continuous
 62
     7
100
AcDbText
 10
5.9362635081
 20
53.4225120485
 30
0.0
 40
10.0
  1
Grohe AG^J
  7
SEACAD_seiso_ttf
 11
5.9362635081
 21
63.4225120485
 31
0.0
100
AcDbText
 73
     3
  0
TEXT
  5
1E5
330
1F
100
AcDbEntity
  8
Default
  6
Continuous
 62
     7
100
AcDbText
 10
5.9362635081
 20
37.0588756849
 30
0.0
 40
10.0
  1
 
  7
SEACAD_seiso_ttf
 11
5.9362635081
 21
47.0588756849
 31
0.0
100
AcDbText
 73
     3
  0
TEXT
  5
1E6
330
1F
100
AcDbEntity
  8
Default
  6
Continuous
 62
     7
100
AcDbText
 10
5.9362635081
 20
20.6952393213
 30
0.0
 40
10.0
  1
ecn:
  7
SEACAD_seiso_ttf
 11
5.9362635081
 21
30.6952393213
 31
0.0
100
AcDbText
 73
     3
  0
TEXT
  5
1E7
330
1F
100
AcDbEntity
  8
Default
  6
Continuous
 62
     7
100
AcDbText
 10
5.9362635081
 20
4.3316029576
 30
0.0
 40
10.0
  1
unit: mm
  7
SEACAD_seiso_ttf
 11
5.9362635081
 21
14.3316029576
 31
0.0
100
AcDbText
 73
     3
  0
LINE
  5
1E8
330
1F
100
AcDbEntity
  8
Default
  6
Continuous
 62
     7
100
AcDbLine
 10
0.0
 20
0.0
 30
0.0
 11
100.0
 21
0.0
 31
0.0
  0
LINE
  5
1E9
330
1F
100
AcDbEntity
  8
Default
  6
Continuous
 62
     7
100
AcDbLine
 10
0.0
 20
0.0
 30
0.0
 11
0.0
 21
100.0
 31
0.0
  0
TEXT
  5
1EA
330
1F
100
AcDbEntity
  8
Default
  6
Continuous
 62
     7
100
AcDbText
 10
24.3923665681
 20
-18.2375342018
 30
0.0
 40
10.0
  1
100 mm
  7
SEACAD_seiso_ttf
 11
24.3923665681
 21
-8.2375342018
 31
0.0
100
AcDbText
 73
     3
  0
TEXT
  5
1EB
330
1F
100
AcDbEntity
  8
Default
  6
Continuous
 62
     7
100
AcDbText
 10
-7.6150308803
 20
24.6231930421
 30
0.0
 40
10.0
  1
100 mm
 50
90.0
  7
SEACAD_seiso_ttf
 11
-17.6150308803
 21
24.6231930421
 31
0.0
100
AcDbText
 73
     3
  0
TEXT
  5
1EC
330
1F
100
AcDbEntity
  8
Default
  6
Continuous
 62
     7
100
AcDbText
 10
28.4878128572
 20
20.0907663715
 30
0.0
 40
10.0
  1
223777
  7
SEACAD_seiso_ttf
 11
28.4878128572
 21
30.0907663715
 31
0.0
100
AcDbText
 73
     3
  0
TEXT
  5
1ED
330
1F
100
AcDbEntity
  8
Default
  6
Continuous
 62
     7
100
AcDbText
 10
5.9012241913
 20
36.7242780188
 30
0.0
 40
10.0
  1
23296000
  7
SEACAD_seiso_ttf
 11
5.9012241913
 21
46.7242780188
 31
0.0
100
AcDbText
 73
     3
  0
ENDSEC
  0
SECTION
  2
OBJECTS
  0
DICTIONARY
  5
C
330
0
100
AcDbDictionary
281
     1
  3
ACAD_GROUP
350
D
  3
ACAD_LAYOUT
350
1A
  3
ACAD_MLEADERSTYLE
350
1F1
  3
ACAD_MLINESTYLE
350
17
  3
ACAD_PLOTSETTINGS
350
19
  3
ACAD_PLOTSTYLENAME
350
E
  3
ACAD_SCALELIST
350
3B
  3
ACAD_TABLESTYLE
350
1F0
  3
ACAD_VISUALSTYLE
350
2A
  3
AcDbVariableDictionary
350
1EE
  0
DICTIONARY
  5
D
102
{ACAD_REACTORS
330
C
102
}
330
C
100
AcDbDictionary
281
     1
  0
DICTIONARY
  5
1A
102
{ACAD_REACTORS
330
C
102
}
330
C
100
AcDbDictionary
281
     1
  3
Layout1
350
1E
  3
Model
350
22
  0
DICTIONARY
  5
1F1
102
{ACAD_REACTORS
330
C
102
}
330
C
100
AcDbDictionary
281
     1
  0
DICTIONARY
  5
17
102
{ACAD_REACTORS
330
C
102
}
330
C
100
AcDbDictionary
281
     1
  3
Standard
350
18
  0
DICTIONARY
  5
19
102
{ACAD_REACTORS
330
C
102
}
330
C
100
AcDbDictionary
281
     1
  0
ACDBDICTIONARYWDFLT
  5
E
102
{ACAD_REACTORS
330
C
102
}
330
C
100
AcDbDictionary
281
     1
  3
Normal
350
F
100
AcDbDictionaryWithDefault
340
F
  0
DICTIONARY
  5
3B
102
{ACAD_REACTORS
330
C
102
}
330
C
100
AcDbDictionary
281
     1
  3
A0
350
3C
  3
A1
350
3D
  3
A2
350
3E
  3
A3
350
3F
  3
A4
350
40
  3
A5
350
41
  3
A6
350
42
  3
A7
350
43
  3
A8
350
44
  3
A9
350
45
  3
B0
350
46
  3
B1
350
47
  3
B2
350
48
  3
B3
350
49
  3
B4
350
4A
  3
B5
350
4B
  3
B6
350
4C
  3
B7
350
4D
  3
B8
350
4E
  3
B9
350
4F
  3
C0
350
50
  3
C1
350
51
  3
C2
350
52
  3
C3
350
53
  3
C4
350
54
  3
C5
350
55
  3
C6
350
56
  3
C7
350
57
  3
C8
350
58
  3
C9
350
59
  3
D0
350
5A
  3
D1
350
5B
  3
D2
350
5C
  0
DICTIONARY
  5
1F0
102
{ACAD_REACTORS
330
C
102
}
330
C
100
AcDbDictionary
281
     1
  0
DICTIONARY
  5
2A
102
{ACAD_REACTORS
330
C
102
}
330
C
100
AcDbDictionary
281
     1
  3
2dWireframe
350
2F
  3
3D Hidden
350
31
  3
3dWireframe
350
30
  3
Basic
350
32
  3
Brighten
350
36
  3
ColorChange
350
3A
  3
Conceptual
350
34
  3
Dim
350
35
  3
Facepattern
350
39
  3
Flat
350
2B
  3
FlatWithEdges
350
2C
  3
Gouraud
350
2D
  3
GouraudWithEdges
350
2E
  3
Linepattern
350
38
  3
Realistic
350
33
  3
Thicken
350
37
  0
DICTIONARY
  5
1EE
102
{ACAD_REACTORS
330
C
102
}
330
C
100
AcDbDictionary
281
     1
  3
CANNOSCALE
350
1EF
  3
PSOLHEIGHT
350
1F3
  3
PSOLWIDTH
350
1F2
  0
LAYOUT
  5
1E
102
{ACAD_REACTORS
330
1A
102
}
330
1A
100
AcDbPlotSettings
  1

  2
none_device
  4

  6

 40
0.0
 41
0.0
 42
0.0
 43
0.0
 44
0.0
 45
0.0
 46
0.0
 47
0.0
 48
0.0
 49
0.0
140
0.0
141
0.0
142
1.0
143
1.0
 70
   688
 72
     0
 73
     0
 74
     5
  7

 75
    16
147
1.0
148
0.0
149
0.0
100
AcDbLayout
  1
Layout1
 70
     1
 71
     1
 10
0.0
 20
0.0
 11
3000.0
 21
4500.0
 12
0.0
 22
0.0
 32
0.0
 14
0.0
 24
0.0
 34
0.0
 15
3000.0
 25
4500.0
 35
0.0
146
0.0
 13
0.0
 23
0.0
 33
0.0
 16
1.0
 26
0.0
 36
0.0
 17
0.0
 27
1.0
 37
0.0
 76
     0
330
1B
  0
LAYOUT
  5
22
102
{ACAD_REACTORS
330
1A
102
}
330
1A
100
AcDbPlotSettings
  1

  2
none_device
  4

  6

 40
0.0
 41
0.0
 42
0.0
 43
0.0
 44
0.0
 45
0.0
 46
0.0
 47
0.0
 48
0.0
 49
0.0
140
0.0
141
0.0
142
1.0
143
1.0
 70
  1712
 72
     0
 73
     0
 74
     0
  7

 75
     0
147
1.0
148
0.0
149
0.0
100
AcDbLayout
  1
Model
 70
     1
 71
     0
 10
0.0
 20
0.0
 11
3000.0
 21
4500.0
 12
0.0
 22
0.0
 32
0.0
 14
0.0
 24
0.0
 34
0.0
 15
3000.0
 25
4500.0
 35
0.0
146
0.0
 13
0.0
 23
0.0
 33
0.0
 16
1.0
 26
0.0
 36
0.0
 17
0.0
 27
1.0
 37
0.0
 76
     0
330
1F
331
29
  0
MLINESTYLE
  5
18
102
{ACAD_REACTORS
330
17
102
}
330
17
100
AcDbMlineStyle
  2
Standard
 70
     0
  3

 62
   256
 51
90.0
 52
90.0
 71
     2
 49
0.5
 62
   256
  6
BYLAYER
 49
-0.5
 62
   256
  6
BYLAYER
  0
ACDBPLACEHOLDER
  5
F
102
{ACAD_REACTORS
330
E
102
}
330
E
  0
SCALE
  5
3C
102
{ACAD_REACTORS
330
3B
102
}
330
3B
100
AcDbScale
 70
     0
300
1:1
140
1.0
141
1.0
290
     1
  0
SCALE
  5
3D
102
{ACAD_REACTORS
330
3B
102
}
330
3B
100
AcDbScale
 70
     0
300
1:2
140
1.0
141
2.0
290
     0
  0
SCALE
  5
3E
102
{ACAD_REACTORS
330
3B
102
}
330
3B
100
AcDbScale
 70
     0
300
1:4
140
1.0
141
4.0
290
     0
  0
SCALE
  5
3F
102
{ACAD_REACTORS
330
3B
102
}
330
3B
100
AcDbScale
 70
     0
300
1:5
140
1.0
141
5.0
290
     0
  0
SCALE
  5
40
102
{ACAD_REACTORS
330
3B
102
}
330
3B
100
AcDbScale
 70
     0
300
1:8
140
1.0
141
8.0
290
     0
  0
SCALE
  5
41
102
{ACAD_REACTORS
330
3B
102
}
330
3B
100
AcDbScale
 70
     0
300
1:10
140
1.0
141
10.0
290
     0
  0
SCALE
  5
42
102
{ACAD_REACTORS
330
3B
102
}
330
3B
100
AcDbScale
 70
     0
300
1:16
140
1.0
141
16.0
290
     0
  0
SCALE
  5
43
102
{ACAD_REACTORS
330
3B
102
}
330
3B
100
AcDbScale
 70
     0
300
1:20
140
1.0
141
20.0
290
     0
  0
SCALE
  5
44
102
{ACAD_REACTORS
330
3B
102
}
330
3B
100
AcDbScale
 70
     0
300
1:30
140
1.0
141
30.0
290
     0
  0
SCALE
  5
45
102
{ACAD_REACTORS
330
3B
102
}
330
3B
100
AcDbScale
 70
     0
300
1:40
140
1.0
141
40.0
290
     0
  0
SCALE
  5
46
102
{ACAD_REACTORS
330
3B
102
}
330
3B
100
AcDbScale
 70
     0
300
1:50
140
1.0
141
50.0
290
     0
  0
SCALE
  5
47
102
{ACAD_REACTORS
330
3B
102
}
330
3B
100
AcDbScale
 70
     0
300
1:100
140
1.0
141
100.0
290
     0
  0
SCALE
  5
48
102
{ACAD_REACTORS
330
3B
102
}
330
3B
100
AcDbScale
 70
     0
300
2:1
140
2.0
141
1.0
290
     0
  0
SCALE
  5
49
102
{ACAD_REACTORS
330
3B
102
}
330
3B
100
AcDbScale
 70
     0
300
4:1
140
4.0
141
1.0
290
     0
  0
SCALE
  5
4A
102
{ACAD_REACTORS
330
3B
102
}
330
3B
100
AcDbScale
 70
     0
300
8:1
140
8.0
141
1.0
290
     0
  0
SCALE
  5
4B
102
{ACAD_REACTORS
330
3B
102
}
330
3B
100
AcDbScale
 70
     0
300
10:1
140
10.0
141
1.0
290
     0
  0
SCALE
  5
4C
102
{ACAD_REACTORS
330
3B
102
}
330
3B
100
AcDbScale
 70
     0
300
100:1
140
100.0
141
1.0
290
     0
  0
SCALE
  5
4D
102
{ACAD_REACTORS
330
3B
102
}
330
3B
100
AcDbScale
 70
     0
300
1/128" = 1'-0"
140
0.0078125
141
12.0
290
     0
  0
SCALE
  5
4E
102
{ACAD_REACTORS
330
3B
102
}
330
3B
100
AcDbScale
 70
     0
300
1/64" = 1'-0"
140
0.015625
141
12.0
290
     0
  0
SCALE
  5
4F
102
{ACAD_REACTORS
330
3B
102
}
330
3B
100
AcDbScale
 70
     0
300
1/32" = 1'-0"
140
0.03125
141
12.0
290
     0
  0
SCALE
  5
50
102
{ACAD_REACTORS
330
3B
102
}
330
3B
100
AcDbScale
 70
     0
300
1/16" = 1'-0"
140
0.0625
141
12.0
290
     0
  0
SCALE
  5
51
102
{ACAD_REACTORS
330
3B
102
}
330
3B
100
AcDbScale
 70
     0
300
3/32" = 1'-0"
140
0.09375
141
12.0
290
     0
  0
SCALE
  5
52
102
{ACAD_REACTORS
330
3B
102
}
330
3B
100
AcDbScale
 70
     0
300
1/8" = 1'-0"
140
0.125
141
12.0
290
     0
  0
SCALE
  5
53
102
{ACAD_REACTORS
330
3B
102
}
330
3B
100
AcDbScale
 70
     0
300
3/16" = 1'-0"
140
0.1875
141
12.0
290
     0
  0
SCALE
  5
54
102
{ACAD_REACTORS
330
3B
102
}
330
3B
100
AcDbScale
 70
     0
300
1/4" = 1'-0"
140
0.25
141
12.0
290
     0
  0
SCALE
  5
55
102
{ACAD_REACTORS
330
3B
102
}
330
3B
100
AcDbScale
 70
     0
300
3/8" = 1'-0"
140
0.375
141
12.0
290
     0
  0
SCALE
  5
56
102
{ACAD_REACTORS
330
3B
102
}
330
3B
100
AcDbScale
 70
     0
300
1/2" = 1'-0"
140
0.5
141
12.0
290
     0
  0
SCALE
  5
57
102
{ACAD_REACTORS
330
3B
102
}
330
3B
100
AcDbScale
 70
     0
300
3/4" = 1'-0"
140
0.75
141
12.0
290
     0
  0
SCALE
  5
58
102
{ACAD_REACTORS
330
3B
102
}
330
3B
100
AcDbScale
 70
     0
300
1" = 1'-0"
140
1.0
141
12.0
290
     0
  0
SCALE
  5
59
102
{ACAD_REACTORS
330
3B
102
}
330
3B
100
AcDbScale
 70
     0
300
1-1/2" = 1'-0"
140
1.5
141
12.0
290
     0
  0
SCALE
  5
5A
102
{ACAD_REACTORS
330
3B
102
}
330
3B
100
AcDbScale
 70
     0
300
3" = 1'-0"
140
3.0
141
12.0
290
     0
  0
SCALE
  5
5B
102
{ACAD_REACTORS
330
3B
102
}
330
3B
100
AcDbScale
 70
     0
300
6" = 1'-0"
140
6.0
141
12.0
290
     0
  0
SCALE
  5
5C
102
{ACAD_REACTORS
330
3B
102
}
330
3B
100
AcDbScale
 70
     0
300
1'-0" = 1'-0"
140
12.0
141
12.0
290
     0
  0
VISUALSTYLE
  5
2F
102
{ACAD_REACTORS
330
2A
102
}
330
2A
100
AcDbVisualStyle
  2
2dWireframe
 70
     4
 71
     0
 72
     2
 73
     0
 90
        0
 40
-0.6
 41
-30.0
 62
     5
 63
     7
 74
     1
 91
        4
 64
     7
 65
   257
 75
     1
175
     1
 42
1.0
 92
        0
 66
   257
 43
1.0
 76
     1
 77
     6
 78
     2
 67
     7
 79
     5
170
     0
171
     0
290
     0
174
     0
 93
        1
 44
0.0
173
     0
291
     0
 45
0.0
1001
ACAD
1000
AcDbSavedByObjectVersion
1070
     0
  0
VISUALSTYLE
  5
31
102
{ACAD_REACTORS
330
2A
102
}
330
2A
100
AcDbVisualStyle
  2
3D Hidden
 70
     6
 71
     1
 72
     2
 73
     2
 90
        0
 40
-0.6
 41
-30.0
 62
     5
 63
     7
 74
     2
 91
        2
 64
     7
 65
   257
 75
     2
175
     1
 42
40.0
 92
        0
 66
   257
 43
1.0
 76
     1
 77
     6
 78
     2
 67
     7
 79
     3
170
     0
171
     0
290
     0
174
     0
 93
        1
 44
0.0
173
     0
291
     0
 45
0.0
1001
ACAD
1000
AcDbSavedByObjectVersion
1070
     0
  0
VISUALSTYLE
  5
30
102
{ACAD_REACTORS
330
2A
102
}
330
2A
100
AcDbVisualStyle
  2
3dWireframe
 70
     5
 71
     0
 72
     2
 73
     0
 90
        0
 40
-0.6
 41
-30.0
 62
     5
 63
     7
 74
     1
 91
        4
 64
     7
 65
   257
 75
     1
175
     1
 42
1.0
 92
        0
 66
   257
 43
1.0
 76
     1
 77
     6
 78
     2
 67
     7
 79
     5
170
     0
171
     0
290
     0
174
     0
 93
        1
 44
0.0
173
     0
291
     0
 45
0.0
1001
ACAD
1000
AcDbSavedByObjectVersion
1070
     0
  0
VISUALSTYLE
  5
32
102
{ACAD_REACTORS
330
2A
102
}
330
2A
100
AcDbVisualStyle
  2
Basic
 70
     7
 71
     1
 72
     0
 73
     1
 90
        0
 40
-0.6
 41
-30.0
 62
     5
 63
     7
 74
     0
 91
        4
 64
     7
 65
   257
 75
     1
175
     1
 42
1.0
 92
        8
 66
     7
 43
1.0
 76
     1
 77
     6
 78
     2
 67
     7
 79
     5
170
     0
171
     0
290
     0
174
     0
 93
        1
 44
0.0
173
     0
291
     1
 45
0.0
1001
ACAD
1000
AcDbSavedByObjectVersion
1070
     0
  0
VISUALSTYLE
  5
36
102
{ACAD_REACTORS
330
2A
102
}
330
2A
100
AcDbVisualStyle
  2
Brighten
 70
    12
 71
     2
 72
     2
 73
     0
 90
        0
 40
-0.6
 41
-30.0
 62
     5
 63
     7
 74
     1
 91
        4
 64
     7
 65
   257
 75
     1
175
     1
 42
1.0
 92
        8
 66
     7
 43
1.0
 76
     1
 77
     6
 78
     2
 67
     7
 79
     5
170
     0
171
     0
290
     0
174
     0
 93
        1
 44
50.0
173
     0
291
     1
 45
0.0
1001
ACAD
1000
AcDbSavedByObjectVersion
1070
     0
  0
VISUALSTYLE
  5
3A
102
{ACAD_REACTORS
330
2A
102
}
330
2A
100
AcDbVisualStyle
  2
ColorChange
 70
    16
 71
     2
 72
     2
 73
     3
 90
        0
 40
-0.6
 41
-30.0
 62
     5
 63
     8
 74
     1
 91
        4
 64
     7
 65
   257
 75
     1
175
     1
 42
1.0
 92
        8
 66
     8
 43
1.0
 76
     1
 77
     6
 78
     2
 67
     7
 79
     5
170
     0
171
     0
290
     0
174
     0
 93
        1
 44
0.0
173
     0
291
     1
 45
0.0
1001
ACAD
1000
AcDbSavedByObjectVersion
1070
     0
  0
VISUALSTYLE
  5
34
102
{ACAD_REACTORS
330
2A
102
}
330
2A
100
AcDbVisualStyle
  2
Conceptual
 70
     9
 71
     3
 72
     2
 73
     0
 90
        0
 40
-0.6
 41
-30.0
 62
     5
 63
     7
 74
     2
 91
        2
 64
     7
 65
   257
 75
     1
175
     1
 42
40.0
 92
        8
 66
     7
 43
1.0
 76
     1
 77
     6
 78
     2
 67
     7
 79
     3
170
     0
171
     0
290
     0
174
     0
 93
        1
 44
0.0
173
     0
291
     0
 45
0.0
1001
ACAD
1000
AcDbSavedByObjectVersion
1070
     0
  0
VISUALSTYLE
  5
35
102
{ACAD_REACTORS
330
2A
102
}
330
2A
100
AcDbVisualStyle
  2
Dim
 70
    11
 71
     2
 72
     2
 73
     0
 90
        0
 40
-0.6
 41
-30.0
 62
     5
 63
     7
 74
     1
 91
        4
 64
     7
 65
   257
 75
     1
175
     1
 42
1.0
 92
        8
 66
     7
 43
1.0
 76
     1
 77
     6
 78
     2
 67
     7
 79
     5
170
     0
171
     0
290
     0
174
     0
 93
        1
 44
-50.0
173
     0
291
     1
 45
0.0
1001
ACAD
1000
AcDbSavedByObjectVersion
1070
     0
  0
VISUALSTYLE
  5
39
102
{ACAD_REACTORS
330
2A
102
}
330
2A
100
AcDbVisualStyle
  2
Facepattern
 70
    15
 71
     2
 72
     2
 73
     0
 90
        0
 40
-0.6
 41
-30.0
 62
     5
 63
     7
 74
     1
 91
        4
 64
     7
 65
   257
 75
     1
175
     1
 42
1.0
 92
        8
 66
     7
 43
1.0
 76
     1
 77
     6
 78
     2
 67
     7
 79
     5
170
     0
171
     0
290
     0
174
     0
 93
        1
 44
0.0
173
     0
291
     1
 45
0.0
1001
ACAD
1000
AcDbSavedByObjectVersion
1070
     0
  0
VISUALSTYLE
  5
2B
102
{ACAD_REACTORS
330
2A
102
}
330
2A
100
AcDbVisualStyle
  2
Flat
 70
     0
 71
     2
 72
     1
 73
     1
 90
        2
 40
-0.6
 41
30.0
 62
     5
 63
     7
 74
     0
 91
        4
 64
     7
 65
   257
 75
     1
175
     1
 42
1.0
 92
        8
 66
     7
 43
1.0
 76
     1
 77
     6
 78
     2
 67
     7
 79
     5
170
     0
171
     0
290
     0
174
     0
 93
       13
 44
0.0
173
     0
291
     1
 45
0.0
1001
ACAD
1000
AcDbSavedByObjectVersion
1070
     0
  0
VISUALSTYLE
  5
2C
102
{ACAD_REACTORS
330
2A
102
}
330
2A
100
AcDbVisualStyle
  2
FlatWithEdges
 70
     1
 71
     2
 72
     1
 73
     1
 90
        2
 40
-0.6
 41
30.0
 62
     5
 63
     7
 74
     1
 91
        4
 64
     7
 65
   257
 75
     1
175
     1
 42
1.0
 92
        0
 66
   257
 43
1.0
 76
     1
 77
     6
 78
     2
 67
     7
 79
     5
170
     0
171
     0
290
     0
174
     0
 93
       13
 44
0.0
173
     0
291
     1
 45
0.0
1001
ACAD
1000
AcDbSavedByObjectVersion
1070
     0
  0
VISUALSTYLE
  5
2D
102
{ACAD_REACTORS
330
2A
102
}
330
2A
100
AcDbVisualStyle
  2
Gouraud
 70
     2
 71
     2
 72
     2
 73
     1
 90
        2
 40
-0.6
 41
30.0
 62
     5
 63
     7
 74
     0
 91
        4
 64
     7
 65
   257
 75
     1
175
     1
 42
1.0
 92
        0
 66
     7
 43
1.0
 76
     1
 77
     6
 78
     2
 67
     7
 79
     5
170
     0
171
     0
290
     0
174
     0
 93
       13
 44
0.0
173
     0
291
     1
 45
0.0
1001
ACAD
1000
AcDbSavedByObjectVersion
1070
     0
  0
VISUALSTYLE
  5
2E
102
{ACAD_REACTORS
330
2A
102
}
330
2A
100
AcDbVisualStyle
  2
GouraudWithEdges
 70
     3
 71
     2
 72
     2
 73
     1
 90
        2
 40
-0.6
 41
30.0
 62
     5
 63
     7
 74
     1
 91
        4
 64
     7
 65
   257
 75
     1
175
     1
 42
1.0
 92
        0
 66
   257
 43
1.0
 76
     1
 77
     6
 78
     2
 67
     7
 79
     5
170
     0
171
     0
290
     0
174
     0
 93
       13
 44
0.0
173
     0
291
     1
 45
0.0
1001
ACAD
1000
AcDbSavedByObjectVersion
1070
     0
  0
VISUALSTYLE
  5
38
102
{ACAD_REACTORS
330
2A
102
}
330
2A
100
AcDbVisualStyle
  2
Linepattern
 70
    14
 71
     2
 72
     2
 73
     0
 90
        0
 40
-0.6
 41
-30.0
 62
     5
 63
     7
 74
     1
 91
        4
 64
     7
 65
   257
 75
     7
175
     7
 42
1.0
 92
        8
 66
     7
 43
1.0
 76
     1
 77
     6
 78
     2
 67
     7
 79
     5
170
     0
171
     0
290
     0
174
     0
 93
        1
 44
0.0
173
     0
291
     1
 45
0.0
1001
ACAD
1000
AcDbSavedByObjectVersion
1070
     0
  0
VISUALSTYLE
  5
33
102
{ACAD_REACTORS
330
2A
102
}
330
2A
100
AcDbVisualStyle
  2
Realistic
 70
     8
 71
     2
 72
     2
 73
     0
 90
        0
 40
-0.6
 41
-30.0
 62
     5
 63
     7
 74
     1
 91
        0
 64
     7
 65
   257
 75
     1
175
     1
 42
1.0
 92
        8
 66
     8
 43
1.0
 76
     1
 77
     6
 78
     2
 67
     7
 79
     5
170
     0
171
     0
290
     0
174
     0
 93
       13
 44
0.0
173
     0
291
     0
 45
0.0
1001
ACAD
1000
AcDbSavedByObjectVersion
1070
     0
  0
VISUALSTYLE
  5
37
102
{ACAD_REACTORS
330
2A
102
}
330
2A
100
AcDbVisualStyle
  2
Thicken
 70
    13
 71
     2
 72
     2
 73
     0
 90
        0
 40
-0.6
 41
-30.0
 62
     5
 63
     7
 74
     1
 91
        4
 64
     7
 65
   257
 75
     1
175
     1
 42
1.0
 92
       12
 66
     7
 43
1.0
 76
     1
 77
     6
 78
     2
 67
     7
 79
     5
170
     0
171
     0
290
     0
174
     0
 93
        1
 44
0.0
173
     0
291
     1
 45
0.0
1001
ACAD
1000
AcDbSavedByObjectVersion
1070
     0
  0
DICTIONARYVAR
  5
1EF
102
{ACAD_REACTORS
330
1EE
102
}
330
1EE
100
DictionaryVariables
280
     0
  1
1:1
  0
DICTIONARYVAR
  5
1F3
102
{ACAD_REACTORS
330
1EE
102
}
330
1EE
100
DictionaryVariables
280
     0
  1
80.000000
  0
DICTIONARYVAR
  5
1F2
102
{ACAD_REACTORS
330
1EE
102
}
330
1EE
100
DictionaryVariables
280
     0
  1
5.000000
  0
ENDSEC
  0
EOF
