  0
SECTION
  2
HEADER
  9
$ACADVER
  1
AC1009
  9
$DWGCODEPAGE
  3
ansi_1252
  9
$INSBASE
 10
0.0
 20
0.0
 30
0.0
  9
$EXTMIN
 10
1.000000000000000E+20
 20
1.000000000000000E+20
 30
1.000000000000000E+20
  9
$EXTMAX
 10
-1.000000000000000E+20
 20
-1.000000000000000E+20
 30
-1.000000000000000E+20
  9
$LIMMIN
 10
0.0
 20
0.0
  9
$LIMMAX
 10
12.0
 20
9.0
  9
$ORTHOMODE
 70
     0
  9
$REGENMODE
 70
     1
  9
$FILLMODE
 70
     1
  9
$QTEXTMODE
 70
     0
  9
$MIRRTEXT
 70
     1
  9
$DRAGMODE
 70
     2
  9
$LTSCALE
 40
1.0
  9
$OSMODE
 70
    37
  9
$ATTMODE
 70
     1
  9
$TEXTSIZE
 40
0.2
  9
$TRACEWID
 40
0.05
  9
$TEXTSTYLE
  7
STANDARD
  9
$CLAYER
  8
0
  9
$CELTYPE
  6
BYLAYER
  9
$CECOLOR
 62
   256
  9
$DIMSCALE
 40
1.0
  9
$DIMASZ
 40
0.18
  9
$DIMEXO
 40
0.0625
  9
$DIMDLI
 40
0.38
  9
$DIMRND
 40
0.0
  9
$DIMDLE
 40
0.0
  9
$DIMEXE
 40
0.18
  9
$DIMTP
 40
0.0
  9
$DIMTM
 40
0.0
  9
$DIMTXT
 40
0.18
  9
$DIMCEN
 40
0.09
  9
$DIMTSZ
 40
0.0
  9
$DIMTOL
 70
     0
  9
$DIMLIM
 70
     0
  9
$DIMTIH
 70
     1
  9
$DIMTOH
 70
     1
  9
$DIMSE1
 70
     0
  9
$DIMSE2
 70
     0
  9
$DIMTAD
 70
     0
  9
$DIMZIN
 70
     0
  9
$DIMBLK
  1

  9
$DIMASO
 70
     1
  9
$DIMSHO
 70
     1
  9
$DIMPOST
  1

  9
$DIMAPOST
  1

  9
$DIMALT
 70
     0
  9
$DIMALTD
 70
     2
  9
$DIMALTF
 40
25.4
  9
$DIMLFAC
 40
1.0
  9
$DIMTOFL
 70
     0
  9
$DIMTVP
 40
0.0
  9
$DIMTIX
 70
     0
  9
$DIMSOXD
 70
     0
  9
$DIMSAH
 70
     0
  9
$DIMBLK1
  1

  9
$DIMBLK2
  1

  9
$DIMSTYLE
  2
STANDARD
  9
$DIMCLRD
 70
     0
  9
$DIMCLRE
 70
     0
  9
$DIMCLRT
 70
     0
  9
$DIMTFAC
 40
1.0
  9
$DIMGAP
 40
0.09
  9
$LUNITS
 70
     2
  9
$LUPREC
 70
     4
  9
$SKETCHINC
 40
0.1
  9
$FILLETRAD
 40
0.5
  9
$AUNITS
 70
     0
  9
$AUPREC
 70
     0
  9
$MENU
  1
.
  9
$ELEVATION
 40
0.0
  9
$PELEVATION
 40
0.0
  9
$THICKNESS
 40
0.0
  9
$LIMCHECK
 70
     0
  9
$CHAMFERA
 40
0.5
  9
$CHAMFERB
 40
0.5
  9
$SKPOLY
 70
     0
  9
$TDCREATE
 40
2455981.546526366
  9
$TDUPDATE
 40
2455981.546526366
  9
$TDINDWG
 40
0.0000000116
  9
$TDUSRTIMER
 40
0.0000000116
  9
$USRTIMER
 70
     1
  9
$ANGBASE
 50
0.0
  9
$ANGDIR
 70
     0
  9
$PDMODE
 70
     0
  9
$PDSIZE
 40
0.0
  9
$PLINEWID
 40
0.0
  9
$COORDS
 70
     1
  9
$SPLFRAME
 70
     0
  9
$SPLINETYPE
 70
     6
  9
$SPLINESEGS
 70
     8
  9
$ATTDIA
 70
     0
  9
$ATTREQ
 70
     1
  9
$HANDLING
 70
     1
  9
$HANDSEED
  5
4C8
  9
$SURFTAB1
 70
     6
  9
$SURFTAB2
 70
     6
  9
$SURFTYPE
 70
     6
  9
$SURFU
 70
     6
  9
$SURFV
 70
     6
  9
$UCSNAME
  2

  9
$UCSORG
 10
0.0
 20
0.0
 30
0.0
  9
$UCSXDIR
 10
1.0
 20
0.0
 30
0.0
  9
$UCSYDIR
 10
0.0
 20
1.0
 30
0.0
  9
$PUCSNAME
  2

  9
$PUCSORG
 10
0.0
 20
0.0
 30
0.0
  9
$PUCSXDIR
 10
1.0
 20
0.0
 30
0.0
  9
$PUCSYDIR
 10
0.0
 20
1.0
 30
0.0
  9
$USERI1
 70
     0
  9
$USERI2
 70
     0
  9
$USERI3
 70
     0
  9
$USERI4
 70
     0
  9
$USERI5
 70
     0
  9
$USERR1
 40
0.0
  9
$USERR2
 40
0.0
  9
$USERR3
 40
0.0
  9
$USERR4
 40
0.0
  9
$USERR5
 40
0.0
  9
$WORLDVIEW
 70
     1
  9
$SHADEDGE
 70
     3
  9
$SHADEDIF
 70
    70
  9
$TILEMODE
 70
     1
  9
$MAXACTVP
 70
    64
  9
$PLIMCHECK
 70
     0
  9
$PEXTMIN
 10
1.000000000000000E+20
 20
1.000000000000000E+20
 30
1.000000000000000E+20
  9
$PEXTMAX
 10
-1.000000000000000E+20
 20
-1.000000000000000E+20
 30
-1.000000000000000E+20
  9
$PLIMMIN
 10
0.0
 20
0.0
  9
$PLIMMAX
 10
12.0
 20
9.0
  9
$UNITMODE
 70
     0
  9
$VISRETAIN
 70
     1
  9
$PLINEGEN
 70
     0
  9
$PSLTSCALE
 70
     1
  0
ENDSEC
  0
SECTION
  2
TABLES
  0
TABLE
  2
VPORT
 70
     1
  0
VPORT
  2
*ACTIVE
 70
     0
 10
0.0
 20
0.0
 11
1.0
 21
1.0
 12
0.0
 22
0.0
 13
0.0
 23
0.0
 14
0.5
 24
0.5
 15
0.5
 25
0.5
 16
198.0917053222656
 26
-589.3973388671875
 36
54.55913925170898
 17
46.64225769042969
 27
27.00714111328125
 37
122.4550018310547
 40
254.0429679296938
 41
1.972972972850329
 42
50.0
 43
0.0
 44
0.0
 50
0.0
 51
0.0
 71
     0
 72
   100
 73
     1
 74
     3
 75
     0
 76
     0
 77
     0
 78
     0
  0
ENDTAB
  0
TABLE
  2
LTYPE
 70
     1
  0
LTYPE
  2
CONTINUOUS
 70
     0
  3
Solid line
 72
    65
 73
     0
 40
0.0
  0
ENDTAB
  0
TABLE
  2
LAYER
 70
     2
  0
LAYER
  2
0
 70
     0
 62
     7
  6
CONTINUOUS
  0
LAYER
  2
LAYER_1
 70
     0
 62
     7
  6
CONTINUOUS
  0
ENDTAB
  0
TABLE
  2
STYLE
 70
     1
  0
STYLE
  2
STANDARD
 70
     0
 40
0.0
 41
1.0
 50
0.0
 71
     0
 42
0.2
  3
txt
  4

  0
ENDTAB
  0
TABLE
  2
VIEW
 70
     0
  0
ENDTAB
  0
TABLE
  2
UCS
 70
     0
  0
ENDTAB
  0
TABLE
  2
APPID
 70
     1
  0
APPID
  2
ACAD
 70
     0
  0
ENDTAB
  0
TABLE
  2
DIMSTYLE
 70
     1
  0
DIMSTYLE
  2
STANDARD
 70
     0
  3

  4

  5

  6

  7

 40
1.0
 41
0.18
 42
0.0625
 43
0.38
 44
0.18
 45
0.0
 46
0.0
 47
0.0
 48
0.0
140
0.18
141
0.09
142
0.0
143
25.4
144
1.0
145
0.0
146
1.0
147
0.09
 71
     0
 72
     0
 73
     1
 74
     1
 75
     0
 76
     0
 77
     0
 78
     0
170
     0
171
     2
172
     0
173
     0
174
     0
175
     0
176
     0
177
     0
178
     0
  0
ENDTAB
  0
ENDSEC
  0
SECTION
  2
BLOCKS
  0
BLOCK
  8
0
  2
$MODEL_SPACE
 70
     0
 10
0.0
 20
0.0
 30
0.0
  3
$MODEL_SPACE
  1

  0
ENDBLK
  5
21
  8
0
  0
BLOCK
 67
     1
  8
0
  2
$PAPER_SPACE
 70
     0
 10
0.0
 20
0.0
 30
0.0
  3
$PAPER_SPACE
  1

  0
ENDBLK
  5
1D
 67
     1
  8
0
  0
BLOCK
  8
0
  2
38
 70
     0
 10
0.0
 20
0.0
 30
0.0
  3
38
  1

  0
POLYLINE
  5
3C
  8
0
 62
   123
 66
     1
 10
0.0
 20
0.0
 30
0.0
 70
    64
 71
    38
 72
    62
  0
VERTEX
  5
3D
  8
0
 10
-23.50081253051758
 20
1.950288653373718
 30
36.81116485595703
 70
   192
  0
VERTEX
  5
3E
  8
0
 10
-39.46548080444336
 20
1.727164268493652
 30
37.3793830871582
 70
   192
  0
VERTEX
  5
3F
  8
0
 10
-39.46548080444336
 20
2.0
 30
36.37380981445312
 70
   192
  0
VERTEX
  5
40
  8
0
 10
-39.46548080444336
 20
0.9945943355560303
 30
38.10830688476562
 70
   192
  0
VERTEX
  5
41
  8
0
 10
-22.91713333129883
 20
1.566788196563721
 30
37.61452865600586
 70
   192
  0
VERTEX
  5
42
  8
0
 10
-22.51151275634766
 20
0.8712409734725952
 30
38.17281723022461
 70
   192
  0
VERTEX
  5
43
  8
0
 10
-39.46548080444336
 20
0.0000000000000002
 30
38.37380981445312
 70
   192
  0
VERTEX
  5
44
  8
0
 10
-22.36548233032227
 20
0.0000000000000002
 30
38.37380981445312
 70
   192
  0
VERTEX
  5
45
  8
0
 10
-24.14668846130371
 20
1.947450637817383
 30
35.92219161987305
 70
   192
  0
VERTEX
  5
46
  8
0
 10
-39.46548080444336
 20
1.734496474266052
 30
35.37921524047852
 70
   192
  0
VERTEX
  5
47
  8
0
 10
-24.72732543945312
 20
1.56005322933197
 30
35.12301254272461
 70
   192
  0
VERTEX
  5
48
  8
0
 10
-39.46548080444336
 20
1.005571007728577
 30
34.64664840698242
 70
   192
  0
VERTEX
  5
49
  8
0
 10
-25.1285572052002
 20
0.8651931285858154
 30
34.57076263427734
 70
   192
  0
VERTEX
  5
4A
  8
0
 10
-39.46548080444336
 20
0.0
 30
34.37380981445312
 70
   192
  0
VERTEX
  5
4B
  8
0
 10
-25.27165222167969
 20
0.0
 30
34.37380981445312
 70
   192
  0
VERTEX
  5
4C
  8
0
 10
-15.20995140075684
 20
2.0
 30
9.8792142868042
 70
   192
  0
VERTEX
  5
4D
  8
0
 10
-13.38619041442871
 20
0.9945957660675049
 30
9.8792142868042
 70
   192
  0
VERTEX
  5
4E
  8
0
 10
-14.15263080596924
 20
1.727166295051575
 30
9.8792142868042
 70
   192
  0
VERTEX
  5
4F
  8
0
 10
-13.10702705383301
 20
0.0000000000000002
 30
9.8792142868042
 70
   192
  0
VERTEX
  5
50
  8
0
 10
-16.2557315826416
 20
1.734499931335449
 30
9.8792142868042
 70
   192
  0
VERTEX
  5
51
  8
0
 10
-17.0260009765625
 20
1.005571484565735
 30
9.8792142868042
 70
   192
  0
VERTEX
  5
52
  8
0
 10
-17.31287574768066
 20
0.0
 30
9.8792142868042
 70
   192
  0
VERTEX
  5
53
  8
0
 10
-39.46548080444336
 20
-1.732784867286682
 30
35.37919998168945
 70
   192
  0
VERTEX
  5
54
  8
0
 10
-39.46548080444336
 20
-1.009989738464355
 30
34.63967514038086
 70
   192
  0
VERTEX
  5
55
  8
0
 10
-39.46548080444336
 20
-2.0
 30
36.37380981445312
 70
   192
  0
VERTEX
  5
56
  8
0
 10
-39.46548080444336
 20
-0.9862242937088013
 30
38.10299682617188
 70
   192
  0
VERTEX
  5
57
  8
0
 10
-39.46548080444336
 20
-1.718164563179016
 30
37.37945556640625
 70
   192
  0
VERTEX
  5
58
  8
0
 10
-22.51151275634766
 20
-0.8712409734725952
 30
38.17281723022461
 70
   192
  0
VERTEX
  5
59
  8
0
 10
-24.14668846130371
 20
-1.947450637817383
 30
35.92219161987305
 70
   192
  0
VERTEX
  5
5A
  8
0
 10
-23.50081253051758
 20
-1.950288653373718
 30
36.81116485595703
 70
   192
  0
VERTEX
  5
5B
  8
0
 10
-15.20995140075684
 20
-2.0
 30
9.8792142868042
 70
   192
  0
VERTEX
  5
5C
  8
0
 10
-22.91713333129883
 20
-1.566788196563721
 30
37.61452865600586
 70
   192
  0
VERTEX
  5
5D
  8
0
 10
-14.16417121887207
 20
-1.734499931335449
 30
9.8792142868042
 70
   192
  0
VERTEX
  5
5E
  8
0
 10
-25.1285572052002
 20
-0.8651931285858154
 30
34.57076263427734
 70
   192
  0
VERTEX
  5
5F
  8
0
 10
-24.72732543945312
 20
-1.56005322933197
 30
35.12301254272461
 70
   192
  0
VERTEX
  5
60
  8
0
 10
-17.03371238708496
 20
-0.9945957660675049
 30
9.8792142868042
 70
   192
  0
VERTEX
  5
61
  8
0
 10
-16.26727104187012
 20
-1.727166295051575
 30
9.8792142868042
 70
   192
  0
VERTEX
  5
62
  8
0
 10
-13.39390087127686
 20
-1.005571484565735
 30
9.8792142868042
 70
   192
  0
VERTEX
  5
63
  8
0
 62
   123
 10
0.0
 20
0.0
 30
0.0
 70
   128
 71
     3
 72
     2
 73
     1
  0
VERTEX
  5
64
  8
0
 62
   123
 10
0.0
 20
0.0
 30
0.0
 70
   128
 71
     5
 72
     2
 73
     4
  0
VERTEX
  5
65
  8
0
 62
   123
 10
0.0
 20
0.0
 30
0.0
 70
   128
 71
     2
 72
     5
 73
     1
  0
VERTEX
  5
66
  8
0
 62
   123
 10
0.0
 20
0.0
 30
0.0
 70
   128
 71
     7
 72
     6
 73
     4
  0
VERTEX
  5
67
  8
0
 62
   123
 10
0.0
 20
0.0
 30
0.0
 70
   128
 71
     5
 72
     4
 73
     6
  0
VERTEX
  5
68
  8
0
 62
   123
 10
0.0
 20
0.0
 30
0.0
 70
   128
 71
     8
 72
     6
 73
     7
  0
VERTEX
  5
69
  8
0
 62
   123
 10
0.0
 20
0.0
 30
0.0
 70
   128
 71
     3
 72
     1
 73
     9
  0
VERTEX
  5
6A
  8
0
 62
   123
 10
0.0
 20
0.0
 30
0.0
 70
   128
 71
    11
 72
    10
 73
     9
  0
VERTEX
  5
6B
  8
0
 62
   123
 10
0.0
 20
0.0
 30
0.0
 70
   128
 71
     3
 72
     9
 73
    10
  0
VERTEX
  5
6C
  8
0
 62
   123
 10
0.0
 20
0.0
 30
0.0
 70
   128
 71
    11
 72
    13
 73
    12
  0
VERTEX
  5
6D
  8
0
 62
   123
 10
0.0
 20
0.0
 30
0.0
 70
   128
 71
    12
 72
    10
 73
    11
  0
VERTEX
  5
6E
  8
0
 62
   123
 10
0.0
 20
0.0
 30
0.0
 70
   128
 71
    13
 72
    14
 73
    12
  0
VERTEX
  5
6F
  8
0
 62
   123
 10
0.0
 20
0.0
 30
0.0
 70
   128
 71
    13
 72
    15
 73
    14
  0
VERTEX
  5
70
  8
0
 62
   123
 10
0.0
 20
0.0
 30
0.0
 70
   128
 71
     9
 72
     1
 73
    16
  0
VERTEX
  5
71
  8
0
 62
   123
 10
0.0
 20
0.0
 30
0.0
 70
   128
 71
     6
 72
    17
 73
     5
  0
VERTEX
  5
72
  8
0
 62
   123
 10
0.0
 20
0.0
 30
0.0
 70
   128
 71
     1
 72
    18
 73
    16
  0
VERTEX
  5
73
  8
0
 62
   123
 10
0.0
 20
0.0
 30
0.0
 70
   128
 71
    19
 72
     6
 73
     8
  0
VERTEX
  5
74
  8
0
 62
   123
 10
0.0
 20
0.0
 30
0.0
 70
   128
 71
    19
 72
    17
 73
     6
  0
VERTEX
  5
75
  8
0
 62
   123
 10
0.0
 20
0.0
 30
0.0
 70
   128
 71
     5
 72
    17
 73
    18
  0
VERTEX
  5
76
  8
0
 62
   123
 10
0.0
 20
0.0
 30
0.0
 70
   128
 71
    18
 72
     1
 73
     5
  0
VERTEX
  5
77
  8
0
 62
   123
 10
0.0
 20
0.0
 30
0.0
 70
   128
 71
     9
 72
    16
 73
    20
  0
VERTEX
  5
78
  8
0
 62
   123
 10
0.0
 20
0.0
 30
0.0
 70
   128
 71
    21
 72
    11
 73
    20
  0
VERTEX
  5
79
  8
0
 62
   123
 10
0.0
 20
0.0
 30
0.0
 70
   128
 71
     9
 72
    20
 73
    11
  0
VERTEX
  5
7A
  8
0
 62
   123
 10
0.0
 20
0.0
 30
0.0
 70
   128
 71
    21
 72
    22
 73
    13
  0
VERTEX
  5
7B
  8
0
 62
   123
 10
0.0
 20
0.0
 30
0.0
 70
   128
 71
    13
 72
    11
 73
    21
  0
VERTEX
  5
7C
  8
0
 62
   123
 10
0.0
 20
0.0
 30
0.0
 70
   128
 71
    22
 72
    15
 73
    13
  0
VERTEX
  5
7D
  8
0
 62
   123
 10
0.0
 20
0.0
 30
0.0
 70
   128
 71
    14
 72
     3
 73
    12
  0
VERTEX
  5
7E
  8
0
 62
   123
 10
0.0
 20
0.0
 30
0.0
 70
   128
 71
    23
 72
     7
 73
     4
  0
VERTEX
  5
7F
  8
0
 62
   123
 10
0.0
 20
0.0
 30
0.0
 70
   128
 71
    12
 72
     3
 73
    10
  0
VERTEX
  5
80
  8
0
 62
   123
 10
0.0
 20
0.0
 30
0.0
 70
   128
 71
     2
 72
    14
 73
    24
  0
VERTEX
  5
81
  8
0
 62
   123
 10
0.0
 20
0.0
 30
0.0
 70
   128
 71
     2
 72
     3
 73
    14
  0
VERTEX
  5
82
  8
0
 62
   123
 10
0.0
 20
0.0
 30
0.0
 70
   128
 71
    23
 72
     4
 73
     2
  0
VERTEX
  5
83
  8
0
 62
   123
 10
0.0
 20
0.0
 30
0.0
 70
   128
 71
     2
 72
    24
 73
    23
  0
VERTEX
  5
84
  8
0
 62
   123
 10
0.0
 20
0.0
 30
0.0
 70
   128
 71
    25
 72
     7
 73
    23
  0
VERTEX
  5
85
  8
0
 62
   123
 10
0.0
 20
0.0
 30
0.0
 70
   128
 71
    27
 72
    26
 73
    25
  0
VERTEX
  5
86
  8
0
 62
   123
 10
0.0
 20
0.0
 30
0.0
 70
   128
 71
    26
 72
     7
 73
    25
  0
VERTEX
  5
87
  8
0
 62
   123
 10
0.0
 20
0.0
 30
0.0
 70
   128
 71
    19
 72
     8
 73
    28
  0
VERTEX
  5
88
  8
0
 62
   123
 10
0.0
 20
0.0
 30
0.0
 70
   128
 71
    31
 72
    30
 73
    29
  0
VERTEX
  5
89
  8
0
 62
   123
 10
0.0
 20
0.0
 30
0.0
 70
   128
 71
    33
 72
    32
 73
    30
  0
VERTEX
  5
8A
  8
0
 62
   123
 10
0.0
 20
0.0
 30
0.0
 70
   128
 71
    36
 72
    35
 73
    34
  0
VERTEX
  5
8B
  8
0
 62
   123
 10
0.0
 20
0.0
 30
0.0
 70
   128
 71
    29
 72
    35
 73
    37
  0
VERTEX
  5
8C
  8
0
 62
   123
 10
0.0
 20
0.0
 30
0.0
 70
   128
 71
    15
 72
    22
 73
    34
  0
VERTEX
  5
8D
  8
0
 62
   123
 10
0.0
 20
0.0
 30
0.0
 70
   128
 71
    36
 72
    34
 73
    22
  0
VERTEX
  5
8E
  8
0
 62
   123
 10
0.0
 20
0.0
 30
0.0
 70
   128
 71
    37
 72
    35
 73
    36
  0
VERTEX
  5
8F
  8
0
 62
   123
 10
0.0
 20
0.0
 30
0.0
 70
   128
 71
    32
 72
    38
 73
    28
  0
VERTEX
  5
90
  8
0
 62
   123
 10
0.0
 20
0.0
 30
0.0
 70
   128
 71
    33
 72
    38
 73
    32
  0
VERTEX
  5
91
  8
0
 62
   123
 10
0.0
 20
0.0
 30
0.0
 70
   128
 71
    31
 72
    29
 73
    37
  0
VERTEX
  5
92
  8
0
 62
   123
 10
0.0
 20
0.0
 30
0.0
 70
   128
 71
    30
 72
    31
 73
    33
  0
VERTEX
  5
93
  8
0
 62
   123
 10
0.0
 20
0.0
 30
0.0
 70
   128
 71
    38
 72
    19
 73
    28
  0
VERTEX
  5
94
  8
0
 62
   123
 10
0.0
 20
0.0
 30
0.0
 70
   128
 71
     7
 72
    26
 73
    28
  0
VERTEX
  5
95
  8
0
 62
   123
 10
0.0
 20
0.0
 30
0.0
 70
   128
 71
    29
 72
    23
 73
    35
  0
VERTEX
  5
96
  8
0
 62
   123
 10
0.0
 20
0.0
 30
0.0
 70
   128
 71
    30
 72
    27
 73
    25
  0
VERTEX
  5
97
  8
0
 62
   123
 10
0.0
 20
0.0
 30
0.0
 70
   128
 71
    34
 72
    24
 73
    14
  0
VERTEX
  5
98
  8
0
 62
   123
 10
0.0
 20
0.0
 30
0.0
 70
   128
 71
    24
 72
    34
 73
    35
  0
VERTEX
  5
99
  8
0
 62
   123
 10
0.0
 20
0.0
 30
0.0
 70
   128
 71
    34
 72
    14
 73
    15
  0
VERTEX
  5
9A
  8
0
 62
   123
 10
0.0
 20
0.0
 30
0.0
 70
   128
 71
    23
 72
    24
 73
    35
  0
VERTEX
  5
9B
  8
0
 62
   123
 10
0.0
 20
0.0
 30
0.0
 70
   128
 71
    27
 72
    32
 73
    26
  0
VERTEX
  5
9C
  8
0
 62
   123
 10
0.0
 20
0.0
 30
0.0
 70
   128
 71
    30
 72
    32
 73
    27
  0
VERTEX
  5
9D
  8
0
 62
   123
 10
0.0
 20
0.0
 30
0.0
 70
   128
 71
    25
 72
    23
 73
    29
  0
VERTEX
  5
9E
  8
0
 62
   123
 10
0.0
 20
0.0
 30
0.0
 70
   128
 71
    30
 72
    25
 73
    29
  0
VERTEX
  5
9F
  8
0
 62
   123
 10
0.0
 20
0.0
 30
0.0
 70
   128
 71
    28
 72
     8
 73
     7
  0
VERTEX
  5
A0
  8
0
 62
   123
 10
0.0
 20
0.0
 30
0.0
 70
   128
 71
    28
 72
    26
 73
    32
  0
SEQEND
  5
A1
  8
0
 62
   123
  0
ENDBLK
  5
A5
  8
0
  0
BLOCK
  8
0
  2
39
 70
     0
 10
0.0
 20
0.0
 30
0.0
  3
39
  1

  0
POLYLINE
  5
A7
  8
0
 62
     8
 66
     1
 10
0.0
 20
0.0
 30
0.0
 70
    64
 71
    40
 72
    58
  0
VERTEX
  5
A8
  8
0
 10
109.0398941040039
 20
-11.01011657714844
 30
237.3783264160156
 70
   192
  0
VERTEX
  5
A9
  8
0
 10
112.4877166748047
 20
-11.57499980926514
 30
238.3021697998047
 70
   192
  0
VERTEX
  5
AA
  8
0
 10
116.8920822143555
 20
-11.5741548538208
 30
221.8826141357422
 70
   192
  0
VERTEX
  5
AB
  8
0
 10
113.4340896606445
 20
-11.00890922546387
 30
220.9560546875
 70
   192
  0
VERTEX
  5
AC
  8
0
 10
110.3219604492188
 20
-9.367786407470703
 30
220.1221466064453
 70
   192
  0
VERTEX
  5
AD
  8
0
 10
107.8460998535156
 20
-6.808418273925781
 30
219.4587554931641
 70
   192
  0
VERTEX
  5
AE
  8
0
 10
105.9197463989258
 20
-9.370687484741211
 30
236.5422821044922
 70
   192
  0
VERTEX
  5
AF
  8
0
 10
101.8934860229492
 20
-3.580410718917847
 30
235.4634399414062
 70
   192
  0
VERTEX
  5
B0
  8
0
 10
103.4424438476562
 20
-6.810188770294189
 30
235.8784942626953
 70
   192
  0
VERTEX
  5
B1
  8
0
 10
106.2558364868164
 20
-3.581032276153564
 30
219.0326385498047
 70
   192
  0
VERTEX
  5
B2
  8
0
 10
101.30712890625
 20
0.0000000000000342
 30
235.3063354492188
 70
   192
  0
VERTEX
  5
B3
  8
0
 10
105.7070541381836
 20
0.0000000000000334
 30
218.8855895996094
 70
   192
  0
VERTEX
  5
B4
  8
0
 10
120.3452758789062
 20
-11.00718688964844
 30
222.8078918457031
 70
   192
  0
VERTEX
  5
B5
  8
0
 10
119.0623245239258
 20
-9.356585502624512
 30
240.0638275146484
 70
   192
  0
VERTEX
  5
B6
  8
0
 10
115.9514465332031
 20
-11.00241756439209
 30
239.2302703857422
 70
   192
  0
VERTEX
  5
B7
  8
0
 10
123.4599914550781
 20
-9.363323211669922
 30
223.6424865722656
 70
   192
  0
VERTEX
  5
B8
  8
0
 10
121.5388946533203
 20
-6.79650354385376
 30
240.7274169921875
 70
   192
  0
VERTEX
  5
B9
  8
0
 10
125.9318161010742
 20
-6.805052280426025
 30
224.3047943115234
 70
   192
  0
VERTEX
  5
BA
  8
0
 10
127.5212936401367
 20
-3.576367855072021
 30
224.7306976318359
 70
   192
  0
VERTEX
  5
BB
  8
0
 10
123.0596160888672
 20
-3.561178922653198
 30
241.1348876953125
 70
   192
  0
VERTEX
  5
BC
  8
0
 10
128.0661163330078
 20
-0.0000015470798189
 30
224.8766937255859
 70
   192
  0
VERTEX
  5
BD
  8
0
 10
123.6683120727539
 20
0.0000000000000356
 30
241.2979888916016
 70
   192
  0
VERTEX
  5
BE
  8
0
 10
101.9158248901367
 20
3.561178922653198
 30
235.4694366455078
 70
   192
  0
VERTEX
  5
BF
  8
0
 10
113.4309844970703
 20
11.00765323638916
 30
220.9552154541016
 70
   192
  0
VERTEX
  5
C0
  8
0
 10
112.4877166748047
 20
11.57499980926514
 30
238.3021697998047
 70
   192
  0
VERTEX
  5
C1
  8
0
 10
109.0239868164062
 20
11.00241756439209
 30
237.3740539550781
 70
   192
  0
VERTEX
  5
C2
  8
0
 10
103.4365463256836
 20
6.79650354385376
 30
235.8769073486328
 70
   192
  0
VERTEX
  5
C3
  8
0
 10
107.8379821777344
 20
6.795303821563721
 30
219.4565734863281
 70
   192
  0
VERTEX
  5
C4
  8
0
 10
110.3125839233398
 20
9.361775398254395
 30
220.1196441650391
 70
   192
  0
VERTEX
  5
C5
  8
0
 10
123.4574279785156
 20
9.36503791809082
 30
223.6417999267578
 70
   192
  0
VERTEX
  5
C6
  8
0
 10
119.0556869506836
 20
9.370687484741211
 30
240.0620422363281
 70
   192
  0
VERTEX
  5
C7
  8
0
 10
115.9355392456055
 20
11.01011657714844
 30
239.2259979248047
 70
   192
  0
VERTEX
  5
C8
  8
0
 10
116.8821792602539
 20
11.57372379302979
 30
221.8799591064453
 70
   192
  0
VERTEX
  5
C9
  8
0
 10
120.3425445556641
 20
11.00895118713379
 30
222.8071594238281
 70
   192
  0
VERTEX
  5
CA
  8
0
 10
125.9334716796875
 20
6.802444458007812
 30
224.3052520751953
 70
   192
  0
VERTEX
  5
CB
  8
0
 10
123.0819473266602
 20
3.580410718917847
 30
241.1408843994141
 70
   192
  0
VERTEX
  5
CC
  8
0
 10
121.5329895019531
 20
6.810188770294189
 30
240.725830078125
 70
   192
  0
VERTEX
  5
CD
  8
0
 10
127.5199432373047
 20
3.57874321937561
 30
224.7303466796875
 70
   192
  0
VERTEX
  5
CE
  8
0
 10
105.9131164550781
 20
9.356585502624512
 30
236.5404968261719
 70
   192
  0
VERTEX
  5
CF
  8
0
 10
106.2533721923828
 20
3.57405948638916
 30
219.031982421875
 70
   192
  0
VERTEX
  5
D0
  8
0
 62
     8
 10
0.0
 20
0.0
 30
0.0
 70
   128
 71
     3
 72
     2
 73
     1
  0
VERTEX
  5
D1
  8
0
 62
     8
 10
0.0
 20
0.0
 30
0.0
 70
   128
 71
     1
 72
     5
 73
     4
  0
VERTEX
  5
D2
  8
0
 62
     8
 10
0.0
 20
0.0
 30
0.0
 70
   128
 71
     3
 72
     1
 73
     4
  0
VERTEX
  5
D3
  8
0
 62
     8
 10
0.0
 20
0.0
 30
0.0
 70
   128
 71
     5
 72
     7
 73
     6
  0
VERTEX
  5
D4
  8
0
 62
     8
 10
0.0
 20
0.0
 30
0.0
 70
   128
 71
     7
 72
     5
 73
     1
  0
VERTEX
  5
D5
  8
0
 62
     8
 10
0.0
 20
0.0
 30
0.0
 70
   128
 71
     6
 72
     9
 73
     8
  0
VERTEX
  5
D6
  8
0
 62
     8
 10
0.0
 20
0.0
 30
0.0
 70
   128
 71
     7
 72
     9
 73
     6
  0
VERTEX
  5
D7
  8
0
 62
     8
 10
0.0
 20
0.0
 30
0.0
 70
   128
 71
    11
 72
    10
 73
     8
  0
VERTEX
  5
D8
  8
0
 62
     8
 10
0.0
 20
0.0
 30
0.0
 70
   128
 71
     6
 72
     8
 73
    10
  0
VERTEX
  5
D9
  8
0
 62
     8
 10
0.0
 20
0.0
 30
0.0
 70
   128
 71
    12
 72
    10
 73
    11
  0
VERTEX
  5
DA
  8
0
 62
     8
 10
0.0
 20
0.0
 30
0.0
 70
   128
 71
     2
 72
     3
 73
    13
  0
VERTEX
  5
DB
  8
0
 62
     8
 10
0.0
 20
0.0
 30
0.0
 70
   128
 71
    15
 72
    13
 73
    14
  0
VERTEX
  5
DC
  8
0
 62
     8
 10
0.0
 20
0.0
 30
0.0
 70
   128
 71
    15
 72
     2
 73
    13
  0
VERTEX
  5
DD
  8
0
 62
     8
 10
0.0
 20
0.0
 30
0.0
 70
   128
 71
    17
 72
    14
 73
    16
  0
VERTEX
  5
DE
  8
0
 62
     8
 10
0.0
 20
0.0
 30
0.0
 70
   128
 71
    13
 72
    16
 73
    14
  0
VERTEX
  5
DF
  8
0
 62
     8
 10
0.0
 20
0.0
 30
0.0
 70
   128
 71
    19
 72
    17
 73
    18
  0
VERTEX
  5
E0
  8
0
 62
     8
 10
0.0
 20
0.0
 30
0.0
 70
   128
 71
    17
 72
    16
 73
    18
  0
VERTEX
  5
E1
  8
0
 62
     8
 10
0.0
 20
0.0
 30
0.0
 70
   128
 71
    19
 72
    21
 73
    20
  0
VERTEX
  5
E2
  8
0
 62
     8
 10
0.0
 20
0.0
 30
0.0
 70
   128
 71
    20
 72
    17
 73
    19
  0
VERTEX
  5
E3
  8
0
 62
     8
 10
0.0
 20
0.0
 30
0.0
 70
   128
 71
    21
 72
    22
 73
    20
  0
VERTEX
  5
E4
  8
0
 62
     8
 10
0.0
 20
0.0
 30
0.0
 70
   128
 71
    12
 72
    11
 73
    23
  0
VERTEX
  5
E5
  8
0
 62
     8
 10
0.0
 20
0.0
 30
0.0
 70
   128
 71
    26
 72
    25
 73
    24
  0
VERTEX
  5
E6
  8
0
 62
     8
 10
0.0
 20
0.0
 30
0.0
 70
   128
 71
    29
 72
    28
 73
    27
  0
VERTEX
  5
E7
  8
0
 62
     8
 10
0.0
 20
0.0
 30
0.0
 70
   128
 71
    32
 72
    31
 73
    30
  0
VERTEX
  5
E8
  8
0
 62
     8
 10
0.0
 20
0.0
 30
0.0
 70
   128
 71
    34
 72
    33
 73
    32
  0
VERTEX
  5
E9
  8
0
 62
     8
 10
0.0
 20
0.0
 30
0.0
 70
   128
 71
    37
 72
    36
 73
    35
  0
VERTEX
  5
EA
  8
0
 62
     8
 10
0.0
 20
0.0
 30
0.0
 70
   128
 71
    37
 72
    35
 73
    31
  0
VERTEX
  5
EB
  8
0
 62
     8
 10
0.0
 20
0.0
 30
0.0
 70
   128
 71
    38
 72
    36
 73
    22
  0
VERTEX
  5
EC
  8
0
 62
     8
 10
0.0
 20
0.0
 30
0.0
 70
   128
 71
    36
 72
    38
 73
    35
  0
VERTEX
  5
ED
  8
0
 62
     8
 10
0.0
 20
0.0
 30
0.0
 70
   128
 71
    38
 72
    22
 73
    21
  0
VERTEX
  5
EE
  8
0
 62
     8
 10
0.0
 20
0.0
 30
0.0
 70
   128
 71
    32
 72
    30
 73
    34
  0
VERTEX
  5
EF
  8
0
 62
     8
 10
0.0
 20
0.0
 30
0.0
 70
   128
 71
    31
 72
    35
 73
    30
  0
VERTEX
  5
F0
  8
0
 62
     8
 10
0.0
 20
0.0
 30
0.0
 70
   128
 71
    25
 72
    33
 73
    24
  0
VERTEX
  5
F1
  8
0
 62
     8
 10
0.0
 20
0.0
 30
0.0
 70
   128
 71
    32
 72
    33
 73
    25
  0
VERTEX
  5
F2
  8
0
 62
     8
 10
0.0
 20
0.0
 30
0.0
 70
   128
 71
    29
 72
    39
 73
    24
  0
VERTEX
  5
F3
  8
0
 62
     8
 10
0.0
 20
0.0
 30
0.0
 70
   128
 71
    39
 72
    26
 73
    24
  0
VERTEX
  5
F4
  8
0
 62
     8
 10
0.0
 20
0.0
 30
0.0
 70
   128
 71
    40
 72
    27
 73
    28
  0
VERTEX
  5
F5
  8
0
 62
     8
 10
0.0
 20
0.0
 30
0.0
 70
   128
 71
    29
 72
    27
 73
    39
  0
VERTEX
  5
F6
  8
0
 62
     8
 10
0.0
 20
0.0
 30
0.0
 70
   128
 71
    23
 72
    40
 73
    12
  0
VERTEX
  5
F7
  8
0
 62
     8
 10
0.0
 20
0.0
 30
0.0
 70
   128
 71
    40
 72
    23
 73
    27
  0
VERTEX
  5
F8
  8
0
 62
     8
 10
0.0
 20
0.0
 30
0.0
 70
   128
 71
     6
 72
    10
 73
    30
  0
VERTEX
  5
F9
  8
0
 62
     8
 10
0.0
 20
0.0
 30
0.0
 70
   128
 71
    40
 72
    28
 73
    24
  0
VERTEX
  5
FA
  8
0
 62
     8
 10
0.0
 20
0.0
 30
0.0
 70
   128
 71
    29
 72
    24
 73
    28
  0
VERTEX
  5
FB
  8
0
 62
     8
 10
0.0
 20
0.0
 30
0.0
 70
   128
 71
    33
 72
    12
 73
    40
  0
VERTEX
  5
FC
  8
0
 62
     8
 10
0.0
 20
0.0
 30
0.0
 70
   128
 71
    40
 72
    24
 73
    33
  0
VERTEX
  5
FD
  8
0
 62
     8
 10
0.0
 20
0.0
 30
0.0
 70
   128
 71
     4
 72
     5
 73
    38
  0
VERTEX
  5
FE
  8
0
 62
     8
 10
0.0
 20
0.0
 30
0.0
 70
   128
 71
    10
 72
    33
 73
    34
  0
VERTEX
  5
FF
  8
0
 62
     8
 10
0.0
 20
0.0
 30
0.0
 70
   128
 71
    21
 72
     3
 73
     4
  0
VERTEX
  5
100
  8
0
 62
     8
 10
0.0
 20
0.0
 30
0.0
 70
   128
 71
    19
 72
    16
 73
    13
  0
VERTEX
  5
101
  8
0
 62
     8
 10
0.0
 20
0.0
 30
0.0
 70
   128
 71
    13
 72
    21
 73
    19
  0
VERTEX
  5
102
  8
0
 62
     8
 10
0.0
 20
0.0
 30
0.0
 70
   128
 71
    16
 72
    19
 73
    18
  0
VERTEX
  5
103
  8
0
 62
     8
 10
0.0
 20
0.0
 30
0.0
 70
   128
 71
    13
 72
     3
 73
    21
  0
VERTEX
  5
104
  8
0
 62
     8
 10
0.0
 20
0.0
 30
0.0
 70
   128
 71
    38
 72
     5
 73
    35
  0
VERTEX
  5
105
  8
0
 62
     8
 10
0.0
 20
0.0
 30
0.0
 70
   128
 71
     4
 72
    38
 73
    21
  0
VERTEX
  5
106
  8
0
 62
     8
 10
0.0
 20
0.0
 30
0.0
 70
   128
 71
     5
 72
     6
 73
    30
  0
VERTEX
  5
107
  8
0
 62
     8
 10
0.0
 20
0.0
 30
0.0
 70
   128
 71
    30
 72
    35
 73
     5
  0
VERTEX
  5
108
  8
0
 62
     8
 10
0.0
 20
0.0
 30
0.0
 70
   128
 71
    10
 72
    12
 73
    33
  0
VERTEX
  5
109
  8
0
 62
     8
 10
0.0
 20
0.0
 30
0.0
 70
   128
 71
    30
 72
    10
 73
    34
  0
SEQEND
  5
10A
  8
0
 62
     8
  0
ENDBLK
  5
10D
  8
0
  0
BLOCK
  8
0
  2
40
 70
     0
 10
0.0
 20
0.0
 30
0.0
  3
40
  1

  0
POLYLINE
  5
10F
  8
0
 62
    43
 66
     1
 10
0.0
 20
0.0
 30
0.0
 70
    64
 71
     8
 72
    12
  0
VERTEX
  5
110
  8
0
 10
-25.98254585266113
 20
-25.98254585266113
 30
-7.0
 70
   192
  0
VERTEX
  5
111
  8
0
 10
25.98254585266113
 20
-25.98254585266113
 30
-7.0
 70
   192
  0
VERTEX
  5
112
  8
0
 10
25.9127311706543
 20
-25.9127311706543
 30
1.0
 70
   192
  0
VERTEX
  5
113
  8
0
 10
-25.9127311706543
 20
-25.9127311706543
 30
1.0
 70
   192
  0
VERTEX
  5
114
  8
0
 10
25.9127311706543
 20
25.9127311706543
 30
1.0
 70
   192
  0
VERTEX
  5
115
  8
0
 10
25.98254585266113
 20
25.98254585266113
 30
-7.0
 70
   192
  0
VERTEX
  5
116
  8
0
 10
-25.9127311706543
 20
25.9127311706543
 30
1.0
 70
   192
  0
VERTEX
  5
117
  8
0
 10
-25.98254585266113
 20
25.98254585266113
 30
-7.0
 70
   192
  0
VERTEX
  5
118
  8
0
 62
    43
 10
0.0
 20
0.0
 30
0.0
 70
   128
 71
     3
 72
     2
 73
     1
  0
VERTEX
  5
119
  8
0
 62
    43
 10
0.0
 20
0.0
 30
0.0
 70
   128
 71
     4
 72
     3
 73
     1
  0
VERTEX
  5
11A
  8
0
 62
    43
 10
0.0
 20
0.0
 30
0.0
 70
   128
 71
     3
 72
     5
 73
     2
  0
VERTEX
  5
11B
  8
0
 62
    43
 10
0.0
 20
0.0
 30
0.0
 70
   128
 71
     6
 72
     2
 73
     5
  0
VERTEX
  5
11C
  8
0
 62
    43
 10
0.0
 20
0.0
 30
0.0
 70
   128
 71
     5
 72
     7
 73
     6
  0
VERTEX
  5
11D
  8
0
 62
    43
 10
0.0
 20
0.0
 30
0.0
 70
   128
 71
     8
 72
     6
 73
     7
  0
VERTEX
  5
11E
  8
0
 62
    43
 10
0.0
 20
0.0
 30
0.0
 70
   128
 71
     4
 72
     1
 73
     8
  0
VERTEX
  5
11F
  8
0
 62
    43
 10
0.0
 20
0.0
 30
0.0
 70
   128
 71
     7
 72
     4
 73
     8
  0
VERTEX
  5
120
  8
0
 62
    43
 10
0.0
 20
0.0
 30
0.0
 70
   128
 71
     5
 72
     3
 73
     7
  0
VERTEX
  5
121
  8
0
 62
    43
 10
0.0
 20
0.0
 30
0.0
 70
   128
 71
     4
 72
     7
 73
     3
  0
VERTEX
  5
122
  8
0
 62
    43
 10
0.0
 20
0.0
 30
0.0
 70
   128
 71
     8
 72
     1
 73
     6
  0
VERTEX
  5
123
  8
0
 62
    43
 10
0.0
 20
0.0
 30
0.0
 70
   128
 71
     2
 72
     6
 73
     1
  0
SEQEND
  5
124
  8
0
 62
    43
  0
ENDBLK
  5
127
  8
0
  0
BLOCK
  8
0
  2
IG_TRIMM
 70
     0
 10
0.0
 20
0.0
 30
0.0
  3
IG_TRIMM
  1

  0
POLYLINE
  5
129
  8
0
 62
     9
 66
     1
 10
0.0
 20
0.0
 30
0.0
 70
    64
 71
    32
 72
    54
  0
VERTEX
  5
12A
  8
0
 10
132.75
 20
-13.36499977111816
 30
232.9100036621094
 70
   192
  0
VERTEX
  5
12B
  8
0
 10
121.0309066772461
 20
-7.927520751953125
 30
232.9100036621094
 70
   192
  0
VERTEX
  5
12C
  8
0
 10
110.9490356445312
 20
-7.893941402435303
 30
232.9100036621094
 70
   192
  0
VERTEX
  5
12D
  8
0
 10
132.75
 20
13.36499977111816
 30
232.9100036621094
 70
   192
  0
VERTEX
  5
12E
  8
0
 10
126.1028823852539
 20
0.0000000000003588
 30
232.9100036621094
 70
   192
  0
VERTEX
  5
12F
  8
0
 10
111.0051193237305
 20
7.927520751953125
 30
232.9100036621094
 70
   192
  0
VERTEX
  5
130
  8
0
 10
121.0869903564453
 20
7.893941402435303
 30
232.9100036621094
 70
   192
  0
VERTEX
  5
131
  8
0
 10
31.5
 20
13.36499977111816
 30
232.9100036621094
 70
   192
  0
VERTEX
  5
132
  8
0
 10
105.9331359863281
 20
-0.0000000000011049
 30
232.9100036621094
 70
   192
  0
VERTEX
  5
133
  8
0
 10
31.5
 20
-13.36499977111816
 30
232.9100036621094
 70
   192
  0
VERTEX
  5
134
  8
0
 10
132.75
 20
-13.36499977111816
 30
251.9100036621094
 70
   192
  0
VERTEX
  5
135
  8
0
 10
132.75
 20
13.36499977111816
 30
251.9100036621094
 70
   192
  0
VERTEX
  5
136
  8
0
 10
31.5
 20
-13.36499977111816
 30
251.9100036621094
 70
   192
  0
VERTEX
  5
137
  8
0
 10
31.5
 20
13.36499977111816
 30
251.9100036621094
 70
   192
  0
VERTEX
  5
138
  8
0
 10
12.41039371490479
 20
-13.36499977111816
 30
221.8524627685547
 70
   192
  0
VERTEX
  5
139
  8
0
 10
20.53904914855957
 20
13.36499977111816
 30
229.9904937744141
 70
   192
  0
VERTEX
  5
13A
  8
0
 10
12.49496746063232
 20
13.36499977111816
 30
221.9699096679688
 70
   192
  0
VERTEX
  5
13B
  8
0
 10
20.4247932434082
 20
-13.36499977111816
 30
229.9067687988281
 70
   192
  0
VERTEX
  5
13C
  8
0
 10
9.5
 20
-13.36499977111816
 30
210.9100036621094
 70
   192
  0
VERTEX
  5
13D
  8
0
 10
9.5
 20
13.36499977111816
 30
210.9100036621094
 70
   192
  0
VERTEX
  5
13E
  8
0
 10
2.49893856048584
 20
13.36499977111816
 30
239.8908386230469
 70
   192
  0
VERTEX
  5
13F
  8
0
 10
15.77328491210938
 20
-13.36499977111816
 30
248.7849426269531
 70
   192
  0
VERTEX
  5
140
  8
0
 10
2.49893856048584
 20
-13.36499977111816
 30
239.8908386230469
 70
   192
  0
VERTEX
  5
141
  8
0
 10
15.77328491210938
 20
13.36499977111816
 30
248.7849426269531
 70
   192
  0
VERTEX
  5
142
  8
0
 10
-9.5
 20
-13.36499977111816
 30
210.9100036621094
 70
   192
  0
VERTEX
  5
143
  8
0
 10
-9.5
 20
13.36499977111816
 30
210.9100036621094
 70
   192
  0
VERTEX
  5
144
  8
0
 10
-6.388754844665527
 20
-13.36499977111816
 30
226.6034545898438
 70
   192
  0
VERTEX
  5
145
  8
0
 10
-6.388754844665527
 20
13.36499977111816
 30
226.6034545898438
 70
   192
  0
VERTEX
  5
146
  8
0
 10
-9.5
 20
13.36499977111816
 30
106.5
 70
   192
  0
VERTEX
  5
147
  8
0
 10
9.5
 20
13.36499977111816
 30
106.5
 70
   192
  0
VERTEX
  5
148
  8
0
 10
9.5
 20
-13.36499977111816
 30
106.5
 70
   192
  0
VERTEX
  5
149
  8
0
 10
-9.5
 20
-13.36499977111816
 30
106.5
 70
   192
  0
VERTEX
  5
14A
  8
0
 62
     9
 10
0.0
 20
0.0
 30
0.0
 70
   128
 71
     3
 72
     2
 73
     1
  0
VERTEX
  5
14B
  8
0
 62
     9
 10
0.0
 20
0.0
 30
0.0
 70
   128
 71
     1
 72
     5
 73
     4
  0
VERTEX
  5
14C
  8
0
 62
     9
 10
0.0
 20
0.0
 30
0.0
 70
   128
 71
     7
 72
     6
 73
     4
  0
VERTEX
  5
14D
  8
0
 62
     9
 10
0.0
 20
0.0
 30
0.0
 70
   128
 71
     5
 72
     7
 73
     4
  0
VERTEX
  5
14E
  8
0
 62
     9
 10
0.0
 20
0.0
 30
0.0
 70
   128
 71
     6
 72
     9
 73
     8
  0
VERTEX
  5
14F
  8
0
 62
     9
 10
0.0
 20
0.0
 30
0.0
 70
   128
 71
     6
 72
     8
 73
     4
  0
VERTEX
  5
150
  8
0
 62
     9
 10
0.0
 20
0.0
 30
0.0
 70
   128
 71
    10
 72
     9
 73
     3
  0
VERTEX
  5
151
  8
0
 62
     9
 10
0.0
 20
0.0
 30
0.0
 70
   128
 71
     9
 72
    10
 73
     8
  0
VERTEX
  5
152
  8
0
 62
     9
 10
0.0
 20
0.0
 30
0.0
 70
   128
 71
    10
 72
     3
 73
     1
  0
VERTEX
  5
153
  8
0
 62
     9
 10
0.0
 20
0.0
 30
0.0
 70
   128
 71
     1
 72
     2
 73
     5
  0
VERTEX
  5
154
  8
0
 62
     9
 10
0.0
 20
0.0
 30
0.0
 70
   128
 71
    12
 72
    11
 73
     1
  0
VERTEX
  5
155
  8
0
 62
     9
 10
0.0
 20
0.0
 30
0.0
 70
   128
 71
     1
 72
     4
 73
    12
  0
VERTEX
  5
156
  8
0
 62
     9
 10
0.0
 20
0.0
 30
0.0
 70
   128
 71
    14
 72
    13
 73
    11
  0
VERTEX
  5
157
  8
0
 62
     9
 10
0.0
 20
0.0
 30
0.0
 70
   128
 71
    12
 72
    14
 73
    11
  0
VERTEX
  5
158
  8
0
 62
     9
 10
0.0
 20
0.0
 30
0.0
 70
   128
 71
    17
 72
    16
 73
    15
  0
VERTEX
  5
159
  8
0
 62
     9
 10
0.0
 20
0.0
 30
0.0
 70
   128
 71
    10
 72
    18
 73
     8
  0
VERTEX
  5
15A
  8
0
 62
     9
 10
0.0
 20
0.0
 30
0.0
 70
   128
 71
    15
 72
    16
 73
    18
  0
VERTEX
  5
15B
  8
0
 62
     9
 10
0.0
 20
0.0
 30
0.0
 70
   128
 71
    20
 72
    17
 73
    19
  0
VERTEX
  5
15C
  8
0
 62
     9
 10
0.0
 20
0.0
 30
0.0
 70
   128
 71
    17
 72
    15
 73
    19
  0
VERTEX
  5
15D
  8
0
 62
     9
 10
0.0
 20
0.0
 30
0.0
 70
   128
 71
    18
 72
    16
 73
     8
  0
VERTEX
  5
15E
  8
0
 62
     9
 10
0.0
 20
0.0
 30
0.0
 70
   128
 71
    23
 72
    22
 73
    21
  0
VERTEX
  5
15F
  8
0
 62
     9
 10
0.0
 20
0.0
 30
0.0
 70
   128
 71
    14
 72
    24
 73
    13
  0
VERTEX
  5
160
  8
0
 62
     9
 10
0.0
 20
0.0
 30
0.0
 70
   128
 71
    27
 72
    26
 73
    25
  0
VERTEX
  5
161
  8
0
 62
     9
 10
0.0
 20
0.0
 30
0.0
 70
   128
 71
    27
 72
    28
 73
    26
  0
VERTEX
  5
162
  8
0
 62
     9
 10
0.0
 20
0.0
 30
0.0
 70
   128
 71
    23
 72
    21
 73
    28
  0
VERTEX
  5
163
  8
0
 62
     9
 10
0.0
 20
0.0
 30
0.0
 70
   128
 71
    23
 72
    28
 73
    27
  0
VERTEX
  5
164
  8
0
 62
     9
 10
0.0
 20
0.0
 30
0.0
 70
   128
 71
    22
 72
    13
 73
    24
  0
VERTEX
  5
165
  8
0
 62
     9
 10
0.0
 20
0.0
 30
0.0
 70
   128
 71
    22
 72
    24
 73
    21
  0
VERTEX
  5
166
  8
0
 62
     9
 10
0.0
 20
0.0
 30
0.0
 70
   128
 71
    24
 72
    16
 73
    21
  0
VERTEX
  5
167
  8
0
 62
     9
 10
0.0
 20
0.0
 30
0.0
 70
   128
 71
     4
 72
     8
 73
    12
  0
VERTEX
  5
168
  8
0
 62
     9
 10
0.0
 20
0.0
 30
0.0
 70
   128
 71
    17
 72
    21
 73
    16
  0
VERTEX
  5
169
  8
0
 62
     9
 10
0.0
 20
0.0
 30
0.0
 70
   128
 71
    17
 72
    28
 73
    21
  0
VERTEX
  5
16A
  8
0
 62
     9
 10
0.0
 20
0.0
 30
0.0
 70
   128
 71
    30
 72
    29
 73
    20
  0
VERTEX
  5
16B
  8
0
 62
     9
 10
0.0
 20
0.0
 30
0.0
 70
   128
 71
    28
 72
    17
 73
    20
  0
VERTEX
  5
16C
  8
0
 62
     9
 10
0.0
 20
0.0
 30
0.0
 70
   128
 71
    26
 72
    28
 73
    20
  0
VERTEX
  5
16D
  8
0
 62
     9
 10
0.0
 20
0.0
 30
0.0
 70
   128
 71
    24
 72
     8
 73
    16
  0
VERTEX
  5
16E
  8
0
 62
     9
 10
0.0
 20
0.0
 30
0.0
 70
   128
 71
    29
 72
    26
 73
    20
  0
VERTEX
  5
16F
  8
0
 62
     9
 10
0.0
 20
0.0
 30
0.0
 70
   128
 71
    14
 72
     8
 73
    24
  0
VERTEX
  5
170
  8
0
 62
     9
 10
0.0
 20
0.0
 30
0.0
 70
   128
 71
    14
 72
    12
 73
     8
  0
VERTEX
  5
171
  8
0
 62
     9
 10
0.0
 20
0.0
 30
0.0
 70
   128
 71
    31
 72
    30
 73
    19
  0
VERTEX
  5
172
  8
0
 62
     9
 10
0.0
 20
0.0
 30
0.0
 70
   128
 71
    30
 72
    20
 73
    19
  0
VERTEX
  5
173
  8
0
 62
     9
 10
0.0
 20
0.0
 30
0.0
 70
   128
 71
    19
 72
    25
 73
    31
  0
VERTEX
  5
174
  8
0
 62
     9
 10
0.0
 20
0.0
 30
0.0
 70
   128
 71
    15
 72
    23
 73
    27
  0
VERTEX
  5
175
  8
0
 62
     9
 10
0.0
 20
0.0
 30
0.0
 70
   128
 71
    10
 72
    22
 73
    18
  0
VERTEX
  5
176
  8
0
 62
     9
 10
0.0
 20
0.0
 30
0.0
 70
   128
 71
    23
 72
    15
 73
    18
  0
VERTEX
  5
177
  8
0
 62
     9
 10
0.0
 20
0.0
 30
0.0
 70
   128
 71
    13
 72
    22
 73
    10
  0
VERTEX
  5
178
  8
0
 62
     9
 10
0.0
 20
0.0
 30
0.0
 70
   128
 71
    13
 72
     1
 73
    11
  0
VERTEX
  5
179
  8
0
 62
     9
 10
0.0
 20
0.0
 30
0.0
 70
   128
 71
    13
 72
    10
 73
     1
  0
VERTEX
  5
17A
  8
0
 62
     9
 10
0.0
 20
0.0
 30
0.0
 70
   128
 71
    18
 72
    22
 73
    23
  0
VERTEX
  5
17B
  8
0
 62
     9
 10
0.0
 20
0.0
 30
0.0
 70
   128
 71
    15
 72
    27
 73
    19
  0
VERTEX
  5
17C
  8
0
 62
     9
 10
0.0
 20
0.0
 30
0.0
 70
   128
 71
    25
 72
    19
 73
    27
  0
VERTEX
  5
17D
  8
0
 62
     9
 10
0.0
 20
0.0
 30
0.0
 70
   128
 71
    32
 72
    31
 73
    25
  0
VERTEX
  5
17E
  8
0
 62
     9
 10
0.0
 20
0.0
 30
0.0
 70
   128
 71
    29
 72
    32
 73
    26
  0
VERTEX
  5
17F
  8
0
 62
     9
 10
0.0
 20
0.0
 30
0.0
 70
   128
 71
    32
 72
    25
 73
    26
  0
SEQEND
  5
180
  8
0
 62
     9
  0
ENDBLK
  5
183
  8
0
  0
BLOCK
  8
0
  2
01050031_STOPFEN_EU_000648
 70
     0
 10
0.0
 20
0.0
 30
0.0
  3
01050031_STOPFEN_EU_000648
  1

  0
POLYLINE
  5
185
  8
0
 66
     1
 10
0.0
 20
0.0
 30
0.0
 70
    64
 71
   131
 72
   262
  0
VERTEX
  5
186
  8
0
 10
19.36757659912109
 20
49.47620391845703
 30
67.09515380859375
 70
   192
  0
VERTEX
  5
187
  8
0
 10
18.44550323486328
 20
73.42764282226562
 30
69.80686950683594
 70
   192
  0
VERTEX
  5
188
  8
0
 10
20.01367378234863
 20
49.3829460144043
 30
70.67520904541016
 70
   192
  0
VERTEX
  5
189
  8
0
 10
16.12562561035156
 20
49.08857727050781
 30
84.37044525146484
 70
   192
  0
VERTEX
  5
18A
  8
0
 10
13.16755104064941
 20
73.08194732666016
 30
86.17766571044922
 70
   192
  0
VERTEX
  5
18B
  8
0
 10
13.69040775299072
 20
49.04663848876953
 30
87.0817642211914
 70
   192
  0
VERTEX
  5
18C
  8
0
 10
15.4749231338501
 20
73.12567901611328
 30
83.44400787353516
 70
   192
  0
VERTEX
  5
18D
  8
0
 10
18.02294731140137
 20
49.14516067504883
 30
81.27339172363281
 70
   192
  0
VERTEX
  5
18E
  8
0
 10
15.99850082397461
 20
53.21271896362305
 30
60.73733139038086
 70
   192
  0
VERTEX
  5
18F
  8
0
 10
13.49009323120117
 20
54.96544647216797
 30
58.12994003295898
 70
   192
  0
VERTEX
  5
190
  8
0
 10
13.3307580947876
 20
79.70223999023438
 30
60.6480827331543
 70
   192
  0
VERTEX
  5
191
  8
0
 10
4.127100944519043
 20
79.91627502441406
 30
55.55086898803711
 70
   192
  0
VERTEX
  5
192
  8
0
 10
3.723634481430054
 20
59.07489013671875
 30
53.58640289306641
 70
   192
  0
VERTEX
  5
193
  8
0
 10
0.5950995683670044
 20
79.96041870117188
 30
55.15976333618164
 70
   192
  0
VERTEX
  5
194
  8
0
 10
10.38406658172607
 20
73.05509185791016
 30
88.4083023071289
 70
   192
  0
VERTEX
  5
195
  8
0
 10
7.247159004211426
 20
57.94658279418945
 30
54.49370956420898
 70
   192
  0
VERTEX
  5
196
  8
0
 10
7.513237476348877
 20
79.85690307617188
 30
56.62813568115234
 70
   192
  0
VERTEX
  5
197
  8
0
 10
10.62150955200195
 20
79.78462219238281
 30
58.34957504272461
 70
   192
  0
VERTEX
  5
198
  8
0
 10
10.53971767425537
 20
56.56129455566406
 30
56.02521133422852
 70
   192
  0
VERTEX
  5
199
  8
0
 10
7.580535888671875
 20
49.01235198974609
 30
90.96248626708984
 70
   192
  0
VERTEX
  5
19A
  8
0
 10
10.81665992736816
 20
49.02101898193359
 30
89.29804992675781
 70
   192
  0
VERTEX
  5
19B
  8
0
 10
7.216715812683105
 20
73.04601287841797
 30
90.06199645996094
 70
   192
  0
VERTEX
  5
19C
  8
0
 10
15.53536605834961
 20
79.61296844482422
 30
63.43406295776367
 70
   192
  0
VERTEX
  5
19D
  8
0
 10
17.98001098632812
 20
51.36215591430664
 30
63.75970458984375
 70
   192
  0
VERTEX
  5
19E
  8
0
 10
17.1494026184082
 20
79.52029418945312
 30
66.59890747070312
 70
   192
  0
VERTEX
  5
19F
  8
0
 10
19.32876586914062
 20
49.21463012695312
 30
77.88447570800781
 70
   192
  0
VERTEX
  5
1A0
  8
0
 10
17.20534515380859
 20
73.18446350097656
 30
80.32372283935547
 70
   192
  0
VERTEX
  5
1A1
  8
0
 10
20.00113296508789
 20
49.29498291015625
 30
74.30330657958984
 70
   192
  0
VERTEX
  5
1A2
  8
0
 10
18.30256271362305
 20
73.25631713867188
 30
76.92086791992188
 70
   192
  0
VERTEX
  5
1A3
  8
0
 10
18.72156524658203
 20
73.33836364746094
 30
73.37248992919922
 70
   192
  0
VERTEX
  5
1A4
  8
0
 10
-2.945086002349854
 20
79.98760986328125
 30
55.47007369995117
 70
   192
  0
VERTEX
  5
1A5
  8
0
 10
0.0879388153553009
 20
59.9085807800293
 30
53.33305740356445
 70
   192
  0
VERTEX
  5
1A6
  8
0
 10
-3.529364347457886
 20
60.41960144042969
 30
53.73885726928711
 70
   192
  0
VERTEX
  5
1A7
  8
0
 10
-6.355454921722412
 20
79.99679565429688
 30
56.46969604492188
 70
   192
  0
VERTEX
  5
1A8
  8
0
 10
-7.031571865081787
 20
60.59270095825195
 30
54.79624938964844
 70
   192
  0
VERTEX
  5
1A9
  8
0
 10
17.99336624145508
 20
76.82880401611328
 30
68.68778991699219
 70
   192
  0
VERTEX
  5
1AA
  8
0
 10
35.20120620727539
 20
77.47945404052734
 30
139.2425689697266
 70
   192
  0
VERTEX
  5
1AB
  8
0
 10
47.10657119750977
 20
77.42621612548828
 30
140.7454986572266
 70
   192
  0
VERTEX
  5
1AC
  8
0
 10
36.00777816772461
 20
77.51699829101562
 30
137.33056640625
 70
   192
  0
VERTEX
  5
1AD
  8
0
 10
47.68852615356445
 20
77.34913635253906
 30
143.685302734375
 70
   192
  0
VERTEX
  5
1AE
  8
0
 10
47.05241012573242
 20
77.27813720703125
 30
146.8664093017578
 70
   192
  0
VERTEX
  5
1AF
  8
0
 10
-12.26950263977051
 20
79.96046447753906
 30
60.3553466796875
 70
   192
  0
VERTEX
  5
1B0
  8
0
 10
-14.52539443969727
 20
79.91598510742188
 30
63.09880447387695
 70
   192
  0
VERTEX
  5
1B1
  8
0
 10
-9.505827903747559
 20
79.98763275146484
 30
58.11985015869141
 70
   192
  0
VERTEX
  5
1B2
  8
0
 10
-16.19405937194824
 20
79.85610961914062
 30
66.23934936523438
 70
   192
  0
VERTEX
  5
1B3
  8
0
 10
-17.2638111114502
 20
79.61286163330078
 30
76.69039154052734
 70
   192
  0
VERTEX
  5
1B4
  8
0
 10
-16.22709465026855
 20
79.52029418945312
 30
80.0838851928711
 70
   192
  0
VERTEX
  5
1B5
  8
0
 10
-17.6146125793457
 20
79.70210266113281
 30
73.15650177001953
 70
   192
  0
VERTEX
  5
1B6
  8
0
 10
-17.26397514343262
 20
79.78451538085938
 30
69.620361328125
 70
   192
  0
VERTEX
  5
1B7
  8
0
 10
21.24873352050781
 20
77.47948455810547
 30
144.8786468505859
 70
   192
  0
VERTEX
  5
1B8
  8
0
 10
19.3418140411377
 20
77.51699829101562
 30
144.0644073486328
 70
   192
  0
VERTEX
  5
1B9
  8
0
 10
13.73007297515869
 20
77.42621612548828
 30
154.2304840087891
 70
   192
  0
VERTEX
  5
1BA
  8
0
 10
18.02096939086914
 20
77.27813720703125
 30
158.5958709716797
 70
   192
  0
VERTEX
  5
1BB
  8
0
 10
21.20269584655762
 20
77.23150634765625
 30
159.2310638427734
 70
   192
  0
VERTEX
  5
1BC
  8
0
 10
35.68048477172852
 20
77.67170715332031
 30
135.2507781982422
 70
   192
  0
VERTEX
  5
1BD
  8
0
 10
24.14336967468262
 20
77.21680450439453
 30
158.6485595703125
 70
   192
  0
VERTEX
  5
1BE
  8
0
 10
23.3390064239502
 20
77.56700134277344
 30
144.5497131347656
 70
   192
  0
VERTEX
  5
1BF
  8
0
 10
19.01607894897461
 20
78.83659362792969
 30
94.00492858886719
 70
   192
  0
VERTEX
  5
1C0
  8
0
 10
1.324075937271118
 20
78.88409423828125
 30
99.1964111328125
 70
   192
  0
VERTEX
  5
1C1
  8
0
 10
2.988489389419556
 20
78.91128540039062
 30
97.40400695800781
 70
   192
  0
VERTEX
  5
1C2
  8
0
 10
42.6849250793457
 20
77.21680450439453
 30
151.1572723388672
 70
   192
  0
VERTEX
  5
1C3
  8
0
 10
45.20491409301758
 20
77.23150634765625
 30
149.5335388183594
 70
   192
  0
VERTEX
  5
1C4
  8
0
 10
33.49030303955078
 20
77.46552276611328
 30
140.5077514648438
 70
   192
  0
VERTEX
  5
1C5
  8
0
 10
15.35361385345459
 20
77.34913635253906
 30
156.7494659423828
 70
   192
  0
VERTEX
  5
1C6
  8
0
 10
1.467952489852905
 20
78.83659362792969
 30
101.0948333740234
 70
   192
  0
VERTEX
  5
1C7
  8
0
 10
18.10351181030273
 20
77.55735778808594
 30
142.4032440185547
 70
   192
  0
VERTEX
  5
1C8
  8
0
 10
15.30533599853516
 20
78.9112777709961
 30
92.427978515625
 70
   192
  0
VERTEX
  5
1C9
  8
0
 10
17.79788017272949
 20
78.8841552734375
 30
92.53797149658203
 70
   192
  0
VERTEX
  5
1CA
  8
0
 10
4.096447944641113
 20
49.02101898193359
 30
92.01319122314453
 70
   192
  0
VERTEX
  5
1CB
  8
0
 10
3.785230875015259
 20
73.05511474609375
 30
91.07328033447266
 70
   192
  0
VERTEX
  5
1CC
  8
0
 10
0.2264398038387299
 20
73.08206176757812
 30
91.40123748779297
 70
   192
  0
VERTEX
  5
1CD
  8
0
 10
-3.145500183105469
 20
49.08857727050781
 30
92.15648651123047
 70
   192
  0
VERTEX
  5
1CE
  8
0
 10
0.4896861910820007
 20
49.04663848876953
 30
92.41519927978516
 70
   192
  0
VERTEX
  5
1CF
  8
0
 10
-9.895979881286621
 20
73.25656127929688
 30
88.30393981933594
 70
   192
  0
VERTEX
  5
1D0
  8
0
 10
-12.65592384338379
 20
73.33846282958984
 30
86.04557037353516
 70
   192
  0
VERTEX
  5
1D1
  8
0
 10
-12.92652893066406
 20
49.29498291015625
 30
87.60694885253906
 70
   192
  0
VERTEX
  5
1D2
  8
0
 10
-9.955183029174805
 20
49.21463012695312
 30
89.71595764160156
 70
   192
  0
VERTEX
  5
1D3
  8
0
 10
-6.661713600158691
 20
49.14516067504883
 30
91.24664306640625
 70
   192
  0
VERTEX
  5
1D4
  8
0
 10
-6.74261999130249
 20
73.18463897705078
 30
89.99211883544922
 70
   192
  0
VERTEX
  5
1D5
  8
0
 10
-17.47798919677734
 20
49.47620391845703
 30
81.98173522949219
 70
   192
  0
VERTEX
  5
1D6
  8
0
 10
-15.59387302398682
 20
77.89198303222656
 30
81.65116882324219
 70
   192
  0
VERTEX
  5
1D7
  8
0
 10
-15.45583915710449
 20
49.3829460144043
 30
85.00582122802734
 70
   192
  0
VERTEX
  5
1D8
  8
0
 10
-14.93099403381348
 20
73.42764282226562
 30
83.2918472290039
 70
   192
  0
VERTEX
  5
1D9
  8
0
 10
-15.62075710296631
 20
59.0699462890625
 30
61.41226196289062
 70
   192
  0
VERTEX
  5
1DA
  8
0
 10
-17.52271842956543
 20
57.93922424316406
 30
64.51659393310547
 70
   192
  0
VERTEX
  5
1DB
  8
0
 10
-19.46871757507324
 20
53.20513153076172
 30
75.08268737792969
 70
   192
  0
VERTEX
  5
1DC
  8
0
 10
-18.7968578338623
 20
51.36215591430664
 30
78.61852264404297
 70
   192
  0
VERTEX
  5
1DD
  8
0
 10
-19.47891807556152
 20
54.95636749267578
 30
71.46903991699219
 70
   192
  0
VERTEX
  5
1DE
  8
0
 10
-18.82315826416016
 20
56.55237579345703
 30
67.9070053100586
 70
   192
  0
VERTEX
  5
1DF
  8
0
 10
-13.18097496032715
 20
59.90620803833008
 30
58.69894790649414
 70
   192
  0
VERTEX
  5
1E0
  8
0
 10
-10.28537368774414
 20
60.41960144042969
 30
56.46846389770508
 70
   192
  0
VERTEX
  5
1E1
  8
0
 10
-15.23211669921875
 20
75.69520568847656
 30
82.54654693603516
 70
   192
  0
VERTEX
  5
1E2
  8
0
 10
-3.330653190612793
 20
73.1258316040039
 30
91.03567504882812
 70
   192
  0
VERTEX
  5
1E3
  8
0
 10
17.43534660339355
 20
73.76576232910156
 30
97.49031829833984
 70
   192
  0
VERTEX
  5
1E4
  8
0
 10
32.01437759399414
 20
71.74630737304688
 30
133.5746917724609
 70
   192
  0
VERTEX
  5
1E5
  8
0
 10
32.0241813659668
 20
72.74596405029297
 30
133.5989532470703
 70
   192
  0
VERTEX
  5
1E6
  8
0
 10
17.42554092407227
 20
72.76610565185547
 30
97.46604919433594
 70
   192
  0
VERTEX
  5
1E7
  8
0
 10
15.91797256469727
 20
72.82000732421875
 30
95.85499572753906
 70
   192
  0
VERTEX
  5
1E8
  8
0
 10
13.7246036529541
 20
73.84044647216797
 30
95.91336822509766
 70
   192
  0
VERTEX
  5
1E9
  8
0
 10
13.7147970199585
 20
72.84078979492188
 30
95.88909912109375
 70
   192
  0
VERTEX
  5
1EA
  8
0
 10
15.93076324462891
 20
73.8196029663086
 30
95.88052368164062
 70
   192
  0
VERTEX
  5
1EB
  8
0
 10
6.600037097930908
 20
73.84044647216797
 30
98.79187774658203
 70
   192
  0
VERTEX
  5
1EC
  8
0
 10
6.590230941772461
 20
72.84078979492188
 30
98.76760864257812
 70
   192
  0
VERTEX
  5
1ED
  8
0
 10
4.979816436767578
 20
72.81991577148438
 30
100.2779693603516
 70
   192
  0
VERTEX
  5
1EE
  8
0
 10
5.026194095611572
 20
73.76576232910156
 30
102.5039443969727
 70
   192
  0
VERTEX
  5
1EF
  8
0
 10
5.016387939453125
 20
72.76610565185547
 30
102.4796752929688
 70
   192
  0
VERTEX
  5
1F0
  8
0
 10
4.991884708404541
 20
73.8196792602539
 30
100.2969436645508
 70
   192
  0
VERTEX
  5
1F1
  8
0
 10
19.61503028869629
 20
72.74596405029297
 30
138.6125793457031
 70
   192
  0
VERTEX
  5
1F2
  8
0
 10
19.605224609375
 20
71.74630737304688
 30
138.5883026123047
 70
   192
  0
VERTEX
  5
1F3
  8
0
 10
22.7440299987793
 20
71.65580749511719
 30
141.0476379394531
 70
   192
  0
VERTEX
  5
1F4
  8
0
 10
24.82167816162109
 20
72.6412582397461
 30
140.8216247558594
 70
   192
  0
VERTEX
  5
1F5
  8
0
 10
24.8118724822998
 20
71.6416015625
 30
140.7973480224609
 70
   192
  0
VERTEX
  5
1F6
  8
0
 10
20.87314987182617
 20
72.6933364868164
 30
140.2720489501953
 70
   192
  0
VERTEX
  5
1F7
  8
0
 10
20.84453582763672
 20
71.69412994384766
 30
140.2367095947266
 70
   192
  0
VERTEX
  5
1F8
  8
0
 10
22.77519798278809
 20
72.65509796142578
 30
141.0783538818359
 70
   192
  0
VERTEX
  5
1F9
  8
0
 10
29.8133602142334
 20
72.6412582397461
 30
138.8048553466797
 70
   192
  0
VERTEX
  5
1FA
  8
0
 10
29.80355453491211
 20
71.6416015625
 30
138.7805786132812
 70
   192
  0
VERTEX
  5
1FB
  8
0
 10
32.26213836669922
 20
71.69367980957031
 30
135.6422729492188
 70
   192
  0
VERTEX
  5
1FC
  8
0
 10
31.47471809387207
 20
72.65546417236328
 30
137.5484313964844
 70
   192
  0
VERTEX
  5
1FD
  8
0
 10
31.45408630371094
 20
71.65544128417969
 30
137.5435638427734
 70
   192
  0
VERTEX
  5
1FE
  8
0
 10
32.27777481079102
 20
72.69378662109375
 30
135.6455535888672
 70
   192
  0
VERTEX
  5
1FF
  8
0
 10
47.04773330688477
 20
71.42827606201172
 30
140.5998687744141
 70
   192
  0
VERTEX
  5
200
  8
0
 10
45.23658752441406
 20
71.23480224609375
 30
149.3003845214844
 70
   192
  0
VERTEX
  5
201
  8
0
 10
46.99357604980469
 20
71.28019714355469
 30
146.7207794189453
 70
   192
  0
VERTEX
  5
202
  8
0
 10
47.62956619262695
 20
71.34813690185547
 30
143.6655578613281
 70
   192
  0
VERTEX
  5
203
  8
0
 10
42.6260871887207
 20
71.21885681152344
 30
151.0116577148438
 70
   192
  0
VERTEX
  5
204
  8
0
 10
24.08453369140625
 20
71.21885681152344
 30
158.5029296875
 70
   192
  0
VERTEX
  5
205
  8
0
 10
15.38231086730957
 20
71.34813690185547
 30
156.6943054199219
 70
   192
  0
VERTEX
  5
206
  8
0
 10
17.96213150024414
 20
71.28019714355469
 30
158.4502410888672
 70
   192
  0
VERTEX
  5
207
  8
0
 10
21.01794624328613
 20
71.23480224609375
 30
159.0853424072266
 70
   192
  0
VERTEX
  5
208
  8
0
 10
13.67123699188232
 20
71.42827606201172
 30
154.0848541259766
 70
   192
  0
VERTEX
  5
209
  8
0
 62
     9
 10
0.0
 20
0.0
 30
0.0
 70
   128
 71
     3
 72
     2
 73
     1
  0
VERTEX
  5
20A
  8
0
 62
     9
 10
0.0
 20
0.0
 30
0.0
 70
   128
 71
     6
 72
     5
 73
     4
  0
VERTEX
  5
20B
  8
0
 62
     9
 10
0.0
 20
0.0
 30
0.0
 70
   128
 71
     8
 72
     4
 73
     7
  0
VERTEX
  5
20C
  8
0
 62
     9
 10
0.0
 20
0.0
 30
0.0
 70
   128
 71
    11
 72
    10
 73
     9
  0
VERTEX
  5
20D
  8
0
 62
     9
 10
0.0
 20
0.0
 30
0.0
 70
   128
 71
    14
 72
    13
 73
    12
  0
VERTEX
  5
20E
  8
0
 62
     9
 10
0.0
 20
0.0
 30
0.0
 70
   128
 71
    15
 72
     5
 73
     6
  0
VERTEX
  5
20F
  8
0
 62
     9
 10
0.0
 20
0.0
 30
0.0
 70
   128
 71
     4
 72
     5
 73
     7
  0
VERTEX
  5
210
  8
0
 62
     9
 10
0.0
 20
0.0
 30
0.0
 70
   128
 71
    17
 72
    12
 73
    16
  0
VERTEX
  5
211
  8
0
 62
     9
 10
0.0
 20
0.0
 30
0.0
 70
   128
 71
    19
 72
    18
 73
    17
  0
VERTEX
  5
212
  8
0
 62
     9
 10
0.0
 20
0.0
 30
0.0
 70
   128
 71
    22
 72
    21
 73
    20
  0
VERTEX
  5
213
  8
0
 62
     9
 10
0.0
 20
0.0
 30
0.0
 70
   128
 71
    22
 72
    15
 73
    21
  0
VERTEX
  5
214
  8
0
 62
     9
 10
0.0
 20
0.0
 30
0.0
 70
   128
 71
    10
 72
    11
 73
    18
  0
VERTEX
  5
215
  8
0
 62
     9
 10
0.0
 20
0.0
 30
0.0
 70
   128
 71
     9
 72
    24
 73
    23
  0
VERTEX
  5
216
  8
0
 62
     9
 10
0.0
 20
0.0
 30
0.0
 70
   128
 71
    21
 72
    15
 73
     6
  0
VERTEX
  5
217
  8
0
 62
     9
 10
0.0
 20
0.0
 30
0.0
 70
   128
 71
    25
 72
    23
 73
    24
  0
VERTEX
  5
218
  8
0
 62
     9
 10
0.0
 20
0.0
 30
0.0
 70
   128
 71
     8
 72
    27
 73
    26
  0
VERTEX
  5
219
  8
0
 62
     9
 10
0.0
 20
0.0
 30
0.0
 70
   128
 71
    27
 72
     8
 73
     7
  0
VERTEX
  5
21A
  8
0
 62
     9
 10
0.0
 20
0.0
 30
0.0
 70
   128
 71
    29
 72
    28
 73
    26
  0
VERTEX
  5
21B
  8
0
 62
     9
 10
0.0
 20
0.0
 30
0.0
 70
   128
 71
    26
 72
    27
 73
    29
  0
VERTEX
  5
21C
  8
0
 62
     9
 10
0.0
 20
0.0
 30
0.0
 70
   128
 71
     3
 72
    28
 73
    30
  0
VERTEX
  5
21D
  8
0
 62
     9
 10
0.0
 20
0.0
 30
0.0
 70
   128
 71
    29
 72
    30
 73
    28
  0
VERTEX
  5
21E
  8
0
 62
     9
 10
0.0
 20
0.0
 30
0.0
 70
   128
 71
     2
 72
     3
 73
    30
  0
VERTEX
  5
21F
  8
0
 62
     9
 10
0.0
 20
0.0
 30
0.0
 70
   128
 71
    23
 72
    11
 73
     9
  0
VERTEX
  5
220
  8
0
 62
     9
 10
0.0
 20
0.0
 30
0.0
 70
   128
 71
    25
 72
    24
 73
     1
  0
VERTEX
  5
221
  8
0
 62
     9
 10
0.0
 20
0.0
 30
0.0
 70
   128
 71
    19
 72
    17
 73
    16
  0
VERTEX
  5
222
  8
0
 62
     9
 10
0.0
 20
0.0
 30
0.0
 70
   128
 71
    19
 72
    10
 73
    18
  0
VERTEX
  5
223
  8
0
 62
     9
 10
0.0
 20
0.0
 30
0.0
 70
   128
 71
    32
 72
    14
 73
    31
  0
VERTEX
  5
224
  8
0
 62
     9
 10
0.0
 20
0.0
 30
0.0
 70
   128
 71
    13
 72
    16
 73
    12
  0
VERTEX
  5
225
  8
0
 62
     9
 10
0.0
 20
0.0
 30
0.0
 70
   128
 71
    31
 72
    34
 73
    33
  0
VERTEX
  5
226
  8
0
 62
     9
 10
0.0
 20
0.0
 30
0.0
 70
   128
 71
    33
 72
    32
 73
    31
  0
VERTEX
  5
227
  8
0
 62
     9
 10
0.0
 20
0.0
 30
0.0
 70
   128
 71
    33
 72
    34
 73
    35
  0
VERTEX
  5
228
  8
0
 62
     9
 10
0.0
 20
0.0
 30
0.0
 70
   128
 71
    25
 72
     1
 73
    36
  0
VERTEX
  5
229
  8
0
 62
     9
 10
0.0
 20
0.0
 30
0.0
 70
   128
 71
    14
 72
    32
 73
    13
  0
VERTEX
  5
22A
  8
0
 62
     9
 10
0.0
 20
0.0
 30
0.0
 70
   128
 71
     2
 72
    36
 73
     1
  0
VERTEX
  5
22B
  8
0
 62
     9
 10
0.0
 20
0.0
 30
0.0
 70
   128
 71
    39
 72
    38
 73
    37
  0
VERTEX
  5
22C
  8
0
 62
     9
 10
0.0
 20
0.0
 30
0.0
 70
   128
 71
    40
 72
    37
 73
    38
  0
VERTEX
  5
22D
  8
0
 62
     9
 10
0.0
 20
0.0
 30
0.0
 70
   128
 71
    37
 72
    40
 73
    41
  0
VERTEX
  5
22E
  8
0
 62
     9
 10
0.0
 20
0.0
 30
0.0
 70
   128
 71
    25
 72
    43
 73
    42
  0
VERTEX
  5
22F
  8
0
 62
     9
 10
0.0
 20
0.0
 30
0.0
 70
   128
 71
    18
 72
    23
 73
    17
  0
VERTEX
  5
230
  8
0
 62
     9
 10
0.0
 20
0.0
 30
0.0
 70
   128
 71
    23
 72
    18
 73
    11
  0
VERTEX
  5
231
  8
0
 62
     9
 10
0.0
 20
0.0
 30
0.0
 70
   128
 71
    25
 72
    12
 73
    17
  0
VERTEX
  5
232
  8
0
 62
     9
 10
0.0
 20
0.0
 30
0.0
 70
   128
 71
    17
 72
    23
 73
    25
  0
VERTEX
  5
233
  8
0
 62
     9
 10
0.0
 20
0.0
 30
0.0
 70
   128
 71
    25
 72
    31
 73
    14
  0
VERTEX
  5
234
  8
0
 62
     9
 10
0.0
 20
0.0
 30
0.0
 70
   128
 71
    12
 72
    25
 73
    14
  0
VERTEX
  5
235
  8
0
 62
     9
 10
0.0
 20
0.0
 30
0.0
 70
   128
 71
    25
 72
    44
 73
    34
  0
VERTEX
  5
236
  8
0
 62
     9
 10
0.0
 20
0.0
 30
0.0
 70
   128
 71
    31
 72
    25
 73
    34
  0
VERTEX
  5
237
  8
0
 62
     9
 10
0.0
 20
0.0
 30
0.0
 70
   128
 71
    44
 72
    25
 73
    42
  0
VERTEX
  5
238
  8
0
 62
     9
 10
0.0
 20
0.0
 30
0.0
 70
   128
 71
    45
 72
    43
 73
    25
  0
VERTEX
  5
239
  8
0
 62
     9
 10
0.0
 20
0.0
 30
0.0
 70
   128
 71
    48
 72
    47
 73
    46
  0
VERTEX
  5
23A
  8
0
 62
     9
 10
0.0
 20
0.0
 30
0.0
 70
   128
 71
    49
 72
    45
 73
    47
  0
VERTEX
  5
23B
  8
0
 62
     9
 10
0.0
 20
0.0
 30
0.0
 70
   128
 71
    47
 72
    45
 73
    25
  0
VERTEX
  5
23C
  8
0
 62
     9
 10
0.0
 20
0.0
 30
0.0
 70
   128
 71
    49
 72
    47
 73
    48
  0
VERTEX
  5
23D
  8
0
 62
     9
 10
0.0
 20
0.0
 30
0.0
 70
   128
 71
    52
 72
    51
 73
    50
  0
VERTEX
  5
23E
  8
0
 62
     9
 10
0.0
 20
0.0
 30
0.0
 70
   128
 71
    50
 72
    54
 73
    53
  0
VERTEX
  5
23F
  8
0
 62
     9
 10
0.0
 20
0.0
 30
0.0
 70
   128
 71
    55
 72
    38
 73
    39
  0
VERTEX
  5
240
  8
0
 62
     9
 10
0.0
 20
0.0
 30
0.0
 70
   128
 71
    50
 72
    57
 73
    56
  0
VERTEX
  5
241
  8
0
 62
     9
 10
0.0
 20
0.0
 30
0.0
 70
   128
 71
    56
 72
    54
 73
    50
  0
VERTEX
  5
242
  8
0
 62
     9
 10
0.0
 20
0.0
 30
0.0
 70
   128
 71
    58
 72
    25
 73
    38
  0
VERTEX
  5
243
  8
0
 62
     9
 10
0.0
 20
0.0
 30
0.0
 70
   128
 71
    47
 72
    60
 73
    59
  0
VERTEX
  5
244
  8
0
 62
     9
 10
0.0
 20
0.0
 30
0.0
 70
   128
 71
    55
 72
    58
 73
    38
  0
VERTEX
  5
245
  8
0
 62
     9
 10
0.0
 20
0.0
 30
0.0
 70
   128
 71
    37
 72
    62
 73
    61
  0
VERTEX
  5
246
  8
0
 62
     9
 10
0.0
 20
0.0
 30
0.0
 70
   128
 71
    37
 72
    41
 73
    62
  0
VERTEX
  5
247
  8
0
 62
     9
 10
0.0
 20
0.0
 30
0.0
 70
   128
 71
    63
 72
    37
 73
    61
  0
VERTEX
  5
248
  8
0
 62
     9
 10
0.0
 20
0.0
 30
0.0
 70
   128
 71
    56
 72
    57
 73
    61
  0
VERTEX
  5
249
  8
0
 62
     9
 10
0.0
 20
0.0
 30
0.0
 70
   128
 71
    61
 72
    57
 73
    63
  0
VERTEX
  5
24A
  8
0
 62
     9
 10
0.0
 20
0.0
 30
0.0
 70
   128
 71
    50
 72
    53
 73
    64
  0
VERTEX
  5
24B
  8
0
 62
     9
 10
0.0
 20
0.0
 30
0.0
 70
   128
 71
    65
 72
    52
 73
    47
  0
VERTEX
  5
24C
  8
0
 62
     9
 10
0.0
 20
0.0
 30
0.0
 70
   128
 71
    52
 72
    50
 73
    64
  0
VERTEX
  5
24D
  8
0
 62
     9
 10
0.0
 20
0.0
 30
0.0
 70
   128
 71
    65
 72
    66
 73
    52
  0
VERTEX
  5
24E
  8
0
 62
     9
 10
0.0
 20
0.0
 30
0.0
 70
   128
 71
    66
 72
    51
 73
    52
  0
VERTEX
  5
24F
  8
0
 62
     9
 10
0.0
 20
0.0
 30
0.0
 70
   128
 71
    65
 72
    47
 73
    59
  0
VERTEX
  5
250
  8
0
 62
     9
 10
0.0
 20
0.0
 30
0.0
 70
   128
 71
    47
 72
    67
 73
    60
  0
VERTEX
  5
251
  8
0
 62
     9
 10
0.0
 20
0.0
 30
0.0
 70
   128
 71
    67
 72
    47
 73
    25
  0
VERTEX
  5
252
  8
0
 62
     9
 10
0.0
 20
0.0
 30
0.0
 70
   128
 71
    67
 72
    25
 73
    68
  0
VERTEX
  5
253
  8
0
 62
     9
 10
0.0
 20
0.0
 30
0.0
 70
   128
 71
    68
 72
    25
 73
    58
  0
VERTEX
  5
254
  8
0
 62
     9
 10
0.0
 20
0.0
 30
0.0
 70
   128
 71
    70
 72
    22
 73
    69
  0
VERTEX
  5
255
  8
0
 62
     9
 10
0.0
 20
0.0
 30
0.0
 70
   128
 71
    73
 72
    72
 73
    71
  0
VERTEX
  5
256
  8
0
 62
     9
 10
0.0
 20
0.0
 30
0.0
 70
   128
 71
    76
 72
    75
 73
    74
  0
VERTEX
  5
257
  8
0
 62
     9
 10
0.0
 20
0.0
 30
0.0
 70
   128
 71
    79
 72
    78
 73
    77
  0
VERTEX
  5
258
  8
0
 62
     9
 10
0.0
 20
0.0
 30
0.0
 70
   128
 71
    47
 72
    81
 73
    80
  0
VERTEX
  5
259
  8
0
 62
     9
 10
0.0
 20
0.0
 30
0.0
 70
   128
 71
    83
 72
    82
 73
    80
  0
VERTEX
  5
25A
  8
0
 62
     9
 10
0.0
 20
0.0
 30
0.0
 70
   128
 71
    85
 72
    84
 73
    43
  0
VERTEX
  5
25B
  8
0
 62
     9
 10
0.0
 20
0.0
 30
0.0
 70
   128
 71
    86
 72
    48
 73
    46
  0
VERTEX
  5
25C
  8
0
 62
     9
 10
0.0
 20
0.0
 30
0.0
 70
   128
 71
    47
 72
    87
 73
    46
  0
VERTEX
  5
25D
  8
0
 62
     9
 10
0.0
 20
0.0
 30
0.0
 70
   128
 71
    88
 72
    48
 73
    86
  0
VERTEX
  5
25E
  8
0
 62
     9
 10
0.0
 20
0.0
 30
0.0
 70
   128
 71
    46
 72
    87
 73
    86
  0
VERTEX
  5
25F
  8
0
 62
     9
 10
0.0
 20
0.0
 30
0.0
 70
   128
 71
    89
 72
    45
 73
    49
  0
VERTEX
  5
260
  8
0
 62
     9
 10
0.0
 20
0.0
 30
0.0
 70
   128
 71
    42
 72
    90
 73
    44
  0
VERTEX
  5
261
  8
0
 62
     9
 10
0.0
 20
0.0
 30
0.0
 70
   128
 71
    84
 72
    90
 73
    42
  0
VERTEX
  5
262
  8
0
 62
     9
 10
0.0
 20
0.0
 30
0.0
 70
   128
 71
    42
 72
    43
 73
    84
  0
VERTEX
  5
263
  8
0
 62
     9
 10
0.0
 20
0.0
 30
0.0
 70
   128
 71
    44
 72
    90
 73
    91
  0
VERTEX
  5
264
  8
0
 62
     9
 10
0.0
 20
0.0
 30
0.0
 70
   128
 71
    34
 72
    91
 73
    35
  0
VERTEX
  5
265
  8
0
 62
     9
 10
0.0
 20
0.0
 30
0.0
 70
   128
 71
    91
 72
    34
 73
    44
  0
VERTEX
  5
266
  8
0
 62
     9
 10
0.0
 20
0.0
 30
0.0
 70
   128
 71
    48
 72
    88
 73
    49
  0
VERTEX
  5
267
  8
0
 62
     9
 10
0.0
 20
0.0
 30
0.0
 70
   128
 71
    92
 72
    80
 73
    81
  0
VERTEX
  5
268
  8
0
 62
     9
 10
0.0
 20
0.0
 30
0.0
 70
   128
 71
    85
 72
    45
 73
    89
  0
VERTEX
  5
269
  8
0
 62
     9
 10
0.0
 20
0.0
 30
0.0
 70
   128
 71
    43
 72
    45
 73
    85
  0
VERTEX
  5
26A
  8
0
 62
     9
 10
0.0
 20
0.0
 30
0.0
 70
   128
 71
    49
 72
    88
 73
    89
  0
VERTEX
  5
26B
  8
0
 62
     9
 10
0.0
 20
0.0
 30
0.0
 70
   128
 71
    87
 72
    47
 73
    80
  0
VERTEX
  5
26C
  8
0
 62
     9
 10
0.0
 20
0.0
 30
0.0
 70
   128
 71
    75
 72
    82
 73
    83
  0
VERTEX
  5
26D
  8
0
 62
     9
 10
0.0
 20
0.0
 30
0.0
 70
   128
 71
    83
 72
    80
 73
    92
  0
VERTEX
  5
26E
  8
0
 62
     9
 10
0.0
 20
0.0
 30
0.0
 70
   128
 71
    76
 72
    82
 73
    75
  0
VERTEX
  5
26F
  8
0
 62
     9
 10
0.0
 20
0.0
 30
0.0
 70
   128
 71
    74
 72
    77
 73
    76
  0
VERTEX
  5
270
  8
0
 62
     9
 10
0.0
 20
0.0
 30
0.0
 70
   128
 71
    22
 72
    20
 73
    69
  0
VERTEX
  5
271
  8
0
 62
     9
 10
0.0
 20
0.0
 30
0.0
 70
   128
 71
    78
 72
    79
 73
    93
  0
VERTEX
  5
272
  8
0
 62
     9
 10
0.0
 20
0.0
 30
0.0
 70
   128
 71
    74
 72
    79
 73
    77
  0
VERTEX
  5
273
  8
0
 62
     9
 10
0.0
 20
0.0
 30
0.0
 70
   128
 71
    71
 72
    72
 73
    93
  0
VERTEX
  5
274
  8
0
 62
     9
 10
0.0
 20
0.0
 30
0.0
 70
   128
 71
    93
 72
    72
 73
    78
  0
VERTEX
  5
275
  8
0
 62
     9
 10
0.0
 20
0.0
 30
0.0
 70
   128
 71
    69
 72
    73
 73
    70
  0
VERTEX
  5
276
  8
0
 62
     9
 10
0.0
 20
0.0
 30
0.0
 70
   128
 71
    70
 72
    73
 73
    71
  0
VERTEX
  5
277
  8
0
 62
     9
 10
0.0
 20
0.0
 30
0.0
 70
   128
 71
    96
 72
    95
 73
    94
  0
VERTEX
  5
278
  8
0
 62
     9
 10
0.0
 20
0.0
 30
0.0
 70
   128
 71
    95
 72
    97
 73
    94
  0
VERTEX
  5
279
  8
0
 62
     9
 10
0.0
 20
0.0
 30
0.0
 70
   128
 71
   100
 72
    99
 73
    98
  0
VERTEX
  5
27A
  8
0
 62
     9
 10
0.0
 20
0.0
 30
0.0
 70
   128
 71
   101
 72
    94
 73
    97
  0
VERTEX
  5
27B
  8
0
 62
     9
 10
0.0
 20
0.0
 30
0.0
 70
   128
 71
    98
 72
    99
 73
   101
  0
VERTEX
  5
27C
  8
0
 62
     9
 10
0.0
 20
0.0
 30
0.0
 70
   128
 71
    98
 72
   101
 73
    97
  0
VERTEX
  5
27D
  8
0
 62
     9
 10
0.0
 20
0.0
 30
0.0
 70
   128
 71
   100
 72
   102
 73
    99
  0
VERTEX
  5
27E
  8
0
 62
     9
 10
0.0
 20
0.0
 30
0.0
 70
   128
 71
   102
 72
   100
 73
   103
  0
VERTEX
  5
27F
  8
0
 62
     9
 10
0.0
 20
0.0
 30
0.0
 70
   128
 71
   106
 72
   105
 73
   104
  0
VERTEX
  5
280
  8
0
 62
     9
 10
0.0
 20
0.0
 30
0.0
 70
   128
 71
   107
 72
   102
 73
   103
  0
VERTEX
  5
281
  8
0
 62
     9
 10
0.0
 20
0.0
 30
0.0
 70
   128
 71
   104
 72
   105
 73
   107
  0
VERTEX
  5
282
  8
0
 62
     9
 10
0.0
 20
0.0
 30
0.0
 70
   128
 71
   104
 72
   107
 73
   103
  0
VERTEX
  5
283
  8
0
 62
     9
 10
0.0
 20
0.0
 30
0.0
 70
   128
 71
   105
 72
   106
 73
   108
  0
VERTEX
  5
284
  8
0
 62
     9
 10
0.0
 20
0.0
 30
0.0
 70
   128
 71
   106
 72
   109
 73
   108
  0
VERTEX
  5
285
  8
0
 62
     9
 10
0.0
 20
0.0
 30
0.0
 70
   128
 71
   112
 72
   111
 73
   110
  0
VERTEX
  5
286
  8
0
 62
     9
 10
0.0
 20
0.0
 30
0.0
 70
   128
 71
   113
 72
   108
 73
   109
  0
VERTEX
  5
287
  8
0
 62
     9
 10
0.0
 20
0.0
 30
0.0
 70
   128
 71
   115
 72
   113
 73
   114
  0
VERTEX
  5
288
  8
0
 62
     9
 10
0.0
 20
0.0
 30
0.0
 70
   128
 71
   114
 72
   113
 73
   109
  0
VERTEX
  5
289
  8
0
 62
     9
 10
0.0
 20
0.0
 30
0.0
 70
   128
 71
   115
 72
   110
 73
   111
  0
VERTEX
  5
28A
  8
0
 62
     9
 10
0.0
 20
0.0
 30
0.0
 70
   128
 71
   110
 72
   115
 73
   114
  0
VERTEX
  5
28B
  8
0
 62
     9
 10
0.0
 20
0.0
 30
0.0
 70
   128
 71
   112
 72
   116
 73
   111
  0
VERTEX
  5
28C
  8
0
 62
     9
 10
0.0
 20
0.0
 30
0.0
 70
   128
 71
   116
 72
   112
 73
   117
  0
VERTEX
  5
28D
  8
0
 62
     9
 10
0.0
 20
0.0
 30
0.0
 70
   128
 71
    95
 72
    96
 73
   118
  0
VERTEX
  5
28E
  8
0
 62
     9
 10
0.0
 20
0.0
 30
0.0
 70
   128
 71
   119
 72
   116
 73
   117
  0
VERTEX
  5
28F
  8
0
 62
     9
 10
0.0
 20
0.0
 30
0.0
 70
   128
 71
   121
 72
   119
 73
   120
  0
VERTEX
  5
290
  8
0
 62
     9
 10
0.0
 20
0.0
 30
0.0
 70
   128
 71
   121
 72
   120
 73
   118
  0
VERTEX
  5
291
  8
0
 62
     9
 10
0.0
 20
0.0
 30
0.0
 70
   128
 71
   120
 72
   119
 73
   117
  0
VERTEX
  5
292
  8
0
 62
     9
 10
0.0
 20
0.0
 30
0.0
 70
   128
 71
   121
 72
   118
 73
    96
  0
VERTEX
  5
293
  8
0
 62
     9
 10
0.0
 20
0.0
 30
0.0
 70
   128
 71
    28
 72
     3
 73
     1
  0
VERTEX
  5
294
  8
0
 62
     9
 10
0.0
 20
0.0
 30
0.0
 70
   128
 71
     1
 72
     8
 73
    26
  0
VERTEX
  5
295
  8
0
 62
     9
 10
0.0
 20
0.0
 30
0.0
 70
   128
 71
    28
 72
     1
 73
    26
  0
VERTEX
  5
296
  8
0
 62
     9
 10
0.0
 20
0.0
 30
0.0
 70
   128
 71
     4
 72
     8
 73
    80
  0
VERTEX
  5
297
  8
0
 62
     9
 10
0.0
 20
0.0
 30
0.0
 70
   128
 71
     1
 72
    80
 73
     8
  0
VERTEX
  5
298
  8
0
 62
     9
 10
0.0
 20
0.0
 30
0.0
 70
   128
 71
     6
 72
     4
 73
    80
  0
VERTEX
  5
299
  8
0
 62
     9
 10
0.0
 20
0.0
 30
0.0
 70
   128
 71
    21
 72
     6
 73
    80
  0
VERTEX
  5
29A
  8
0
 62
     9
 10
0.0
 20
0.0
 30
0.0
 70
   128
 71
    20
 72
    80
 73
    69
  0
VERTEX
  5
29B
  8
0
 62
     9
 10
0.0
 20
0.0
 30
0.0
 70
   128
 71
    20
 72
    21
 73
    80
  0
VERTEX
  5
29C
  8
0
 62
     9
 10
0.0
 20
0.0
 30
0.0
 70
   128
 71
    73
 72
    80
 73
    72
  0
VERTEX
  5
29D
  8
0
 62
     9
 10
0.0
 20
0.0
 30
0.0
 70
   128
 71
    73
 72
    69
 73
    80
  0
VERTEX
  5
29E
  8
0
 62
     9
 10
0.0
 20
0.0
 30
0.0
 70
   128
 71
    78
 72
    80
 73
    77
  0
VERTEX
  5
29F
  8
0
 62
     9
 10
0.0
 20
0.0
 30
0.0
 70
   128
 71
    78
 72
    72
 73
    80
  0
VERTEX
  5
2A0
  8
0
 62
     9
 10
0.0
 20
0.0
 30
0.0
 70
   128
 71
    82
 72
    77
 73
    80
  0
VERTEX
  5
2A1
  8
0
 62
     9
 10
0.0
 20
0.0
 30
0.0
 70
   128
 71
    82
 72
    76
 73
    77
  0
VERTEX
  5
2A2
  8
0
 62
     9
 10
0.0
 20
0.0
 30
0.0
 70
   128
 71
    90
 72
    84
 73
    13
  0
VERTEX
  5
2A3
  8
0
 62
     9
 10
0.0
 20
0.0
 30
0.0
 70
   128
 71
     9
 72
    86
 73
    24
  0
VERTEX
  5
2A4
  8
0
 62
     9
 10
0.0
 20
0.0
 30
0.0
 70
   128
 71
    87
 72
    80
 73
     1
  0
VERTEX
  5
2A5
  8
0
 62
     9
 10
0.0
 20
0.0
 30
0.0
 70
   128
 71
    19
 72
    16
 73
    85
  0
VERTEX
  5
2A6
  8
0
 62
     9
 10
0.0
 20
0.0
 30
0.0
 70
   128
 71
    88
 72
    10
 73
    89
  0
VERTEX
  5
2A7
  8
0
 62
     9
 10
0.0
 20
0.0
 30
0.0
 70
   128
 71
    32
 72
    33
 73
    91
  0
VERTEX
  5
2A8
  8
0
 62
     9
 10
0.0
 20
0.0
 30
0.0
 70
   128
 71
    91
 72
    90
 73
    32
  0
VERTEX
  5
2A9
  8
0
 62
     9
 10
0.0
 20
0.0
 30
0.0
 70
   128
 71
    91
 72
    33
 73
    35
  0
VERTEX
  5
2AA
  8
0
 62
     9
 10
0.0
 20
0.0
 30
0.0
 70
   128
 71
    90
 72
    13
 73
    32
  0
VERTEX
  5
2AB
  8
0
 62
     9
 10
0.0
 20
0.0
 30
0.0
 70
   128
 71
    13
 72
    84
 73
    16
  0
VERTEX
  5
2AC
  8
0
 62
     9
 10
0.0
 20
0.0
 30
0.0
 70
   128
 71
    85
 72
    16
 73
    84
  0
VERTEX
  5
2AD
  8
0
 62
     9
 10
0.0
 20
0.0
 30
0.0
 70
   128
 71
    89
 72
    10
 73
    19
  0
VERTEX
  5
2AE
  8
0
 62
     9
 10
0.0
 20
0.0
 30
0.0
 70
   128
 71
    89
 72
    19
 73
    85
  0
VERTEX
  5
2AF
  8
0
 62
     9
 10
0.0
 20
0.0
 30
0.0
 70
   128
 71
    86
 72
     9
 73
    88
  0
VERTEX
  5
2B0
  8
0
 62
     9
 10
0.0
 20
0.0
 30
0.0
 70
   128
 71
     9
 72
    10
 73
    88
  0
VERTEX
  5
2B1
  8
0
 62
     9
 10
0.0
 20
0.0
 30
0.0
 70
   128
 71
    24
 72
    87
 73
     1
  0
VERTEX
  5
2B2
  8
0
 62
     9
 10
0.0
 20
0.0
 30
0.0
 70
   128
 71
    24
 72
    86
 73
    87
  0
VERTEX
  5
2B3
  8
0
 62
     9
 10
0.0
 20
0.0
 30
0.0
 70
   128
 71
    38
 72
   122
 73
    40
  0
VERTEX
  5
2B4
  8
0
 62
     9
 10
0.0
 20
0.0
 30
0.0
 70
   128
 71
    62
 72
   123
 73
    61
  0
VERTEX
  5
2B5
  8
0
 62
     9
 10
0.0
 20
0.0
 30
0.0
 70
   128
 71
   125
 72
   124
 73
    41
  0
VERTEX
  5
2B6
  8
0
 62
     9
 10
0.0
 20
0.0
 30
0.0
 70
   128
 71
    61
 72
   123
 73
   126
  0
VERTEX
  5
2B7
  8
0
 62
     9
 10
0.0
 20
0.0
 30
0.0
 70
   128
 71
   124
 72
    62
 73
    41
  0
VERTEX
  5
2B8
  8
0
 62
     9
 10
0.0
 20
0.0
 30
0.0
 70
   128
 71
    62
 72
   124
 73
   123
  0
VERTEX
  5
2B9
  8
0
 62
     9
 10
0.0
 20
0.0
 30
0.0
 70
   128
 71
   122
 72
   125
 73
    40
  0
VERTEX
  5
2BA
  8
0
 62
     9
 10
0.0
 20
0.0
 30
0.0
 70
   128
 71
    40
 72
   125
 73
    41
  0
VERTEX
  5
2BB
  8
0
 62
     9
 10
0.0
 20
0.0
 30
0.0
 70
   128
 71
   119
 72
   121
 73
    37
  0
VERTEX
  5
2BC
  8
0
 62
     9
 10
0.0
 20
0.0
 30
0.0
 70
   128
 71
   121
 72
    55
 73
    39
  0
VERTEX
  5
2BD
  8
0
 62
     9
 10
0.0
 20
0.0
 30
0.0
 70
   128
 71
   121
 72
    96
 73
    55
  0
VERTEX
  5
2BE
  8
0
 62
     9
 10
0.0
 20
0.0
 30
0.0
 70
   128
 71
   119
 72
    63
 73
   116
  0
VERTEX
  5
2BF
  8
0
 62
     9
 10
0.0
 20
0.0
 30
0.0
 70
   128
 71
    39
 72
    37
 73
   121
  0
VERTEX
  5
2C0
  8
0
 62
     9
 10
0.0
 20
0.0
 30
0.0
 70
   128
 71
    63
 72
   119
 73
    37
  0
VERTEX
  5
2C1
  8
0
 62
     7
 10
0.0
 20
0.0
 30
0.0
 70
   128
 71
    67
 72
   101
 73
    99
  0
VERTEX
  5
2C2
  8
0
 62
     7
 10
0.0
 20
0.0
 30
0.0
 70
   128
 71
    94
 72
   101
 73
    68
  0
VERTEX
  5
2C3
  8
0
 62
     7
 10
0.0
 20
0.0
 30
0.0
 70
   128
 71
    68
 72
   101
 73
    67
  0
VERTEX
  5
2C4
  8
0
 62
     7
 10
0.0
 20
0.0
 30
0.0
 70
   128
 71
    58
 72
    94
 73
    68
  0
VERTEX
  5
2C5
  8
0
 62
     9
 10
0.0
 20
0.0
 30
0.0
 70
   128
 71
     2
 72
   122
 73
    38
  0
VERTEX
  5
2C6
  8
0
 62
     9
 10
0.0
 20
0.0
 30
0.0
 70
   128
 71
    38
 72
    25
 73
    36
  0
VERTEX
  5
2C7
  8
0
 62
     9
 10
0.0
 20
0.0
 30
0.0
 70
   128
 71
     2
 72
    38
 73
    36
  0
VERTEX
  5
2C8
  8
0
 62
     9
 10
0.0
 20
0.0
 30
0.0
 70
   128
 71
    94
 72
    58
 73
    96
  0
VERTEX
  5
2C9
  8
0
 62
     9
 10
0.0
 20
0.0
 30
0.0
 70
   128
 71
    58
 72
    55
 73
    96
  0
VERTEX
  5
2CA
  8
0
 62
     9
 10
0.0
 20
0.0
 30
0.0
 70
   128
 71
    56
 72
   127
 73
    54
  0
VERTEX
  5
2CB
  8
0
 62
     9
 10
0.0
 20
0.0
 30
0.0
 70
   128
 71
    64
 72
   128
 73
    52
  0
VERTEX
  5
2CC
  8
0
 62
     9
 10
0.0
 20
0.0
 30
0.0
 70
   128
 71
   130
 72
   129
 73
    53
  0
VERTEX
  5
2CD
  8
0
 62
     9
 10
0.0
 20
0.0
 30
0.0
 70
   128
 71
    52
 72
   128
 73
   131
  0
VERTEX
  5
2CE
  8
0
 62
     9
 10
0.0
 20
0.0
 30
0.0
 70
   128
 71
   129
 72
    64
 73
    53
  0
VERTEX
  5
2CF
  8
0
 62
     9
 10
0.0
 20
0.0
 30
0.0
 70
   128
 71
    64
 72
   129
 73
   128
  0
VERTEX
  5
2D0
  8
0
 62
     9
 10
0.0
 20
0.0
 30
0.0
 70
   128
 71
   127
 72
   130
 73
    54
  0
VERTEX
  5
2D1
  8
0
 62
     9
 10
0.0
 20
0.0
 30
0.0
 70
   128
 71
    54
 72
   130
 73
    53
  0
VERTEX
  5
2D2
  8
0
 62
     9
 10
0.0
 20
0.0
 30
0.0
 70
   128
 71
   115
 72
    57
 73
    50
  0
VERTEX
  5
2D3
  8
0
 62
     9
 10
0.0
 20
0.0
 30
0.0
 70
   128
 71
    57
 72
   115
 73
   111
  0
VERTEX
  5
2D4
  8
0
 62
     9
 10
0.0
 20
0.0
 30
0.0
 70
   128
 71
    50
 72
   113
 73
   115
  0
VERTEX
  5
2D5
  8
0
 62
     9
 10
0.0
 20
0.0
 30
0.0
 70
   128
 71
    50
 72
    51
 73
   113
  0
VERTEX
  5
2D6
  8
0
 62
     9
 10
0.0
 20
0.0
 30
0.0
 70
   128
 71
    51
 72
   108
 73
   113
  0
VERTEX
  5
2D7
  8
0
 62
     9
 10
0.0
 20
0.0
 30
0.0
 70
   128
 71
    66
 72
   108
 73
    51
  0
VERTEX
  5
2D8
  8
0
 62
     7
 10
0.0
 20
0.0
 30
0.0
 70
   128
 71
   105
 72
    65
 73
    59
  0
VERTEX
  5
2D9
  8
0
 62
     7
 10
0.0
 20
0.0
 30
0.0
 70
   128
 71
   107
 72
   105
 73
    59
  0
VERTEX
  5
2DA
  8
0
 62
     7
 10
0.0
 20
0.0
 30
0.0
 70
   128
 71
    60
 72
   107
 73
    59
  0
VERTEX
  5
2DB
  8
0
 62
     7
 10
0.0
 20
0.0
 30
0.0
 70
   128
 71
   102
 72
   107
 73
    60
  0
VERTEX
  5
2DC
  8
0
 62
     9
 10
0.0
 20
0.0
 30
0.0
 70
   128
 71
    52
 72
    81
 73
    47
  0
VERTEX
  5
2DD
  8
0
 62
     9
 10
0.0
 20
0.0
 30
0.0
 70
   128
 71
    83
 72
    92
 73
    52
  0
VERTEX
  5
2DE
  8
0
 62
     9
 10
0.0
 20
0.0
 30
0.0
 70
   128
 71
    52
 72
    92
 73
    81
  0
VERTEX
  5
2DF
  8
0
 62
     9
 10
0.0
 20
0.0
 30
0.0
 70
   128
 71
   131
 72
    83
 73
    52
  0
VERTEX
  5
2E0
  8
0
 62
     9
 10
0.0
 20
0.0
 30
0.0
 70
   128
 71
   105
 72
   108
 73
    66
  0
VERTEX
  5
2E1
  8
0
 62
     9
 10
0.0
 20
0.0
 30
0.0
 70
   128
 71
   105
 72
    66
 73
    65
  0
VERTEX
  5
2E2
  8
0
 62
     9
 10
0.0
 20
0.0
 30
0.0
 70
   128
 71
   127
 72
    56
 73
   126
  0
VERTEX
  5
2E3
  8
0
 62
     9
 10
0.0
 20
0.0
 30
0.0
 70
   128
 71
    56
 72
    61
 73
   126
  0
VERTEX
  5
2E4
  8
0
 62
     9
 10
0.0
 20
0.0
 30
0.0
 70
   128
 71
   116
 72
    63
 73
   111
  0
VERTEX
  5
2E5
  8
0
 62
     9
 10
0.0
 20
0.0
 30
0.0
 70
   128
 71
    63
 72
    57
 73
   111
  0
VERTEX
  5
2E6
  8
0
 62
     9
 10
0.0
 20
0.0
 30
0.0
 70
   128
 71
    99
 72
   102
 73
    60
  0
VERTEX
  5
2E7
  8
0
 62
     9
 10
0.0
 20
0.0
 30
0.0
 70
   128
 71
    99
 72
    60
 73
    67
  0
VERTEX
  5
2E8
  8
0
 62
     9
 10
0.0
 20
0.0
 30
0.0
 70
   128
 71
   124
 72
   125
 73
   122
  0
VERTEX
  5
2E9
  8
0
 62
     9
 10
0.0
 20
0.0
 30
0.0
 70
   128
 71
    15
 72
    22
 73
   100
  0
VERTEX
  5
2EA
  8
0
 62
     9
 10
0.0
 20
0.0
 30
0.0
 70
   128
 71
    75
 72
   131
 73
    74
  0
VERTEX
  5
2EB
  8
0
 62
     9
 10
0.0
 20
0.0
 30
0.0
 70
   128
 71
    75
 72
    83
 73
   131
  0
VERTEX
  5
2EC
  8
0
 62
     9
 10
0.0
 20
0.0
 30
0.0
 70
   128
 71
   104
 72
    71
 73
    93
  0
VERTEX
  5
2ED
  8
0
 62
     9
 10
0.0
 20
0.0
 30
0.0
 70
   128
 71
    79
 72
   106
 73
    93
  0
VERTEX
  5
2EE
  8
0
 62
     9
 10
0.0
 20
0.0
 30
0.0
 70
   128
 71
   104
 72
   103
 73
    71
  0
VERTEX
  5
2EF
  8
0
 62
     9
 10
0.0
 20
0.0
 30
0.0
 70
   128
 71
   110
 72
   127
 73
   112
  0
VERTEX
  5
2F0
  8
0
 62
     9
 10
0.0
 20
0.0
 30
0.0
 70
   128
 71
    97
 72
    29
 73
    27
  0
VERTEX
  5
2F1
  8
0
 62
     9
 10
0.0
 20
0.0
 30
0.0
 70
   128
 71
    97
 72
    27
 73
     7
  0
VERTEX
  5
2F2
  8
0
 62
     9
 10
0.0
 20
0.0
 30
0.0
 70
   128
 71
    97
 72
   122
 73
    29
  0
VERTEX
  5
2F3
  8
0
 62
     9
 10
0.0
 20
0.0
 30
0.0
 70
   128
 71
   122
 72
    97
 73
    95
  0
VERTEX
  5
2F4
  8
0
 62
     9
 10
0.0
 20
0.0
 30
0.0
 70
   128
 71
     2
 72
    30
 73
   122
  0
VERTEX
  5
2F5
  8
0
 62
     9
 10
0.0
 20
0.0
 30
0.0
 70
   128
 71
    29
 72
   122
 73
    30
  0
VERTEX
  5
2F6
  8
0
 62
     9
 10
0.0
 20
0.0
 30
0.0
 70
   128
 71
   124
 72
   122
 73
   123
  0
VERTEX
  5
2F7
  8
0
 62
     9
 10
0.0
 20
0.0
 30
0.0
 70
   128
 71
   120
 72
   117
 73
   126
  0
VERTEX
  5
2F8
  8
0
 62
     9
 10
0.0
 20
0.0
 30
0.0
 70
   128
 71
   123
 72
   122
 73
   126
  0
VERTEX
  5
2F9
  8
0
 62
     9
 10
0.0
 20
0.0
 30
0.0
 70
   128
 71
   127
 72
   131
 73
   130
  0
VERTEX
  5
2FA
  8
0
 62
     9
 10
0.0
 20
0.0
 30
0.0
 70
   128
 71
   114
 72
   109
 73
   131
  0
VERTEX
  5
2FB
  8
0
 62
     9
 10
0.0
 20
0.0
 30
0.0
 70
   128
 71
   129
 72
   131
 73
   128
  0
VERTEX
  5
2FC
  8
0
 62
     9
 10
0.0
 20
0.0
 30
0.0
 70
   128
 71
   129
 72
   130
 73
   131
  0
VERTEX
  5
2FD
  8
0
 62
     9
 10
0.0
 20
0.0
 30
0.0
 70
   128
 71
     5
 72
    98
 73
     7
  0
VERTEX
  5
2FE
  8
0
 62
     9
 10
0.0
 20
0.0
 30
0.0
 70
   128
 71
     7
 72
    98
 73
    97
  0
VERTEX
  5
2FF
  8
0
 62
     9
 10
0.0
 20
0.0
 30
0.0
 70
   128
 71
   100
 72
    98
 73
    15
  0
VERTEX
  5
300
  8
0
 62
     9
 10
0.0
 20
0.0
 30
0.0
 70
   128
 71
    15
 72
    98
 73
     5
  0
VERTEX
  5
301
  8
0
 62
     9
 10
0.0
 20
0.0
 30
0.0
 70
   128
 71
    70
 72
   103
 73
    22
  0
VERTEX
  5
302
  8
0
 62
     9
 10
0.0
 20
0.0
 30
0.0
 70
   128
 71
   100
 72
    22
 73
   103
  0
VERTEX
  5
303
  8
0
 62
     9
 10
0.0
 20
0.0
 30
0.0
 70
   128
 71
   104
 72
    93
 73
   106
  0
VERTEX
  5
304
  8
0
 62
     9
 10
0.0
 20
0.0
 30
0.0
 70
   128
 71
    71
 72
   103
 73
    70
  0
VERTEX
  5
305
  8
0
 62
     9
 10
0.0
 20
0.0
 30
0.0
 70
   128
 71
   106
 72
    74
 73
   131
  0
VERTEX
  5
306
  8
0
 62
     9
 10
0.0
 20
0.0
 30
0.0
 70
   128
 71
    74
 72
   106
 73
    79
  0
VERTEX
  5
307
  8
0
 62
     9
 10
0.0
 20
0.0
 30
0.0
 70
   128
 71
   109
 72
   106
 73
   131
  0
VERTEX
  5
308
  8
0
 62
     9
 10
0.0
 20
0.0
 30
0.0
 70
   128
 71
   127
 72
   110
 73
   131
  0
VERTEX
  5
309
  8
0
 62
     9
 10
0.0
 20
0.0
 30
0.0
 70
   128
 71
   131
 72
   110
 73
   114
  0
VERTEX
  5
30A
  8
0
 62
     9
 10
0.0
 20
0.0
 30
0.0
 70
   128
 71
   112
 72
   127
 73
   126
  0
VERTEX
  5
30B
  8
0
 62
     9
 10
0.0
 20
0.0
 30
0.0
 70
   128
 71
   112
 72
   126
 73
   117
  0
VERTEX
  5
30C
  8
0
 62
     9
 10
0.0
 20
0.0
 30
0.0
 70
   128
 71
   122
 72
   120
 73
   126
  0
VERTEX
  5
30D
  8
0
 62
     9
 10
0.0
 20
0.0
 30
0.0
 70
   128
 71
   118
 72
   122
 73
    95
  0
VERTEX
  5
30E
  8
0
 62
     9
 10
0.0
 20
0.0
 30
0.0
 70
   128
 71
   118
 72
   120
 73
   122
  0
SEQEND
  5
30F
  8
0
  0
ENDBLK
  5
312
  8
0
  0
BLOCK
  8
0
  2
43
 70
     0
 10
0.0
 20
0.0
 30
0.0
  3
43
  1

  0
POLYLINE
  5
314
  8
0
 62
     9
 66
     1
 10
0.0
 20
0.0
 30
0.0
 70
    64
 71
    93
 72
   164
  0
VERTEX
  5
315
  8
0
 10
2.671937465667725
 20
52.22940444946289
 30
56.92391204833984
 70
   192
  0
VERTEX
  5
316
  8
0
 10
-0.0000000000066485
 20
52.22940444946289
 30
56.69199752807617
 70
   192
  0
VERTEX
  5
317
  8
0
 10
0.0000000000000056
 20
47.31994247436523
 30
53.75
 70
   192
  0
VERTEX
  5
318
  8
0
 10
5.579873085021973
 20
58.78104400634766
 30
71.2240219116211
 70
   192
  0
VERTEX
  5
319
  8
0
 10
10.9158239364624
 20
56.24930572509766
 30
70.29071807861328
 70
   192
  0
VERTEX
  5
31A
  8
0
 10
5.664583683013916
 20
58.78104400634766
 30
72.19999694824219
 70
   192
  0
VERTEX
  5
31B
  8
0
 10
1.909284591674805
 20
56.24930572509766
 30
61.28417587280273
 70
   192
  0
VERTEX
  5
31C
  8
0
 10
2.575183153152466
 20
58.78104400634766
 30
67.15460968017578
 70
   192
  0
VERTEX
  5
31D
  8
0
 10
0.975974440574646
 20
58.78104400634766
 30
66.62012481689453
 70
   192
  0
VERTEX
  5
31E
  8
0
 10
5.037793159484863
 20
56.24930572509766
 30
62.32978057861328
 70
   192
  0
VERTEX
  5
31F
  8
0
 10
4.005465507507324
 20
58.78104400634766
 30
68.19453430175781
 70
   192
  0
VERTEX
  5
320
  8
0
 10
0.0
 20
59.59999847412109
 30
72.19999694824219
 70
   192
  0
VERTEX
  5
321
  8
0
 10
5.045387744903564
 20
58.78104400634766
 30
69.62481689453125
 70
   192
  0
VERTEX
  5
322
  8
0
 10
7.83583402633667
 20
56.24930572509766
 30
64.36416625976562
 70
   192
  0
VERTEX
  5
323
  8
0
 10
13.81282138824463
 20
52.22940444946289
 30
65.14988708496094
 70
   192
  0
VERTEX
  5
324
  8
0
 10
17.63107490539551
 20
47.31994247436523
 30
66.79153442382812
 70
   192
  0
VERTEX
  5
325
  8
0
 10
15.27608776092529
 20
52.22940444946289
 30
69.52806091308594
 70
   192
  0
VERTEX
  5
326
  8
0
 10
18.45000076293945
 20
47.31994247436523
 30
72.19999694824219
 70
   192
  0
VERTEX
  5
327
  8
0
 10
15.01803112030029
 20
47.31994247436523
 30
61.485595703125
 70
   192
  0
VERTEX
  5
328
  8
0
 10
11.08154201507568
 20
56.24930572509766
 30
72.19999694824219
 70
   192
  0
VERTEX
  5
329
  8
0
 10
9.870219230651855
 20
56.24930572509766
 30
67.1622085571289
 70
   192
  0
VERTEX
  5
32A
  8
0
 10
-0.0000000000072899
 20
58.78104400634766
 30
66.53541564941406
 70
   192
  0
VERTEX
  5
32B
  8
0
 10
-0.0000000000095059
 20
56.24930572509766
 30
61.11845779418945
 70
   192
  0
VERTEX
  5
32C
  8
0
 10
15.50800132751465
 20
52.22940444946289
 30
72.19999694824219
 70
   192
  0
VERTEX
  5
32D
  8
0
 10
10.96581268310547
 20
52.22940444946289
 30
61.23418807983398
 70
   192
  0
VERTEX
  5
32E
  8
0
 10
7.050111293792725
 20
52.22940444946289
 30
58.38718032836914
 70
   192
  0
VERTEX
  5
32F
  8
0
 10
10.73033237457275
 20
47.31994247436523
 30
57.19242858886719
 70
   192
  0
VERTEX
  5
330
  8
0
 10
5.433230400085449
 20
47.31994247436523
 30
54.56349182128906
 70
   192
  0
VERTEX
  5
331
  8
0
 10
15.27608776092529
 20
52.22940444946289
 30
74.87194061279297
 70
   192
  0
VERTEX
  5
332
  8
0
 10
0.975974440574646
 20
58.78104400634766
 30
77.77987670898438
 70
   192
  0
VERTEX
  5
333
  8
0
 10
1.909284591674805
 20
56.24930572509766
 30
83.1158218383789
 70
   192
  0
VERTEX
  5
334
  8
0
 10
-0.00000000001149
 20
58.78104400634766
 30
77.86458587646484
 70
   192
  0
VERTEX
  5
335
  8
0
 10
10.9158239364624
 20
56.24930572509766
 30
74.10928344726562
 70
   192
  0
VERTEX
  5
336
  8
0
 10
5.045387744903564
 20
58.78104400634766
 30
74.77518463134766
 70
   192
  0
VERTEX
  5
337
  8
0
 10
5.579873085021973
 20
58.78104400634766
 30
73.17597198486328
 70
   192
  0
VERTEX
  5
338
  8
0
 10
9.870219230651855
 20
56.24930572509766
 30
77.23779296875
 70
   192
  0
VERTEX
  5
339
  8
0
 10
4.005465507507324
 20
58.78104400634766
 30
76.2054672241211
 70
   192
  0
VERTEX
  5
33A
  8
0
 10
2.575183153152466
 20
58.78104400634766
 30
77.2453842163086
 70
   192
  0
VERTEX
  5
33B
  8
0
 10
7.83583402633667
 20
56.24930572509766
 30
80.03583526611328
 70
   192
  0
VERTEX
  5
33C
  8
0
 10
7.050111293792725
 20
52.22940444946289
 30
86.01282501220703
 70
   192
  0
VERTEX
  5
33D
  8
0
 10
5.408466339111328
 20
47.31994247436523
 30
89.8310775756836
 70
   192
  0
VERTEX
  5
33E
  8
0
 10
2.671937465667725
 20
52.22940444946289
 30
87.47608947753906
 70
   192
  0
VERTEX
  5
33F
  8
0
 10
0.0000000000000061
 20
47.31994247436523
 30
90.6500015258789
 70
   192
  0
VERTEX
  5
340
  8
0
 10
10.71440601348877
 20
47.31994247436523
 30
87.21803283691406
 70
   192
  0
VERTEX
  5
341
  8
0
 10
-0.0000000000149882
 20
56.24930572509766
 30
83.28153991699219
 70
   192
  0
VERTEX
  5
342
  8
0
 10
5.037793159484863
 20
56.24930572509766
 30
82.07022094726562
 70
   192
  0
VERTEX
  5
343
  8
0
 10
-0.0000000000104934
 20
52.22940444946289
 30
87.70800018310547
 70
   192
  0
VERTEX
  5
344
  8
0
 10
10.96581268310547
 20
52.22940444946289
 30
83.16580963134766
 70
   192
  0
VERTEX
  5
345
  8
0
 10
13.81282138824463
 20
52.22940444946289
 30
79.25011444091797
 70
   192
  0
VERTEX
  5
346
  8
0
 10
15.00757026672363
 20
47.31994247436523
 30
82.93033599853516
 70
   192
  0
VERTEX
  5
347
  8
0
 10
17.63650703430176
 20
47.31994247436523
 30
77.63323211669922
 70
   192
  0
VERTEX
  5
348
  8
0
 10
-2.671937465667725
 20
52.22940444946289
 30
87.47608947753906
 70
   192
  0
VERTEX
  5
349
  8
0
 10
-5.579873085021973
 20
58.78104400634766
 30
73.17597198486328
 70
   192
  0
VERTEX
  5
34A
  8
0
 10
-10.9158239364624
 20
56.24930572509766
 30
74.10928344726562
 70
   192
  0
VERTEX
  5
34B
  8
0
 10
-5.664583683013916
 20
58.78104400634766
 30
72.19999694824219
 70
   192
  0
VERTEX
  5
34C
  8
0
 10
-1.909284591674805
 20
56.24930572509766
 30
83.1158218383789
 70
   192
  0
VERTEX
  5
34D
  8
0
 10
-2.575183153152466
 20
58.78104400634766
 30
77.2453842163086
 70
   192
  0
VERTEX
  5
34E
  8
0
 10
-0.975974440574646
 20
58.78104400634766
 30
77.77987670898438
 70
   192
  0
VERTEX
  5
34F
  8
0
 10
-5.037793159484863
 20
56.24930572509766
 30
82.07022094726562
 70
   192
  0
VERTEX
  5
350
  8
0
 10
-4.005465507507324
 20
58.78104400634766
 30
76.2054672241211
 70
   192
  0
VERTEX
  5
351
  8
0
 10
-5.045387744903564
 20
58.78104400634766
 30
74.77518463134766
 70
   192
  0
VERTEX
  5
352
  8
0
 10
-7.83583402633667
 20
56.24930572509766
 30
80.03583526611328
 70
   192
  0
VERTEX
  5
353
  8
0
 10
-13.81282138824463
 20
52.22940444946289
 30
79.25011444091797
 70
   192
  0
VERTEX
  5
354
  8
0
 10
-17.63107490539551
 20
47.31994247436523
 30
77.60846710205078
 70
   192
  0
VERTEX
  5
355
  8
0
 10
-15.27608776092529
 20
52.22940444946289
 30
74.87194061279297
 70
   192
  0
VERTEX
  5
356
  8
0
 10
-18.45000076293945
 20
47.31994247436523
 30
72.19999694824219
 70
   192
  0
VERTEX
  5
357
  8
0
 10
-15.01803112030029
 20
47.31994247436523
 30
82.9144058227539
 70
   192
  0
VERTEX
  5
358
  8
0
 10
-11.08154201507568
 20
56.24930572509766
 30
72.19999694824219
 70
   192
  0
VERTEX
  5
359
  8
0
 10
-9.870219230651855
 20
56.24930572509766
 30
77.23779296875
 70
   192
  0
VERTEX
  5
35A
  8
0
 10
-15.50800132751465
 20
52.22940444946289
 30
72.19999694824219
 70
   192
  0
VERTEX
  5
35B
  8
0
 10
-10.96581268310547
 20
52.22940444946289
 30
83.16580963134766
 70
   192
  0
VERTEX
  5
35C
  8
0
 10
-7.050111293792725
 20
52.22940444946289
 30
86.01282501220703
 70
   192
  0
VERTEX
  5
35D
  8
0
 10
-10.73033237457275
 20
47.31994247436523
 30
87.20757293701172
 70
   192
  0
VERTEX
  5
35E
  8
0
 10
-5.433230400085449
 20
47.31994247436523
 30
89.83650970458984
 70
   192
  0
VERTEX
  5
35F
  8
0
 10
-2.671937465667725
 20
52.22940444946289
 30
56.92391204833984
 70
   192
  0
VERTEX
  5
360
  8
0
 10
-1.909284591674805
 20
56.24930572509766
 30
61.28417587280273
 70
   192
  0
VERTEX
  5
361
  8
0
 10
-7.050111293792725
 20
52.22940444946289
 30
58.38718032836914
 70
   192
  0
VERTEX
  5
362
  8
0
 10
-9.870219230651855
 20
56.24930572509766
 30
67.1622085571289
 70
   192
  0
VERTEX
  5
363
  8
0
 10
-4.005465507507324
 20
58.78104400634766
 30
68.19453430175781
 70
   192
  0
VERTEX
  5
364
  8
0
 10
-5.045387744903564
 20
58.78104400634766
 30
69.62481689453125
 70
   192
  0
VERTEX
  5
365
  8
0
 10
-10.71440601348877
 20
47.31994247436523
 30
57.18196868896484
 70
   192
  0
VERTEX
  5
366
  8
0
 10
-5.408466339111328
 20
47.31994247436523
 30
54.56892395019531
 70
   192
  0
VERTEX
  5
367
  8
0
 10
-7.83583402633667
 20
56.24930572509766
 30
64.36416625976562
 70
   192
  0
VERTEX
  5
368
  8
0
 10
-2.575183153152466
 20
58.78104400634766
 30
67.15460968017578
 70
   192
  0
VERTEX
  5
369
  8
0
 10
-15.27608776092529
 20
52.22940444946289
 30
69.52806091308594
 70
   192
  0
VERTEX
  5
36A
  8
0
 10
-5.579873085021973
 20
58.78104400634766
 30
71.2240219116211
 70
   192
  0
VERTEX
  5
36B
  8
0
 10
-10.9158239364624
 20
56.24930572509766
 30
70.29071807861328
 70
   192
  0
VERTEX
  5
36C
  8
0
 10
-0.975974440574646
 20
58.78104400634766
 30
66.62012481689453
 70
   192
  0
VERTEX
  5
36D
  8
0
 10
-5.037793159484863
 20
56.24930572509766
 30
62.32978057861328
 70
   192
  0
VERTEX
  5
36E
  8
0
 10
-10.96581268310547
 20
52.22940444946289
 30
61.23418807983398
 70
   192
  0
VERTEX
  5
36F
  8
0
 10
-13.81282138824463
 20
52.22940444946289
 30
65.14988708496094
 70
   192
  0
VERTEX
  5
370
  8
0
 10
-15.00757026672363
 20
47.31994247436523
 30
61.46966934204102
 70
   192
  0
VERTEX
  5
371
  8
0
 10
-17.63650703430176
 20
47.31994247436523
 30
66.76676940917969
 70
   192
  0
VERTEX
  5
372
  8
0
 62
     9
 10
0.0
 20
0.0
 30
0.0
 70
   128
 71
     3
 72
     2
 73
     1
  0
VERTEX
  5
373
  8
0
 62
     9
 10
0.0
 20
0.0
 30
0.0
 70
   128
 71
     6
 72
     5
 73
     4
  0
VERTEX
  5
374
  8
0
 62
     9
 10
0.0
 20
0.0
 30
0.0
 70
   128
 71
     9
 72
     8
 73
     7
  0
VERTEX
  5
375
  8
0
 62
     9
 10
0.0
 20
0.0
 30
0.0
 70
   128
 71
    11
 72
    10
 73
     8
  0
VERTEX
  5
376
  8
0
 62
     9
 10
0.0
 20
0.0
 30
0.0
 70
   128
 71
     4
 72
    13
 73
    12
  0
VERTEX
  5
377
  8
0
 62
     9
 10
0.0
 20
0.0
 30
0.0
 70
   128
 71
     6
 72
     4
 73
    12
  0
VERTEX
  5
378
  8
0
 62
     9
 10
0.0
 20
0.0
 30
0.0
 70
   128
 71
    13
 72
    14
 73
    11
  0
VERTEX
  5
379
  8
0
 62
     9
 10
0.0
 20
0.0
 30
0.0
 70
   128
 71
    10
 72
     1
 73
     7
  0
VERTEX
  5
37A
  8
0
 62
     9
 10
0.0
 20
0.0
 30
0.0
 70
   128
 71
    17
 72
    16
 73
    15
  0
VERTEX
  5
37B
  8
0
 62
     9
 10
0.0
 20
0.0
 30
0.0
 70
   128
 71
    15
 72
     5
 73
    17
  0
VERTEX
  5
37C
  8
0
 62
     9
 10
0.0
 20
0.0
 30
0.0
 70
   128
 71
    17
 72
    18
 73
    16
  0
VERTEX
  5
37D
  8
0
 62
     9
 10
0.0
 20
0.0
 30
0.0
 70
   128
 71
    15
 72
    16
 73
    19
  0
VERTEX
  5
37E
  8
0
 62
     9
 10
0.0
 20
0.0
 30
0.0
 70
   128
 71
     5
 72
     6
 73
    20
  0
VERTEX
  5
37F
  8
0
 62
     9
 10
0.0
 20
0.0
 30
0.0
 70
   128
 71
    10
 72
     7
 73
     8
  0
VERTEX
  5
380
  8
0
 62
     9
 10
0.0
 20
0.0
 30
0.0
 70
   128
 71
    11
 72
    12
 73
    13
  0
VERTEX
  5
381
  8
0
 62
     9
 10
0.0
 20
0.0
 30
0.0
 70
   128
 71
    13
 72
    21
 73
    14
  0
VERTEX
  5
382
  8
0
 62
     9
 10
0.0
 20
0.0
 30
0.0
 70
   128
 71
    11
 72
     8
 73
    12
  0
VERTEX
  5
383
  8
0
 62
     9
 10
0.0
 20
0.0
 30
0.0
 70
   128
 71
    11
 72
    14
 73
    10
  0
VERTEX
  5
384
  8
0
 62
     9
 10
0.0
 20
0.0
 30
0.0
 70
   128
 71
     9
 72
    23
 73
    22
  0
VERTEX
  5
385
  8
0
 62
     9
 10
0.0
 20
0.0
 30
0.0
 70
   128
 71
    12
 72
     9
 73
    22
  0
VERTEX
  5
386
  8
0
 62
     9
 10
0.0
 20
0.0
 30
0.0
 70
   128
 71
     8
 72
     9
 73
    12
  0
VERTEX
  5
387
  8
0
 62
     9
 10
0.0
 20
0.0
 30
0.0
 70
   128
 71
    21
 72
     4
 73
     5
  0
VERTEX
  5
388
  8
0
 62
     9
 10
0.0
 20
0.0
 30
0.0
 70
   128
 71
    24
 72
    17
 73
    20
  0
VERTEX
  5
389
  8
0
 62
     9
 10
0.0
 20
0.0
 30
0.0
 70
   128
 71
    21
 72
    25
 73
    14
  0
VERTEX
  5
38A
  8
0
 62
     9
 10
0.0
 20
0.0
 30
0.0
 70
   128
 71
    21
 72
    13
 73
     4
  0
VERTEX
  5
38B
  8
0
 62
     9
 10
0.0
 20
0.0
 30
0.0
 70
   128
 71
    15
 72
    25
 73
    21
  0
VERTEX
  5
38C
  8
0
 62
     9
 10
0.0
 20
0.0
 30
0.0
 70
   128
 71
    14
 72
    26
 73
    10
  0
VERTEX
  5
38D
  8
0
 62
     9
 10
0.0
 20
0.0
 30
0.0
 70
   128
 71
    26
 72
    14
 73
    25
  0
VERTEX
  5
38E
  8
0
 62
     9
 10
0.0
 20
0.0
 30
0.0
 70
   128
 71
    26
 72
     1
 73
    10
  0
VERTEX
  5
38F
  8
0
 62
     9
 10
0.0
 20
0.0
 30
0.0
 70
   128
 71
    23
 72
     7
 73
     2
  0
VERTEX
  5
390
  8
0
 62
     9
 10
0.0
 20
0.0
 30
0.0
 70
   128
 71
     7
 72
    23
 73
     9
  0
VERTEX
  5
391
  8
0
 62
     9
 10
0.0
 20
0.0
 30
0.0
 70
   128
 71
    17
 72
     5
 73
    20
  0
VERTEX
  5
392
  8
0
 62
     9
 10
0.0
 20
0.0
 30
0.0
 70
   128
 71
    17
 72
    24
 73
    18
  0
VERTEX
  5
393
  8
0
 62
     9
 10
0.0
 20
0.0
 30
0.0
 70
   128
 71
    27
 72
    25
 73
    19
  0
VERTEX
  5
394
  8
0
 62
     9
 10
0.0
 20
0.0
 30
0.0
 70
   128
 71
    15
 72
    21
 73
     5
  0
VERTEX
  5
395
  8
0
 62
     9
 10
0.0
 20
0.0
 30
0.0
 70
   128
 71
    25
 72
    15
 73
    19
  0
VERTEX
  5
396
  8
0
 62
     9
 10
0.0
 20
0.0
 30
0.0
 70
   128
 71
    28
 72
    26
 73
    27
  0
VERTEX
  5
397
  8
0
 62
     9
 10
0.0
 20
0.0
 30
0.0
 70
   128
 71
    26
 72
    25
 73
    27
  0
VERTEX
  5
398
  8
0
 62
     9
 10
0.0
 20
0.0
 30
0.0
 70
   128
 71
     1
 72
     2
 73
     7
  0
VERTEX
  5
399
  8
0
 62
     9
 10
0.0
 20
0.0
 30
0.0
 70
   128
 71
    28
 72
     1
 73
    26
  0
VERTEX
  5
39A
  8
0
 62
     9
 10
0.0
 20
0.0
 30
0.0
 70
   128
 71
     1
 72
    28
 73
     3
  0
VERTEX
  5
39B
  8
0
 62
     9
 10
0.0
 20
0.0
 30
0.0
 70
   128
 71
    18
 72
    24
 73
    29
  0
VERTEX
  5
39C
  8
0
 62
     9
 10
0.0
 20
0.0
 30
0.0
 70
   128
 71
    32
 72
    31
 73
    30
  0
VERTEX
  5
39D
  8
0
 62
     9
 10
0.0
 20
0.0
 30
0.0
 70
   128
 71
    35
 72
    34
 73
    33
  0
VERTEX
  5
39E
  8
0
 62
     9
 10
0.0
 20
0.0
 30
0.0
 70
   128
 71
    37
 72
    36
 73
    34
  0
VERTEX
  5
39F
  8
0
 62
     9
 10
0.0
 20
0.0
 30
0.0
 70
   128
 71
    30
 72
    38
 73
    12
  0
VERTEX
  5
3A0
  8
0
 62
     9
 10
0.0
 20
0.0
 30
0.0
 70
   128
 71
    32
 72
    30
 73
    12
  0
VERTEX
  5
3A1
  8
0
 62
     9
 10
0.0
 20
0.0
 30
0.0
 70
   128
 71
    38
 72
    39
 73
    37
  0
VERTEX
  5
3A2
  8
0
 62
     9
 10
0.0
 20
0.0
 30
0.0
 70
   128
 71
    36
 72
    29
 73
    33
  0
VERTEX
  5
3A3
  8
0
 62
     9
 10
0.0
 20
0.0
 30
0.0
 70
   128
 71
    42
 72
    41
 73
    40
  0
VERTEX
  5
3A4
  8
0
 62
     9
 10
0.0
 20
0.0
 30
0.0
 70
   128
 71
    40
 72
    31
 73
    42
  0
VERTEX
  5
3A5
  8
0
 62
     9
 10
0.0
 20
0.0
 30
0.0
 70
   128
 71
    42
 72
    43
 73
    41
  0
VERTEX
  5
3A6
  8
0
 62
     9
 10
0.0
 20
0.0
 30
0.0
 70
   128
 71
    40
 72
    41
 73
    44
  0
VERTEX
  5
3A7
  8
0
 62
     9
 10
0.0
 20
0.0
 30
0.0
 70
   128
 71
    31
 72
    32
 73
    45
  0
VERTEX
  5
3A8
  8
0
 62
     9
 10
0.0
 20
0.0
 30
0.0
 70
   128
 71
    36
 72
    33
 73
    34
  0
VERTEX
  5
3A9
  8
0
 62
     9
 10
0.0
 20
0.0
 30
0.0
 70
   128
 71
    37
 72
    12
 73
    38
  0
VERTEX
  5
3AA
  8
0
 62
     9
 10
0.0
 20
0.0
 30
0.0
 70
   128
 71
    38
 72
    46
 73
    39
  0
VERTEX
  5
3AB
  8
0
 62
     9
 10
0.0
 20
0.0
 30
0.0
 70
   128
 71
    37
 72
    34
 73
    12
  0
VERTEX
  5
3AC
  8
0
 62
     9
 10
0.0
 20
0.0
 30
0.0
 70
   128
 71
    37
 72
    39
 73
    36
  0
VERTEX
  5
3AD
  8
0
 62
     9
 10
0.0
 20
0.0
 30
0.0
 70
   128
 71
    35
 72
    20
 73
     6
  0
VERTEX
  5
3AE
  8
0
 62
     9
 10
0.0
 20
0.0
 30
0.0
 70
   128
 71
    12
 72
    35
 73
     6
  0
VERTEX
  5
3AF
  8
0
 62
     9
 10
0.0
 20
0.0
 30
0.0
 70
   128
 71
    34
 72
    35
 73
    12
  0
VERTEX
  5
3B0
  8
0
 62
     9
 10
0.0
 20
0.0
 30
0.0
 70
   128
 71
    46
 72
    30
 73
    31
  0
VERTEX
  5
3B1
  8
0
 62
     9
 10
0.0
 20
0.0
 30
0.0
 70
   128
 71
    47
 72
    42
 73
    45
  0
VERTEX
  5
3B2
  8
0
 62
     9
 10
0.0
 20
0.0
 30
0.0
 70
   128
 71
    46
 72
    48
 73
    39
  0
VERTEX
  5
3B3
  8
0
 62
     9
 10
0.0
 20
0.0
 30
0.0
 70
   128
 71
    46
 72
    38
 73
    30
  0
VERTEX
  5
3B4
  8
0
 62
     9
 10
0.0
 20
0.0
 30
0.0
 70
   128
 71
    40
 72
    48
 73
    46
  0
VERTEX
  5
3B5
  8
0
 62
     9
 10
0.0
 20
0.0
 30
0.0
 70
   128
 71
    39
 72
    49
 73
    36
  0
VERTEX
  5
3B6
  8
0
 62
     9
 10
0.0
 20
0.0
 30
0.0
 70
   128
 71
    49
 72
    39
 73
    48
  0
VERTEX
  5
3B7
  8
0
 62
     9
 10
0.0
 20
0.0
 30
0.0
 70
   128
 71
    49
 72
    29
 73
    36
  0
VERTEX
  5
3B8
  8
0
 62
     9
 10
0.0
 20
0.0
 30
0.0
 70
   128
 71
    20
 72
    33
 73
    24
  0
VERTEX
  5
3B9
  8
0
 62
     9
 10
0.0
 20
0.0
 30
0.0
 70
   128
 71
    33
 72
    20
 73
    35
  0
VERTEX
  5
3BA
  8
0
 62
     9
 10
0.0
 20
0.0
 30
0.0
 70
   128
 71
    42
 72
    31
 73
    45
  0
VERTEX
  5
3BB
  8
0
 62
     9
 10
0.0
 20
0.0
 30
0.0
 70
   128
 71
    42
 72
    47
 73
    43
  0
VERTEX
  5
3BC
  8
0
 62
     9
 10
0.0
 20
0.0
 30
0.0
 70
   128
 71
    50
 72
    48
 73
    44
  0
VERTEX
  5
3BD
  8
0
 62
     9
 10
0.0
 20
0.0
 30
0.0
 70
   128
 71
    40
 72
    46
 73
    31
  0
VERTEX
  5
3BE
  8
0
 62
     9
 10
0.0
 20
0.0
 30
0.0
 70
   128
 71
    48
 72
    40
 73
    44
  0
VERTEX
  5
3BF
  8
0
 62
     9
 10
0.0
 20
0.0
 30
0.0
 70
   128
 71
    51
 72
    49
 73
    50
  0
VERTEX
  5
3C0
  8
0
 62
     9
 10
0.0
 20
0.0
 30
0.0
 70
   128
 71
    49
 72
    48
 73
    50
  0
VERTEX
  5
3C1
  8
0
 62
     9
 10
0.0
 20
0.0
 30
0.0
 70
   128
 71
    29
 72
    24
 73
    33
  0
VERTEX
  5
3C2
  8
0
 62
     9
 10
0.0
 20
0.0
 30
0.0
 70
   128
 71
    51
 72
    29
 73
    49
  0
VERTEX
  5
3C3
  8
0
 62
     9
 10
0.0
 20
0.0
 30
0.0
 70
   128
 71
    29
 72
    51
 73
    18
  0
VERTEX
  5
3C4
  8
0
 62
     9
 10
0.0
 20
0.0
 30
0.0
 70
   128
 71
    43
 72
    47
 73
    52
  0
VERTEX
  5
3C5
  8
0
 62
     9
 10
0.0
 20
0.0
 30
0.0
 70
   128
 71
    55
 72
    54
 73
    53
  0
VERTEX
  5
3C6
  8
0
 62
     9
 10
0.0
 20
0.0
 30
0.0
 70
   128
 71
    58
 72
    57
 73
    56
  0
VERTEX
  5
3C7
  8
0
 62
     9
 10
0.0
 20
0.0
 30
0.0
 70
   128
 71
    60
 72
    59
 73
    57
  0
VERTEX
  5
3C8
  8
0
 62
     9
 10
0.0
 20
0.0
 30
0.0
 70
   128
 71
    53
 72
    61
 73
    12
  0
VERTEX
  5
3C9
  8
0
 62
     9
 10
0.0
 20
0.0
 30
0.0
 70
   128
 71
    55
 72
    53
 73
    12
  0
VERTEX
  5
3CA
  8
0
 62
     9
 10
0.0
 20
0.0
 30
0.0
 70
   128
 71
    61
 72
    62
 73
    60
  0
VERTEX
  5
3CB
  8
0
 62
     9
 10
0.0
 20
0.0
 30
0.0
 70
   128
 71
    59
 72
    52
 73
    56
  0
VERTEX
  5
3CC
  8
0
 62
     9
 10
0.0
 20
0.0
 30
0.0
 70
   128
 71
    65
 72
    64
 73
    63
  0
VERTEX
  5
3CD
  8
0
 62
     9
 10
0.0
 20
0.0
 30
0.0
 70
   128
 71
    63
 72
    54
 73
    65
  0
VERTEX
  5
3CE
  8
0
 62
     9
 10
0.0
 20
0.0
 30
0.0
 70
   128
 71
    65
 72
    66
 73
    64
  0
VERTEX
  5
3CF
  8
0
 62
     9
 10
0.0
 20
0.0
 30
0.0
 70
   128
 71
    63
 72
    64
 73
    67
  0
VERTEX
  5
3D0
  8
0
 62
     9
 10
0.0
 20
0.0
 30
0.0
 70
   128
 71
    54
 72
    55
 73
    68
  0
VERTEX
  5
3D1
  8
0
 62
     9
 10
0.0
 20
0.0
 30
0.0
 70
   128
 71
    59
 72
    56
 73
    57
  0
VERTEX
  5
3D2
  8
0
 62
     9
 10
0.0
 20
0.0
 30
0.0
 70
   128
 71
    60
 72
    12
 73
    61
  0
VERTEX
  5
3D3
  8
0
 62
     9
 10
0.0
 20
0.0
 30
0.0
 70
   128
 71
    61
 72
    69
 73
    62
  0
VERTEX
  5
3D4
  8
0
 62
     9
 10
0.0
 20
0.0
 30
0.0
 70
   128
 71
    60
 72
    57
 73
    12
  0
VERTEX
  5
3D5
  8
0
 62
     9
 10
0.0
 20
0.0
 30
0.0
 70
   128
 71
    60
 72
    62
 73
    59
  0
VERTEX
  5
3D6
  8
0
 62
     9
 10
0.0
 20
0.0
 30
0.0
 70
   128
 71
    58
 72
    45
 73
    32
  0
VERTEX
  5
3D7
  8
0
 62
     9
 10
0.0
 20
0.0
 30
0.0
 70
   128
 71
    12
 72
    58
 73
    32
  0
VERTEX
  5
3D8
  8
0
 62
     9
 10
0.0
 20
0.0
 30
0.0
 70
   128
 71
    57
 72
    58
 73
    12
  0
VERTEX
  5
3D9
  8
0
 62
     9
 10
0.0
 20
0.0
 30
0.0
 70
   128
 71
    69
 72
    53
 73
    54
  0
VERTEX
  5
3DA
  8
0
 62
     9
 10
0.0
 20
0.0
 30
0.0
 70
   128
 71
    70
 72
    65
 73
    68
  0
VERTEX
  5
3DB
  8
0
 62
     9
 10
0.0
 20
0.0
 30
0.0
 70
   128
 71
    69
 72
    71
 73
    62
  0
VERTEX
  5
3DC
  8
0
 62
     9
 10
0.0
 20
0.0
 30
0.0
 70
   128
 71
    69
 72
    61
 73
    53
  0
VERTEX
  5
3DD
  8
0
 62
     9
 10
0.0
 20
0.0
 30
0.0
 70
   128
 71
    63
 72
    71
 73
    69
  0
VERTEX
  5
3DE
  8
0
 62
     9
 10
0.0
 20
0.0
 30
0.0
 70
   128
 71
    62
 72
    72
 73
    59
  0
VERTEX
  5
3DF
  8
0
 62
     9
 10
0.0
 20
0.0
 30
0.0
 70
   128
 71
    72
 72
    62
 73
    71
  0
VERTEX
  5
3E0
  8
0
 62
     9
 10
0.0
 20
0.0
 30
0.0
 70
   128
 71
    72
 72
    52
 73
    59
  0
VERTEX
  5
3E1
  8
0
 62
     9
 10
0.0
 20
0.0
 30
0.0
 70
   128
 71
    45
 72
    56
 73
    47
  0
VERTEX
  5
3E2
  8
0
 62
     9
 10
0.0
 20
0.0
 30
0.0
 70
   128
 71
    56
 72
    45
 73
    58
  0
VERTEX
  5
3E3
  8
0
 62
     9
 10
0.0
 20
0.0
 30
0.0
 70
   128
 71
    65
 72
    54
 73
    68
  0
VERTEX
  5
3E4
  8
0
 62
     9
 10
0.0
 20
0.0
 30
0.0
 70
   128
 71
    65
 72
    70
 73
    66
  0
VERTEX
  5
3E5
  8
0
 62
     9
 10
0.0
 20
0.0
 30
0.0
 70
   128
 71
    73
 72
    71
 73
    67
  0
VERTEX
  5
3E6
  8
0
 62
     9
 10
0.0
 20
0.0
 30
0.0
 70
   128
 71
    63
 72
    69
 73
    54
  0
VERTEX
  5
3E7
  8
0
 62
     9
 10
0.0
 20
0.0
 30
0.0
 70
   128
 71
    71
 72
    63
 73
    67
  0
VERTEX
  5
3E8
  8
0
 62
     9
 10
0.0
 20
0.0
 30
0.0
 70
   128
 71
    74
 72
    72
 73
    73
  0
VERTEX
  5
3E9
  8
0
 62
     9
 10
0.0
 20
0.0
 30
0.0
 70
   128
 71
    72
 72
    71
 73
    73
  0
VERTEX
  5
3EA
  8
0
 62
     9
 10
0.0
 20
0.0
 30
0.0
 70
   128
 71
    52
 72
    47
 73
    56
  0
VERTEX
  5
3EB
  8
0
 62
     9
 10
0.0
 20
0.0
 30
0.0
 70
   128
 71
    74
 72
    52
 73
    72
  0
VERTEX
  5
3EC
  8
0
 62
     9
 10
0.0
 20
0.0
 30
0.0
 70
   128
 71
    52
 72
    74
 73
    43
  0
VERTEX
  5
3ED
  8
0
 62
     9
 10
0.0
 20
0.0
 30
0.0
 70
   128
 71
    77
 72
    76
 73
    75
  0
VERTEX
  5
3EE
  8
0
 62
     9
 10
0.0
 20
0.0
 30
0.0
 70
   128
 71
    80
 72
    79
 73
    78
  0
VERTEX
  5
3EF
  8
0
 62
     9
 10
0.0
 20
0.0
 30
0.0
 70
   128
 71
    77
 72
    82
 73
    81
  0
VERTEX
  5
3F0
  8
0
 62
     9
 10
0.0
 20
0.0
 30
0.0
 70
   128
 71
    82
 72
    77
 73
    75
  0
VERTEX
  5
3F1
  8
0
 62
     9
 10
0.0
 20
0.0
 30
0.0
 70
   128
 71
    79
 72
    84
 73
    83
  0
VERTEX
  5
3F2
  8
0
 62
     9
 10
0.0
 20
0.0
 30
0.0
 70
   128
 71
    82
 72
    75
 73
     3
  0
VERTEX
  5
3F3
  8
0
 62
     9
 10
0.0
 20
0.0
 30
0.0
 70
   128
 71
    85
 72
    66
 73
    70
  0
VERTEX
  5
3F4
  8
0
 62
     9
 10
0.0
 20
0.0
 30
0.0
 70
   128
 71
    87
 72
    86
 73
    80
  0
VERTEX
  5
3F5
  8
0
 62
     9
 10
0.0
 20
0.0
 30
0.0
 70
   128
 71
    88
 72
    22
 73
    76
  0
VERTEX
  5
3F6
  8
0
 62
     9
 10
0.0
 20
0.0
 30
0.0
 70
   128
 71
    85
 72
    87
 73
    78
  0
VERTEX
  5
3F7
  8
0
 62
     9
 10
0.0
 20
0.0
 30
0.0
 70
   128
 71
    12
 72
    88
 73
    84
  0
VERTEX
  5
3F8
  8
0
 62
     9
 10
0.0
 20
0.0
 30
0.0
 70
   128
 71
    22
 72
    88
 73
    12
  0
VERTEX
  5
3F9
  8
0
 62
     9
 10
0.0
 20
0.0
 30
0.0
 70
   128
 71
    76
 72
    22
 73
    23
  0
VERTEX
  5
3FA
  8
0
 62
     9
 10
0.0
 20
0.0
 30
0.0
 70
   128
 71
    78
 72
    87
 73
    80
  0
VERTEX
  5
3FB
  8
0
 62
     9
 10
0.0
 20
0.0
 30
0.0
 70
   128
 71
    79
 72
    12
 73
    84
  0
VERTEX
  5
3FC
  8
0
 62
     9
 10
0.0
 20
0.0
 30
0.0
 70
   128
 71
    84
 72
    89
 73
    83
  0
VERTEX
  5
3FD
  8
0
 62
     9
 10
0.0
 20
0.0
 30
0.0
 70
   128
 71
    79
 72
    80
 73
    12
  0
VERTEX
  5
3FE
  8
0
 62
     9
 10
0.0
 20
0.0
 30
0.0
 70
   128
 71
    79
 72
    83
 73
    78
  0
VERTEX
  5
3FF
  8
0
 62
     9
 10
0.0
 20
0.0
 30
0.0
 70
   128
 71
    86
 72
    68
 73
    55
  0
VERTEX
  5
400
  8
0
 62
     9
 10
0.0
 20
0.0
 30
0.0
 70
   128
 71
    12
 72
    86
 73
    55
  0
VERTEX
  5
401
  8
0
 62
     9
 10
0.0
 20
0.0
 30
0.0
 70
   128
 71
    80
 72
    86
 73
    12
  0
VERTEX
  5
402
  8
0
 62
     9
 10
0.0
 20
0.0
 30
0.0
 70
   128
 71
    89
 72
    88
 73
    76
  0
VERTEX
  5
403
  8
0
 62
     9
 10
0.0
 20
0.0
 30
0.0
 70
   128
 71
     2
 72
    75
 73
    23
  0
VERTEX
  5
404
  8
0
 62
     9
 10
0.0
 20
0.0
 30
0.0
 70
   128
 71
    89
 72
    90
 73
    83
  0
VERTEX
  5
405
  8
0
 62
     9
 10
0.0
 20
0.0
 30
0.0
 70
   128
 71
    89
 72
    84
 73
    88
  0
VERTEX
  5
406
  8
0
 62
     9
 10
0.0
 20
0.0
 30
0.0
 70
   128
 71
    77
 72
    90
 73
    89
  0
VERTEX
  5
407
  8
0
 62
     9
 10
0.0
 20
0.0
 30
0.0
 70
   128
 71
    83
 72
    91
 73
    78
  0
VERTEX
  5
408
  8
0
 62
     9
 10
0.0
 20
0.0
 30
0.0
 70
   128
 71
    91
 72
    83
 73
    90
  0
VERTEX
  5
409
  8
0
 62
     9
 10
0.0
 20
0.0
 30
0.0
 70
   128
 71
    91
 72
    85
 73
    78
  0
VERTEX
  5
40A
  8
0
 62
     9
 10
0.0
 20
0.0
 30
0.0
 70
   128
 71
    68
 72
    87
 73
    70
  0
VERTEX
  5
40B
  8
0
 62
     9
 10
0.0
 20
0.0
 30
0.0
 70
   128
 71
    87
 72
    68
 73
    86
  0
VERTEX
  5
40C
  8
0
 62
     9
 10
0.0
 20
0.0
 30
0.0
 70
   128
 71
    75
 72
    76
 73
    23
  0
VERTEX
  5
40D
  8
0
 62
     9
 10
0.0
 20
0.0
 30
0.0
 70
   128
 71
    75
 72
     2
 73
     3
  0
VERTEX
  5
40E
  8
0
 62
     9
 10
0.0
 20
0.0
 30
0.0
 70
   128
 71
    92
 72
    90
 73
    81
  0
VERTEX
  5
40F
  8
0
 62
     9
 10
0.0
 20
0.0
 30
0.0
 70
   128
 71
    77
 72
    89
 73
    76
  0
VERTEX
  5
410
  8
0
 62
     9
 10
0.0
 20
0.0
 30
0.0
 70
   128
 71
    90
 72
    77
 73
    81
  0
VERTEX
  5
411
  8
0
 62
     9
 10
0.0
 20
0.0
 30
0.0
 70
   128
 71
    93
 72
    91
 73
    92
  0
VERTEX
  5
412
  8
0
 62
     9
 10
0.0
 20
0.0
 30
0.0
 70
   128
 71
    91
 72
    90
 73
    92
  0
VERTEX
  5
413
  8
0
 62
     9
 10
0.0
 20
0.0
 30
0.0
 70
   128
 71
    85
 72
    70
 73
    87
  0
VERTEX
  5
414
  8
0
 62
     9
 10
0.0
 20
0.0
 30
0.0
 70
   128
 71
    93
 72
    85
 73
    91
  0
VERTEX
  5
415
  8
0
 62
     9
 10
0.0
 20
0.0
 30
0.0
 70
   128
 71
    85
 72
    93
 73
    66
  0
SEQEND
  5
416
  8
0
 62
     9
  0
ENDBLK
  5
419
  8
0
  0
BLOCK
  8
0
  2
44
 70
     0
 10
0.0
 20
0.0
 30
0.0
  3
44
  1

  0
POLYLINE
  5
41B
  8
0
 62
     9
 66
     1
 10
0.0
 20
0.0
 30
0.0
 70
    64
 71
    61
 72
   104
  0
VERTEX
  5
41C
  8
0
 10
-4.373515605926514
 20
19.50287437438965
 30
106.5
 70
   192
  0
VERTEX
  5
41D
  8
0
 10
-12.40717792510986
 20
15.66786289215088
 30
106.5
 70
   192
  0
VERTEX
  5
41E
  8
0
 10
-8.904419898986816
 20
17.85677719116211
 30
90.05677795410156
 70
   192
  0
VERTEX
  5
41F
  8
0
 10
15.01352787017822
 20
12.83800506591797
 30
85.03800201416016
 70
   192
  0
VERTEX
  5
420
  8
0
 10
12.50798416137695
 20
15.60052680969238
 30
106.5
 70
   192
  0
VERTEX
  5
421
  8
0
 10
8.877838134765625
 20
17.94438362121582
 30
90.1443862915039
 70
   192
  0
VERTEX
  5
422
  8
0
 10
4.516189098358154
 20
19.47447395324707
 30
106.5
 70
   192
  0
VERTEX
  5
423
  8
0
 10
18.03042793273926
 20
8.651915550231934
 30
106.5
 70
   192
  0
VERTEX
  5
424
  8
0
 10
18.72184562683105
 20
6.665004730224609
 30
78.86500549316406
 70
   192
  0
VERTEX
  5
425
  8
0
 10
20.0
 20
0.0000000000000024
 30
106.5
 70
   192
  0
VERTEX
  5
426
  8
0
 10
20.0
 20
0.0000000000000024
 30
72.19999694824219
 70
   192
  0
VERTEX
  5
427
  8
0
 10
-17.99002647399902
 20
8.712398529052734
 30
106.5
 70
   192
  0
VERTEX
  5
428
  8
0
 10
-15.25333309173584
 20
12.9150333404541
 30
85.11503601074219
 70
   192
  0
VERTEX
  5
429
  8
0
 10
0.0
 20
20.0
 30
92.19999694824219
 70
   192
  0
VERTEX
  5
42A
  8
0
 10
-20.0
 20
0.0
 30
106.5
 70
   192
  0
VERTEX
  5
42B
  8
0
 10
-18.84000968933105
 20
6.670460224151611
 30
78.8704605102539
 70
   192
  0
VERTEX
  5
42C
  8
0
 10
-20.0
 20
0.0
 30
72.19999694824219
 70
   192
  0
VERTEX
  5
42D
  8
0
 10
15.25333309173584
 20
12.9150333404541
 30
59.28496551513672
 70
   192
  0
VERTEX
  5
42E
  8
0
 10
14.06356334686279
 20
14.08539390563965
 30
0.0
 70
   192
  0
VERTEX
  5
42F
  8
0
 10
18.46186256408691
 20
7.622251510620117
 30
0.0
 70
   192
  0
VERTEX
  5
430
  8
0
 10
0.0000000000000018
 20
20.0
 30
52.20000076293945
 70
   192
  0
VERTEX
  5
431
  8
0
 10
-7.627578258514404
 20
18.48857879638672
 30
0.0
 70
   192
  0
VERTEX
  5
432
  8
0
 10
0.0000000000000062
 20
20.0
 30
0.0
 70
   192
  0
VERTEX
  5
433
  8
0
 10
20.0
 20
0.0000000000000024
 30
0.0
 70
   192
  0
VERTEX
  5
434
  8
0
 10
18.84000968933105
 20
6.670460224151611
 30
65.529541015625
 70
   192
  0
VERTEX
  5
435
  8
0
 10
8.904419898986816
 20
17.85677719116211
 30
54.34322357177734
 70
   192
  0
VERTEX
  5
436
  8
0
 10
7.673582553863525
 20
18.46924018859863
 30
0.0
 70
   192
  0
VERTEX
  5
437
  8
0
 10
-15.01352787017822
 20
12.83800506591797
 30
59.36199569702148
 70
   192
  0
VERTEX
  5
438
  8
0
 10
-14.13810253143311
 20
14.16079330444336
 30
0.0
 70
   192
  0
VERTEX
  5
439
  8
0
 10
-8.877838134765625
 20
17.94438362121582
 30
54.255615234375
 70
   192
  0
VERTEX
  5
43A
  8
0
 10
-20.0
 20
0.0
 30
0.0
 70
   192
  0
VERTEX
  5
43B
  8
0
 10
-18.72184562683105
 20
6.665004730224609
 30
65.53499603271484
 70
   192
  0
VERTEX
  5
43C
  8
0
 10
-18.27846145629883
 20
7.583127975463867
 30
0.0
 70
   192
  0
VERTEX
  5
43D
  8
0
 10
19.47447395324707
 20
48.0
 30
76.7161865234375
 70
   192
  0
VERTEX
  5
43E
  8
0
 10
15.60052680969238
 20
48.0
 30
84.7079849243164
 70
   192
  0
VERTEX
  5
43F
  8
0
 10
8.651915550231934
 20
48.0
 30
90.23043060302734
 70
   192
  0
VERTEX
  5
440
  8
0
 10
0.0000000000000024
 20
48.0
 30
92.19999694824219
 70
   192
  0
VERTEX
  5
441
  8
0
 10
19.50287437438965
 20
48.0
 30
67.82648468017578
 70
   192
  0
VERTEX
  5
442
  8
0
 10
15.66786289215088
 20
48.0
 30
59.79282379150391
 70
   192
  0
VERTEX
  5
443
  8
0
 10
8.712398529052734
 20
48.0
 30
54.2099723815918
 70
   192
  0
VERTEX
  5
444
  8
0
 10
0.0
 20
48.0
 30
52.20000076293945
 70
   192
  0
VERTEX
  5
445
  8
0
 10
-7.583127975463867
 20
48.0
 30
53.92153930664062
 70
   192
  0
VERTEX
  5
446
  8
0
 10
-18.48857879638672
 20
48.0
 30
64.57241821289062
 70
   192
  0
VERTEX
  5
447
  8
0
 10
-14.16079330444336
 20
48.0
 30
58.06189727783203
 70
   192
  0
VERTEX
  5
448
  8
0
 10
-18.46924018859863
 20
48.0
 30
79.87358093261719
 70
   192
  0
VERTEX
  5
449
  8
0
 10
-14.08539390563965
 20
48.0
 30
86.26356506347656
 70
   192
  0
VERTEX
  5
44A
  8
0
 10
-20.0
 20
48.0
 30
72.19999694824219
 70
   192
  0
VERTEX
  5
44B
  8
0
 10
-7.622251510620117
 20
48.0
 30
90.661865234375
 70
   192
  0
VERTEX
  5
44C
  8
0
 10
18.27846145629883
 20
-7.583127975463867
 30
0.0
 70
   192
  0
VERTEX
  5
44D
  8
0
 10
17.99002647399902
 20
-8.712398529052734
 30
106.5
 70
   192
  0
VERTEX
  5
44E
  8
0
 10
-7.673582553863525
 20
-18.46924018859863
 30
0.0
 70
   192
  0
VERTEX
  5
44F
  8
0
 10
-4.516189098358154
 20
-19.47447395324707
 30
106.5
 70
   192
  0
VERTEX
  5
450
  8
0
 10
0.0000000000000044
 20
-20.0
 30
0.0
 70
   192
  0
VERTEX
  5
451
  8
0
 10
4.373515605926514
 20
-19.50287437438965
 30
106.5
 70
   192
  0
VERTEX
  5
452
  8
0
 10
12.40717792510986
 20
-15.66786289215088
 30
106.5
 70
   192
  0
VERTEX
  5
453
  8
0
 10
7.627578258514404
 20
-18.48857879638672
 30
0.0
 70
   192
  0
VERTEX
  5
454
  8
0
 10
-18.46186256408691
 20
-7.622251510620117
 30
0.0
 70
   192
  0
VERTEX
  5
455
  8
0
 10
-18.03042793273926
 20
-8.651915550231934
 30
106.5
 70
   192
  0
VERTEX
  5
456
  8
0
 10
-14.06356334686279
 20
-14.08539390563965
 30
0.0
 70
   192
  0
VERTEX
  5
457
  8
0
 10
-12.50798416137695
 20
-15.60052680969238
 30
106.5
 70
   192
  0
VERTEX
  5
458
  8
0
 10
14.13810253143311
 20
-14.16079330444336
 30
0.0
 70
   192
  0
VERTEX
  5
459
  8
0
 62
     9
 10
0.0
 20
0.0
 30
0.0
 70
   128
 71
     3
 72
     2
 73
     1
  0
VERTEX
  5
45A
  8
0
 62
     9
 10
0.0
 20
0.0
 30
0.0
 70
   128
 71
     6
 72
     5
 73
     4
  0
VERTEX
  5
45B
  8
0
 62
     9
 10
0.0
 20
0.0
 30
0.0
 70
   128
 71
     7
 72
     5
 73
     6
  0
VERTEX
  5
45C
  8
0
 62
     9
 10
0.0
 20
0.0
 30
0.0
 70
   128
 71
     9
 72
     4
 73
     8
  0
VERTEX
  5
45D
  8
0
 62
     9
 10
0.0
 20
0.0
 30
0.0
 70
   128
 71
     5
 72
     8
 73
     4
  0
VERTEX
  5
45E
  8
0
 62
     9
 10
0.0
 20
0.0
 30
0.0
 70
   128
 71
     9
 72
     8
 73
    10
  0
VERTEX
  5
45F
  8
0
 62
     9
 10
0.0
 20
0.0
 30
0.0
 70
   128
 71
    11
 72
     9
 73
    10
  0
VERTEX
  5
460
  8
0
 62
     9
 10
0.0
 20
0.0
 30
0.0
 70
   128
 71
     2
 72
    13
 73
    12
  0
VERTEX
  5
461
  8
0
 62
     9
 10
0.0
 20
0.0
 30
0.0
 70
   128
 71
    14
 72
     1
 73
     7
  0
VERTEX
  5
462
  8
0
 62
     9
 10
0.0
 20
0.0
 30
0.0
 70
   128
 71
     7
 72
     6
 73
    14
  0
VERTEX
  5
463
  8
0
 62
     9
 10
0.0
 20
0.0
 30
0.0
 70
   128
 71
     3
 72
     1
 73
    14
  0
VERTEX
  5
464
  8
0
 62
     9
 10
0.0
 20
0.0
 30
0.0
 70
   128
 71
     2
 72
     3
 73
    13
  0
VERTEX
  5
465
  8
0
 62
     9
 10
0.0
 20
0.0
 30
0.0
 70
   128
 71
    12
 72
    16
 73
    15
  0
VERTEX
  5
466
  8
0
 62
     9
 10
0.0
 20
0.0
 30
0.0
 70
   128
 71
    16
 72
    12
 73
    13
  0
VERTEX
  5
467
  8
0
 62
     9
 10
0.0
 20
0.0
 30
0.0
 70
   128
 71
    16
 72
    17
 73
    15
  0
VERTEX
  5
468
  8
0
 62
     9
 10
0.0
 20
0.0
 30
0.0
 70
   128
 71
    20
 72
    19
 73
    18
  0
VERTEX
  5
469
  8
0
 62
     9
 10
0.0
 20
0.0
 30
0.0
 70
   128
 71
    23
 72
    22
 73
    21
  0
VERTEX
  5
46A
  8
0
 62
     9
 10
0.0
 20
0.0
 30
0.0
 70
   128
 71
    25
 72
    11
 73
    24
  0
VERTEX
  5
46B
  8
0
 62
     9
 10
0.0
 20
0.0
 30
0.0
 70
   128
 71
    20
 72
    18
 73
    25
  0
VERTEX
  5
46C
  8
0
 62
     9
 10
0.0
 20
0.0
 30
0.0
 70
   128
 71
    25
 72
    24
 73
    20
  0
VERTEX
  5
46D
  8
0
 62
     9
 10
0.0
 20
0.0
 30
0.0
 70
   128
 71
    19
 72
    26
 73
    18
  0
VERTEX
  5
46E
  8
0
 62
     9
 10
0.0
 20
0.0
 30
0.0
 70
   128
 71
    26
 72
    27
 73
    21
  0
VERTEX
  5
46F
  8
0
 62
     9
 10
0.0
 20
0.0
 30
0.0
 70
   128
 71
    27
 72
    26
 73
    19
  0
VERTEX
  5
470
  8
0
 62
     9
 10
0.0
 20
0.0
 30
0.0
 70
   128
 71
    30
 72
    29
 73
    28
  0
VERTEX
  5
471
  8
0
 62
     9
 10
0.0
 20
0.0
 30
0.0
 70
   128
 71
    27
 72
    23
 73
    21
  0
VERTEX
  5
472
  8
0
 62
     9
 10
0.0
 20
0.0
 30
0.0
 70
   128
 71
    17
 72
    32
 73
    31
  0
VERTEX
  5
473
  8
0
 62
     9
 10
0.0
 20
0.0
 30
0.0
 70
   128
 71
    33
 72
    31
 73
    32
  0
VERTEX
  5
474
  8
0
 62
     9
 10
0.0
 20
0.0
 30
0.0
 70
   128
 71
    33
 72
    32
 73
    28
  0
VERTEX
  5
475
  8
0
 62
     9
 10
0.0
 20
0.0
 30
0.0
 70
   128
 71
    30
 72
    22
 73
    29
  0
VERTEX
  5
476
  8
0
 62
     9
 10
0.0
 20
0.0
 30
0.0
 70
   128
 71
    28
 72
    29
 73
    33
  0
VERTEX
  5
477
  8
0
 62
     9
 10
0.0
 20
0.0
 30
0.0
 70
   128
 71
    22
 72
    30
 73
    21
  0
VERTEX
  5
478
  8
0
 62
     9
 10
0.0
 20
0.0
 30
0.0
 70
   128
 71
    34
 72
     9
 73
    11
  0
VERTEX
  5
479
  8
0
 62
     9
 10
0.0
 20
0.0
 30
0.0
 70
   128
 71
     9
 72
    35
 73
     4
  0
VERTEX
  5
47A
  8
0
 62
     9
 10
0.0
 20
0.0
 30
0.0
 70
   128
 71
    35
 72
     9
 73
    34
  0
VERTEX
  5
47B
  8
0
 62
     9
 10
0.0
 20
0.0
 30
0.0
 70
   128
 71
    36
 72
     6
 73
    35
  0
VERTEX
  5
47C
  8
0
 62
     9
 10
0.0
 20
0.0
 30
0.0
 70
   128
 71
     4
 72
    35
 73
     6
  0
VERTEX
  5
47D
  8
0
 62
     9
 10
0.0
 20
0.0
 30
0.0
 70
   128
 71
    14
 72
     6
 73
    36
  0
VERTEX
  5
47E
  8
0
 62
     9
 10
0.0
 20
0.0
 30
0.0
 70
   128
 71
    37
 72
    14
 73
    36
  0
VERTEX
  5
47F
  8
0
 62
     9
 10
0.0
 20
0.0
 30
0.0
 70
   128
 71
    11
 72
    38
 73
    34
  0
VERTEX
  5
480
  8
0
 62
     9
 10
0.0
 20
0.0
 30
0.0
 70
   128
 71
    39
 72
    38
 73
    25
  0
VERTEX
  5
481
  8
0
 62
     9
 10
0.0
 20
0.0
 30
0.0
 70
   128
 71
    11
 72
    25
 73
    38
  0
VERTEX
  5
482
  8
0
 62
     9
 10
0.0
 20
0.0
 30
0.0
 70
   128
 71
    18
 72
    40
 73
    39
  0
VERTEX
  5
483
  8
0
 62
     9
 10
0.0
 20
0.0
 30
0.0
 70
   128
 71
    39
 72
    25
 73
    18
  0
VERTEX
  5
484
  8
0
 62
     9
 10
0.0
 20
0.0
 30
0.0
 70
   128
 71
    26
 72
    21
 73
    40
  0
VERTEX
  5
485
  8
0
 62
     9
 10
0.0
 20
0.0
 30
0.0
 70
   128
 71
    26
 72
    40
 73
    18
  0
VERTEX
  5
486
  8
0
 62
     9
 10
0.0
 20
0.0
 30
0.0
 70
   128
 71
    21
 72
    41
 73
    40
  0
VERTEX
  5
487
  8
0
 62
     9
 10
0.0
 20
0.0
 30
0.0
 70
   128
 71
    44
 72
    43
 73
    42
  0
VERTEX
  5
488
  8
0
 62
     9
 10
0.0
 20
0.0
 30
0.0
 70
   128
 71
    46
 72
    40
 73
    45
  0
VERTEX
  5
489
  8
0
 62
     9
 10
0.0
 20
0.0
 30
0.0
 70
   128
 71
    43
 72
    47
 73
    42
  0
VERTEX
  5
48A
  8
0
 62
     9
 10
0.0
 20
0.0
 30
0.0
 70
   128
 71
    45
 72
    40
 73
    47
  0
VERTEX
  5
48B
  8
0
 62
     9
 10
0.0
 20
0.0
 30
0.0
 70
   128
 71
    41
 72
    42
 73
    47
  0
VERTEX
  5
48C
  8
0
 62
     9
 10
0.0
 20
0.0
 30
0.0
 70
   128
 71
    38
 72
    48
 73
    37
  0
VERTEX
  5
48D
  8
0
 62
     9
 10
0.0
 20
0.0
 30
0.0
 70
   128
 71
    40
 72
    46
 73
    39
  0
VERTEX
  5
48E
  8
0
 62
     9
 10
0.0
 20
0.0
 30
0.0
 70
   128
 71
    34
 72
    36
 73
    35
  0
VERTEX
  5
48F
  8
0
 62
     9
 10
0.0
 20
0.0
 30
0.0
 70
   128
 71
    38
 72
    37
 73
    34
  0
VERTEX
  5
490
  8
0
 62
     9
 10
0.0
 20
0.0
 30
0.0
 70
   128
 71
    36
 72
    34
 73
    37
  0
VERTEX
  5
491
  8
0
 62
     9
 10
0.0
 20
0.0
 30
0.0
 70
   128
 71
    39
 72
    46
 73
    48
  0
VERTEX
  5
492
  8
0
 62
     9
 10
0.0
 20
0.0
 30
0.0
 70
   128
 71
    38
 72
    39
 73
    48
  0
VERTEX
  5
493
  8
0
 62
     9
 10
0.0
 20
0.0
 30
0.0
 70
   128
 71
    41
 72
    47
 73
    40
  0
VERTEX
  5
494
  8
0
 62
     9
 10
0.0
 20
0.0
 30
0.0
 70
   128
 71
    14
 72
    37
 73
    48
  0
VERTEX
  5
495
  8
0
 62
     9
 10
0.0
 20
0.0
 30
0.0
 70
   128
 71
    17
 72
    47
 73
    32
  0
VERTEX
  5
496
  8
0
 62
     9
 10
0.0
 20
0.0
 30
0.0
 70
   128
 71
    13
 72
    45
 73
    16
  0
VERTEX
  5
497
  8
0
 62
     9
 10
0.0
 20
0.0
 30
0.0
 70
   128
 71
    28
 72
    44
 73
    30
  0
VERTEX
  5
498
  8
0
 62
     9
 10
0.0
 20
0.0
 30
0.0
 70
   128
 71
    43
 72
    28
 73
    32
  0
VERTEX
  5
499
  8
0
 62
     9
 10
0.0
 20
0.0
 30
0.0
 70
   128
 71
    21
 72
    30
 73
    42
  0
VERTEX
  5
49A
  8
0
 62
     9
 10
0.0
 20
0.0
 30
0.0
 70
   128
 71
    44
 72
    42
 73
    30
  0
VERTEX
  5
49B
  8
0
 62
     9
 10
0.0
 20
0.0
 30
0.0
 70
   128
 71
    21
 72
    42
 73
    41
  0
VERTEX
  5
49C
  8
0
 62
     9
 10
0.0
 20
0.0
 30
0.0
 70
   128
 71
    28
 72
    43
 73
    44
  0
VERTEX
  5
49D
  8
0
 62
     9
 10
0.0
 20
0.0
 30
0.0
 70
   128
 71
    32
 72
    47
 73
    43
  0
VERTEX
  5
49E
  8
0
 62
     9
 10
0.0
 20
0.0
 30
0.0
 70
   128
 71
    45
 72
    47
 73
    16
  0
VERTEX
  5
49F
  8
0
 62
     9
 10
0.0
 20
0.0
 30
0.0
 70
   128
 71
    16
 72
    47
 73
    17
  0
VERTEX
  5
4A0
  8
0
 62
     9
 10
0.0
 20
0.0
 30
0.0
 70
   128
 71
    45
 72
    13
 73
    46
  0
VERTEX
  5
4A1
  8
0
 62
     9
 10
0.0
 20
0.0
 30
0.0
 70
   128
 71
    46
 72
     3
 73
    48
  0
VERTEX
  5
4A2
  8
0
 62
     9
 10
0.0
 20
0.0
 30
0.0
 70
   128
 71
     3
 72
    46
 73
    13
  0
VERTEX
  5
4A3
  8
0
 62
     9
 10
0.0
 20
0.0
 30
0.0
 70
   128
 71
    48
 72
     3
 73
    14
  0
VERTEX
  5
4A4
  8
0
 62
     9
 10
0.0
 20
0.0
 30
0.0
 70
   128
 71
    10
 72
    49
 73
    11
  0
VERTEX
  5
4A5
  8
0
 62
     9
 10
0.0
 20
0.0
 30
0.0
 70
   128
 71
    50
 72
    49
 73
    10
  0
VERTEX
  5
4A6
  8
0
 62
     9
 10
0.0
 20
0.0
 30
0.0
 70
   128
 71
    53
 72
    52
 73
    51
  0
VERTEX
  5
4A7
  8
0
 62
     9
 10
0.0
 20
0.0
 30
0.0
 70
   128
 71
    56
 72
    55
 73
    54
  0
VERTEX
  5
4A8
  8
0
 62
     9
 10
0.0
 20
0.0
 30
0.0
 70
   128
 71
    59
 72
    58
 73
    57
  0
VERTEX
  5
4A9
  8
0
 62
     9
 10
0.0
 20
0.0
 30
0.0
 70
   128
 71
    60
 72
    59
 73
    51
  0
VERTEX
  5
4AA
  8
0
 62
     9
 10
0.0
 20
0.0
 30
0.0
 70
   128
 71
    17
 72
    57
 73
    15
  0
VERTEX
  5
4AB
  8
0
 62
     9
 10
0.0
 20
0.0
 30
0.0
 70
   128
 71
    57
 72
    17
 73
    31
  0
VERTEX
  5
4AC
  8
0
 62
     9
 10
0.0
 20
0.0
 30
0.0
 70
   128
 71
    15
 72
    57
 73
    58
  0
VERTEX
  5
4AD
  8
0
 62
     9
 10
0.0
 20
0.0
 30
0.0
 70
   128
 71
    52
 72
    60
 73
    51
  0
VERTEX
  5
4AE
  8
0
 62
     9
 10
0.0
 20
0.0
 30
0.0
 70
   128
 71
    60
 72
    58
 73
    59
  0
VERTEX
  5
4AF
  8
0
 62
     9
 10
0.0
 20
0.0
 30
0.0
 70
   128
 71
    56
 72
    54
 73
    53
  0
VERTEX
  5
4B0
  8
0
 62
     9
 10
0.0
 20
0.0
 30
0.0
 70
   128
 71
    54
 72
    52
 73
    53
  0
VERTEX
  5
4B1
  8
0
 62
     9
 10
0.0
 20
0.0
 30
0.0
 70
   128
 71
    61
 72
    50
 73
    55
  0
VERTEX
  5
4B2
  8
0
 62
     9
 10
0.0
 20
0.0
 30
0.0
 70
   128
 71
    61
 72
    55
 73
    56
  0
VERTEX
  5
4B3
  8
0
 62
     9
 10
0.0
 20
0.0
 30
0.0
 70
   128
 71
    49
 72
    24
 73
    11
  0
VERTEX
  5
4B4
  8
0
 62
     9
 10
0.0
 20
0.0
 30
0.0
 70
   128
 71
    61
 72
    49
 73
    50
  0
VERTEX
  5
4B5
  8
0
 62
     9
 10
0.0
 20
0.0
 30
0.0
 70
   128
 71
    15
 72
     7
 73
     1
  0
VERTEX
  5
4B6
  8
0
 62
     9
 10
0.0
 20
0.0
 30
0.0
 70
   128
 71
    58
 72
     7
 73
    15
  0
VERTEX
  5
4B7
  8
0
 62
     9
 10
0.0
 20
0.0
 30
0.0
 70
   128
 71
    12
 72
    15
 73
     1
  0
VERTEX
  5
4B8
  8
0
 62
     9
 10
0.0
 20
0.0
 30
0.0
 70
   128
 71
    12
 72
     1
 73
     2
  0
VERTEX
  5
4B9
  8
0
 62
     9
 10
0.0
 20
0.0
 30
0.0
 70
   128
 71
     5
 72
     7
 73
    58
  0
VERTEX
  5
4BA
  8
0
 62
     9
 10
0.0
 20
0.0
 30
0.0
 70
   128
 71
    58
 72
    60
 73
     5
  0
VERTEX
  5
4BB
  8
0
 62
     9
 10
0.0
 20
0.0
 30
0.0
 70
   128
 71
    52
 72
     8
 73
    60
  0
VERTEX
  5
4BC
  8
0
 62
     9
 10
0.0
 20
0.0
 30
0.0
 70
   128
 71
     5
 72
    60
 73
     8
  0
VERTEX
  5
4BD
  8
0
 62
     9
 10
0.0
 20
0.0
 30
0.0
 70
   128
 71
    52
 72
    10
 73
     8
  0
VERTEX
  5
4BE
  8
0
 62
     9
 10
0.0
 20
0.0
 30
0.0
 70
   128
 71
    54
 72
    55
 73
    50
  0
VERTEX
  5
4BF
  8
0
 62
     9
 10
0.0
 20
0.0
 30
0.0
 70
   128
 71
    52
 72
    54
 73
    10
  0
VERTEX
  5
4C0
  8
0
 62
     9
 10
0.0
 20
0.0
 30
0.0
 70
   128
 71
    50
 72
    10
 73
    54
  0
SEQEND
  5
4C1
  8
0
 62
     9
  0
ENDBLK
  5
4C4
  8
0
  0
ENDSEC
  0
SECTION
  2
ENTITIES
  0
INSERT
  5
A2
  8
LAYER_1
  2
38
 10
0.0
 20
0.0
 30
0.0
  0
INSERT
  5
10B
  8
LAYER_1
  2
39
 10
0.0
 20
0.0
 30
0.0
  0
INSERT
  5
125
  8
LAYER_1
  2
40
 10
0.0
 20
0.0
 30
0.0
  0
INSERT
  5
181
  8
LAYER_1
  2
IG_TRIMM
 10
0.0
 20
0.0
 30
0.0
  0
INSERT
  5
310
  8
LAYER_1
  2
01050031_STOPFEN_EU_000648
 10
0.0
 20
0.0
 30
0.0
  0
INSERT
  5
417
  8
LAYER_1
  2
43
 10
0.0
 20
0.0
 30
0.0
  0
INSERT
  5
4C2
  8
LAYER_1
  2
44
 10
0.0
 20
0.0
 30
0.0
  0
ENDSEC
  0
EOF
