  0
SECTION
  2
HEADER
  9
$ACADVER
  1
AC1009
  9
$DWGCODEPAGE
  3
ansi_1252
  9
$INSBASE
 10
0.0
 20
0.0
 30
0.0
  9
$EXTMIN
 10
1.000000000000000E+20
 20
1.000000000000000E+20
 30
1.000000000000000E+20
  9
$EXTMAX
 10
-1.000000000000000E+20
 20
-1.000000000000000E+20
 30
-1.000000000000000E+20
  9
$LIMMIN
 10
0.0
 20
0.0
  9
$LIMMAX
 10
12.0
 20
9.0
  9
$ORTHOMODE
 70
     0
  9
$REGENMODE
 70
     1
  9
$FILLMODE
 70
     1
  9
$QTEXTMODE
 70
     0
  9
$MIRRTEXT
 70
     1
  9
$DRAGMODE
 70
     2
  9
$LTSCALE
 40
1.0
  9
$OSMODE
 70
    37
  9
$ATTMODE
 70
     1
  9
$TEXTSIZE
 40
0.2
  9
$TRACEWID
 40
0.05
  9
$TEXTSTYLE
  7
STANDARD
  9
$CLAYER
  8
0
  9
$CELTYPE
  6
BYLAYER
  9
$CECOLOR
 62
   256
  9
$DIMSCALE
 40
1.0
  9
$DIMASZ
 40
0.18
  9
$DIMEXO
 40
0.0625
  9
$DIMDLI
 40
0.38
  9
$DIMRND
 40
0.0
  9
$DIMDLE
 40
0.0
  9
$DIMEXE
 40
0.18
  9
$DIMTP
 40
0.0
  9
$DIMTM
 40
0.0
  9
$DIMTXT
 40
0.18
  9
$DIMCEN
 40
0.09
  9
$DIMTSZ
 40
0.0
  9
$DIMTOL
 70
     0
  9
$DIMLIM
 70
     0
  9
$DIMTIH
 70
     1
  9
$DIMTOH
 70
     1
  9
$DIMSE1
 70
     0
  9
$DIMSE2
 70
     0
  9
$DIMTAD
 70
     0
  9
$DIMZIN
 70
     0
  9
$DIMBLK
  1

  9
$DIMASO
 70
     1
  9
$DIMSHO
 70
     1
  9
$DIMPOST
  1

  9
$DIMAPOST
  1

  9
$DIMALT
 70
     0
  9
$DIMALTD
 70
     2
  9
$DIMALTF
 40
25.4
  9
$DIMLFAC
 40
1.0
  9
$DIMTOFL
 70
     0
  9
$DIMTVP
 40
0.0
  9
$DIMTIX
 70
     0
  9
$DIMSOXD
 70
     0
  9
$DIMSAH
 70
     0
  9
$DIMBLK1
  1

  9
$DIMBLK2
  1

  9
$DIMSTYLE
  2
STANDARD
  9
$DIMCLRD
 70
     0
  9
$DIMCLRE
 70
     0
  9
$DIMCLRT
 70
     0
  9
$DIMTFAC
 40
1.0
  9
$DIMGAP
 40
0.09
  9
$LUNITS
 70
     2
  9
$LUPREC
 70
     4
  9
$SKETCHINC
 40
0.1
  9
$FILLETRAD
 40
0.5
  9
$AUNITS
 70
     0
  9
$AUPREC
 70
     0
  9
$MENU
  1
.
  9
$ELEVATION
 40
0.0
  9
$PELEVATION
 40
0.0
  9
$THICKNESS
 40
0.0
  9
$LIMCHECK
 70
     0
  9
$CHAMFERA
 40
0.5
  9
$CHAMFERB
 40
0.5
  9
$SKPOLY
 70
     0
  9
$TDCREATE
 40
2455981.536672755
  9
$TDUPDATE
 40
2455981.536672755
  9
$TDINDWG
 40
0.0000000116
  9
$TDUSRTIMER
 40
0.0000000116
  9
$USRTIMER
 70
     1
  9
$ANGBASE
 50
0.0
  9
$ANGDIR
 70
     0
  9
$PDMODE
 70
     0
  9
$PDSIZE
 40
0.0
  9
$PLINEWID
 40
0.0
  9
$COORDS
 70
     1
  9
$SPLFRAME
 70
     0
  9
$SPLINETYPE
 70
     6
  9
$SPLINESEGS
 70
     8
  9
$ATTDIA
 70
     0
  9
$ATTREQ
 70
     1
  9
$HANDLING
 70
     1
  9
$HANDSEED
  5
315
  9
$SURFTAB1
 70
     6
  9
$SURFTAB2
 70
     6
  9
$SURFTYPE
 70
     6
  9
$SURFU
 70
     6
  9
$SURFV
 70
     6
  9
$UCSNAME
  2

  9
$UCSORG
 10
0.0
 20
0.0
 30
0.0
  9
$UCSXDIR
 10
1.0
 20
0.0
 30
0.0
  9
$UCSYDIR
 10
0.0
 20
1.0
 30
0.0
  9
$PUCSNAME
  2

  9
$PUCSORG
 10
0.0
 20
0.0
 30
0.0
  9
$PUCSXDIR
 10
1.0
 20
0.0
 30
0.0
  9
$PUCSYDIR
 10
0.0
 20
1.0
 30
0.0
  9
$USERI1
 70
     0
  9
$USERI2
 70
     0
  9
$USERI3
 70
     0
  9
$USERI4
 70
     0
  9
$USERI5
 70
     0
  9
$USERR1
 40
0.0
  9
$USERR2
 40
0.0
  9
$USERR3
 40
0.0
  9
$USERR4
 40
0.0
  9
$USERR5
 40
0.0
  9
$WORLDVIEW
 70
     1
  9
$SHADEDGE
 70
     3
  9
$SHADEDIF
 70
    70
  9
$TILEMODE
 70
     1
  9
$MAXACTVP
 70
    64
  9
$PLIMCHECK
 70
     0
  9
$PEXTMIN
 10
1.000000000000000E+20
 20
1.000000000000000E+20
 30
1.000000000000000E+20
  9
$PEXTMAX
 10
-1.000000000000000E+20
 20
-1.000000000000000E+20
 30
-1.000000000000000E+20
  9
$PLIMMIN
 10
0.0
 20
0.0
  9
$PLIMMAX
 10
12.0
 20
9.0
  9
$UNITMODE
 70
     0
  9
$VISRETAIN
 70
     1
  9
$PLINEGEN
 70
     0
  9
$PSLTSCALE
 70
     1
  0
ENDSEC
  0
SECTION
  2
TABLES
  0
TABLE
  2
VPORT
 70
     1
  0
VPORT
  2
*ACTIVE
 70
     0
 10
0.0
 20
0.0
 11
1.0
 21
1.0
 12
0.0
 22
0.0
 13
0.0
 23
0.0
 14
0.5
 24
0.5
 15
0.5
 25
0.5
 16
-529.47509765625
 26
-219.3157653808594
 36
113.9966278076172
 17
60.24240112304688
 27
27.00492858886719
 37
115.75
 40
237.8211293825596
 41
1.972972972850329
 42
50.0
 43
0.0
 44
0.0
 50
0.0
 51
0.0
 71
     0
 72
   100
 73
     1
 74
     3
 75
     0
 76
     0
 77
     0
 78
     0
  0
ENDTAB
  0
TABLE
  2
LTYPE
 70
     1
  0
LTYPE
  2
CONTINUOUS
 70
     0
  3
Solid line
 72
    65
 73
     0
 40
0.0
  0
ENDTAB
  0
TABLE
  2
LAYER
 70
     2
  0
LAYER
  2
0
 70
     0
 62
     7
  6
CONTINUOUS
  0
LAYER
  2
LAYER_1
 70
     0
 62
     7
  6
CONTINUOUS
  0
ENDTAB
  0
TABLE
  2
STYLE
 70
     1
  0
STYLE
  2
STANDARD
 70
     0
 40
0.0
 41
1.0
 50
0.0
 71
     0
 42
0.2
  3
txt
  4

  0
ENDTAB
  0
TABLE
  2
VIEW
 70
     0
  0
ENDTAB
  0
TABLE
  2
UCS
 70
     0
  0
ENDTAB
  0
TABLE
  2
APPID
 70
     1
  0
APPID
  2
ACAD
 70
     0
  0
ENDTAB
  0
TABLE
  2
DIMSTYLE
 70
     1
  0
DIMSTYLE
  2
STANDARD
 70
     0
  3

  4

  5

  6

  7

 40
1.0
 41
0.18
 42
0.0625
 43
0.38
 44
0.18
 45
0.0
 46
0.0
 47
0.0
 48
0.0
140
0.18
141
0.09
142
0.0
143
25.4
144
1.0
145
0.0
146
1.0
147
0.09
 71
     0
 72
     0
 73
     1
 74
     1
 75
     0
 76
     0
 77
     0
 78
     0
170
     0
171
     2
172
     0
173
     0
174
     0
175
     0
176
     0
177
     0
178
     0
  0
ENDTAB
  0
ENDSEC
  0
SECTION
  2
BLOCKS
  0
BLOCK
  8
0
  2
$MODEL_SPACE
 70
     0
 10
0.0
 20
0.0
 30
0.0
  3
$MODEL_SPACE
  1

  0
ENDBLK
  5
21
  8
0
  0
BLOCK
 67
     1
  8
0
  2
$PAPER_SPACE
 70
     0
 10
0.0
 20
0.0
 30
0.0
  3
$PAPER_SPACE
  1

  0
ENDBLK
  5
1D
 67
     1
  8
0
  0
BLOCK
  8
0
  2
38
 70
     0
 10
0.0
 20
0.0
 30
0.0
  3
38
  1

  0
POLYLINE
  5
3C
  8
0
 62
    43
 66
     1
 10
0.0
 20
0.0
 30
0.0
 70
    64
 71
     8
 72
    12
  0
VERTEX
  5
3D
  8
0
 10
-26.0
 20
-26.0
 30
8.0
 70
   192
  0
VERTEX
  5
3E
  8
0
 10
-26.0
 20
26.0
 30
8.0
 70
   192
  0
VERTEX
  5
3F
  8
0
 10
-26.0
 20
-26.0
 30
0.0000000000000053
 70
   192
  0
VERTEX
  5
40
  8
0
 10
-26.0
 20
26.0
 30
0.0000000000000053
 70
   192
  0
VERTEX
  5
41
  8
0
 10
26.0
 20
-26.0
 30
8.0
 70
   192
  0
VERTEX
  5
42
  8
0
 10
26.0
 20
-26.0
 30
0.0000000000000053
 70
   192
  0
VERTEX
  5
43
  8
0
 10
26.0
 20
26.0
 30
0.0000000000000053
 70
   192
  0
VERTEX
  5
44
  8
0
 10
26.0
 20
26.0
 30
8.0
 70
   192
  0
VERTEX
  5
45
  8
0
 62
    43
 10
0.0
 20
0.0
 30
0.0
 70
   128
 71
     3
 72
     2
 73
     1
  0
VERTEX
  5
46
  8
0
 62
    43
 10
0.0
 20
0.0
 30
0.0
 70
   128
 71
     2
 72
     3
 73
     4
  0
VERTEX
  5
47
  8
0
 62
    43
 10
0.0
 20
0.0
 30
0.0
 70
   128
 71
     6
 72
     1
 73
     5
  0
VERTEX
  5
48
  8
0
 62
    43
 10
0.0
 20
0.0
 30
0.0
 70
   128
 71
     1
 72
     6
 73
     3
  0
VERTEX
  5
49
  8
0
 62
    43
 10
0.0
 20
0.0
 30
0.0
 70
   128
 71
     8
 72
     7
 73
     5
  0
VERTEX
  5
4A
  8
0
 62
    43
 10
0.0
 20
0.0
 30
0.0
 70
   128
 71
     7
 72
     6
 73
     5
  0
VERTEX
  5
4B
  8
0
 62
    43
 10
0.0
 20
0.0
 30
0.0
 70
   128
 71
     2
 72
     4
 73
     8
  0
VERTEX
  5
4C
  8
0
 62
    43
 10
0.0
 20
0.0
 30
0.0
 70
   128
 71
     4
 72
     7
 73
     8
  0
VERTEX
  5
4D
  8
0
 62
    43
 10
0.0
 20
0.0
 30
0.0
 70
   128
 71
     8
 72
     5
 73
     2
  0
VERTEX
  5
4E
  8
0
 62
    43
 10
0.0
 20
0.0
 30
0.0
 70
   128
 71
     1
 72
     2
 73
     5
  0
VERTEX
  5
4F
  8
0
 62
    43
 10
0.0
 20
0.0
 30
0.0
 70
   128
 71
     6
 72
     7
 73
     4
  0
VERTEX
  5
50
  8
0
 62
    43
 10
0.0
 20
0.0
 30
0.0
 70
   128
 71
     3
 72
     6
 73
     4
  0
SEQEND
  5
51
  8
0
 62
    43
  0
ENDBLK
  5
55
  8
0
  0
BLOCK
  8
0
  2
39
 70
     0
 10
0.0
 20
0.0
 30
0.0
  3
39
  1

  0
POLYLINE
  5
57
  8
0
 62
     9
 66
     1
 10
0.0
 20
0.0
 30
0.0
 70
    64
 71
    42
 72
    78
  0
VERTEX
  5
58
  8
0
 10
9.853588104248047
 20
-15.0
 30
205.5976257324219
 70
   192
  0
VERTEX
  5
59
  8
0
 10
6.5
 20
-15.0
 30
193.0
 70
   192
  0
VERTEX
  5
5A
  8
0
 10
-3.796849489212036
 20
-15.0
 30
207.1716461181641
 70
   192
  0
VERTEX
  5
5B
  8
0
 10
-6.5
 20
-15.0
 30
112.0
 70
   192
  0
VERTEX
  5
5C
  8
0
 10
6.5
 20
-15.0
 30
112.0
 70
   192
  0
VERTEX
  5
5D
  8
0
 10
4.776389122009277
 20
-15.0
 30
220.2236175537109
 70
   192
  0
VERTEX
  5
5E
  8
0
 10
127.4091873168945
 20
-15.0
 30
207.7597961425781
 70
   192
  0
VERTEX
  5
5F
  8
0
 10
117.9583435058594
 20
-15.0
 30
215.7748413085938
 70
   192
  0
VERTEX
  5
60
  8
0
 10
123.5769271850586
 20
-15.0
 30
227.5044097900391
 70
   192
  0
VERTEX
  5
61
  8
0
 10
19.64958190917969
 20
-15.0
 30
215.2488098144531
 70
   192
  0
VERTEX
  5
62
  8
0
 10
106.4000015258789
 20
-15.0
 30
218.5
 70
   192
  0
VERTEX
  5
63
  8
0
 10
106.4000015258789
 20
-15.0
 30
231.5
 70
   192
  0
VERTEX
  5
64
  8
0
 10
32.0
 20
-15.0
 30
218.5
 70
   192
  0
VERTEX
  5
65
  8
0
 10
17.82835388183594
 20
-15.0
 30
228.7968444824219
 70
   192
  0
VERTEX
  5
66
  8
0
 10
32.0
 20
-15.0
 30
231.5
 70
   192
  0
VERTEX
  5
67
  8
0
 10
144.8074951171875
 20
-15.0
 30
199.2722778320312
 70
   192
  0
VERTEX
  5
68
  8
0
 10
132.0050048828125
 20
-15.0
 30
197.0148468017578
 70
   192
  0
VERTEX
  5
69
  8
0
 10
137.877685546875
 20
-15.0
 30
215.5293884277344
 70
   192
  0
VERTEX
  5
6A
  8
0
 10
133.6822662353516
 20
-15.0
 30
187.5026397705078
 70
   192
  0
VERTEX
  5
6B
  8
0
 10
146.4847564697266
 20
-15.0
 30
189.7600708007812
 70
   192
  0
VERTEX
  5
6C
  8
0
 10
-6.5
 20
-15.0
 30
193.0
 70
   192
  0
VERTEX
  5
6D
  8
0
 10
-6.5
 20
15.0
 30
112.0
 70
   192
  0
VERTEX
  5
6E
  8
0
 10
6.5
 20
15.0
 30
193.0
 70
   192
  0
VERTEX
  5
6F
  8
0
 10
-6.5
 20
15.0
 30
193.0
 70
   192
  0
VERTEX
  5
70
  8
0
 10
32.0
 20
15.0
 30
218.5
 70
   192
  0
VERTEX
  5
71
  8
0
 10
17.82835388183594
 20
15.0
 30
228.7968444824219
 70
   192
  0
VERTEX
  5
72
  8
0
 10
19.40237998962402
 20
15.0
 30
215.1464080810547
 70
   192
  0
VERTEX
  5
73
  8
0
 10
32.0
 20
15.0
 30
231.5
 70
   192
  0
VERTEX
  5
74
  8
0
 10
-3.796849489212036
 20
15.0
 30
207.1716461181641
 70
   192
  0
VERTEX
  5
75
  8
0
 10
9.751193046569824
 20
15.0
 30
205.3504180908203
 70
   192
  0
VERTEX
  5
76
  8
0
 10
133.6822662353516
 20
15.0
 30
187.5026397705078
 70
   192
  0
VERTEX
  5
77
  8
0
 10
144.8074951171875
 20
15.0
 30
199.2722778320312
 70
   192
  0
VERTEX
  5
78
  8
0
 10
132.0050048828125
 20
15.0
 30
197.0148468017578
 70
   192
  0
VERTEX
  5
79
  8
0
 10
137.8898773193359
 20
15.0
 30
215.4944305419922
 70
   192
  0
VERTEX
  5
7A
  8
0
 10
146.4847564697266
 20
15.0
 30
189.7600708007812
 70
   192
  0
VERTEX
  5
7B
  8
0
 10
127.3141632080078
 20
15.0
 30
207.9243774414062
 70
   192
  0
VERTEX
  5
7C
  8
0
 10
117.7797622680664
 20
15.0
 30
215.83984375
 70
   192
  0
VERTEX
  5
7D
  8
0
 10
106.4000015258789
 20
15.0
 30
218.5
 70
   192
  0
VERTEX
  5
7E
  8
0
 10
123.6134796142578
 20
15.0
 30
227.4984893798828
 70
   192
  0
VERTEX
  5
7F
  8
0
 10
106.4000015258789
 20
15.0
 30
231.5
 70
   192
  0
VERTEX
  5
80
  8
0
 10
4.776389122009277
 20
15.0
 30
220.2236175537109
 70
   192
  0
VERTEX
  5
81
  8
0
 10
6.5
 20
15.0
 30
112.0
 70
   192
  0
VERTEX
  5
82
  8
0
 62
     9
 10
0.0
 20
0.0
 30
0.0
 70
   128
 71
     3
 72
     2
 73
     1
  0
VERTEX
  5
83
  8
0
 62
     9
 10
0.0
 20
0.0
 30
0.0
 70
   128
 71
     5
 72
     2
 73
     4
  0
VERTEX
  5
84
  8
0
 62
     9
 10
0.0
 20
0.0
 30
0.0
 70
   128
 71
     1
 72
     6
 73
     3
  0
VERTEX
  5
85
  8
0
 62
     9
 10
0.0
 20
0.0
 30
0.0
 70
   128
 71
     9
 72
     8
 73
     7
  0
VERTEX
  5
86
  8
0
 62
     9
 10
0.0
 20
0.0
 30
0.0
 70
   128
 71
     1
 72
    10
 73
     6
  0
VERTEX
  5
87
  8
0
 62
     9
 10
0.0
 20
0.0
 30
0.0
 70
   128
 71
     9
 72
    12
 73
    11
  0
VERTEX
  5
88
  8
0
 62
     9
 10
0.0
 20
0.0
 30
0.0
 70
   128
 71
    14
 72
    10
 73
    13
  0
VERTEX
  5
89
  8
0
 62
     9
 10
0.0
 20
0.0
 30
0.0
 70
   128
 71
    15
 72
    14
 73
    13
  0
VERTEX
  5
8A
  8
0
 62
     9
 10
0.0
 20
0.0
 30
0.0
 70
   128
 71
    18
 72
    17
 73
    16
  0
VERTEX
  5
8B
  8
0
 62
     9
 10
0.0
 20
0.0
 30
0.0
 70
   128
 71
     7
 72
    17
 73
    18
  0
VERTEX
  5
8C
  8
0
 62
     9
 10
0.0
 20
0.0
 30
0.0
 70
   128
 71
    19
 72
    16
 73
    17
  0
VERTEX
  5
8D
  8
0
 62
     9
 10
0.0
 20
0.0
 30
0.0
 70
   128
 71
    20
 72
    16
 73
    19
  0
VERTEX
  5
8E
  8
0
 62
     9
 10
0.0
 20
0.0
 30
0.0
 70
   128
 71
    18
 72
     9
 73
     7
  0
VERTEX
  5
8F
  8
0
 62
     9
 10
0.0
 20
0.0
 30
0.0
 70
   128
 71
    11
 72
     8
 73
     9
  0
VERTEX
  5
90
  8
0
 62
     9
 10
0.0
 20
0.0
 30
0.0
 70
   128
 71
    12
 72
    13
 73
    11
  0
VERTEX
  5
91
  8
0
 62
     9
 10
0.0
 20
0.0
 30
0.0
 70
   128
 71
    10
 72
    14
 73
     6
  0
VERTEX
  5
92
  8
0
 62
     9
 10
0.0
 20
0.0
 30
0.0
 70
   128
 71
    12
 72
    15
 73
    13
  0
VERTEX
  5
93
  8
0
 62
     9
 10
0.0
 20
0.0
 30
0.0
 70
   128
 71
    21
 72
     2
 73
     3
  0
VERTEX
  5
94
  8
0
 62
     9
 10
0.0
 20
0.0
 30
0.0
 70
   128
 71
    21
 72
     4
 73
     2
  0
VERTEX
  5
95
  8
0
 62
     9
 10
0.0
 20
0.0
 30
0.0
 70
   128
 71
    24
 72
    23
 73
    22
  0
VERTEX
  5
96
  8
0
 62
     9
 10
0.0
 20
0.0
 30
0.0
 70
   128
 71
    27
 72
    26
 73
    25
  0
VERTEX
  5
97
  8
0
 62
     9
 10
0.0
 20
0.0
 30
0.0
 70
   128
 71
    28
 72
    25
 73
    26
  0
VERTEX
  5
98
  8
0
 62
     9
 10
0.0
 20
0.0
 30
0.0
 70
   128
 71
    30
 72
    23
 73
    29
  0
VERTEX
  5
99
  8
0
 62
     9
 10
0.0
 20
0.0
 30
0.0
 70
   128
 71
    33
 72
    32
 73
    31
  0
VERTEX
  5
9A
  8
0
 62
     9
 10
0.0
 20
0.0
 30
0.0
 70
   128
 71
    33
 72
    34
 73
    32
  0
VERTEX
  5
9B
  8
0
 62
     9
 10
0.0
 20
0.0
 30
0.0
 70
   128
 71
    32
 72
    35
 73
    31
  0
VERTEX
  5
9C
  8
0
 62
     9
 10
0.0
 20
0.0
 30
0.0
 70
   128
 71
    37
 72
    34
 73
    36
  0
VERTEX
  5
9D
  8
0
 62
     9
 10
0.0
 20
0.0
 30
0.0
 70
   128
 71
    39
 72
    37
 73
    38
  0
VERTEX
  5
9E
  8
0
 62
     9
 10
0.0
 20
0.0
 30
0.0
 70
   128
 71
    33
 72
    36
 73
    34
  0
VERTEX
  5
9F
  8
0
 62
     9
 10
0.0
 20
0.0
 30
0.0
 70
   128
 71
    37
 72
    39
 73
    34
  0
VERTEX
  5
A0
  8
0
 62
     9
 10
0.0
 20
0.0
 30
0.0
 70
   128
 71
    38
 72
    25
 73
    40
  0
VERTEX
  5
A1
  8
0
 62
     9
 10
0.0
 20
0.0
 30
0.0
 70
   128
 71
    38
 72
    40
 73
    39
  0
VERTEX
  5
A2
  8
0
 62
     9
 10
0.0
 20
0.0
 30
0.0
 70
   128
 71
    41
 72
    30
 73
    29
  0
VERTEX
  5
A3
  8
0
 62
     9
 10
0.0
 20
0.0
 30
0.0
 70
   128
 71
    25
 72
    28
 73
    40
  0
VERTEX
  5
A4
  8
0
 62
     9
 10
0.0
 20
0.0
 30
0.0
 70
   128
 71
    27
 72
    30
 73
    41
  0
VERTEX
  5
A5
  8
0
 62
     9
 10
0.0
 20
0.0
 30
0.0
 70
   128
 71
    27
 72
    41
 73
    26
  0
VERTEX
  5
A6
  8
0
 62
     9
 10
0.0
 20
0.0
 30
0.0
 70
   128
 71
    23
 72
    42
 73
    22
  0
VERTEX
  5
A7
  8
0
 62
     9
 10
0.0
 20
0.0
 30
0.0
 70
   128
 71
    23
 72
    24
 73
    29
  0
VERTEX
  5
A8
  8
0
 62
     9
 10
0.0
 20
0.0
 30
0.0
 70
   128
 71
    21
 72
    24
 73
     4
  0
VERTEX
  5
A9
  8
0
 62
     9
 10
0.0
 20
0.0
 30
0.0
 70
   128
 71
    24
 72
    22
 73
     4
  0
VERTEX
  5
AA
  8
0
 62
     9
 10
0.0
 20
0.0
 30
0.0
 70
   128
 71
     6
 72
    14
 73
    41
  0
VERTEX
  5
AB
  8
0
 62
     9
 10
0.0
 20
0.0
 30
0.0
 70
   128
 71
    26
 72
    14
 73
    15
  0
VERTEX
  5
AC
  8
0
 62
     9
 10
0.0
 20
0.0
 30
0.0
 70
   128
 71
    14
 72
    26
 73
    41
  0
VERTEX
  5
AD
  8
0
 62
     9
 10
0.0
 20
0.0
 30
0.0
 70
   128
 71
    26
 72
    15
 73
    28
  0
VERTEX
  5
AE
  8
0
 62
     9
 10
0.0
 20
0.0
 30
0.0
 70
   128
 71
     6
 72
    41
 73
    29
  0
VERTEX
  5
AF
  8
0
 62
     9
 10
0.0
 20
0.0
 30
0.0
 70
   128
 71
    29
 72
    24
 73
     3
  0
VERTEX
  5
B0
  8
0
 62
     9
 10
0.0
 20
0.0
 30
0.0
 70
   128
 71
     3
 72
     6
 73
    29
  0
VERTEX
  5
B1
  8
0
 62
     9
 10
0.0
 20
0.0
 30
0.0
 70
   128
 71
    24
 72
    21
 73
     3
  0
VERTEX
  5
B2
  8
0
 62
     9
 10
0.0
 20
0.0
 30
0.0
 70
   128
 71
    12
 72
    40
 73
    28
  0
VERTEX
  5
B3
  8
0
 62
     9
 10
0.0
 20
0.0
 30
0.0
 70
   128
 71
    28
 72
    15
 73
    12
  0
VERTEX
  5
B4
  8
0
 62
     9
 10
0.0
 20
0.0
 30
0.0
 70
   128
 71
    39
 72
    18
 73
    34
  0
VERTEX
  5
B5
  8
0
 62
     9
 10
0.0
 20
0.0
 30
0.0
 70
   128
 71
    32
 72
    34
 73
    16
  0
VERTEX
  5
B6
  8
0
 62
     9
 10
0.0
 20
0.0
 30
0.0
 70
   128
 71
    18
 72
    16
 73
    34
  0
VERTEX
  5
B7
  8
0
 62
     9
 10
0.0
 20
0.0
 30
0.0
 70
   128
 71
    39
 72
     9
 73
    18
  0
VERTEX
  5
B8
  8
0
 62
     9
 10
0.0
 20
0.0
 30
0.0
 70
   128
 71
    40
 72
     9
 73
    39
  0
VERTEX
  5
B9
  8
0
 62
     9
 10
0.0
 20
0.0
 30
0.0
 70
   128
 71
    40
 72
    12
 73
     9
  0
VERTEX
  5
BA
  8
0
 62
     9
 10
0.0
 20
0.0
 30
0.0
 70
   128
 71
    35
 72
    32
 73
    20
  0
VERTEX
  5
BB
  8
0
 62
     9
 10
0.0
 20
0.0
 30
0.0
 70
   128
 71
    32
 72
    16
 73
    20
  0
VERTEX
  5
BC
  8
0
 62
     9
 10
0.0
 20
0.0
 30
0.0
 70
   128
 71
    19
 72
    31
 73
    35
  0
VERTEX
  5
BD
  8
0
 62
     9
 10
0.0
 20
0.0
 30
0.0
 70
   128
 71
    35
 72
    20
 73
    19
  0
VERTEX
  5
BE
  8
0
 62
     9
 10
0.0
 20
0.0
 30
0.0
 70
   128
 71
    33
 72
    31
 73
    17
  0
VERTEX
  5
BF
  8
0
 62
     9
 10
0.0
 20
0.0
 30
0.0
 70
   128
 71
    31
 72
    19
 73
    17
  0
VERTEX
  5
C0
  8
0
 62
     9
 10
0.0
 20
0.0
 30
0.0
 70
   128
 71
    38
 72
    37
 73
     8
  0
VERTEX
  5
C1
  8
0
 62
     9
 10
0.0
 20
0.0
 30
0.0
 70
   128
 71
    37
 72
     7
 73
     8
  0
VERTEX
  5
C2
  8
0
 62
     9
 10
0.0
 20
0.0
 30
0.0
 70
   128
 71
    38
 72
     8
 73
    11
  0
VERTEX
  5
C3
  8
0
 62
     9
 10
0.0
 20
0.0
 30
0.0
 70
   128
 71
     7
 72
    36
 73
    17
  0
VERTEX
  5
C4
  8
0
 62
     9
 10
0.0
 20
0.0
 30
0.0
 70
   128
 71
    36
 72
     7
 73
    37
  0
VERTEX
  5
C5
  8
0
 62
     9
 10
0.0
 20
0.0
 30
0.0
 70
   128
 71
    36
 72
    33
 73
    17
  0
VERTEX
  5
C6
  8
0
 62
     9
 10
0.0
 20
0.0
 30
0.0
 70
   128
 71
    13
 72
    25
 73
    38
  0
VERTEX
  5
C7
  8
0
 62
     9
 10
0.0
 20
0.0
 30
0.0
 70
   128
 71
    38
 72
    11
 73
    13
  0
VERTEX
  5
C8
  8
0
 62
     9
 10
0.0
 20
0.0
 30
0.0
 70
   128
 71
    23
 72
    30
 73
     1
  0
VERTEX
  5
C9
  8
0
 62
     9
 10
0.0
 20
0.0
 30
0.0
 70
   128
 71
    30
 72
    10
 73
     1
  0
VERTEX
  5
CA
  8
0
 62
     9
 10
0.0
 20
0.0
 30
0.0
 70
   128
 71
    23
 72
     1
 73
     2
  0
VERTEX
  5
CB
  8
0
 62
     9
 10
0.0
 20
0.0
 30
0.0
 70
   128
 71
    10
 72
    27
 73
    13
  0
VERTEX
  5
CC
  8
0
 62
     9
 10
0.0
 20
0.0
 30
0.0
 70
   128
 71
    27
 72
    10
 73
    30
  0
VERTEX
  5
CD
  8
0
 62
     9
 10
0.0
 20
0.0
 30
0.0
 70
   128
 71
    27
 72
    25
 73
    13
  0
VERTEX
  5
CE
  8
0
 62
     9
 10
0.0
 20
0.0
 30
0.0
 70
   128
 71
    42
 72
    23
 73
     2
  0
VERTEX
  5
CF
  8
0
 62
     9
 10
0.0
 20
0.0
 30
0.0
 70
   128
 71
     2
 72
     5
 73
    42
  0
SEQEND
  5
D0
  8
0
 62
     9
  0
ENDBLK
  5
D3
  8
0
  0
BLOCK
  8
0
  2
40
 70
     0
 10
0.0
 20
0.0
 30
0.0
  3
40
  1

  0
POLYLINE
  5
D5
  8
0
 62
     9
 66
     1
 10
0.0
 20
0.0
 30
0.0
 70
    64
 71
    46
 72
    88
  0
VERTEX
  5
D6
  8
0
 10
15.29299449920654
 20
49.10582733154297
 30
90.88230895996094
 70
   192
  0
VERTEX
  5
D7
  8
0
 10
18.89759254455566
 20
49.25550079345703
 30
84.6037826538086
 70
   192
  0
VERTEX
  5
D8
  8
0
 10
18.68240928649902
 20
79.2242431640625
 30
86.2361068725586
 70
   192
  0
VERTEX
  5
D9
  8
0
 10
9.688470840454102
 20
49.00738525390625
 30
95.46637725830078
 70
   192
  0
VERTEX
  5
DA
  8
0
 10
11.0449161529541
 20
69.0158462524414
 30
95.21363830566406
 70
   192
  0
VERTEX
  5
DB
  8
0
 10
2.891437768936157
 20
68.96621704101562
 30
98.27365112304688
 70
   192
  0
VERTEX
  5
DC
  8
0
 10
14.99478530883789
 20
79.08504486083984
 30
92.1223373413086
 70
   192
  0
VERTEX
  5
DD
  8
0
 10
9.528573036193848
 20
78.99431610107422
 30
96.38932037353516
 70
   192
  0
VERTEX
  5
DE
  8
0
 10
11.06677436828613
 20
75.0137939453125
 30
95.36917114257812
 70
   192
  0
VERTEX
  5
DF
  8
0
 10
2.913296461105347
 20
74.96415710449219
 30
98.42918395996094
 70
   192
  0
VERTEX
  5
E0
  8
0
 10
2.927869081497192
 20
78.9627914428711
 30
98.53286743164062
 70
   192
  0
VERTEX
  5
E1
  8
0
 10
20.02965927124023
 20
49.4367790222168
 30
77.4539794921875
 70
   192
  0
VERTEX
  5
E2
  8
0
 10
20.13017272949219
 20
79.39490509033203
 30
79.45108032226562
 70
   192
  0
VERTEX
  5
E3
  8
0
 10
19.17067337036133
 20
79.57685852050781
 30
72.56909942626953
 70
   192
  0
VERTEX
  5
E4
  8
0
 10
2.818575143814087
 20
48.97306823730469
 30
97.75520324707031
 70
   192
  0
VERTEX
  5
E5
  8
0
 10
18.74654960632324
 20
52.88382339477539
 30
70.94751739501953
 70
   192
  0
VERTEX
  5
E6
  8
0
 10
15.35972785949707
 20
56.06892013549805
 30
65.24486541748047
 70
   192
  0
VERTEX
  5
E7
  8
0
 10
15.91444206237793
 20
79.74774169921875
 30
66.43688201904297
 70
   192
  0
VERTEX
  5
E8
  8
0
 10
10.25169563293457
 20
58.64004135131836
 30
60.97512817382812
 70
   192
  0
VERTEX
  5
E9
  8
0
 10
10.75212383270264
 20
79.88722229003906
 30
61.7834587097168
 70
   192
  0
VERTEX
  5
EA
  8
0
 10
4.309591293334961
 20
79.97824096679688
 30
59.17898941040039
 70
   192
  0
VERTEX
  5
EB
  8
0
 10
3.985869646072388
 20
60.30912780761719
 30
58.61794281005859
 70
   192
  0
VERTEX
  5
EC
  8
0
 10
-2.637147426605225
 20
80.0098648071289
 30
58.93572235107422
 70
   192
  0
VERTEX
  5
ED
  8
0
 10
-2.706842660903931
 20
60.88583374023438
 30
58.43981552124023
 70
   192
  0
VERTEX
  5
EE
  8
0
 10
-11.0670337677002
 20
49.10582733154297
 30
94.58696746826172
 70
   192
  0
VERTEX
  5
EF
  8
0
 10
-16.26253318786621
 20
49.25550079345703
 30
89.54529571533203
 70
   192
  0
VERTEX
  5
F0
  8
0
 10
-4.415993213653564
 20
49.00738143920898
 30
97.44866943359375
 70
   192
  0
VERTEX
  5
F1
  8
0
 10
-19.32155799865723
 20
49.4367790222168
 30
82.98443603515625
 70
   192
  0
VERTEX
  5
F2
  8
0
 10
-4.018869876861572
 20
78.99441528320312
 30
98.28960418701172
 70
   192
  0
VERTEX
  5
F3
  8
0
 10
-18.39168739318848
 20
79.7484130859375
 30
71.23248291015625
 70
   192
  0
VERTEX
  5
F4
  8
0
 10
-18.20475006103516
 20
56.06271362304688
 30
69.97408294677734
 70
   192
  0
VERTEX
  5
F5
  8
0
 10
-19.88298988342285
 20
52.87259292602539
 30
76.39833068847656
 70
   192
  0
VERTEX
  5
F6
  8
0
 10
-18.87995338439941
 20
79.39579010009766
 30
84.89949035644531
 70
   192
  0
VERTEX
  5
F7
  8
0
 10
-14.70406341552734
 20
79.88761138916016
 30
65.34625244140625
 70
   192
  0
VERTEX
  5
F8
  8
0
 10
-14.47409629821777
 20
58.63490676879883
 30
64.46007537841797
 70
   192
  0
VERTEX
  5
F9
  8
0
 10
-9.111244201660156
 20
60.30556869506836
 30
60.46552658081055
 70
   192
  0
VERTEX
  5
FA
  8
0
 10
-9.237852096557617
 20
79.97834014892578
 30
61.07927322387695
 70
   192
  0
VERTEX
  5
FB
  8
0
 10
-19.83945274353027
 20
79.57774353027344
 30
78.01750946044922
 70
   192
  0
VERTEX
  5
FC
  8
0
 10
-15.6237211227417
 20
79.22490692138672
 30
91.0317153930664
 70
   192
  0
VERTEX
  5
FD
  8
0
 10
-5.789641380310059
 20
69.0158462524414
 30
97.57958221435547
 70
   192
  0
VERTEX
  5
FE
  8
0
 10
-10.46140193939209
 20
79.0854263305664
 30
95.68513488769531
 70
   192
  0
VERTEX
  5
FF
  8
0
 10
-5.767782211303711
 20
75.0137939453125
 30
97.73511505126953
 70
   192
  0
VERTEX
  5
100
  8
0
 10
1.535763621330261
 20
73.63960266113281
 30
149.7025451660156
 70
   192
  0
VERTEX
  5
101
  8
0
 10
1.513904809951782
 20
67.64166259765625
 30
149.5470123291016
 70
   192
  0
VERTEX
  5
102
  8
0
 10
18.34846115112305
 20
67.64166259765625
 30
147.1810760498047
 70
   192
  0
VERTEX
  5
103
  8
0
 10
18.37032127380371
 20
73.63960266113281
 30
147.3366088867188
 70
   192
  0
VERTEX
  5
104
  8
0
 62
     9
 10
0.0
 20
0.0
 30
0.0
 70
   128
 71
     3
 72
     2
 73
     1
  0
VERTEX
  5
105
  8
0
 62
     9
 10
0.0
 20
0.0
 30
0.0
 70
   128
 71
     6
 72
     5
 73
     4
  0
VERTEX
  5
106
  8
0
 62
     9
 10
0.0
 20
0.0
 30
0.0
 70
   128
 71
     1
 72
     7
 73
     3
  0
VERTEX
  5
107
  8
0
 62
     9
 10
0.0
 20
0.0
 30
0.0
 70
   128
 71
     5
 72
     1
 73
     4
  0
VERTEX
  5
108
  8
0
 62
     9
 10
0.0
 20
0.0
 30
0.0
 70
   128
 71
     7
 72
     1
 73
     5
  0
VERTEX
  5
109
  8
0
 62
     9
 10
0.0
 20
0.0
 30
0.0
 70
   128
 71
     9
 72
     8
 73
     7
  0
VERTEX
  5
10A
  8
0
 62
     9
 10
0.0
 20
0.0
 30
0.0
 70
   128
 71
     7
 72
     5
 73
     9
  0
VERTEX
  5
10B
  8
0
 62
     9
 10
0.0
 20
0.0
 30
0.0
 70
   128
 71
     9
 72
    10
 73
     8
  0
VERTEX
  5
10C
  8
0
 62
     9
 10
0.0
 20
0.0
 30
0.0
 70
   128
 71
    10
 72
    11
 73
     8
  0
VERTEX
  5
10D
  8
0
 62
     9
 10
0.0
 20
0.0
 30
0.0
 70
   128
 71
     2
 72
    13
 73
    12
  0
VERTEX
  5
10E
  8
0
 62
     9
 10
0.0
 20
0.0
 30
0.0
 70
   128
 71
     2
 72
     3
 73
    13
  0
VERTEX
  5
10F
  8
0
 62
     9
 10
0.0
 20
0.0
 30
0.0
 70
   128
 71
    12
 72
    13
 73
    14
  0
VERTEX
  5
110
  8
0
 62
     9
 10
0.0
 20
0.0
 30
0.0
 70
   128
 71
     6
 72
     4
 73
    15
  0
VERTEX
  5
111
  8
0
 62
     9
 10
0.0
 20
0.0
 30
0.0
 70
   128
 71
    12
 72
    14
 73
    16
  0
VERTEX
  5
112
  8
0
 62
     9
 10
0.0
 20
0.0
 30
0.0
 70
   128
 71
    16
 72
    18
 73
    17
  0
VERTEX
  5
113
  8
0
 62
     9
 10
0.0
 20
0.0
 30
0.0
 70
   128
 71
    18
 72
    16
 73
    14
  0
VERTEX
  5
114
  8
0
 62
     9
 10
0.0
 20
0.0
 30
0.0
 70
   128
 71
    20
 72
    19
 73
    17
  0
VERTEX
  5
115
  8
0
 62
     9
 10
0.0
 20
0.0
 30
0.0
 70
   128
 71
    17
 72
    18
 73
    20
  0
VERTEX
  5
116
  8
0
 62
     9
 10
0.0
 20
0.0
 30
0.0
 70
   128
 71
    22
 72
    19
 73
    21
  0
VERTEX
  5
117
  8
0
 62
     9
 10
0.0
 20
0.0
 30
0.0
 70
   128
 71
    20
 72
    21
 73
    19
  0
VERTEX
  5
118
  8
0
 62
     9
 10
0.0
 20
0.0
 30
0.0
 70
   128
 71
    23
 72
    22
 73
    21
  0
VERTEX
  5
119
  8
0
 62
     9
 10
0.0
 20
0.0
 30
0.0
 70
   128
 71
    24
 72
    22
 73
    23
  0
VERTEX
  5
11A
  8
0
 62
     9
 10
0.0
 20
0.0
 30
0.0
 70
   128
 71
    12
 72
    26
 73
    25
  0
VERTEX
  5
11B
  8
0
 62
     9
 10
0.0
 20
0.0
 30
0.0
 70
   128
 71
     2
 72
    15
 73
     4
  0
VERTEX
  5
11C
  8
0
 62
     9
 10
0.0
 20
0.0
 30
0.0
 70
   128
 71
     4
 72
     1
 73
     2
  0
VERTEX
  5
11D
  8
0
 62
     9
 10
0.0
 20
0.0
 30
0.0
 70
   128
 71
     2
 72
    12
 73
    15
  0
VERTEX
  5
11E
  8
0
 62
     9
 10
0.0
 20
0.0
 30
0.0
 70
   128
 71
    25
 72
    27
 73
    12
  0
VERTEX
  5
11F
  8
0
 62
     9
 10
0.0
 20
0.0
 30
0.0
 70
   128
 71
    12
 72
    27
 73
    15
  0
VERTEX
  5
120
  8
0
 62
     9
 10
0.0
 20
0.0
 30
0.0
 70
   128
 71
    28
 72
    26
 73
    12
  0
VERTEX
  5
121
  8
0
 62
     9
 10
0.0
 20
0.0
 30
0.0
 70
   128
 71
    11
 72
    10
 73
    29
  0
VERTEX
  5
122
  8
0
 62
     9
 10
0.0
 20
0.0
 30
0.0
 70
   128
 71
    32
 72
    31
 73
    30
  0
VERTEX
  5
123
  8
0
 62
     9
 10
0.0
 20
0.0
 30
0.0
 70
   128
 71
    28
 72
    33
 73
    26
  0
VERTEX
  5
124
  8
0
 62
     9
 10
0.0
 20
0.0
 30
0.0
 70
   128
 71
    35
 72
    34
 73
    31
  0
VERTEX
  5
125
  8
0
 62
     9
 10
0.0
 20
0.0
 30
0.0
 70
   128
 71
    30
 72
    31
 73
    34
  0
VERTEX
  5
126
  8
0
 62
     9
 10
0.0
 20
0.0
 30
0.0
 70
   128
 71
    37
 72
    35
 73
    36
  0
VERTEX
  5
127
  8
0
 62
     9
 10
0.0
 20
0.0
 30
0.0
 70
   128
 71
    35
 72
    37
 73
    34
  0
VERTEX
  5
128
  8
0
 62
     9
 10
0.0
 20
0.0
 30
0.0
 70
   128
 71
    36
 72
    24
 73
    23
  0
VERTEX
  5
129
  8
0
 62
     9
 10
0.0
 20
0.0
 30
0.0
 70
   128
 71
    23
 72
    37
 73
    36
  0
VERTEX
  5
12A
  8
0
 62
     9
 10
0.0
 20
0.0
 30
0.0
 70
   128
 71
    32
 72
    30
 73
    38
  0
VERTEX
  5
12B
  8
0
 62
     9
 10
0.0
 20
0.0
 30
0.0
 70
   128
 71
    38
 72
    28
 73
    32
  0
VERTEX
  5
12C
  8
0
 62
     9
 10
0.0
 20
0.0
 30
0.0
 70
   128
 71
    39
 72
    26
 73
    33
  0
VERTEX
  5
12D
  8
0
 62
     9
 10
0.0
 20
0.0
 30
0.0
 70
   128
 71
    33
 72
    28
 73
    38
  0
VERTEX
  5
12E
  8
0
 62
     9
 10
0.0
 20
0.0
 30
0.0
 70
   128
 71
    25
 72
    26
 73
    39
  0
VERTEX
  5
12F
  8
0
 62
     9
 10
0.0
 20
0.0
 30
0.0
 70
   128
 71
    25
 72
    40
 73
    27
  0
VERTEX
  5
130
  8
0
 62
     9
 10
0.0
 20
0.0
 30
0.0
 70
   128
 71
    25
 72
    39
 73
    41
  0
VERTEX
  5
131
  8
0
 62
     9
 10
0.0
 20
0.0
 30
0.0
 70
   128
 71
     6
 72
    15
 73
    27
  0
VERTEX
  5
132
  8
0
 62
     9
 10
0.0
 20
0.0
 30
0.0
 70
   128
 71
    27
 72
    40
 73
     6
  0
VERTEX
  5
133
  8
0
 62
     9
 10
0.0
 20
0.0
 30
0.0
 70
   128
 71
    29
 72
    10
 73
    42
  0
VERTEX
  5
134
  8
0
 62
     9
 10
0.0
 20
0.0
 30
0.0
 70
   128
 71
    41
 72
    40
 73
    25
  0
VERTEX
  5
135
  8
0
 62
     9
 10
0.0
 20
0.0
 30
0.0
 70
   128
 71
    42
 72
    41
 73
    29
  0
VERTEX
  5
136
  8
0
 62
     9
 10
0.0
 20
0.0
 30
0.0
 70
   128
 71
    42
 72
    40
 73
    41
  0
VERTEX
  5
137
  8
0
 62
     9
 10
0.0
 20
0.0
 30
0.0
 70
   128
 71
    29
 72
    33
 73
    38
  0
VERTEX
  5
138
  8
0
 62
     9
 10
0.0
 20
0.0
 30
0.0
 70
   128
 71
    34
 72
    37
 73
     7
  0
VERTEX
  5
139
  8
0
 62
     9
 10
0.0
 20
0.0
 30
0.0
 70
   128
 71
    39
 72
    33
 73
    41
  0
VERTEX
  5
13A
  8
0
 62
     9
 10
0.0
 20
0.0
 30
0.0
 70
   128
 71
    29
 72
    38
 73
    11
  0
VERTEX
  5
13B
  8
0
 62
     9
 10
0.0
 20
0.0
 30
0.0
 70
   128
 71
    41
 72
    33
 73
    29
  0
VERTEX
  5
13C
  8
0
 62
     9
 10
0.0
 20
0.0
 30
0.0
 70
   128
 71
     8
 72
    11
 73
    30
  0
VERTEX
  5
13D
  8
0
 62
     9
 10
0.0
 20
0.0
 30
0.0
 70
   128
 71
    38
 72
    30
 73
    11
  0
VERTEX
  5
13E
  8
0
 62
     9
 10
0.0
 20
0.0
 30
0.0
 70
   128
 71
     8
 72
    30
 73
    34
  0
VERTEX
  5
13F
  8
0
 62
     9
 10
0.0
 20
0.0
 30
0.0
 70
   128
 71
     7
 72
    37
 73
     3
  0
VERTEX
  5
140
  8
0
 62
     9
 10
0.0
 20
0.0
 30
0.0
 70
   128
 71
     8
 72
    34
 73
     7
  0
VERTEX
  5
141
  8
0
 62
     9
 10
0.0
 20
0.0
 30
0.0
 70
   128
 71
    13
 72
     3
 73
    23
  0
VERTEX
  5
142
  8
0
 62
     9
 10
0.0
 20
0.0
 30
0.0
 70
   128
 71
    37
 72
    23
 73
     3
  0
VERTEX
  5
143
  8
0
 62
     9
 10
0.0
 20
0.0
 30
0.0
 70
   128
 71
    21
 72
    14
 73
    13
  0
VERTEX
  5
144
  8
0
 62
     9
 10
0.0
 20
0.0
 30
0.0
 70
   128
 71
    21
 72
    20
 73
    14
  0
VERTEX
  5
145
  8
0
 62
     9
 10
0.0
 20
0.0
 30
0.0
 70
   128
 71
    20
 72
    18
 73
    14
  0
VERTEX
  5
146
  8
0
 62
     9
 10
0.0
 20
0.0
 30
0.0
 70
   128
 71
    13
 72
    23
 73
    21
  0
VERTEX
  5
147
  8
0
 62
     9
 10
0.0
 20
0.0
 30
0.0
 70
   128
 71
    44
 72
    40
 73
    43
  0
VERTEX
  5
148
  8
0
 62
     9
 10
0.0
 20
0.0
 30
0.0
 70
   128
 71
    42
 72
    43
 73
    40
  0
VERTEX
  5
149
  8
0
 62
     9
 10
0.0
 20
0.0
 30
0.0
 70
   128
 71
    45
 72
     5
 73
     6
  0
VERTEX
  5
14A
  8
0
 62
     9
 10
0.0
 20
0.0
 30
0.0
 70
   128
 71
    40
 72
    44
 73
     6
  0
VERTEX
  5
14B
  8
0
 62
     9
 10
0.0
 20
0.0
 30
0.0
 70
   128
 71
     6
 72
    44
 73
    45
  0
VERTEX
  5
14C
  8
0
 62
     9
 10
0.0
 20
0.0
 30
0.0
 70
   128
 71
     9
 72
     5
 73
    45
  0
VERTEX
  5
14D
  8
0
 62
     9
 10
0.0
 20
0.0
 30
0.0
 70
   128
 71
    46
 72
     9
 73
    45
  0
VERTEX
  5
14E
  8
0
 62
     9
 10
0.0
 20
0.0
 30
0.0
 70
   128
 71
    10
 72
     9
 73
    46
  0
VERTEX
  5
14F
  8
0
 62
     9
 10
0.0
 20
0.0
 30
0.0
 70
   128
 71
    10
 72
    43
 73
    42
  0
VERTEX
  5
150
  8
0
 62
     9
 10
0.0
 20
0.0
 30
0.0
 70
   128
 71
    46
 72
    43
 73
    10
  0
VERTEX
  5
151
  8
0
 62
     9
 10
0.0
 20
0.0
 30
0.0
 70
   128
 71
    45
 72
    43
 73
    46
  0
VERTEX
  5
152
  8
0
 62
     9
 10
0.0
 20
0.0
 30
0.0
 70
   128
 71
    43
 72
    45
 73
    44
  0
VERTEX
  5
153
  8
0
 62
     9
 10
0.0
 20
0.0
 30
0.0
 70
   128
 71
    24
 72
    36
 73
    22
  0
VERTEX
  5
154
  8
0
 62
     9
 10
0.0
 20
0.0
 30
0.0
 70
   128
 71
    17
 72
    31
 73
    16
  0
VERTEX
  5
155
  8
0
 62
     9
 10
0.0
 20
0.0
 30
0.0
 70
   128
 71
    35
 72
    19
 73
    36
  0
VERTEX
  5
156
  8
0
 62
     9
 10
0.0
 20
0.0
 30
0.0
 70
   128
 71
    22
 72
    36
 73
    19
  0
VERTEX
  5
157
  8
0
 62
     9
 10
0.0
 20
0.0
 30
0.0
 70
   128
 71
    35
 72
    17
 73
    19
  0
VERTEX
  5
158
  8
0
 62
     9
 10
0.0
 20
0.0
 30
0.0
 70
   128
 71
    16
 72
    31
 73
    32
  0
VERTEX
  5
159
  8
0
 62
     9
 10
0.0
 20
0.0
 30
0.0
 70
   128
 71
    17
 72
    35
 73
    31
  0
VERTEX
  5
15A
  8
0
 62
     9
 10
0.0
 20
0.0
 30
0.0
 70
   128
 71
    28
 72
    12
 73
    32
  0
VERTEX
  5
15B
  8
0
 62
     9
 10
0.0
 20
0.0
 30
0.0
 70
   128
 71
    16
 72
    32
 73
    12
  0
SEQEND
  5
15C
  8
0
 62
     9
  0
ENDBLK
  5
15F
  8
0
  0
BLOCK
  8
0
  2
41
 70
     0
 10
0.0
 20
0.0
 30
0.0
  3
41
  1

  0
POLYLINE
  5
161
  8
0
 62
     9
 66
     1
 10
0.0
 20
0.0
 30
0.0
 70
    64
 71
    93
 72
   164
  0
VERTEX
  5
162
  8
0
 10
2.671937465667725
 20
52.22940444946289
 30
62.42391204833984
 70
   192
  0
VERTEX
  5
163
  8
0
 10
-0.0000000000066967
 20
52.22940444946289
 30
62.19199752807617
 70
   192
  0
VERTEX
  5
164
  8
0
 10
0.0000000000000063
 20
47.31994247436523
 30
59.25
 70
   192
  0
VERTEX
  5
165
  8
0
 10
5.579873085021973
 20
58.78104400634766
 30
76.7240219116211
 70
   192
  0
VERTEX
  5
166
  8
0
 10
10.9158239364624
 20
56.24930572509766
 30
75.79071807861328
 70
   192
  0
VERTEX
  5
167
  8
0
 10
5.664583683013916
 20
58.78104400634766
 30
77.69999694824219
 70
   192
  0
VERTEX
  5
168
  8
0
 10
1.909284591674805
 20
56.24930572509766
 30
66.7841796875
 70
   192
  0
VERTEX
  5
169
  8
0
 10
2.575183153152466
 20
58.78104400634766
 30
72.65460968017578
 70
   192
  0
VERTEX
  5
16A
  8
0
 10
0.975974440574646
 20
58.78104400634766
 30
72.12012481689453
 70
   192
  0
VERTEX
  5
16B
  8
0
 10
5.037793159484863
 20
56.24930572509766
 30
67.82978057861328
 70
   192
  0
VERTEX
  5
16C
  8
0
 10
4.005465507507324
 20
58.78104400634766
 30
73.69453430175781
 70
   192
  0
VERTEX
  5
16D
  8
0
 10
0.0
 20
59.59999847412109
 30
77.69999694824219
 70
   192
  0
VERTEX
  5
16E
  8
0
 10
5.045387744903564
 20
58.78104400634766
 30
75.12481689453125
 70
   192
  0
VERTEX
  5
16F
  8
0
 10
7.83583402633667
 20
56.24930572509766
 30
69.86416625976562
 70
   192
  0
VERTEX
  5
170
  8
0
 10
13.81282138824463
 20
52.22940444946289
 30
70.64988708496094
 70
   192
  0
VERTEX
  5
171
  8
0
 10
17.63107490539551
 20
47.31994247436523
 30
72.29153442382812
 70
   192
  0
VERTEX
  5
172
  8
0
 10
15.27608776092529
 20
52.22940444946289
 30
75.02806091308594
 70
   192
  0
VERTEX
  5
173
  8
0
 10
18.45000076293945
 20
47.31994247436523
 30
77.69999694824219
 70
   192
  0
VERTEX
  5
174
  8
0
 10
15.01803112030029
 20
47.31994247436523
 30
66.985595703125
 70
   192
  0
VERTEX
  5
175
  8
0
 10
11.08154201507568
 20
56.24930572509766
 30
77.69999694824219
 70
   192
  0
VERTEX
  5
176
  8
0
 10
9.870219230651855
 20
56.24930572509766
 30
72.6622085571289
 70
   192
  0
VERTEX
  5
177
  8
0
 10
-0.0000000000073429
 20
58.78104400634766
 30
72.03541564941406
 70
   192
  0
VERTEX
  5
178
  8
0
 10
-0.000000000009575
 20
56.24930572509766
 30
66.61845397949219
 70
   192
  0
VERTEX
  5
179
  8
0
 10
15.50800132751465
 20
52.22940444946289
 30
77.69999694824219
 70
   192
  0
VERTEX
  5
17A
  8
0
 10
10.96581268310547
 20
52.22940444946289
 30
66.73418426513672
 70
   192
  0
VERTEX
  5
17B
  8
0
 10
7.050111293792725
 20
52.22940444946289
 30
63.88718032836914
 70
   192
  0
VERTEX
  5
17C
  8
0
 10
10.73033237457275
 20
47.31994247436523
 30
62.69242858886719
 70
   192
  0
VERTEX
  5
17D
  8
0
 10
5.433230400085449
 20
47.31994247436523
 30
60.06349182128906
 70
   192
  0
VERTEX
  5
17E
  8
0
 10
15.27608776092529
 20
52.22940444946289
 30
80.37194061279297
 70
   192
  0
VERTEX
  5
17F
  8
0
 10
0.975974440574646
 20
58.78104400634766
 30
83.27987670898438
 70
   192
  0
VERTEX
  5
180
  8
0
 10
1.909284591674805
 20
56.24930572509766
 30
88.6158218383789
 70
   192
  0
VERTEX
  5
181
  8
0
 10
-0.0000000000173248
 20
58.78104400634766
 30
83.36458587646484
 70
   192
  0
VERTEX
  5
182
  8
0
 10
10.9158239364624
 20
56.24930572509766
 30
79.60928344726562
 70
   192
  0
VERTEX
  5
183
  8
0
 10
5.045387744903564
 20
58.78104400634766
 30
80.27518463134766
 70
   192
  0
VERTEX
  5
184
  8
0
 10
5.579873085021973
 20
58.78104400634766
 30
78.67597198486328
 70
   192
  0
VERTEX
  5
185
  8
0
 10
9.870219230651855
 20
56.24930572509766
 30
82.73779296875
 70
   192
  0
VERTEX
  5
186
  8
0
 10
4.005465507507324
 20
58.78104400634766
 30
81.7054672241211
 70
   192
  0
VERTEX
  5
187
  8
0
 10
2.575183153152466
 20
58.78104400634766
 30
82.7453842163086
 70
   192
  0
VERTEX
  5
188
  8
0
 10
7.83583402633667
 20
56.24930572509766
 30
85.53583526611328
 70
   192
  0
VERTEX
  5
189
  8
0
 10
7.050111293792725
 20
52.22940444946289
 30
91.51282501220703
 70
   192
  0
VERTEX
  5
18A
  8
0
 10
5.408466339111328
 20
47.31994247436523
 30
95.3310775756836
 70
   192
  0
VERTEX
  5
18B
  8
0
 10
2.671937465667725
 20
52.22940444946289
 30
92.97608947753906
 70
   192
  0
VERTEX
  5
18C
  8
0
 10
0.000000000000006
 20
47.31994247436523
 30
96.1500015258789
 70
   192
  0
VERTEX
  5
18D
  8
0
 10
10.71440601348877
 20
47.31994247436523
 30
92.71803283691406
 70
   192
  0
VERTEX
  5
18E
  8
0
 10
-0.0000000000225978
 20
56.24930572509766
 30
88.78153991699219
 70
   192
  0
VERTEX
  5
18F
  8
0
 10
5.037793159484863
 20
56.24930572509766
 30
87.57022094726562
 70
   192
  0
VERTEX
  5
190
  8
0
 10
-0.000000000015813
 20
52.22940444946289
 30
93.20800018310547
 70
   192
  0
VERTEX
  5
191
  8
0
 10
10.96581268310547
 20
52.22940444946289
 30
88.66580963134766
 70
   192
  0
VERTEX
  5
192
  8
0
 10
13.81282138824463
 20
52.22940444946289
 30
84.75011444091797
 70
   192
  0
VERTEX
  5
193
  8
0
 10
15.00757026672363
 20
47.31994247436523
 30
88.43033599853516
 70
   192
  0
VERTEX
  5
194
  8
0
 10
17.63650703430176
 20
47.31994247436523
 30
83.13323211669922
 70
   192
  0
VERTEX
  5
195
  8
0
 10
-2.671937465667725
 20
52.22940444946289
 30
92.97608947753906
 70
   192
  0
VERTEX
  5
196
  8
0
 10
-5.579873085021973
 20
58.78104400634766
 30
78.67597198486328
 70
   192
  0
VERTEX
  5
197
  8
0
 10
-10.9158239364624
 20
56.24930572509766
 30
79.60928344726562
 70
   192
  0
VERTEX
  5
198
  8
0
 10
-5.664583683013916
 20
58.78104400634766
 30
77.69999694824219
 70
   192
  0
VERTEX
  5
199
  8
0
 10
-1.909284591674805
 20
56.24930572509766
 30
88.6158218383789
 70
   192
  0
VERTEX
  5
19A
  8
0
 10
-2.575183153152466
 20
58.78104400634766
 30
82.7453842163086
 70
   192
  0
VERTEX
  5
19B
  8
0
 10
-0.975974440574646
 20
58.78104400634766
 30
83.27987670898438
 70
   192
  0
VERTEX
  5
19C
  8
0
 10
-5.037793159484863
 20
56.24930572509766
 30
87.57022094726562
 70
   192
  0
VERTEX
  5
19D
  8
0
 10
-4.005465507507324
 20
58.78104400634766
 30
81.7054672241211
 70
   192
  0
VERTEX
  5
19E
  8
0
 10
-5.045387744903564
 20
58.78104400634766
 30
80.27518463134766
 70
   192
  0
VERTEX
  5
19F
  8
0
 10
-7.83583402633667
 20
56.24930572509766
 30
85.53583526611328
 70
   192
  0
VERTEX
  5
1A0
  8
0
 10
-13.81282138824463
 20
52.22940444946289
 30
84.75011444091797
 70
   192
  0
VERTEX
  5
1A1
  8
0
 10
-17.63107490539551
 20
47.31994247436523
 30
83.10846710205078
 70
   192
  0
VERTEX
  5
1A2
  8
0
 10
-15.27608776092529
 20
52.22940444946289
 30
80.37194061279297
 70
   192
  0
VERTEX
  5
1A3
  8
0
 10
-18.45000076293945
 20
47.31994247436523
 30
77.69999694824219
 70
   192
  0
VERTEX
  5
1A4
  8
0
 10
-15.01803112030029
 20
47.31994247436523
 30
88.4144058227539
 70
   192
  0
VERTEX
  5
1A5
  8
0
 10
-11.08154201507568
 20
56.24930572509766
 30
77.69999694824219
 70
   192
  0
VERTEX
  5
1A6
  8
0
 10
-9.870219230651855
 20
56.24930572509766
 30
82.73779296875
 70
   192
  0
VERTEX
  5
1A7
  8
0
 10
-15.50800132751465
 20
52.22940444946289
 30
77.69999694824219
 70
   192
  0
VERTEX
  5
1A8
  8
0
 10
-10.96581268310547
 20
52.22940444946289
 30
88.66580963134766
 70
   192
  0
VERTEX
  5
1A9
  8
0
 10
-7.050111293792725
 20
52.22940444946289
 30
91.51282501220703
 70
   192
  0
VERTEX
  5
1AA
  8
0
 10
-10.73033237457275
 20
47.31994247436523
 30
92.70757293701172
 70
   192
  0
VERTEX
  5
1AB
  8
0
 10
-5.433230400085449
 20
47.31994247436523
 30
95.33650970458984
 70
   192
  0
VERTEX
  5
1AC
  8
0
 10
-2.671937465667725
 20
52.22940444946289
 30
62.42391204833984
 70
   192
  0
VERTEX
  5
1AD
  8
0
 10
-1.909284591674805
 20
56.24930572509766
 30
66.7841796875
 70
   192
  0
VERTEX
  5
1AE
  8
0
 10
-7.050111293792725
 20
52.22940444946289
 30
63.88718032836914
 70
   192
  0
VERTEX
  5
1AF
  8
0
 10
-9.870219230651855
 20
56.24930572509766
 30
72.6622085571289
 70
   192
  0
VERTEX
  5
1B0
  8
0
 10
-4.005465507507324
 20
58.78104400634766
 30
73.69453430175781
 70
   192
  0
VERTEX
  5
1B1
  8
0
 10
-5.045387744903564
 20
58.78104400634766
 30
75.12481689453125
 70
   192
  0
VERTEX
  5
1B2
  8
0
 10
-10.71440601348877
 20
47.31994247436523
 30
62.68196868896484
 70
   192
  0
VERTEX
  5
1B3
  8
0
 10
-5.408466339111328
 20
47.31994247436523
 30
60.06892395019531
 70
   192
  0
VERTEX
  5
1B4
  8
0
 10
-7.83583402633667
 20
56.24930572509766
 30
69.86416625976562
 70
   192
  0
VERTEX
  5
1B5
  8
0
 10
-2.575183153152466
 20
58.78104400634766
 30
72.65460968017578
 70
   192
  0
VERTEX
  5
1B6
  8
0
 10
-15.27608776092529
 20
52.22940444946289
 30
75.02806091308594
 70
   192
  0
VERTEX
  5
1B7
  8
0
 10
-5.579873085021973
 20
58.78104400634766
 30
76.7240219116211
 70
   192
  0
VERTEX
  5
1B8
  8
0
 10
-10.9158239364624
 20
56.24930572509766
 30
75.79071807861328
 70
   192
  0
VERTEX
  5
1B9
  8
0
 10
-0.975974440574646
 20
58.78104400634766
 30
72.12012481689453
 70
   192
  0
VERTEX
  5
1BA
  8
0
 10
-5.037793159484863
 20
56.24930572509766
 30
67.82978057861328
 70
   192
  0
VERTEX
  5
1BB
  8
0
 10
-10.96581268310547
 20
52.22940444946289
 30
66.73418426513672
 70
   192
  0
VERTEX
  5
1BC
  8
0
 10
-13.81282138824463
 20
52.22940444946289
 30
70.64988708496094
 70
   192
  0
VERTEX
  5
1BD
  8
0
 10
-15.00757026672363
 20
47.31994247436523
 30
66.96966552734375
 70
   192
  0
VERTEX
  5
1BE
  8
0
 10
-17.63650703430176
 20
47.31994247436523
 30
72.26676940917969
 70
   192
  0
VERTEX
  5
1BF
  8
0
 62
     9
 10
0.0
 20
0.0
 30
0.0
 70
   128
 71
     3
 72
     2
 73
     1
  0
VERTEX
  5
1C0
  8
0
 62
     9
 10
0.0
 20
0.0
 30
0.0
 70
   128
 71
     6
 72
     5
 73
     4
  0
VERTEX
  5
1C1
  8
0
 62
     9
 10
0.0
 20
0.0
 30
0.0
 70
   128
 71
     9
 72
     8
 73
     7
  0
VERTEX
  5
1C2
  8
0
 62
     9
 10
0.0
 20
0.0
 30
0.0
 70
   128
 71
    11
 72
    10
 73
     8
  0
VERTEX
  5
1C3
  8
0
 62
     9
 10
0.0
 20
0.0
 30
0.0
 70
   128
 71
     4
 72
    13
 73
    12
  0
VERTEX
  5
1C4
  8
0
 62
     9
 10
0.0
 20
0.0
 30
0.0
 70
   128
 71
     6
 72
     4
 73
    12
  0
VERTEX
  5
1C5
  8
0
 62
     9
 10
0.0
 20
0.0
 30
0.0
 70
   128
 71
    13
 72
    14
 73
    11
  0
VERTEX
  5
1C6
  8
0
 62
     9
 10
0.0
 20
0.0
 30
0.0
 70
   128
 71
    10
 72
     1
 73
     7
  0
VERTEX
  5
1C7
  8
0
 62
     9
 10
0.0
 20
0.0
 30
0.0
 70
   128
 71
    17
 72
    16
 73
    15
  0
VERTEX
  5
1C8
  8
0
 62
     9
 10
0.0
 20
0.0
 30
0.0
 70
   128
 71
    15
 72
     5
 73
    17
  0
VERTEX
  5
1C9
  8
0
 62
     9
 10
0.0
 20
0.0
 30
0.0
 70
   128
 71
    17
 72
    18
 73
    16
  0
VERTEX
  5
1CA
  8
0
 62
     9
 10
0.0
 20
0.0
 30
0.0
 70
   128
 71
    15
 72
    16
 73
    19
  0
VERTEX
  5
1CB
  8
0
 62
     9
 10
0.0
 20
0.0
 30
0.0
 70
   128
 71
     5
 72
     6
 73
    20
  0
VERTEX
  5
1CC
  8
0
 62
     9
 10
0.0
 20
0.0
 30
0.0
 70
   128
 71
    10
 72
     7
 73
     8
  0
VERTEX
  5
1CD
  8
0
 62
     9
 10
0.0
 20
0.0
 30
0.0
 70
   128
 71
    11
 72
    12
 73
    13
  0
VERTEX
  5
1CE
  8
0
 62
     9
 10
0.0
 20
0.0
 30
0.0
 70
   128
 71
    13
 72
    21
 73
    14
  0
VERTEX
  5
1CF
  8
0
 62
     9
 10
0.0
 20
0.0
 30
0.0
 70
   128
 71
    11
 72
     8
 73
    12
  0
VERTEX
  5
1D0
  8
0
 62
     9
 10
0.0
 20
0.0
 30
0.0
 70
   128
 71
    11
 72
    14
 73
    10
  0
VERTEX
  5
1D1
  8
0
 62
     9
 10
0.0
 20
0.0
 30
0.0
 70
   128
 71
     9
 72
    23
 73
    22
  0
VERTEX
  5
1D2
  8
0
 62
     9
 10
0.0
 20
0.0
 30
0.0
 70
   128
 71
    12
 72
     9
 73
    22
  0
VERTEX
  5
1D3
  8
0
 62
     9
 10
0.0
 20
0.0
 30
0.0
 70
   128
 71
     8
 72
     9
 73
    12
  0
VERTEX
  5
1D4
  8
0
 62
     9
 10
0.0
 20
0.0
 30
0.0
 70
   128
 71
    21
 72
     4
 73
     5
  0
VERTEX
  5
1D5
  8
0
 62
     9
 10
0.0
 20
0.0
 30
0.0
 70
   128
 71
    24
 72
    17
 73
    20
  0
VERTEX
  5
1D6
  8
0
 62
     9
 10
0.0
 20
0.0
 30
0.0
 70
   128
 71
    21
 72
    25
 73
    14
  0
VERTEX
  5
1D7
  8
0
 62
     9
 10
0.0
 20
0.0
 30
0.0
 70
   128
 71
    21
 72
    13
 73
     4
  0
VERTEX
  5
1D8
  8
0
 62
     9
 10
0.0
 20
0.0
 30
0.0
 70
   128
 71
    15
 72
    25
 73
    21
  0
VERTEX
  5
1D9
  8
0
 62
     9
 10
0.0
 20
0.0
 30
0.0
 70
   128
 71
    14
 72
    26
 73
    10
  0
VERTEX
  5
1DA
  8
0
 62
     9
 10
0.0
 20
0.0
 30
0.0
 70
   128
 71
    26
 72
    14
 73
    25
  0
VERTEX
  5
1DB
  8
0
 62
     9
 10
0.0
 20
0.0
 30
0.0
 70
   128
 71
    26
 72
     1
 73
    10
  0
VERTEX
  5
1DC
  8
0
 62
     9
 10
0.0
 20
0.0
 30
0.0
 70
   128
 71
    23
 72
     7
 73
     2
  0
VERTEX
  5
1DD
  8
0
 62
     9
 10
0.0
 20
0.0
 30
0.0
 70
   128
 71
     7
 72
    23
 73
     9
  0
VERTEX
  5
1DE
  8
0
 62
     9
 10
0.0
 20
0.0
 30
0.0
 70
   128
 71
    17
 72
     5
 73
    20
  0
VERTEX
  5
1DF
  8
0
 62
     9
 10
0.0
 20
0.0
 30
0.0
 70
   128
 71
    17
 72
    24
 73
    18
  0
VERTEX
  5
1E0
  8
0
 62
     9
 10
0.0
 20
0.0
 30
0.0
 70
   128
 71
    27
 72
    25
 73
    19
  0
VERTEX
  5
1E1
  8
0
 62
     9
 10
0.0
 20
0.0
 30
0.0
 70
   128
 71
    15
 72
    21
 73
     5
  0
VERTEX
  5
1E2
  8
0
 62
     9
 10
0.0
 20
0.0
 30
0.0
 70
   128
 71
    25
 72
    15
 73
    19
  0
VERTEX
  5
1E3
  8
0
 62
     9
 10
0.0
 20
0.0
 30
0.0
 70
   128
 71
    28
 72
    26
 73
    27
  0
VERTEX
  5
1E4
  8
0
 62
     9
 10
0.0
 20
0.0
 30
0.0
 70
   128
 71
    26
 72
    25
 73
    27
  0
VERTEX
  5
1E5
  8
0
 62
     9
 10
0.0
 20
0.0
 30
0.0
 70
   128
 71
     1
 72
     2
 73
     7
  0
VERTEX
  5
1E6
  8
0
 62
     9
 10
0.0
 20
0.0
 30
0.0
 70
   128
 71
    28
 72
     1
 73
    26
  0
VERTEX
  5
1E7
  8
0
 62
     9
 10
0.0
 20
0.0
 30
0.0
 70
   128
 71
     1
 72
    28
 73
     3
  0
VERTEX
  5
1E8
  8
0
 62
     9
 10
0.0
 20
0.0
 30
0.0
 70
   128
 71
    18
 72
    24
 73
    29
  0
VERTEX
  5
1E9
  8
0
 62
     9
 10
0.0
 20
0.0
 30
0.0
 70
   128
 71
    32
 72
    31
 73
    30
  0
VERTEX
  5
1EA
  8
0
 62
     9
 10
0.0
 20
0.0
 30
0.0
 70
   128
 71
    35
 72
    34
 73
    33
  0
VERTEX
  5
1EB
  8
0
 62
     9
 10
0.0
 20
0.0
 30
0.0
 70
   128
 71
    37
 72
    36
 73
    34
  0
VERTEX
  5
1EC
  8
0
 62
     9
 10
0.0
 20
0.0
 30
0.0
 70
   128
 71
    30
 72
    38
 73
    12
  0
VERTEX
  5
1ED
  8
0
 62
     9
 10
0.0
 20
0.0
 30
0.0
 70
   128
 71
    32
 72
    30
 73
    12
  0
VERTEX
  5
1EE
  8
0
 62
     9
 10
0.0
 20
0.0
 30
0.0
 70
   128
 71
    38
 72
    39
 73
    37
  0
VERTEX
  5
1EF
  8
0
 62
     9
 10
0.0
 20
0.0
 30
0.0
 70
   128
 71
    36
 72
    29
 73
    33
  0
VERTEX
  5
1F0
  8
0
 62
     9
 10
0.0
 20
0.0
 30
0.0
 70
   128
 71
    42
 72
    41
 73
    40
  0
VERTEX
  5
1F1
  8
0
 62
     9
 10
0.0
 20
0.0
 30
0.0
 70
   128
 71
    40
 72
    31
 73
    42
  0
VERTEX
  5
1F2
  8
0
 62
     9
 10
0.0
 20
0.0
 30
0.0
 70
   128
 71
    42
 72
    43
 73
    41
  0
VERTEX
  5
1F3
  8
0
 62
     9
 10
0.0
 20
0.0
 30
0.0
 70
   128
 71
    40
 72
    41
 73
    44
  0
VERTEX
  5
1F4
  8
0
 62
     9
 10
0.0
 20
0.0
 30
0.0
 70
   128
 71
    31
 72
    32
 73
    45
  0
VERTEX
  5
1F5
  8
0
 62
     9
 10
0.0
 20
0.0
 30
0.0
 70
   128
 71
    36
 72
    33
 73
    34
  0
VERTEX
  5
1F6
  8
0
 62
     9
 10
0.0
 20
0.0
 30
0.0
 70
   128
 71
    37
 72
    12
 73
    38
  0
VERTEX
  5
1F7
  8
0
 62
     9
 10
0.0
 20
0.0
 30
0.0
 70
   128
 71
    38
 72
    46
 73
    39
  0
VERTEX
  5
1F8
  8
0
 62
     9
 10
0.0
 20
0.0
 30
0.0
 70
   128
 71
    37
 72
    34
 73
    12
  0
VERTEX
  5
1F9
  8
0
 62
     9
 10
0.0
 20
0.0
 30
0.0
 70
   128
 71
    37
 72
    39
 73
    36
  0
VERTEX
  5
1FA
  8
0
 62
     9
 10
0.0
 20
0.0
 30
0.0
 70
   128
 71
    35
 72
    20
 73
     6
  0
VERTEX
  5
1FB
  8
0
 62
     9
 10
0.0
 20
0.0
 30
0.0
 70
   128
 71
    12
 72
    35
 73
     6
  0
VERTEX
  5
1FC
  8
0
 62
     9
 10
0.0
 20
0.0
 30
0.0
 70
   128
 71
    34
 72
    35
 73
    12
  0
VERTEX
  5
1FD
  8
0
 62
     9
 10
0.0
 20
0.0
 30
0.0
 70
   128
 71
    46
 72
    30
 73
    31
  0
VERTEX
  5
1FE
  8
0
 62
     9
 10
0.0
 20
0.0
 30
0.0
 70
   128
 71
    47
 72
    42
 73
    45
  0
VERTEX
  5
1FF
  8
0
 62
     9
 10
0.0
 20
0.0
 30
0.0
 70
   128
 71
    46
 72
    48
 73
    39
  0
VERTEX
  5
200
  8
0
 62
     9
 10
0.0
 20
0.0
 30
0.0
 70
   128
 71
    46
 72
    38
 73
    30
  0
VERTEX
  5
201
  8
0
 62
     9
 10
0.0
 20
0.0
 30
0.0
 70
   128
 71
    40
 72
    48
 73
    46
  0
VERTEX
  5
202
  8
0
 62
     9
 10
0.0
 20
0.0
 30
0.0
 70
   128
 71
    39
 72
    49
 73
    36
  0
VERTEX
  5
203
  8
0
 62
     9
 10
0.0
 20
0.0
 30
0.0
 70
   128
 71
    49
 72
    39
 73
    48
  0
VERTEX
  5
204
  8
0
 62
     9
 10
0.0
 20
0.0
 30
0.0
 70
   128
 71
    49
 72
    29
 73
    36
  0
VERTEX
  5
205
  8
0
 62
     9
 10
0.0
 20
0.0
 30
0.0
 70
   128
 71
    20
 72
    33
 73
    24
  0
VERTEX
  5
206
  8
0
 62
     9
 10
0.0
 20
0.0
 30
0.0
 70
   128
 71
    33
 72
    20
 73
    35
  0
VERTEX
  5
207
  8
0
 62
     9
 10
0.0
 20
0.0
 30
0.0
 70
   128
 71
    42
 72
    31
 73
    45
  0
VERTEX
  5
208
  8
0
 62
     9
 10
0.0
 20
0.0
 30
0.0
 70
   128
 71
    42
 72
    47
 73
    43
  0
VERTEX
  5
209
  8
0
 62
     9
 10
0.0
 20
0.0
 30
0.0
 70
   128
 71
    50
 72
    48
 73
    44
  0
VERTEX
  5
20A
  8
0
 62
     9
 10
0.0
 20
0.0
 30
0.0
 70
   128
 71
    40
 72
    46
 73
    31
  0
VERTEX
  5
20B
  8
0
 62
     9
 10
0.0
 20
0.0
 30
0.0
 70
   128
 71
    48
 72
    40
 73
    44
  0
VERTEX
  5
20C
  8
0
 62
     9
 10
0.0
 20
0.0
 30
0.0
 70
   128
 71
    51
 72
    49
 73
    50
  0
VERTEX
  5
20D
  8
0
 62
     9
 10
0.0
 20
0.0
 30
0.0
 70
   128
 71
    49
 72
    48
 73
    50
  0
VERTEX
  5
20E
  8
0
 62
     9
 10
0.0
 20
0.0
 30
0.0
 70
   128
 71
    29
 72
    24
 73
    33
  0
VERTEX
  5
20F
  8
0
 62
     9
 10
0.0
 20
0.0
 30
0.0
 70
   128
 71
    51
 72
    29
 73
    49
  0
VERTEX
  5
210
  8
0
 62
     9
 10
0.0
 20
0.0
 30
0.0
 70
   128
 71
    29
 72
    51
 73
    18
  0
VERTEX
  5
211
  8
0
 62
     9
 10
0.0
 20
0.0
 30
0.0
 70
   128
 71
    43
 72
    47
 73
    52
  0
VERTEX
  5
212
  8
0
 62
     9
 10
0.0
 20
0.0
 30
0.0
 70
   128
 71
    55
 72
    54
 73
    53
  0
VERTEX
  5
213
  8
0
 62
     9
 10
0.0
 20
0.0
 30
0.0
 70
   128
 71
    58
 72
    57
 73
    56
  0
VERTEX
  5
214
  8
0
 62
     9
 10
0.0
 20
0.0
 30
0.0
 70
   128
 71
    60
 72
    59
 73
    57
  0
VERTEX
  5
215
  8
0
 62
     9
 10
0.0
 20
0.0
 30
0.0
 70
   128
 71
    53
 72
    61
 73
    12
  0
VERTEX
  5
216
  8
0
 62
     9
 10
0.0
 20
0.0
 30
0.0
 70
   128
 71
    55
 72
    53
 73
    12
  0
VERTEX
  5
217
  8
0
 62
     9
 10
0.0
 20
0.0
 30
0.0
 70
   128
 71
    61
 72
    62
 73
    60
  0
VERTEX
  5
218
  8
0
 62
     9
 10
0.0
 20
0.0
 30
0.0
 70
   128
 71
    59
 72
    52
 73
    56
  0
VERTEX
  5
219
  8
0
 62
     9
 10
0.0
 20
0.0
 30
0.0
 70
   128
 71
    65
 72
    64
 73
    63
  0
VERTEX
  5
21A
  8
0
 62
     9
 10
0.0
 20
0.0
 30
0.0
 70
   128
 71
    63
 72
    54
 73
    65
  0
VERTEX
  5
21B
  8
0
 62
     9
 10
0.0
 20
0.0
 30
0.0
 70
   128
 71
    65
 72
    66
 73
    64
  0
VERTEX
  5
21C
  8
0
 62
     9
 10
0.0
 20
0.0
 30
0.0
 70
   128
 71
    63
 72
    64
 73
    67
  0
VERTEX
  5
21D
  8
0
 62
     9
 10
0.0
 20
0.0
 30
0.0
 70
   128
 71
    54
 72
    55
 73
    68
  0
VERTEX
  5
21E
  8
0
 62
     9
 10
0.0
 20
0.0
 30
0.0
 70
   128
 71
    59
 72
    56
 73
    57
  0
VERTEX
  5
21F
  8
0
 62
     9
 10
0.0
 20
0.0
 30
0.0
 70
   128
 71
    60
 72
    12
 73
    61
  0
VERTEX
  5
220
  8
0
 62
     9
 10
0.0
 20
0.0
 30
0.0
 70
   128
 71
    61
 72
    69
 73
    62
  0
VERTEX
  5
221
  8
0
 62
     9
 10
0.0
 20
0.0
 30
0.0
 70
   128
 71
    60
 72
    57
 73
    12
  0
VERTEX
  5
222
  8
0
 62
     9
 10
0.0
 20
0.0
 30
0.0
 70
   128
 71
    60
 72
    62
 73
    59
  0
VERTEX
  5
223
  8
0
 62
     9
 10
0.0
 20
0.0
 30
0.0
 70
   128
 71
    58
 72
    45
 73
    32
  0
VERTEX
  5
224
  8
0
 62
     9
 10
0.0
 20
0.0
 30
0.0
 70
   128
 71
    12
 72
    58
 73
    32
  0
VERTEX
  5
225
  8
0
 62
     9
 10
0.0
 20
0.0
 30
0.0
 70
   128
 71
    57
 72
    58
 73
    12
  0
VERTEX
  5
226
  8
0
 62
     9
 10
0.0
 20
0.0
 30
0.0
 70
   128
 71
    69
 72
    53
 73
    54
  0
VERTEX
  5
227
  8
0
 62
     9
 10
0.0
 20
0.0
 30
0.0
 70
   128
 71
    70
 72
    65
 73
    68
  0
VERTEX
  5
228
  8
0
 62
     9
 10
0.0
 20
0.0
 30
0.0
 70
   128
 71
    69
 72
    71
 73
    62
  0
VERTEX
  5
229
  8
0
 62
     9
 10
0.0
 20
0.0
 30
0.0
 70
   128
 71
    69
 72
    61
 73
    53
  0
VERTEX
  5
22A
  8
0
 62
     9
 10
0.0
 20
0.0
 30
0.0
 70
   128
 71
    63
 72
    71
 73
    69
  0
VERTEX
  5
22B
  8
0
 62
     9
 10
0.0
 20
0.0
 30
0.0
 70
   128
 71
    62
 72
    72
 73
    59
  0
VERTEX
  5
22C
  8
0
 62
     9
 10
0.0
 20
0.0
 30
0.0
 70
   128
 71
    72
 72
    62
 73
    71
  0
VERTEX
  5
22D
  8
0
 62
     9
 10
0.0
 20
0.0
 30
0.0
 70
   128
 71
    72
 72
    52
 73
    59
  0
VERTEX
  5
22E
  8
0
 62
     9
 10
0.0
 20
0.0
 30
0.0
 70
   128
 71
    45
 72
    56
 73
    47
  0
VERTEX
  5
22F
  8
0
 62
     9
 10
0.0
 20
0.0
 30
0.0
 70
   128
 71
    56
 72
    45
 73
    58
  0
VERTEX
  5
230
  8
0
 62
     9
 10
0.0
 20
0.0
 30
0.0
 70
   128
 71
    65
 72
    54
 73
    68
  0
VERTEX
  5
231
  8
0
 62
     9
 10
0.0
 20
0.0
 30
0.0
 70
   128
 71
    65
 72
    70
 73
    66
  0
VERTEX
  5
232
  8
0
 62
     9
 10
0.0
 20
0.0
 30
0.0
 70
   128
 71
    73
 72
    71
 73
    67
  0
VERTEX
  5
233
  8
0
 62
     9
 10
0.0
 20
0.0
 30
0.0
 70
   128
 71
    63
 72
    69
 73
    54
  0
VERTEX
  5
234
  8
0
 62
     9
 10
0.0
 20
0.0
 30
0.0
 70
   128
 71
    71
 72
    63
 73
    67
  0
VERTEX
  5
235
  8
0
 62
     9
 10
0.0
 20
0.0
 30
0.0
 70
   128
 71
    74
 72
    72
 73
    73
  0
VERTEX
  5
236
  8
0
 62
     9
 10
0.0
 20
0.0
 30
0.0
 70
   128
 71
    72
 72
    71
 73
    73
  0
VERTEX
  5
237
  8
0
 62
     9
 10
0.0
 20
0.0
 30
0.0
 70
   128
 71
    52
 72
    47
 73
    56
  0
VERTEX
  5
238
  8
0
 62
     9
 10
0.0
 20
0.0
 30
0.0
 70
   128
 71
    74
 72
    52
 73
    72
  0
VERTEX
  5
239
  8
0
 62
     9
 10
0.0
 20
0.0
 30
0.0
 70
   128
 71
    52
 72
    74
 73
    43
  0
VERTEX
  5
23A
  8
0
 62
     9
 10
0.0
 20
0.0
 30
0.0
 70
   128
 71
    77
 72
    76
 73
    75
  0
VERTEX
  5
23B
  8
0
 62
     9
 10
0.0
 20
0.0
 30
0.0
 70
   128
 71
    80
 72
    79
 73
    78
  0
VERTEX
  5
23C
  8
0
 62
     9
 10
0.0
 20
0.0
 30
0.0
 70
   128
 71
    77
 72
    82
 73
    81
  0
VERTEX
  5
23D
  8
0
 62
     9
 10
0.0
 20
0.0
 30
0.0
 70
   128
 71
    82
 72
    77
 73
    75
  0
VERTEX
  5
23E
  8
0
 62
     9
 10
0.0
 20
0.0
 30
0.0
 70
   128
 71
    79
 72
    84
 73
    83
  0
VERTEX
  5
23F
  8
0
 62
     9
 10
0.0
 20
0.0
 30
0.0
 70
   128
 71
    82
 72
    75
 73
     3
  0
VERTEX
  5
240
  8
0
 62
     9
 10
0.0
 20
0.0
 30
0.0
 70
   128
 71
    85
 72
    66
 73
    70
  0
VERTEX
  5
241
  8
0
 62
     9
 10
0.0
 20
0.0
 30
0.0
 70
   128
 71
    87
 72
    86
 73
    80
  0
VERTEX
  5
242
  8
0
 62
     9
 10
0.0
 20
0.0
 30
0.0
 70
   128
 71
    88
 72
    22
 73
    76
  0
VERTEX
  5
243
  8
0
 62
     9
 10
0.0
 20
0.0
 30
0.0
 70
   128
 71
    85
 72
    87
 73
    78
  0
VERTEX
  5
244
  8
0
 62
     9
 10
0.0
 20
0.0
 30
0.0
 70
   128
 71
    12
 72
    88
 73
    84
  0
VERTEX
  5
245
  8
0
 62
     9
 10
0.0
 20
0.0
 30
0.0
 70
   128
 71
    22
 72
    88
 73
    12
  0
VERTEX
  5
246
  8
0
 62
     9
 10
0.0
 20
0.0
 30
0.0
 70
   128
 71
    76
 72
    22
 73
    23
  0
VERTEX
  5
247
  8
0
 62
     9
 10
0.0
 20
0.0
 30
0.0
 70
   128
 71
    78
 72
    87
 73
    80
  0
VERTEX
  5
248
  8
0
 62
     9
 10
0.0
 20
0.0
 30
0.0
 70
   128
 71
    79
 72
    12
 73
    84
  0
VERTEX
  5
249
  8
0
 62
     9
 10
0.0
 20
0.0
 30
0.0
 70
   128
 71
    84
 72
    89
 73
    83
  0
VERTEX
  5
24A
  8
0
 62
     9
 10
0.0
 20
0.0
 30
0.0
 70
   128
 71
    79
 72
    80
 73
    12
  0
VERTEX
  5
24B
  8
0
 62
     9
 10
0.0
 20
0.0
 30
0.0
 70
   128
 71
    79
 72
    83
 73
    78
  0
VERTEX
  5
24C
  8
0
 62
     9
 10
0.0
 20
0.0
 30
0.0
 70
   128
 71
    86
 72
    68
 73
    55
  0
VERTEX
  5
24D
  8
0
 62
     9
 10
0.0
 20
0.0
 30
0.0
 70
   128
 71
    12
 72
    86
 73
    55
  0
VERTEX
  5
24E
  8
0
 62
     9
 10
0.0
 20
0.0
 30
0.0
 70
   128
 71
    80
 72
    86
 73
    12
  0
VERTEX
  5
24F
  8
0
 62
     9
 10
0.0
 20
0.0
 30
0.0
 70
   128
 71
    89
 72
    88
 73
    76
  0
VERTEX
  5
250
  8
0
 62
     9
 10
0.0
 20
0.0
 30
0.0
 70
   128
 71
     2
 72
    75
 73
    23
  0
VERTEX
  5
251
  8
0
 62
     9
 10
0.0
 20
0.0
 30
0.0
 70
   128
 71
    89
 72
    90
 73
    83
  0
VERTEX
  5
252
  8
0
 62
     9
 10
0.0
 20
0.0
 30
0.0
 70
   128
 71
    89
 72
    84
 73
    88
  0
VERTEX
  5
253
  8
0
 62
     9
 10
0.0
 20
0.0
 30
0.0
 70
   128
 71
    77
 72
    90
 73
    89
  0
VERTEX
  5
254
  8
0
 62
     9
 10
0.0
 20
0.0
 30
0.0
 70
   128
 71
    83
 72
    91
 73
    78
  0
VERTEX
  5
255
  8
0
 62
     9
 10
0.0
 20
0.0
 30
0.0
 70
   128
 71
    91
 72
    83
 73
    90
  0
VERTEX
  5
256
  8
0
 62
     9
 10
0.0
 20
0.0
 30
0.0
 70
   128
 71
    91
 72
    85
 73
    78
  0
VERTEX
  5
257
  8
0
 62
     9
 10
0.0
 20
0.0
 30
0.0
 70
   128
 71
    68
 72
    87
 73
    70
  0
VERTEX
  5
258
  8
0
 62
     9
 10
0.0
 20
0.0
 30
0.0
 70
   128
 71
    87
 72
    68
 73
    86
  0
VERTEX
  5
259
  8
0
 62
     9
 10
0.0
 20
0.0
 30
0.0
 70
   128
 71
    75
 72
    76
 73
    23
  0
VERTEX
  5
25A
  8
0
 62
     9
 10
0.0
 20
0.0
 30
0.0
 70
   128
 71
    75
 72
     2
 73
     3
  0
VERTEX
  5
25B
  8
0
 62
     9
 10
0.0
 20
0.0
 30
0.0
 70
   128
 71
    92
 72
    90
 73
    81
  0
VERTEX
  5
25C
  8
0
 62
     9
 10
0.0
 20
0.0
 30
0.0
 70
   128
 71
    77
 72
    89
 73
    76
  0
VERTEX
  5
25D
  8
0
 62
     9
 10
0.0
 20
0.0
 30
0.0
 70
   128
 71
    90
 72
    77
 73
    81
  0
VERTEX
  5
25E
  8
0
 62
     9
 10
0.0
 20
0.0
 30
0.0
 70
   128
 71
    93
 72
    91
 73
    92
  0
VERTEX
  5
25F
  8
0
 62
     9
 10
0.0
 20
0.0
 30
0.0
 70
   128
 71
    91
 72
    90
 73
    92
  0
VERTEX
  5
260
  8
0
 62
     9
 10
0.0
 20
0.0
 30
0.0
 70
   128
 71
    85
 72
    70
 73
    87
  0
VERTEX
  5
261
  8
0
 62
     9
 10
0.0
 20
0.0
 30
0.0
 70
   128
 71
    93
 72
    85
 73
    91
  0
VERTEX
  5
262
  8
0
 62
     9
 10
0.0
 20
0.0
 30
0.0
 70
   128
 71
    85
 72
    93
 73
    66
  0
SEQEND
  5
263
  8
0
 62
     9
  0
ENDBLK
  5
266
  8
0
  0
BLOCK
  8
0
  2
42
 70
     0
 10
0.0
 20
0.0
 30
0.0
  3
42
  1

  0
POLYLINE
  5
268
  8
0
 62
     9
 66
     1
 10
0.0
 20
0.0
 30
0.0
 70
    64
 71
    61
 72
   104
  0
VERTEX
  5
269
  8
0
 10
-4.373515605926514
 20
19.50287437438965
 30
112.0
 70
   192
  0
VERTEX
  5
26A
  8
0
 10
-12.40717792510986
 20
15.66786289215088
 30
112.0
 70
   192
  0
VERTEX
  5
26B
  8
0
 10
-8.904419898986816
 20
17.85677719116211
 30
95.55677795410156
 70
   192
  0
VERTEX
  5
26C
  8
0
 10
15.01352787017822
 20
12.83800506591797
 30
90.53800201416016
 70
   192
  0
VERTEX
  5
26D
  8
0
 10
12.50798416137695
 20
15.60052680969238
 30
112.0
 70
   192
  0
VERTEX
  5
26E
  8
0
 10
8.877838134765625
 20
17.94438362121582
 30
95.6443862915039
 70
   192
  0
VERTEX
  5
26F
  8
0
 10
4.516189098358154
 20
19.47447395324707
 30
112.0
 70
   192
  0
VERTEX
  5
270
  8
0
 10
18.03042793273926
 20
8.651915550231934
 30
112.0
 70
   192
  0
VERTEX
  5
271
  8
0
 10
18.72184562683105
 20
6.665004730224609
 30
84.36500549316406
 70
   192
  0
VERTEX
  5
272
  8
0
 10
20.0
 20
0.0000000000000094
 30
112.0
 70
   192
  0
VERTEX
  5
273
  8
0
 10
20.0
 20
0.0000000000000094
 30
77.69999694824219
 70
   192
  0
VERTEX
  5
274
  8
0
 10
-17.99002647399902
 20
8.712398529052734
 30
112.0
 70
   192
  0
VERTEX
  5
275
  8
0
 10
-15.25333309173584
 20
12.9150333404541
 30
90.61503601074219
 70
   192
  0
VERTEX
  5
276
  8
0
 10
-0.0000000000000009
 20
20.0
 30
97.69999694824219
 70
   192
  0
VERTEX
  5
277
  8
0
 10
-20.0
 20
0.0000000000000069
 30
112.0
 70
   192
  0
VERTEX
  5
278
  8
0
 10
-18.84000968933105
 20
6.670460224151611
 30
84.3704605102539
 70
   192
  0
VERTEX
  5
279
  8
0
 10
-20.0
 20
0.0000000000000069
 30
77.69999694824219
 70
   192
  0
VERTEX
  5
27A
  8
0
 10
15.25333309173584
 20
12.9150333404541
 30
64.78496551513672
 70
   192
  0
VERTEX
  5
27B
  8
0
 10
14.06356334686279
 20
14.08539390563965
 30
8.0
 70
   192
  0
VERTEX
  5
27C
  8
0
 10
18.46186256408691
 20
7.622251510620117
 30
8.0
 70
   192
  0
VERTEX
  5
27D
  8
0
 10
0.0000000000000018
 20
20.0
 30
57.70000076293945
 70
   192
  0
VERTEX
  5
27E
  8
0
 10
-7.627578258514404
 20
18.48857879638672
 30
8.0
 70
   192
  0
VERTEX
  5
27F
  8
0
 10
0.0000000000000062
 20
20.0
 30
8.0
 70
   192
  0
VERTEX
  5
280
  8
0
 10
20.0
 20
0.0000000000000094
 30
8.0
 70
   192
  0
VERTEX
  5
281
  8
0
 10
18.84000968933105
 20
6.670460224151611
 30
71.029541015625
 70
   192
  0
VERTEX
  5
282
  8
0
 10
8.904419898986816
 20
17.85677719116211
 30
59.84322357177734
 70
   192
  0
VERTEX
  5
283
  8
0
 10
7.673582553863525
 20
18.46924018859863
 30
8.0
 70
   192
  0
VERTEX
  5
284
  8
0
 10
-15.01352787017822
 20
12.83800506591797
 30
64.86199188232422
 70
   192
  0
VERTEX
  5
285
  8
0
 10
-14.13810253143311
 20
14.16079330444336
 30
8.0
 70
   192
  0
VERTEX
  5
286
  8
0
 10
-8.877838134765625
 20
17.94438362121582
 30
59.755615234375
 70
   192
  0
VERTEX
  5
287
  8
0
 10
-20.0
 20
0.0000000000000069
 30
8.0
 70
   192
  0
VERTEX
  5
288
  8
0
 10
-18.72184562683105
 20
6.665004730224609
 30
71.03499603271484
 70
   192
  0
VERTEX
  5
289
  8
0
 10
-18.27846145629883
 20
7.583127975463867
 30
8.0
 70
   192
  0
VERTEX
  5
28A
  8
0
 10
19.47447395324707
 20
48.0
 30
82.2161865234375
 70
   192
  0
VERTEX
  5
28B
  8
0
 10
15.60052680969238
 20
48.0
 30
90.2079849243164
 70
   192
  0
VERTEX
  5
28C
  8
0
 10
8.651915550231934
 20
48.0
 30
95.73043060302734
 70
   192
  0
VERTEX
  5
28D
  8
0
 10
0.0000000000000024
 20
48.0
 30
97.69999694824219
 70
   192
  0
VERTEX
  5
28E
  8
0
 10
19.50287437438965
 20
48.0
 30
73.32648468017578
 70
   192
  0
VERTEX
  5
28F
  8
0
 10
15.66786289215088
 20
48.0
 30
65.2928237915039
 70
   192
  0
VERTEX
  5
290
  8
0
 10
8.712398529052734
 20
48.0
 30
59.7099723815918
 70
   192
  0
VERTEX
  5
291
  8
0
 10
0.0
 20
48.0
 30
57.70000076293945
 70
   192
  0
VERTEX
  5
292
  8
0
 10
-7.583127975463867
 20
48.0
 30
59.42153930664062
 70
   192
  0
VERTEX
  5
293
  8
0
 10
-18.48857879638672
 20
48.0
 30
70.07241821289062
 70
   192
  0
VERTEX
  5
294
  8
0
 10
-14.16079330444336
 20
48.0
 30
63.56189727783203
 70
   192
  0
VERTEX
  5
295
  8
0
 10
-18.46924018859863
 20
48.0
 30
85.37358093261719
 70
   192
  0
VERTEX
  5
296
  8
0
 10
-14.08539390563965
 20
48.0
 30
91.76356506347656
 70
   192
  0
VERTEX
  5
297
  8
0
 10
-20.0
 20
48.0
 30
77.69999694824219
 70
   192
  0
VERTEX
  5
298
  8
0
 10
-7.622251510620117
 20
48.0
 30
96.161865234375
 70
   192
  0
VERTEX
  5
299
  8
0
 10
18.27846145629883
 20
-7.583127975463867
 30
8.0
 70
   192
  0
VERTEX
  5
29A
  8
0
 10
17.99002647399902
 20
-8.712398529052734
 30
112.0
 70
   192
  0
VERTEX
  5
29B
  8
0
 10
-7.673582553863525
 20
-18.46924018859863
 30
8.0
 70
   192
  0
VERTEX
  5
29C
  8
0
 10
-4.516189098358154
 20
-19.47447395324707
 30
112.0
 70
   192
  0
VERTEX
  5
29D
  8
0
 10
0.0000000000000044
 20
-20.0
 30
8.0
 70
   192
  0
VERTEX
  5
29E
  8
0
 10
4.373515605926514
 20
-19.50287437438965
 30
112.0
 70
   192
  0
VERTEX
  5
29F
  8
0
 10
12.40717792510986
 20
-15.66786289215088
 30
112.0
 70
   192
  0
VERTEX
  5
2A0
  8
0
 10
7.627578258514404
 20
-18.48857879638672
 30
8.0
 70
   192
  0
VERTEX
  5
2A1
  8
0
 10
-18.46186256408691
 20
-7.622251510620117
 30
8.0
 70
   192
  0
VERTEX
  5
2A2
  8
0
 10
-18.03042793273926
 20
-8.651915550231934
 30
112.0
 70
   192
  0
VERTEX
  5
2A3
  8
0
 10
-14.06356334686279
 20
-14.08539390563965
 30
8.0
 70
   192
  0
VERTEX
  5
2A4
  8
0
 10
-12.50798416137695
 20
-15.60052680969238
 30
112.0
 70
   192
  0
VERTEX
  5
2A5
  8
0
 10
14.13810253143311
 20
-14.16079330444336
 30
8.0
 70
   192
  0
VERTEX
  5
2A6
  8
0
 62
     9
 10
0.0
 20
0.0
 30
0.0
 70
   128
 71
     3
 72
     2
 73
     1
  0
VERTEX
  5
2A7
  8
0
 62
     9
 10
0.0
 20
0.0
 30
0.0
 70
   128
 71
     6
 72
     5
 73
     4
  0
VERTEX
  5
2A8
  8
0
 62
     9
 10
0.0
 20
0.0
 30
0.0
 70
   128
 71
     7
 72
     5
 73
     6
  0
VERTEX
  5
2A9
  8
0
 62
     9
 10
0.0
 20
0.0
 30
0.0
 70
   128
 71
     9
 72
     4
 73
     8
  0
VERTEX
  5
2AA
  8
0
 62
     9
 10
0.0
 20
0.0
 30
0.0
 70
   128
 71
     5
 72
     8
 73
     4
  0
VERTEX
  5
2AB
  8
0
 62
     9
 10
0.0
 20
0.0
 30
0.0
 70
   128
 71
     9
 72
     8
 73
    10
  0
VERTEX
  5
2AC
  8
0
 62
     9
 10
0.0
 20
0.0
 30
0.0
 70
   128
 71
    11
 72
     9
 73
    10
  0
VERTEX
  5
2AD
  8
0
 62
     9
 10
0.0
 20
0.0
 30
0.0
 70
   128
 71
     2
 72
    13
 73
    12
  0
VERTEX
  5
2AE
  8
0
 62
     9
 10
0.0
 20
0.0
 30
0.0
 70
   128
 71
    14
 72
     1
 73
     7
  0
VERTEX
  5
2AF
  8
0
 62
     9
 10
0.0
 20
0.0
 30
0.0
 70
   128
 71
     7
 72
     6
 73
    14
  0
VERTEX
  5
2B0
  8
0
 62
     9
 10
0.0
 20
0.0
 30
0.0
 70
   128
 71
     3
 72
     1
 73
    14
  0
VERTEX
  5
2B1
  8
0
 62
     9
 10
0.0
 20
0.0
 30
0.0
 70
   128
 71
     2
 72
     3
 73
    13
  0
VERTEX
  5
2B2
  8
0
 62
     9
 10
0.0
 20
0.0
 30
0.0
 70
   128
 71
    12
 72
    16
 73
    15
  0
VERTEX
  5
2B3
  8
0
 62
     9
 10
0.0
 20
0.0
 30
0.0
 70
   128
 71
    16
 72
    12
 73
    13
  0
VERTEX
  5
2B4
  8
0
 62
     9
 10
0.0
 20
0.0
 30
0.0
 70
   128
 71
    16
 72
    17
 73
    15
  0
VERTEX
  5
2B5
  8
0
 62
     9
 10
0.0
 20
0.0
 30
0.0
 70
   128
 71
    20
 72
    19
 73
    18
  0
VERTEX
  5
2B6
  8
0
 62
     9
 10
0.0
 20
0.0
 30
0.0
 70
   128
 71
    23
 72
    22
 73
    21
  0
VERTEX
  5
2B7
  8
0
 62
     9
 10
0.0
 20
0.0
 30
0.0
 70
   128
 71
    25
 72
    11
 73
    24
  0
VERTEX
  5
2B8
  8
0
 62
     9
 10
0.0
 20
0.0
 30
0.0
 70
   128
 71
    20
 72
    18
 73
    25
  0
VERTEX
  5
2B9
  8
0
 62
     9
 10
0.0
 20
0.0
 30
0.0
 70
   128
 71
    25
 72
    24
 73
    20
  0
VERTEX
  5
2BA
  8
0
 62
     9
 10
0.0
 20
0.0
 30
0.0
 70
   128
 71
    19
 72
    26
 73
    18
  0
VERTEX
  5
2BB
  8
0
 62
     9
 10
0.0
 20
0.0
 30
0.0
 70
   128
 71
    26
 72
    27
 73
    21
  0
VERTEX
  5
2BC
  8
0
 62
     9
 10
0.0
 20
0.0
 30
0.0
 70
   128
 71
    27
 72
    26
 73
    19
  0
VERTEX
  5
2BD
  8
0
 62
     9
 10
0.0
 20
0.0
 30
0.0
 70
   128
 71
    30
 72
    29
 73
    28
  0
VERTEX
  5
2BE
  8
0
 62
     9
 10
0.0
 20
0.0
 30
0.0
 70
   128
 71
    27
 72
    23
 73
    21
  0
VERTEX
  5
2BF
  8
0
 62
     9
 10
0.0
 20
0.0
 30
0.0
 70
   128
 71
    17
 72
    32
 73
    31
  0
VERTEX
  5
2C0
  8
0
 62
     9
 10
0.0
 20
0.0
 30
0.0
 70
   128
 71
    33
 72
    31
 73
    32
  0
VERTEX
  5
2C1
  8
0
 62
     9
 10
0.0
 20
0.0
 30
0.0
 70
   128
 71
    33
 72
    32
 73
    28
  0
VERTEX
  5
2C2
  8
0
 62
     9
 10
0.0
 20
0.0
 30
0.0
 70
   128
 71
    30
 72
    22
 73
    29
  0
VERTEX
  5
2C3
  8
0
 62
     9
 10
0.0
 20
0.0
 30
0.0
 70
   128
 71
    28
 72
    29
 73
    33
  0
VERTEX
  5
2C4
  8
0
 62
     9
 10
0.0
 20
0.0
 30
0.0
 70
   128
 71
    22
 72
    30
 73
    21
  0
VERTEX
  5
2C5
  8
0
 62
     9
 10
0.0
 20
0.0
 30
0.0
 70
   128
 71
    34
 72
     9
 73
    11
  0
VERTEX
  5
2C6
  8
0
 62
     9
 10
0.0
 20
0.0
 30
0.0
 70
   128
 71
     9
 72
    35
 73
     4
  0
VERTEX
  5
2C7
  8
0
 62
     9
 10
0.0
 20
0.0
 30
0.0
 70
   128
 71
    35
 72
     9
 73
    34
  0
VERTEX
  5
2C8
  8
0
 62
     9
 10
0.0
 20
0.0
 30
0.0
 70
   128
 71
    36
 72
     6
 73
    35
  0
VERTEX
  5
2C9
  8
0
 62
     9
 10
0.0
 20
0.0
 30
0.0
 70
   128
 71
     4
 72
    35
 73
     6
  0
VERTEX
  5
2CA
  8
0
 62
     9
 10
0.0
 20
0.0
 30
0.0
 70
   128
 71
    14
 72
     6
 73
    36
  0
VERTEX
  5
2CB
  8
0
 62
     9
 10
0.0
 20
0.0
 30
0.0
 70
   128
 71
    37
 72
    14
 73
    36
  0
VERTEX
  5
2CC
  8
0
 62
     9
 10
0.0
 20
0.0
 30
0.0
 70
   128
 71
    11
 72
    38
 73
    34
  0
VERTEX
  5
2CD
  8
0
 62
     9
 10
0.0
 20
0.0
 30
0.0
 70
   128
 71
    39
 72
    38
 73
    25
  0
VERTEX
  5
2CE
  8
0
 62
     9
 10
0.0
 20
0.0
 30
0.0
 70
   128
 71
    11
 72
    25
 73
    38
  0
VERTEX
  5
2CF
  8
0
 62
     9
 10
0.0
 20
0.0
 30
0.0
 70
   128
 71
    18
 72
    40
 73
    39
  0
VERTEX
  5
2D0
  8
0
 62
     9
 10
0.0
 20
0.0
 30
0.0
 70
   128
 71
    39
 72
    25
 73
    18
  0
VERTEX
  5
2D1
  8
0
 62
     9
 10
0.0
 20
0.0
 30
0.0
 70
   128
 71
    26
 72
    21
 73
    40
  0
VERTEX
  5
2D2
  8
0
 62
     9
 10
0.0
 20
0.0
 30
0.0
 70
   128
 71
    26
 72
    40
 73
    18
  0
VERTEX
  5
2D3
  8
0
 62
     9
 10
0.0
 20
0.0
 30
0.0
 70
   128
 71
    21
 72
    41
 73
    40
  0
VERTEX
  5
2D4
  8
0
 62
     9
 10
0.0
 20
0.0
 30
0.0
 70
   128
 71
    44
 72
    43
 73
    42
  0
VERTEX
  5
2D5
  8
0
 62
     9
 10
0.0
 20
0.0
 30
0.0
 70
   128
 71
    46
 72
    40
 73
    45
  0
VERTEX
  5
2D6
  8
0
 62
     9
 10
0.0
 20
0.0
 30
0.0
 70
   128
 71
    43
 72
    47
 73
    42
  0
VERTEX
  5
2D7
  8
0
 62
     9
 10
0.0
 20
0.0
 30
0.0
 70
   128
 71
    45
 72
    40
 73
    47
  0
VERTEX
  5
2D8
  8
0
 62
     9
 10
0.0
 20
0.0
 30
0.0
 70
   128
 71
    41
 72
    42
 73
    47
  0
VERTEX
  5
2D9
  8
0
 62
     9
 10
0.0
 20
0.0
 30
0.0
 70
   128
 71
    38
 72
    48
 73
    37
  0
VERTEX
  5
2DA
  8
0
 62
     9
 10
0.0
 20
0.0
 30
0.0
 70
   128
 71
    40
 72
    46
 73
    39
  0
VERTEX
  5
2DB
  8
0
 62
     9
 10
0.0
 20
0.0
 30
0.0
 70
   128
 71
    34
 72
    36
 73
    35
  0
VERTEX
  5
2DC
  8
0
 62
     9
 10
0.0
 20
0.0
 30
0.0
 70
   128
 71
    38
 72
    37
 73
    34
  0
VERTEX
  5
2DD
  8
0
 62
     9
 10
0.0
 20
0.0
 30
0.0
 70
   128
 71
    36
 72
    34
 73
    37
  0
VERTEX
  5
2DE
  8
0
 62
     9
 10
0.0
 20
0.0
 30
0.0
 70
   128
 71
    39
 72
    46
 73
    48
  0
VERTEX
  5
2DF
  8
0
 62
     9
 10
0.0
 20
0.0
 30
0.0
 70
   128
 71
    38
 72
    39
 73
    48
  0
VERTEX
  5
2E0
  8
0
 62
     9
 10
0.0
 20
0.0
 30
0.0
 70
   128
 71
    41
 72
    47
 73
    40
  0
VERTEX
  5
2E1
  8
0
 62
     9
 10
0.0
 20
0.0
 30
0.0
 70
   128
 71
    14
 72
    37
 73
    48
  0
VERTEX
  5
2E2
  8
0
 62
     9
 10
0.0
 20
0.0
 30
0.0
 70
   128
 71
    17
 72
    47
 73
    32
  0
VERTEX
  5
2E3
  8
0
 62
     9
 10
0.0
 20
0.0
 30
0.0
 70
   128
 71
    13
 72
    45
 73
    16
  0
VERTEX
  5
2E4
  8
0
 62
     9
 10
0.0
 20
0.0
 30
0.0
 70
   128
 71
    28
 72
    44
 73
    30
  0
VERTEX
  5
2E5
  8
0
 62
     9
 10
0.0
 20
0.0
 30
0.0
 70
   128
 71
    43
 72
    28
 73
    32
  0
VERTEX
  5
2E6
  8
0
 62
     9
 10
0.0
 20
0.0
 30
0.0
 70
   128
 71
    21
 72
    30
 73
    42
  0
VERTEX
  5
2E7
  8
0
 62
     9
 10
0.0
 20
0.0
 30
0.0
 70
   128
 71
    44
 72
    42
 73
    30
  0
VERTEX
  5
2E8
  8
0
 62
     9
 10
0.0
 20
0.0
 30
0.0
 70
   128
 71
    21
 72
    42
 73
    41
  0
VERTEX
  5
2E9
  8
0
 62
     9
 10
0.0
 20
0.0
 30
0.0
 70
   128
 71
    28
 72
    43
 73
    44
  0
VERTEX
  5
2EA
  8
0
 62
     9
 10
0.0
 20
0.0
 30
0.0
 70
   128
 71
    32
 72
    47
 73
    43
  0
VERTEX
  5
2EB
  8
0
 62
     9
 10
0.0
 20
0.0
 30
0.0
 70
   128
 71
    45
 72
    47
 73
    16
  0
VERTEX
  5
2EC
  8
0
 62
     9
 10
0.0
 20
0.0
 30
0.0
 70
   128
 71
    16
 72
    47
 73
    17
  0
VERTEX
  5
2ED
  8
0
 62
     9
 10
0.0
 20
0.0
 30
0.0
 70
   128
 71
    45
 72
    13
 73
    46
  0
VERTEX
  5
2EE
  8
0
 62
     9
 10
0.0
 20
0.0
 30
0.0
 70
   128
 71
    46
 72
     3
 73
    48
  0
VERTEX
  5
2EF
  8
0
 62
     9
 10
0.0
 20
0.0
 30
0.0
 70
   128
 71
     3
 72
    46
 73
    13
  0
VERTEX
  5
2F0
  8
0
 62
     9
 10
0.0
 20
0.0
 30
0.0
 70
   128
 71
    48
 72
     3
 73
    14
  0
VERTEX
  5
2F1
  8
0
 62
     9
 10
0.0
 20
0.0
 30
0.0
 70
   128
 71
    10
 72
    49
 73
    11
  0
VERTEX
  5
2F2
  8
0
 62
     9
 10
0.0
 20
0.0
 30
0.0
 70
   128
 71
    50
 72
    49
 73
    10
  0
VERTEX
  5
2F3
  8
0
 62
     9
 10
0.0
 20
0.0
 30
0.0
 70
   128
 71
    53
 72
    52
 73
    51
  0
VERTEX
  5
2F4
  8
0
 62
     9
 10
0.0
 20
0.0
 30
0.0
 70
   128
 71
    56
 72
    55
 73
    54
  0
VERTEX
  5
2F5
  8
0
 62
     9
 10
0.0
 20
0.0
 30
0.0
 70
   128
 71
    59
 72
    58
 73
    57
  0
VERTEX
  5
2F6
  8
0
 62
     9
 10
0.0
 20
0.0
 30
0.0
 70
   128
 71
    60
 72
    59
 73
    51
  0
VERTEX
  5
2F7
  8
0
 62
     9
 10
0.0
 20
0.0
 30
0.0
 70
   128
 71
    17
 72
    57
 73
    15
  0
VERTEX
  5
2F8
  8
0
 62
     9
 10
0.0
 20
0.0
 30
0.0
 70
   128
 71
    57
 72
    17
 73
    31
  0
VERTEX
  5
2F9
  8
0
 62
     9
 10
0.0
 20
0.0
 30
0.0
 70
   128
 71
    15
 72
    57
 73
    58
  0
VERTEX
  5
2FA
  8
0
 62
     9
 10
0.0
 20
0.0
 30
0.0
 70
   128
 71
    52
 72
    60
 73
    51
  0
VERTEX
  5
2FB
  8
0
 62
     9
 10
0.0
 20
0.0
 30
0.0
 70
   128
 71
    60
 72
    58
 73
    59
  0
VERTEX
  5
2FC
  8
0
 62
     9
 10
0.0
 20
0.0
 30
0.0
 70
   128
 71
    56
 72
    54
 73
    53
  0
VERTEX
  5
2FD
  8
0
 62
     9
 10
0.0
 20
0.0
 30
0.0
 70
   128
 71
    54
 72
    52
 73
    53
  0
VERTEX
  5
2FE
  8
0
 62
     9
 10
0.0
 20
0.0
 30
0.0
 70
   128
 71
    61
 72
    50
 73
    55
  0
VERTEX
  5
2FF
  8
0
 62
     9
 10
0.0
 20
0.0
 30
0.0
 70
   128
 71
    61
 72
    55
 73
    56
  0
VERTEX
  5
300
  8
0
 62
     9
 10
0.0
 20
0.0
 30
0.0
 70
   128
 71
    49
 72
    24
 73
    11
  0
VERTEX
  5
301
  8
0
 62
     9
 10
0.0
 20
0.0
 30
0.0
 70
   128
 71
    61
 72
    49
 73
    50
  0
VERTEX
  5
302
  8
0
 62
     9
 10
0.0
 20
0.0
 30
0.0
 70
   128
 71
    15
 72
     7
 73
     1
  0
VERTEX
  5
303
  8
0
 62
     9
 10
0.0
 20
0.0
 30
0.0
 70
   128
 71
    58
 72
     7
 73
    15
  0
VERTEX
  5
304
  8
0
 62
     9
 10
0.0
 20
0.0
 30
0.0
 70
   128
 71
    12
 72
    15
 73
     1
  0
VERTEX
  5
305
  8
0
 62
     9
 10
0.0
 20
0.0
 30
0.0
 70
   128
 71
    12
 72
     1
 73
     2
  0
VERTEX
  5
306
  8
0
 62
     9
 10
0.0
 20
0.0
 30
0.0
 70
   128
 71
     5
 72
     7
 73
    58
  0
VERTEX
  5
307
  8
0
 62
     9
 10
0.0
 20
0.0
 30
0.0
 70
   128
 71
    58
 72
    60
 73
     5
  0
VERTEX
  5
308
  8
0
 62
     9
 10
0.0
 20
0.0
 30
0.0
 70
   128
 71
    52
 72
     8
 73
    60
  0
VERTEX
  5
309
  8
0
 62
     9
 10
0.0
 20
0.0
 30
0.0
 70
   128
 71
     5
 72
    60
 73
     8
  0
VERTEX
  5
30A
  8
0
 62
     9
 10
0.0
 20
0.0
 30
0.0
 70
   128
 71
    52
 72
    10
 73
     8
  0
VERTEX
  5
30B
  8
0
 62
     9
 10
0.0
 20
0.0
 30
0.0
 70
   128
 71
    54
 72
    55
 73
    50
  0
VERTEX
  5
30C
  8
0
 62
     9
 10
0.0
 20
0.0
 30
0.0
 70
   128
 71
    52
 72
    54
 73
    10
  0
VERTEX
  5
30D
  8
0
 62
     9
 10
0.0
 20
0.0
 30
0.0
 70
   128
 71
    50
 72
    10
 73
    54
  0
SEQEND
  5
30E
  8
0
 62
     9
  0
ENDBLK
  5
311
  8
0
  0
ENDSEC
  0
SECTION
  2
ENTITIES
  0
INSERT
  5
52
  8
LAYER_1
  2
38
 10
0.0
 20
0.0
 30
0.0
  0
INSERT
  5
D1
  8
LAYER_1
  2
39
 10
0.0
 20
0.0
 30
0.0
  0
INSERT
  5
15D
  8
LAYER_1
  2
40
 10
0.0
 20
0.0
 30
0.0
  0
INSERT
  5
264
  8
LAYER_1
  2
41
 10
0.0
 20
0.0
 30
0.0
  0
INSERT
  5
30F
  8
LAYER_1
  2
42
 10
0.0
 20
0.0
 30
0.0
  0
ENDSEC
  0
EOF
