  0
SECTION
  2
HEADER
  9
$ACADVER
  1
AC1015
  9
$ACADMAINTVER
 70
     6
  9
$DWGCODEPAGE
  3
ANSI_1252
  9
$INSBASE
 10
0.0
 20
0.0
 30
0.0
  9
$EXTMIN
 10
0.0
 20
0.0
 30
0.0
  9
$EXTMAX
 10
1682.0
 20
2378.0
 30
0.0
  9
$LIMMIN
 10
0.0
 20
0.0
  9
$LIMMAX
 10
1682.0
 20
2378.0
  9
$ORTHOMODE
 70
     0
  9
$REGENMODE
 70
     1
  9
$FILLMODE
 70
     1
  9
$QTEXTMODE
 70
     0
  9
$MIRRTEXT
 70
     1
  9
$LTSCALE
 40
1.0
  9
$ATTMODE
 70
     1
  9
$TEXTSIZE
 40
2.5
  9
$TRACEWID
 40
1.0
  9
$TEXTSTYLE
  7
Standard
  9
$CLAYER
  8
0
  9
$CELTYPE
  6
ByLayer
  9
$CECOLOR
 62
   256
  9
$CELTSCALE
 40
1.0
  9
$DISPSILH
 70
     0
  9
$DIMSCALE
 40
1.0
  9
$DIMASZ
 40
2.5
  9
$DIMEXO
 40
0.625
  9
$DIMDLI
 40
3.75
  9
$DIMRND
 40
0.0
  9
$DIMDLE
 40
0.0
  9
$DIMEXE
 40
1.25
  9
$DIMTP
 40
0.0
  9
$DIMTM
 40
0.0
  9
$DIMTXT
 40
2.5
  9
$DIMCEN
 40
2.5
  9
$DIMTSZ
 40
0.0
  9
$DIMTOL
 70
     0
  9
$DIMLIM
 70
     0
  9
$DIMTIH
 70
     0
  9
$DIMTOH
 70
     0
  9
$DIMSE1
 70
     0
  9
$DIMSE2
 70
     0
  9
$DIMTAD
 70
     1
  9
$DIMZIN
 70
     8
  9
$DIMBLK
  1

  9
$DIMASO
 70
     1
  9
$DIMSHO
 70
     1
  9
$DIMPOST
  1

  9
$DIMAPOST
  1

  9
$DIMALT
 70
     0
  9
$DIMALTD
 70
     3
  9
$DIMALTF
 40
0.0393700787
  9
$DIMLFAC
 40
1.0
  9
$DIMTOFL
 70
     1
  9
$DIMTVP
 40
0.0
  9
$DIMTIX
 70
     0
  9
$DIMSOXD
 70
     0
  9
$DIMSAH
 70
     0
  9
$DIMBLK1
  1

  9
$DIMBLK2
  1

  9
$DIMSTYLE
  2
ISO-25
  9
$DIMCLRD
 70
     0
  9
$DIMCLRE
 70
     0
  9
$DIMCLRT
 70
     0
  9
$DIMTFAC
 40
1.0
  9
$DIMGAP
 40
0.625
  9
$DIMJUST
 70
     0
  9
$DIMSD1
 70
     0
  9
$DIMSD2
 70
     0
  9
$DIMTOLJ
 70
     0
  9
$DIMTZIN
 70
     8
  9
$DIMALTZ
 70
     0
  9
$DIMALTTZ
 70
     0
  9
$DIMUPT
 70
     0
  9
$DIMDEC
 70
     2
  9
$DIMTDEC
 70
     2
  9
$DIMALTU
 70
     2
  9
$DIMALTTD
 70
     3
  9
$DIMTXSTY
  7
Standard
  9
$DIMAUNIT
 70
     0
  9
$DIMADEC
 70
     0
  9
$DIMALTRND
 40
0.0
  9
$DIMAZIN
 70
     0
  9
$DIMDSEP
 70
    44
  9
$DIMATFIT
 70
     3
  9
$DIMFRAC
 70
     0
  9
$DIMLDRBLK
  1

  9
$DIMLUNIT
 70
     2
  9
$DIMLWD
 70
    -2
  9
$DIMLWE
 70
    -2
  9
$DIMTMOVE
 70
     0
  9
$LUNITS
 70
     2
  9
$LUPREC
 70
     4
  9
$SKETCHINC
 40
1.0
  9
$FILLETRAD
 40
10.0
  9
$AUNITS
 70
     0
  9
$AUPREC
 70
     0
  9
$MENU
  1
.
  9
$ELEVATION
 40
0.0
  9
$PELEVATION
 40
0.0
  9
$THICKNESS
 40
0.0
  9
$LIMCHECK
 70
     0
  9
$CHAMFERA
 40
10.0
  9
$CHAMFERB
 40
10.0
  9
$CHAMFERC
 40
20.0
  9
$CHAMFERD
 40
0.0
  9
$SKPOLY
 70
     0
  9
$TDCREATE
 40
2455980.453961967
  9
$TDUCREATE
 40
2455980.412295301
  9
$TDUPDATE
 40
2455980.453961979
  9
$TDUUPDATE
 40
2455980.412295313
  9
$TDINDWG
 40
0.0000000116
  9
$TDUSRTIMER
 40
0.0000000116
  9
$USRTIMER
 70
     1
  9
$ANGBASE
 50
0.0
  9
$ANGDIR
 70
     0
  9
$PDMODE
 70
     0
  9
$PDSIZE
 40
0.0
  9
$PLINEWID
 40
0.0
  9
$SPLFRAME
 70
     0
  9
$SPLINETYPE
 70
     6
  9
$SPLINESEGS
 70
     8
  9
$HANDSEED
  5
25C
  9
$SURFTAB1
 70
     6
  9
$SURFTAB2
 70
     6
  9
$SURFTYPE
 70
     6
  9
$SURFU
 70
     6
  9
$SURFV
 70
     6
  9
$UCSBASE
  2

  9
$UCSNAME
  2

  9
$UCSORG
 10
0.0
 20
0.0
 30
0.0
  9
$UCSXDIR
 10
1.0
 20
0.0
 30
0.0
  9
$UCSYDIR
 10
0.0
 20
1.0
 30
0.0
  9
$UCSORTHOREF
  2

  9
$UCSORTHOVIEW
 70
     0
  9
$UCSORGTOP
 10
0.0
 20
0.0
 30
0.0
  9
$UCSORGBOTTOM
 10
0.0
 20
0.0
 30
0.0
  9
$UCSORGLEFT
 10
0.0
 20
0.0
 30
0.0
  9
$UCSORGRIGHT
 10
0.0
 20
0.0
 30
0.0
  9
$UCSORGFRONT
 10
0.0
 20
0.0
 30
0.0
  9
$UCSORGBACK
 10
0.0
 20
0.0
 30
0.0
  9
$PUCSBASE
  2

  9
$PUCSNAME
  2

  9
$PUCSORG
 10
0.0
 20
0.0
 30
0.0
  9
$PUCSXDIR
 10
1.0
 20
0.0
 30
0.0
  9
$PUCSYDIR
 10
0.0
 20
1.0
 30
0.0
  9
$PUCSORTHOREF
  2

  9
$PUCSORTHOVIEW
 70
     0
  9
$PUCSORGTOP
 10
0.0
 20
0.0
 30
0.0
  9
$PUCSORGBOTTOM
 10
0.0
 20
0.0
 30
0.0
  9
$PUCSORGLEFT
 10
0.0
 20
0.0
 30
0.0
  9
$PUCSORGRIGHT
 10
0.0
 20
0.0
 30
0.0
  9
$PUCSORGFRONT
 10
0.0
 20
0.0
 30
0.0
  9
$PUCSORGBACK
 10
0.0
 20
0.0
 30
0.0
  9
$USERI1
 70
     0
  9
$USERI2
 70
     0
  9
$USERI3
 70
     0
  9
$USERI4
 70
     0
  9
$USERI5
 70
     0
  9
$USERR1
 40
0.0
  9
$USERR2
 40
0.0
  9
$USERR3
 40
0.0
  9
$USERR4
 40
0.0
  9
$USERR5
 40
0.0
  9
$WORLDVIEW
 70
     1
  9
$SHADEDGE
 70
     3
  9
$SHADEDIF
 70
    70
  9
$TILEMODE
 70
     1
  9
$MAXACTVP
 70
    64
  9
$PINSBASE
 10
0.0
 20
0.0
 30
0.0
  9
$PLIMCHECK
 70
     0
  9
$PEXTMIN
 10
0.0
 20
0.0
 30
0.0
  9
$PEXTMAX
 10
1682.0
 20
2378.0
 30
0.0
  9
$PLIMMIN
 10
0.0
 20
0.0
  9
$PLIMMAX
 10
1682.0
 20
2378.0
  9
$UNITMODE
 70
     0
  9
$VISRETAIN
 70
     1
  9
$PLINEGEN
 70
     0
  9
$PSLTSCALE
 70
     1
  9
$TREEDEPTH
 70
  3020
  9
$CMLSTYLE
  2
Standard
  9
$CMLJUST
 70
     0
  9
$CMLSCALE
 40
20.0
  9
$PROXYGRAPHICS
 70
     1
  9
$MEASUREMENT
 70
     1
  9
$CELWEIGHT
370
    -1
  9
$ENDCAPS
280
     0
  9
$JOINSTYLE
280
     0
  9
$LWDISPLAY
290
     0
  9
$INSUNITS
 70
     4
  9
$HYPERLINKBASE
  1

  9
$STYLESHEET
  1

  9
$XEDIT
290
     1
  9
$CEPSNTYPE
380
     0
  9
$PSTYLEMODE
290
     1
  9
$FINGERPRINTGUID
  2
{6696CFFF-F091-430F-AD93-A32F9F18E671}
  9
$VERSIONGUID
  2
{FAEB1C32-E019-11D5-929B-00C0DF256EC4}
  9
$EXTNAMES
290
     1
  9
$PSVPSCALE
 40
0.0
  9
$OLESTARTUP
290
     0
  0
ENDSEC
  0
SECTION
  2
CLASSES
  0
CLASS
  1
ACDBDICTIONARYWDFLT
  2
AcDbDictionaryWithDefault
  3
ObjectDBX Classes
 90
        0
280
     0
281
     0
  0
CLASS
  1
VISUALSTYLE
  2
AcDbVisualStyle
  3
ObjectDBX Classes
 90
     4095
280
     0
281
     0
  0
CLASS
  1
SCALE
  2
AcDbScale
  3
ObjectDBX Classes
 90
     1153
280
     0
281
     0
  0
CLASS
  1
DICTIONARYVAR
  2
AcDbDictionaryVar
  3
ObjectDBX Classes
 90
        0
280
     0
281
     0
  0
CLASS
  1
ACDBPLACEHOLDER
  2
AcDbPlaceHolder
  3
ObjectDBX Classes
 90
        0
280
     0
281
     0
  0
CLASS
  1
LAYOUT
  2
AcDbLayout
  3
ObjectDBX Classes
 90
        0
280
     0
281
     0
  0
ENDSEC
  0
SECTION
  2
TABLES
  0
TABLE
  2
VPORT
  5
8
330
0
100
AcDbSymbolTable
 70
     1
  0
VPORT
  5
29
330
8
100
AcDbSymbolTableRecord
100
AcDbViewportTableRecord
  2
*Active
 70
     0
 10
0.0
 20
0.0
 11
1.0
 21
1.0
 12
344.1869158879
 22
148.5
 13
0.0
 23
0.0
 14
10.0
 24
10.0
 15
10.0
 25
10.0
 16
0.0
 26
0.0
 36
1.0
 17
0.0
 27
0.0
 37
0.0
 40
297.0
 41
1.9729729729
 42
50.0
 43
0.0
 44
0.0
 50
0.0
 51
0.0
 71
     0
 72
   100
 73
     1
 74
     3
 75
     0
 76
     0
 77
     0
 78
     0
281
     0
 65
     1
110
0.0
120
0.0
130
0.0
111
1.0
121
0.0
131
0.0
112
0.0
122
1.0
132
0.0
 79
     0
146
0.0
  0
ENDTAB
  0
TABLE
  2
LTYPE
  5
5
330
0
100
AcDbSymbolTable
 70
     2
  0
LTYPE
  5
14
330
5
100
AcDbSymbolTableRecord
100
AcDbLinetypeTableRecord
  2
ByBlock
 70
     0
  3

 72
    65
 73
     0
 40
0.0
  0
LTYPE
  5
15
330
5
100
AcDbSymbolTableRecord
100
AcDbLinetypeTableRecord
  2
ByLayer
 70
     0
  3

 72
    65
 73
     0
 40
0.0
  0
LTYPE
  5
16
330
5
100
AcDbSymbolTableRecord
100
AcDbLinetypeTableRecord
  2
Continuous
 70
     0
  3
Solid line
 72
    65
 73
     0
 40
0.0
  0
LTYPE
  5
60
330
5
100
AcDbSymbolTableRecord
100
AcDbLinetypeTableRecord
  2
CENTER2
 70
     0
  3
Center (.5x) ___ _ ___ _ ___ _ ___ _ ___ _ ___
 72
    65
 73
     4
 40
28.575
 49
19.05
 74
     4
 75
     0
340
0
 46
0.0
 50
0.0
 44
0.0
 45
0.0
 49
-3.175
 74
     4
 75
     0
340
0
 46
0.0
 50
0.0
 44
0.0
 45
0.0
 49
3.175
 74
     4
 75
     0
340
0
 46
0.0
 50
0.0
 44
0.0
 45
0.0
 49
-3.175
 74
     4
 75
     0
340
0
 46
0.0
 50
0.0
 44
0.0
 45
0.0
  0
ENDTAB
  0
TABLE
  2
LAYER
  5
2
330
0
100
AcDbSymbolTable
 70
    12
  0
LAYER
  5
10
330
2
100
AcDbSymbolTableRecord
100
AcDbLayerTableRecord
  2
0
 70
     0
 62
     7
  6
Continuous
370
    -3
390
F
  0
LAYER
  5
5D
330
2
100
AcDbSymbolTableRecord
100
AcDbLayerTableRecord
  2
Default
 70
     0
 62
     7
  6
Continuous
370
    -3
390
F
  0
LAYER
  5
75
330
2
100
AcDbSymbolTableRecord
100
AcDbLayerTableRecord
  2
$DDT_AUDIT_GENERATED_(75)
 70
     0
 62
     7
  6
Continuous
370
    -3
390
F
  0
LAYER
  5
A7
330
2
100
AcDbSymbolTableRecord
100
AcDbLayerTableRecord
  2
$DDT_AUDIT_GENERATED_(A7)
 70
     0
 62
     7
  6
Continuous
370
    -3
390
F
  0
LAYER
  5
A9
330
2
100
AcDbSymbolTableRecord
100
AcDbLayerTableRecord
  2
$DDT_AUDIT_GENERATED_(A9)
 70
     0
 62
     7
  6
Continuous
370
    -3
390
F
  0
LAYER
  5
CE
330
2
100
AcDbSymbolTableRecord
100
AcDbLayerTableRecord
  2
$DDT_AUDIT_GENERATED_(CE)
 70
     0
 62
     7
  6
Continuous
370
    -3
390
F
  0
LAYER
  5
D3
330
2
100
AcDbSymbolTableRecord
100
AcDbLayerTableRecord
  2
$DDT_AUDIT_GENERATED_(D3)
 70
     0
 62
     7
  6
Continuous
370
    -3
390
F
  0
LAYER
  5
F5
330
2
100
AcDbSymbolTableRecord
100
AcDbLayerTableRecord
  2
$DDT_AUDIT_GENERATED_(F5)
 70
     0
 62
     7
  6
Continuous
370
    -3
390
F
  0
LAYER
  5
10B
330
2
100
AcDbSymbolTableRecord
100
AcDbLayerTableRecord
  2
$DDT_AUDIT_GENERATED_(10B)
 70
     0
 62
     7
  6
Continuous
370
    -3
390
F
  0
LAYER
  5
1A5
330
2
100
AcDbSymbolTableRecord
100
AcDbLayerTableRecord
  2
$DDT_AUDIT_GENERATED_(1A5)
 70
     0
 62
     7
  6
Continuous
370
    -3
390
F
  0
LAYER
  5
1AB
330
2
100
AcDbSymbolTableRecord
100
AcDbLayerTableRecord
  2
$DDT_AUDIT_GENERATED_(1AB)
 70
     0
 62
     7
  6
Continuous
370
    -3
390
F
  0
LAYER
  5
1DF
330
2
100
AcDbSymbolTableRecord
100
AcDbLayerTableRecord
  2
$DDT_AUDIT_GENERATED_(1DF)
 70
     0
 62
     7
  6
Continuous
370
    -3
390
F
  0
ENDTAB
  0
TABLE
  2
STYLE
  5
3
330
0
100
AcDbSymbolTable
 70
     2
  0
STYLE
  5
11
330
3
100
AcDbSymbolTableRecord
100
AcDbTextStyleTableRecord
  2
Standard
 70
     0
 40
0.0
 41
1.0
 50
0.0
 71
     0
 42
2.5
  3
txt
  4

  0
STYLE
  5
24B
330
3
100
AcDbSymbolTableRecord
100
AcDbTextStyleTableRecord
  2
SEACAD_seiso_ttf
 70
     0
 40
0.0
 41
1.0
 50
0.0
 71
     0
 42
0.2
  3
seiso.ttf
  4

  0
ENDTAB
  0
TABLE
  2
VIEW
  5
6
330
0
100
AcDbSymbolTable
 70
     0
  0
ENDTAB
  0
TABLE
  2
UCS
  5
7
330
0
100
AcDbSymbolTable
 70
     0
  0
ENDTAB
  0
TABLE
  2
APPID
  5
9
330
0
100
AcDbSymbolTable
 70
     1
  0
APPID
  5
12
330
9
100
AcDbSymbolTableRecord
100
AcDbRegAppTableRecord
  2
ACAD
 70
     0
  0
ENDTAB
  0
TABLE
  2
DIMSTYLE
  5
A
330
0
100
AcDbSymbolTable
 70
     1
100
AcDbDimStyleTable
  0
DIMSTYLE
105
27
330
A
100
AcDbSymbolTableRecord
100
AcDbDimStyleTableRecord
  2
ISO-25
 70
     0
 41
2.5
 42
0.625
 43
3.75
 44
1.25
 73
     0
 74
     0
 77
     1
 78
     8
140
2.5
141
2.5
143
0.0393700787
147
0.625
171
     3
172
     1
271
     2
272
     2
274
     3
278
    44
283
     0
284
     8
340
11
  0
ENDTAB
  0
TABLE
  2
BLOCK_RECORD
  5
1
330
0
100
AcDbSymbolTable
 70
     8
  0
BLOCK_RECORD
  5
1F
330
1
100
AcDbSymbolTableRecord
100
AcDbBlockTableRecord
  2
*Model_Space
340
22
  0
BLOCK_RECORD
  5
1B
330
1
100
AcDbSymbolTableRecord
100
AcDbBlockTableRecord
  2
*Paper_Space
340
1E
  0
BLOCK_RECORD
  5
5E
330
1
100
AcDbSymbolTableRecord
100
AcDbBlockTableRecord
  2
SEANNOT_GROUP
340
0
102
{BLKREFS
331
5F
102
}
  0
BLOCK_RECORD
  5
64
330
1
100
AcDbSymbolTableRecord
100
AcDbBlockTableRecord
  2
SEANNOT_GROUP1
340
0
102
{BLKREFS
331
65
102
}
  0
BLOCK_RECORD
  5
69
330
1
100
AcDbSymbolTableRecord
100
AcDbBlockTableRecord
  2
SEANNOT_GROUP2
340
0
102
{BLKREFS
331
6A
102
}
  0
BLOCK_RECORD
  5
6E
330
1
100
AcDbSymbolTableRecord
100
AcDbBlockTableRecord
  2
SEANNOT_GROUP3
340
0
102
{BLKREFS
331
6F
102
}
  0
BLOCK_RECORD
  5
73
330
1
100
AcDbSymbolTableRecord
100
AcDbBlockTableRecord
  2
SE
340
0
102
{BLKREFS
331
74
102
}
  0
BLOCK_RECORD
  5
17F
330
1
100
AcDbSymbolTableRecord
100
AcDbBlockTableRecord
  2
SE1
340
0
102
{BLKREFS
331
180
102
}
  0
BLOCK_RECORD
  5
1F6
330
1
100
AcDbSymbolTableRecord
100
AcDbBlockTableRecord
  2
SE2
340
0
102
{BLKREFS
331
1F7
102
}
  0
ENDTAB
  0
ENDSEC
  0
SECTION
  2
BLOCKS
  0
BLOCK
  5
20
330
1F
100
AcDbEntity
  8
0
100
AcDbBlockBegin
  2
*Model_Space
 70
     0
 10
0.0
 20
0.0
 30
0.0
  3
*Model_Space
  1

  0
ENDBLK
  5
21
330
1F
100
AcDbEntity
  8
0
100
AcDbBlockEnd
  0
BLOCK
  5
1C
330
1B
100
AcDbEntity
 67
     1
  8
0
100
AcDbBlockBegin
  2
*Paper_Space
 70
     0
 10
0.0
 20
0.0
 30
0.0
  3
*Paper_Space
  1

  0
ENDBLK
  5
1D
330
1B
100
AcDbEntity
 67
     1
  8
0
100
AcDbBlockEnd
  0
BLOCK
  5
62
330
5E
100
AcDbEntity
  8
0
100
AcDbBlockBegin
  2
SEANNOT_GROUP
 70
     0
 10
0.0
 20
0.0
 30
0.0
  3
SEANNOT_GROUP
  1

  0
LINE
  5
61
330
5E
100
AcDbEntity
  8
Default
  6
CENTER2
 62
     7
100
AcDbLine
 10
116.3505507792
 20
262.2432599202
 30
0.0
 11
116.3505507792
 21
331.3049918522
 31
0.0
  0
ENDBLK
  5
63
330
5E
100
AcDbEntity
  8
0
100
AcDbBlockEnd
  0
BLOCK
  5
67
330
64
100
AcDbEntity
  8
0
100
AcDbBlockBegin
  2
SEANNOT_GROUP1
 70
     0
 10
0.0
 20
0.0
 30
0.0
  3
SEANNOT_GROUP1
  1

  0
LINE
  5
66
330
64
100
AcDbEntity
  8
Default
  6
CENTER2
 62
     7
100
AcDbLine
 10
116.3496422975
 20
395.6057287139
 30
0.0
 11
116.3496422975
 21
379.2462672724
 31
0.0
  0
ENDBLK
  5
68
330
64
100
AcDbEntity
  8
0
100
AcDbBlockEnd
  0
BLOCK
  5
6C
330
69
100
AcDbEntity
  8
0
100
AcDbBlockBegin
  2
SEANNOT_GROUP2
 70
     0
 10
0.0
 20
0.0
 30
0.0
  3
SEANNOT_GROUP2
  1

  0
LINE
  5
6B
330
69
100
AcDbEntity
  8
Default
  6
CENTER2
 62
     7
100
AcDbLine
 10
116.3496422975
 20
388.6057287139
 30
0.0
 11
116.3496422975
 21
517.4948696649
 31
0.0
  0
ENDBLK
  5
6D
330
69
100
AcDbEntity
  8
0
100
AcDbBlockEnd
  0
BLOCK
  5
71
330
6E
100
AcDbEntity
  8
0
100
AcDbBlockBegin
  2
SEANNOT_GROUP3
 70
     0
 10
0.0
 20
0.0
 30
0.0
  3
SEANNOT_GROUP3
  1

  0
LINE
  5
70
330
6E
100
AcDbEntity
  8
Default
  6
CENTER2
 62
     7
100
AcDbLine
 10
306.7458600154
 20
468.0473658643
 30
0.0
 11
284.9186137453
 21
468.0473658643
 31
0.0
  0
ENDBLK
  5
72
330
6E
100
AcDbEntity
  8
0
100
AcDbBlockEnd
  0
BLOCK
  5
17D
330
73
100
AcDbEntity
  8
0
100
AcDbBlockBegin
  2
SE
 70
     0
 10
0.0
 20
0.0
 30
0.0
  3
SE
  1

  0
LINE
  5
76
330
73
100
AcDbEntity
  8
$DDT_AUDIT_GENERATED_(75)
  6
Continuous
 62
     7
100
AcDbLine
 10
87.2772431718
 20
460.4851905523
 30
0.0
 11
87.2772431718
 21
452.9992978868
 31
0.0
  0
ARC
  5
77
330
73
100
AcDbEntity
  8
$DDT_AUDIT_GENERATED_(75)
  6
Continuous
 62
     7
100
AcDbCircle
 10
90.8665796711
 20
337.6484854429
 30
0.0
 40
115.4066430842489
100
AcDbArc
 50
89.1297190256
 51
91.7822804377
  0
LINE
  5
78
330
73
100
AcDbEntity
  8
$DDT_AUDIT_GENERATED_(75)
  6
Continuous
 62
     7
100
AcDbLine
 10
87.2772431766
 20
483.4760791104
 30
0.0
 11
87.2772431718
 21
460.4851905523
 31
0.0
  0
SPLINE
  5
79
330
73
100
AcDbEntity
  8
$DDT_AUDIT_GENERATED_(75)
  6
Continuous
 62
     7
100
AcDbSpline
210
0.0
220
0.0
230
1.0
 70
     8
 71
     3
 72
    21
 73
    17
 74
     0
 42
0.0000000050781698
 43
0.0000000001
 40
0.0
 40
0.0
 40
0.0
 40
0.0
 40
0.0562198116775713
 40
0.1126618898467519
 40
0.169153922895847
 40
0.2255217657837036
 40
0.2815924466131793
 40
0.3371971206232802
 40
0.3921738464796635
 40
0.4463700736779182
 40
0.499644751832743
 40
0.5926975806657492
 40
0.6902616681164803
 40
0.7914167809654095
 40
0.8950683524534084
 40
1.0
 40
1.0
 40
1.0
 40
1.0
 10
191.923421340618
 20
452.5471828558329
 30
0.0
 10
191.9231908491978
 20
452.4991238731066
 30
0.0
 10
191.9227289550988
 20
452.4028159054127
 30
0.0
 10
191.9189726270179
 20
452.2589686824136
 30
0.0
 10
191.9129626304741
 20
452.1165052723657
 30
0.0
 10
191.9045247793875
 20
451.9766050615929
 30
0.0
 10
191.8938088978866
 20
451.8403957318841
 30
0.0
 10
191.8809333289326
 20
451.7089211725043
 30
0.0
 10
191.8660745771071
 20
451.5831154632002
 30
0.0
 10
191.8494345051379
 20
451.4637763553088
 30
0.0
 10
191.8265946018518
 20
451.3228812088498
 30
0.0
 10
191.7951999918816
 20
451.1631535601752
 30
0.0
 10
191.7524916523891
 20
450.9929969862674
 30
0.0
 10
191.7032514067882
 20
450.8428340429421
 30
0.0
 10
191.6486209525959
 20
450.716182530201
 30
0.0
 10
191.6091343338882
 20
450.658880284244
 30
0.0
 10
191.5887445952177
 20
450.6294632739827
 30
0.0
  0
LINE
  5
7A
330
73
100
AcDbEntity
  8
$DDT_AUDIT_GENERATED_(75)
  6
Continuous
 62
     7
100
AcDbLine
 10
191.7010631571
 20
452.5440020546
 30
0.0
 11
191.9234213406
 21
452.5471828557
 31
0.0
  0
ARC
  5
7B
330
73
100
AcDbEntity
  8
$DDT_AUDIT_GENERATED_(75)
  6
Continuous
 62
     7
100
AcDbCircle
 10
141.8108009201
 20
334.6680393763
 30
0.0
 40
118.3864051524719
100
AcDbArc
 50
88.2511075219
 51
90.8368930147
  0
ARC
  5
7C
330
73
100
AcDbEntity
  8
$DDT_AUDIT_GENERATED_(75)
  6
Continuous
 62
     7
100
AcDbCircle
 10
116.3505507792
 20
5195.8985186235
 30
0.0
 40
4742.916072226973
100
AcDbArc
 50
269.7133203922
 51
270.2866796078
  0
LINE
  5
7D
330
73
100
AcDbEntity
  8
$DDT_AUDIT_GENERATED_(75)
  6
Continuous
 62
     7
100
AcDbLine
 10
41.0000384012
 20
452.5440020547
 30
0.0
 11
40.7776802177
 21
452.5471828557
 31
0.0
  0
SPLINE
  5
7E
330
73
100
AcDbEntity
  8
$DDT_AUDIT_GENERATED_(75)
  6
Continuous
 62
     7
100
AcDbSpline
210
0.0
220
0.0
230
1.0
 70
     8
 71
     3
 72
    22
 73
    18
 74
     0
 42
0.0000000050796276
 43
0.0000000001
 40
0.0
 40
0.0
 40
0.0
 40
0.0
 40
0.0525719721042895
 40
0.1049822050680794
 40
0.157071815033183
 40
0.2086851864522855
 40
0.2596723409006403
 40
0.3098910795529959
 40
0.3592088256480047
 40
0.4075041137727071
 40
0.4546676954623179
 40
0.5006032532135988
 40
0.597116450283555
 40
0.696245583245364
 40
0.7970936414103622
 40
0.8986816458797342
 40
1.0
 40
1.0
 40
1.0
 40
1.0
 10
41.1122666911353
 20
450.6295228063728
 30
0.0
 10
41.10182959052722
 20
450.6436512537382
 30
0.0
 10
41.08185614625611
 20
450.6708052684037
 30
0.0
 10
41.05284645207949
 20
450.7222357573096
 30
0.0
 10
41.02482892137971
 20
450.7808921415278
 30
0.0
 10
40.99805123926231
 20
450.8469416348004
 30
0.0
 10
40.97266678469337
 20
450.919453948411
 30
0.0
 10
40.94881407046108
 20
450.9976825240414
 30
0.0
 10
40.92659290097794
 20
451.080756529793
 30
0.0
 10
40.90606967610118
 20
451.1677910049855
 30
0.0
 10
40.8872765667779
 20
451.2578968602336
 30
0.0
 10
40.86378604152419
 20
451.3849438025363
 30
0.0
 10
40.83731041185103
 20
451.5582484596937
 30
0.0
 10
40.81125614610981
 20
451.7866534646168
 30
0.0
 10
40.79210721732765
 20
452.0315823182952
 30
0.0
 10
40.77993289124732
 20
452.2869868650627
 30
0.0
 10
40.77843044332119
 20
452.4605277339692
 30
0.0
 10
40.7776802176896
 20
452.5471828557329
 30
0.0
  0
SPLINE
  5
7F
330
73
100
AcDbEntity
  8
$DDT_AUDIT_GENERATED_(75)
  6
Continuous
 62
     7
100
AcDbSpline
210
0.0
220
0.0
230
1.0
 70
     8
 71
     3
 72
    12
 73
     8
 74
     0
 42
0.0000000028465993
 43
0.0000000001
 40
0.0
 40
0.0
 40
0.0
 40
0.0
 40
0.25
 40
0.25
 40
0.5
 40
0.5
 40
1.0
 40
1.0
 40
1.0
 40
1.0
 10
41.1122666911353
 20
450.6295228063728
 30
0.0
 10
41.11161604644629
 20
450.1426362659965
 30
0.0
 10
41.11226761653086
 20
449.7078242294734
 30
0.0
 10
41.11232951016603
 20
448.9321032262997
 30
0.0
 10
41.1123245337893
 20
448.5922831847446
 30
0.0
 10
41.11235554187971
 20
447.7156436150607
 30
0.0
 10
41.11229661424232
 20
447.3201627327397
 30
0.0
 10
41.11240519794431
 20
447.1165601079714
 30
0.0
  0
ARC
  5
80
330
73
100
AcDbEntity
  8
$DDT_AUDIT_GENERATED_(75)
  6
Continuous
 62
     7
100
AcDbCircle
 10
116.3505507883
 20
-40364.6032557778
 30
0.0
 40
40811.78916819155
100
AcDbArc
 50
90.0291315175
 51
90.1056270928
  0
ARC
  5
81
330
73
100
AcDbEntity
  8
$DDT_AUDIT_GENERATED_(75)
  6
Continuous
 62
     7
100
AcDbCircle
 10
116.3505507883
 20
-40364.6032557778
 30
0.0
 40
40811.78916819155
100
AcDbArc
 50
89.8943729072
 51
89.9708710337
  0
SPLINE
  5
82
330
73
100
AcDbEntity
  8
$DDT_AUDIT_GENERATED_(75)
  6
Continuous
 62
     7
100
AcDbSpline
210
0.0
220
0.0
230
1.0
 70
     8
 71
     3
 72
    12
 73
     8
 74
     0
 42
0.0000000028466475
 43
0.0000000001
 40
0.0
 40
0.0
 40
0.0
 40
0.0
 40
0.5
 40
0.5
 40
0.75
 40
0.75
 40
1.0
 40
1.0
 40
1.0
 40
1.0
 10
191.588696360365
 20
447.1165601080053
 30
0.0
 10
191.5888049440441
 20
447.3201627310177
 30
0.0
 10
191.5887460164299
 20
447.7156436109959
 30
0.0
 10
191.5887770245203
 20
448.5922831732118
 30
0.0
 10
191.5887720481431
 20
448.9321032117861
 30
0.0
 10
191.5888339417795
 20
449.707824207976
 30
0.0
 10
191.5894855117907
 20
450.1426362406858
 30
0.0
 10
191.5887445952177
 20
450.6294632739827
 30
0.0
  0
ARC
  5
83
330
73
100
AcDbEntity
  8
$DDT_AUDIT_GENERATED_(75)
  6
Continuous
 62
     7
100
AcDbCircle
 10
191.3115824503
 20
468.0563733298
 30
0.0
 40
20.94164678063381
100
AcDbArc
 50
270.7581982954
 51
89.2417995177
  0
ARC
  5
84
330
73
100
AcDbEntity
  8
$DDT_AUDIT_GENERATED_(75)
  6
Continuous
 62
     7
100
AcDbCircle
 10
139.5247609657
 20
-19526.492621579
 30
0.0
 40
20015.5565219015
100
AcDbArc
 50
89.8509635658
 51
89.9790285213
  0
SPLINE
  5
85
330
73
100
AcDbEntity
  8
$DDT_AUDIT_GENERATED_(75)
  6
Continuous
 62
     7
100
AcDbSpline
210
0.0
220
0.0
230
1.0
 70
     8
 71
     3
 72
    14
 73
    10
 74
     0
 42
0.0000000009479967
 43
0.0000000001
 40
0.3885374367906483
 40
0.3885374367906483
 40
0.3885374367906483
 40
0.3885374367906483
 40
0.460342819337993
 40
0.5890839426034385
 40
0.7230856310786455
 40
0.7917266830161803
 40
0.8607548874036746
 40
0.930165958677585
 40
1.0
 40
1.0
 40
1.0
 40
1.0
 10
144.9881680343472
 20
488.6928209979669
 30
0.0
 10
145.4322990982766
 20
488.6356356644841
 30
0.0
 10
146.5813145394575
 20
488.4537039654814
 30
0.0
 10
148.0519232176982
 20
488.0380021597946
 30
0.0
 10
148.8808317462033
 20
487.473565606103
 30
0.0
 10
149.1601909998521
 20
486.9234796543403
 30
0.0
 10
149.162098491083
 20
486.4624730438766
 30
0.0
 10
148.9737979555849
 20
485.9641049948469
 30
0.0
 10
148.6775948181719
 20
485.6065810852913
 30
0.0
 10
148.5290433772533
 20
485.4272761283229
 30
0.0
  0
SPLINE
  5
86
330
73
100
AcDbEntity
  8
$DDT_AUDIT_GENERATED_(75)
  6
Continuous
 62
     7
100
AcDbSpline
210
0.0
220
0.0
230
1.0
 70
     8
 71
     3
 72
    12
 73
     8
 74
     0
 42
0.0000000005487107
 43
0.0000000001
 40
0.0
 40
0.0
 40
0.0
 40
0.0
 40
0.0054990846300701
 40
0.1174981442046107
 40
0.4490804570498996
 40
0.7421156040639806
 40
1.0
 40
1.0
 40
1.0
 40
1.0
 10
163.6483742323505
 20
483.503256957019
 30
0.0
 10
163.6153160226211
 20
483.5032481065702
 30
0.0
 10
162.9088025227563
 20
483.5030403919598
 30
0.0
 10
160.2053401988102
 20
483.494937930879
 30
0.0
 10
155.747227431533
 20
483.4895232226537
 30
0.0
 10
150.3753430113074
 20
483.4814508961204
 30
0.0
 10
147.0026224850291
 20
483.4777919037347
 30
0.0
 10
145.4238583816869
 20
483.4760791103529
 30
0.0
  0
LINE
  5
87
330
73
100
AcDbEntity
  8
$DDT_AUDIT_GENERATED_(75)
  6
Continuous
 62
     7
100
AcDbLine
 10
145.4238583817
 20
483.4760791104
 30
0.0
 11
145.4238583866
 21
460.4851905523
 31
0.0
  0
LINE
  5
88
330
73
100
AcDbEntity
  8
$DDT_AUDIT_GENERATED_(75)
  6
Continuous
 62
     7
100
AcDbLine
 10
145.4238583866
 20
460.4851905523
 30
0.0
 11
145.4238583866
 21
452.9992978868
 31
0.0
  0
ARC
  5
89
330
73
100
AcDbEntity
  8
$DDT_AUDIT_GENERATED_(75)
  6
Continuous
 62
     7
100
AcDbCircle
 10
191.8052542427
 20
468.0563607888
 30
0.0
 40
15.50962809412094
100
AcDbArc
 50
270.4365379653
 51
89.5634675233
  0
ARC
  5
8A
330
73
100
AcDbEntity
  8
$DDT_AUDIT_GENERATED_(75)
  6
Continuous
 62
     7
100
AcDbCircle
 10
169.3476490002
 20
4314.3796922548
 30
0.0
 40
3830.880674760365
100
AcDbArc
 50
269.9147599368
 51
270.3376518315
  0
SPLINE
  5
8B
330
73
100
AcDbEntity
  8
$DDT_AUDIT_GENERATED_(75)
  6
Continuous
 62
     7
100
AcDbSpline
210
0.0
220
0.0
230
1.0
 70
    12
 71
     3
 72
    52
 73
    48
 74
     0
 42
0.0000000025744958
 43
0.0000000001
 40
0.0
 40
0.0
 40
0.0
 40
0.0
 40
0.0624999959028072
 40
0.0624999959028072
 40
0.1249999962656118
 40
0.1249999962656118
 40
0.1562499964470106
 40
0.1562499964470106
 40
0.1718749965377074
 40
0.1718749965377074
 40
0.1796874965830556
 40
0.1796874965830556
 40
0.1874999966284119
 40
0.1874999966284119
 40
0.2499999969912138
 40
0.2499999969912138
 40
0.3124999973540175
 40
0.3124999973540175
 40
0.3749999977168211
 40
0.3749999977168211
 40
0.4374999980796239
 40
0.4374999980796239
 40
0.453124998170325
 40
0.453124998170325
 40
0.4687499982610262
 40
0.4687499982610262
 40
0.4999999984424284
 40
0.4999999984424284
 40
0.5624999988052313
 40
0.5624999988052313
 40
0.6249999991680357
 40
0.6249999991680357
 40
0.6874999995308394
 40
0.6874999995308394
 40
0.7187499997122416
 40
0.7187499997122416
 40
0.7343749998029419
 40
0.7343749998029419
 40
0.7499999998936439
 40
0.7499999998936439
 40
0.8125000002564466
 40
0.8125000002564466
 40
0.8750000006192503
 40
0.8750000006192503
 40
0.9375000009820544
 40
0.9375000009820544
 40
1.0
 40
1.0
 40
1.0
 40
1.0
 10
145.4238583816869
 20
483.4760791103529
 30
0.0
 41
1.0
 10
145.4240549883204
 20
483.5353172903517
 30
0.0
 41
1.0
 10
145.4311100746124
 20
483.5940874719666
 30
0.0
 41
1.0
 10
145.4583508386304
 20
483.710725121188
 30
0.0
 41
1.0
 10
145.4785372501745
 20
483.768592820063
 30
0.0
 41
1.0
 10
145.5183239227724
 20
483.8547300810641
 30
0.0
 41
1.0
 10
145.5331716020335
 20
483.883331649089
 30
0.0
 41
1.0
 10
145.5577868282645
 20
483.926068042692
 30
0.0
 41
1.0
 10
145.5663825779665
 20
483.9402858389701
 30
0.0
 41
1.0
 10
145.5798584126105
 20
483.96157099351
 30
0.0
 41
1.0
 10
145.5844473960955
 20
483.968659121165
 30
0.0
 41
1.0
 10
145.5938188493555
 20
483.982821515929
 30
0.0
 41
1.0
 10
145.5985991278144
 20
483.98989223179
 30
0.0
 41
1.0
 10
145.6423597420195
 20
484.0532846189411
 30
0.0
 41
1.0
 10
145.6866952551025
 20
484.108206729168
 30
0.0
 41
1.0
 10
145.7849496330305
 20
484.2154192738381
 30
0.0
 41
1.0
 10
145.8388709391935
 20
484.267709087903
 30
0.0
 41
1.0
 10
145.9552536725145
 20
484.36980109254
 30
0.0
 41
1.0
 10
146.0177166231115
 20
484.419602973261
 30
0.0
 41
1.0
 10
146.1503219551975
 20
484.5168011072
 30
0.0
 41
1.0
 10
146.2204652749475
 20
484.564197279403
 30
0.0
 41
1.0
 10
146.3124978634545
 20
484.621954947194
 30
0.0
 41
1.0
 10
146.3311285613805
 20
484.633435704966
 30
0.0
 41
1.0
 10
146.3687903957905
 20
484.656232533345
 30
0.0
 41
1.0
 10
146.3877617068435
 20
484.6675125505121
 30
0.0
 41
1.0
 10
146.4450726037335
 20
484.701004423501
 30
0.0
 41
1.0
 10
146.4838087704025
 20
484.722868325449
 30
0.0
 41
1.0
 10
146.6014253029585
 20
484.787115458871
 30
0.0
 41
1.0
 10
146.6817090753215
 20
484.82815711193
 30
0.0
 41
1.0
 10
146.8452006756765
 20
484.906834107329
 30
0.0
 41
1.0
 10
146.9284099436215
 20
484.944469014292
 30
0.0
 41
1.0
 10
147.0970660811955
 20
485.016413558072
 30
0.0
 41
1.0
 10
147.1825139504324
 20
485.050723096548
 30
0.0
 41
1.0
 10
147.3119204300495
 20
485.09969215925
 30
0.0
 41
1.0
 10
147.3552623573255
 20
485.115598666432
 30
0.0
 41
1.0
 10
147.4205344401615
 20
485.138827604753
 30
0.0
 41
1.0
 10
147.4423511258375
 20
485.1464707431
 30
0.0
 41
1.0
 10
147.4858818464804
 20
485.161483542246
 30
0.0
 41
1.0
 10
147.5076151729485
 20
485.1688602474611
 30
0.0
 41
1.0
 10
147.6161019593985
 20
485.2051019989891
 30
0.0
 41
1.0
 10
147.7023135149984
 20
485.232045719365
 30
0.0
 41
1.0
 10
147.8731187801955
 20
485.281939106513
 30
0.0
 41
1.0
 10
147.9577132346185
 20
485.304888513273
 30
0.0
 41
1.0
 10
148.1248709440244
 20
485.346801312926
 30
0.0
 41
1.0
 10
148.2074347775235
 20
485.365764790771
 30
0.0
 41
1.0
 10
148.3701451800049
 20
485.3996202905718
 30
0.0
 41
1.0
 10
148.4502924776903
 20
485.4145127988571
 30
0.0
 41
1.0
 10
148.5290433772533
 20
485.4272761283229
 30
0.0
 41
1.0
  0
ARC
  5
8C
330
73
100
AcDbEntity
  8
$DDT_AUDIT_GENERATED_(75)
  6
Continuous
 62
     7
100
AcDbCircle
 10
563.8373077865
 20
447.6194961364
 30
0.0
 40
372.2489430647627
100
AcDbArc
 50
180.0754400945
 51
180.0776270531
  0
ARC
  5
8D
330
73
100
AcDbEntity
  8
$DDT_AUDIT_GENERATED_(75)
  6
Continuous
 62
     7
100
AcDbCircle
 10
65.9070097793
 20
5473.6585632129
 30
0.0
 40
4990.156297761866
100
AcDbArc
 50
269.7114698538
 51
270.0361183779
  0
ARC
  5
8E
330
73
100
AcDbEntity
  8
$DDT_AUDIT_GENERATED_(75)
  6
Continuous
 62
     7
100
AcDbCircle
 10
40.8938871118
 20
468.0563607888
 30
0.0
 40
15.50961328343248
100
AcDbArc
 50
90.4292912811
 51
269.5707032303
  0
SPLINE
  5
8F
330
73
100
AcDbEntity
  8
$DDT_AUDIT_GENERATED_(75)
  6
Continuous
 62
     7
100
AcDbSpline
210
0.0
220
0.0
230
1.0
 70
     8
 71
     3
 72
    12
 73
     8
 74
     0
 42
0.0000000005487108
 43
0.0000000001
 40
0.0
 40
0.0
 40
0.0
 40
0.0
 40
0.0634703629058836
 40
0.2503837091000488
 40
0.5019873845175394
 40
0.7509958122968713
 40
1.0
 40
1.0
 40
1.0
 40
1.0
 10
69.05272732595951
 20
483.503256957019
 30
0.0
 10
69.43451737746079
 20
483.5025702934548
 30
0.0
 10
70.94051652130027
 20
483.4996516956636
 30
0.0
 10
73.96976331542594
 20
483.493761795353
 30
0.0
 10
78.13819604305137
 20
483.4874873387301
 30
0.0
 10
82.70376059196387
 20
483.4810936505158
 30
0.0
 10
85.75275764451278
 20
483.4777506315647
 30
0.0
 10
87.2772431766231
 20
483.4760791103529
 30
0.0
  0
SPLINE
  5
90
330
73
100
AcDbEntity
  8
$DDT_AUDIT_GENERATED_(75)
  6
Continuous
 62
     7
100
AcDbSpline
210
0.0
220
0.0
230
1.0
 70
    12
 71
     3
 72
    52
 73
    48
 74
     0
 42
0.0000000025744958
 43
0.0000000001
 40
0.0
 40
0.0
 40
0.0
 40
0.0
 40
0.0624999959028072
 40
0.0624999959028072
 40
0.1249999962656118
 40
0.1249999962656118
 40
0.1562499964470106
 40
0.1562499964470106
 40
0.1718749965377074
 40
0.1718749965377074
 40
0.1796874965830556
 40
0.1796874965830556
 40
0.1874999966284119
 40
0.1874999966284119
 40
0.2499999969912138
 40
0.2499999969912138
 40
0.3124999973540175
 40
0.3124999973540175
 40
0.3749999977168211
 40
0.3749999977168211
 40
0.4374999980796239
 40
0.4374999980796239
 40
0.453124998170325
 40
0.453124998170325
 40
0.4687499982610262
 40
0.4687499982610262
 40
0.4999999984424284
 40
0.4999999984424284
 40
0.5624999988052313
 40
0.5624999988052313
 40
0.6249999991680357
 40
0.6249999991680357
 40
0.6874999995308394
 40
0.6874999995308394
 40
0.7187499997122416
 40
0.7187499997122416
 40
0.7343749998029419
 40
0.7343749998029419
 40
0.7499999998936439
 40
0.7499999998936439
 40
0.8125000002564466
 40
0.8125000002564466
 40
0.8750000006192503
 40
0.8750000006192503
 40
0.9375000009820544
 40
0.9375000009820544
 40
1.0
 40
1.0
 40
1.0
 40
1.0
 10
87.2772431766231
 20
483.4760791103529
 30
0.0
 41
1.0
 10
87.27704656998961
 20
483.5353172903517
 30
0.0
 41
1.0
 10
87.26999148369751
 20
483.5940874719666
 30
0.0
 41
1.0
 10
87.2427507196796
 20
483.710725121188
 30
0.0
 41
1.0
 10
87.2225643081355
 20
483.768592820063
 30
0.0
 41
1.0
 10
87.1827776355376
 20
483.8547300810641
 30
0.0
 41
1.0
 10
87.16792995627651
 20
483.883331649089
 30
0.0
 41
1.0
 10
87.14331473004549
 20
483.926068042692
 30
0.0
 41
1.0
 10
87.13471898034351
 20
483.9402858389701
 30
0.0
 41
1.0
 10
87.1212431456995
 20
483.96157099351
 30
0.0
 41
1.0
 10
87.1166541622145
 20
483.968659121165
 30
0.0
 41
1.0
 10
87.1072827089545
 20
483.982821515929
 30
0.0
 41
1.0
 10
87.1025024304956
 20
483.98989223179
 30
0.0
 41
1.0
 10
87.0587418162905
 20
484.0532846189411
 30
0.0
 41
1.0
 10
87.01440630320751
 20
484.108206729168
 30
0.0
 41
1.0
 10
86.91615192527951
 20
484.2154192738381
 30
0.0
 41
1.0
 10
86.8622306191165
 20
484.267709087903
 30
0.0
 41
1.0
 10
86.74584788579551
 20
484.36980109254
 30
0.0
 41
1.0
 10
86.6833849351985
 20
484.419602973261
 30
0.0
 41
1.0
 10
86.5507796031125
 20
484.5168011072
 30
0.0
 41
1.0
 10
86.4806362833625
 20
484.564197279403
 30
0.0
 41
1.0
 10
86.3886036948555
 20
484.621954947194
 30
0.0
 41
1.0
 10
86.3699729969295
 20
484.633435704966
 30
0.0
 41
1.0
 10
86.3323111625195
 20
484.656232533345
 30
0.0
 41
1.0
 10
86.3133398514665
 20
484.6675125505121
 30
0.0
 41
1.0
 10
86.2560289545765
 20
484.701004423501
 30
0.0
 41
1.0
 10
86.21729278790751
 20
484.722868325449
 30
0.0
 41
1.0
 10
86.0996762553515
 20
484.787115458871
 30
0.0
 41
1.0
 10
86.0193924829885
 20
484.82815711193
 30
0.0
 41
1.0
 10
85.8559008826335
 20
484.906834107329
 30
0.0
 41
1.0
 10
85.77269161468851
 20
484.944469014292
 30
0.0
 41
1.0
 10
85.60403547711451
 20
485.016413558072
 30
0.0
 41
1.0
 10
85.5185876078776
 20
485.050723096548
 30
0.0
 41
1.0
 10
85.38918112826049
 20
485.09969215925
 30
0.0
 41
1.0
 10
85.3458392009845
 20
485.115598666432
 30
0.0
 41
1.0
 10
85.28056711814851
 20
485.138827604753
 30
0.0
 41
1.0
 10
85.2587504324725
 20
485.1464707431
 30
0.0
 41
1.0
 10
85.2152197118296
 20
485.161483542246
 30
0.0
 41
1.0
 10
85.19348638536151
 20
485.1688602474611
 30
0.0
 41
1.0
 10
85.0849995989115
 20
485.2051019989891
 30
0.0
 41
1.0
 10
84.99878804331159
 20
485.232045719365
 30
0.0
 41
1.0
 10
84.8279827781145
 20
485.281939106513
 30
0.0
 41
1.0
 10
84.74338832369149
 20
485.304888513273
 30
0.0
 41
1.0
 10
84.57623061428559
 20
485.346801312926
 30
0.0
 41
1.0
 10
84.4936667807865
 20
485.365764790771
 30
0.0
 41
1.0
 10
84.330956378305
 20
485.3996202905718
 30
0.0
 41
1.0
 10
84.2508090806196
 20
485.4145127988571
 30
0.0
 41
1.0
 10
84.1720581810567
 20
485.4272761283229
 30
0.0
 41
1.0
  0
SPLINE
  5
91
330
73
100
AcDbEntity
  8
$DDT_AUDIT_GENERATED_(75)
  6
Continuous
 62
     7
100
AcDbSpline
210
0.0
220
0.0
230
1.0
 70
     8
 71
     3
 72
    12
 73
     8
 74
     0
 42
0.0000000009373023
 43
0.0000000001
 40
0.3841595147401338
 40
0.3841595147401338
 40
0.3841595147401338
 40
0.3841595147401338
 40
0.5
 40
0.5
 40
0.75
 40
0.75
 40
1.0
 40
1.0
 40
1.0
 40
1.0
 10
87.7134048066844
 20
488.6927707130087
 30
0.0
 10
86.99562597757867
 20
488.6004318648571
 30
0.0
 10
86.3711428712266
 20
488.4883711279995
 30
0.0
 10
84.684297900805
 20
488.064586531518
 30
0.0
 10
83.95075586734649
 20
487.662487254624
 30
0.0
 10
83.4013585132585
 20
486.674143190464
 30
0.0
 10
83.56917046301352
 20
486.081333502258
 30
0.0
 10
84.1720581810567
 20
485.4272761283229
 30
0.0
  0
ARC
  5
92
330
73
100
AcDbEntity
  8
$DDT_AUDIT_GENERATED_(75)
  6
Continuous
 62
     7
100
AcDbCircle
 10
95.312258222
 20
-21314.5757590676
 30
0.0
 40
21803.63931116752
100
AcDbArc
 50
90.0248644225
 51
90.1424269604
  0
ARC
  5
93
330
73
100
AcDbEntity
  8
$DDT_AUDIT_GENERATED_(75)
  6
Continuous
 62
     7
100
AcDbCircle
 10
41.3897675507
 20
468.0563733298
 30
0.0
 40
20.9416500696898
100
AcDbArc
 50
90.7588801553
 51
269.2411220316
  0
LINE
  5
94
330
73
100
AcDbEntity
  8
$DDT_AUDIT_GENERATED_(75)
  6
Continuous
 62
     7
100
AcDbLine
 10
41.1124049908
 20
447.1148908503
 30
0.0
 11
41.1124050176
 21
447.12934083
 31
0.0
  0
ARC
  5
95
330
73
100
AcDbEntity
  8
$DDT_AUDIT_GENERATED_(75)
  6
Continuous
 62
     7
100
AcDbCircle
 10
52.370853362
 20
1648.8737660539
 30
0.0
 40
1196.383801153959
100
AcDbArc
 50
269.4554343556
 51
271.6719322654
  0
ARC
  5
96
330
73
100
AcDbEntity
  8
$DDT_AUDIT_GENERATED_(75)
  6
Continuous
 62
     7
100
AcDbCircle
 10
187.7852686346
 20
2406.6173756737
 30
0.0
 40
1954.077297072418
100
AcDbArc
 50
268.7578177318
 51
270.1148156473
  0
SPLINE
  5
97
330
73
100
AcDbEntity
  8
$DDT_AUDIT_GENERATED_(75)
  6
Continuous
 62
     7
100
AcDbSpline
210
0.0
220
0.0
230
1.0
 70
     8
 71
     3
 72
    10
 73
     6
 74
     0
 42
0.0000000004243866
 43
0.0000000001
 40
0.2694981315571315
 40
0.2694981315571315
 40
0.2694981315571315
 40
0.2694981315571315
 40
0.2812499999999998
 40
0.2812499999999998
 40
0.3021634360357387
 40
0.3021634360357387
 40
0.3021634360357387
 40
0.3021634360357387
 10
95.10011149974376
 20
450.8591867498687
 30
0.0
 10
95.09997064249953
 20
450.7936556845488
 30
0.0
 10
95.11896234992021
 20
450.724366124809
 30
0.0
 10
95.22511599199137
 20
450.5289940702726
 30
0.0
 10
95.3522354609544
 20
450.3989810154321
 30
0.0
 10
95.53903947119021
 20
450.2679979280222
 30
0.0
  0
SPLINE
  5
98
330
73
100
AcDbEntity
  8
$DDT_AUDIT_GENERATED_(75)
  6
Continuous
 62
     7
100
AcDbSpline
210
0.0
220
0.0
230
1.0
 70
     8
 71
     3
 72
    10
 73
     6
 74
     0
 42
0.0000000004234888
 43
0.0000000001
 40
0.7382552254588092
 40
0.7382552254588092
 40
0.7382552254588092
 40
0.7382552254588092
 40
0.7499999999999999
 40
0.7499999999999999
 40
0.7706027536419343
 40
0.7706027536419343
 40
0.7706027536419343
 40
0.7706027536419343
 10
137.1675093132815
 20
450.2736384076288
 30
0.0
 10
137.2717642858248
 20
450.3471123723384
 30
0.0
 10
137.3575134515367
 20
450.4205878980998
 30
0.0
 10
137.541924644834
 20
450.6214554179487
 30
0.0
 10
137.6000747911579
 20
450.7461326647426
 30
0.0
 10
137.5998694723534
 20
450.8592469390381
 30
0.0
  0
SPLINE
  5
99
330
73
100
AcDbEntity
  8
$DDT_AUDIT_GENERATED_(75)
  6
Continuous
 62
     7
100
AcDbSpline
210
0.0
220
0.0
230
1.0
 70
     8
 71
     3
 72
    20
 73
    16
 74
     0
 42
0.0000000001126804
 43
0.0000000001
 40
0.0
 40
0.0
 40
0.0
 40
0.0
 40
0.0312500000000001
 40
0.0312500000000001
 40
0.0625000000000002
 40
0.0625000000000002
 40
0.0937500000000002
 40
0.0937500000000002
 40
0.1250000000000003
 40
0.1250000000000003
 40
0.1562500000000004
 40
0.1562500000000004
 40
0.1875000000000005
 40
0.1875000000000005
 40
0.2113286475953681
 40
0.2113286475953681
 40
0.2113286475953681
 40
0.2113286475953681
 10
119.0462855653291
 20
450.9257898729164
 30
0.0
 10
120.4606348537218
 20
450.9267133097666
 30
0.0
 10
121.8337958714689
 20
450.9282858714827
 30
0.0
 10
124.5011015032945
 20
450.9327521191075
 30
0.0
 10
125.8086221125963
 20
450.9356999229345
 30
0.0
 10
128.2648144728338
 20
450.9432806452887
 30
0.0
 10
129.4109565146109
 20
450.9478191156971
 30
0.0
 10
131.5407954315029
 20
450.959903386376
 30
0.0
 10
132.5276115435495
 20
450.9670228605773
 30
0.0
 10
134.2507469136945
 20
450.9846848860551
 30
0.0
 10
134.9995948222551
 20
450.9977400850234
 30
0.0
 10
136.2670154528433
 20
451.0224725797152
 30
0.0
 10
136.7740332058891
 20
451.0398614078695
 30
0.0
 10
137.4272826859111
 20
450.9839434097576
 30
0.0
 10
137.6328155829192
 20
450.9231602579226
 30
0.0
 10
137.757242481722
 20
450.8288319507157
 30
0.0
  0
SPLINE
  5
9A
330
73
100
AcDbEntity
  8
$DDT_AUDIT_GENERATED_(75)
  6
Continuous
 62
     7
100
AcDbSpline
210
0.0
220
0.0
230
1.0
 70
     8
 71
     3
 72
     8
 73
     4
 74
     0
 42
0.0000000002656663
 43
0.0000000001
 40
0.2652766486196665
 40
0.2652766486196665
 40
0.2652766486196665
 40
0.2652766486196665
 40
0.2718389754879538
 40
0.2718389754879538
 40
0.2718389754879538
 40
0.2718389754879538
 10
137.3656891948497
 20
449.9141880560143
 30
0.0
 10
137.300313834279
 20
449.8728208216277
 30
0.0
 10
137.2290742486232
 20
449.8314657428407
 30
0.0
 10
137.1521093299795
 20
449.7903118207013
 30
0.0
  0
SPLINE
  5
9B
330
73
100
AcDbEntity
  8
$DDT_AUDIT_GENERATED_(75)
  6
Continuous
 62
     7
100
AcDbSpline
210
0.0
220
0.0
230
1.0
 70
     8
 71
     3
 72
     8
 73
     4
 74
     0
 42
0.0000000002693407
 43
0.0000000001
 40
0.6883899998081182
 40
0.6883899998081182
 40
0.6883899998081182
 40
0.6883899998081182
 40
0.696501696856596
 40
0.696501696856596
 40
0.696501696856596
 40
0.696501696856596
 10
95.5498898503837
 20
449.7885723524
 30
0.0
 10
95.45452412998804
 20
449.8393851830451
 30
0.0
 10
95.3681150413595
 20
449.8905070105437
 30
0.0
 10
95.29074976652697
 20
449.9415954419871
 30
0.0
  0
SPLINE
  5
9C
330
73
100
AcDbEntity
  8
$DDT_AUDIT_GENERATED_(75)
  6
Continuous
 62
     7
100
AcDbSpline
210
0.0
220
0.0
230
1.0
 70
     8
 71
     3
 72
    10
 73
     6
 74
     0
 42
0.000000000307077
 43
0.0000000001
 40
0.7513079724668783
 40
0.7513079724668783
 40
0.7513079724668783
 40
0.7513079724668783
 40
0.7812500000000007
 40
0.7812500000000007
 40
0.7844508735917479
 40
0.7844508735917479
 40
0.7844508735917479
 40
0.7844508735917479
 10
94.97972023030303
 20
450.8565440360935
 30
0.0
 10
95.15598434022189
 20
450.9686262491449
 30
0.0
 10
95.45912193832581
 20
451.0157606623229
 30
0.0
 10
95.92780996130996
 20
451.0248005753862
 30
0.0
 10
95.97452634020908
 20
451.0253758030003
 30
0.0
 10
96.02267132938825
 20
451.0256914707978
 30
0.0
  0
SPLINE
  5
9D
330
73
100
AcDbEntity
  8
$DDT_AUDIT_GENERATED_(75)
  6
Continuous
 62
     7
100
AcDbSpline
210
0.0
220
0.0
230
1.0
 70
     8
 71
     3
 72
    18
 73
    14
 74
     0
 42
0.00000000009249
 43
0.0000000001
 40
0.7890493984521234
 40
0.7890493984521234
 40
0.7890493984521234
 40
0.7890493984521234
 40
0.8125000000000004
 40
0.8125000000000004
 40
0.8437500000000003
 40
0.8437500000000003
 40
0.8750000000000003
 40
0.8750000000000003
 40
0.9375000000000001
 40
0.9375000000000001
 40
0.9687500000000001
 40
0.9687500000000001
 40
1.0
 40
1.0
 40
1.0
 40
1.0
 10
96.23895140493913
 20
451.0255582954347
 30
0.0
 10
96.62140449433474
 20
451.0229857444681
 30
0.0
 10
97.07877695199038
 20
451.0094323393807
 30
0.0
 10
98.29944609522998
 20
450.9873066896614
 30
0.0
 10
99.10974344523606
 20
450.9769922548742
 30
0.0
 10
100.9574126390094
 20
450.9613545097361
 30
0.0
 10
101.9962454401241
 20
450.9545677931796
 30
0.0
 10
105.3240961109639
 20
450.9387491288044
 30
0.0
 10
107.913300583241
 20
450.9326121035058
 30
0.0
 10
111.9792954201555
 20
450.926991078027
 30
0.0
 10
113.3869237228247
 20
450.9257399487183
 30
0.0
 10
116.2169486336889
 20
450.9246578329499
 30
0.0
 10
117.6319362769365
 20
450.9248664360662
 30
0.0
 10
119.0462855653291
 20
450.9257898729164
 30
0.0
  0
ARC
  5
9E
330
73
100
AcDbEntity
  8
$DDT_AUDIT_GENERATED_(75)
  6
Continuous
 62
     7
100
AcDbCircle
 10
146.964504875
 20
151.5800886605
 30
0.0
 40
337.4756109383555
100
AcDbArc
 50
90.0192913455
 51
90.4293322009
  0
LINE
  5
9F
330
73
100
AcDbEntity
  8
$DDT_AUDIT_GENERATED_(75)
  6
Continuous
 62
     7
100
AcDbLine
 10
142.3505628179
 20
493.4962002576
 30
0.0
 11
142.3505628179
 21
521.8878986938
 31
0.0
  0
SPLINE
  5
A0
330
73
100
AcDbEntity
  8
$DDT_AUDIT_GENERATED_(75)
  6
Continuous
 62
     7
100
AcDbSpline
210
0.0
220
0.0
230
1.0
 70
     8
 71
     3
 72
    17
 73
    13
 74
     0
 42
0.0000000006588904
 43
0.0000000001
 40
0.5891993157021358
 40
0.5891993157021358
 40
0.5891993157021358
 40
0.5891993157021358
 40
0.6206799893570938
 40
0.6847006502491947
 40
0.7459451216696882
 40
0.7874968676970173
 40
0.8030442762618386
 40
0.825914389169923
 40
0.857768222435436
 40
0.8981815632412857
 40
0.9461393582154656
 40
0.9908547228582866
 40
0.9908547228582866
 40
0.9908547228582866
 40
0.9908547228582866
 10
145.2599613526104
 20
488.5252780500838
 30
0.0
 10
145.2588485579803
 20
488.5265114409477
 30
0.0
 10
145.2077043833544
 20
488.5468456556147
 30
0.0
 10
144.9351275092795
 20
488.6783979107439
 30
0.0
 10
144.5278782193948
 20
488.9543243149023
 30
0.0
 10
144.1916209510597
 20
489.2371682942177
 30
0.0
 10
143.8928368747997
 20
489.5329049751604
 30
0.0
 10
143.5553640346929
 20
489.9156639497529
 30
0.0
 10
143.1391129911049
 20
490.5103050144535
 30
0.0
 10
142.7080083906958
 20
491.3658101151361
 30
0.0
 10
142.3905228103332
 20
492.4294973518801
 30
0.0
 10
142.3466261034948
 20
493.1291647825838
 30
0.0
 10
142.3347440465821
 20
493.508612019847
 30
0.0
  0
ARC
  5
A1
330
73
100
AcDbEntity
  8
$DDT_AUDIT_GENERATED_(75)
  6
Continuous
 62
     7
100
AcDbCircle
 10
164.1015036965
 20
-3402.1866858972
 30
0.0
 40
3891.269196883674
100
AcDbArc
 50
89.595269785
 51
90.2259825946
  0
LINE
  5
A2
330
73
100
AcDbEntity
  8
$DDT_AUDIT_GENERATED_(75)
  6
Continuous
 62
     7
100
AcDbLine
 10
90.3505387405
 20
521.8878986938
 30
0.0
 11
90.3505387405
 21
493.4961999419
 31
0.0
  0
SPLINE
  5
A3
330
73
100
AcDbEntity
  8
$DDT_AUDIT_GENERATED_(75)
  6
Continuous
 62
     7
100
AcDbSpline
210
0.0
220
0.0
230
1.0
 70
     8
 71
     3
 72
    16
 73
    12
 74
     0
 42
0.000000000643888
 43
0.0000000001
 40
0.0088727716862464
 40
0.0088727716862464
 40
0.0088727716862464
 40
0.0088727716862464
 40
0.0513073550647361
 40
0.0976381340090037
 40
0.1375586698751053
 40
0.1703936004733111
 40
0.2240778976074466
 40
0.2690714599231353
 40
0.311576992509679
 40
0.3562628202064161
 40
0.4007284955236532
 40
0.4007284955236532
 40
0.4007284955236532
 40
0.4007284955236532
 10
90.36522218174811
 20
493.5059078494056
 30
0.0
 10
90.35193340860747
 20
493.1308502367837
 30
0.0
 10
90.30692781005045
 20
492.4342596372346
 30
0.0
 10
89.99834550004098
 20
491.3920492140178
 30
0.0
 10
89.58453510316458
 20
490.5534539547082
 30
0.0
 10
89.08364146116138
 20
489.8197826115882
 30
0.0
 10
88.5560960732414
 20
489.2607143554824
 30
0.0
 10
88.03975686901268
 20
488.8582029142535
 30
0.0
 10
87.70914898499133
 20
488.6565200478179
 30
0.0
 10
87.49713774641071
 20
488.5505690620465
 30
0.0
 10
87.44842677799916
 20
488.5304566016734
 30
0.0
 10
87.44945310708223
 20
488.5291403484194
 30
0.0
  0
ARC
  5
A4
330
73
100
AcDbEntity
  8
$DDT_AUDIT_GENERATED_(75)
  6
Continuous
 62
     7
100
AcDbCircle
 10
70.660832859
 20
-4710.3745330356
 30
0.0
 40
5199.443889622612
100
AcDbArc
 50
89.8530562539
 51
90.3256137233
  0
ARC
  5
A5
330
73
100
AcDbEntity
  8
$DDT_AUDIT_GENERATED_(75)
  6
Continuous
 62
     7
100
AcDbCircle
 10
85.7365966833
 20
151.5800886603
 30
0.0
 40
337.4756109384795
100
AcDbArc
 50
89.5728728677
 51
89.9807086545
  0
SPLINE
  5
A6
330
73
100
AcDbEntity
  8
$DDT_AUDIT_GENERATED_(75)
  6
Continuous
 62
     7
100
AcDbSpline
210
0.0
220
0.0
230
1.0
 70
     8
 71
     3
 72
     8
 73
     4
 74
     0
 42
0.0000000805437633
 43
0.0000000001
 40
0.4657397285684426
 40
0.4657397285684426
 40
0.4657397285684426
 40
0.4657397285684426
 40
1.0
 40
1.0
 40
1.0
 40
1.0
 10
95.11052034494097
 20
450.8126436113621
 30
0.0
 10
95.11750862404381
 20
450.8161877306059
 30
0.0
 10
95.13468941403143
 20
450.8299968652001
 30
0.0
 10
95.16206271490385
 20
450.8540710151452
 30
0.0
  0
ARC
  5
A8
330
73
100
AcDbEntity
  8
$DDT_AUDIT_GENERATED_(A7)
  6
Continuous
 62
     7
100
AcDbCircle
 10
41.349642346
 20
468.0473658643
 30
0.0
 40
34.91206301938993
100
AcDbArc
 50
36.9455980124
 51
323.1072257208
  0
SPLINE
  5
AA
330
73
100
AcDbEntity
  8
$DDT_AUDIT_GENERATED_(A9)
  6
Continuous
 62
     7
100
AcDbSpline
210
0.0
220
0.0
230
1.0
 70
     8
 71
     3
 72
    24
 73
    20
 74
     0
 42
0.000000003943883
 43
0.0000000001
 40
0.0
 40
0.0
 40
0.0
 40
0.0
 40
0.0277777777777778
 40
0.0555555555555554
 40
0.0833333333333334
 40
0.1111111111111111
 40
0.2222222222222223
 40
0.3333333333333344
 40
0.4444444444444459
 40
0.5555555555555574
 40
0.6666666666666656
 40
0.777777777777777
 40
0.8333333333333346
 40
0.8611111111111099
 40
0.8888888888888886
 40
0.9166666666666673
 40
0.944444444444446
 40
0.9722222222222213
 40
1.0
 40
1.0
 40
1.0
 40
1.0
 10
112.7225275182715
 20
583.5245609730471
 30
0.0
 10
112.7278436536296
 20
583.5076320891023
 30
0.0
 10
112.7396849308663
 20
583.4738942442644
 30
0.0
 10
112.7608790619076
 20
583.4237214198989
 30
0.0
 10
112.7853106037607
 20
583.3740567121625
 30
0.0
 10
112.8402589003412
 20
583.2758918774229
 30
0.0
 10
112.9440398606819
 20
583.1335681060951
 30
0.0
 10
113.1207786858939
 20
582.9548578547358
 30
0.0
 10
113.3301071324917
 20
582.7896292595068
 30
0.0
 10
113.5695115696319
 20
582.6390791136051
 30
0.0
 10
113.8362069193517
 20
582.506428584193
 30
0.0
 10
114.0809444615979
 20
582.4131323292422
 30
0.0
 10
114.2626437546787
 20
582.3596258621732
 30
0.0
 10
114.369254871383
 20
582.3328272691432
 30
0.0
 10
114.4505587770114
 20
582.3147178003852
 30
0.0
 10
114.5331623442252
 20
582.2986990181515
 30
0.0
 10
114.6168853758076
 20
582.2849056448873
 30
0.0
 10
114.7015476745413
 20
582.273472403038
 30
0.0
 10
114.7584952536534
 20
582.2675134777116
 30
0.0
 10
114.7870655219957
 20
582.2649722777661
 30
0.0
  0
ARC
  5
AB
330
73
100
AcDbEntity
  8
$DDT_AUDIT_GENERATED_(A9)
  6
Continuous
 62
     7
100
AcDbCircle
 10
125.9036433992
 20
587.7337345596
 30
0.0
 40
13.8368695212919
100
AcDbArc
 50
179.7451826141
 51
197.7100312498
  0
LINE
  5
AC
330
73
100
AcDbEntity
  8
$DDT_AUDIT_GENERATED_(A9)
  6
Continuous
 62
     7
100
AcDbLine
 10
114.787065522
 20
582.2649722778
 30
0.0
 11
116.3495795041
 21
582.1958601428
 31
0.0
  0
SPLINE
  5
AD
330
73
100
AcDbEntity
  8
$DDT_AUDIT_GENERATED_(A9)
  6
Continuous
 62
     7
100
AcDbSpline
210
0.0
220
0.0
230
1.0
 70
     8
 71
     3
 72
    33
 73
    29
 74
     0
 42
0.0000000039473278
 43
0.0000000001
 40
0.0
 40
0.0
 40
0.0
 40
0.0
 40
0.0483012449239255
 40
0.0952246943987359
 40
0.1417754923252131
 40
0.1866242588348226
 40
0.2311391921435961
 40
0.2754832052780584
 40
0.3189322694625362
 40
0.3616362554350455
 40
0.4034181259454562
 40
0.444370225050192
 40
0.4851530385267516
 40
0.5240838981954192
 40
0.5634591844317262
 40
0.6004345736054133
 40
0.6383633725132983
 40
0.6754466426369291
 40
0.7106519128366018
 40
0.7465154813175612
 40
0.7805450223730239
 40
0.8146664025397432
 40
0.8474945848682429
 40
0.8785710475610689
 40
0.9092263620734659
 40
0.9405517475710033
 40
0.9712242740472741
 40
1.0
 40
1.0
 40
1.0
 40
1.0
 10
119.9766314899767
 20
583.5245609730471
 30
0.0
 10
119.9663420701635
 20
583.4952116316895
 30
0.0
 10
119.9460567367565
 20
583.4373501404172
 30
0.0
 10
119.903239534202
 20
583.3531037343594
 30
0.0
 10
119.8541927774374
 20
583.2723467936996
 30
0.0
 10
119.7983112463328
 20
583.1948714672739
 30
0.0
 10
119.7369207961959
 20
583.1203849560926
 30
0.0
 10
119.6701719369025
 20
583.0485122664492
 30
0.0
 10
119.5988544536463
 20
582.9795528590452
 30
0.0
 10
119.5239379492292
 20
582.9138705595635
 30
0.0
 10
119.4458950536072
 20
582.8514225383319
 30
0.0
 10
119.3647993588641
 20
582.7919175981443
 30
0.0
 10
119.2816296988746
 20
582.7357120775978
 30
0.0
 10
119.195767324434
 20
582.682416475282
 30
0.0
 10
119.1093170821126
 20
582.6326813205909
 30
0.0
 10
119.0202601493052
 20
582.585680534937
 30
0.0
 10
118.929943324574
 20
582.5416318087933
 30
0.0
 10
118.8381519424598
 20
582.5004963632377
 30
0.0
 10
118.7451874288175
 20
582.4626039629294
 30
0.0
 10
118.6524053978392
 20
582.4279032730169
 30
0.0
 10
118.5580350678991
 20
582.3961861032158
 30
0.0
 10
118.464221726711
 20
582.3677821179923
 30
0.0
 10
118.3710875773972
 20
582.3427991365979
 30
0.0
 10
118.2794573077242
 20
582.3212580856351
 30
0.0
 10
118.1877225456183
 20
582.3025520447204
 30
0.0
 10
118.0948715043426
 20
582.2868018527072
 30
0.0
 10
118.0027859949638
 20
582.2738494123505
 30
0.0
 10
117.9416743646544
 20
582.2678677036664
 30
0.0
 10
117.9120934862525
 20
582.2649722777661
 30
0.0
  0
ARC
  5
AE
330
73
100
AcDbEntity
  8
$DDT_AUDIT_GENERATED_(A9)
  6
Continuous
 62
     7
100
AcDbCircle
 10
106.7705377003
 20
587.7338265155
 30
0.0
 40
13.86069369079766
100
AcDbArc
 50
342.3210155493
 51
0.2539808454
  0
LINE
  5
AF
330
73
100
AcDbEntity
  8
$DDT_AUDIT_GENERATED_(A9)
  6
Continuous
 62
     7
100
AcDbLine
 10
117.9120934863
 20
582.2649722778
 30
0.0
 11
116.3495795041
 21
582.1958601428
 31
0.0
  0
SPLINE
  5
B0
330
73
100
AcDbEntity
  8
$DDT_AUDIT_GENERATED_(A9)
  6
Continuous
 62
     7
100
AcDbSpline
210
0.0
220
0.0
230
1.0
 70
     8
 71
     3
 72
     8
 73
     4
 74
     0
 42
0.0000000492275151
 43
0.0000000001
 40
0.2681417221206349
 40
0.2681417221206349
 40
0.2681417221206349
 40
0.2681417221206349
 40
0.2730644736288494
 40
0.2730644736288494
 40
0.2730644736288494
 40
0.2730644736288494
 10
119.9007626516194
 20
596.9444310034833
 30
0.0
 10
119.9009494097425
 20
596.9448635758143
 30
0.0
 10
119.9011426177485
 20
596.9450755517538
 30
0.0
 10
119.9013422669399
 20
596.9450669686141
 30
0.0
  0
SPLINE
  5
B1
330
73
100
AcDbEntity
  8
$DDT_AUDIT_GENERATED_(A9)
  6
Continuous
 62
     7
100
AcDbSpline
210
0.0
220
0.0
230
1.0
 70
     8
 71
     3
 72
    53
 73
    49
 74
     0
 42
0.000000000228379
 43
0.0000000001
 40
0.0
 40
0.0
 40
0.0
 40
0.0
 40
0.0100813226906552
 40
0.0219218400333924
 40
0.0575173015671696
 40
0.0931156176724613
 40
0.1109540108237832
 40
0.128847713497881
 40
0.1645946534818524
 40
0.1825090160964628
 40
0.1914444979197847
 40
0.2004026943996501
 40
0.2690748516984047
 40
0.3046535724790012
 40
0.3403537274524515
 40
0.3762962293004684
 40
0.4122512124737242
 40
0.4846234695436053
 40
0.5136826039535736
 40
0.5572679640966214
 40
0.5663488409010371
 40
0.5754324024805602
 40
0.5845095313590668
 40
0.5937485440231499
 40
0.5990540900697026
 40
0.6043550684513589
 40
0.614976815070992
 40
0.63089874826961
 40
0.6680541548780887
 40
0.6866357763309539
 40
0.7051979434683193
 40
0.7236083176297416
 40
0.7420310214811546
 40
0.7788789775607569
 40
0.7999296717878627
 40
0.821029564141235
 40
0.8368861207104613
 40
0.8527096053228642
 40
0.8632795703189001
 40
0.8738250242602704
 40
0.8896843328237647
 40
0.9081251154806962
 40
0.926536094673496
 40
0.9357450243429889
 40
0.9449501109641756
 40
0.9541647929217011
 40
0.9633754637134925
 40
1.0
 40
1.0
 40
1.0
 40
1.0
 10
118.5468832364604
 20
538.52584209748
 30
0.0
 10
118.5606942208607
 20
538.8774290039706
 30
0.0
 10
118.5904226192569
 20
539.6420544863154
 30
0.0
 10
118.666868287525
 20
541.6376775358855
 30
0.0
 10
118.7739760177477
 20
544.4847918051106
 30
0.0
 10
118.8748047148443
 20
547.4050891035907
 30
0.0
 10
118.9536172776176
 20
549.5572090271054
 30
0.0
 10
118.9992104626035
 20
551.5250118822738
 30
0.0
 10
118.9954460129067
 20
553.1936292363141
 30
0.0
 10
118.9818672365657
 20
554.3936045817487
 30
0.0
 10
118.9672416540986
 20
555.0165144942672
 30
0.0
 10
118.9220219376576
 20
556.4249524820688
 30
0.0
 10
118.8615413284452
 20
557.7956070137392
 30
0.0
 10
118.770527581896
 20
559.0939881687583
 30
0.0
 10
118.7040346510049
 20
559.9666210730829
 30
0.0
 10
118.648939580416
 20
560.7876598073581
 30
0.0
 10
118.5754307098089
 20
561.823917322418
 30
0.0
 10
118.5003352565562
 20
562.7477263643038
 30
0.0
 10
118.4113140432156
 20
563.6990427710597
 30
0.0
 10
118.3574209779023
 20
564.2210640400399
 30
0.0
 10
118.3169174612133
 20
564.6199403897592
 30
0.0
 10
118.3045598440859
 20
564.7990734263255
 30
0.0
 10
118.3053571734017
 20
564.9478947730969
 30
0.0
 10
118.3090718321274
 20
565.0702646238993
 30
0.0
 10
118.2986248761626
 20
565.2005546875075
 30
0.0
 10
118.2885583138801
 20
565.3363197586813
 30
0.0
 10
118.2756683282458
 20
565.535761391378
 30
0.0
 10
118.2475469920885
 20
565.9367086660955
 30
0.0
 10
118.2134692033273
 20
566.3805078811652
 30
0.0
 10
118.1733606228079
 20
566.8354218280227
 30
0.0
 10
118.1549464954684
 20
567.1728596548637
 30
0.0
 10
118.1379379781194
 20
567.5080157829831
 30
0.0
 10
118.0973062517394
 20
567.9363891322851
 30
0.0
 10
118.0487956899116
 20
568.4518524570373
 30
0.0
 10
118.001314565436
 20
568.9273121144472
 30
0.0
 10
117.970366951257
 20
569.4808888680875
 30
0.0
 10
117.943170833442
 20
570.1911277884977
 30
0.0
 10
117.9176955111862
 20
570.8809667549094
 30
0.0
 10
117.907788057156
 20
571.5724253583712
 30
0.0
 10
117.9119336415612
 20
572.3313296484015
 30
0.0
 10
117.9097879837019
 20
573.3481628022037
 30
0.0
 10
117.9085151330013
 20
574.678561847864
 30
0.0
 10
117.9089131306867
 20
575.9556435598548
 30
0.0
 10
117.9091341580778
 20
576.967294196475
 30
0.0
 10
117.9096843050303
 20
577.7263216143084
 30
0.0
 10
117.9100203472153
 20
578.4858539283259
 30
0.0
 10
117.9108375460496
 20
579.9987218938018
 30
0.0
 10
117.9115379521377
 20
581.2584064366292
 30
0.0
 10
117.9120934862525
 20
582.2649722777661
 30
0.0
  0
ARC
  5
B2
330
73
100
AcDbEntity
  8
$DDT_AUDIT_GENERATED_(A9)
  6
Continuous
 62
     7
100
AcDbCircle
 10
116.3496449261
 20
534.8878762332
 30
0.0
 40
4.249977539443793
100
AcDbArc
 50
269.9991162482
 51
296.5681601079
  0
ARC
  5
B3
330
73
100
AcDbEntity
  8
$DDT_AUDIT_GENERATED_(A9)
  6
Continuous
 62
     7
100
AcDbCircle
 10
116.3496423146
 20
534.8878987934
 30
0.0
 40
4.24999990028298
100
AcDbArc
 50
58.868910456
 51
90.0004245056
  0
SPLINE
  5
B4
330
73
100
AcDbEntity
  8
$DDT_AUDIT_GENERATED_(A9)
  6
Continuous
 62
     7
100
AcDbSpline
210
0.0
220
0.0
230
1.0
 70
     8
 71
     3
 72
   123
 73
   119
 74
     0
 42
0.0000000002283831
 43
0.0000000001
 40
0.0
 40
0.0
 40
0.0
 40
0.0
 40
0.01480507137188
 40
0.036951037926164
 40
0.0590970044804471
 40
0.0590970044804471
 40
0.0968330797550009
 40
0.103388937589015
 40
0.1099447954230301
 40
0.1165006532570452
 40
0.1165006532570452
 40
0.1296123689250744
 40
0.1296123689250744
 40
0.1558358002611336
 40
0.1558358002611336
 40
0.1820592315971921
 40
0.1820592315971921
 40
0.1951709472652222
 40
0.1951709472652222
 40
0.2017268050992363
 40
0.2017268050992363
 40
0.2050047340162438
 40
0.2082826629332514
 40
0.2115605918502589
 40
0.237424561075692
 40
0.237424561075692
 40
0.2579717893930346
 40
0.2665664592181328
 40
0.2751611290432309
 40
0.2837557988683291
 40
0.2837557988683291
 40
0.3009451385185246
 40
0.3009451385185246
 40
0.318134478168721
 40
0.318134478168721
 40
0.3267291479938192
 40
0.3353238178189173
 40
0.3439184876440146
 40
0.3769283336286793
 40
0.3769283336286793
 40
0.3977305915335608
 40
0.4185328494384423
 40
0.4393351073433238
 40
0.4644401938753449
 40
0.4895452804073659
 40
0.514650366939387
 40
0.5422853923856998
 40
0.5422853923856998
 40
0.5554704203802825
 40
0.5554704203802825
 40
0.5686554483748658
 40
0.5686554483748658
 40
0.5818404763694495
 40
0.5818404763694495
 40
0.5884329903667416
 40
0.5884329903667416
 40
0.5917292473653871
 40
0.5950255043640328
 40
0.5983217613626785
 40
0.6020976296111691
 40
0.6020976296111691
 40
0.6091697548583044
 40
0.6091697548583044
 40
0.6233140053525758
 40
0.6233140053525758
 40
0.6516025063411188
 40
0.6516025063411188
 40
0.6798910073296618
 40
0.6798910073296618
 40
0.6940352578239334
 40
0.6940352578239334
 40
0.7011073830710687
 40
0.708179508318204
 40
0.71525163356534
 40
0.7321249620878363
 40
0.7321249620878363
 40
0.7440976889726516
 40
0.7440976889726516
 40
0.7560704158574677
 40
0.7560704158574677
 40
0.7800158696270992
 40
0.7800158696270992
 40
0.7919885965119117
 40
0.7919885965119117
 40
0.7979749599543253
 40
0.8039613233967298
 40
0.8099476868391341
 40
0.8164460874609223
 40
0.8164460874609223
 40
0.8289308515251244
 40
0.8289308515251244
 40
0.8414156155893169
 40
0.8414156155893169
 40
0.8539003796535094
 40
0.8539003796535094
 40
0.8601427616856057
 40
0.8601427616856057
 40
0.8663851437177116
 40
0.8663851437177116
 40
0.8788699077819041
 40
0.8788699077819041
 40
0.8913546718460967
 40
0.8913546718460967
 40
0.8999652411781539
 40
0.9038394359102893
 40
0.907713630642434
 40
0.9115878253745693
 40
0.9115878253745693
 40
0.9193362148388496
 40
0.9193362148388496
 40
0.9270846043031298
 40
0.9270846043031298
 40
0.93483299376741
 40
0.93483299376741
 40
0.9503297726959705
 40
0.9658265516245308
 40
0.9813233305530912
 40
1.0
 40
1.0
 40
1.0
 40
1.0
 10
114.1522724584877
 20
538.5257642212005
 30
0.0
 10
114.1321398918116
 20
539.0413178851903
 30
0.0
 10
114.0824299943929
 20
540.3245542992202
 30
0.0
 10
114.0063897877385
 20
542.3224027294062
 30
0.0
 10
113.951762655987
 20
543.8076774118326
 30
0.0
 10
113.8799231264537
 20
545.774789528332
 30
0.0
 10
113.8291409773822
 20
547.2042848180135
 30
0.0
 10
113.7777395077138
 20
548.725341163512
 30
0.0
 10
113.758082061886
 20
549.3021352234462
 30
0.0
 10
113.7445695092279
 20
549.6754725133304
 30
0.0
 10
113.7262386372398
 20
550.2269956280899
 30
0.0
 10
113.7195475473487
 20
550.5786938764148
 30
0.0
 10
113.709788969108
 20
551.6014961383087
 30
0.0
 10
113.7054069328605
 20
552.2284675288648
 30
0.0
 10
113.7064797638319
 20
553.382203464944
 30
0.0
 10
113.7105266161416
 20
553.9019454046671
 30
0.0
 10
113.7226569566561
 20
554.6207642264866
 30
0.0
 10
113.7273158826724
 20
554.8448049878367
 30
0.0
 10
113.7372558041376
 20
555.1717572944821
 30
0.0
 10
113.7404850290664
 20
555.2759315792973
 30
0.0
 10
113.745412517539
 20
555.4322356211259
 30
0.0
 10
113.7486297127646
 20
555.532953253685
 30
0.0
 10
113.7537084338092
 20
555.685551173867
 30
0.0
 10
113.7697115850939
 20
556.1420409741072
 30
0.0
 10
113.7845505290266
 20
556.5173883751409
 30
0.0
 10
113.8086418618643
 20
557.0703332976258
 30
0.0
 10
113.8243551947749
 20
557.3986989402028
 30
0.0
 10
113.8446496524474
 20
557.7857452505035
 30
0.0
 10
113.859757848086
 20
558.0569114733427
 30
0.0
 10
113.8697373537811
 20
558.2261710720938
 30
0.0
 10
113.8850375967532
 20
558.4766181509252
 30
0.0
 10
113.8957298880263
 20
558.6355889281581
 30
0.0
 10
113.9178469213301
 20
558.9410623656277
 30
0.0
 10
113.9292247186829
 20
559.0883372373929
 30
0.0
 10
113.9455760647686
 20
559.3026530702875
 30
0.0
 10
113.9562699189636
 20
559.4440002550554
 30
0.0
 10
113.9714726875686
 20
559.651808450515
 30
0.0
 10
114.0001623181391
 20
560.0534394569066
 30
0.0
 10
114.0219265307804
 20
560.371148555036
 30
0.0
 10
114.0495697581705
 20
560.7710821867832
 30
0.0
 10
114.0706365888157
 20
561.0751587536631
 30
0.0
 10
114.1023712065557
 20
561.51659384985
 30
0.0
 10
114.1374648983469
 20
561.9809952569519
 30
0.0
 10
114.1762512745196
 20
562.4631082977188
 30
0.0
 10
114.2195026572785
 20
562.9638298554215
 30
0.0
 10
114.2668443027651
 20
563.476954959788
 30
0.0
 10
114.3007996078807
 20
563.8199931494479
 30
0.0
 10
114.3271272811044
 20
564.0842771038565
 30
0.0
 10
114.3359341498296
 20
564.1701414801864
 30
0.0
 10
114.3534604092431
 20
564.338689362348
 30
0.0
 10
114.3622422108834
 20
564.4222064401138
 30
0.0
 10
114.3792732640406
 20
564.5921897284767
 30
0.0
 10
114.3872080069766
 20
564.6816698241527
 30
0.0
 10
114.3930838586482
 20
564.804590315289
 30
0.0
 10
114.3939594582935
 20
564.8430286898304
 30
0.0
 10
114.3940281103414
 20
564.8975970640398
 30
0.0
 10
114.3936435164505
 20
564.9332239944015
 30
0.0
 10
114.3921803365693
 20
564.9849344843262
 30
0.0
 10
114.3912911434685
 20
565.0418261196344
 30
0.0
 10
114.3926429053675
 20
565.0842466571598
 30
0.0
 10
114.3964883265545
 20
565.1532814718864
 30
0.0
 10
114.4005948169378
 20
565.2013330641878
 30
0.0
 10
114.4109134538418
 20
565.3404267730032
 30
0.0
 10
114.4164199202373
 20
565.4304594400187
 30
0.0
 10
114.4356217352924
 20
565.7059101078562
 30
0.0
 10
114.4478766650773
 20
565.886447085957
 30
0.0
 10
114.4762323695166
 20
566.2471716350086
 30
0.0
 10
114.4901821409191
 20
566.4268593133864
 30
0.0
 10
114.5130662794335
 20
566.6930401494102
 30
0.0
 10
114.5204011888382
 20
566.7822753419036
 30
0.0
 10
114.5292844889691
 20
566.9147637126696
 30
0.0
 10
114.5347441160919
 20
567.0030146549841
 30
0.0
 10
114.5420064166774
 20
567.1355048003753
 30
0.0
 10
114.5522127107913
 20
567.326091277697
 30
0.0
 10
114.5607156750093
 20
567.4720757583459
 30
0.0
 10
114.5737661392187
 20
567.6468632113754
 30
0.0
 10
114.5804029716601
 20
567.7183275513296
 30
0.0
 10
114.5952141453795
 20
567.8645800296465
 30
0.0
 10
114.6025931880726
 20
567.9385286771599
 30
0.0
 10
114.6248848362161
 20
568.1686585395416
 30
0.0
 10
114.6396096348866
 20
568.3294373405118
 30
0.0
 10
114.6620521206793
 20
568.5678270318202
 30
0.0
 10
114.6696555565743
 20
568.6452851571776
 30
0.0
 10
114.6806596544765
 20
568.7630555290062
 30
0.0
 10
114.6878167234664
 20
568.8425862402967
 30
0.0
 10
114.6981355514221
 20
568.9744442905062
 30
0.0
 10
114.7084861711607
 20
569.1297975894774
 30
0.0
 10
114.715229832978
 20
569.2507974844835
 30
0.0
 10
114.7256223160322
 20
569.4496796503354
 30
0.0
 10
114.7325326028984
 20
569.5982907965747
 30
0.0
 10
114.7461131737267
 20
569.924276393895
 30
0.0
 10
114.7530664407336
 20
570.1049170647802
 30
0.0
 10
114.7660339180309
 20
570.4898696601022
 30
0.0
 10
114.7727890508899
 20
570.7013299811542
 30
0.0
 10
114.7828122795818
 20
571.0346018960018
 30
0.0
 10
114.7864397480248
 20
571.1500441324953
 30
0.0
 10
114.7898077074676
 20
571.3882189977504
 30
0.0
 10
114.789691339345
 20
571.5114441339056
 30
0.0
 10
114.7881144206723
 20
571.8894318386485
 30
0.0
 10
114.7884346157218
 20
572.1542363442858
 30
0.0
 10
114.7888635025081
 20
572.7117469659719
 30
0.0
 10
114.7889222539743
 20
573.0062328192912
 30
0.0
 10
114.7891742282339
 20
573.5181269051174
 30
0.0
 10
114.789191379539
 20
573.8290576584706
 30
0.0
 10
114.7897333232248
 20
574.2545875463308
 30
0.0
 10
114.7902309878176
 20
574.5601383003926
 30
0.0
 10
114.7904138590147
 20
574.7707389407275
 30
0.0
 10
114.7905611311109
 20
575.0856402037892
 30
0.0
 10
114.7905326163203
 20
575.3027885150088
 30
0.0
 10
114.7903941102095
 20
575.7327160801203
 30
0.0
 10
114.790218694582
 20
575.9506334385126
 30
0.0
 10
114.7901881882275
 20
576.3843845321951
 30
0.0
 10
114.7901555841146
 20
576.6013566858422
 30
0.0
 10
114.7897862138065
 20
577.2506999172502
 30
0.0
 10
114.7892950925285
 20
578.1160589669205
 30
0.0
 10
114.7886507783795
 20
579.4186892989875
 30
0.0
 10
114.7878681811302
 20
580.7962600087512
 30
0.0
 10
114.7873568474836
 20
581.7458593288661
 30
0.0
 10
114.7870655219957
 20
582.2649722777661
 30
0.0
  0
ARC
  5
B5
330
73
100
AcDbEntity
  8
$DDT_AUDIT_GENERATED_(A9)
  6
Continuous
 62
     7
100
AcDbCircle
 10
116.3496422289
 20
534.8878990986
 30
0.0
 40
4.24999959508206
100
AcDbArc
 50
90.0004233491
 51
121.1331213511
  0
ARC
  5
B6
330
73
100
AcDbEntity
  8
$DDT_AUDIT_GENERATED_(A9)
  6
Continuous
 62
     7
100
AcDbCircle
 10
116.349637065
 20
534.8878538578
 30
0.0
 40
4.249955163930314
100
AcDbArc
 50
243.4298341571
 51
269.9992222229
  0
LINE
  5
B7
330
73
100
AcDbEntity
  8
$DDT_AUDIT_GENERATED_(A9)
  6
Continuous
 62
     7
100
AcDbLine
 10
109.1991936093
 20
521.8878986938
 30
0.0
 11
89.0555526879
 21
521.8878986938
 31
0.0
  0
LINE
  5
B8
330
73
100
AcDbEntity
  8
$DDT_AUDIT_GENERATED_(A9)
  6
Continuous
 62
     7
100
AcDbLine
 10
114.7696177806
 20
521.8878986938
 30
0.0
 11
109.1991936093
 21
521.8878986938
 31
0.0
  0
LINE
  5
B9
330
73
100
AcDbEntity
  8
$DDT_AUDIT_GENERATED_(A9)
  6
Continuous
 62
     7
100
AcDbLine
 10
116.3495850063
 20
521.8878986938
 30
0.0
 11
114.7696180118
 21
521.8878986938
 31
0.0
  0
LINE
  5
BA
330
73
100
AcDbEntity
  8
$DDT_AUDIT_GENERATED_(A9)
  6
Continuous
 62
     7
100
AcDbLine
 10
117.9295322641
 20
521.8878986938
 30
0.0
 11
116.3495850063
 21
521.8878986938
 31
0.0
  0
LINE
  5
BB
330
73
100
AcDbEntity
  8
$DDT_AUDIT_GENERATED_(A9)
  6
Continuous
 62
     7
100
AcDbLine
 10
123.4999648465
 20
521.8878986938
 30
0.0
 11
117.9295322641
 21
521.8878986938
 31
0.0
  0
LINE
  5
BC
330
73
100
AcDbEntity
  8
$DDT_AUDIT_GENERATED_(A9)
  6
Continuous
 62
     7
100
AcDbLine
 10
143.6440471328
 20
521.8878986938
 30
0.0
 11
123.4999648465
 21
521.8878986938
 31
0.0
  0
SPLINE
  5
BD
330
73
100
AcDbEntity
  8
$DDT_AUDIT_GENERATED_(A9)
  6
Continuous
 62
     7
100
AcDbSpline
210
0.0
220
0.0
230
1.0
 70
     8
 71
     3
 72
     8
 73
     4
 74
     0
 42
0.0000000240577139
 43
0.0000000001
 40
0.6978230614192127
 40
0.6978230614192127
 40
0.6978230614192127
 40
0.6978230614192127
 40
0.7002288328106057
 40
0.7002288328106057
 40
0.7002288328106057
 40
0.7002288328106057
 10
143.9435544326252
 20
522.2139576410411
 30
0.0
 10
143.9437163057219
 20
522.213917979127
 30
0.0
 10
143.9437857445193
 20
522.2138782389318
 30
0.0
 10
143.9437627579861
 20
522.2138384214899
 30
0.0
  0
ARC
  5
BE
330
73
100
AcDbEntity
  8
$DDT_AUDIT_GENERATED_(A9)
  6
Continuous
 62
     7
100
AcDbCircle
 10
845.815690495
 20
501.820905455
 30
0.0
 40
728.1535509606964
100
AcDbArc
 50
177.6965608956
 51
178.3971931587
  0
ARC
  5
BF
330
73
100
AcDbEntity
  8
$DDT_AUDIT_GENERATED_(A9)
  6
Continuous
 62
     7
100
AcDbCircle
 10
-608.9873776655
 20
501.9619202832
 30
0.0
 40
724.0220688654591
100
AcDbArc
 50
1.6007916811
 51
2.3054270838
  0
SPLINE
  5
C0
330
73
100
AcDbEntity
  8
$DDT_AUDIT_GENERATED_(A9)
  6
Continuous
 62
     7
100
AcDbSpline
210
0.0
220
0.0
230
1.0
 70
     8
 71
     3
 72
     8
 73
     4
 74
     0
 42
0.0000000238165972
 43
0.0000000001
 40
0.29945798762721
 40
0.29945798762721
 40
0.29945798762721
 40
0.29945798762721
 40
0.3018396473449013
 40
0.3018396473449013
 40
0.3018396473449013
 40
0.3018396473449013
 10
88.75539331836544
 20
522.2138377143143
 30
0.0
 10
88.755369621208
 20
522.2138771874291
 30
0.0
 10
88.75543677455016
 20
522.2139165810327
 30
0.0
 10
88.75559473649395
 20
522.2139558941751
 30
0.0
  0
ARC
  5
C1
330
73
100
AcDbEntity
  8
$DDT_AUDIT_GENERATED_(A9)
  6
Continuous
 62
     7
100
AcDbCircle
 10
198.0127986616
 20
587.8994859875
 30
0.0
 40
85.94563732267477
100
AcDbArc
 50
177.4873617704
 51
180.0696521388
  0
ARC
  5
C2
330
73
100
AcDbEntity
  8
$DDT_AUDIT_GENERATED_(A9)
  6
Continuous
 62
     7
100
AcDbCircle
 10
115.5364436216
 20
596.4806970917
 30
0.0
 40
2.777737697244009
100
AcDbArc
 50
106.2120034503
 51
170.3743201043
  0
ARC
  5
C3
330
73
100
AcDbEntity
  8
$DDT_AUDIT_GENERATED_(A9)
  6
Continuous
 62
     7
100
AcDbCircle
 10
116.3491072234
 20
590.2531155851
 30
0.0
 40
9.035450941210462
100
AcDbArc
 50
89.9970051524
 51
100.2090165788
  0
ARC
  5
C4
330
73
100
AcDbEntity
  8
$DDT_AUDIT_GENERATED_(A9)
  6
Continuous
 62
     7
100
AcDbCircle
 10
169.456731114
 20
587.2976829538
 30
0.0
 40
57.47276654709268
100
AcDbArc
 50
170.3628444231
 51
175.6804346978
  0
SPLINE
  5
C5
330
73
100
AcDbEntity
  8
$DDT_AUDIT_GENERATED_(A9)
  6
Continuous
 62
     7
100
AcDbSpline
210
0.0
220
0.0
230
1.0
 70
     8
 71
     3
 72
    29
 73
    25
 74
     0
 42
0.0000000001968449
 43
0.0000000001
 40
0.0
 40
0.0
 40
0.0
 40
0.0
 40
0.023147124933363
 40
0.0513075285663222
 40
0.077549853174838
 40
0.1016160220987506
 40
0.123329822215372
 40
0.1432850360693271
 40
0.1618937930105676
 40
0.1789613213051303
 40
0.1979931777204007
 40
0.2155247844465901
 40
0.2336874645097761
 40
0.2526310583384055
 40
0.2727769209943013
 40
0.2938983454427262
 40
0.3198753767197715
 40
0.3448637703515539
 40
0.3674960879461447
 40
0.3878089483921035
 40
0.4040080367053039
 40
0.4183999446770494
 40
0.4310470177160137
 40
0.4367224136767343
 40
0.4367224136767343
 40
0.4367224136767343
 40
0.4367224136767343
 10
112.0676374499358
 20
587.8076517887548
 30
0.0
 10
112.0633445777769
 20
586.854841817603
 30
0.0
 10
112.0556802598825
 20
585.0787687826565
 30
0.0
 10
112.0437284840873
 20
582.0817970415011
 30
0.0
 10
112.0406686945078
 20
579.3120118240388
 30
0.0
 10
112.0132474203606
 20
577.1267512579417
 30
0.0
 10
111.9728136177738
 20
575.4134782439545
 30
0.0
 10
111.9372472998772
 20
574.1554903386864
 30
0.0
 10
111.9000571206657
 20
573.1814840768455
 30
0.0
 10
111.8775132549466
 20
572.4387570274597
 30
0.0
 10
111.8522420866688
 20
571.9263527371763
 30
0.0
 10
111.824114714449
 20
571.6229689073034
 30
0.0
 10
111.7876342891284
 20
571.2180775900866
 30
0.0
 10
111.7559006109617
 20
570.7691247571555
 30
0.0
 10
111.7018456228213
 20
570.229834173665
 30
0.0
 10
111.6021486389933
 20
569.5598787130428
 30
0.0
 10
111.5071568825558
 20
568.7743291156353
 30
0.0
 10
111.4290822661802
 20
567.9631212009591
 30
0.0
 10
111.3879827166763
 20
567.241922487505
 30
0.0
 10
111.3820644799162
 20
566.6429390548982
 30
0.0
 10
111.4035246321707
 20
566.1493480701363
 30
0.0
 10
111.4282903816188
 20
565.8258855552564
 30
0.0
 10
111.4442802679103
 20
565.6746325606553
 30
0.0
 10
111.4525363184249
 20
565.6557923684577
 30
0.0
 10
111.4551208313044
 20
565.6557448899558
 30
0.0
  0
SPLINE
  5
C6
330
73
100
AcDbEntity
  8
$DDT_AUDIT_GENERATED_(A9)
  6
Continuous
 62
     7
100
AcDbSpline
210
0.0
220
0.0
230
1.0
 70
     8
 71
     3
 72
    36
 73
    32
 74
     0
 42
0.0000000000986284
 43
0.0000000001
 40
0.5012046447059071
 40
0.5012046447059071
 40
0.5012046447059071
 40
0.5012046447059071
 40
0.5170038634187015
 40
0.5364379374862505
 40
0.5571999454807741
 40
0.5797182737530414
 40
0.6007565329155932
 40
0.6201257941524697
 40
0.6405114755469682
 40
0.6585980834062286
 40
0.6751609637086694
 40
0.6973859898194003
 40
0.7193293172709422
 40
0.7439567145265857
 40
0.7708753093603735
 40
0.7897002637523609
 40
0.8086101122335564
 40
0.8274592295688863
 40
0.8391048599219224
 40
0.8467162109742212
 40
0.8499639110768038
 40
0.8549895257241158
 40
0.8618309998357555
 40
0.8704787519724275
 40
0.8847981450049454
 40
0.9022620949551912
 40
0.9228131543899604
 40
0.9402252116747015
 40
0.9592859761849076
 40
0.9799759367228743
 40
1.0
 40
1.0
 40
1.0
 40
1.0
 10
111.4237121516268
 20
565.9346313551766
 30
0.0
 10
111.3871540309834
 20
565.8504584240098
 30
0.0
 10
111.2831143080117
 20
565.6179148558781
 30
0.0
 10
111.0419326470159
 20
565.1432317581293
 30
0.0
 10
110.6074645902145
 20
564.521179436857
 30
0.0
 10
110.2282005919718
 20
563.8852973820054
 30
0.0
 10
109.6715964451163
 20
563.1756801520492
 30
0.0
 10
108.9932025956539
 20
562.4067473355417
 30
0.0
 10
108.182541944842
 20
561.5713102618122
 30
0.0
 10
107.2372444308212
 20
560.6524759109435
 30
0.0
 10
106.0953388162517
 20
559.5827979963724
 30
0.0
 10
104.7675669911421
 20
558.2555727049258
 30
0.0
 10
103.1829553592109
 20
556.5473752434681
 30
0.0
 10
101.4640634920794
 20
554.5682584213656
 30
0.0
 10
99.75162658145875
 20
552.4563656985922
 30
0.0
 10
98.15915523408692
 20
550.2988322443038
 30
0.0
 10
96.7809929761105
 20
548.2586393124509
 30
0.0
 10
95.60584495616772
 20
546.3459083314415
 30
0.0
 10
94.7463507308446
 20
544.7964611074111
 30
0.0
 10
94.26393558110684
 20
543.8490674675088
 30
0.0
 10
93.93605723712365
 20
543.1725305204001
 30
0.0
 10
93.63774323178085
 20
542.5319189500985
 30
0.0
 10
93.25066321052957
 20
541.6508632786332
 30
0.0
 10
92.71991569493078
 20
540.3511414509779
 30
0.0
 10
92.05544469976415
 20
538.5490756327023
 30
0.0
 10
91.2897238751855
 20
536.1553217317578
 30
0.0
 10
90.59115048240297
 20
533.558293953362
 30
0.0
 10
89.98038900831344
 20
530.833072360388
 30
0.0
 10
89.47275347171899
 20
528.0850132495166
 30
0.0
 10
89.03838311933384
 20
525.1143919975455
 30
0.0
 10
88.86166352878608
 20
523.2822898261668
 30
0.0
 10
88.76188048271764
 20
522.2155122425448
 30
0.0
  0
ARC
  5
C7
330
73
100
AcDbEntity
  8
$DDT_AUDIT_GENERATED_(A9)
  6
Continuous
 62
     7
100
AcDbCircle
 10
34.6863603467
 20
587.8994859875
 30
0.0
 40
85.94563732266144
100
AcDbArc
 50
359.9303478612
 51
2.5126382296
  0
ARC
  5
C8
330
73
100
AcDbEntity
  8
$DDT_AUDIT_GENERATED_(A9)
  6
Continuous
 62
     7
100
AcDbCircle
 10
117.1627153866
 20
596.4806970917
 30
0.0
 40
2.777737697243945
100
AcDbArc
 50
9.6256798957
 51
73.7879965497
  0
ARC
  5
C9
330
73
100
AcDbEntity
  8
$DDT_AUDIT_GENERATED_(A9)
  6
Continuous
 62
     7
100
AcDbCircle
 10
116.3500517849
 20
590.2531155856
 30
0.0
 40
9.03545094070662
100
AcDbArc
 50
79.7909832713
 51
90.0029948478
  0
ARC
  5
CA
330
73
100
AcDbEntity
  8
$DDT_AUDIT_GENERATED_(A9)
  6
Continuous
 62
     7
100
AcDbCircle
 10
71.8328676618
 20
588.286358714
 30
0.0
 40
48.83343743743247
100
AcDbArc
 50
3.9220017817
 51
10.18551839
  0
SPLINE
  5
CB
330
73
100
AcDbEntity
  8
$DDT_AUDIT_GENERATED_(A9)
  6
Continuous
 62
     7
100
AcDbSpline
210
0.0
220
0.0
230
1.0
 70
     8
 71
     3
 72
    65
 73
    61
 74
     0
 42
0.0000000001366825
 43
0.0000000001
 40
0.0
 40
0.0
 40
0.0
 40
0.0
 40
0.020083098977704
 40
0.0408187842392613
 40
0.0599171688356968
 40
0.0773579850203226
 40
0.0980856621953536
 40
0.1156598836775729
 40
0.1300213515467924
 40
0.1411237041456591
 40
0.1489401551909031
 40
0.1534862690421293
 40
0.1581646503614829
 40
0.1646102720388715
 40
0.1728212038607481
 40
0.1913883281515271
 40
0.2092055688233317
 40
0.2266793564857314
 40
0.2450654660835118
 40
0.2645597735377083
 40
0.2840030178710768
 40
0.3020379094545705
 40
0.3185625128286812
 40
0.3340511132734083
 40
0.3596042511141145
 40
0.388096969778628
 40
0.4126624744210371
 40
0.4378360337931526
 40
0.4604027515140824
 40
0.4827396689057002
 40
0.5051927389790685
 40
0.5196083970921994
 40
0.5333452045974096
 40
0.5464506993007786
 40
0.5590868796125037
 40
0.5732671253254227
 40
0.5897970382038689
 40
0.6087172087902126
 40
0.6279704038922619
 40
0.6477916564428456
 40
0.6671475385824323
 40
0.6842516870249278
 40
0.6986699719574262
 40
0.7103911632896601
 40
0.719412679711168
 40
0.728215917944173
 40
0.7392919568760122
 40
0.7522742528485424
 40
0.7675431534592473
 40
0.7851663215075297
 40
0.8052906194515913
 40
0.8227205836647589
 40
0.8422518399322361
 40
0.8637092385133388
 40
0.8868964901563731
 40
0.9074367994336447
 40
0.9298641467200609
 40
0.9539580943153094
 40
0.9796804599228679
 40
1.0
 40
1.0
 40
1.0
 40
1.0
 10
143.9373387627588
 20
522.2147697328688
 30
0.0
 10
143.83723586616
 20
523.2847056214963
 30
0.0
 10
143.6600022232396
 20
525.1215416502107
 30
0.0
 10
143.2241486221269
 20
528.0992145562604
 30
0.0
 10
142.7148729682334
 20
530.85251579784
 30
0.0
 10
142.1006385224899
 20
533.5890285545142
 30
0.0
 10
141.3966692728237
 20
536.2001160084997
 30
0.0
 10
140.6237276680111
 20
538.6077170967054
 30
0.0
 10
139.9142850446293
 20
540.5239367986312
 30
0.0
 10
139.3142038836742
 20
541.9712964146833
 30
0.0
 10
138.8608234142583
 20
542.969487724108
 30
0.0
 10
138.5110012899539
 20
543.6943607341195
 30
0.0
 10
138.1772943164429
 20
544.3569971987918
 30
0.0
 10
137.7542101877146
 20
545.157117070238
 30
0.0
 10
136.9981140405521
 20
546.5005077271722
 30
0.0
 10
135.9377215468793
 20
548.2259279579496
 30
0.0
 10
134.6262465854667
 20
550.1732148223697
 30
0.0
 10
133.3071328005782
 20
551.9737268556182
 30
0.0
 10
131.9472792090273
 20
553.7022706787474
 30
0.0
 10
130.5648961909863
 20
555.3405738055014
 30
0.0
 10
129.2239505725873
 20
556.866146179539
 30
0.0
 10
127.9942445749894
 20
558.1809006935524
 30
0.0
 10
126.9035022191825
 20
559.2890485977284
 30
0.0
 10
125.6944781263885
 20
560.4361676747548
 30
0.0
 10
124.4579822758801
 20
561.6179042647459
 30
0.0
 10
123.3925967048173
 20
562.7420301173812
 30
0.0
 10
122.6011506676158
 20
563.695377211687
 30
0.0
 10
122.1732720370336
 20
564.4064271925257
 30
0.0
 10
121.7394437217943
 20
564.9920499720591
 30
0.0
 10
121.4497341130249
 20
565.4858098109917
 30
0.0
 10
121.2677282537871
 20
565.8957428342632
 30
0.0
 10
121.1890592401188
 20
566.0985690049395
 30
0.0
 10
121.1706550551086
 20
566.1432356682034
 30
0.0
 10
121.1855130017087
 20
566.0857241858635
 30
0.0
 10
121.2269486386112
 20
565.8321747427941
 30
0.0
 10
121.2521533450944
 20
565.8321239516022
 30
0.0
 10
121.2838656676281
 20
566.062108619541
 30
0.0
 10
121.3143698027982
 20
566.4948542671858
 30
0.0
 10
121.3161048274673
 20
567.0574960529958
 30
0.0
 10
121.286471736583
 20
567.7294084880951
 30
0.0
 10
121.2252747746186
 20
568.5082237313131
 30
0.0
 10
121.1523850692301
 20
569.1814377665534
 30
0.0
 10
121.0838065464335
 20
569.7238964414488
 30
0.0
 10
121.0274582482518
 20
570.1339141963592
 30
0.0
 10
120.9861407574906
 20
570.4391956327397
 30
0.0
 10
120.9511603816499
 20
570.6661061923722
 30
0.0
 10
120.9115079134925
 20
570.9171091918436
 30
0.0
 10
120.9197907084414
 20
571.1401697183832
 30
0.0
 10
120.886957699671
 20
571.4254720031079
 30
0.0
 10
120.8663741851878
 20
571.7348911552069
 30
0.0
 10
120.8385488464204
 20
572.0154242511283
 30
0.0
 10
120.8159014841068
 20
572.589850484513
 30
0.0
 10
120.7895237924963
 20
573.4091097282678
 30
0.0
 10
120.7477038927219
 20
574.5928996329798
 30
0.0
 10
120.711088696068
 20
576.0780650489893
 30
0.0
 10
120.6689865926851
 20
577.9223981135357
 30
0.0
 10
120.6600713911887
 20
580.0545561327484
 30
0.0
 10
120.6523020937461
 20
582.6851839209295
 30
0.0
 10
120.6424606135262
 20
585.3727252900931
 30
0.0
 10
120.6353170700061
 20
586.9715403486558
 30
0.0
 10
120.6315433750179
 20
587.8077963603777
 30
0.0
  0
ARC
  5
CC
330
73
100
AcDbEntity
  8
$DDT_AUDIT_GENERATED_(A9)
  6
Continuous
 62
     7
100
AcDbCircle
 10
89.0546161894
 20
522.1878991694
 30
0.0
 40
0.3000005157217098
100
AcDbArc
 50
174.5587908923
 51
270.075921279
  0
ARC
  5
CD
330
73
100
AcDbEntity
  8
$DDT_AUDIT_GENERATED_(A9)
  6
Continuous
 62
     7
100
AcDbCircle
 10
143.6445384084
 20
522.1878991178
 30
0.0
 40
0.2999971113827426
100
AcDbArc
 50
269.9223922553
 51
4.7535173348
  0
ARC
  5
CF
330
73
100
AcDbEntity
  8
$DDT_AUDIT_GENERATED_(CE)
  6
Continuous
 62
     7
100
AcDbCircle
 10
116.3496422975
 20
534.8878986938
 30
0.0
 40
4.35
100
AcDbArc
 50
128.106411943
 51
0.0
  0
ARC
  5
D0
330
73
100
AcDbEntity
  8
$DDT_AUDIT_GENERATED_(CE)
  6
Continuous
 62
     7
100
AcDbCircle
 10
116.3496422975
 20
534.8878986938
 30
0.0
 40
4.35
100
AcDbArc
 50
0.0
 51
89.9736205561
  0
ARC
  5
D1
330
73
100
AcDbEntity
  8
$DDT_AUDIT_GENERATED_(A7)
  6
Continuous
 62
     7
100
AcDbCircle
 10
191.3496422479
 20
468.0473658623
 30
0.0
 40
34.91206301938993
100
AcDbArc
 50
0.0
 51
142.9661299454
  0
ARC
  5
D2
330
73
100
AcDbEntity
  8
$DDT_AUDIT_GENERATED_(A7)
  6
Continuous
 62
     7
100
AcDbCircle
 10
191.3496422479
 20
468.0473658623
 30
0.0
 40
34.91206301938993
100
AcDbArc
 50
216.80735762
 51
0.0
  0
SPLINE
  5
D4
330
73
100
AcDbEntity
  8
$DDT_AUDIT_GENERATED_(D3)
  6
Continuous
 62
     7
100
AcDbSpline
210
0.0
220
0.0
230
1.0
 70
     8
 71
     3
 72
    34
 73
    30
 74
     0
 42
0.0000000002374391
 43
0.0000000001
 40
0.0
 40
0.0
 40
0.0
 40
0.0
 40
0.0625
 40
0.0625
 40
0.125
 40
0.125
 40
0.1875
 40
0.1875
 40
0.25
 40
0.25
 40
0.375
 40
0.375
 40
0.4375
 40
0.4375
 40
0.5
 40
0.5
 40
0.5625
 40
0.5625
 40
0.625
 40
0.625
 40
0.75
 40
0.75
 40
0.8125
 40
0.8125
 40
0.875
 40
0.875
 40
0.9375
 40
0.9375
 40
1.0
 40
1.0
 40
1.0
 40
1.0
 10
95.61638837585394
 20
429.0548704538111
 30
0.0
 10
95.66900325522893
 20
428.9030909951554
 30
0.0
 10
95.84777503319913
 20
428.7773430766082
 30
0.0
 10
96.45234731324109
 20
428.6526521040474
 30
0.0
 10
96.88575191733233
 20
428.6460127881105
 30
0.0
 10
97.9769502164784
 20
428.7359106499636
 30
0.0
 10
98.63178920582384
 20
428.8282035564152
 30
0.0
 10
100.1579034170492
 20
429.099390677489
 30
0.0
 10
101.0297266217187
 20
429.2766547767219
 30
0.0
 10
103.8721946337661
 20
429.8016327839922
 30
0.0
 10
106.1363922986826
 20
430.1714697683172
 30
0.0
 10
109.7961824431153
 20
430.5654357233087
 30
0.0
 10
111.083115552367
 20
430.6733356921888
 30
0.0
 10
113.6931065318311
 20
430.8177841046335
 30
0.0
 10
115.0084144899664
 20
430.8547206039499
 30
0.0
 10
117.659536623439
 20
430.8557363699391
 30
0.0
 10
119.0060474190906
 20
430.8175794939325
 30
0.0
 10
121.6056977892896
 20
430.6744510646372
 30
0.0
 10
122.8715563626485
 20
430.5699619392156
 30
0.0
 10
126.5674173076888
 20
430.1737298826181
 30
0.0
 10
128.8054125825009
 20
429.8053603387859
 30
0.0
 10
131.6733823869575
 20
429.2760452294144
 30
0.0
 10
132.5291292406089
 20
429.1019169428156
 30
0.0
 10
134.049295460957
 20
428.8308599851484
 30
0.0
 10
134.7197725138226
 20
428.7358852514517
 30
0.0
 10
135.8117337069166
 20
428.6465883146195
 30
0.0
 10
136.2369274184274
 20
428.6541555841329
 30
0.0
 10
136.8471837636311
 20
428.7843582846722
 30
0.0
 10
137.0302249669382
 20
428.9167637022701
 30
0.0
 10
137.0828962190993
 20
429.0725281672983
 30
0.0
  0
ARC
  5
D5
330
73
100
AcDbEntity
  8
$DDT_AUDIT_GENERATED_(D3)
  6
Continuous
 62
     7
100
AcDbCircle
 10
111.1805912648
 20
428.2650824213
 30
0.0
 40
34.96007929965857
100
AcDbArc
 50
314.4954269572
 51
316.0863475943
  0
ARC
  5
D6
330
73
100
AcDbEntity
  8
$DDT_AUDIT_GENERATED_(D3)
  6
Continuous
 62
     7
100
AcDbCircle
 10
131.6171617004
 20
396.426006096
 30
0.0
 40
3.122965475760911
100
AcDbArc
 50
100.5834395919
 51
101.9718285014
  0
ARC
  5
D7
330
73
100
AcDbEntity
  8
$DDT_AUDIT_GENERATED_(D3)
  6
Continuous
 62
     7
100
AcDbCircle
 10
121.5184469042
 20
428.264792993
 30
0.0
 40
34.95970111441767
100
AcDbArc
 50
224.0006910979
 51
225.4211123022
  0
ARC
  5
D8
330
73
100
AcDbEntity
  8
$DDT_AUDIT_GENERATED_(D3)
  6
Continuous
 62
     7
100
AcDbCircle
 10
116.3496422975
 20
539.1401690706
 30
0.0
 40
140.448606147327
100
AcDbArc
 50
275.789492255
 51
275.8976678601
  0
ARC
  5
D9
330
73
100
AcDbEntity
  8
$DDT_AUDIT_GENERATED_(D3)
  6
Continuous
 62
     7
100
AcDbCircle
 10
116.3496422975
 20
539.1401690706
 30
0.0
 40
140.448606147327
100
AcDbArc
 50
264.1023321399
 51
264.1608153689
  0
ARC
  5
DA
330
73
100
AcDbEntity
  8
$DDT_AUDIT_GENERATED_(D3)
  6
Continuous
 62
     7
100
AcDbCircle
 10
101.0821228946
 20
396.426006096
 30
0.0
 40
3.122965475781039
100
AcDbArc
 50
74.4702751016
 51
76.7994022451
  0
LINE
  5
DB
330
73
100
AcDbEntity
  8
$DDT_AUDIT_GENERATED_(D3)
  6
Continuous
 62
     7
100
AcDbLine
 10
100.162279923
 20
401.4309770712
 30
0.0
 11
100.162279923
 21
412.0124742356
 31
0.0
  0
LINE
  5
DC
330
73
100
AcDbEntity
  8
$DDT_AUDIT_GENERATED_(D3)
  6
Continuous
 62
     7
100
AcDbLine
 10
132.537004672
 20
401.4309770712
 30
0.0
 11
132.537004672
 21
412.0122967578
 31
0.0
  0
ELLIPSE
  5
DD
330
73
100
AcDbEntity
  8
$DDT_AUDIT_GENERATED_(D3)
  6
Continuous
 62
     7
100
AcDbEllipse
 10
130.5385648726
 20
401.4309770712
 30
0.0
 11
0.1259219672873363
 21
-1.996031978239388
 31
0.0
210
0.0
220
0.0
230
1.0
 40
0.9992167986
 41
0.1924203009066729
 42
0.3092922261052085
  0
ELLIPSE
  5
DE
330
73
100
AcDbEntity
  8
$DDT_AUDIT_GENERATED_(D3)
  6
Continuous
 62
     7
100
AcDbEllipse
 10
135.0844564198
 20
405.5623868107
 30
0.0
 11
-1.484182400376423
 21
1.340597852606366
 31
0.0
210
0.0
220
0.0
230
0.9999999999999999
 40
0.9982662309
 41
3.353842085687412
 42
3.877067424412107
  0
ELLIPSE
  5
DF
330
73
100
AcDbEntity
  8
$DDT_AUDIT_GENERATED_(D3)
  6
Continuous
 62
     7
100
AcDbEllipse
 10
102.1607197223
 20
401.4309770712
 30
0.0
 11
-0.1259219673139418
 21
-1.996031978237889
 31
0.0
210
0.0
220
0.0
230
1.0
 40
0.9992167986
 41
5.964369067289833
 42
6.090765006286222
  0
ELLIPSE
  5
E0
330
73
100
AcDbEntity
  8
$DDT_AUDIT_GENERATED_(D3)
  6
Continuous
 62
     7
100
AcDbEllipse
 10
97.6148281752
 20
405.5623868107
 30
0.0
 11
1.484182400377544
 21
1.340597852604937
 31
0.0
210
0.0
220
0.0
230
0.9999999999999999
 40
0.9982662309
 41
2.898641578635169
 42
2.924119106728407
  0
LINE
  5
E1
330
73
100
AcDbEntity
  8
$DDT_AUDIT_GENERATED_(D3)
  6
Continuous
 62
     7
100
AcDbLine
 10
136.3924808444
 20
420.6147706454
 30
0.0
 11
132.537004672
 21
412.0122967578
 31
0.0
  0
ARC
  5
E2
330
73
100
AcDbEntity
  8
$DDT_AUDIT_GENERATED_(D3)
  6
Continuous
 62
     7
100
AcDbCircle
 10
89.9129751554
 20
428.6659985277
 30
0.0
 40
47.1716728503698
100
AcDbArc
 50
350.1726829389
 51
0.4937861967
  0
ARC
  5
E3
330
73
100
AcDbEntity
  8
$DDT_AUDIT_GENERATED_(D3)
  6
Continuous
 62
     7
100
AcDbCircle
 10
116.3502211962
 20
517.6125760312
 30
0.0
 40
106.8336601540446
100
AcDbArc
 50
261.2847028925
 51
278.7146689182
  0
ARC
  5
E4
330
73
100
AcDbEntity
  8
$DDT_AUDIT_GENERATED_(D3)
  6
Continuous
 62
     7
100
AcDbCircle
 10
142.7199749723
 20
428.6595507104
 30
0.0
 40
47.10524543980723
100
AcDbArc
 50
179.5191529408
 51
189.8332871031
  0
LINE
  5
E5
330
73
100
AcDbEntity
  8
$DDT_AUDIT_GENERATED_(D3)
  6
Continuous
 62
     7
100
AcDbLine
 10
100.162279923
 20
412.0124742356
 30
0.0
 11
96.3067599637
 21
420.6148244553
 31
0.0
  0
SPLINE
  5
E6
330
73
100
AcDbEntity
  8
$DDT_AUDIT_GENERATED_(D3)
  6
Continuous
 62
     7
100
AcDbSpline
210
0.0
220
0.0
230
1.0
 70
     8
 71
     3
 72
    16
 73
    12
 74
     0
 42
0.0000000002036562
 43
0.0000000001
 40
0.0
 40
0.0
 40
0.0
 40
0.0
 40
0.0625000000000003
 40
0.0625000000000003
 40
0.1250000000000007
 40
0.1250000000000007
 40
0.1875000000000006
 40
0.1875000000000006
 40
0.2500000000000006
 40
0.2500000000000006
 40
0.2507165816459792
 40
0.2507165816459792
 40
0.2507165816459792
 40
0.2507165816459792
 10
116.3496422974766
 20
398.0997465470722
 30
0.0
 10
114.7238885176622
 20
398.0997465470722
 30
0.0
 10
113.1174003811478
 20
398.166508211768
 30
0.0
 10
110.1659140881124
 20
398.3354906754649
 30
0.0
 10
108.8154132662556
 20
398.4356570963033
 30
0.0
 10
106.5543958510223
 20
398.6271917802345
 30
0.0
 10
105.6602619636194
 20
398.7169497229684
 30
0.0
 10
104.4295489249208
 20
398.8958782882157
 30
0.0
 10
104.1072133125054
 20
398.9103956486827
 30
0.0
 10
104.0996876370307
 20
398.8794569913525
 30
0.0
 10
104.0996449676161
 20
398.8791018124909
 30
0.0
 10
104.0996448862552
 20
398.8787421090427
 30
0.0
  0
SPLINE
  5
E7
330
73
100
AcDbEntity
  8
$DDT_AUDIT_GENERATED_(D3)
  6
Continuous
 62
     7
100
AcDbSpline
210
0.0
220
0.0
230
1.0
 70
     8
 71
     3
 72
     8
 73
     4
 74
     0
 42
0.0000000006778046
 43
0.0000000001
 40
0.2754827675837494
 40
0.2754827675837494
 40
0.2754827675837494
 40
0.2754827675837494
 40
0.2850531064055734
 40
0.2850531064055734
 40
0.2850531064055734
 40
0.2850531064055734
 10
104.2502427272786
 20
398.8233324842566
 30
0.0
 10
104.2887819085694
 20
398.8136172428769
 30
0.0
 10
104.3346176581035
 20
398.8028112291304
 30
0.0
 10
104.3876340907348
 20
398.7908048060987
 30
0.0
  0
SPLINE
  5
E8
330
73
100
AcDbEntity
  8
$DDT_AUDIT_GENERATED_(D3)
  6
Continuous
 62
     7
100
AcDbSpline
210
0.0
220
0.0
230
1.0
 70
     8
 71
     3
 72
     8
 73
     4
 74
     0
 42
0.0000000008253412
 43
0.0000000001
 40
0.7152185668262308
 40
0.7152185668262308
 40
0.7152185668262308
 40
0.7152185668262308
 40
0.73466646117264
 40
0.73466646117264
 40
0.73466646117264
 40
0.73466646117264
 10
128.321041063311
 20
398.7931115836045
 30
0.0
 10
128.427123173637
 20
398.8172863801805
 30
0.0
 10
128.5034776936838
 20
398.8365072586445
 30
0.0
 10
128.5491267204353
 20
398.8516534833613
 30
0.0
  0
SPLINE
  5
E9
330
73
100
AcDbEntity
  8
$DDT_AUDIT_GENERATED_(D3)
  6
Continuous
 62
     7
100
AcDbSpline
210
0.0
220
0.0
230
1.0
 70
     8
 71
     3
 72
    16
 73
    12
 74
     0
 42
0.0000000002039889
 43
0.0000000001
 40
0.7489341500348309
 40
0.7489341500348309
 40
0.7489341500348309
 40
0.7489341500348309
 40
0.7500000000000001
 40
0.7500000000000001
 40
0.8125000000000001
 40
0.8125000000000001
 40
0.875
 40
0.875
 40
0.9375
 40
0.9375
 40
1.0
 40
1.0
 40
1.0
 40
1.0
 10
128.5996307992475
 20
398.8787569336597
 30
0.0
 10
128.5996345996767
 20
398.8792853035822
 30
0.0
 10
128.5995440171658
 20
398.8798033722628
 30
0.0
 10
128.5885033274086
 20
398.9100945674994
 30
0.0
 10
128.257117720778
 20
398.8936203440402
 30
0.0
 10
127.0335769207413
 20
398.7165877798654
 30
0.0
 10
126.1277435163726
 20
398.6256243404409
 30
0.0
 10
123.8770133964074
 20
398.4351924212639
 30
0.0
 10
122.5288727257471
 20
398.3350826340496
 30
0.0
 10
119.5605607323325
 20
398.1654392141739
 30
0.0
 10
117.975396077291
 20
398.0997465470722
 30
0.0
 10
116.3496422974766
 20
398.0997465470722
 30
0.0
  0
LINE
  5
EA
330
73
100
AcDbEntity
  8
$DDT_AUDIT_GENERATED_(D3)
  6
Continuous
 62
     7
100
AcDbLine
 10
95.6002017302
 20
450.991933314
 30
0.0
 11
95.6002017302
 21
405.5943448229
 31
0.0
  0
LINE
  5
EB
330
73
100
AcDbEntity
  8
$DDT_AUDIT_GENERATED_(D3)
  6
Continuous
 62
     7
100
AcDbLine
 10
137.0990828648
 20
405.5943164547
 30
0.0
 11
137.0990828648
 21
452.1378986938
 31
0.0
  0
ARC
  5
EC
330
73
100
AcDbEntity
  8
$DDT_AUDIT_GENERATED_(D3)
  6
Continuous
 62
     7
100
AcDbCircle
 10
138.8471049555
 20
363.8978698165
 30
0.0
 40
36.43990266356199
100
AcDbArc
 50
102.7411046352
 51
106.4553857513
  0
ARC
  5
ED
330
73
100
AcDbEntity
  8
$DDT_AUDIT_GENERATED_(D3)
  6
Continuous
 62
     7
100
AcDbCircle
 10
112.1443680244
 20
433.7849173957
 30
0.0
 40
35.84462407242408
100
AcDbArc
 50
253.2701738853
 51
257.2890571178
  0
ARC
  5
EE
330
73
100
AcDbEntity
  8
$DDT_AUDIT_GENERATED_(D3)
  6
Continuous
 62
     7
100
AcDbCircle
 10
134.9850752655
 20
405.6044620628
 30
0.0
 40
2.096640965028207
100
AcDbArc
 50
315.651877371
 51
333.8534217889
  0
SPLINE
  5
EF
330
73
100
AcDbEntity
  8
$DDT_AUDIT_GENERATED_(D3)
  6
Continuous
 62
     7
100
AcDbSpline
210
0.0
220
0.0
230
1.0
 70
     8
 71
     3
 72
    16
 73
    12
 74
     0
 42
0.0000000016692489
 43
0.0000000001
 40
0.0
 40
0.0
 40
0.0
 40
0.0
 40
0.0093783785756831
 40
0.0223009647692616
 40
0.0371394599745413
 40
0.0542577523418412
 40
0.0755539959110803
 40
0.2699184214188741
 40
0.4886549279686949
 40
0.8706050199378892
 40
1.0
 40
1.0
 40
1.0
 40
1.0
 10
131.279049327074
 20
399.5426139435923
 30
0.0
 10
131.3749055666945
 20
399.5838829372091
 30
0.0
 10
131.5658519024739
 20
399.6657927375156
 30
0.0
 10
131.7724324873852
 20
399.8049777599577
 30
0.0
 10
131.9272933171735
 20
399.9208204633054
 30
0.0
 10
131.9988458672027
 20
399.9793378692287
 30
0.0
 10
132.3644991669769
 20
400.2734528019134
 30
0.0
 10
132.939231811718
 20
400.7801278071482
 30
0.0
 10
134.0362308008887
 20
401.7942700905222
 30
0.0
 10
134.9455936857931
 20
402.6660117244552
 30
0.0
 10
135.595694839776
 20
403.2760712630126
 30
0.0
 10
135.7873566621755
 20
403.456216938256
 30
0.0
  0
ARC
  5
F0
330
73
100
AcDbEntity
  8
$DDT_AUDIT_GENERATED_(D3)
  6
Continuous
 62
     7
100
AcDbCircle
 10
129.9181246899
 20
403.4315186774
 30
0.0
 40
4.088304204229575
100
AcDbArc
 50
282.7458259013
 51
284.5331347652
  0
ARC
  5
F1
330
73
100
AcDbEntity
  8
$DDT_AUDIT_GENERATED_(D3)
  6
Continuous
 62
     7
100
AcDbCircle
 10
97.5086735579
 20
405.5342083404
 30
0.0
 40
1.900958562833246
100
AcDbArc
 50
178.1857491966
 51
210.5337114947
  0
ARC
  5
F2
330
73
100
AcDbEntity
  8
$DDT_AUDIT_GENERATED_(D3)
  6
Continuous
 62
     7
100
AcDbCircle
 10
135.2098890728
 20
405.5065281556
 30
0.0
 40
1.875764010607373
100
AcDbArc
 50
329.5619928395
 51
2.7887550042
  0
SPLINE
  5
F3
330
73
100
AcDbEntity
  8
$DDT_AUDIT_GENERATED_(D3)
  6
Continuous
 62
     7
100
AcDbSpline
210
0.0
220
0.0
230
1.0
 70
     8
 71
     3
 72
    18
 73
    14
 74
     0
 42
0.0000000016593668
 43
0.0000000001
 40
0.0
 40
0.0
 40
0.0
 40
0.0
 40
0.1394827591502038
 40
0.3824024620188153
 40
0.5054628560419759
 40
0.6259645244636084
 40
0.8107427021958994
 40
0.8979170135238463
 40
0.9449217798830655
 40
0.9617615537638121
 40
0.9759074741595238
 40
0.9908518538912674
 40
1.0
 40
1.0
 40
1.0
 40
1.0
 10
96.87437637772831
 20
403.4950397181593
 30
0.0
 10
97.08582918299194
 20
403.2947453179335
 30
0.0
 10
97.58387813057301
 20
402.82128945287
 30
0.0
 10
98.18089925155896
 20
402.2697690150945
 30
0.0
 10
98.85706773962127
 20
401.6104881782332
 30
0.0
 10
99.44179314285049
 20
401.0690058178855
 30
0.0
 10
99.97368486661834
 20
400.5938701778189
 30
0.0
 10
100.4138752180983
 20
400.2121645578393
 30
0.0
 10
100.6616068755952
 20
400.0100442776251
 30
0.0
 10
100.7636952671764
 20
399.9281373825598
 30
0.0
 10
100.8851636519102
 20
399.8347835633434
 30
0.0
 10
101.095426702164
 20
399.6826151882977
 30
0.0
 10
101.3062181623114
 20
399.5904938502021
 30
0.0
 10
101.4019412003598
 20
399.5482632359596
 30
0.0
  0
ARC
  5
F4
330
73
100
AcDbEntity
  8
$DDT_AUDIT_GENERATED_(D3)
  6
Continuous
 62
     7
100
AcDbCircle
 10
97.5011036601
 20
405.3860797313
 30
0.0
 40
1.833947250892012
100
AcDbArc
 50
205.0971969753
 51
231.2048911555
  0
ELLIPSE
  5
F6
330
73
100
AcDbEntity
  8
$DDT_AUDIT_GENERATED_(F5)
  6
Continuous
 62
     7
100
AcDbEllipse
 10
116.3496422975
 20
393.0892018014
 30
0.0
 11
-11.85999999999216
 21
-9.020562075079397E-12
 31
0.0
210
0.0
220
0.0
230
1.0
 40
0.1218693434
 41
3.530353591894103
 42
5.8944243688751
  0
ELLIPSE
  5
F7
330
73
100
AcDbEntity
  8
$DDT_AUDIT_GENERATED_(F5)
  6
Continuous
 62
     7
100
AcDbEllipse
 10
116.3496422975
 20
392.4730662624
 30
0.0
 11
10.78480762113533
 21
0.0
 31
0.0
210
0.0
220
0.0
230
1.0
 40
0.1218693434
 41
5.800416945052362
 42
6.245568473281142
  0
ELLIPSE
  5
F8
330
73
100
AcDbEntity
  8
$DDT_AUDIT_GENERATED_(F5)
  6
Continuous
 62
     7
100
AcDbEllipse
 10
116.3496422975
 20
392.4730662624
 30
0.0
 11
10.78480762113533
 21
0.0
 31
0.0
210
0.0
220
0.0
230
1.0
 40
0.1218693434
 41
3.118517687272555
 42
3.624361015717012
  0
ELLIPSE
  5
F9
330
73
100
AcDbEntity
  8
$DDT_AUDIT_GENERATED_(F5)
  6
Continuous
 62
     7
100
AcDbEllipse
 10
116.3496422975
 20
392.4730662624
 30
0.0
 11
10.78480762113533
 21
0.0
 31
0.0
210
0.0
220
0.0
230
1.0
 40
0.1218693434
 41
0.1029128208006677
 42
3.064614737921327
  0
ELLIPSE
  5
FA
330
73
100
AcDbEntity
  8
$DDT_AUDIT_GENERATED_(F5)
  6
Continuous
 62
     7
100
AcDbEllipse
 10
116.3496422975
 20
392.453119867
 30
0.0
 11
10.70980762113533
 21
1.387778780781446E-14
 31
0.0
210
0.0
220
0.0
230
1.0
 40
0.1218693434
 41
-0.7546342463479432
 42
-0.1196224538102584
  0
ELLIPSE
  5
FB
330
73
100
AcDbEntity
  8
$DDT_AUDIT_GENERATED_(F5)
  6
Continuous
 62
     7
100
AcDbEllipse
 10
116.3496422975
 20
392.453119867
 30
0.0
 11
10.70980762113533
 21
1.387778780781446E-14
 31
0.0
210
0.0
220
0.0
230
1.0
 40
0.1218693434
 41
3.27935730874158
 42
3.896226899937734
  0
ELLIPSE
  5
FC
330
73
100
AcDbEntity
  8
$DDT_AUDIT_GENERATED_(F5)
  6
Continuous
 62
     7
100
AcDbEllipse
 10
116.3496422975
 20
392.453119867
 30
0.0
 11
10.70980762113533
 21
1.387778780781446E-14
 31
0.0
210
0.0
220
0.0
230
1.0
 40
0.1218693434
 41
0.0141891224817732
 42
3.089934595305775
  0
ELLIPSE
  5
FD
330
73
100
AcDbEntity
  8
$DDT_AUDIT_GENERATED_(F5)
  6
Continuous
 62
     7
100
AcDbEllipse
 10
116.3496422975
 20
392.453119867
 30
0.0
 11
10.075
 21
0.0
 31
0.0
210
0.0
220
0.0
230
1.0
 40
0.1218693434
 41
5.761352827289278
 42
6.283185307179586
  0
ELLIPSE
  5
FE
330
73
100
AcDbEntity
  8
$DDT_AUDIT_GENERATED_(F5)
  6
Continuous
 62
     7
100
AcDbEllipse
 10
116.3496422975
 20
392.453119867
 30
0.0
 11
10.075
 21
0.0
 31
0.0
210
0.0
220
0.0
230
1.0
 40
0.1218693434
 41
0.0
 42
3.663425133480101
  0
ELLIPSE
  5
FF
330
73
100
AcDbEntity
  8
$DDT_AUDIT_GENERATED_(F5)
  6
Continuous
 62
     7
100
AcDbEllipse
 10
116.3496422975
 20
389.9356067467
 30
0.0
 11
11.91826129371973
 21
-6.90672819022943
 31
0.0
210
0.0
220
0.0
230
1.0
 40
0.0914876479
 41
2.790734799388717
 42
3.598386977710294
  0
LINE
  5
100
330
73
100
AcDbEntity
  8
$DDT_AUDIT_GENERATED_(F5)
  6
Continuous
 62
     7
100
AcDbLine
 10
105.3746422975
 20
396.7963299817
 30
0.0
 11
105.3746422975
 21
393.7896720672
 31
0.0
  0
LINE
  5
101
330
73
100
AcDbEntity
  8
$DDT_AUDIT_GENERATED_(F5)
  6
Continuous
 62
     7
100
AcDbLine
 10
105.3746422975
 20
393.7896720672
 30
0.0
 11
105.3746422975
 21
393.637058044
 31
0.0
  0
LINE
  5
102
330
73
100
AcDbEntity
  8
$DDT_AUDIT_GENERATED_(F5)
  6
Continuous
 62
     7
100
AcDbLine
 10
105.3746422975
 20
393.637058044
 30
0.0
 11
105.3746422975
 21
392.4381879733
 31
0.0
  0
ELLIPSE
  5
103
330
73
100
AcDbEntity
  8
$DDT_AUDIT_GENERATED_(F5)
  6
Continuous
 62
     7
100
AcDbEllipse
 10
116.3496422975
 20
389.9356067467
 30
0.0
 11
-11.91826129371948
 21
-6.906728190229276
 31
0.0
210
0.0
220
0.0
230
0.9999999999999998
 40
0.0914876479
 41
2.684798329469293
 42
3.492450507790852
  0
LINE
  5
104
330
73
100
AcDbEntity
  8
$DDT_AUDIT_GENERATED_(F5)
  6
Continuous
 62
     7
100
AcDbLine
 10
127.3246422975
 20
396.7963299817
 30
0.0
 11
127.3246422975
 21
393.7896720672
 31
0.0
  0
LINE
  5
105
330
73
100
AcDbEntity
  8
$DDT_AUDIT_GENERATED_(F5)
  6
Continuous
 62
     7
100
AcDbLine
 10
127.3246422975
 20
393.7896720672
 30
0.0
 11
127.3246422975
 21
393.637058044
 31
0.0
  0
LINE
  5
106
330
73
100
AcDbEntity
  8
$DDT_AUDIT_GENERATED_(F5)
  6
Continuous
 62
     7
100
AcDbLine
 10
127.3246422975
 20
393.637058044
 30
0.0
 11
127.3246422975
 21
392.4381879733
 31
0.0
  0
LINE
  5
107
330
73
100
AcDbEntity
  8
$DDT_AUDIT_GENERATED_(F5)
  6
Continuous
 62
     7
100
AcDbLine
 10
104.4146422975
 20
398.879845911
 30
0.0
 11
104.4146422975
 21
396.7749201595
 31
0.0
  0
LINE
  5
108
330
73
100
AcDbEntity
  8
$DDT_AUDIT_GENERATED_(F5)
  6
Continuous
 62
     7
100
AcDbLine
 10
128.2846422975
 20
396.7749201595
 30
0.0
 11
128.2846422975
 21
398.8803145819
 31
0.0
  0
LINE
  5
109
330
73
100
AcDbEntity
  8
$DDT_AUDIT_GENERATED_(F5)
  6
Continuous
 62
     7
100
AcDbLine
 10
105.3746422975
 20
392.4381856671
 30
0.0
 11
105.8115449365
 21
392.1935473083
 31
0.0
  0
LINE
  5
10A
330
73
100
AcDbEntity
  8
$DDT_AUDIT_GENERATED_(F5)
  6
Continuous
 62
     7
100
AcDbLine
 10
126.8877396585
 20
392.1935473083
 30
0.0
 11
127.3246422975
 21
392.4381856671
 31
0.0
  0
ELLIPSE
  5
10C
330
73
100
AcDbEntity
  8
$DDT_AUDIT_GENERATED_(10B)
  6
Continuous
 62
     7
100
AcDbEllipse
 10
116.3496422975
 20
392.1057287139
 30
0.0
 11
9.000000000000002
 21
0.0
 31
0.0
210
0.0
220
0.0
230
1.0
 40
0.1218693434
 41
0.0
 42
6.283185307179586
  0
ELLIPSE
  5
10D
330
73
100
AcDbEntity
  8
$DDT_AUDIT_GENERATED_(10B)
  6
Continuous
 62
     7
100
AcDbEllipse
 10
116.3496422975
 20
392.1057287139
 30
0.0
 11
-5.249999999999997
 21
0.0
 31
0.0
210
0.0
220
0.0
230
1.0
 40
0.1218693434
 41
0.0
 42
6.283185307179586
  0
ELLIPSE
  5
10E
330
73
100
AcDbEntity
  8
$DDT_AUDIT_GENERATED_(10B)
  6
Continuous
 62
     7
100
AcDbEllipse
 10
116.3496422975
 20
392.1057287139
 30
0.0
 11
6.249999999999997
 21
0.0
 31
0.0
210
0.0
220
0.0
230
1.0
 40
0.1218693434
 41
0.0
 42
6.283185307179586
  0
ELLIPSE
  5
10F
330
73
100
AcDbEntity
  8
$DDT_AUDIT_GENERATED_(10B)
  6
Continuous
 62
     7
100
AcDbEllipse
 10
116.3496422975
 20
392.1057287139
 30
0.0
 11
2.750000000000002
 21
0.0
 31
0.0
210
0.0
220
0.0
230
1.0
 40
0.1218693434
 41
0.0
 42
6.283185307179586
  0
ELLIPSE
  5
110
330
73
100
AcDbEntity
  8
$DDT_AUDIT_GENERATED_(10B)
  6
Continuous
 62
     7
100
AcDbEllipse
 10
116.3496422975
 20
392.1057287139
 30
0.0
 11
2.150000000000001
 21
0.0
 31
0.0
210
0.0
220
0.0
230
1.0
 40
0.1218693434
 41
0.0
 42
6.283185307179586
  0
ELLIPSE
  5
111
330
73
100
AcDbEntity
  8
$DDT_AUDIT_GENERATED_(10B)
  6
Continuous
 62
     7
100
AcDbEllipse
 10
116.3496422975
 20
392.3042379442
 30
0.0
 11
0.5196299438963559
 21
0.0
 31
0.0
210
0.0
220
0.0
230
1.0
 40
0.1218693434
 41
0.0
 42
6.283185307179586
  0
ELLIPSE
  5
112
330
73
100
AcDbEntity
  8
$DDT_AUDIT_GENERATED_(10B)
  6
Continuous
 62
     7
100
AcDbEllipse
 10
116.3496422975
 20
392.1057287139
 30
0.0
 11
-8.699999999999999
 21
-1.387778780781446E-14
 31
0.0
210
0.0
220
0.0
230
1.0
 40
0.1218693434
 41
0.0
 42
6.283185307179586
  0
ARC
  5
113
330
73
100
AcDbEntity
  8
$DDT_AUDIT_GENERATED_(10B)
  6
Continuous
 62
     7
100
AcDbCircle
 10
116.3496422975
 20
341.7879571159
 30
0.0
 40
51.27796423072895
100
AcDbArc
 50
90.0
 51
90.1117357459
  0
LINE
  5
114
330
73
100
AcDbEntity
  8
$DDT_AUDIT_GENERATED_(10B)
  6
Continuous
 62
     7
100
AcDbLine
 10
116.4496422975
 20
393.0658238388
 30
0.0
 11
116.4496422975
 21
393.0659213405
 31
0.0
  0
ELLIPSE
  5
115
330
73
100
AcDbEntity
  8
$DDT_AUDIT_GENERATED_(10B)
  6
Continuous
 62
     7
100
AcDbEllipse
 10
116.3496422808
 20
392.3042379366
 30
0.0
 11
6.250000034342539
 21
1.995445475522217E-9
 31
0.0
210
0.0
220
0.0
230
1.0
 40
0.121869344
 41
1.292996255012726
 42
1.324997620338332
  0
LINE
  5
116
330
73
100
AcDbEntity
  8
$DDT_AUDIT_GENERATED_(10B)
  6
Continuous
 62
     7
100
AcDbLine
 10
118.0636468435
 20
393.036719218
 30
0.0
 11
118.1273772593
 21
393.0657052502
 31
0.0
  0
LINE
  5
117
330
73
100
AcDbEntity
  8
$DDT_AUDIT_GENERATED_(10B)
  6
Continuous
 62
     7
100
AcDbLine
 10
117.8704616782
 20
393.0430276394
 30
0.0
 11
117.9207971321
 21
393.0659213405
 31
0.0
  0
LINE
  5
118
330
73
100
AcDbEntity
  8
$DDT_AUDIT_GENERATED_(10B)
  6
Continuous
 62
     7
100
AcDbLine
 10
117.8704616782
 20
393.0430276394
 30
0.0
 11
117.8704616782
 21
393.1496668618
 31
0.0
  0
ELLIPSE
  5
119
330
73
100
AcDbEntity
  8
$DDT_AUDIT_GENERATED_(10B)
  6
Continuous
 62
     7
100
AcDbEllipse
 10
116.3496422687
 20
392.3042379381
 30
0.0
 11
6.250000035962766
 21
3.082506472296132E-9
 31
0.0
210
0.0
220
0.0
230
1.0
 40
0.1218693437
 41
1.031196866473527
 42
1.063198231816761
  0
LINE
  5
11A
330
73
100
AcDbEntity
  8
$DDT_AUDIT_GENERATED_(10B)
  6
Continuous
 62
     7
100
AcDbLine
 10
119.5608448123
 20
392.9576972089
 30
0.0
 11
119.8989783625
 21
393.0290717556
 31
0.0
  0
LINE
  5
11B
330
73
100
AcDbEntity
  8
$DDT_AUDIT_GENERATED_(10B)
  6
Continuous
 62
     7
100
AcDbLine
 10
119.3876397315
 20
392.9698841432
 30
0.0
 11
119.7026018891
 21
393.0363675821
 31
0.0
  0
LINE
  5
11C
330
73
100
AcDbEntity
  8
$DDT_AUDIT_GENERATED_(10B)
  6
Continuous
 62
     7
100
AcDbLine
 10
119.3876397315
 20
392.9698841432
 30
0.0
 11
119.3876397315
 21
393.0992484697
 31
0.0
  0
ELLIPSE
  5
11D
330
73
100
AcDbEntity
  8
$DDT_AUDIT_GENERATED_(10B)
  6
Continuous
 62
     7
100
AcDbEllipse
 10
116.3496422568
 20
392.3042379392
 30
0.0
 11
6.250000043169554
 21
3.575389984078470E-9
 31
0.0
210
0.0
220
0.0
230
1.0
 40
0.1218693434
 41
0.7693974783542434
 42
0.8013988436975138
  0
LINE
  5
11E
330
73
100
AcDbEntity
  8
$DDT_AUDIT_GENERATED_(10B)
  6
Continuous
 62
     7
100
AcDbLine
 10
120.8392046364
 20
392.8341430308
 30
0.0
 11
121.5911765662
 21
392.9257853561
 31
0.0
  0
LINE
  5
11F
330
73
100
AcDbEntity
  8
$DDT_AUDIT_GENERATED_(10B)
  6
Continuous
 62
     7
100
AcDbLine
 10
120.6977832801
 20
392.8513779586
 30
0.0
 11
121.4232355166
 21
392.9397883464
 31
0.0
  0
LINE
  5
120
330
73
100
AcDbEntity
  8
$DDT_AUDIT_GENERATED_(10B)
  6
Continuous
 62
     7
100
AcDbLine
 10
120.6977832801
 20
392.8513779586
 30
0.0
 11
120.6977832801
 21
393.0240744213
 31
0.0
  0
ELLIPSE
  5
121
330
73
100
AcDbEntity
  8
$DDT_AUDIT_GENERATED_(10B)
  6
Continuous
 62
     7
100
AcDbEllipse
 10
116.3496423392
 20
392.3042379471
 30
0.0
 11
6.249999957816263
 21
-2.579617075504359E-9
 31
0.0
210
0.0
220
0.0
230
1.0
 40
0.1218693436
 41
0.5075980945121462
 42
0.5395994601262141
  0
LINE
  5
122
330
73
100
AcDbEntity
  8
$DDT_AUDIT_GENERATED_(10B)
  6
Continuous
 62
     7
100
AcDbLine
 10
121.8116082065
 20
392.6744766968
 30
0.0
 11
122.9984740388
 21
392.7579861175
 31
0.0
  0
LINE
  5
123
330
73
100
AcDbEntity
  8
$DDT_AUDIT_GENERATED_(10B)
  6
Continuous
 62
     7
100
AcDbLine
 10
121.7116082065
 20
392.6955850862
 30
0.0
 11
122.8757066443
 21
392.7774925636
 31
0.0
  0
LINE
  5
124
330
73
100
AcDbEntity
  8
$DDT_AUDIT_GENERATED_(10B)
  6
Continuous
 62
     7
100
AcDbLine
 10
121.7116082065
 20
392.6955850862
 30
0.0
 11
121.7116082065
 21
392.9404622811
 31
0.0
  0
ELLIPSE
  5
125
330
73
100
AcDbEntity
  8
$DDT_AUDIT_GENERATED_(10B)
  6
Continuous
 62
     7
100
AcDbEllipse
 10
116.3496422665
 20
392.3042379432
 30
0.0
 11
6.250000031023537
 21
9.716949467275526E-10
 31
0.0
210
0.0
220
0.0
230
1.0
 40
0.1218693431
 41
0.2457987044339564
 42
0.2778000698424354
  0
LINE
  5
126
330
73
100
AcDbEntity
  8
$DDT_AUDIT_GENERATED_(10B)
  6
Continuous
 62
     7
100
AcDbLine
 10
122.4117878262
 20
392.4895792036
 30
0.0
 11
123.9243197376
 21
392.5389706188
 31
0.0
  0
LINE
  5
127
330
73
100
AcDbEntity
  8
$DDT_AUDIT_GENERATED_(10B)
  6
Continuous
 62
     7
100
AcDbLine
 10
122.3600240172
 20
392.5131225528
 30
0.0
 11
123.8594935404
 21
392.5620874184
 31
0.0
  0
LINE
  5
128
330
73
100
AcDbEntity
  8
$DDT_AUDIT_GENERATED_(10B)
  6
Continuous
 62
     7
100
AcDbLine
 10
122.3600240172
 20
392.5131225528
 30
0.0
 11
122.3600240172
 21
392.7130639452
 31
0.0
  0
ARC
  5
129
330
73
100
AcDbEntity
  8
$DDT_AUDIT_GENERATED_(10B)
  6
Continuous
 62
     7
100
AcDbCircle
 10
124.7228196154
 20
392.3042379442
 30
0.0
 40
0.1268213380930337
100
AcDbArc
 50
354.4856357656
 51
5.5143642344
  0
ELLIPSE
  5
12A
330
73
100
AcDbEntity
  8
$DDT_AUDIT_GENERATED_(10B)
  6
Continuous
 62
     7
100
AcDbEllipse
 10
116.3496422975
 20
392.3042379442
 30
0.0
 11
8.500000000026466
 21
6.106226635438361E-13
 31
0.0
210
0.0
220
0.0
230
1.0
 40
0.1218693434
 41
0.0117649772879515
 42
0.0284170692808516
  0
ARC
  5
12B
330
73
100
AcDbEntity
  8
$DDT_AUDIT_GENERATED_(10B)
  6
Continuous
 62
     7
100
AcDbCircle
 10
122.5060282734
 20
392.3042379442
 30
0.0
 40
0.0936106561101154
100
AcDbArc
 50
0.0
 51
7.4804255323
  0
LINE
  5
12C
330
73
100
AcDbEntity
  8
$DDT_AUDIT_GENERATED_(10B)
  6
Continuous
 62
     7
100
AcDbLine
 10
124.8490540418
 20
392.2920510099
 30
0.0
 11
123.2201847562
 21
392.2920510099
 31
0.0
  0
LINE
  5
12D
330
73
100
AcDbEntity
  8
$DDT_AUDIT_GENERATED_(10B)
  6
Continuous
 62
     7
100
AcDbLine
 10
124.8490540418
 20
392.3164248785
 30
0.0
 11
123.2201847562
 21
392.3164248785
 31
0.0
  0
LINE
  5
12E
330
73
100
AcDbEntity
  8
$DDT_AUDIT_GENERATED_(10B)
  6
Continuous
 62
     7
100
AcDbLine
 10
122.5988422463
 20
392.3164248785
 30
0.0
 11
122.5988422463
 21
392.4956874268
 31
0.0
  0
ELLIPSE
  5
12F
330
73
100
AcDbEntity
  8
$DDT_AUDIT_GENERATED_(10B)
  6
Continuous
 62
     7
100
AcDbEllipse
 10
116.349642687
 20
392.3042379315
 30
0.0
 11
8.499999610210939
 21
1.246211467353930E-8
 31
0.0
210
0.0
220
0.0
230
1.0
 40
0.1218693459
 41
-0.2735643714769829
 42
-0.2500344163426726
  0
ELLIPSE
  5
130
330
73
100
AcDbEntity
  8
$DDT_AUDIT_GENERATED_(10B)
  6
Continuous
 62
     7
100
AcDbEllipse
 10
116.3496422974
 20
392.3042379442
 30
0.0
 11
8.500000000027132
 21
-6.245004513516506E-13
 31
0.0
210
0.0
220
0.0
230
1.0
 40
0.1218693434
 41
6.033150896668936
 42
6.271420329891503
  0
LINE
  5
131
330
73
100
AcDbEntity
  8
$DDT_AUDIT_GENERATED_(10B)
  6
Continuous
 62
     7
100
AcDbLine
 10
124.5853255141
 20
392.0479202634
 30
0.0
 11
124.5853255141
 21
392.2920510099
 31
0.0
  0
LINE
  5
132
330
73
100
AcDbEntity
  8
$DDT_AUDIT_GENERATED_(10B)
  6
Continuous
 62
     7
100
AcDbLine
 10
124.5335617051
 20
392.0243769142
 30
0.0
 11
123.0340921819
 21
392.0733417798
 31
0.0
  0
LINE
  5
133
330
73
100
AcDbEntity
  8
$DDT_AUDIT_GENERATED_(10B)
  6
Continuous
 62
     7
100
AcDbLine
 10
124.5853255141
 20
392.0479202634
 30
0.0
 11
123.0727936027
 21
392.0973116786
 31
0.0
  0
ELLIPSE
  5
134
330
73
100
AcDbEntity
  8
$DDT_AUDIT_GENERATED_(10B)
  6
Continuous
 62
     7
100
AcDbEllipse
 10
116.3496427059
 20
392.3042379155
 30
0.0
 11
8.499999587317456
 21
2.526313880313324E-8
 31
0.0
210
0.0
220
0.0
230
1.0
 40
0.1218693451
 41
-0.5353637655892669
 42
-0.511833810360284
  0
ELLIPSE
  5
135
330
73
100
AcDbEntity
  8
$DDT_AUDIT_GENERATED_(10B)
  6
Continuous
 62
     7
100
AcDbEllipse
 10
116.3496422975
 20
392.3042379442
 30
0.0
 11
8.500000000023409
 21
-1.276756478318930E-12
 31
0.0
210
0.0
220
0.0
230
1.0
 40
0.1218693434
 41
-0.5118337983094712
 42
-0.2735643650868651
  0
LINE
  5
136
330
73
100
AcDbEntity
  8
$DDT_AUDIT_GENERATED_(10B)
  6
Continuous
 62
     7
100
AcDbLine
 10
123.7603487853
 20
391.7968832746
 30
0.0
 11
123.7603487853
 21
392.0496260213
 31
0.0
  0
LINE
  5
137
330
73
100
AcDbEntity
  8
$DDT_AUDIT_GENERATED_(10B)
  6
Continuous
 62
     7
100
AcDbLine
 10
123.6603487853
 20
391.7757748852
 30
0.0
 11
122.4962503475
 21
391.8576823625
 31
0.0
  0
LINE
  5
138
330
73
100
AcDbEntity
  8
$DDT_AUDIT_GENERATED_(10B)
  6
Continuous
 62
     7
100
AcDbLine
 10
123.7603487853
 20
391.7968832746
 30
0.0
 11
122.5734829529
 21
391.8803926954
 31
0.0
  0
ELLIPSE
  5
139
330
73
100
AcDbEntity
  8
$DDT_AUDIT_GENERATED_(10B)
  6
Continuous
 62
     7
100
AcDbEllipse
 10
116.3496426076
 20
392.3042379064
 30
0.0
 11
8.499999671045915
 21
2.714575786377793E-8
 31
0.0
210
0.0
220
0.0
230
1.0
 40
0.1218693434
 41
-0.7971631542818765
 42
-0.7736331990986924
  0
ELLIPSE
  5
13A
330
73
100
AcDbEntity
  8
$DDT_AUDIT_GENERATED_(10B)
  6
Continuous
 62
     7
100
AcDbEllipse
 10
116.3496422974
 20
392.3042379442
 30
0.0
 11
8.50000000002745
 21
-1.748601263784622E-12
 31
0.0
210
0.0
220
0.0
230
1.0
 40
0.1218693434
 41
-0.77363318610813
 42
-0.5353637528856368
  0
LINE
  5
13B
330
73
100
AcDbEntity
  8
$DDT_AUDIT_GENERATED_(10B)
  6
Continuous
 62
     7
100
AcDbLine
 10
122.4303446561
 20
391.5804216681
 30
0.0
 11
122.4303446561
 21
391.8623195725
 31
0.0
  0
ELLIPSE
  5
13C
330
73
100
AcDbEntity
  8
$DDT_AUDIT_GENERATED_(10B)
  6
Continuous
 62
     7
100
AcDbEllipse
 10
116.3496425334
 20
392.3042378945
 30
0.0
 11
8.499999705160626
 21
2.525317455148723E-8
 31
0.0
210
0.0
220
0.0
230
1.0
 40
0.1218693417
 41
-1.058962541188667
 42
-1.035432585959502
  0
ELLIPSE
  5
13D
330
73
100
AcDbEntity
  8
$DDT_AUDIT_GENERATED_(10B)
  6
Continuous
 62
     7
100
AcDbEllipse
 10
116.3496422975
 20
392.3042379442
 30
0.0
 11
8.499999999995046
 21
1.942890293094024E-13
 31
0.0
210
0.0
220
0.0
230
1.0
 40
0.1218693434
 41
-1.035432573908798
 42
-0.7971631406857158
  0
LINE
  5
13E
330
73
100
AcDbEntity
  8
$DDT_AUDIT_GENERATED_(10B)
  6
Continuous
 62
     7
100
AcDbLine
 10
120.68595071
 20
391.4132869447
 30
0.0
 11
120.68595071
 21
391.5571957692
 31
0.0
  0
ELLIPSE
  5
13F
330
73
100
AcDbEntity
  8
$DDT_AUDIT_GENERATED_(10B)
  6
Continuous
 62
     7
100
AcDbEllipse
 10
116.3496424108
 20
392.3042378927
 30
0.0
 11
8.499999766552538
 21
1.353263334724630E-8
 31
0.0
210
0.0
220
0.0
230
1.0
 40
0.1218693407
 41
-1.320761923225354
 42
-1.297231968043484
  0
ELLIPSE
  5
140
330
73
100
AcDbEntity
  8
$DDT_AUDIT_GENERATED_(10B)
  6
Continuous
 62
     7
100
AcDbEllipse
 10
116.3496422975
 20
392.3042379442
 30
0.0
 11
8.500000000009511
 21
-7.632783294297951E-13
 31
0.0
210
0.0
220
0.0
230
1.0
 40
0.1218693434
 41
-1.297231961707153
 42
-1.058962528484413
  0
LINE
  5
141
330
73
100
AcDbEntity
  8
$DDT_AUDIT_GENERATED_(10B)
  6
Continuous
 62
     7
100
AcDbLine
 10
118.6460445117
 20
391.3068690595
 30
0.0
 11
118.6460445117
 21
391.3973224745
 31
0.0
  0
ARC
  5
142
330
73
100
AcDbEntity
  8
$DDT_AUDIT_GENERATED_(10B)
  6
Continuous
 62
     7
100
AcDbCircle
 10
116.3496422975
 20
461.0104201871
 30
0.0
 40
69.74207166431208
100
AcDbArc
 50
269.9178461468
 51
270.0821538532
  0
ELLIPSE
  5
143
330
73
100
AcDbEntity
  8
$DDT_AUDIT_GENERATED_(10B)
  6
Continuous
 62
     7
100
AcDbEllipse
 10
116.3496422975
 20
392.3042379442
 30
0.0
 11
8.500000000007395
 21
-1.804112415015879E-13
 31
0.0
210
0.0
220
0.0
230
1.0
 40
0.1218693434
 41
4.724153957672982
 42
4.962423390895752
  0
ELLIPSE
  5
144
330
73
100
AcDbEntity
  8
$DDT_AUDIT_GENERATED_(10B)
  6
Continuous
 62
     7
100
AcDbEllipse
 10
116.3496421835
 20
392.3042378923
 30
0.0
 11
-8.499999765006516
 21
1.362836232754461E-8
 31
0.0
210
0.0
220
0.0
230
1.0
 40
0.1218693407
 41
1.297231968071959
 42
1.320761923257636
  0
ELLIPSE
  5
145
330
73
100
AcDbEntity
  8
$DDT_AUDIT_GENERATED_(10B)
  6
Continuous
 62
     7
100
AcDbEllipse
 10
116.3496422975
 20
392.3042379442
 30
0.0
 11
-8.499999999998192
 21
1.387778780781446E-14
 31
0.0
210
0.0
220
0.0
230
1.0
 40
0.1218693434
 41
1.320761916283846
 42
1.559031349506847
  0
LINE
  5
146
330
73
100
AcDbEntity
  8
$DDT_AUDIT_GENERATED_(10B)
  6
Continuous
 62
     7
100
AcDbLine
 10
114.0532400832
 20
391.3068690595
 30
0.0
 11
114.0532400832
 21
391.3973224745
 31
0.0
  0
ELLIPSE
  5
147
330
73
100
AcDbEntity
  8
$DDT_AUDIT_GENERATED_(10B)
  6
Continuous
 62
     7
100
AcDbEllipse
 10
116.3496420617
 20
392.3042378945
 30
0.0
 11
-8.499999705244072
 21
2.524702669148837E-8
 31
0.0
210
0.0
220
0.0
230
1.0
 40
0.1218693417
 41
1.035432585957075
 42
1.058962541186046
  0
ELLIPSE
  5
148
330
73
100
AcDbEntity
  8
$DDT_AUDIT_GENERATED_(10B)
  6
Continuous
 62
     7
100
AcDbEllipse
 10
116.3496422975
 20
392.3042379442
 30
0.0
 11
-8.499999999995826
 21
3.053113317719180E-13
 31
0.0
210
0.0
220
0.0
230
1.0
 40
0.1218693434
 41
1.058962528484833
 42
1.297231961707889
  0
LINE
  5
149
330
73
100
AcDbEntity
  8
$DDT_AUDIT_GENERATED_(10B)
  6
Continuous
 62
     7
100
AcDbLine
 10
112.0133338849
 20
391.4132869447
 30
0.0
 11
112.0133338849
 21
391.5571957692
 31
0.0
  0
ELLIPSE
  5
14A
330
73
100
AcDbEntity
  8
$DDT_AUDIT_GENERATED_(10B)
  6
Continuous
 62
     7
100
AcDbEllipse
 10
116.3496419879
 20
392.3042379065
 30
0.0
 11
-8.49999967160427
 21
2.709586721660884E-8
 31
0.0
210
0.0
220
0.0
230
1.0
 40
0.1218693434
 41
0.7736331990702043
 42
0.7971631542525366
  0
ELLIPSE
  5
14B
330
73
100
AcDbEntity
  8
$DDT_AUDIT_GENERATED_(10B)
  6
Continuous
 62
     7
100
AcDbEllipse
 10
116.3496422975
 20
392.3042379442
 30
0.0
 11
-8.499999999998092
 21
5.273559366969494E-13
 31
0.0
210
0.0
220
0.0
230
1.0
 40
0.1218693434
 41
0.7971631406856249
 42
1.035432573908634
  0
LINE
  5
14C
330
73
100
AcDbEntity
  8
$DDT_AUDIT_GENERATED_(10B)
  6
Continuous
 62
     7
100
AcDbLine
 10
110.2689399388
 20
391.5804216681
 30
0.0
 11
110.2689399388
 21
391.8623195725
 31
0.0
  0
ELLIPSE
  5
14D
330
73
100
AcDbEntity
  8
$DDT_AUDIT_GENERATED_(10B)
  6
Continuous
 62
     7
100
AcDbEllipse
 10
116.3496419181
 20
392.3042379176
 30
0.0
 11
-8.499999616731891
 21
2.341737914690611E-8
 31
0.0
210
0.0
220
0.0
230
1.0
 40
0.121869345
 41
0.5118338094990128
 42
0.5353637646815109
  0
ELLIPSE
  5
14E
330
73
100
AcDbEntity
  8
$DDT_AUDIT_GENERATED_(10B)
  6
Continuous
 62
     7
100
AcDbEllipse
 10
116.3496422975
 20
392.3042379442
 30
0.0
 11
-8.499999999995982
 21
-2.081668171172169E-13
 31
0.0
210
0.0
220
0.0
230
1.0
 40
0.1218693434
 41
0.5353637528864953
 42
0.7736331861095325
  0
LINE
  5
14F
330
73
100
AcDbEntity
  8
$DDT_AUDIT_GENERATED_(10B)
  6
Continuous
 62
     7
100
AcDbLine
 10
108.9389358096
 20
391.7968832746
 30
0.0
 11
108.9389358096
 21
392.0496260213
 31
0.0
  0
ELLIPSE
  5
150
330
73
100
AcDbEntity
  8
$DDT_AUDIT_GENERATED_(10B)
  6
Continuous
 62
     7
100
AcDbEllipse
 10
116.3496418419
 20
392.3042379293
 30
0.0
 11
-8.499999544151139
 21
1.462535648144581E-8
 31
0.0
210
0.0
220
0.0
230
1.0
 40
0.1218693463
 41
0.2500344173307883
 42
0.2735643725597672
  0
ELLIPSE
  5
151
330
73
100
AcDbEntity
  8
$DDT_AUDIT_GENERATED_(10B)
  6
Continuous
 62
     7
100
AcDbEllipse
 10
116.3496422975
 20
392.3042379442
 30
0.0
 11
-8.500000000001242
 21
-2.081668171172169E-13
 31
0.0
210
0.0
220
0.0
230
1.0
 40
0.1218693434
 41
0.2735643650872214
 42
0.5118337983101726
  0
LINE
  5
152
330
73
100
AcDbEntity
  8
$DDT_AUDIT_GENERATED_(10B)
  6
Continuous
 62
     7
100
AcDbLine
 10
108.1139590808
 20
392.0479202634
 30
0.0
 11
108.1139590808
 21
392.2920510099
 31
0.0
  0
ARC
  5
153
330
73
100
AcDbEntity
  8
$DDT_AUDIT_GENERATED_(10B)
  6
Continuous
 62
     7
100
AcDbCircle
 10
107.9764649796
 20
392.3042379442
 30
0.0
 40
0.1268213380930337
100
AcDbArc
 50
174.4856357656
 51
185.5143642344
  0
ELLIPSE
  5
154
330
73
100
AcDbEntity
  8
$DDT_AUDIT_GENERATED_(10B)
  6
Continuous
 62
     7
100
AcDbEllipse
 10
116.3496422975
 20
392.3042379442
 30
0.0
 11
-8.50000000002648
 21
-6.106226635438361E-13
 31
0.0
210
0.0
220
0.0
230
1.0
 40
0.1218693434
 41
0.0117649772881025
 42
0.2500344105106607
  0
LINE
  5
155
330
73
100
AcDbEntity
  8
$DDT_AUDIT_GENERATED_(10B)
  6
Continuous
 62
     7
100
AcDbLine
 10
110.1004423487
 20
392.3164248785
 30
0.0
 11
110.1004423487
 21
392.4956874268
 31
0.0
  0
ELLIPSE
  5
156
330
73
100
AcDbEntity
  8
$DDT_AUDIT_GENERATED_(10B)
  6
Continuous
 62
     7
100
AcDbEllipse
 10
116.3496422975
 20
392.3042379442
 30
0.0
 11
-8.500000000024686
 21
5.689893001203927E-13
 31
0.0
210
0.0
220
0.0
230
1.0
 40
0.1218693434
 41
-0.0284170692808399
 42
-0.0117649772879327
  0
LINE
  5
157
330
73
100
AcDbEntity
  8
$DDT_AUDIT_GENERATED_(10B)
  6
Continuous
 62
     7
100
AcDbLine
 10
110.3392605778
 20
392.5131225528
 30
0.0
 11
110.3392605778
 21
392.7130639452
 31
0.0
  0
LINE
  5
158
330
73
100
AcDbEntity
  8
$DDT_AUDIT_GENERATED_(10B)
  6
Continuous
 62
     7
100
AcDbLine
 10
110.9876763885
 20
392.6955850862
 30
0.0
 11
110.9876763885
 21
392.9404622811
 31
0.0
  0
LINE
  5
159
330
73
100
AcDbEntity
  8
$DDT_AUDIT_GENERATED_(10B)
  6
Continuous
 62
     7
100
AcDbLine
 10
112.0015013148
 20
392.8513779586
 30
0.0
 11
112.0015013148
 21
393.0240744213
 31
0.0
  0
LINE
  5
15A
330
73
100
AcDbEntity
  8
$DDT_AUDIT_GENERATED_(10B)
  6
Continuous
 62
     7
100
AcDbLine
 10
111.1234707942
 20
392.923913106
 30
0.0
 11
111.8600799586
 21
392.8341430308
 31
0.0
  0
LINE
  5
15B
330
73
100
AcDbEntity
  8
$DDT_AUDIT_GENERATED_(10B)
  6
Continuous
 62
     7
100
AcDbLine
 10
113.3116448635
 20
392.9698841432
 30
0.0
 11
113.3116448635
 21
393.0992484697
 31
0.0
  0
LINE
  5
15C
330
73
100
AcDbEntity
  8
$DDT_AUDIT_GENERATED_(10B)
  6
Continuous
 62
     7
100
AcDbLine
 10
114.8288229167
 20
393.0430276394
 30
0.0
 11
114.8288229167
 21
393.1496668618
 31
0.0
  0
LINE
  5
15D
330
73
100
AcDbEntity
  8
$DDT_AUDIT_GENERATED_(10B)
  6
Continuous
 62
     7
100
AcDbLine
 10
116.5246422975
 20
392.6386993595
 30
0.0
 11
116.5246422975
 21
392.6393786386
 31
0.0
  0
ELLIPSE
  5
15E
330
73
100
AcDbEntity
  8
$DDT_AUDIT_GENERATED_(10B)
  6
Continuous
 62
     7
100
AcDbEllipse
 10
116.3496422974
 20
392.3042379442
 30
0.0
 11
2.750000000046423
 21
5.176414852314792E-12
 31
0.0
210
0.0
220
0.0
230
1.0
 40
0.1218693434
 41
0.9835181589343882
 42
1.11087694344668
  0
LINE
  5
15F
330
73
100
AcDbEntity
  8
$DDT_AUDIT_GENERATED_(10B)
  6
Continuous
 62
     7
100
AcDbLine
 10
117.5703009366
 20
392.728008576
 30
0.0
 11
117.5703009366
 21
392.604553594
 31
0.0
  0
LINE
  5
160
330
73
100
AcDbEntity
  8
$DDT_AUDIT_GENERATED_(10B)
  6
Continuous
 62
     7
100
AcDbLine
 10
117.8734098279
 20
392.5832264589
 30
0.0
 11
118.1367959678
 21
392.6388230311
 31
0.0
  0
LINE
  5
161
330
73
100
AcDbEntity
  8
$DDT_AUDIT_GENERATED_(10B)
  6
Continuous
 62
     7
100
AcDbLine
 10
117.5703009366
 20
392.604553594
 30
0.0
 11
117.7352829435
 21
392.6393786386
 31
0.0
  0
ELLIPSE
  5
162
330
73
100
AcDbEntity
  8
$DDT_AUDIT_GENERATED_(10B)
  6
Continuous
 62
     7
100
AcDbEllipse
 10
116.3496422975
 20
392.3042379442
 30
0.0
 11
2.750000000005679
 21
9.714451465470121E-14
 31
0.0
210
0.0
220
0.0
230
1.0
 40
0.1218693434
 41
0.4599193833408449
 42
0.5872781678547301
  0
LINE
  5
163
330
73
100
AcDbEntity
  8
$DDT_AUDIT_GENERATED_(10B)
  6
Continuous
 62
     7
100
AcDbLine
 10
118.6388850791
 20
392.6815129017
 30
0.0
 11
118.6388850791
 21
392.4899384926
 31
0.0
  0
ELLIPSE
  5
164
330
73
100
AcDbEntity
  8
$DDT_AUDIT_GENERATED_(10B)
  6
Continuous
 62
     7
100
AcDbEllipse
 10
116.3496422975
 20
392.3042379442
 30
0.0
 11
-2.749999999995013
 21
-1.734723475976807E-12
 31
0.0
210
0.0
220
0.0
230
1.0
 40
0.1218693434
 41
3.141592653589793
 42
3.205272045846773
  0
LINE
  5
165
330
73
100
AcDbEntity
  8
$DDT_AUDIT_GENERATED_(10B)
  6
Continuous
 62
     7
100
AcDbLine
 10
119.094068467
 20
392.472712878
 30
0.0
 11
119.094068467
 21
392.3255650793
 31
0.0
  0
LINE
  5
166
330
73
100
AcDbEntity
  8
$DDT_AUDIT_GENERATED_(10B)
  6
Continuous
 62
     7
100
AcDbLine
 10
120.9812490579
 20
392.2829108091
 30
0.0
 11
120.9812490579
 21
392.0029785341
 31
0.0
  0
LINE
  5
167
330
73
100
AcDbEntity
  8
$DDT_AUDIT_GENERATED_(10B)
  6
Continuous
 62
     7
100
AcDbLine
 10
119.1247380045
 20
392.0843521532
 30
0.0
 11
119.1247380045
 21
391.7611142045
 31
0.0
  0
ARC
  5
168
330
73
100
AcDbEntity
  8
$DDT_AUDIT_GENERATED_(10B)
  6
Continuous
 62
     7
100
AcDbCircle
 10
116.3496422975
 20
434.7197625583
 30
0.0
 40
43.05533876430074
100
AcDbArc
 50
269.7671185662
 51
270.2328814338
  0
LINE
  5
169
330
73
100
AcDbEntity
  8
$DDT_AUDIT_GENERATED_(10B)
  6
Continuous
 62
     7
100
AcDbLine
 10
116.1746422975
 20
391.7033768998
 30
0.0
 11
116.1746422975
 21
391.6647794424
 31
0.0
  0
LINE
  5
16A
330
73
100
AcDbEntity
  8
$DDT_AUDIT_GENERATED_(10B)
  6
Continuous
 62
     7
100
AcDbLine
 10
116.5246422975
 20
391.6894464939
 30
0.0
 11
116.5246422975
 21
391.6647794424
 31
0.0
  0
ELLIPSE
  5
16B
330
73
100
AcDbEntity
  8
$DDT_AUDIT_GENERATED_(10B)
  6
Continuous
 62
     7
100
AcDbEllipse
 10
116.3496422964
 20
392.304237944
 30
0.0
 11
-5.249999998606592
 21
1.220967771331516E-10
 31
0.0
210
0.0
220
0.0
230
1.0
 40
0.1218693434
 41
1.013858042023292
 42
1.080537060560042
  0
LINE
  5
16C
330
73
100
AcDbEntity
  8
$DDT_AUDIT_GENERATED_(10B)
  6
Continuous
 62
     7
100
AcDbLine
 10
114.1028943919
 20
391.8726399162
 30
0.0
 11
113.5745465905
 21
391.7611142045
 31
0.0
  0
LINE
  5
16D
330
73
100
AcDbEntity
  8
$DDT_AUDIT_GENERATED_(10B)
  6
Continuous
 62
     7
100
AcDbLine
 10
114.35715514
 20
391.8410017247
 30
0.0
 11
113.8776554818
 21
391.7397870694
 31
0.0
  0
LINE
  5
16E
330
73
100
AcDbEntity
  8
$DDT_AUDIT_GENERATED_(10B)
  6
Continuous
 62
     7
100
AcDbLine
 10
113.5745465905
 20
392.0843521532
 30
0.0
 11
113.5745465905
 21
391.7611142045
 31
0.0
  0
ELLIPSE
  5
16F
330
73
100
AcDbEntity
  8
$DDT_AUDIT_GENERATED_(10B)
  6
Continuous
 62
     7
100
AcDbEllipse
 10
116.3496422979
 20
392.3042379442
 30
0.0
 11
-5.250000000461229
 21
-3.071154441869339E-11
 31
0.0
210
0.0
220
0.0
230
1.0
 40
0.1218693434
 41
0.4902592663163047
 42
0.5569382848355703
  0
LINE
  5
170
330
73
100
AcDbEntity
  8
$DDT_AUDIT_GENERATED_(10B)
  6
Continuous
 62
     7
100
AcDbLine
 10
113.0186358865
 20
392.0944904631
 30
0.0
 11
111.7180355371
 21
392.0029785341
 31
0.0
  0
LINE
  5
171
330
73
100
AcDbEntity
  8
$DDT_AUDIT_GENERATED_(10B)
  6
Continuous
 62
     7
100
AcDbLine
 10
111.7180355371
 20
392.2829108091
 30
0.0
 11
111.7180355371
 21
392.0029785341
 31
0.0
  0
LINE
  5
172
330
73
100
AcDbEntity
  8
$DDT_AUDIT_GENERATED_(10B)
  6
Continuous
 62
     7
100
AcDbLine
 10
113.6052161279
 20
392.472712878
 30
0.0
 11
113.6052161279
 21
392.3255650793
 31
0.0
  0
LINE
  5
173
330
73
100
AcDbEntity
  8
$DDT_AUDIT_GENERATED_(10B)
  6
Continuous
 62
     7
100
AcDbLine
 10
114.0603995159
 20
392.6815129017
 30
0.0
 11
114.0603995159
 21
392.4899384926
 31
0.0
  0
LINE
  5
174
330
73
100
AcDbEntity
  8
$DDT_AUDIT_GENERATED_(10B)
  6
Continuous
 62
     7
100
AcDbLine
 10
115.1289836584
 20
392.728008576
 30
0.0
 11
115.1289836584
 21
392.604553594
 31
0.0
  0
LINE
  5
175
330
73
100
AcDbEntity
  8
$DDT_AUDIT_GENERATED_(10B)
  6
Continuous
 62
     7
100
AcDbLine
 10
107.3496422975
 20
393.0049824848
 30
0.0
 11
107.3496422975
 21
392.1057287139
 31
0.0
  0
LINE
  5
176
330
73
100
AcDbEntity
  8
$DDT_AUDIT_GENERATED_(10B)
  6
Continuous
 62
     7
100
AcDbLine
 10
125.3496422975
 20
392.1057287139
 30
0.0
 11
125.3496422975
 21
393.0049824848
 31
0.0
  0
LINE
  5
177
330
73
100
AcDbEntity
  8
$DDT_AUDIT_GENERATED_(10B)
  6
Continuous
 62
     7
100
AcDbLine
 10
110.0996422975
 20
392.3042379442
 30
0.0
 11
110.0996422975
 21
392.1057287139
 31
0.0
  0
LINE
  5
178
330
73
100
AcDbEntity
  8
$DDT_AUDIT_GENERATED_(10B)
  6
Continuous
 62
     7
100
AcDbLine
 10
122.5996422975
 20
392.1057287139
 30
0.0
 11
122.5996422975
 21
392.3042379442
 31
0.0
  0
LINE
  5
179
330
73
100
AcDbEntity
  8
$DDT_AUDIT_GENERATED_(10B)
  6
Continuous
 62
     7
100
AcDbLine
 10
113.5996422975
 20
392.3042379442
 30
0.0
 11
113.5996422975
 21
392.1057287139
 31
0.0
  0
LINE
  5
17A
330
73
100
AcDbEntity
  8
$DDT_AUDIT_GENERATED_(10B)
  6
Continuous
 62
     7
100
AcDbLine
 10
119.0996422975
 20
392.1057287139
 30
0.0
 11
119.0996422975
 21
392.3042379442
 31
0.0
  0
LINE
  5
17B
330
73
100
AcDbEntity
  8
$DDT_AUDIT_GENERATED_(10B)
  6
Continuous
 62
     7
100
AcDbLine
 10
115.8300123536
 20
392.3599799651
 30
0.0
 11
115.8300123536
 21
392.3042379442
 31
0.0
  0
LINE
  5
17C
330
73
100
AcDbEntity
  8
$DDT_AUDIT_GENERATED_(10B)
  6
Continuous
 62
     7
100
AcDbLine
 10
116.8692722414
 20
392.3042379442
 30
0.0
 11
116.8692722414
 21
392.3599799651
 31
0.0
  0
ENDBLK
  5
17E
330
73
100
AcDbEntity
  8
0
100
AcDbBlockEnd
  0
BLOCK
  5
1F4
330
17F
100
AcDbEntity
  8
0
100
AcDbBlockBegin
  2
SE1
 70
     0
 10
0.0
 20
0.0
 30
0.0
  3
SE1
  1

  0
ARC
  5
181
330
17F
100
AcDbEntity
  8
$DDT_AUDIT_GENERATED_(75)
  6
Continuous
 62
     7
100
AcDbCircle
 10
390.7188093418
 20
397.627068119
 30
0.0
 40
55.43373568797286
100
AcDbArc
 50
88.5003070602
 51
92.6992877323
  0
LINE
  5
182
330
17F
100
AcDbEntity
  8
$DDT_AUDIT_GENERATED_(75)
  6
Continuous
 62
     7
100
AcDbLine
 10
392.1695983961
 20
453.0418158262
 30
0.0
 11
392.1695983961
 21
460.4851905523
 31
0.0
  0
LINE
  5
183
330
17F
100
AcDbEntity
  8
$DDT_AUDIT_GENERATED_(75)
  6
Continuous
 62
     7
100
AcDbLine
 10
392.1695983961
 20
460.4851905523
 30
0.0
 11
392.1695983961
 21
483.4760790977
 31
0.0
  0
SPLINE
  5
184
330
17F
100
AcDbEntity
  8
$DDT_AUDIT_GENERATED_(75)
  6
Continuous
 62
     7
100
AcDbSpline
210
0.0
220
0.0
230
1.0
 70
     8
 71
     3
 72
    40
 73
    36
 74
     0
 42
0.0000000003253338
 43
0.0000000001
 40
0.0
 40
0.0
 40
0.0
 40
0.0
 40
0.0053191489361702
 40
0.0106382978723404
 40
0.0159574468085106
 40
0.0212765957446808
 40
0.026595744680851
 40
0.0319148936170212
 40
0.0372340425531916
 40
0.0425531914893618
 40
0.047872340425532
 40
0.0531914893617022
 40
0.0638297872340426
 40
0.074468085106383
 40
0.0851063829787234
 40
0.1063829787234042
 40
0.1276595744680852
 40
0.148936170212766
 40
0.1702127659574474
 40
0.1914893617021269
 40
0.212765957446808
 40
0.2340425531914891
 40
0.2553191489361703
 40
0.2765957446808514
 40
0.2978723404255325
 40
0.3191489361702121
 40
0.3404255319148932
 40
0.3617021276595743
 40
0.3829787234042554
 40
0.4042553191489365
 40
0.4255319148936177
 40
0.4468085106382972
 40
0.4680851063829783
 40
0.4893617021276594
 40
0.500223688422385
 40
0.500223688422385
 40
0.500223688422385
 40
0.500223688422385
 10
392.1695983960875
 20
453.0418158261641
 30
0.0
 10
392.2666438914367
 20
453.041029389432
 30
0.0
 10
392.4603602909334
 20
453.0396086038903
 30
0.0
 10
392.7495636316488
 20
453.0377879582793
 30
0.0
 10
393.0371482289108
 20
453.0361321143056
 30
0.0
 10
393.3228665977955
 20
453.0344953409046
 30
0.0
 10
393.606471253379
 20
453.0327319070117
 30
0.0
 10
393.8877428170506
 20
453.0309028516065
 30
0.0
 10
394.1664619101994
 20
453.0290692136687
 30
0.0
 10
394.4424091542145
 20
453.0272920321779
 30
0.0
 10
394.7153651704851
 20
453.0256323461134
 30
0.0
 10
395.0763225223274
 20
453.0235514458447
 30
0.0
 10
395.5238072695469
 20
453.021151636257
 30
0.0
 10
396.0608756609219
 20
453.0184460934397
 30
0.0
 10
396.7649445320283
 20
453.0151202344256
 30
0.0
 10
397.5997301939062
 20
453.0115830817207
 30
0.0
 10
398.5948603884387
 20
453.0076888109775
 30
0.0
 10
399.5234558486265
 20
453.0043161495389
 30
0.0
 10
400.4356600433905
 20
453.0011832532344
 30
0.0
 10
401.2760063861368
 20
452.9984387248654
 30
0.0
 10
402.0824557101355
 20
452.9959240801209
 30
0.0
 10
402.8423281879524
 20
452.9936583083625
 30
0.0
 10
403.5503832894063
 20
452.991630854565
 30
0.0
 10
404.197414100662
 20
452.9898423548358
 30
0.0
 10
404.7986281331194
 20
452.9882319789338
 30
0.0
 10
405.3414103963233
 20
452.9868183592969
 30
0.0
 10
405.823441071845
 20
452.9855873937337
 30
0.0
 10
406.2540167592501
 20
452.9844971316282
 30
0.0
 10
406.6195264192054
 20
452.9835764211536
 30
0.0
 10
406.9291199554629
 20
452.9827938087648
 30
0.0
 10
407.1758925095403
 20
452.9821572361485
 30
0.0
 10
407.3640023494782
 20
452.9816515657533
 30
0.0
 10
407.4875772988273
 20
452.9813068001132
 30
0.0
 10
407.5375425758253
 20
452.9811611022304
 30
0.0
 10
407.5451481371349
 20
452.9811389435405
 30
0.0
 10
407.5451244909867
 20
452.9811390168795
 30
0.0
  0
LINE
  5
185
330
17F
100
AcDbEntity
  8
$DDT_AUDIT_GENERATED_(75)
  6
Continuous
 62
     7
100
AcDbLine
 10
376.9778819769
 20
452.5440020547
 30
0.0
 11
376.9186645819
 21
452.5471828557
 31
0.0
  0
ARC
  5
186
330
17F
100
AcDbEntity
  8
$DDT_AUDIT_GENERATED_(75)
  6
Continuous
 62
     7
100
AcDbCircle
 10
374.9268406917
 20
452.5296830322
 30
0.0
 40
1.991900763935438
100
AcDbArc
 50
287.4568358911
 51
0.5033779544
  0
ARC
  5
187
330
17F
100
AcDbEntity
  8
$DDT_AUDIT_GENERATED_(75)
  6
Continuous
 62
     7
100
AcDbCircle
 10
348.9575755667
 20
544.7897518675
 30
0.0
 40
97.83631291915691
100
AcDbArc
 50
273.3090482614
 51
285.7561317566
  0
ARC
  5
188
330
17F
100
AcDbEntity
  8
$DDT_AUDIT_GENERATED_(75)
  6
Continuous
 62
     7
100
AcDbCircle
 10
353.8740482059
 20
447.0165571185
 30
0.0
 40
0.7377628860166974
100
AcDbArc
 50
4.6006025394
 51
7.791938541
  0
LINE
  5
189
330
17F
100
AcDbEntity
  8
$DDT_AUDIT_GENERATED_(75)
  6
Continuous
 62
     7
100
AcDbLine
 10
355.5471856537
 20
493.3578973952
 30
0.0
 11
355.5471856537
 21
521.8878986938
 31
0.0
  0
ARC
  5
18A
330
17F
100
AcDbEntity
  8
$DDT_AUDIT_GENERATED_(75)
  6
Continuous
 62
     7
100
AcDbCircle
 10
348.5471856531
 20
493.3578980309
 30
0.0
 40
7.000000000556716
100
AcDbArc
 50
318.590378613
 51
359.9999947972
  0
ARC
  5
18B
330
17F
100
AcDbEntity
  8
$DDT_AUDIT_GENERATED_(75)
  6
Continuous
 62
     7
100
AcDbCircle
 10
354.5472656182
 20
488.066365285
 30
0.0
 40
1.000079898696298
100
AcDbArc
 50
138.5921087077
 51
180.0021855306
  0
LINE
  5
18C
330
17F
100
AcDbEntity
  8
$DDT_AUDIT_GENERATED_(75)
  6
Continuous
 62
     7
100
AcDbLine
 10
353.5471849849
 20
448.1092695635
 30
0.0
 11
353.5471850662
 21
448.1183376433
 31
0.0
  0
LINE
  5
18D
330
17F
100
AcDbEntity
  8
$DDT_AUDIT_GENERATED_(75)
  6
Continuous
 62
     7
100
AcDbLine
 10
353.5471857843
 20
487.9975530344
 30
0.0
 11
353.547185783
 21
448.1151511101
 31
0.0
  0
LINE
  5
18E
330
17F
100
AcDbEntity
  8
$DDT_AUDIT_GENERATED_(75)
  6
Continuous
 62
     7
100
AcDbLine
 10
353.5471857202
 20
488.0663271372
 30
0.0
 11
353.5471857843
 21
487.9975530344
 31
0.0
  0
ARC
  5
18F
330
17F
100
AcDbEntity
  8
$DDT_AUDIT_GENERATED_(75)
  6
Continuous
 62
     7
100
AcDbCircle
 10
383.6114001683
 20
837.5027945255
 30
0.0
 40
354.0005278841581
100
AcDbArc
 50
268.9167012549
 51
270.1355259951
  0
SPLINE
  5
190
330
17F
100
AcDbEntity
  8
$DDT_AUDIT_GENERATED_(75)
  6
Continuous
 62
     7
100
AcDbSpline
210
0.0
220
0.0
230
1.0
 70
    12
 71
     3
 72
    28
 73
    24
 74
     0
 42
0.0000000002983322
 43
0.0000000001
 40
0.0
 40
0.0
 40
0.0
 40
0.0
 40
0.0437506683994954
 40
0.0437506683994954
 40
0.091612967376808
 40
0.091612967376808
 40
0.1873375653314333
 40
0.1873375653314333
 40
0.3767945764291076
 40
0.3767945764291076
 40
0.5674814295667253
 40
0.5674814295667253
 40
0.7574302568248416
 40
0.7574302568248416
 40
0.8522793811074323
 40
0.8522793811074323
 40
0.8997039432487276
 40
0.8997039432487276
 40
0.9471285053900249
 40
0.9471285053900249
 40
0.9933479412465407
 40
0.9933479412465407
 40
1.0
 40
1.0
 40
1.0
 40
1.0
 10
376.9186645819091
 20
452.5471828557329
 30
0.0
 41
1.0
 10
376.7114710082236
 20
452.5610143081028
 30
0.0
 41
1.0
 10
376.5326736240083
 20
452.6019790117821
 30
0.0
 41
1.0
 10
376.0929309601742
 20
452.8570600488612
 30
0.0
 41
1.0
 10
375.8724358013903
 20
453.0565793054421
 30
0.0
 41
1.0
 10
375.2220214026274
 20
453.8617044220495
 30
0.0
 41
1.0
 10
374.827455434119
 20
454.6512273499463
 30
0.0
 41
1.0
 10
373.8023038059605
 20
457.5157195151875
 30
0.0
 41
1.0
 10
373.3313566735231
 20
460.0524258386203
 30
0.0
 41
1.0
 10
372.8094811034701
 20
465.4062715132542
 30
0.0
 41
1.0
 10
372.7521305010061
 20
468.2835766510475
 30
0.0
 41
1.0
 10
373.0408920355393
 20
473.8011275841366
 30
0.0
 41
1.0
 10
373.3899370954434
 20
476.5031249664017
 30
0.0
 41
1.0
 10
374.2330516685834
 20
479.8413450554847
 30
0.0
 41
1.0
 10
374.5666510037786
 20
480.8321389563612
 30
0.0
 41
1.0
 10
375.1375234905048
 20
482.0201655479112
 30
0.0
 41
1.0
 10
375.3372400185797
 20
482.3623865437065
 30
0.0
 41
1.0
 10
375.7541948414084
 20
482.9277232010411
 30
0.0
 41
1.0
 10
375.9741168393593
 20
483.1522828725635
 30
0.0
 41
1.0
 10
376.4134903210668
 20
483.4608724339593
 30
0.0
 41
1.0
 10
376.5973588786631
 20
483.5294135468272
 30
0.0
 41
1.0
 10
376.8490166110871
 20
483.5602121683212
 30
0.0
 41
1.0
 10
376.8829658900855
 20
483.5632462405629
 30
0.0
 41
1.0
 10
376.9186649775706
 20
483.5655387329894
 30
0.0
 41
1.0
  0
ARC
  5
191
330
17F
100
AcDbEntity
  8
$DDT_AUDIT_GENERATED_(75)
  6
Continuous
 62
     7
100
AcDbCircle
 10
408.3079327238
 20
3449.7321376763
 30
0.0
 40
2966.324836178928
100
AcDbArc
 50
269.5391450124
 51
269.609831086
  0
ARC
  5
192
330
17F
100
AcDbEntity
  8
$DDT_AUDIT_GENERATED_(75)
  6
Continuous
 62
     7
100
AcDbCircle
 10
360.4754879499
 20
490.2313236075
 30
0.0
 40
5.836405329714887
100
AcDbArc
 50
92.206925348
 51
146.391482407
  0
ARC
  5
193
330
17F
100
AcDbEntity
  8
$DDT_AUDIT_GENERATED_(75)
  6
Continuous
 62
     7
100
AcDbCircle
 10
360.4754879499
 20
490.2313236075
 30
0.0
 40
5.836405329714887
100
AcDbArc
 50
146.391482407
 51
147.6084707042
  0
ARC
  5
194
330
17F
100
AcDbEntity
  8
$DDT_AUDIT_GENERATED_(75)
  6
Continuous
 62
     7
100
AcDbCircle
 10
360.3783982373
 20
407.5054688401
 30
0.0
 40
88.5580230718636
100
AcDbArc
 50
76.1701942451
 51
90.0825955413
  0
ARC
  5
195
330
17F
100
AcDbEntity
  8
$DDT_AUDIT_GENERATED_(75)
  6
Continuous
 62
     7
100
AcDbCircle
 10
383.3118387277
 20
483.9050246439
 30
0.0
 40
8.868139637196766
100
AcDbArc
 50
357.2275625102
 51
70.0955862663
  0
ARC
  5
196
330
17F
100
AcDbEntity
  8
$DDT_AUDIT_GENERATED_(75)
  6
Continuous
 62
     7
100
AcDbCircle
 10
354.1609146376
 20
379.1616727072
 30
0.0
 40
117.5686694248686
100
AcDbArc
 50
74.1197212959
 51
76.5298637443
  0
ARC
  5
197
330
17F
100
AcDbEntity
  8
$DDT_AUDIT_GENERATED_(75)
  6
Continuous
 62
     7
100
AcDbCircle
 10
354.5472494354
 20
448.1149634469
 30
0.0
 40
1.000063670015445
100
AcDbArc
 50
179.9892483787
 51
273.3020318131
  0
LINE
  5
198
330
17F
100
AcDbEntity
  8
$DDT_AUDIT_GENERATED_(75)
  6
Continuous
 62
     7
100
AcDbLine
 10
407.5471856537
 20
521.8878986938
 30
0.0
 11
407.5471856537
 21
460.4851905523
 31
0.0
  0
ARC
  5
199
330
17F
100
AcDbEntity
  8
$DDT_AUDIT_GENERATED_(75)
  6
Continuous
 62
     7
100
AcDbCircle
 10
370.8127316098
 20
739.5352391114
 30
0.0
 40
287.0574493482355
100
AcDbArc
 50
271.2306395732
 51
273.454216308
  0
LINE
  5
19A
330
17F
100
AcDbEntity
  8
$DDT_AUDIT_GENERATED_(75)
  6
Continuous
 62
     7
100
AcDbLine
 10
353.5471856548
 20
448.1151511101
 30
0.0
 11
353.547185655
 21
448.1098067211
 31
0.0
  0
ARC
  5
19B
330
17F
100
AcDbEntity
  8
$DDT_AUDIT_GENERATED_(75)
  6
Continuous
 62
     7
100
AcDbCircle
 10
395.4531821274
 20
-37.6088225803
 30
0.0
 40
488.6970419750727
100
AcDbArc
 50
88.8079999501
 51
91.072988335
  0
ARC
  5
19C
330
17F
100
AcDbEntity
  8
$DDT_AUDIT_GENERATED_(75)
  6
Continuous
 62
     7
100
AcDbCircle
 10
372.9797211999
 20
680.0304959415
 30
0.0
 40
229.4150862337351
100
AcDbArc
 50
270.6355358557
 51
273.2936824099
  0
ARC
  5
19D
330
17F
100
AcDbEntity
  8
$DDT_AUDIT_GENERATED_(75)
  6
Continuous
 62
     7
100
AcDbCircle
 10
394.7852353066
 20
270.7265791033
 30
0.0
 40
180.3901395949387
100
AcDbArc
 50
87.3575288359
 51
101.1078504686
  0
ARC
  5
19E
330
17F
100
AcDbEntity
  8
$DDT_AUDIT_GENERATED_(75)
  6
Continuous
 62
     7
100
AcDbCircle
 10
405.2435800791
 20
453.271358747
 30
0.0
 40
2.319553327380634
100
AcDbArc
 50
279.3259481946
 51
352.812393083
  0
ARC
  5
19F
330
17F
100
AcDbEntity
  8
$DDT_AUDIT_GENERATED_(75)
  6
Continuous
 62
     7
100
AcDbCircle
 10
315.1300371314
 20
813.838227208
 30
0.0
 40
368.8392093718177
100
AcDbArc
 50
276.1438001806
 51
276.9932717964
  0
ARC
  5
1A0
330
17F
100
AcDbEntity
  8
$DDT_AUDIT_GENERATED_(75)
  6
Continuous
 62
     7
100
AcDbCircle
 10
348.6847201743
 20
493.4121260844
 30
0.0
 40
6.933842098350125
100
AcDbArc
 50
317.642703786
 51
0.38417666
  0
ARC
  5
1A1
330
17F
100
AcDbEntity
  8
$DDT_AUDIT_GENERATED_(75)
  6
Continuous
 62
     7
100
AcDbCircle
 10
329.4660499574
 20
456.7550179054
 30
0.0
 40
78.17022493744727
100
AcDbArc
 50
357.2328157434
 51
2.73511229
  0
ARC
  5
1A2
330
17F
100
AcDbEntity
  8
$DDT_AUDIT_GENERATED_(75)
  6
Continuous
 62
     7
100
AcDbCircle
 10
354.5855441754
 20
448.1536181484
 30
0.0
 40
1.039042400650436
100
AcDbArc
 50
177.9209879718
 51
201.1982572206
  0
SPLINE
  5
1A3
330
17F
100
AcDbEntity
  8
$DDT_AUDIT_GENERATED_(75)
  6
Continuous
 62
     7
100
AcDbSpline
210
0.0
220
0.0
230
1.0
 70
     8
 71
     3
 72
    16
 73
    12
 74
     0
 42
0.0000000032707476
 43
0.0000000001
 40
0.4881788219041279
 40
0.4881788219041279
 40
0.4881788219041279
 40
0.4881788219041279
 40
0.524384564854892
 40
0.566420237069186
 40
0.6417122650554687
 40
0.7225549247247639
 40
0.8085290760773843
 40
0.8591397242557538
 40
0.907765581337846
 40
0.9546920234213858
 40
1.0
 40
1.0
 40
1.0
 40
1.0
 10
353.5674761875464
 20
447.9385715979968
 30
0.0
 10
353.5673972887056
 20
447.9385882842773
 30
0.0
 10
353.5675031654587
 20
447.9372350350318
 30
0.0
 10
353.5675670141679
 20
447.9350825462107
 30
0.0
 10
353.5670908723736
 20
447.9351042106496
 30
0.0
 10
353.5693983116648
 20
447.9184839189505
 30
0.0
 10
353.5614768437381
 20
447.9589970599152
 30
0.0
 10
353.5813220527253
 20
447.8452266369603
 30
0.0
 10
353.6754528514377
 20
447.5935090866336
 30
0.0
 10
353.9730474732273
 20
447.2211099609618
 30
0.0
 10
354.3689395695315
 20
447.1492499856149
 30
0.0
 10
354.604097492288
 20
447.1042529737913
 30
0.0
  0
LINE
  5
1A4
330
17F
100
AcDbEntity
  8
$DDT_AUDIT_GENERATED_(75)
  6
Continuous
 62
     7
100
AcDbLine
 10
403.0726324404
 20
450.9249085803
 30
0.0
 11
403.0777775713
 21
450.924879861
 31
0.0
  0
LINE
  5
1A6
330
17F
100
AcDbEntity
  8
$DDT_AUDIT_GENERATED_(1A5)
  6
Continuous
 62
     7
100
AcDbLine
 10
353.5458600154
 20
457.5473658643
 30
0.0
 11
353.5458600154
 21
478.5473658643
 31
0.0
  0
LINE
  5
1A7
330
17F
100
AcDbEntity
  8
$DDT_AUDIT_GENERATED_(1A5)
  6
Continuous
 62
     7
100
AcDbLine
 10
353.5458600154
 20
478.5473658643
 30
0.0
 11
353.2458600154
 21
478.5473658643
 31
0.0
  0
LINE
  5
1A8
330
17F
100
AcDbEntity
  8
$DDT_AUDIT_GENERATED_(1A5)
  6
Continuous
 62
     7
100
AcDbLine
 10
353.2458600154
 20
457.5473658643
 30
0.0
 11
353.5458600154
 21
457.5473658643
 31
0.0
  0
ARC
  5
1A9
330
17F
100
AcDbEntity
  8
$DDT_AUDIT_GENERATED_(1A5)
  6
Continuous
 62
     7
100
AcDbCircle
 10
354.5458600154
 20
476.8973658643
 30
0.0
 40
1.000000000000001
100
AcDbArc
 50
180.0
 51
205.8419327632
  0
ARC
  5
1AA
330
17F
100
AcDbEntity
  8
$DDT_AUDIT_GENERATED_(1A5)
  6
Continuous
 62
     7
100
AcDbCircle
 10
354.5458600154
 20
459.1973658643
 30
0.0
 40
1.000000000000002
100
AcDbArc
 50
154.1580672368
 51
180.0
  0
LINE
  5
1AC
330
17F
100
AcDbEntity
  8
$DDT_AUDIT_GENERATED_(1AB)
  6
Continuous
 62
     7
100
AcDbLine
 10
353.2458600154
 20
448.9973658643
 30
0.0
 11
353.2458600154
 21
487.0973658643
 31
0.0
  0
LINE
  5
1AD
330
17F
100
AcDbEntity
  8
$DDT_AUDIT_GENERATED_(1AB)
  6
Continuous
 62
     7
100
AcDbLine
 10
353.0458600154
 20
487.2973658643
 30
0.0
 11
336.2458600154
 21
487.2973658643
 31
0.0
  0
LINE
  5
1AE
330
17F
100
AcDbEntity
  8
$DDT_AUDIT_GENERATED_(1AB)
  6
Continuous
 62
     7
100
AcDbLine
 10
336.2458600154
 20
448.7973658643
 30
0.0
 11
353.0458600154
 21
448.7973658643
 31
0.0
  0
ARC
  5
1AF
330
17F
100
AcDbEntity
  8
$DDT_AUDIT_GENERATED_(1AB)
  6
Continuous
 62
     7
100
AcDbCircle
 10
353.0458600154
 20
448.9973658643
 30
0.0
 40
0.1999999999999988
100
AcDbArc
 50
270.0
 51
0.0
  0
ARC
  5
1B0
330
17F
100
AcDbEntity
  8
$DDT_AUDIT_GENERATED_(1AB)
  6
Continuous
 62
     7
100
AcDbCircle
 10
353.0458600154
 20
487.0973658643
 30
0.0
 40
0.1999999999999988
100
AcDbArc
 50
0.0
 51
90.0
  0
LINE
  5
1B1
330
17F
100
AcDbEntity
  8
$DDT_AUDIT_GENERATED_(A7)
  6
Continuous
 62
     7
100
AcDbLine
 10
336.2458600154
 20
445.6335710215
 30
0.0
 11
336.2458600154
 21
490.4611607071
 31
0.0
  0
LINE
  5
1B2
330
17F
100
AcDbEntity
  8
$DDT_AUDIT_GENERATED_(A7)
  6
Continuous
 62
     7
100
AcDbLine
 10
303.2458600154
 20
502.4594288837
 30
0.0
 11
303.2458600154
 21
433.6353028449
 31
0.0
  0
ARC
  5
1B3
330
17F
100
AcDbEntity
  8
$DDT_AUDIT_GENERATED_(A7)
  6
Continuous
 62
     7
100
AcDbCircle
 10
271.4144463035
 20
630.4980207155
 30
0.0
 40
200.0
100
AcDbArc
 50
279.3266153984
 51
287.6531938422
  0
ARC
  5
1B4
330
17F
100
AcDbEntity
  8
$DDT_AUDIT_GENERATED_(A7)
  6
Continuous
 62
     7
100
AcDbCircle
 10
271.4144463035
 20
305.5967110131
 30
0.0
 40
200.0000000000001
100
AcDbArc
 50
72.3468061578
 51
80.6733846016
  0
ARC
  5
1B5
330
17F
100
AcDbEntity
  8
$DDT_AUDIT_GENERATED_(A7)
  6
Continuous
 62
     7
100
AcDbCircle
 10
303.7458600154
 20
502.4594288837
 30
0.0
 40
0.4999999999999994
100
AcDbArc
 50
80.6733846016
 51
180.0
  0
ARC
  5
1B6
330
17F
100
AcDbEntity
  8
$DDT_AUDIT_GENERATED_(A7)
  6
Continuous
 62
     7
100
AcDbCircle
 10
303.7458600154
 20
433.6353028449
 30
0.0
 40
0.5000000000000004
100
AcDbArc
 50
180.0
 51
279.3266153984
  0
ARC
  5
1B7
330
17F
100
AcDbEntity
  8
$DDT_AUDIT_GENERATED_(A7)
  6
Continuous
 62
     7
100
AcDbCircle
 10
330.2458600154
 20
490.4611607071
 30
0.0
 40
6.000000000000002
100
AcDbArc
 50
0.0
 51
72.3468061578
  0
ARC
  5
1B8
330
17F
100
AcDbEntity
  8
$DDT_AUDIT_GENERATED_(A7)
  6
Continuous
 62
     7
100
AcDbCircle
 10
330.2458600154
 20
445.6335710215
 30
0.0
 40
6.00000000000001
100
AcDbArc
 50
287.6531938422
 51
0.0
  0
ARC
  5
1B9
330
17F
100
AcDbEntity
  8
$DDT_AUDIT_GENERATED_(A9)
  6
Continuous
 62
     7
100
AcDbCircle
 10
479.1869727421
 20
598.9036717013
 30
0.0
 40
25.0758208754132
100
AcDbArc
 50
318.2185017133
 51
327.5707652589
  0
ARC
  5
1BA
330
17F
100
AcDbEntity
  8
$DDT_AUDIT_GENERATED_(A9)
  6
Continuous
 62
     7
100
AcDbCircle
 10
517.8006502123
 20
567.8374862954
 30
0.0
 40
43.08848281058155
100
AcDbArc
 50
138.4329256311
 51
143.8756515682
  0
SPLINE
  5
1BB
330
17F
100
AcDbEntity
  8
$DDT_AUDIT_GENERATED_(A9)
  6
Continuous
 62
     7
100
AcDbSpline
210
0.0
220
0.0
230
1.0
 70
     8
 71
     3
 72
    27
 73
    23
 74
     0
 42
0.0000000003718235
 43
0.0000000001
 40
0.0
 40
0.0
 40
0.0
 40
0.0
 40
0.0308776607097604
 40
0.0830037292757219
 40
0.1351297978416834
 40
0.1872558664076449
 40
0.2393819349736064
 40
0.291508003539564
 40
0.3436340721055255
 40
0.395760140671487
 40
0.4478862092374483
 40
0.5000122778034098
 40
0.5521383463693713
 40
0.604264414935329
 40
0.6563904835012904
 40
0.7085165520672527
 40
0.7606426206332133
 40
0.8127686891991741
 40
0.8648947577651351
 40
0.9170208263310958
 40
0.9691468948970565
 40
1.0
 40
1.0
 40
1.0
 40
1.0
 10
485.5627307181233
 20
596.4265383539349
 30
0.0
 10
485.7539936836966
 20
596.6263667475702
 30
0.0
 10
486.2921353388871
 20
597.1412171959256
 30
0.0
 10
487.2631689011723
 20
597.8668085290936
 30
0.0
 10
488.4965660624362
 20
598.5273847932426
 30
0.0
 10
489.8176383820723
 20
598.9967351778739
 30
0.0
 10
491.1984418404192
 20
599.2624240679504
 30
0.0
 10
492.5928721569883
 20
599.3175901983574
 30
0.0
 10
493.9849749810043
 20
599.1636369738529
 30
0.0
 10
495.3452957516262
 20
598.7998329452041
 30
0.0
 10
496.6312166878023
 20
598.2365115613793
 30
0.0
 10
497.8123362949213
 20
597.4914248085321
 30
0.0
 10
498.8757204643283
 20
596.57058005404
 30
0.0
 10
499.7818464137793
 20
595.5093449323934
 30
0.0
 10
500.5257133963343
 20
594.3122981143329
 30
0.0
 10
501.0765426084052
 20
593.0273473263235
 30
0.0
 10
501.4304367560083
 20
591.666743032307
 30
0.0
 10
501.5752786442093
 20
590.2765021295104
 30
0.0
 10
501.5093615354314
 20
588.872536082502
 30
0.0
 10
501.2358217152653
 20
587.5029330392895
 30
0.0
 10
500.8213203340133
 20
586.3639171174242
 30
0.0
 10
500.4879357417294
 20
585.6974000490023
 30
0.0
 10
500.3523300368793
 20
585.4565737556495
 30
0.0
  0
ARC
  5
1BC
330
17F
100
AcDbEntity
  8
$DDT_AUDIT_GENERATED_(A9)
  6
Continuous
 62
     7
100
AcDbCircle
 10
440.8902422022
 20
534.661800097
 30
0.0
 40
31.56775801003835
100
AcDbArc
 50
163.9530828456
 51
171.8483662068
  0
LINE
  5
1BD
330
17F
100
AcDbEntity
  8
$DDT_AUDIT_GENERATED_(A9)
  6
Continuous
 62
     7
100
AcDbLine
 10
409.20220897
 20
530.6378986942
 30
0.0
 11
409.1691070956
 21
522.1874226665
 31
0.0
  0
ARC
  5
1BE
330
17F
100
AcDbEntity
  8
$DDT_AUDIT_GENERATED_(A9)
  6
Continuous
 62
     7
100
AcDbCircle
 10
421.1399759336
 20
534.5547144351
 30
0.0
 40
12.37828735492418
100
AcDbArc
 50
158.2683490345
 51
161.2882223556
  0
ARC
  5
1BF
330
17F
100
AcDbEntity
  8
$DDT_AUDIT_GENERATED_(A9)
  6
Continuous
 62
     7
100
AcDbCircle
 10
423.0385470075
 20
534.2507830604
 30
0.0
 40
14.277625391942
100
AcDbArc
 50
162.5773366549
 51
192.8034919143
  0
SPLINE
  5
1C0
330
17F
100
AcDbEntity
  8
$DDT_AUDIT_GENERATED_(A9)
  6
Continuous
 62
     7
100
AcDbSpline
210
0.0
220
0.0
230
1.0
 70
     8
 71
     3
 72
    10
 73
     6
 74
     0
 42
0.0000000262616879
 43
0.0000000001
 40
0.1744572343774919
 40
0.1744572343774919
 40
0.1744572343774919
 40
0.1744572343774919
 40
0.5
 40
0.5
 40
1.0
 40
1.0
 40
1.0
 40
1.0
 10
409.1421166959691
 20
530.9464423216747
 30
0.0
 10
409.1572080870163
 20
530.866715976851
 30
0.0
 10
409.1699336680511
 20
530.8013710110184
 30
0.0
 10
409.1944503820729
 20
530.6764135590868
 30
0.0
 10
409.2022200165423
 20
530.637903580553
 30
0.0
 10
409.2022089699782
 20
530.6378986942437
 30
0.0
  0
LINE
  5
1C1
330
17F
100
AcDbEntity
  8
$DDT_AUDIT_GENERATED_(A9)
  6
Continuous
 62
     7
100
AcDbLine
 10
407.9053274891
 20
521.8878986938
 30
0.0
 11
367.0084570908
 21
521.8878986938
 31
0.0
  0
LINE
  5
1C2
330
17F
100
AcDbEntity
  8
$DDT_AUDIT_GENERATED_(A9)
  6
Continuous
 62
     7
100
AcDbLine
 10
367.0084570908
 20
521.8878986938
 30
0.0
 11
358.3683065218
 21
521.8878986938
 31
0.0
  0
LINE
  5
1C3
330
17F
100
AcDbEntity
  8
$DDT_AUDIT_GENERATED_(A9)
  6
Continuous
 62
     7
100
AcDbLine
 10
408.8230148004
 20
521.8878986938
 30
0.0
 11
407.9053274891
 21
521.8878986938
 31
0.0
  0
LINE
  5
1C4
330
17F
100
AcDbEntity
  8
$DDT_AUDIT_GENERATED_(A9)
  6
Continuous
 62
     7
100
AcDbLine
 10
358.3683065218
 20
521.8878986938
 30
0.0
 11
354.2275005381
 21
521.8878986938
 31
0.0
  0
ARC
  5
1C5
330
17F
100
AcDbEntity
  8
$DDT_AUDIT_GENERATED_(A9)
  6
Continuous
 62
     7
100
AcDbCircle
 10
393.5359022138
 20
521.1643968562
 30
0.0
 40
39.62168314851311
100
AcDbArc
 50
145.8824628221
 51
178.5156950754
  0
SPLINE
  5
1C6
330
17F
100
AcDbEntity
  8
$DDT_AUDIT_GENERATED_(A9)
  6
Continuous
 62
     7
100
AcDbSpline
210
0.0
220
0.0
230
1.0
 70
     8
 71
     3
 72
    60
 73
    56
 74
     0
 42
0.0000000000641806
 43
0.0000000001
 40
0.0
 40
0.0
 40
0.0
 40
0.0
 40
0.0072507887678891
 40
0.0141387748460004
 40
0.0302002097598245
 40
0.0623769676872502
 40
0.0840593324921417
 40
0.1270949037189028
 40
0.1588666002833967
 40
0.174764514432181
 40
0.190658899648621
 40
0.222443739666191
 40
0.2545085808829827
 40
0.2866046141196667
 40
0.3026454599257423
 40
0.3186794109543969
 40
0.3507726042443701
 40
0.3823589673061514
 40
0.3901736089094497
 40
0.3980087920994771
 40
0.4136348450262606
 40
0.4449166441446628
 40
0.4605534500616089
 40
0.4761898308893023
 40
0.491959162439509
 40
0.4983232368070145
 40
0.5078696545284442
 40
0.5316220699580835
 40
0.5494345391194194
 40
0.580275725832631
 40
0.6517378101147117
 40
0.7049627565016764
 40
0.7579192392169437
 40
0.7656357062013467
 40
0.7733483736430736
 40
0.7810545571774503
 40
0.7887676000028128
 40
0.7926187685185482
 40
0.7963669490283128
 40
0.8038753852188398
 40
0.8188919447408555
 40
0.8263954473312614
 40
0.8339035772109913
 40
0.8414132413927832
 40
0.8489174333196083
 40
0.8640407025968313
 40
0.8716360192301007
 40
0.8792284396546926
 40
0.8944095970405435
 40
0.9020088916386093
 40
0.9095269591418964
 40
0.9244862793298478
 40
0.9394493731841116
 40
0.9695787367642439
 40
1.0
 40
1.0
 40
1.0
 40
1.0
 10
358.1137748954099
 20
522.1906946881003
 30
0.0
 10
358.1334235318149
 20
522.5695771010382
 30
0.0
 10
358.1716853340673
 20
523.3083901458074
 30
0.0
 10
358.3188793748241
 20
524.8826898041042
 30
0.0
 10
358.7285917656424
 20
527.7421096630892
 30
0.0
 10
359.617566376392
 20
531.3080372194052
 30
0.0
 10
361.3325966852774
 20
536.0842511002361
 30
0.0
 10
363.5761458613393
 20
540.6215604148416
 30
0.0
 10
366.1907706731442
 20
544.543783929709
 30
0.0
 10
368.2337269603661
 20
547.1011466087123
 30
0.0
 10
370.4124921709458
 20
549.5128644565328
 30
0.0
 10
373.3956650714654
 20
552.2208565527707
 30
0.0
 10
377.3109477995877
 20
555.0313286463562
 30
0.0
 10
380.7967601272903
 20
557.0381131337829
 30
0.0
 10
383.6842274196211
 20
558.4654333140002
 30
0.0
 10
386.630974958483
 20
559.7824008661925
 30
0.0
 10
390.3916258907494
 20
561.2290118513793
 30
0.0
 10
393.8603574640558
 20
562.3409917755291
 30
0.0
 10
396.1845014029836
 20
563.0135501633307
 30
0.0
 10
397.7351889937664
 20
563.4433721899344
 30
0.0
 10
400.4803375232509
 20
564.1523871514061
 30
0.0
 10
403.664550611623
 20
564.8869282432919
 30
0.0
 10
406.8669278459618
 20
565.5675013941526
 30
0.0
 10
409.2820689890316
 20
566.0547930254851
 30
0.0
 10
411.2239944311719
 20
566.4323323420118
 30
0.0
 10
412.8546855280508
 20
566.7387997581031
 30
0.0
 10
414.8985871646993
 20
567.1103882219122
 30
0.0
 10
417.5319120774033
 20
567.5899002579865
 30
0.0
 10
421.2646569684176
 20
568.2572700654058
 30
0.0
 10
427.4595643240461
 20
569.3490402493276
 30
0.0
 10
435.4873533603298
 20
570.724525049965
 30
0.0
 10
444.6632372294438
 20
572.2553926341704
 30
0.0
 10
450.5495074983408
 20
573.2173275809172
 30
0.0
 10
454.0850402232894
 20
573.7875944870073
 30
0.0
 10
455.2810660530176
 20
573.9804121207475
 30
0.0
 10
456.4768675174849
 20
574.1728484831858
 30
0.0
 10
457.4736073551014
 20
574.3316657394855
 30
0.0
 10
458.2657552113229
 20
574.4569666002867
 30
0.0
 10
459.0473193326537
 20
574.5806510816083
 30
0.0
 10
460.4060062183456
 20
574.7983952569739
 30
0.0
 10
461.9598670737167
 20
575.0409180037514
 30
0.0
 10
463.511188687481
 20
575.2996427264663
 30
0.0
 10
464.6760595219457
 20
575.4841518936205
 30
0.0
 10
465.8323022292162
 20
575.725402025081
 30
0.0
 10
467.3340386547586
 20
576.2207064202079
 30
0.0
 10
468.7570366470331
 20
576.9371909762306
 30
0.0
 10
470.0759099638906
 20
577.8227800029736
 30
0.0
 10
471.3283842316403
 20
578.8052342032826
 30
0.0
 10
472.4813814376547
 20
579.9078706286931
 30
0.0
 10
473.5357088120494
 20
581.0936958636612
 30
0.0
 10
474.5446550424083
 20
582.3032885212193
 30
0.0
 10
475.7695698909131
 20
583.8346593845598
 30
0.0
 10
477.6996919082296
 20
586.3179413926813
 30
0.0
 10
480.1602718814115
 20
589.4142034471184
 30
0.0
 10
482.1263726100976
 20
591.9024003204529
 30
0.0
 10
483.1141679752853
 20
593.1524915148915
 30
0.0
  0
ARC
  5
1C7
330
17F
100
AcDbEntity
  8
$DDT_AUDIT_GENERATED_(A9)
  6
Continuous
 62
     7
100
AcDbCircle
 10
354.2275005381
 20
522.187898694
 30
0.0
 40
0.3000000001377318
100
AcDbArc
 50
179.4608393141
 51
270.0
  0
ARC
  5
1C8
330
17F
100
AcDbEntity
  8
$DDT_AUDIT_GENERATED_(A9)
  6
Continuous
 62
     7
100
AcDbCircle
 10
408.8691074731
 20
522.187898694
 30
0.0
 40
0.3000000001519734
100
AcDbArc
 50
269.9999999994
 51
359.9090854074
  0
SPLINE
  5
1C9
330
17F
100
AcDbEntity
  8
$DDT_AUDIT_GENERATED_(A9)
  6
Continuous
 62
     7
100
AcDbSpline
210
0.0
220
0.0
230
1.0
 70
     8
 71
     3
 72
    40
 73
    36
 74
     0
 42
0.0000000000727715
 43
0.0000000001
 40
0.0
 40
0.0
 40
0.0
 40
0.0
 40
0.0625000000000002
 40
0.0625000000000002
 40
0.1250000000000004
 40
0.1250000000000004
 40
0.1875000000000006
 40
0.1875000000000006
 40
0.2500000000000008
 40
0.2500000000000008
 40
0.312500000000001
 40
0.312500000000001
 40
0.3750000000000012
 40
0.3750000000000012
 40
0.4375000000000014
 40
0.4375000000000014
 40
0.5000000000000017
 40
0.5000000000000017
 40
0.6250000000000019
 40
0.6250000000000019
 40
0.750000000000002
 40
0.750000000000002
 40
0.7812500000000022
 40
0.7812500000000022
 40
0.7968750000000021
 40
0.7968750000000021
 40
0.8125000000000021
 40
0.8125000000000021
 40
0.8437500000000017
 40
0.8437500000000017
 40
0.8750000000000012
 40
0.8750000000000012
 40
0.9375000000000007
 40
0.9375000000000007
 40
1.0
 40
1.0
 40
1.0
 40
1.0
 10
360.7335586735441
 20
543.3878986906813
 30
0.0
 10
362.3763008179068
 20
545.8354632304503
 30
0.0
 10
364.2914539710403
 20
548.1058771390809
 30
0.0
 10
368.666720018912
 20
552.0623905059476
 30
0.0
 10
371.0803360997477
 20
553.7302332429143
 30
0.0
 10
376.1459470000866
 20
556.6761546427341
 30
0.0
 10
378.7932604515473
 20
557.9287476924083
 30
0.0
 10
384.2395643620493
 20
560.1182219476207
 30
0.0
 10
386.9832825965997
 20
561.0354658013706
 30
0.0
 10
392.5402658590123
 20
562.6628407344667
 30
0.0
 10
395.3536487781212
 20
563.374245237661
 30
0.0
 10
400.9418868874285
 20
564.6451037811895
 30
0.0
 10
403.7534640861758
 20
565.2319331859917
 30
0.0
 10
409.3792856828824
 20
566.3616556179185
 30
0.0
 10
412.1924147244412
 20
566.9000762369488
 30
0.0
 10
417.8364568576873
 20
567.9452514538729
 30
0.0
 10
420.6801625981581
 20
568.4539314042082
 30
0.0
 10
429.0751133701323
 20
569.9190204878249
 30
0.0
 10
434.6431776804806
 20
570.8428966974546
 30
0.0
 10
445.8230834405334
 20
572.6442139888602
 30
0.0
 10
451.4316430179231
 20
573.5056113660518
 30
0.0
 10
458.4194831364505
 20
574.5921077635676
 30
0.0
 10
459.7883851150679
 20
574.8119585149019
 30
0.0
 10
461.8850425189408
 20
575.1439083732394
 30
0.0
 10
462.5741905190339
 20
575.2511786414035
 30
0.0
 10
463.9547006584495
 20
575.4820324498107
 30
0.0
 10
464.6576237731239
 20
575.5824113300879
 30
0.0
 10
466.7075578731042
 20
576.0484186748989
 30
0.0
 10
468.0078813884498
 20
576.6459083796215
 30
0.0
 10
470.358542516709
 20
578.1938102307764
 30
0.0
 10
471.4140044950707
 20
579.1307824609488
 30
0.0
 10
474.35742993782
 20
582.151597254877
 30
0.0
 10
476.02105272279
 20
584.4317664256912
 30
0.0
 10
479.5029774098751
 20
588.8318871799568
 30
0.0
 10
481.2573995637154
 20
591.0444654935568
 30
0.0
 10
482.9963838446423
 20
593.2398561361732
 30
0.0
  0
SPLINE
  5
1CA
330
17F
100
AcDbEntity
  8
$DDT_AUDIT_GENERATED_(A9)
  6
Continuous
 62
     7
100
AcDbSpline
210
0.0
220
0.0
230
1.0
 70
     8
 71
     3
 72
    46
 73
    42
 74
     0
 42
0.000000000099507
 43
0.0000000001
 40
0.0
 40
0.0
 40
0.0
 40
0.0
 40
0.0625
 40
0.0625
 40
0.0937500000000002
 40
0.0937500000000002
 40
0.1250000000000005
 40
0.1250000000000005
 40
0.1875000000000012
 40
0.1875000000000012
 40
0.2187500000000014
 40
0.2187500000000014
 40
0.2500000000000016
 40
0.2500000000000016
 40
0.2812500000000018
 40
0.2812500000000018
 40
0.312500000000002
 40
0.312500000000002
 40
0.3437500000000022
 40
0.3437500000000022
 40
0.3750000000000023
 40
0.3750000000000023
 40
0.4062500000000025
 40
0.4062500000000025
 40
0.4375000000000027
 40
0.4375000000000027
 40
0.4687500000000029
 40
0.4687500000000029
 40
0.5000000000000031
 40
0.5000000000000031
 40
0.6250000000000027
 40
0.6250000000000027
 40
0.7500000000000019
 40
0.7500000000000019
 40
0.8125000000000014
 40
0.8125000000000014
 40
0.8750000000000011
 40
0.8750000000000011
 40
0.9375000000000006
 40
0.9375000000000006
 40
1.0
 40
1.0
 40
1.0
 40
1.0
 10
497.8857915684653
 20
582.1958601428104
 30
0.0
 10
496.569215735735
 20
580.5524077612744
 30
0.0
 10
495.2573251865178
 20
578.9130330741757
 30
0.0
 10
493.2798986934396
 20
576.446865603788
 30
0.0
 10
492.6355448755471
 20
575.6081979425164
 30
0.0
 10
491.2835653450644
 20
574.0193291588463
 30
0.0
 10
490.5241371787672
 20
573.2686885628076
 30
0.0
 10
488.1040719534188
 20
571.2573809798997
 30
0.0
 10
486.2448922232495
 20
570.1937790969372
 30
0.0
 10
483.2757741032581
 20
569.1235629045806
 30
0.0
 10
482.2478524185531
 20
568.8734998169921
 30
0.0
 10
480.1887703994033
 20
568.477262856183
 30
0.0
 10
479.1531912127948
 20
568.2839624044207
 30
0.0
 10
477.0832264455116
 20
567.8919366982551
 30
0.0
 10
476.0514448745415
 20
567.7091497236846
 30
0.0
 10
473.9777822046381
 20
567.3515355077884
 30
0.0
 10
472.9298691971848
 20
567.1683714775927
 30
0.0
 10
470.8804323499633
 20
566.8043964851009
 30
0.0
 10
469.8314300537508
 20
566.6159552865621
 30
0.0
 10
467.761231514971
 20
566.2402727729412
 30
0.0
 10
466.7302721722859
 20
566.0513047068667
 30
0.0
 10
464.6616645685891
 20
565.6689130398175
 30
0.0
 10
463.6326427355009
 20
565.4769982145189
 30
0.0
 10
461.5566692490985
 20
565.0869862752015
 30
0.0
 10
460.5255487500029
 20
564.8908136514121
 30
0.0
 10
458.4472482797123
 20
564.5718007814112
 30
0.0
 10
457.426056250559
 20
564.35543825126
 30
0.0
 10
455.3710860214536
 20
563.9661075100744
 30
0.0
 10
454.343376148077
 20
563.7673562023047
 30
0.0
 10
449.2120254887125
 20
562.7780972591408
 30
0.0
 10
445.1031070347998
 20
561.9864993542558
 30
0.0
 10
436.9102862622598
 20
560.3051812855689
 30
0.0
 10
432.8149305212151
 20
559.4309267486199
 30
0.0
 10
426.7846689506289
 20
557.7113210416443
 30
0.0
 10
424.8104107340019
 20
557.0686621816706
 30
0.0
 10
420.9981715104679
 20
555.5111911047148
 30
0.0
 10
419.1366033477192
 20
554.5848077543019
 30
0.0
 10
415.7520344255715
 20
552.2062838345659
 30
0.0
 10
414.2513516695097
 20
550.7530038802593
 30
0.0
 10
411.944413255049
 20
547.3150598271852
 30
0.0
 10
411.1331536603167
 20
545.3788171373618
 30
0.0
 10
410.5525008713236
 20
543.3878986938159
 30
0.0
  0
LINE
  5
1CB
330
17F
100
AcDbEntity
  8
$DDT_AUDIT_GENERATED_(CE)
  6
Continuous
 62
     7
100
AcDbLine
 10
409.1414360309
 20
530.9279266021
 30
0.0
 11
409.1414360309
 21
537.6182673618
 31
0.0
  0
ARC
  5
1CC
330
17F
100
AcDbEntity
  8
$DDT_AUDIT_GENERATED_(D3)
  6
Continuous
 62
     7
100
AcDbCircle
 10
778.2291039414
 20
9823.3798997113
 30
0.0
 40
9426.133556016384
100
AcDbArc
 50
267.5930828788
 51
268.2926773136
  0
ARC
  5
1CD
330
17F
100
AcDbEntity
  8
$DDT_AUDIT_GENERATED_(D3)
  6
Continuous
 62
     7
100
AcDbCircle
 10
492.943705185
 20
185.1170491319
 30
0.0
 40
216.359556875883
100
AcDbArc
 50
84.6951540309
 51
88.8232684572
  0
ARC
  5
1CE
330
17F
100
AcDbEntity
  8
$DDT_AUDIT_GENERATED_(D3)
  6
Continuous
 62
     7
100
AcDbCircle
 10
349.9664423815
 20
-172.6182828158
 30
0.0
 40
579.08778087933
100
AcDbArc
 50
86.7926052436
 51
88.9282724189
  0
ARC
  5
1CF
330
17F
100
AcDbEntity
  8
$DDT_AUDIT_GENERATED_(D3)
  6
Continuous
 62
     7
100
AcDbCircle
 10
403.8145507932
 20
451.1482422561
 30
0.0
 40
30.79173582955288
100
AcDbArc
 50
225.8492646713
 51
262.5731955923
  0
LINE
  5
1D0
330
17F
100
AcDbEntity
  8
$DDT_AUDIT_GENERATED_(D3)
  6
Continuous
 62
     7
100
AcDbLine
 10
497.3869507329
 20
412.0124742356
 30
0.0
 11
399.8344260711
 21
420.6148244553
 31
0.0
  0
ARC
  5
1D1
330
17F
100
AcDbEntity
  8
$DDT_AUDIT_GENERATED_(D3)
  6
Continuous
 62
     7
100
AcDbCircle
 10
499.2509216079
 20
333.4614931661
 30
0.0
 40
65.45553191298242
100
AcDbArc
 50
80.9363647575
 51
102.6007029437
  0
ARC
  5
1D2
330
17F
100
AcDbEntity
  8
$DDT_AUDIT_GENERATED_(D3)
  6
Continuous
 62
     7
100
AcDbCircle
 10
341.0859918459
 20
442.4378986895
 30
0.0
 40
20.17531203605178
100
AcDbArc
 50
347.694054511
 51
12.3059443728
  0
LINE
  5
1D3
330
17F
100
AcDbEntity
  8
$DDT_AUDIT_GENERATED_(D3)
  6
Continuous
 62
     7
100
AcDbLine
 10
360.7977450858
 20
438.1378986938
 30
0.0
 11
360.7977450858
 21
406.3681931708
 31
0.0
  0
LINE
  5
1D4
330
17F
100
AcDbEntity
  8
$DDT_AUDIT_GENERATED_(D3)
  6
Continuous
 62
     7
100
AcDbLine
 10
360.7977450858
 20
447.8239140591
 30
0.0
 11
360.7977450858
 21
446.6802450734
 31
0.0
  0
LINE
  5
1D5
330
17F
100
AcDbEntity
  8
$DDT_AUDIT_GENERATED_(D3)
  6
Continuous
 62
     7
100
AcDbLine
 10
402.2966262204
 20
430.8335474782
 30
0.0
 11
402.2966262204
 21
450.9290121789
 31
0.0
  0
ARC
  5
1D6
330
17F
100
AcDbEntity
  8
$DDT_AUDIT_GENERATED_(D3)
  6
Continuous
 62
     7
100
AcDbCircle
 10
507.0611848107
 20
411.236752039
 30
0.0
 40
13.3681146940591
100
AcDbArc
 50
280.7783041796
 51
289.9021934359
  0
SPLINE
  5
1D7
330
17F
100
AcDbEntity
  8
$DDT_AUDIT_GENERATED_(D3)
  6
Continuous
 62
     7
100
AcDbSpline
210
0.0
220
0.0
230
1.0
 70
     8
 71
     3
 72
    38
 73
    34
 74
     0
 42
0.0000000000793323
 43
0.0000000001
 40
0.0
 40
0.0
 40
0.0
 40
0.0
 40
0.0213845968659034
 40
0.0459613931384058
 40
0.0681214252873746
 40
0.088108425986771
 40
0.1115427096179162
 40
0.1312867492706096
 40
0.1472753681208645
 40
0.1697008084726136
 40
0.1956637818929479
 40
0.223862781656471
 40
0.2531095552841396
 40
0.2834041013793708
 40
0.3147464180935057
 40
0.3471162555104824
 40
0.4354137403582736
 40
0.5206153562539648
 40
0.5558261862114222
 40
0.5904798060690636
 40
0.6245762134701229
 40
0.6573623470363226
 40
0.690983582856925
 40
0.7269347094649998
 40
0.7656536353047432
 40
0.8080744503810657
 40
0.8312684208933897
 40
0.8560492537699695
 40
0.8827391221533416
 40
0.9117191449713421
 40
0.9434346291345428
 40
0.9784005044973366
 40
1.0
 40
1.0
 40
1.0
 40
1.0
 10
361.3755843164669
 20
405.0153810380661
 30
0.0
 10
362.0623847630444
 20
404.3050320337307
 30
0.0
 10
363.3199866624667
 20
403.022515588491
 30
0.0
 10
365.6556970500256
 20
401.2518986470709
 30
0.0
 10
368.0354195180408
 20
399.7929578866305
 30
0.0
 10
370.5200774662979
 20
398.5859100424701
 30
0.0
 10
373.0135100937532
 20
397.6669242999966
 30
0.0
 10
375.4224430186357
 20
397.0408516049848
 30
0.0
 10
377.830724368276
 20
396.6205448075491
 30
0.0
 10
380.5311172567971
 20
396.3927098254348
 30
0.0
 10
383.749457838293
 20
396.4684195913961
 30
0.0
 10
387.2524244302125
 20
396.4844288053824
 30
0.0
 10
390.937899133509
 20
396.5207709581576
 30
0.0
 10
394.7552393873952
 20
396.5529044481281
 30
0.0
 10
398.7038032571742
 20
396.5876930411968
 30
0.0
 10
405.0886446992857
 20
396.6432837285819
 30
0.0
 10
413.7357391192186
 20
396.7188250496731
 30
0.0
 10
422.5021603487447
 20
396.7953052522892
 30
0.0
 10
429.0153845598485
 20
396.8521477339527
 30
0.0
 10
433.3820418420968
 20
396.8902545407025
 30
0.0
 10
437.6468548036703
 20
396.9274731125096
 30
0.0
 10
441.8683048642622
 20
396.9643131199692
 30
0.0
 10
446.1676576482805
 20
397.0018330112975
 30
0.0
 10
450.7162083930173
 20
397.0415276099454
 30
0.0
 10
455.63435237013
 20
397.0844476029157
 30
0.0
 10
460.0167117890222
 20
397.1226918739845
 30
0.0
 10
463.8134960643241
 20
397.1558259084142
 30
0.0
 10
466.9499532569585
 20
397.183197355659
 30
0.0
 10
470.3277518896039
 20
397.212674957752
 30
0.0
 10
474.0039710033404
 20
397.244756835927
 30
0.0
 10
477.9972651370365
 20
397.2796057858818
 30
0.0
 10
481.7950768042024
 20
397.3127487861954
 30
0.0
 10
484.0105856339126
 20
397.3320832388416
 30
0.0
 10
485.0085511811038
 20
397.3407923522317
 30
0.0
  0
LINE
  5
1D8
330
17F
100
AcDbEntity
  8
$DDT_AUDIT_GENERATED_(D3)
  6
Continuous
 62
     7
100
AcDbLine
 10
512.9471856531
 20
400.5499126183
 30
0.0
 11
512.9471856531
 21
410.8018438036
 31
0.0
  0
SPLINE
  5
1D9
330
17F
100
AcDbEntity
  8
$DDT_AUDIT_GENERATED_(D3)
  6
Continuous
 62
     7
100
AcDbSpline
210
0.0
220
0.0
230
1.0
 70
     8
 71
     3
 72
    22
 73
    18
 74
     0
 42
0.000000000096708
 43
0.0000000001
 40
0.0
 40
0.0
 40
0.0
 40
0.0
 40
0.0242579044655117
 40
0.0536074500150822
 40
0.0829575824099354
 40
0.1123078752672976
 40
0.1421238638039156
 40
0.177366770925001
 40
0.2140692280761305
 40
0.2520549425336758
 40
0.3350221932537912
 40
0.4212174048118607
 40
0.5090106420982412
 40
0.6577092377562139
 40
0.8007708385641347
 40
0.942580761422267
 40
1.0
 40
1.0
 40
1.0
 40
1.0
 10
511.337790257617
 20
412.7588410685147
 30
0.0
 10
510.4354908715291
 20
412.9370329517552
 30
0.0
 10
508.7507069101413
 20
413.267529530409
 30
0.0
 10
505.8717946857682
 20
413.7593987198526
 30
0.0
 10
502.8879446549749
 20
414.2100183400644
 30
0.0
 10
499.8580089845966
 20
414.6075544673963
 30
0.0
 10
496.6235214295563
 20
414.9530126812857
 30
0.0
 10
493.1330883834679
 20
415.3021798006559
 30
0.0
 10
489.3636903682439
 20
415.6866436815084
 30
0.0
 10
483.9573583041761
 20
416.235237323862
 30
0.0
 10
476.8542457365576
 20
416.9570417635146
 30
0.0
 10
468.0419618189767
 20
417.8520571483089
 30
0.0
 10
456.9810205313527
 20
418.9756217415743
 30
0.0
 10
443.9379131079468
 20
420.3004805493291
 30
0.0
 10
429.1786224741568
 20
421.7996586841255
 30
0.0
 10
417.1233695392959
 20
423.0241998049938
 30
0.0
 10
410.7217768061601
 20
423.6744504270978
 30
0.0
 10
408.5558988816265
 20
423.8944526638072
 30
0.0
  0
ARC
  5
1DA
330
17F
100
AcDbEntity
  8
$DDT_AUDIT_GENERATED_(D3)
  6
Continuous
 62
     7
100
AcDbCircle
 10
409.2763977885
 20
430.8286516318
 30
0.0
 40
6.962641134420704
100
AcDbArc
 50
179.9618983972
 51
264.0611014881
  0
ARC
  5
1DB
330
17F
100
AcDbEntity
  8
$DDT_AUDIT_GENERATED_(D3)
  6
Continuous
 62
     7
100
AcDbCircle
 10
510.9471856531
 20
400.5499126184
 30
0.0
 40
1.999999999999984
100
AcDbArc
 50
289.4481266788
 51
0.0184893238
  0
ARC
  5
1DC
330
17F
100
AcDbEntity
  8
$DDT_AUDIT_GENERATED_(D3)
  6
Continuous
 62
     7
100
AcDbCircle
 10
362.6450253439
 20
406.3008902494
 30
0.0
 40
1.834613964941078
100
AcDbArc
 50
177.8641971834
 51
225.3700512562
  0
ARC
  5
1DD
330
17F
100
AcDbEntity
  8
$DDT_AUDIT_GENERATED_(D3)
  6
Continuous
 62
     7
100
AcDbCircle
 10
510.9471856531
 20
410.8018437785
 30
0.0
 40
1.999999999976077
100
AcDbArc
 50
359.9705839491
 51
78.7331391201
  0
ARC
  5
1DE
330
17F
100
AcDbEntity
  8
$DDT_AUDIT_GENERATED_(D3)
  6
Continuous
 62
     7
100
AcDbCircle
 10
361.0977450864
 20
446.7378986904
 30
0.0
 40
0.2999999999145693
100
AcDbArc
 50
191.8172184041
 51
191.8748540017
  0
LINE
  5
1E0
330
17F
100
AcDbEntity
  8
$DDT_AUDIT_GENERATED_(1DF)
  6
Continuous
 62
     7
100
AcDbLine
 10
360.9974674132
 20
439.1755088317
 30
0.0
 11
360.9974674132
 21
445.6796701674
 31
0.0
  0
LINE
  5
1E1
330
17F
100
AcDbEntity
  8
$DDT_AUDIT_GENERATED_(F5)
  6
Continuous
 62
     7
100
AcDbLine
 10
487.2835640687
 20
391.1479226442
 30
0.0
 11
508.5435207471
 21
393.7583170897
 31
0.0
  0
ELLIPSE
  5
1E2
330
17F
100
AcDbEntity
  8
$DDT_AUDIT_GENERATED_(F5)
  6
Continuous
 62
     7
100
AcDbEllipse
 10
498.2226541509
 20
389.9356067467
 30
0.0
 11
-11.84603831983921
 21
-1.454510613540558
 31
0.0
210
0.0
220
0.0
230
0.9999999999999998
 40
0.5773502692
 41
4.30856289122389
 42
5.116215069545458
  0
LINE
  5
1E3
330
17F
100
AcDbEntity
  8
$DDT_AUDIT_GENERATED_(F5)
  6
Continuous
 62
     7
100
AcDbLine
 10
502.1052158087
 20
396.7963299817
 30
0.0
 11
502.4743869805
 21
393.7896720672
 31
0.0
  0
LINE
  5
1E4
330
17F
100
AcDbEntity
  8
$DDT_AUDIT_GENERATED_(F5)
  6
Continuous
 62
     7
100
AcDbLine
 10
493.164833169
 20
392.6466025902
 30
0.0
 11
492.7956619971
 21
395.6532605047
 31
0.0
  0
SPLINE
  5
1E5
330
17F
100
AcDbEntity
  8
$DDT_AUDIT_GENERATED_(F5)
  6
Continuous
 62
     7
100
AcDbSpline
210
0.0
220
0.0
230
1.0
 70
     8
 71
     3
 72
    12
 73
     8
 74
     0
 42
0.0000000398432805
 43
0.0000000001
 40
0.0
 40
0.0
 40
0.0
 40
0.0
 40
0.500000000000005
 40
0.500000000000005
 40
0.7500000000000024
 40
0.7500000000000024
 40
1.0
 40
1.0
 40
1.0
 40
1.0
 10
493.3735103345008
 20
392.541345558863
 30
0.0
 10
493.332574695285
 20
392.5451747608065
 30
0.0
 10
493.2912593871815
 20
392.5522213994874
 30
0.0
 10
493.2332803556995
 20
392.5735786892667
 30
0.0
 10
493.2142610530997
 20
392.5826056800203
 30
0.0
 10
493.1813659759868
 20
392.6081871679015
 30
0.0
 10
493.1673880412137
 20
392.6257948255086
 30
0.0
 10
493.1648331689585
 20
392.646602590233
 30
0.0
  0
SPLINE
  5
1E6
330
17F
100
AcDbEntity
  8
$DDT_AUDIT_GENERATED_(F5)
  6
Continuous
 62
     7
100
AcDbSpline
210
0.0
220
0.0
230
1.0
 70
     8
 71
     3
 72
    12
 73
     8
 74
     0
 42
0.0000000398474798
 43
0.0000000001
 40
0.0
 40
0.0
 40
0.0
 40
0.0
 40
0.2499999999999999
 40
0.2499999999999999
 40
0.4999999999999998
 40
0.4999999999999998
 40
1.0
 40
1.0
 40
1.0
 40
1.0
 10
502.4743869805463
 20
393.7896720671907
 30
0.0
 10
502.4769213705904
 20
393.7690311166874
 30
0.0
 10
502.467728680607
 20
393.7486124566357
 30
0.0
 10
502.4423044720116
 20
393.7160235986362
 30
0.0
 10
502.4259931556149
 20
393.7025278672356
 30
0.0
 10
502.3746913738207
 20
393.6675494399577
 30
0.0
 10
502.3362664738955
 20
393.6507121046683
 30
0.0
 10
502.297372399184
 20
393.6370580440235
 30
0.0
  0
SPLINE
  5
1E7
330
17F
100
AcDbEntity
  8
$DDT_AUDIT_GENERATED_(F5)
  6
Continuous
 62
     7
100
AcDbSpline
210
0.0
220
0.0
230
1.0
 70
     8
 71
     3
 72
    14
 73
    10
 74
     0
 42
0.0000000011024152
 43
0.0000000001
 40
0.0
 40
0.0
 40
0.0
 40
0.0
 40
0.2500000000000001
 40
0.2500000000000001
 40
0.5000000000000001
 40
0.5000000000000001
 40
0.75
 40
0.75
 40
1.0
 40
1.0
 40
1.0
 40
1.0
 10
502.297372399184
 20
393.6370580440235
 30
0.0
 10
501.5841777371052
 20
393.3866856354545
 30
0.0
 10
500.8535249799839
 20
393.1661590219924
 30
0.0
 10
499.3866893695694
 20
392.8105095593199
 30
0.0
 10
498.6469004394345
 20
392.6741468643053
 30
0.0
 10
497.1536207431327
 20
392.4905903462864
 30
0.0
 10
496.4001270503166
 20
392.4434155693431
 30
0.0
 10
494.8801213507909
 20
392.4337866589266
 30
0.0
 10
494.1230340480005
 20
392.4712336046984
 30
0.0
 10
493.3735103345008
 20
392.541345558863
 30
0.0
  0
LINE
  5
1E8
330
17F
100
AcDbEntity
  8
$DDT_AUDIT_GENERATED_(F5)
  6
Continuous
 62
     7
100
AcDbLine
 10
492.7956619971
 20
395.6532605047
 30
0.0
 11
502.1052158087
 21
396.7963299817
 31
0.0
  0
LINE
  5
1E9
330
17F
100
AcDbEntity
  8
$DDT_AUDIT_GENERATED_(F5)
  6
Continuous
 62
     7
100
AcDbLine
 10
485.278899954
 20
397.4212745159
 30
0.0
 11
485.9735717549
 21
391.7636267152
 31
0.0
  0
LINE
  5
1EA
330
17F
100
AcDbEntity
  8
$DDT_AUDIT_GENERATED_(F5)
  6
Continuous
 62
     7
100
AcDbLine
 10
509.6656483946
 20
394.6726479423
 30
0.0
 11
509.2380794771
 21
398.1549173285
 31
0.0
  0
ARC
  5
1EB
330
17F
100
AcDbEntity
  8
$DDT_AUDIT_GENERATED_(F5)
  6
Continuous
 62
     7
100
AcDbCircle
 10
509.5167664718
 20
394.6543675407
 30
0.0
 40
0.1499999999999938
100
AcDbArc
 50
307.0
 51
7.0
  0
LINE
  5
1EC
330
17F
100
AcDbEntity
  8
$DDT_AUDIT_GENERATED_(F5)
  6
Continuous
 62
     7
100
AcDbLine
 10
486.0638440084
 20
391.6438313887
 30
0.0
 11
487.2066739979
 21
391.1587288389
 31
0.0
  0
LINE
  5
1ED
330
17F
100
AcDbEntity
  8
$DDT_AUDIT_GENERATED_(F5)
  6
Continuous
 62
     7
100
AcDbLine
 10
508.615512599
 20
393.787403686
 30
0.0
 11
509.6070387253
 21
394.5345722142
 31
0.0
  0
ARC
  5
1EE
330
17F
100
AcDbEntity
  8
$DDT_AUDIT_GENERATED_(F5)
  6
Continuous
 62
     7
100
AcDbCircle
 10
487.2652836672
 20
391.2968045669
 30
0.0
 40
0.1499999999999966
100
AcDbArc
 50
247.0
 51
277.0
  0
ARC
  5
1EF
330
17F
100
AcDbEntity
  8
$DDT_AUDIT_GENERATED_(F5)
  6
Continuous
 62
     7
100
AcDbCircle
 10
508.5252403455
 20
393.9071990125
 30
0.0
 40
0.149999999999991
100
AcDbArc
 50
277.0
 51
307.0
  0
ARC
  5
1F0
330
17F
100
AcDbEntity
  8
$DDT_AUDIT_GENERATED_(F5)
  6
Continuous
 62
     7
100
AcDbCircle
 10
486.1224536777
 20
391.7819071167
 30
0.0
 40
0.1500000000000031
100
AcDbArc
 50
187.0
 51
247.0
  0
LINE
  5
1F1
330
17F
100
AcDbEntity
  8
$DDT_AUDIT_GENERATED_(10B)
  6
Continuous
 62
     7
100
AcDbLine
 10
489.0232813133
 20
391.0089046232
 30
0.0
 11
506.8891120428
 21
393.2025528045
 31
0.0
  0
LINE
  5
1F2
330
17F
100
AcDbEntity
  8
$DDT_AUDIT_GENERATED_(10B)
  6
Continuous
 62
     7
100
AcDbLine
 10
488.9806270431
 20
391.3562957763
 30
0.0
 11
489.0232813133
 21
391.0089046232
 31
0.0
  0
LINE
  5
1F3
330
17F
100
AcDbEntity
  8
$DDT_AUDIT_GENERATED_(10B)
  6
Continuous
 62
     7
100
AcDbLine
 10
506.8891120428
 20
393.2025528045
 30
0.0
 11
506.8464577726
 21
393.5499439576
 31
0.0
  0
ENDBLK
  5
1F5
330
17F
100
AcDbEntity
  8
0
100
AcDbBlockEnd
  0
BLOCK
  5
249
330
1F6
100
AcDbEntity
  8
0
100
AcDbBlockBegin
  2
SE2
 70
     0
 10
0.0
 20
0.0
 30
0.0
  3
SE2
  1

  0
ARC
  5
1F8
330
1F6
100
AcDbEntity
  8
$DDT_AUDIT_GENERATED_(75)
  6
Continuous
 62
     7
100
AcDbCircle
 10
86.2303166785
 20
224.260966855
 30
0.0
 40
7.000000078129211
100
AcDbArc
 50
58.5905777743
 51
81.3985175195
  0
LINE
  5
1F9
330
1F6
100
AcDbEntity
  8
$DDT_AUDIT_GENERATED_(75)
  6
Continuous
 62
     7
100
AcDbLine
 10
116.3505507792
 20
265.7432599202
 30
0.0
 11
191.5886842253
 21
265.7432598562
 31
0.0
  0
LINE
  5
1FA
330
1F6
100
AcDbEntity
  8
$DDT_AUDIT_GENERATED_(75)
  6
Continuous
 62
     7
100
AcDbLine
 10
191.5886842253
 20
265.7432598562
 30
0.0
 11
211.2589617357
 21
265.7432598401
 31
0.0
  0
ARC
  5
1FB
330
1F6
100
AcDbEntity
  8
$DDT_AUDIT_GENERATED_(75)
  6
Continuous
 62
     7
100
AcDbCircle
 10
116.3604918182
 20
423.1303987016
 30
0.0
 40
194.1359755717359
100
AcDbArc
 50
278.6099030106
 51
284.0980051499
  0
LINE
  5
1FC
330
1F6
100
AcDbEntity
  8
$DDT_AUDIT_GENERATED_(75)
  6
Continuous
 62
     7
100
AcDbLine
 10
207.3166371224
 20
246.4712305325
 30
0.0
 11
191.9234198549
 21
242.3717806629
 31
0.0
  0
LINE
  5
1FD
330
1F6
100
AcDbEntity
  8
$DDT_AUDIT_GENERATED_(75)
  6
Continuous
 62
     7
100
AcDbLine
 10
191.9234198549
 20
242.3717806629
 30
0.0
 11
163.6483742324
 21
234.8417023124
 31
0.0
  0
ARC
  5
1FE
330
1F6
100
AcDbEntity
  8
$DDT_AUDIT_GENERATED_(75)
  6
Continuous
 62
     7
100
AcDbCircle
 10
146.4707848799
 20
224.260966855
 30
0.0
 40
7.000000078129338
100
AcDbArc
 50
98.6014824805
 51
121.1607012688
  0
LINE
  5
1FF
330
1F6
100
AcDbEntity
  8
$DDT_AUDIT_GENERATED_(75)
  6
Continuous
 62
     7
100
AcDbLine
 10
41.112417333
 20
265.7432598562
 30
0.0
 11
21.4421171483
 21
265.7432598401
 31
0.0
  0
LINE
  5
200
330
1F6
100
AcDbEntity
  8
$DDT_AUDIT_GENERATED_(75)
  6
Continuous
 62
     7
100
AcDbLine
 10
116.3505507792
 20
265.7432599202
 30
0.0
 11
41.112417333
 21
265.7432598562
 31
0.0
  0
SPLINE
  5
201
330
1F6
100
AcDbEntity
  8
$DDT_AUDIT_GENERATED_(75)
  6
Continuous
 62
     7
100
AcDbSpline
210
0.0
220
0.0
230
1.0
 70
    12
 71
     3
 72
   106
 73
   102
 74
     0
 42
0.0000000003417569
 43
0.0000000001
 40
0.0
 40
0.0
 40
0.0
 40
0.0
 40
0.0041538354606901
 40
0.0074289510578389
 40
0.0107040666549552
 40
0.0172542978492558
 40
0.0238045290435175
 40
0.0369049914320509
 40
0.0500054538206164
 40
0.0565556850148813
 40
0.0631059162091462
 40
0.0696561474034116
 40
0.0729312630005634
 40
0.0762063785977122
 40
0.0827566097919771
 40
0.089306840986242
 40
0.1024073033747755
 40
0.1155077657633377
 40
0.1286082281518712
 40
0.1548091529289667
 40
0.1810100777060624
 40
0.207211002483158
 40
0.2334119272602569
 40
0.2858137768144482
 40
0.3382156263686429
 40
0.3906174759228017
 40
0.4430193254769932
 40
0.4954211750311842
 40
0.5478230245853789
 40
0.5740239493624749
 40
0.6002248741395377
 40
0.6264257989166337
 40
0.6395262613051994
 40
0.6526267236937292
 40
0.6559018392908815
 40
0.6591769548879945
 40
0.6608145126865864
 40
0.6624520704851464
 40
0.665727186082295
 40
0.6722774172765603
 40
0.6788276484708252
 40
0.7050285732479207
 40
0.7312294980250195
 40
0.7574304228021155
 40
0.7836313475792109
 40
0.7967318099677444
 40
0.8098322723563065
 40
0.8163825035505746
 40
0.8229327347448395
 40
0.8294829659391053
 40
0.8360331971334056
 40
0.8491336595219354
 40
0.8622341219104657
 40
0.875334584299031
 40
0.8884350466875612
 40
0.8949852778818621
 40
0.901535509076127
 40
0.9048106246732432
 40
0.9080857402703951
 40
0.9146359714646599
 40
0.9277364338532257
 40
0.934286665047491
 40
0.9408368962417559
 40
0.9441120118389045
 40
0.9473871274360208
 40
0.9506622430331694
 40
0.9539373586303217
 40
0.9572124742274375
 40
0.9604875898245862
 40
0.9621251476231434
 40
0.9637627054217028
 40
0.9654002632202952
 40
0.9662190421195571
 40
0.9670378210188515
 40
0.9678565999181494
 40
0.9686753788174115
 40
0.9694941577167058
 40
0.9703129366160037
 40
0.97195049441456
 40
0.9735880522131201
 40
0.9768631678102686
 40
0.980138283407385
 40
0.9834133990045335
 40
0.9850509568030898
 40
0.986688514601682
 40
0.9875072935009446
 40
0.9883260724002421
 40
0.9891448512995363
 40
0.9899636301987984
 40
0.9916011879973906
 40
0.9924199668966527
 40
0.993238745795947
 40
0.994057524695245
 40
0.994876303594507
 40
0.9956950824938012
 40
0.9965138613930993
 40
0.9973326402923612
 40
0.9981514191916561
 40
0.9989701980909176
 40
0.9997889769902155
 40
1.0
 40
1.0
 40
1.0
 40
1.0
 10
40.77768170337851
 20
242.3717806628858
 30
0.0
 41
1.0
 10
40.81682207920085
 20
242.3613569804435
 30
0.0
 41
1.0
 10
40.8868229903328
 20
242.342714664089
 30
0.0
 41
1.0
 10
40.9876845712125
 20
242.3158536780196
 30
0.0
 41
1.0
 10
41.11112692113051
 20
242.2829790867964
 30
0.0
 41
1.0
 10
41.2654301467625
 20
242.2418857710065
 30
0.0
 41
1.0
 10
41.5123158291216
 20
242.1761363268994
 30
0.0
 41
1.0
 10
41.82092374962651
 20
242.0939493040379
 30
0.0
 41
1.0
 10
42.12953239623951
 20
242.0117620878025
 30
0.0
 41
1.0
 10
42.37641956272351
 20
241.9460122484501
 30
0.0
 41
1.0
 10
42.5615850190085
 20
241.8966998472521
 30
0.0
 41
1.0
 10
42.7158895989375
 20
241.8556061707918
 30
0.0
 41
1.0
 10
42.8393332613856
 20
241.8227312300218
 30
0.0
 41
1.0
 10
42.9627769199086
 20
241.7898562902973
 30
0.0
 41
1.0
 10
43.1170814868795
 20
241.7487626172878
 30
0.0
 41
1.0
 10
43.3639687805595
 20
241.6830127440616
 30
0.0
 41
1.0
 10
43.6725778729605
 20
241.6008254091061
 30
0.0
 41
1.0
 10
44.04290874537961
 20
241.5022006174027
 30
0.0
 41
1.0
 10
44.53668319219651
 20
241.370700908378
 30
0.0
 41
1.0
 10
45.1539011603055
 20
241.2063262961757
 30
0.0
 41
1.0
 10
45.89456258668049
 20
241.0090767975805
 30
0.0
 41
1.0
 10
46.63522388715549
 20
240.811827332514
 30
0.0
 41
1.0
 10
47.62277213273559
 20
240.5488280870522
 30
0.0
 41
1.0
 10
48.8572071732595
 20
240.2200791011844
 30
0.0
 41
1.0
 10
50.3385288747825
 20
239.8255804105832
 30
0.0
 41
1.0
 10
51.8198503099415
 20
239.4310817909185
 30
0.0
 41
1.0
 10
53.30117156047151
 20
239.0365832204233
 30
0.0
 41
1.0
 10
54.7824927086325
 20
238.6420846771908
 30
0.0
 41
1.0
 10
56.0169269820515
 20
238.313335895615
 30
0.0
 41
1.0
 10
57.0044744316675
 20
238.0503368621305
 30
0.0
 41
1.0
 10
57.7451350444585
 20
237.8530875802049
 30
0.0
 41
1.0
 10
58.3623522514936
 20
237.6887131706885
 30
0.0
 41
1.0
 10
58.85612603995251
 20
237.5572136369948
 30
0.0
 41
1.0
 10
59.1338738054215
 20
237.4832451467726
 30
0.0
 41
1.0
 10
59.31903898677849
 20
237.4339328187919
 30
0.0
 41
1.0
 10
59.3961911463545
 20
237.4133860152862
 30
0.0
 41
1.0
 10
59.4579128746135
 20
237.3969485723227
 30
0.0
 41
1.0
 10
59.5196346024715
 20
237.3805111294653
 30
0.0
 41
1.0
 10
59.6276476249145
 20
237.3517456048143
 30
0.0
 41
1.0
 10
59.7819519389295
 20
237.3106519991709
 30
0.0
 41
1.0
 10
60.15228228364651
 20
237.2120273480026
 30
0.0
 41
1.0
 10
60.7077777371975
 20
237.0640903881678
 30
0.0
 41
1.0
 10
61.4484384990205
 20
236.8668410665525
 30
0.0
 41
1.0
 10
62.18909935461951
 20
236.6695917199636
 30
0.0
 41
1.0
 10
62.80631676543349
 20
236.5052172561775
 30
0.0
 41
1.0
 10
63.3000906835745
 20
236.3737176879476
 30
0.0
 41
1.0
 10
63.6086993716595
 20
236.2915304606676
 30
0.0
 41
1.0
 10
63.8555863128415
 20
236.2257806813168
 30
0.0
 41
1.0
 10
64.04075151109251
 20
236.176468348837
 30
0.0
 41
1.0
 10
64.2259167092846
 20
236.127156016373
 30
0.0
 41
1.0
 10
64.4728036625325
 20
236.0614062338088
 30
0.0
 41
1.0
 10
64.78141238173751
 20
235.979218998241
 30
0.0
 41
1.0
 10
65.1517428816375
 20
235.880594305745
 30
0.0
 41
1.0
 10
65.52207340730551
 20
235.7819696063868
 30
0.0
 41
1.0
 10
65.8306821920826
 20
235.6997823533561
 30
0.0
 41
1.0
 10
66.0775692231045
 20
235.6340325500796
 30
0.0
 41
1.0
 10
66.2318736176125
 20
235.5929389229998
 30
0.0
 41
1.0
 10
66.3553171331525
 20
235.5600640213538
 30
0.0
 41
1.0
 10
66.4787606467995
 20
235.5271891202117
 30
0.0
 41
1.0
 10
66.6947867703045
 20
235.4696580499717
 30
0.0
 41
1.0
 10
66.9416737397575
 20
235.4039082630918
 30
0.0
 41
1.0
 10
67.1885607206365
 20
235.338158473169
 30
0.0
 41
1.0
 10
67.3428650971085
 20
235.2970648508924
 30
0.0
 41
1.0
 10
67.4663086101655
 20
235.2641899499075
 30
0.0
 41
1.0
 10
67.55889125350151
 20
235.2395337718939
 30
0.0
 41
1.0
 10
67.6514738990306
 20
235.2148775932961
 30
0.0
 41
1.0
 10
67.7440565412405
 20
235.1902214155818
 30
0.0
 41
1.0
 10
67.8366391767185
 20
235.165565239661
 30
0.0
 41
1.0
 10
67.9137913639055
 20
235.1450184288021
 30
0.0
 41
1.0
 10
67.9755131065296
 20
235.1285809820126
 30
0.0
 41
1.0
 10
68.02180440965849
 20
235.116252897943
 30
0.0
 41
1.0
 10
68.0603804919985
 20
235.1059794955106
 30
0.0
 41
1.0
 10
68.09124135601951
 20
235.0977607740575
 30
0.0
 41
1.0
 10
68.11438700205649
 20
235.0915967334946
 30
0.0
 41
1.0
 10
68.1375326542355
 20
235.0854326912963
 30
0.0
 41
1.0
 10
68.1606783113785
 20
235.0792686477756
 30
0.0
 41
1.0
 10
68.1838239728865
 20
235.0731046030929
 30
0.0
 41
1.0
 10
68.2146848597506
 20
235.0648858755563
 30
0.0
 41
1.0
 10
68.25326097575551
 20
235.0546124641585
 30
0.0
 41
1.0
 10
68.3149827701435
 20
235.0381750035835
 30
0.0
 41
1.0
 10
68.3921350167045
 20
235.0176281769124
 30
0.0
 41
1.0
 10
68.48471767567851
 20
234.9929719947338
 30
0.0
 41
1.0
 10
68.56186982113351
 20
234.9724251949891
 30
0.0
 41
1.0
 10
68.62359146445759
 20
234.9559877746443
 30
0.0
 41
1.0
 10
68.66216745353951
 20
234.945714397049
 30
0.0
 41
1.0
 10
68.6930282144145
 20
234.9374957030629
 30
0.0
 41
1.0
 10
68.7161737688605
 20
234.9313316869003
 30
0.0
 41
1.0
 10
68.73931930800151
 20
234.9251676747741
 30
0.0
 41
1.0
 10
68.7701800224645
 20
234.9169489933103
 30
0.0
 41
1.0
 10
68.8010406596305
 20
234.9087303312961
 30
0.0
 41
1.0
 10
68.8319014552305
 20
234.9005116303451
 30
0.0
 41
1.0
 10
68.8550465984006
 20
234.8943477167801
 30
0.0
 41
1.0
 10
68.8781934520875
 20
234.8881833805865
 30
0.0
 41
1.0
 10
68.90133390134451
 20
234.8820206269891
 30
0.0
 41
1.0
 10
68.9244982497495
 20
234.8758519677807
 30
0.0
 41
1.0
 10
68.9475734051865
 20
234.8697053486347
 30
0.0
 41
1.0
 10
68.9709814392726
 20
234.8634764732745
 30
0.0
 41
1.0
 10
68.99314716535851
 20
234.8575545790777
 30
0.0
 41
1.0
 10
69.01994927298651
 20
234.850487008934
 30
0.0
 41
1.0
 10
69.02709793086152
 20
234.8483859256501
 30
0.0
 41
1.0
 10
69.04810566105722
 20
234.843008394292
 30
0.0
 41
1.0
 10
69.05272732595951
 20
234.8417023123588
 30
0.0
 41
1.0
  0
LINE
  5
202
330
1F6
100
AcDbEntity
  8
$DDT_AUDIT_GENERATED_(75)
  6
Continuous
 62
     7
100
AcDbLine
 10
25.3844380133
 20
246.4712375692
 30
0.0
 11
40.7776817034
 21
242.3717806629
 31
0.0
  0
ARC
  5
203
330
1F6
100
AcDbEntity
  8
$DDT_AUDIT_GENERATED_(75)
  6
Continuous
 62
     7
100
AcDbCircle
 10
116.3560358881
 20
423.2072224626
 30
0.0
 40
194.21424299575
100
AcDbArc
 50
255.9031015355
 51
261.388990304
  0
ARC
  5
204
330
1F6
100
AcDbEntity
  8
$DDT_AUDIT_GENERATED_(75)
  6
Continuous
 62
     7
100
AcDbCircle
 10
136.5745456681
 20
271.7499629768
 30
0.0
 40
76.00596943526956
100
AcDbArc
 50
341.5352933865
 51
354.6395348189
  0
ARC
  5
205
330
1F6
100
AcDbEntity
  8
$DDT_AUDIT_GENERATED_(75)
  6
Continuous
 62
     7
100
AcDbCircle
 10
146.5382951554
 20
224.2283685777
 30
0.0
 40
7.073228751791993
100
AcDbArc
 50
98.3996297211
 51
121.2607419703
  0
ARC
  5
206
330
1F6
100
AcDbEntity
  8
$DDT_AUDIT_GENERATED_(75)
  6
Continuous
 62
     7
100
AcDbCircle
 10
211.2590181792
 20
264.74325887
 30
0.0
 40
1.000000970304645
100
AcDbArc
 50
354.5775188397
 51
90.001308191
  0
ARC
  5
207
330
1F6
100
AcDbEntity
  8
$DDT_AUDIT_GENERATED_(75)
  6
Continuous
 62
     7
100
AcDbCircle
 10
206.80155184
 20
248.4037790192
 30
0.0
 40
2.000014243731617
100
AcDbArc
 50
284.8897673807
 51
341.7316682952
  0
ARC
  5
208
330
1F6
100
AcDbEntity
  8
$DDT_AUDIT_GENERATED_(75)
  6
Continuous
 62
     7
100
AcDbCircle
 10
86.162806403
 20
224.2283685777
 30
0.0
 40
7.073228751792056
100
AcDbArc
 50
58.5306138932
 51
81.6003702789
  0
ARC
  5
209
330
1F6
100
AcDbEntity
  8
$DDT_AUDIT_GENERATED_(75)
  6
Continuous
 62
     7
100
AcDbCircle
 10
21.4420824166
 20
264.7432597456
 30
0.0
 40
1.000000094767449
100
AcDbArc
 50
89.9986366579
 51
185.4225363135
  0
ARC
  5
20A
330
1F6
100
AcDbEntity
  8
$DDT_AUDIT_GENERATED_(75)
  6
Continuous
 62
     7
100
AcDbCircle
 10
96.2913441953
 20
271.7943308422
 30
0.0
 40
76.17632714277542
100
AcDbArc
 50
185.3821504695
 51
198.4571040822
  0
ARC
  5
20B
330
1F6
100
AcDbEntity
  8
$DDT_AUDIT_GENERATED_(75)
  6
Continuous
 62
     7
100
AcDbCircle
 10
25.8997081972
 20
248.4038833824
 30
0.0
 40
2.000197450223605
100
AcDbArc
 50
198.2697464518
 51
255.4574996935
  0
LINE
  5
20C
330
1F6
100
AcDbEntity
  8
$DDT_AUDIT_GENERATED_(1A5)
  6
Continuous
 62
     7
100
AcDbLine
 10
51.849642346
 20
265.7445856251
 30
0.0
 11
30.849642346
 21
265.7445856251
 31
0.0
  0
LINE
  5
20D
330
1F6
100
AcDbEntity
  8
$DDT_AUDIT_GENERATED_(1A5)
  6
Continuous
 62
     7
100
AcDbLine
 10
51.849642346
 20
265.7445856251
 30
0.0
 11
51.849642346
 21
266.0445856251
 31
0.0
  0
LINE
  5
20E
330
1F6
100
AcDbEntity
  8
$DDT_AUDIT_GENERATED_(1A5)
  6
Continuous
 62
     7
100
AcDbLine
 10
30.849642346
 20
266.0445856251
 30
0.0
 11
30.849642346
 21
265.7445856251
 31
0.0
  0
LINE
  5
20F
330
1F6
100
AcDbEntity
  8
$DDT_AUDIT_GENERATED_(1AB)
  6
Continuous
 62
     7
100
AcDbLine
 10
60.399642346
 20
266.0445856251
 30
0.0
 11
22.299642346
 21
266.0445856251
 31
0.0
  0
LINE
  5
210
330
1F6
100
AcDbEntity
  8
$DDT_AUDIT_GENERATED_(1AB)
  6
Continuous
 62
     7
100
AcDbLine
 10
60.599642346
 20
266.2445856251
 30
0.0
 11
60.599642346
 21
283.0445856251
 31
0.0
  0
LINE
  5
211
330
1F6
100
AcDbEntity
  8
$DDT_AUDIT_GENERATED_(1AB)
  6
Continuous
 62
     7
100
AcDbLine
 10
22.099642346
 20
283.0445856251
 30
0.0
 11
22.099642346
 21
266.2445856251
 31
0.0
  0
ARC
  5
212
330
1F6
100
AcDbEntity
  8
$DDT_AUDIT_GENERATED_(1AB)
  6
Continuous
 62
     7
100
AcDbCircle
 10
22.299642346
 20
266.2445856251
 30
0.0
 40
0.1999999999999919
100
AcDbArc
 50
180.0
 51
270.0
  0
ARC
  5
213
330
1F6
100
AcDbEntity
  8
$DDT_AUDIT_GENERATED_(1AB)
  6
Continuous
 62
     7
100
AcDbCircle
 10
60.399642346
 20
266.2445856251
 30
0.0
 40
0.1999999999999988
100
AcDbArc
 50
270.0
 51
0.0
  0
LINE
  5
214
330
1F6
100
AcDbEntity
  8
$DDT_AUDIT_GENERATED_(A7)
  6
Continuous
 62
     7
100
AcDbLine
 10
63.7634371888
 20
283.0445856251
 30
0.0
 11
18.9358475032
 21
283.0445856251
 31
0.0
  0
LINE
  5
215
330
1F6
100
AcDbEntity
  8
$DDT_AUDIT_GENERATED_(A7)
  6
Continuous
 62
     7
100
AcDbLine
 10
75.7617053654
 20
316.0445856251
 30
0.0
 11
6.9375793266
 21
316.0445856251
 31
0.0
  0
ARC
  5
216
330
1F6
100
AcDbEntity
  8
$DDT_AUDIT_GENERATED_(A7)
  6
Continuous
 62
     7
100
AcDbCircle
 10
203.8002971972
 20
347.875999337
 30
0.0
 40
200.0
100
AcDbArc
 50
189.3266153984
 51
197.6531938422
  0
ARC
  5
217
330
1F6
100
AcDbEntity
  8
$DDT_AUDIT_GENERATED_(A7)
  6
Continuous
 62
     7
100
AcDbCircle
 10
-121.1010125052
 20
347.875999337
 30
0.0
 40
200.0000000000001
100
AcDbArc
 50
342.3468061578
 51
350.6733846016
  0
ARC
  5
218
330
1F6
100
AcDbEntity
  8
$DDT_AUDIT_GENERATED_(A7)
  6
Continuous
 62
     7
100
AcDbCircle
 10
75.7617053654
 20
315.5445856251
 30
0.0
 40
0.4999999999999994
100
AcDbArc
 50
350.6733846016
 51
90.0
  0
ARC
  5
219
330
1F6
100
AcDbEntity
  8
$DDT_AUDIT_GENERATED_(A7)
  6
Continuous
 62
     7
100
AcDbCircle
 10
6.9375793266
 20
315.5445856251
 30
0.0
 40
0.5000000000000004
100
AcDbArc
 50
90.0
 51
189.3266153984
  0
ARC
  5
21A
330
1F6
100
AcDbEntity
  8
$DDT_AUDIT_GENERATED_(A7)
  6
Continuous
 62
     7
100
AcDbCircle
 10
63.7634371888
 20
289.0445856251
 30
0.0
 40
5.999999999999995
100
AcDbArc
 50
270.0
 51
342.3468061578
  0
ARC
  5
21B
330
1F6
100
AcDbEntity
  8
$DDT_AUDIT_GENERATED_(A7)
  6
Continuous
 62
     7
100
AcDbCircle
 10
18.9358475032
 20
289.0445856251
 30
0.0
 40
6.000000000000006
100
AcDbArc
 50
197.6531938422
 51
270.0
  0
ARC
  5
21C
330
1F6
100
AcDbEntity
  8
$DDT_AUDIT_GENERATED_(A9)
  6
Continuous
 62
     7
100
AcDbCircle
 10
115.1443398088
 20
133.6374947451
 30
0.0
 40
2.572602114794305
100
AcDbArc
 50
99.3005764547
 51
162.4196268531
  0
ARC
  5
21D
330
1F6
100
AcDbEntity
  8
$DDT_AUDIT_GENERATED_(A9)
  6
Continuous
 62
     7
100
AcDbCircle
 10
136.96486443
 20
128.8715040071
 30
0.0
 40
24.89783715270829
100
AcDbArc
 50
167.1363939255
 51
180.3075346233
  0
LINE
  5
21E
330
1F6
100
AcDbEntity
  8
$DDT_AUDIT_GENERATED_(A9)
  6
Continuous
 62
     7
100
AcDbLine
 10
114.7285719341
 20
136.1762776652
 30
0.0
 11
116.3495795041
 21
136.2940617958
 31
0.0
  0
SPLINE
  5
21F
330
1F6
100
AcDbEntity
  8
$DDT_AUDIT_GENERATED_(A9)
  6
Continuous
 62
     7
100
AcDbSpline
210
0.0
220
0.0
230
1.0
 70
     8
 71
     3
 72
     8
 73
     4
 74
     0
 42
0.0000000119673159
 43
0.0000000001
 40
0.8090392784251843
 40
0.8090392784251843
 40
0.8090392784251843
 40
0.8090392784251843
 40
0.8539527195548475
 40
0.8539527195548475
 40
0.8539527195548475
 40
0.8539527195548475
 10
112.8078845193809
 20
120.025343536295
 30
0.0
 10
112.8078438711335
 20
120.0061873681055
 30
0.0
 10
112.8072432247289
 20
120.0057695826774
 30
0.0
 10
112.8060426060388
 20
120.0233709017337
 30
0.0
  0
ARC
  5
220
330
1F6
100
AcDbEntity
  8
$DDT_AUDIT_GENERATED_(A9)
  6
Continuous
 62
     7
100
AcDbCircle
 10
117.5485101901
 20
133.6302011689
 30
0.0
 40
2.580824368504112
100
AcDbArc
 50
17.6924268242
 51
80.5873698681
  0
ARC
  5
221
330
1F6
100
AcDbEntity
  8
$DDT_AUDIT_GENERATED_(A9)
  6
Continuous
 62
     7
100
AcDbCircle
 10
95.7214146957
 20
128.8715391781
 30
0.0
 40
24.91038612515411
100
AcDbArc
 50
359.6924981858
 51
12.8569318333
  0
LINE
  5
222
330
1F6
100
AcDbEntity
  8
$DDT_AUDIT_GENERATED_(A9)
  6
Continuous
 62
     7
100
AcDbLine
 10
117.9705870741
 20
136.1762776652
 30
0.0
 11
116.3495795041
 21
136.2940617958
 31
0.0
  0
ARC
  5
223
330
1F6
100
AcDbEntity
  8
$DDT_AUDIT_GENERATED_(A9)
  6
Continuous
 62
     7
100
AcDbCircle
 10
62.5274448492
 20
126.1223076255
 30
0.0
 40
57.68899742617699
100
AcDbArc
 50
353.9311691403
 51
353.9330485848
  0
ARC
  5
224
330
1F6
100
AcDbEntity
  8
$DDT_AUDIT_GENERATED_(A9)
  6
Continuous
 62
     7
100
AcDbCircle
 10
116.2846627163
 20
237.7701618978
 30
0.0
 40
27.65363943343737
100
AcDbArc
 50
294.6482413618
 51
32.0413843128
  0
SPLINE
  5
225
330
1F6
100
AcDbEntity
  8
$DDT_AUDIT_GENERATED_(A9)
  6
Continuous
 62
     7
100
AcDbSpline
210
0.0
220
0.0
230
1.0
 70
     8
 71
     3
 72
   152
 73
   148
 74
     0
 42
0.0000000000788785
 43
0.0000000001
 40
0.0
 40
0.0
 40
0.0
 40
0.0
 40
0.0016247334939285
 40
0.0016247334939285
 40
0.0051282755903114
 40
0.0051282755903114
 40
0.0121353597830773
 40
0.0121353597830773
 40
0.0261495281686091
 40
0.0261495281686091
 40
0.0401636965541409
 40
0.0541778649396661
 40
0.0681920333251977
 40
0.0829334628979685
 40
0.0829334628979685
 40
0.0985247201882607
 40
0.1116890608562642
 40
0.124853401524268
 40
0.138017742192265
 40
0.138017742192265
 40
0.1643464235282723
 40
0.1643464235282723
 40
0.1775107641962759
 40
0.1775107641962759
 40
0.1906751048642731
 40
0.1906751048642731
 40
0.2083713223478569
 40
0.2170037862002804
 40
0.2256362500526977
 40
0.2342687139051212
 40
0.2342687139051212
 40
0.2515336416099686
 40
0.2515336416099686
 40
0.2860634970196501
 40
0.2860634970196501
 40
0.3033284247244974
 40
0.3033284247244974
 40
0.3205933524293382
 40
0.3205933524293382
 40
0.3513481308448105
 40
0.3551232078390263
 40
0.3588982848332422
 40
0.3626733618274515
 40
0.3626733618274515
 40
0.3702235158158812
 40
0.3702235158158812
 40
0.385323823792736
 40
0.385323823792736
 40
0.4004241317695916
 40
0.4004241317695916
 40
0.4155244397464464
 40
0.4155244397464464
 40
0.4457250557001568
 40
0.4457250557001568
 40
0.4608253636770123
 40
0.4608253636770123
 40
0.4714980435123846
 40
0.4759256716538671
 40
0.4803532997953496
 40
0.4847809279368321
 40
0.4847809279368321
 40
0.4936361842197971
 40
0.4936361842197971
 40
0.5024914405027628
 40
0.5024914405027628
 40
0.5113466967857279
 40
0.5113466967857279
 40
0.5290572093516587
 40
0.5290572093516587
 40
0.5379124656346236
 40
0.5467677219175886
 40
0.5556229782005536
 40
0.5742831242048111
 40
0.5742831242048111
 40
0.5880408253484218
 40
0.6017985264920335
 40
0.6155562276356443
 40
0.6323605451214103
 40
0.6323605451214103
 40
0.647641554436099
 40
0.6629225637507878
 40
0.678203573065476
 40
0.7035939273234583
 40
0.7125440652940089
 40
0.7214942032645589
 40
0.730444341235109
 40
0.730444341235109
 40
0.7483446171762091
 40
0.7483446171762091
 40
0.7572947551467593
 40
0.7572947551467593
 40
0.7662448931173093
 40
0.7662448931173093
 40
0.7751950310878594
 40
0.7751950310878594
 40
0.7796701000731346
 40
0.7796701000731346
 40
0.7819076345657721
 40
0.7841451690584094
 40
0.7863827035510467
 40
0.7920464901339056
 40
0.7920464901339056
 40
0.7999478112094011
 40
0.7999478112094011
 40
0.8078491322848973
 40
0.8078491322848973
 40
0.8157504533603935
 40
0.8157504533603935
 40
0.8236517744358891
 40
0.8236517744358891
 40
0.8315530955113853
 40
0.8315530955113853
 40
0.8394544165868809
 40
0.8394544165868809
 40
0.8434050771246288
 40
0.8473557376623769
 40
0.8513063982001251
 40
0.8607613839488228
 40
0.8607613839488228
 40
0.8741670302352685
 40
0.8741670302352685
 40
0.8875726765217133
 40
0.8875726765217133
 40
0.8942754996649366
 40
0.8942754996649366
 40
0.8979570897453818
 40
0.9009783228081594
 40
0.9039995558709369
 40
0.9070207889337145
 40
0.9070207889337145
 40
0.9130632550592693
 40
0.9130632550592693
 40
0.9251481873103796
 40
0.9251481873103796
 40
0.9372331195614899
 40
0.9372331195614899
 40
0.9432755856870443
 40
0.9493180518125994
 40
0.9553605179381546
 40
0.9656817059325978
 40
0.9656817059325978
 40
0.9740905818852967
 40
0.9820453600525959
 40
0.9900001382198951
 40
0.9979549163871938
 40
0.9979549163871938
 40
1.0
 40
1.0
 40
1.0
 40
1.0
 10
130.9689751077989
 20
261.1766663728139
 30
0.0
 10
130.973224230592
 20
261.1730597669532
 30
0.0
 10
130.9773800473789
 20
261.1691024992618
 30
0.0
 10
130.9904477103437
 20
261.1553318817227
 30
0.0
 10
130.998799481526
 20
261.1446046754931
 30
0.0
 10
131.0231741777086
 20
261.1067997510241
 30
0.0
 10
131.0375279929027
 20
261.0755652769585
 30
0.0
 10
131.0758546653543
 20
260.9634642352809
 30
0.0
 10
131.0949779432788
 20
260.8645636970947
 30
0.0
 10
131.1205982589037
 20
260.6209022740981
 30
0.0
 10
131.1335117778048
 20
260.3307278552145
 30
0.0
 10
131.1145551967757
 20
259.7728835134073
 30
0.0
 10
131.0534109682368
 20
259.06860794193
 30
0.0
 10
130.9826920856653
 20
258.5173345092323
 30
0.0
 10
130.8907027524325
 20
257.8939944876338
 30
0.0
 10
130.7865389769987
 20
257.2645844081381
 30
0.0
 10
130.5829797696768
 20
256.2302985044421
 30
0.0
 10
130.3564886231682
 20
255.2091720979291
 30
0.0
 10
130.1731114514427
 20
254.4659862667216
 30
0.0
 10
129.8747374545673
 20
253.3184111299911
 30
0.0
 10
129.6435599999539
 20
252.5025332161802
 30
0.0
 10
129.2437052364186
 20
251.2059541464314
 30
0.0
 10
129.0988037814456
 20
250.7548111282154
 30
0.0
 10
128.7920722440415
 20
249.8466481395894
 30
0.0
 10
128.6260210678961
 20
249.3750129764579
 30
0.0
 10
128.2185917253623
 20
248.2513749422653
 30
0.0
 10
127.8439531094273
 20
247.2599535323856
 30
0.0
 10
127.3241060119895
 20
245.8907841731928
 30
0.0
 10
126.9297235140153
 20
244.8408266303867
 30
0.0
 10
126.6645439554447
 20
244.1259293870583
 30
0.0
 10
126.2637241667724
 20
243.0399711941173
 30
0.0
 10
125.9952708680491
 20
242.3056912973852
 30
0.0
 10
125.185657881885
 20
240.0576012431666
 30
0.0
 10
124.6409864795863
 20
238.5024698830714
 30
0.0
 10
123.8454855469621
 20
236.1244312939394
 30
0.0
 10
123.5815157796026
 20
235.3168798951592
 30
0.0
 10
123.0654494196126
 20
233.6967224407008
 30
0.0
 10
122.810146791534
 20
232.8735650929132
 30
0.0
 10
122.1179675856948
 20
230.5710752605995
 30
0.0
 10
121.6421491110641
 20
228.8835709199398
 30
0.0
 10
121.1508768322489
 20
226.9887926191716
 30
0.0
 10
121.0116136142012
 20
226.4400568270508
 30
0.0
 10
120.9217786236566
 20
226.0778484695532
 30
0.0
 10
120.7865187554977
 20
225.5255876608028
 30
0.0
 10
120.6980166799416
 20
225.1552561737579
 30
0.0
 10
120.4399338015209
 20
224.0508309015209
 30
0.0
 10
120.2728688881772
 20
223.3103867325966
 30
0.0
 10
119.974610458324
 20
221.8091367053373
 30
0.0
 10
119.8444334544634
 20
221.0599000674333
 30
0.0
 10
119.618107229988
 20
219.5445584210606
 30
0.0
 10
119.5219979060464
 20
218.7790697432657
 30
0.0
 10
119.2798586841116
 20
216.4878991534424
 30
0.0
 10
119.1774804317162
 20
214.9450127437161
 30
0.0
 10
119.086745720669
 20
212.627327032172
 30
0.0
 10
119.0667075408714
 20
211.8570093504513
 30
0.0
 10
119.0449493998969
 20
210.5313286714699
 30
0.0
 10
119.0363468286893
 20
209.7595524031296
 30
0.0
 10
119.0350199853835
 20
208.758456531699
 30
0.0
 10
119.0387261978819
 20
208.0598528088522
 30
0.0
 10
119.041960345918
 20
207.5985805800751
 30
0.0
 10
119.0459728397464
 20
206.9013093939105
 30
0.0
 10
119.0474478684769
 20
206.4414440022854
 30
0.0
 10
119.0441450600231
 20
205.5118135579299
 30
0.0
 10
119.0390970999205
 20
205.0483511441888
 30
0.0
 10
119.0264804994716
 20
204.1239957082471
 30
0.0
 10
119.0196252077196
 20
203.6556284633816
 30
0.0
 10
118.9994663528165
 20
202.2688815481168
 30
0.0
 10
118.9854744665795
 20
201.3362929924241
 30
0.0
 10
118.9642498236811
 20
199.9468885402387
 30
0.0
 10
118.9499627058372
 20
199.0199007936058
 30
0.0
 10
118.9280537159031
 20
197.6224536542853
 30
0.0
 10
118.8981134159333
 20
195.746976213676
 30
0.0
 10
118.8747726875308
 20
194.3226292000556
 30
0.0
 10
118.8468786099908
 20
192.6461411332258
 30
0.0
 10
118.8229436838735
 20
191.2233765422467
 30
0.0
 10
118.786204021381
 20
189.0837524827517
 30
0.0
 10
118.7464162497021
 20
186.809615706092
 30
0.0
 10
118.7184122129859
 20
185.2397175468762
 30
0.0
 10
118.6886695653857
 20
183.5881035162649
 30
0.0
 10
118.6602359149844
 20
182.0222920783876
 30
0.0
 10
118.6166513826908
 20
179.6571901226822
 30
0.0
 10
118.5633939994875
 20
176.8047924209791
 30
0.0
 10
118.5153063509553
 20
174.2664655050571
 30
0.0
 10
118.4731309543776
 20
172.0525636788263
 30
0.0
 10
118.447053545612
 20
170.6855440913427
 30
0.0
 10
118.4296588925371
 20
169.7740014165908
 30
0.0
 10
118.4033849840055
 20
168.4085116682026
 30
0.0
 10
118.3849128142356
 20
167.4925078230248
 30
0.0
 10
118.3602223717371
 20
166.1280136380755
 30
0.0
 10
118.3523230048535
 20
165.6718344889082
 30
0.0
 10
118.3347850726998
 20
164.7578215050937
 30
0.0
 10
118.3248937674068
 20
164.3026500978704
 30
0.0
 10
118.3032858340995
 20
163.3917518847871
 30
0.0
 10
118.2924607438345
 20
162.9355571339917
 30
0.0
 10
118.2829740303951
 20
162.2534595184356
 30
0.0
 10
118.2808924259736
 20
162.0195980445469
 30
0.0
 10
118.279721454335
 20
161.6819289993857
 30
0.0
 10
118.2796793290221
 20
161.4540601882402
 30
0.0
 10
118.2805074090279
 20
161.1076686013202
 30
0.0
 10
118.2820119776126
 20
160.6102942496697
 30
0.0
 10
118.2803722128291
 20
160.2136641402036
 30
0.0
 10
118.2747198192009
 20
159.5420839433548
 30
0.0
 10
118.2695620238802
 20
159.1508273396997
 30
0.0
 10
118.2612531225229
 20
158.3671663181538
 30
0.0
 10
118.2574266918721
 20
157.9754186423311
 30
0.0
 10
118.2494575662732
 20
157.1911586335662
 30
0.0
 10
118.2452658776578
 20
156.7974870815536
 30
0.0
 10
118.2378889344892
 20
156.0160905406959
 30
0.0
 10
118.2345450564243
 20
155.6244523978788
 30
0.0
 10
118.2273339744943
 20
154.8384425241545
 30
0.0
 10
118.2231610988743
 20
154.451617832292
 30
0.0
 10
118.2139389798318
 20
153.6714994491334
 30
0.0
 10
118.2097702462705
 20
153.2889411662523
 30
0.0
 10
118.2047204615531
 20
152.7225775120981
 30
0.0
 10
118.2017310658556
 20
152.3475268335986
 30
0.0
 10
118.198336645712
 20
151.8004997248944
 30
0.0
 10
118.19462288367
 20
150.9985301928686
 30
0.0
 10
118.1936626936294
 20
150.4068273976098
 30
0.0
 10
118.1926878507489
 20
149.4269604059383
 30
0.0
 10
118.1929040635288
 20
148.8766656043793
 30
0.0
 10
118.1889435167792
 20
147.8298403531693
 30
0.0
 10
118.1846422388144
 20
147.328436205576
 30
0.0
 10
118.1707315106438
 20
146.6165962351222
 30
0.0
 10
118.1648107637513
 20
146.3815439336512
 30
0.0
 10
118.1536675812481
 20
146.0308634613383
 30
0.0
 10
118.1459878215197
 20
145.8067129274482
 30
0.0
 10
118.1350300136095
 20
145.4861090487086
 30
0.0
 10
118.1265453941685
 20
145.1955280462425
 30
0.0
 10
118.1216550285305
 20
145.003278080577
 30
0.0
 10
118.1146231307698
 20
144.7143510870499
 30
0.0
 10
118.1103580111266
 20
144.524691525413
 30
0.0
 10
118.0986709369655
 20
143.9550511161538
 30
0.0
 10
118.0923740811376
 20
143.5814179729784
 30
0.0
 10
118.0807807949785
 20
142.8350657527746
 30
0.0
 10
118.0755817002567
 20
142.4629207903977
 30
0.0
 10
118.0669470581567
 20
141.9032440745898
 30
0.0
 10
118.0608186757496
 20
141.528300798894
 30
0.0
 10
118.0511040954135
 20
140.9679739490219
 30
0.0
 10
118.0390210787976
 20
140.2618307313137
 30
0.0
 10
118.0302097604402
 20
139.7489512728088
 30
0.0
 10
118.0201176162373
 20
139.1609907917846
 30
0.0
 10
118.0112864188146
 20
138.646334219766
 30
0.0
 10
117.9981913674215
 20
137.8858016578725
 30
0.0
 10
117.9851945929657
 20
137.1268930775339
 30
0.0
 10
117.9771985893018
 20
136.6237408633328
 30
0.0
 10
117.972493237104
 20
136.3059766725005
 30
0.0
 10
117.9715381173486
 20
136.2411016552886
 30
0.0
 10
117.9705870741308
 20
136.1762776651711
 30
0.0
  0
ARC
  5
226
330
1F6
100
AcDbEntity
  8
$DDT_AUDIT_GENERATED_(A9)
  6
Continuous
 62
     7
100
AcDbCircle
 10
116.1799078216
 20
237.5947309888
 30
0.0
 40
27.83566395207437
100
AcDbArc
 50
32.233081409
 51
57.9067182158
  0
ARC
  5
227
330
1F6
100
AcDbEntity
  8
$DDT_AUDIT_GENERATED_(A9)
  6
Continuous
 62
     7
100
AcDbCircle
 10
116.3483122809
 20
237.7382386426
 30
0.0
 40
27.62469322843018
100
AcDbArc
 50
58.044487125
 51
89.9973716796
  0
SPLINE
  5
228
330
1F6
100
AcDbEntity
  8
$DDT_AUDIT_GENERATED_(A9)
  6
Continuous
 62
     7
100
AcDbSpline
210
0.0
220
0.0
230
1.0
 70
     8
 71
     3
 72
    60
 73
    56
 74
     0
 42
0.0000000000788707
 43
0.0000000001
 40
0.0
 40
0.0
 40
0.0
 40
0.0
 40
0.0072507887678891
 40
0.0141387748460004
 40
0.0302002097598245
 40
0.0623769676872502
 40
0.0840593324921417
 40
0.1270949037189028
 40
0.1588666002833967
 40
0.174764514432181
 40
0.190658899648621
 40
0.222443739666191
 40
0.2545085808829827
 40
0.2866046141196667
 40
0.3026454599257423
 40
0.3186794109543969
 40
0.3507726042443701
 40
0.3823589673061514
 40
0.3901736089094497
 40
0.3980087920994771
 40
0.4136348450262606
 40
0.4449166441446628
 40
0.4605534500616089
 40
0.4761898308893023
 40
0.491959162439509
 40
0.4983232368070145
 40
0.5078696545284442
 40
0.5316220699580835
 40
0.5494345391194194
 40
0.580275725832631
 40
0.6517378101147117
 40
0.7049627565016764
 40
0.7579192392169437
 40
0.7656357062013467
 40
0.7733483736430736
 40
0.7810545571774503
 40
0.7887676000028128
 40
0.7926187685185482
 40
0.7963669490283128
 40
0.8038753852188398
 40
0.8188919447408555
 40
0.8263954473312614
 40
0.8339035772109913
 40
0.8414132413927832
 40
0.8489174333196083
 40
0.8640407025968313
 40
0.8716360192301007
 40
0.8792284396546926
 40
0.8944095970405435
 40
0.9020088916386093
 40
0.9095269591418964
 40
0.9244862793298478
 40
0.9394493731841116
 40
0.9695787367642439
 40
1.0
 40
1.0
 40
1.0
 40
1.0
 10
101.730190809497
 20
261.1766707450465
 30
0.0
 10
101.7124374126743
 20
261.1570221086416
 30
0.0
 10
101.6778967588006
 20
261.1187603063893
 30
0.0
 10
101.6216432705336
 20
260.9715662656324
 30
0.0
 10
101.5564037834806
 20
260.5618538748141
 30
0.0
 10
101.5776318242408
 20
259.6728792640644
 30
0.0
 10
101.7764875163453
 20
257.957848955179
 30
0.0
 10
102.1957157039385
 20
255.7142997791171
 30
0.0
 10
102.8753195595942
 20
253.0996749673122
 30
0.0
 10
103.4957977354965
 20
251.0567186800903
 30
0.0
 10
104.2334341991325
 20
248.8779534695106
 30
0.0
 10
105.3819008566383
 20
245.894780568991
 30
0.0
 10
106.8324669122228
 20
241.9794978408687
 30
0.0
 10
108.0644969211914
 20
238.4936855131661
 30
0.0
 10
109.0266462563746
 20
235.6062182208354
 30
0.0
 10
109.9661036885867
 20
232.6594706819734
 30
0.0
 10
111.0724399852893
 20
228.8988197497071
 30
0.0
 10
111.9511222253476
 20
225.4300881764006
 30
0.0
 10
112.4682232719334
 20
223.1059442374729
 30
0.0
 10
112.7758506892787
 20
221.5552566466901
 30
0.0
 10
113.2112130668131
 20
218.8101081172056
 30
0.0
 10
113.4942486076815
 20
215.6258950288334
 30
0.0
 10
113.6243026786466
 20
212.4235177944947
 30
0.0
 10
113.6675058222155
 20
210.0083766514248
 30
0.0
 10
113.6604813182862
 20
208.0664512092845
 30
0.0
 10
113.6501954395407
 20
206.4357601124056
 30
0.0
 10
113.6625421997792
 20
204.3918584757571
 30
0.0
 10
113.7085355554938
 20
201.7585335630532
 30
0.0
 10
113.7637042915746
 20
198.0257886720389
 30
0.0
 10
113.8645067349706
 20
191.8308813164104
 30
0.0
 10
114.0051688429285
 20
183.8030922801266
 30
0.0
 10
114.1748440382786
 20
174.6272084110126
 30
0.0
 10
114.2931731438042
 20
168.7409381421156
 30
0.0
 10
114.3550305107718
 20
165.205405417167
 30
0.0
 10
114.3804863898037
 20
164.0093795874388
 30
0.0
 10
114.4105792754664
 20
162.8135781229716
 30
0.0
 10
114.4210715179287
 20
161.8168382853551
 30
0.0
 10
114.418138940498
 20
161.0246904291335
 30
0.0
 10
114.4172163140242
 20
160.2431263078027
 30
0.0
 10
114.4323762246156
 20
158.8844394221109
 30
0.0
 10
114.4487754955021
 20
157.3305785667397
 30
0.0
 10
114.4634134872734
 20
155.7792569529755
 30
0.0
 10
114.4736442668626
 20
154.6143861185107
 30
0.0
 10
114.488090719066
 20
153.4581434112402
 30
0.0
 10
114.5013859433706
 20
151.9564069856978
 30
0.0
 10
114.505910191678
 20
150.5334089934233
 30
0.0
 10
114.506292356337
 20
149.2145356765658
 30
0.0
 10
114.5082484985046
 20
147.9620614088162
 30
0.0
 10
114.5192054596004
 20
146.8090642028017
 30
0.0
 10
114.555442868036
 20
145.7547368284071
 30
0.0
 10
114.5863427583859
 20
144.7457905980482
 30
0.0
 10
114.6085938254067
 20
143.5208757495433
 30
0.0
 10
114.6356562655535
 20
141.5907537322268
 30
0.0
 10
114.6805505461558
 20
139.1301737590449
 30
0.0
 10
114.7125125201429
 20
137.1640730303588
 30
0.0
 10
114.7285719341174
 20
136.1762776651711
 30
0.0
  0
ARC
  5
229
330
1F6
100
AcDbEntity
  8
$DDT_AUDIT_GENERATED_(A9)
  6
Continuous
 62
     7
100
AcDbCircle
 10
116.3508536706
 20
237.7382140457
 30
0.0
 40
27.6247178255962
100
AcDbArc
 50
90.0026427188
 51
121.9554811349
  0
ARC
  5
22A
330
1F6
100
AcDbEntity
  8
$DDT_AUDIT_GENERATED_(A9)
  6
Continuous
 62
     7
100
AcDbCircle
 10
116.5192306015
 20
237.5947503138
 30
0.0
 40
27.83563667661306
100
AcDbArc
 50
122.0932501919
 51
147.7666451925
  0
ARC
  5
22B
330
1F6
100
AcDbEntity
  8
$DDT_AUDIT_GENERATED_(A9)
  6
Continuous
 62
     7
100
AcDbCircle
 10
116.4144955784
 20
237.7701616628
 30
0.0
 40
27.6536389354638
100
AcDbArc
 50
147.9583281701
 51
245.4208771365
  0
ARC
  5
22C
330
1F6
100
AcDbEntity
  8
$DDT_AUDIT_GENERATED_(A9)
  6
Continuous
 62
     7
100
AcDbCircle
 10
167.3282582332
 20
128.3836287211
 30
0.0
 40
55.26194915377895
100
AcDbArc
 50
179.6324508395
 51
184.3367275048
  0
ARC
  5
22D
330
1F6
100
AcDbEntity
  8
$DDT_AUDIT_GENERATED_(A9)
  6
Continuous
 62
     7
100
AcDbCircle
 10
115.4616703525
 20
120.4710473416
 30
0.0
 40
2.690431892824028
100
AcDbArc
 50
189.4677140138
 51
255.3831814703
  0
ARC
  5
22E
330
1F6
100
AcDbEntity
  8
$DDT_AUDIT_GENERATED_(A9)
  6
Continuous
 62
     7
100
AcDbCircle
 10
116.3478369779
 20
128.0188049856
 30
0.0
 40
10.27094310326666
100
AcDbArc
 50
261.0773907823
 51
270.0097205985
  0
ARC
  5
22F
330
1F6
100
AcDbEntity
  8
$DDT_AUDIT_GENERATED_(A9)
  6
Continuous
 62
     7
100
AcDbCircle
 10
181.6560942213
 20
131.7187855981
 30
0.0
 40
69.83567674606056
100
AcDbArc
 50
186.1203474342
 51
189.6215021904
  0
SPLINE
  5
230
330
1F6
100
AcDbEntity
  8
$DDT_AUDIT_GENERATED_(A9)
  6
Continuous
 62
     7
100
AcDbSpline
210
0.0
220
0.0
230
1.0
 70
     8
 71
     3
 72
    49
 73
    45
 74
     0
 42
0.0000000001024884
 43
0.0000000001
 40
0.1071850675128319
 40
0.1071850675128319
 40
0.1071850675128319
 40
0.1071850675128319
 40
0.1097457518735089
 40
0.1252441849000683
 40
0.1394036339156824
 40
0.1521167815911081
 40
0.1629948353176247
 40
0.1733179112385221
 40
0.1891969973200038
 40
0.2073709344697164
 40
0.2231280621413368
 40
0.2353801966733761
 40
0.2498125197651163
 40
0.2678867448027433
 40
0.2879236578596481
 40
0.3072824277544277
 40
0.3257992156497894
 40
0.3510149371265054
 40
0.3721734393379858
 40
0.390824548389035
 40
0.4123109349497896
 40
0.4343169951046625
 40
0.4588832999352685
 40
0.483424783027842
 40
0.5067849625207342
 40
0.5289870556227962
 40
0.5455886468656026
 40
0.5614824055035149
 40
0.5766384047862633
 40
0.5917879129070908
 40
0.6095355524932813
 40
0.6331641814481987
 40
0.6604248865151361
 40
0.691497686998754
 40
0.7263172808316133
 40
0.7647673462652003
 40
0.7904946047416374
 40
0.8172058404788658
 40
0.8447068665533294
 40
0.8737946979535093
 40
0.9050315208075631
 40
0.9381137460606718
 40
0.9727394178014951
 40
1.0
 40
1.0
 40
1.0
 40
1.0
 10
103.7220234555605
 20
214.0629170477499
 30
0.0
 10
103.7221265965715
 20
214.0629788246924
 30
0.0
 10
103.7278653058934
 20
214.0589780187663
 30
0.0
 10
103.7968044232752
 20
213.9976854051178
 30
0.0
 10
103.9570967879076
 20
213.8377183119922
 30
0.0
 10
104.1977532952521
 20
213.5742298128155
 30
0.0
 10
104.5643579424266
 20
213.1287203221093
 30
0.0
 10
105.0570697889622
 20
212.4778356268291
 30
0.0
 10
105.6427588534578
 20
211.6435600625578
 30
0.0
 10
106.3524768935709
 20
210.5417152801542
 30
0.0
 10
107.0194156411635
 20
209.3834056568456
 30
0.0
 10
107.6114116632388
 20
208.2460414272781
 30
0.0
 10
108.2124928167746
 20
206.9695858440545
 30
0.0
 10
108.8735789226132
 20
205.3682931774552
 30
0.0
 10
109.5075559276
 20
203.5059050102062
 30
0.0
 10
110.0395591690268
 20
201.5499926588427
 30
0.0
 10
110.5161500983991
 20
199.3795881427723
 30
0.0
 10
110.8881685100995
 20
197.0748939540873
 30
0.0
 10
111.1488018906767
 20
194.7061553962876
 30
0.0
 10
111.3104880414342
 20
192.4415118673996
 30
0.0
 10
111.4032479113141
 20
190.111016716508
 30
0.0
 10
111.4397668702688
 20
187.5441306687915
 30
0.0
 10
111.430188945046
 20
184.8539253391425
 30
0.0
 10
111.3983528607413
 20
182.1092459275102
 30
0.0
 10
111.3762629083628
 20
179.451333176409
 30
0.0
 10
111.381839318973
 20
177.0920665414186
 30
0.0
 10
111.4006301158668
 20
175.0143954228843
 30
0.0
 10
111.4260013019566
 20
173.2031951905115
 30
0.0
 10
111.4575365677182
 20
171.4461635770867
 30
0.0
 10
111.4956157816011
 20
169.6175197681107
 30
0.0
 10
111.5470023230212
 20
167.46631311276
 30
0.0
 10
111.6092593297374
 20
164.8524432166003
 30
0.0
 10
111.7064673110758
 20
161.7341653780906
 30
0.0
 10
111.7255415144224
 20
158.1755885368246
 30
0.0
 10
111.7955088043949
 20
154.1976607066798
 30
0.0
 10
111.8470410085703
 20
150.4206073537214
 30
0.0
 10
111.8810079366058
 20
147.0425008110494
 30
0.0
 10
111.9299559898951
 20
144.1568648960934
 30
0.0
 10
111.9728585052473
 20
141.2399380799923
 30
0.0
 10
112.0202751328307
 20
138.3972607629094
 30
0.0
 10
112.0414516030131
 20
135.6304795900052
 30
0.0
 10
112.045945751321
 20
133.1402778308001
 30
0.0
 10
112.056817462606
 20
130.8301521517411
 30
0.0
 10
112.0640605202098
 20
129.4336227669179
 30
0.0
 10
112.0679691396775
 20
128.7088485556636
 30
0.0
  0
ARC
  5
231
330
1F6
100
AcDbEntity
  8
$DDT_AUDIT_GENERATED_(A9)
  6
Continuous
 62
     7
100
AcDbCircle
 10
66.432275898
 20
128.3468505083
 30
0.0
 40
54.20084932289743
100
AcDbArc
 50
355.6171976057
 51
0.41362405
  0
ARC
  5
232
330
1F6
100
AcDbEntity
  8
$DDT_AUDIT_GENERATED_(A9)
  6
Continuous
 62
     7
100
AcDbCircle
 10
117.2374886557
 20
120.4710473416
 30
0.0
 40
2.690431892823986
100
AcDbArc
 50
284.6168185297
 51
350.5322859862
  0
ARC
  5
233
330
1F6
100
AcDbEntity
  8
$DDT_AUDIT_GENERATED_(A9)
  6
Continuous
 62
     7
100
AcDbCircle
 10
116.3513220304
 20
128.0188049849
 30
0.0
 40
10.27094310253264
100
AcDbArc
 50
269.9902794012
 51
278.9226093487
  0
ARC
  5
234
330
1F6
100
AcDbEntity
  8
$DDT_AUDIT_GENERATED_(A9)
  6
Continuous
 62
     7
100
AcDbCircle
 10
51.0430698931
 20
131.7187847241
 30
0.0
 40
69.83567156755174
100
AcDbArc
 50
350.3784978094
 51
353.8796532535
  0
SPLINE
  5
235
330
1F6
100
AcDbEntity
  8
$DDT_AUDIT_GENERATED_(A9)
  6
Continuous
 62
     7
100
AcDbSpline
210
0.0
220
0.0
230
1.0
 70
     8
 71
     3
 72
    43
 73
    39
 74
     0
 42
0.0000000001024897
 43
0.0000000001
 40
0.0
 40
0.0
 40
0.0
 40
0.0
 40
0.0213891600291918
 40
0.0504178396901372
 40
0.0783171617269163
 40
0.104881603827901
 40
0.1379748298193096
 40
0.1682560025858781
 40
0.1969593925523583
 40
0.2310639381070227
 40
0.2623251967400611
 40
0.290409667990279
 40
0.3152857063000559
 40
0.338874287753994
 40
0.3625834450354756
 40
0.3865646212420285
 40
0.4107785965193582
 40
0.4492879012457127
 40
0.4883602871173215
 40
0.5254953785961949
 40
0.5580730578985736
 40
0.5755946996103745
 40
0.5918285306325753
 40
0.6103545946763599
 40
0.6319988172029656
 40
0.6566514087860087
 40
0.687659119755009
 40
0.7151072731521564
 40
0.7400870121461505
 40
0.7668381728963601
 40
0.7921846114036568
 40
0.8183652925826014
 40
0.8321873875663394
 40
0.8455524745852951
 40
0.8583854009402674
 40
0.8711462758451568
 40
0.8850802958737994
 40
0.8929130364847112
 40
0.8929130364847112
 40
0.8929130364847112
 40
0.8929130364847112
 10
120.6312308945622
 20
128.7103015937161
 30
0.0
 10
120.634301567518
 20
129.2798128480013
 30
0.0
 10
120.6404588547081
 20
130.4143220664397
 30
0.0
 10
120.6487029371421
 20
132.3551665903233
 30
0.0
 10
120.6581298149126
 20
134.3381230792794
 30
0.0
 10
120.6583541209413
 20
136.741776703395
 30
0.0
 10
120.6987157067181
 20
139.4819372083298
 30
0.0
 10
120.7453985480401
 20
142.5859555801588
 30
0.0
 10
120.7994793470462
 20
145.892945812027
 30
0.0
 10
120.8413666597267
 20
149.3599901937417
 30
0.0
 10
120.8882491230673
 20
152.9006288684003
 30
0.0
 10
120.9315218345883
 20
156.1158331439606
 30
0.0
 10
120.9866491968454
 20
159.0294522833006
 30
0.0
 10
120.9947905914297
 20
161.785223672398
 30
0.0
 10
121.0813663325205
 20
164.4936975475331
 30
0.0
 10
121.1458243711342
 20
167.2297529877428
 30
0.0
 10
121.2259858693749
 20
170.5262138925835
 30
0.0
 10
121.2968312924737
 20
174.3950918793903
 30
0.0
 10
121.3324506122414
 20
178.752077897448
 30
0.0
 10
121.2916162651168
 20
182.8768201091322
 30
0.0
 10
121.2582204130042
 20
186.1750880699464
 30
0.0
 10
121.2726651200559
 20
188.6762835635151
 30
0.0
 10
121.3151822505409
 20
190.6433044326805
 30
0.0
 10
121.4060207130958
 20
192.7469253618814
 30
0.0
 10
121.585617715801
 20
195.1350947779439
 30
0.0
 10
121.9257133994431
 20
197.9435360653658
 30
0.0
 10
122.4755715535802
 20
200.8701834435792
 30
0.0
 10
123.2301606485021
 20
203.6888618720224
 30
0.0
 10
124.1425798236219
 20
206.2153449198716
 30
0.0
 10
125.1574118325175
 20
208.4376593678803
 30
0.0
 10
126.2839053567328
 20
210.4664079059797
 30
0.0
 10
127.1940529556722
 20
211.8509232793198
 30
0.0
 10
127.8489403002701
 20
212.757925596644
 30
0.0
 10
128.2729399509401
 20
213.299941553659
 30
0.0
 10
128.59532500986
 20
213.6783312466428
 30
0.0
 10
128.8416371713587
 20
213.9389380674209
 30
0.0
 10
128.9574074740096
 20
214.0474777634268
 30
0.0
 10
128.9793461063372
 20
214.0654267699369
 30
0.0
 10
128.9797346062465
 20
214.0652566868466
 30
0.0
  0
LINE
  5
236
330
1F6
100
AcDbEntity
  8
$DDT_AUDIT_GENERATED_(1A5)
  6
Continuous
 62
     7
100
AcDbLine
 10
201.8496422479
 20
265.7445856251
 30
0.0
 11
180.8496422479
 21
265.7445856251
 31
0.0
  0
LINE
  5
237
330
1F6
100
AcDbEntity
  8
$DDT_AUDIT_GENERATED_(1A5)
  6
Continuous
 62
     7
100
AcDbLine
 10
201.8496422479
 20
265.7445856251
 30
0.0
 11
201.8496422479
 21
266.0445856251
 31
0.0
  0
LINE
  5
238
330
1F6
100
AcDbEntity
  8
$DDT_AUDIT_GENERATED_(1A5)
  6
Continuous
 62
     7
100
AcDbLine
 10
180.8496422479
 20
266.0445856251
 30
0.0
 11
180.8496422479
 21
265.7445856251
 31
0.0
  0
LINE
  5
239
330
1F6
100
AcDbEntity
  8
$DDT_AUDIT_GENERATED_(1AB)
  6
Continuous
 62
     7
100
AcDbLine
 10
210.3996422479
 20
266.0445856251
 30
0.0
 11
172.2996422479
 21
266.0445856251
 31
0.0
  0
LINE
  5
23A
330
1F6
100
AcDbEntity
  8
$DDT_AUDIT_GENERATED_(1AB)
  6
Continuous
 62
     7
100
AcDbLine
 10
210.5996422479
 20
266.2445856251
 30
0.0
 11
210.5996422479
 21
283.0445856251
 31
0.0
  0
LINE
  5
23B
330
1F6
100
AcDbEntity
  8
$DDT_AUDIT_GENERATED_(1AB)
  6
Continuous
 62
     7
100
AcDbLine
 10
172.0996422479
 20
283.0445856251
 30
0.0
 11
172.0996422479
 21
266.2445856251
 31
0.0
  0
ARC
  5
23C
330
1F6
100
AcDbEntity
  8
$DDT_AUDIT_GENERATED_(1AB)
  6
Continuous
 62
     7
100
AcDbCircle
 10
172.2996422479
 20
266.2445856251
 30
0.0
 40
0.1999999999999988
100
AcDbArc
 50
180.0
 51
270.0
  0
ARC
  5
23D
330
1F6
100
AcDbEntity
  8
$DDT_AUDIT_GENERATED_(1AB)
  6
Continuous
 62
     7
100
AcDbCircle
 10
210.3996422479
 20
266.2445856251
 30
0.0
 40
0.1999999999999988
100
AcDbArc
 50
270.0
 51
0.0
  0
LINE
  5
23E
330
1F6
100
AcDbEntity
  8
$DDT_AUDIT_GENERATED_(A7)
  6
Continuous
 62
     7
100
AcDbLine
 10
168.9358474051
 20
283.0445856251
 30
0.0
 11
213.7634370907
 21
283.0445856251
 31
0.0
  0
LINE
  5
23F
330
1F6
100
AcDbEntity
  8
$DDT_AUDIT_GENERATED_(A7)
  6
Continuous
 62
     7
100
AcDbLine
 10
156.9375792285
 20
316.0445856251
 30
0.0
 11
225.7617052673
 21
316.0445856251
 31
0.0
  0
ARC
  5
240
330
1F6
100
AcDbEntity
  8
$DDT_AUDIT_GENERATED_(A7)
  6
Continuous
 62
     7
100
AcDbCircle
 10
353.8002970991
 20
347.875999337
 30
0.0
 40
200.0
100
AcDbArc
 50
189.3266153984
 51
197.6531938422
  0
ARC
  5
241
330
1F6
100
AcDbEntity
  8
$DDT_AUDIT_GENERATED_(A7)
  6
Continuous
 62
     7
100
AcDbCircle
 10
28.8989873967
 20
347.875999337
 30
0.0
 40
200.0000000000001
100
AcDbArc
 50
342.3468061578
 51
350.6733846016
  0
ARC
  5
242
330
1F6
100
AcDbEntity
  8
$DDT_AUDIT_GENERATED_(A7)
  6
Continuous
 62
     7
100
AcDbCircle
 10
225.7617052673
 20
315.5445856251
 30
0.0
 40
0.4999999999999926
100
AcDbArc
 50
350.6733846016
 51
90.0
  0
ARC
  5
243
330
1F6
100
AcDbEntity
  8
$DDT_AUDIT_GENERATED_(A7)
  6
Continuous
 62
     7
100
AcDbCircle
 10
156.9375792285
 20
315.5445856251
 30
0.0
 40
0.5000000000000004
100
AcDbArc
 50
90.0
 51
189.3266153984
  0
ARC
  5
244
330
1F6
100
AcDbEntity
  8
$DDT_AUDIT_GENERATED_(A7)
  6
Continuous
 62
     7
100
AcDbCircle
 10
213.7634370907
 20
289.0445856251
 30
0.0
 40
5.999999999999995
100
AcDbArc
 50
270.0
 51
342.3468061578
  0
ARC
  5
245
330
1F6
100
AcDbEntity
  8
$DDT_AUDIT_GENERATED_(A7)
  6
Continuous
 62
     7
100
AcDbCircle
 10
168.9358474051
 20
289.0445856251
 30
0.0
 40
6.000000000000006
100
AcDbArc
 50
197.6531938422
 51
270.0
  0
LINE
  5
246
330
1F6
100
AcDbEntity
  8
$DDT_AUDIT_GENERATED_(D3)
  6
Continuous
 62
     7
100
AcDbLine
 10
136.3663126259
 20
218.7928023334
 30
0.0
 11
132.537004672
 21
121.9034949076
 31
0.0
  0
ARC
  5
247
330
1F6
100
AcDbEntity
  8
$DDT_AUDIT_GENERATED_(D3)
  6
Continuous
 62
     7
100
AcDbCircle
 10
116.3496422975
 20
122.5432599874
 30
0.0
 40
16.19999999999999
100
AcDbArc
 50
182.263294671
 51
357.736705329
  0
LINE
  5
248
330
1F6
100
AcDbEntity
  8
$DDT_AUDIT_GENERATED_(D3)
  6
Continuous
 62
     7
100
AcDbLine
 10
100.162279923
 20
121.9034949076
 30
0.0
 11
96.3319784257
 21
218.817941007
 31
0.0
  0
ENDBLK
  5
24A
330
1F6
100
AcDbEntity
  8
0
100
AcDbBlockEnd
  0
ENDSEC
  0
SECTION
  2
ENTITIES
  0
INSERT
  5
5F
330
1F
100
AcDbEntity
  8
Default
100
AcDbBlockReference
  2
SEANNOT_GROUP
 10
0.0
 20
0.0
 30
0.0
  0
INSERT
  5
65
330
1F
100
AcDbEntity
  8
Default
100
AcDbBlockReference
  2
SEANNOT_GROUP1
 10
0.0
 20
0.0
 30
0.0
  0
INSERT
  5
6A
330
1F
100
AcDbEntity
  8
Default
100
AcDbBlockReference
  2
SEANNOT_GROUP2
 10
0.0
 20
0.0
 30
0.0
  0
INSERT
  5
6F
330
1F
100
AcDbEntity
  8
Default
100
AcDbBlockReference
  2
SEANNOT_GROUP3
 10
0.0
 20
0.0
 30
0.0
  0
INSERT
  5
74
330
1F
100
AcDbEntity
  8
Default
100
AcDbBlockReference
  2
SE
 10
0.0
 20
0.0
 30
0.0
  0
INSERT
  5
180
330
1F
100
AcDbEntity
  8
Default
100
AcDbBlockReference
  2
SE1
 10
0.0
 20
0.0
 30
0.0
  0
INSERT
  5
1F7
330
1F
100
AcDbEntity
  8
Default
100
AcDbBlockReference
  2
SE2
 10
0.0
 20
0.0
 30
0.0
  0
TEXT
  5
24C
330
1F
100
AcDbEntity
  8
Default
  6
Continuous
 62
     7
100
AcDbText
 10
5.9362635081
 20
53.4225120485
 30
0.0
 40
10.0
  1
Grohe AG^J
  7
SEACAD_seiso_ttf
 11
5.9362635081
 21
63.4225120485
 31
0.0
100
AcDbText
 73
     3
  0
TEXT
  5
24D
330
1F
100
AcDbEntity
  8
Default
  6
Continuous
 62
     7
100
AcDbText
 10
5.9362635081
 20
37.0588756849
 30
0.0
 40
10.0
  1
 
  7
SEACAD_seiso_ttf
 11
5.9362635081
 21
47.0588756849
 31
0.0
100
AcDbText
 73
     3
  0
TEXT
  5
24E
330
1F
100
AcDbEntity
  8
Default
  6
Continuous
 62
     7
100
AcDbText
 10
5.9362635081
 20
20.6952393213
 30
0.0
 40
10.0
  1
ecn: 
  7
SEACAD_seiso_ttf
 11
5.9362635081
 21
30.6952393213
 31
0.0
100
AcDbText
 73
     3
  0
TEXT
  5
24F
330
1F
100
AcDbEntity
  8
Default
  6
Continuous
 62
     7
100
AcDbText
 10
5.9362635081
 20
4.3316029576
 30
0.0
 40
10.0
  1
unit: mm
  7
SEACAD_seiso_ttf
 11
5.9362635081
 21
14.3316029576
 31
0.0
100
AcDbText
 73
     3
  0
LINE
  5
250
330
1F
100
AcDbEntity
  8
Default
  6
Continuous
 62
     7
100
AcDbLine
 10
0.0
 20
0.0
 30
0.0
 11
100.0
 21
0.0
 31
0.0
  0
LINE
  5
251
330
1F
100
AcDbEntity
  8
Default
  6
Continuous
 62
     7
100
AcDbLine
 10
0.0
 20
0.0
 30
0.0
 11
0.0
 21
100.0
 31
0.0
  0
TEXT
  5
252
330
1F
100
AcDbEntity
  8
Default
  6
Continuous
 62
     7
100
AcDbText
 10
24.3923665681
 20
-18.2375342018
 30
0.0
 40
10.0
  1
100 mm
  7
SEACAD_seiso_ttf
 11
24.3923665681
 21
-8.2375342018
 31
0.0
100
AcDbText
 73
     3
  0
TEXT
  5
253
330
1F
100
AcDbEntity
  8
Default
  6
Continuous
 62
     7
100
AcDbText
 10
-7.6150308803
 20
24.6231930421
 30
0.0
 40
10.0
  1
100 mm
 50
90.0
  7
SEACAD_seiso_ttf
 11
-17.6150308803
 21
24.6231930421
 31
0.0
100
AcDbText
 73
     3
  0
TEXT
  5
254
330
1F
100
AcDbEntity
  8
Default
  6
Continuous
 62
     7
100
AcDbText
 10
28.4878128572
 20
20.0907663715
 30
0.0
 40
10.0
  1
223895
  7
SEACAD_seiso_ttf
 11
28.4878128572
 21
30.0907663715
 31
0.0
100
AcDbText
 73
     3
  0
TEXT
  5
255
330
1F
100
AcDbEntity
  8
Default
  6
Continuous
 62
     7
100
AcDbText
 10
5.9012241913
 20
36.7242780188
 30
0.0
 40
10.0
  1
32792000
  7
SEACAD_seiso_ttf
 11
5.9012241913
 21
46.7242780188
 31
0.0
100
AcDbText
 73
     3
  0
ENDSEC
  0
SECTION
  2
OBJECTS
  0
DICTIONARY
  5
C
330
0
100
AcDbDictionary
281
     1
  3
ACAD_GROUP
350
D
  3
ACAD_LAYOUT
350
1A
  3
ACAD_MLEADERSTYLE
350
259
  3
ACAD_MLINESTYLE
350
17
  3
ACAD_PLOTSETTINGS
350
19
  3
ACAD_PLOTSTYLENAME
350
E
  3
ACAD_SCALELIST
350
3B
  3
ACAD_TABLESTYLE
350
258
  3
ACAD_VISUALSTYLE
350
2A
  3
AcDbVariableDictionary
350
256
  0
DICTIONARY
  5
D
102
{ACAD_REACTORS
330
C
102
}
330
C
100
AcDbDictionary
281
     1
  0
DICTIONARY
  5
1A
102
{ACAD_REACTORS
330
C
102
}
330
C
100
AcDbDictionary
281
     1
  3
Layout1
350
1E
  3
Model
350
22
  0
DICTIONARY
  5
259
102
{ACAD_REACTORS
330
C
102
}
330
C
100
AcDbDictionary
281
     1
  0
DICTIONARY
  5
17
102
{ACAD_REACTORS
330
C
102
}
330
C
100
AcDbDictionary
281
     1
  3
Standard
350
18
  0
DICTIONARY
  5
19
102
{ACAD_REACTORS
330
C
102
}
330
C
100
AcDbDictionary
281
     1
  0
ACDBDICTIONARYWDFLT
  5
E
102
{ACAD_REACTORS
330
C
102
}
330
C
100
AcDbDictionary
281
     1
  3
Normal
350
F
100
AcDbDictionaryWithDefault
340
F
  0
DICTIONARY
  5
3B
102
{ACAD_REACTORS
330
C
102
}
330
C
100
AcDbDictionary
281
     1
  3
A0
350
3C
  3
A1
350
3D
  3
A2
350
3E
  3
A3
350
3F
  3
A4
350
40
  3
A5
350
41
  3
A6
350
42
  3
A7
350
43
  3
A8
350
44
  3
A9
350
45
  3
B0
350
46
  3
B1
350
47
  3
B2
350
48
  3
B3
350
49
  3
B4
350
4A
  3
B5
350
4B
  3
B6
350
4C
  3
B7
350
4D
  3
B8
350
4E
  3
B9
350
4F
  3
C0
350
50
  3
C1
350
51
  3
C2
350
52
  3
C3
350
53
  3
C4
350
54
  3
C5
350
55
  3
C6
350
56
  3
C7
350
57
  3
C8
350
58
  3
C9
350
59
  3
D0
350
5A
  3
D1
350
5B
  3
D2
350
5C
  0
DICTIONARY
  5
258
102
{ACAD_REACTORS
330
C
102
}
330
C
100
AcDbDictionary
281
     1
  0
DICTIONARY
  5
2A
102
{ACAD_REACTORS
330
C
102
}
330
C
100
AcDbDictionary
281
     1
  3
2dWireframe
350
2F
  3
3D Hidden
350
31
  3
3dWireframe
350
30
  3
Basic
350
32
  3
Brighten
350
36
  3
ColorChange
350
3A
  3
Conceptual
350
34
  3
Dim
350
35
  3
Facepattern
350
39
  3
Flat
350
2B
  3
FlatWithEdges
350
2C
  3
Gouraud
350
2D
  3
GouraudWithEdges
350
2E
  3
Linepattern
350
38
  3
Realistic
350
33
  3
Thicken
350
37
  0
DICTIONARY
  5
256
102
{ACAD_REACTORS
330
C
102
}
330
C
100
AcDbDictionary
281
     1
  3
CANNOSCALE
350
257
  3
PSOLHEIGHT
350
25B
  3
PSOLWIDTH
350
25A
  0
LAYOUT
  5
1E
102
{ACAD_REACTORS
330
1A
102
}
330
1A
100
AcDbPlotSettings
  1

  2
none_device
  4

  6

 40
0.0
 41
0.0
 42
0.0
 43
0.0
 44
0.0
 45
0.0
 46
0.0
 47
0.0
 48
0.0
 49
0.0
140
0.0
141
0.0
142
1.0
143
1.0
 70
   688
 72
     0
 73
     0
 74
     5
  7

 75
    16
147
1.0
148
0.0
149
0.0
100
AcDbLayout
  1
Layout1
 70
     1
 71
     1
 10
0.0
 20
0.0
 11
1682.0
 21
2378.0
 12
0.0
 22
0.0
 32
0.0
 14
0.0
 24
0.0
 34
0.0
 15
1682.0
 25
2378.0
 35
0.0
146
0.0
 13
0.0
 23
0.0
 33
0.0
 16
1.0
 26
0.0
 36
0.0
 17
0.0
 27
1.0
 37
0.0
 76
     0
330
1B
  0
LAYOUT
  5
22
102
{ACAD_REACTORS
330
1A
102
}
330
1A
100
AcDbPlotSettings
  1

  2
none_device
  4

  6

 40
0.0
 41
0.0
 42
0.0
 43
0.0
 44
0.0
 45
0.0
 46
0.0
 47
0.0
 48
0.0
 49
0.0
140
0.0
141
0.0
142
1.0
143
1.0
 70
  1712
 72
     0
 73
     0
 74
     0
  7

 75
     0
147
1.0
148
0.0
149
0.0
100
AcDbLayout
  1
Model
 70
     1
 71
     0
 10
0.0
 20
0.0
 11
1682.0
 21
2378.0
 12
0.0
 22
0.0
 32
0.0
 14
0.0
 24
0.0
 34
0.0
 15
1682.0
 25
2378.0
 35
0.0
146
0.0
 13
0.0
 23
0.0
 33
0.0
 16
1.0
 26
0.0
 36
0.0
 17
0.0
 27
1.0
 37
0.0
 76
     0
330
1F
331
29
  0
MLINESTYLE
  5
18
102
{ACAD_REACTORS
330
17
102
}
330
17
100
AcDbMlineStyle
  2
Standard
 70
     0
  3

 62
   256
 51
90.0
 52
90.0
 71
     2
 49
0.5
 62
   256
  6
BYLAYER
 49
-0.5
 62
   256
  6
BYLAYER
  0
ACDBPLACEHOLDER
  5
F
102
{ACAD_REACTORS
330
E
102
}
330
E
  0
SCALE
  5
3C
102
{ACAD_REACTORS
330
3B
102
}
330
3B
100
AcDbScale
 70
     0
300
1:1
140
1.0
141
1.0
290
     1
  0
SCALE
  5
3D
102
{ACAD_REACTORS
330
3B
102
}
330
3B
100
AcDbScale
 70
     0
300
1:2
140
1.0
141
2.0
290
     0
  0
SCALE
  5
3E
102
{ACAD_REACTORS
330
3B
102
}
330
3B
100
AcDbScale
 70
     0
300
1:4
140
1.0
141
4.0
290
     0
  0
SCALE
  5
3F
102
{ACAD_REACTORS
330
3B
102
}
330
3B
100
AcDbScale
 70
     0
300
1:5
140
1.0
141
5.0
290
     0
  0
SCALE
  5
40
102
{ACAD_REACTORS
330
3B
102
}
330
3B
100
AcDbScale
 70
     0
300
1:8
140
1.0
141
8.0
290
     0
  0
SCALE
  5
41
102
{ACAD_REACTORS
330
3B
102
}
330
3B
100
AcDbScale
 70
     0
300
1:10
140
1.0
141
10.0
290
     0
  0
SCALE
  5
42
102
{ACAD_REACTORS
330
3B
102
}
330
3B
100
AcDbScale
 70
     0
300
1:16
140
1.0
141
16.0
290
     0
  0
SCALE
  5
43
102
{ACAD_REACTORS
330
3B
102
}
330
3B
100
AcDbScale
 70
     0
300
1:20
140
1.0
141
20.0
290
     0
  0
SCALE
  5
44
102
{ACAD_REACTORS
330
3B
102
}
330
3B
100
AcDbScale
 70
     0
300
1:30
140
1.0
141
30.0
290
     0
  0
SCALE
  5
45
102
{ACAD_REACTORS
330
3B
102
}
330
3B
100
AcDbScale
 70
     0
300
1:40
140
1.0
141
40.0
290
     0
  0
SCALE
  5
46
102
{ACAD_REACTORS
330
3B
102
}
330
3B
100
AcDbScale
 70
     0
300
1:50
140
1.0
141
50.0
290
     0
  0
SCALE
  5
47
102
{ACAD_REACTORS
330
3B
102
}
330
3B
100
AcDbScale
 70
     0
300
1:100
140
1.0
141
100.0
290
     0
  0
SCALE
  5
48
102
{ACAD_REACTORS
330
3B
102
}
330
3B
100
AcDbScale
 70
     0
300
2:1
140
2.0
141
1.0
290
     0
  0
SCALE
  5
49
102
{ACAD_REACTORS
330
3B
102
}
330
3B
100
AcDbScale
 70
     0
300
4:1
140
4.0
141
1.0
290
     0
  0
SCALE
  5
4A
102
{ACAD_REACTORS
330
3B
102
}
330
3B
100
AcDbScale
 70
     0
300
8:1
140
8.0
141
1.0
290
     0
  0
SCALE
  5
4B
102
{ACAD_REACTORS
330
3B
102
}
330
3B
100
AcDbScale
 70
     0
300
10:1
140
10.0
141
1.0
290
     0
  0
SCALE
  5
4C
102
{ACAD_REACTORS
330
3B
102
}
330
3B
100
AcDbScale
 70
     0
300
100:1
140
100.0
141
1.0
290
     0
  0
SCALE
  5
4D
102
{ACAD_REACTORS
330
3B
102
}
330
3B
100
AcDbScale
 70
     0
300
1/128" = 1'-0"
140
0.0078125
141
12.0
290
     0
  0
SCALE
  5
4E
102
{ACAD_REACTORS
330
3B
102
}
330
3B
100
AcDbScale
 70
     0
300
1/64" = 1'-0"
140
0.015625
141
12.0
290
     0
  0
SCALE
  5
4F
102
{ACAD_REACTORS
330
3B
102
}
330
3B
100
AcDbScale
 70
     0
300
1/32" = 1'-0"
140
0.03125
141
12.0
290
     0
  0
SCALE
  5
50
102
{ACAD_REACTORS
330
3B
102
}
330
3B
100
AcDbScale
 70
     0
300
1/16" = 1'-0"
140
0.0625
141
12.0
290
     0
  0
SCALE
  5
51
102
{ACAD_REACTORS
330
3B
102
}
330
3B
100
AcDbScale
 70
     0
300
3/32" = 1'-0"
140
0.09375
141
12.0
290
     0
  0
SCALE
  5
52
102
{ACAD_REACTORS
330
3B
102
}
330
3B
100
AcDbScale
 70
     0
300
1/8" = 1'-0"
140
0.125
141
12.0
290
     0
  0
SCALE
  5
53
102
{ACAD_REACTORS
330
3B
102
}
330
3B
100
AcDbScale
 70
     0
300
3/16" = 1'-0"
140
0.1875
141
12.0
290
     0
  0
SCALE
  5
54
102
{ACAD_REACTORS
330
3B
102
}
330
3B
100
AcDbScale
 70
     0
300
1/4" = 1'-0"
140
0.25
141
12.0
290
     0
  0
SCALE
  5
55
102
{ACAD_REACTORS
330
3B
102
}
330
3B
100
AcDbScale
 70
     0
300
3/8" = 1'-0"
140
0.375
141
12.0
290
     0
  0
SCALE
  5
56
102
{ACAD_REACTORS
330
3B
102
}
330
3B
100
AcDbScale
 70
     0
300
1/2" = 1'-0"
140
0.5
141
12.0
290
     0
  0
SCALE
  5
57
102
{ACAD_REACTORS
330
3B
102
}
330
3B
100
AcDbScale
 70
     0
300
3/4" = 1'-0"
140
0.75
141
12.0
290
     0
  0
SCALE
  5
58
102
{ACAD_REACTORS
330
3B
102
}
330
3B
100
AcDbScale
 70
     0
300
1" = 1'-0"
140
1.0
141
12.0
290
     0
  0
SCALE
  5
59
102
{ACAD_REACTORS
330
3B
102
}
330
3B
100
AcDbScale
 70
     0
300
1-1/2" = 1'-0"
140
1.5
141
12.0
290
     0
  0
SCALE
  5
5A
102
{ACAD_REACTORS
330
3B
102
}
330
3B
100
AcDbScale
 70
     0
300
3" = 1'-0"
140
3.0
141
12.0
290
     0
  0
SCALE
  5
5B
102
{ACAD_REACTORS
330
3B
102
}
330
3B
100
AcDbScale
 70
     0
300
6" = 1'-0"
140
6.0
141
12.0
290
     0
  0
SCALE
  5
5C
102
{ACAD_REACTORS
330
3B
102
}
330
3B
100
AcDbScale
 70
     0
300
1'-0" = 1'-0"
140
12.0
141
12.0
290
     0
  0
VISUALSTYLE
  5
2F
102
{ACAD_REACTORS
330
2A
102
}
330
2A
100
AcDbVisualStyle
  2
2dWireframe
 70
     4
 71
     0
 72
     2
 73
     0
 90
        0
 40
-0.6
 41
-30.0
 62
     5
 63
     7
 74
     1
 91
        4
 64
     7
 65
   257
 75
     1
175
     1
 42
1.0
 92
        0
 66
   257
 43
1.0
 76
     1
 77
     6
 78
     2
 67
     7
 79
     5
170
     0
171
     0
290
     0
174
     0
 93
        1
 44
0.0
173
     0
291
     0
 45
0.0
1001
ACAD
1000
AcDbSavedByObjectVersion
1070
     0
  0
VISUALSTYLE
  5
31
102
{ACAD_REACTORS
330
2A
102
}
330
2A
100
AcDbVisualStyle
  2
3D Hidden
 70
     6
 71
     1
 72
     2
 73
     2
 90
        0
 40
-0.6
 41
-30.0
 62
     5
 63
     7
 74
     2
 91
        2
 64
     7
 65
   257
 75
     2
175
     1
 42
40.0
 92
        0
 66
   257
 43
1.0
 76
     1
 77
     6
 78
     2
 67
     7
 79
     3
170
     0
171
     0
290
     0
174
     0
 93
        1
 44
0.0
173
     0
291
     0
 45
0.0
1001
ACAD
1000
AcDbSavedByObjectVersion
1070
     0
  0
VISUALSTYLE
  5
30
102
{ACAD_REACTORS
330
2A
102
}
330
2A
100
AcDbVisualStyle
  2
3dWireframe
 70
     5
 71
     0
 72
     2
 73
     0
 90
        0
 40
-0.6
 41
-30.0
 62
     5
 63
     7
 74
     1
 91
        4
 64
     7
 65
   257
 75
     1
175
     1
 42
1.0
 92
        0
 66
   257
 43
1.0
 76
     1
 77
     6
 78
     2
 67
     7
 79
     5
170
     0
171
     0
290
     0
174
     0
 93
        1
 44
0.0
173
     0
291
     0
 45
0.0
1001
ACAD
1000
AcDbSavedByObjectVersion
1070
     0
  0
VISUALSTYLE
  5
32
102
{ACAD_REACTORS
330
2A
102
}
330
2A
100
AcDbVisualStyle
  2
Basic
 70
     7
 71
     1
 72
     0
 73
     1
 90
        0
 40
-0.6
 41
-30.0
 62
     5
 63
     7
 74
     0
 91
        4
 64
     7
 65
   257
 75
     1
175
     1
 42
1.0
 92
        8
 66
     7
 43
1.0
 76
     1
 77
     6
 78
     2
 67
     7
 79
     5
170
     0
171
     0
290
     0
174
     0
 93
        1
 44
0.0
173
     0
291
     1
 45
0.0
1001
ACAD
1000
AcDbSavedByObjectVersion
1070
     0
  0
VISUALSTYLE
  5
36
102
{ACAD_REACTORS
330
2A
102
}
330
2A
100
AcDbVisualStyle
  2
Brighten
 70
    12
 71
     2
 72
     2
 73
     0
 90
        0
 40
-0.6
 41
-30.0
 62
     5
 63
     7
 74
     1
 91
        4
 64
     7
 65
   257
 75
     1
175
     1
 42
1.0
 92
        8
 66
     7
 43
1.0
 76
     1
 77
     6
 78
     2
 67
     7
 79
     5
170
     0
171
     0
290
     0
174
     0
 93
        1
 44
50.0
173
     0
291
     1
 45
0.0
1001
ACAD
1000
AcDbSavedByObjectVersion
1070
     0
  0
VISUALSTYLE
  5
3A
102
{ACAD_REACTORS
330
2A
102
}
330
2A
100
AcDbVisualStyle
  2
ColorChange
 70
    16
 71
     2
 72
     2
 73
     3
 90
        0
 40
-0.6
 41
-30.0
 62
     5
 63
     8
 74
     1
 91
        4
 64
     7
 65
   257
 75
     1
175
     1
 42
1.0
 92
        8
 66
     8
 43
1.0
 76
     1
 77
     6
 78
     2
 67
     7
 79
     5
170
     0
171
     0
290
     0
174
     0
 93
        1
 44
0.0
173
     0
291
     1
 45
0.0
1001
ACAD
1000
AcDbSavedByObjectVersion
1070
     0
  0
VISUALSTYLE
  5
34
102
{ACAD_REACTORS
330
2A
102
}
330
2A
100
AcDbVisualStyle
  2
Conceptual
 70
     9
 71
     3
 72
     2
 73
     0
 90
        0
 40
-0.6
 41
-30.0
 62
     5
 63
     7
 74
     2
 91
        2
 64
     7
 65
   257
 75
     1
175
     1
 42
40.0
 92
        8
 66
     7
 43
1.0
 76
     1
 77
     6
 78
     2
 67
     7
 79
     3
170
     0
171
     0
290
     0
174
     0
 93
        1
 44
0.0
173
     0
291
     0
 45
0.0
1001
ACAD
1000
AcDbSavedByObjectVersion
1070
     0
  0
VISUALSTYLE
  5
35
102
{ACAD_REACTORS
330
2A
102
}
330
2A
100
AcDbVisualStyle
  2
Dim
 70
    11
 71
     2
 72
     2
 73
     0
 90
        0
 40
-0.6
 41
-30.0
 62
     5
 63
     7
 74
     1
 91
        4
 64
     7
 65
   257
 75
     1
175
     1
 42
1.0
 92
        8
 66
     7
 43
1.0
 76
     1
 77
     6
 78
     2
 67
     7
 79
     5
170
     0
171
     0
290
     0
174
     0
 93
        1
 44
-50.0
173
     0
291
     1
 45
0.0
1001
ACAD
1000
AcDbSavedByObjectVersion
1070
     0
  0
VISUALSTYLE
  5
39
102
{ACAD_REACTORS
330
2A
102
}
330
2A
100
AcDbVisualStyle
  2
Facepattern
 70
    15
 71
     2
 72
     2
 73
     0
 90
        0
 40
-0.6
 41
-30.0
 62
     5
 63
     7
 74
     1
 91
        4
 64
     7
 65
   257
 75
     1
175
     1
 42
1.0
 92
        8
 66
     7
 43
1.0
 76
     1
 77
     6
 78
     2
 67
     7
 79
     5
170
     0
171
     0
290
     0
174
     0
 93
        1
 44
0.0
173
     0
291
     1
 45
0.0
1001
ACAD
1000
AcDbSavedByObjectVersion
1070
     0
  0
VISUALSTYLE
  5
2B
102
{ACAD_REACTORS
330
2A
102
}
330
2A
100
AcDbVisualStyle
  2
Flat
 70
     0
 71
     2
 72
     1
 73
     1
 90
        2
 40
-0.6
 41
30.0
 62
     5
 63
     7
 74
     0
 91
        4
 64
     7
 65
   257
 75
     1
175
     1
 42
1.0
 92
        8
 66
     7
 43
1.0
 76
     1
 77
     6
 78
     2
 67
     7
 79
     5
170
     0
171
     0
290
     0
174
     0
 93
       13
 44
0.0
173
     0
291
     1
 45
0.0
1001
ACAD
1000
AcDbSavedByObjectVersion
1070
     0
  0
VISUALSTYLE
  5
2C
102
{ACAD_REACTORS
330
2A
102
}
330
2A
100
AcDbVisualStyle
  2
FlatWithEdges
 70
     1
 71
     2
 72
     1
 73
     1
 90
        2
 40
-0.6
 41
30.0
 62
     5
 63
     7
 74
     1
 91
        4
 64
     7
 65
   257
 75
     1
175
     1
 42
1.0
 92
        0
 66
   257
 43
1.0
 76
     1
 77
     6
 78
     2
 67
     7
 79
     5
170
     0
171
     0
290
     0
174
     0
 93
       13
 44
0.0
173
     0
291
     1
 45
0.0
1001
ACAD
1000
AcDbSavedByObjectVersion
1070
     0
  0
VISUALSTYLE
  5
2D
102
{ACAD_REACTORS
330
2A
102
}
330
2A
100
AcDbVisualStyle
  2
Gouraud
 70
     2
 71
     2
 72
     2
 73
     1
 90
        2
 40
-0.6
 41
30.0
 62
     5
 63
     7
 74
     0
 91
        4
 64
     7
 65
   257
 75
     1
175
     1
 42
1.0
 92
        0
 66
     7
 43
1.0
 76
     1
 77
     6
 78
     2
 67
     7
 79
     5
170
     0
171
     0
290
     0
174
     0
 93
       13
 44
0.0
173
     0
291
     1
 45
0.0
1001
ACAD
1000
AcDbSavedByObjectVersion
1070
     0
  0
VISUALSTYLE
  5
2E
102
{ACAD_REACTORS
330
2A
102
}
330
2A
100
AcDbVisualStyle
  2
GouraudWithEdges
 70
     3
 71
     2
 72
     2
 73
     1
 90
        2
 40
-0.6
 41
30.0
 62
     5
 63
     7
 74
     1
 91
        4
 64
     7
 65
   257
 75
     1
175
     1
 42
1.0
 92
        0
 66
   257
 43
1.0
 76
     1
 77
     6
 78
     2
 67
     7
 79
     5
170
     0
171
     0
290
     0
174
     0
 93
       13
 44
0.0
173
     0
291
     1
 45
0.0
1001
ACAD
1000
AcDbSavedByObjectVersion
1070
     0
  0
VISUALSTYLE
  5
38
102
{ACAD_REACTORS
330
2A
102
}
330
2A
100
AcDbVisualStyle
  2
Linepattern
 70
    14
 71
     2
 72
     2
 73
     0
 90
        0
 40
-0.6
 41
-30.0
 62
     5
 63
     7
 74
     1
 91
        4
 64
     7
 65
   257
 75
     7
175
     7
 42
1.0
 92
        8
 66
     7
 43
1.0
 76
     1
 77
     6
 78
     2
 67
     7
 79
     5
170
     0
171
     0
290
     0
174
     0
 93
        1
 44
0.0
173
     0
291
     1
 45
0.0
1001
ACAD
1000
AcDbSavedByObjectVersion
1070
     0
  0
VISUALSTYLE
  5
33
102
{ACAD_REACTORS
330
2A
102
}
330
2A
100
AcDbVisualStyle
  2
Realistic
 70
     8
 71
     2
 72
     2
 73
     0
 90
        0
 40
-0.6
 41
-30.0
 62
     5
 63
     7
 74
     1
 91
        0
 64
     7
 65
   257
 75
     1
175
     1
 42
1.0
 92
        8
 66
     8
 43
1.0
 76
     1
 77
     6
 78
     2
 67
     7
 79
     5
170
     0
171
     0
290
     0
174
     0
 93
       13
 44
0.0
173
     0
291
     0
 45
0.0
1001
ACAD
1000
AcDbSavedByObjectVersion
1070
     0
  0
VISUALSTYLE
  5
37
102
{ACAD_REACTORS
330
2A
102
}
330
2A
100
AcDbVisualStyle
  2
Thicken
 70
    13
 71
     2
 72
     2
 73
     0
 90
        0
 40
-0.6
 41
-30.0
 62
     5
 63
     7
 74
     1
 91
        4
 64
     7
 65
   257
 75
     1
175
     1
 42
1.0
 92
       12
 66
     7
 43
1.0
 76
     1
 77
     6
 78
     2
 67
     7
 79
     5
170
     0
171
     0
290
     0
174
     0
 93
        1
 44
0.0
173
     0
291
     1
 45
0.0
1001
ACAD
1000
AcDbSavedByObjectVersion
1070
     0
  0
DICTIONARYVAR
  5
257
102
{ACAD_REACTORS
330
256
102
}
330
256
100
DictionaryVariables
280
     0
  1
1:1
  0
DICTIONARYVAR
  5
25B
102
{ACAD_REACTORS
330
256
102
}
330
256
100
DictionaryVariables
280
     0
  1
80.000000
  0
DICTIONARYVAR
  5
25A
102
{ACAD_REACTORS
330
256
102
}
330
256
100
DictionaryVariables
280
     0
  1
5.000000
  0
ENDSEC
  0
EOF
