  0
SECTION
  2
HEADER
  9
$ACADVER
  1
AC1009
  9
$DWGCODEPAGE
  3
ansi_1252
  9
$INSBASE
 10
0.0
 20
0.0
 30
0.0
  9
$EXTMIN
 10
1.000000000000000E+20
 20
1.000000000000000E+20
 30
1.000000000000000E+20
  9
$EXTMAX
 10
-1.000000000000000E+20
 20
-1.000000000000000E+20
 30
-1.000000000000000E+20
  9
$LIMMIN
 10
0.0
 20
0.0
  9
$LIMMAX
 10
12.0
 20
9.0
  9
$ORTHOMODE
 70
     0
  9
$REGENMODE
 70
     1
  9
$FILLMODE
 70
     1
  9
$QTEXTMODE
 70
     0
  9
$MIRRTEXT
 70
     1
  9
$DRAGMODE
 70
     2
  9
$LTSCALE
 40
1.0
  9
$OSMODE
 70
    37
  9
$ATTMODE
 70
     1
  9
$TEXTSIZE
 40
0.2
  9
$TRACEWID
 40
0.05
  9
$TEXTSTYLE
  7
STANDARD
  9
$CLAYER
  8
0
  9
$CELTYPE
  6
BYLAYER
  9
$CECOLOR
 62
   256
  9
$DIMSCALE
 40
1.0
  9
$DIMASZ
 40
0.18
  9
$DIMEXO
 40
0.0625
  9
$DIMDLI
 40
0.38
  9
$DIMRND
 40
0.0
  9
$DIMDLE
 40
0.0
  9
$DIMEXE
 40
0.18
  9
$DIMTP
 40
0.0
  9
$DIMTM
 40
0.0
  9
$DIMTXT
 40
0.18
  9
$DIMCEN
 40
0.09
  9
$DIMTSZ
 40
0.0
  9
$DIMTOL
 70
     0
  9
$DIMLIM
 70
     0
  9
$DIMTIH
 70
     1
  9
$DIMTOH
 70
     1
  9
$DIMSE1
 70
     0
  9
$DIMSE2
 70
     0
  9
$DIMTAD
 70
     0
  9
$DIMZIN
 70
     0
  9
$DIMBLK
  1

  9
$DIMASO
 70
     1
  9
$DIMSHO
 70
     1
  9
$DIMPOST
  1

  9
$DIMAPOST
  1

  9
$DIMALT
 70
     0
  9
$DIMALTD
 70
     2
  9
$DIMALTF
 40
25.4
  9
$DIMLFAC
 40
1.0
  9
$DIMTOFL
 70
     0
  9
$DIMTVP
 40
0.0
  9
$DIMTIX
 70
     0
  9
$DIMSOXD
 70
     0
  9
$DIMSAH
 70
     0
  9
$DIMBLK1
  1

  9
$DIMBLK2
  1

  9
$DIMSTYLE
  2
STANDARD
  9
$DIMCLRD
 70
     0
  9
$DIMCLRE
 70
     0
  9
$DIMCLRT
 70
     0
  9
$DIMTFAC
 40
1.0
  9
$DIMGAP
 40
0.09
  9
$LUNITS
 70
     2
  9
$LUPREC
 70
     4
  9
$SKETCHINC
 40
0.1
  9
$FILLETRAD
 40
0.5
  9
$AUNITS
 70
     0
  9
$AUPREC
 70
     0
  9
$MENU
  1
.
  9
$ELEVATION
 40
0.0
  9
$PELEVATION
 40
0.0
  9
$THICKNESS
 40
0.0
  9
$LIMCHECK
 70
     0
  9
$CHAMFERA
 40
0.5
  9
$CHAMFERB
 40
0.5
  9
$SKPOLY
 70
     0
  9
$TDCREATE
 40
2455961.551057141
  9
$TDUPDATE
 40
2455961.551057141
  9
$TDINDWG
 40
0.0000000116
  9
$TDUSRTIMER
 40
0.0000000116
  9
$USRTIMER
 70
     1
  9
$ANGBASE
 50
0.0
  9
$ANGDIR
 70
     0
  9
$PDMODE
 70
     0
  9
$PDSIZE
 40
0.0
  9
$PLINEWID
 40
0.0
  9
$COORDS
 70
     1
  9
$SPLFRAME
 70
     0
  9
$SPLINETYPE
 70
     6
  9
$SPLINESEGS
 70
     8
  9
$ATTDIA
 70
     0
  9
$ATTREQ
 70
     1
  9
$HANDLING
 70
     1
  9
$HANDSEED
  5
33D
  9
$SURFTAB1
 70
     6
  9
$SURFTAB2
 70
     6
  9
$SURFTYPE
 70
     6
  9
$SURFU
 70
     6
  9
$SURFV
 70
     6
  9
$UCSNAME
  2

  9
$UCSORG
 10
0.0
 20
0.0
 30
0.0
  9
$UCSXDIR
 10
1.0
 20
0.0
 30
0.0
  9
$UCSYDIR
 10
0.0
 20
1.0
 30
0.0
  9
$PUCSNAME
  2

  9
$PUCSORG
 10
0.0
 20
0.0
 30
0.0
  9
$PUCSXDIR
 10
1.0
 20
0.0
 30
0.0
  9
$PUCSYDIR
 10
0.0
 20
1.0
 30
0.0
  9
$USERI1
 70
     0
  9
$USERI2
 70
     0
  9
$USERI3
 70
     0
  9
$USERI4
 70
     0
  9
$USERI5
 70
     0
  9
$USERR1
 40
0.0
  9
$USERR2
 40
0.0
  9
$USERR3
 40
0.0
  9
$USERR4
 40
0.0
  9
$USERR5
 40
0.0
  9
$WORLDVIEW
 70
     1
  9
$SHADEDGE
 70
     3
  9
$SHADEDIF
 70
    70
  9
$TILEMODE
 70
     1
  9
$MAXACTVP
 70
    64
  9
$PLIMCHECK
 70
     0
  9
$PEXTMIN
 10
1.000000000000000E+20
 20
1.000000000000000E+20
 30
1.000000000000000E+20
  9
$PEXTMAX
 10
-1.000000000000000E+20
 20
-1.000000000000000E+20
 30
-1.000000000000000E+20
  9
$PLIMMIN
 10
0.0
 20
0.0
  9
$PLIMMAX
 10
12.0
 20
9.0
  9
$UNITMODE
 70
     0
  9
$VISRETAIN
 70
     1
  9
$PLINEGEN
 70
     0
  9
$PSLTSCALE
 70
     1
  0
ENDSEC
  0
SECTION
  2
TABLES
  0
TABLE
  2
VPORT
 70
     1
  0
VPORT
  2
*ACTIVE
 70
     0
 10
0.0
 20
0.0
 11
1.0
 21
1.0
 12
0.0
 22
0.0
 13
0.0
 23
0.0
 14
0.5
 24
0.5
 15
0.5
 25
0.5
 16
-0.5381522178649902
 26
0.3768182694911957
 36
0.3792975246906281
 17
-0.0189999938011169
 27
0.0
 37
0.0
 40
0.2754522741828641
 41
1.972972972850329
 42
50.0
 43
0.0
 44
0.0
 50
0.0
 51
0.0
 71
     0
 72
   100
 73
     1
 74
     3
 75
     0
 76
     0
 77
     0
 78
     0
  0
ENDTAB
  0
TABLE
  2
LTYPE
 70
     1
  0
LTYPE
  2
CONTINUOUS
 70
     0
  3
Solid line
 72
    65
 73
     0
 40
0.0
  0
ENDTAB
  0
TABLE
  2
LAYER
 70
     2
  0
LAYER
  2
0
 70
     0
 62
     7
  6
CONTINUOUS
  0
LAYER
  2
LAYER_1
 70
     0
 62
     7
  6
CONTINUOUS
  0
ENDTAB
  0
TABLE
  2
STYLE
 70
     1
  0
STYLE
  2
STANDARD
 70
     0
 40
0.0
 41
1.0
 50
0.0
 71
     0
 42
0.2
  3
txt
  4

  0
ENDTAB
  0
TABLE
  2
VIEW
 70
     0
  0
ENDTAB
  0
TABLE
  2
UCS
 70
     0
  0
ENDTAB
  0
TABLE
  2
APPID
 70
     1
  0
APPID
  2
ACAD
 70
     0
  0
ENDTAB
  0
TABLE
  2
DIMSTYLE
 70
     1
  0
DIMSTYLE
  2
STANDARD
 70
     0
  3

  4

  5

  6

  7

 40
1.0
 41
0.18
 42
0.0625
 43
0.38
 44
0.18
 45
0.0
 46
0.0
 47
0.0
 48
0.0
140
0.18
141
0.09
142
0.0
143
25.4
144
1.0
145
0.0
146
1.0
147
0.09
 71
     0
 72
     0
 73
     1
 74
     1
 75
     0
 76
     0
 77
     0
 78
     0
170
     0
171
     2
172
     0
173
     0
174
     0
175
     0
176
     0
177
     0
178
     0
  0
ENDTAB
  0
ENDSEC
  0
SECTION
  2
BLOCKS
  0
BLOCK
  8
0
  2
$MODEL_SPACE
 70
     0
 10
0.0
 20
0.0
 30
0.0
  3
$MODEL_SPACE
  1

  0
ENDBLK
  5
21
  8
0
  0
BLOCK
 67
     1
  8
0
  2
$PAPER_SPACE
 70
     0
 10
0.0
 20
0.0
 30
0.0
  3
$PAPER_SPACE
  1

  0
ENDBLK
  5
1D
 67
     1
  8
0
  0
BLOCK
  8
0
  2
1
 70
     0
 10
0.0
 20
0.0
 30
0.0
  3
1
  1

  0
POLYLINE
  5
42
  8
0
 62
   123
 66
     1
 10
0.0
 20
0.0
 30
0.0
 70
    64
 71
    16
 72
    16
  0
VERTEX
  5
43
  8
0
 10
-0.0579999983310699
 20
0.1875
 30
0.0130000002682209
 70
   192
  0
VERTEX
  5
44
  8
0
 10
-0.0579999983310699
 20
0.1525000035762787
 30
0.0149999996647239
 70
   192
  0
VERTEX
  5
45
  8
0
 10
-0.0579999983310699
 20
0.1875
 30
0.0149999996647239
 70
   192
  0
VERTEX
  5
46
  8
0
 10
-0.0579999983310699
 20
0.1924999952316284
 30
0.0099999997764826
 70
   192
  0
VERTEX
  5
47
  8
0
 10
-0.0579999983310699
 20
0.1905000060796738
 30
0.0099999997764826
 70
   192
  0
VERTEX
  5
48
  8
0
 10
-0.0579999983310699
 20
0.1905000060796738
 30
-0.0099999997764826
 70
   192
  0
VERTEX
  5
49
  8
0
 10
-0.0579999983310699
 20
0.1924999952316284
 30
-0.0099999997764826
 70
   192
  0
VERTEX
  5
4A
  8
0
 10
-0.0579999983310699
 20
0.1875
 30
-0.0149999996647239
 70
   192
  0
VERTEX
  5
4B
  8
0
 10
-0.0579999983310699
 20
0.1875
 30
-0.0130000002682209
 70
   192
  0
VERTEX
  5
4C
  8
0
 10
-0.0579999983310699
 20
0.1525000035762787
 30
-0.0130000002682209
 70
   192
  0
VERTEX
  5
4D
  8
0
 10
-0.0579999983310699
 20
0.1525000035762787
 30
-0.0149999996647239
 70
   192
  0
VERTEX
  5
4E
  8
0
 10
-0.0579999983310699
 20
0.1474999934434891
 30
-0.0099999997764826
 70
   192
  0
VERTEX
  5
4F
  8
0
 10
-0.0579999983310699
 20
0.1494999974966049
 30
-0.0099999997764826
 70
   192
  0
VERTEX
  5
50
  8
0
 10
-0.0579999983310699
 20
0.1494999974966049
 30
0.0099999997764826
 70
   192
  0
VERTEX
  5
51
  8
0
 10
-0.0579999983310699
 20
0.1474999934434891
 30
0.0099999997764826
 70
   192
  0
VERTEX
  5
52
  8
0
 10
-0.0579999983310699
 20
0.1525000035762787
 30
0.0130000002682209
 70
   192
  0
VERTEX
  5
53
  8
0
 62
   123
 10
0.0
 20
0.0
 30
0.0
 70
   128
 71
     3
 72
     2
 73
     1
  0
VERTEX
  5
54
  8
0
 62
   123
 10
0.0
 20
0.0
 30
0.0
 70
   128
 71
     3
 72
     1
 73
     4
  0
VERTEX
  5
55
  8
0
 62
   123
 10
0.0
 20
0.0
 30
0.0
 70
   128
 71
     1
 72
     5
 73
     4
  0
VERTEX
  5
56
  8
0
 62
   123
 10
0.0
 20
0.0
 30
0.0
 70
   128
 71
     5
 72
     6
 73
     4
  0
VERTEX
  5
57
  8
0
 62
   123
 10
0.0
 20
0.0
 30
0.0
 70
   128
 71
     4
 72
     6
 73
     7
  0
VERTEX
  5
58
  8
0
 62
   123
 10
0.0
 20
0.0
 30
0.0
 70
   128
 71
     7
 72
     6
 73
     8
  0
VERTEX
  5
59
  8
0
 62
   123
 10
0.0
 20
0.0
 30
0.0
 70
   128
 71
     6
 72
     9
 73
     8
  0
VERTEX
  5
5A
  8
0
 62
   123
 10
0.0
 20
0.0
 30
0.0
 70
   128
 71
     9
 72
    10
 73
     8
  0
VERTEX
  5
5B
  8
0
 62
   123
 10
0.0
 20
0.0
 30
0.0
 70
   128
 71
     8
 72
    10
 73
    11
  0
VERTEX
  5
5C
  8
0
 62
   123
 10
0.0
 20
0.0
 30
0.0
 70
   128
 71
    11
 72
    10
 73
    12
  0
VERTEX
  5
5D
  8
0
 62
   123
 10
0.0
 20
0.0
 30
0.0
 70
   128
 71
    10
 72
    13
 73
    12
  0
VERTEX
  5
5E
  8
0
 62
   123
 10
0.0
 20
0.0
 30
0.0
 70
   128
 71
    13
 72
    14
 73
    12
  0
VERTEX
  5
5F
  8
0
 62
   123
 10
0.0
 20
0.0
 30
0.0
 70
   128
 71
    12
 72
    14
 73
    15
  0
VERTEX
  5
60
  8
0
 62
   123
 10
0.0
 20
0.0
 30
0.0
 70
   128
 71
    15
 72
    14
 73
     2
  0
VERTEX
  5
61
  8
0
 62
   123
 10
0.0
 20
0.0
 30
0.0
 70
   128
 71
    14
 72
    16
 73
     2
  0
VERTEX
  5
62
  8
0
 62
   123
 10
0.0
 20
0.0
 30
0.0
 70
   128
 71
    16
 72
     1
 73
     2
  0
SEQEND
  5
63
  8
0
 62
   123
  0
ENDBLK
  5
67
  8
0
  0
BLOCK
  8
0
  2
1_1_
 70
     0
 10
0.0
 20
0.0
 30
0.0
  3
1_1_
  1

  0
POLYLINE
  5
69
  8
0
 62
   123
 66
     1
 10
0.0
 20
0.0
 30
0.0
 70
    64
 71
    16
 72
    16
  0
VERTEX
  5
6A
  8
0
 10
-0.0579999983310699
 20
-0.1525000035762787
 30
0.0130000002682209
 70
   192
  0
VERTEX
  5
6B
  8
0
 10
-0.0579999983310699
 20
-0.1875
 30
0.0149999996647239
 70
   192
  0
VERTEX
  5
6C
  8
0
 10
-0.0579999983310699
 20
-0.1525000035762787
 30
0.0149999996647239
 70
   192
  0
VERTEX
  5
6D
  8
0
 10
-0.0579999983310699
 20
-0.1474999934434891
 30
0.0099999997764826
 70
   192
  0
VERTEX
  5
6E
  8
0
 10
-0.0579999983310699
 20
-0.1494999974966049
 30
0.0099999997764826
 70
   192
  0
VERTEX
  5
6F
  8
0
 10
-0.0579999983310699
 20
-0.1494999974966049
 30
-0.0099999997764826
 70
   192
  0
VERTEX
  5
70
  8
0
 10
-0.0579999983310699
 20
-0.1474999934434891
 30
-0.0099999997764826
 70
   192
  0
VERTEX
  5
71
  8
0
 10
-0.0579999983310699
 20
-0.1525000035762787
 30
-0.0149999996647239
 70
   192
  0
VERTEX
  5
72
  8
0
 10
-0.0579999983310699
 20
-0.1525000035762787
 30
-0.0130000002682209
 70
   192
  0
VERTEX
  5
73
  8
0
 10
-0.0579999983310699
 20
-0.1875
 30
-0.0130000002682209
 70
   192
  0
VERTEX
  5
74
  8
0
 10
-0.0579999983310699
 20
-0.1875
 30
-0.0149999996647239
 70
   192
  0
VERTEX
  5
75
  8
0
 10
-0.0579999983310699
 20
-0.1924999952316284
 30
-0.0099999997764826
 70
   192
  0
VERTEX
  5
76
  8
0
 10
-0.0579999983310699
 20
-0.1905000060796738
 30
-0.0099999997764826
 70
   192
  0
VERTEX
  5
77
  8
0
 10
-0.0579999983310699
 20
-0.1905000060796738
 30
0.0099999997764826
 70
   192
  0
VERTEX
  5
78
  8
0
 10
-0.0579999983310699
 20
-0.1924999952316284
 30
0.0099999997764826
 70
   192
  0
VERTEX
  5
79
  8
0
 10
-0.0579999983310699
 20
-0.1875
 30
0.0130000002682209
 70
   192
  0
VERTEX
  5
7A
  8
0
 62
   123
 10
0.0
 20
0.0
 30
0.0
 70
   128
 71
     3
 72
     2
 73
     1
  0
VERTEX
  5
7B
  8
0
 62
   123
 10
0.0
 20
0.0
 30
0.0
 70
   128
 71
     3
 72
     1
 73
     4
  0
VERTEX
  5
7C
  8
0
 62
   123
 10
0.0
 20
0.0
 30
0.0
 70
   128
 71
     1
 72
     5
 73
     4
  0
VERTEX
  5
7D
  8
0
 62
   123
 10
0.0
 20
0.0
 30
0.0
 70
   128
 71
     5
 72
     6
 73
     4
  0
VERTEX
  5
7E
  8
0
 62
   123
 10
0.0
 20
0.0
 30
0.0
 70
   128
 71
     4
 72
     6
 73
     7
  0
VERTEX
  5
7F
  8
0
 62
   123
 10
0.0
 20
0.0
 30
0.0
 70
   128
 71
     7
 72
     6
 73
     8
  0
VERTEX
  5
80
  8
0
 62
   123
 10
0.0
 20
0.0
 30
0.0
 70
   128
 71
     6
 72
     9
 73
     8
  0
VERTEX
  5
81
  8
0
 62
   123
 10
0.0
 20
0.0
 30
0.0
 70
   128
 71
     9
 72
    10
 73
     8
  0
VERTEX
  5
82
  8
0
 62
   123
 10
0.0
 20
0.0
 30
0.0
 70
   128
 71
     8
 72
    10
 73
    11
  0
VERTEX
  5
83
  8
0
 62
   123
 10
0.0
 20
0.0
 30
0.0
 70
   128
 71
    11
 72
    10
 73
    12
  0
VERTEX
  5
84
  8
0
 62
   123
 10
0.0
 20
0.0
 30
0.0
 70
   128
 71
    10
 72
    13
 73
    12
  0
VERTEX
  5
85
  8
0
 62
   123
 10
0.0
 20
0.0
 30
0.0
 70
   128
 71
    13
 72
    14
 73
    12
  0
VERTEX
  5
86
  8
0
 62
   123
 10
0.0
 20
0.0
 30
0.0
 70
   128
 71
    12
 72
    14
 73
    15
  0
VERTEX
  5
87
  8
0
 62
   123
 10
0.0
 20
0.0
 30
0.0
 70
   128
 71
    15
 72
    14
 73
     2
  0
VERTEX
  5
88
  8
0
 62
   123
 10
0.0
 20
0.0
 30
0.0
 70
   128
 71
    14
 72
    16
 73
     2
  0
VERTEX
  5
89
  8
0
 62
   123
 10
0.0
 20
0.0
 30
0.0
 70
   128
 71
    16
 72
     1
 73
     2
  0
SEQEND
  5
8A
  8
0
 62
   123
  0
ENDBLK
  5
8D
  8
0
  0
BLOCK
  8
0
  2
3
 70
     0
 10
0.0
 20
0.0
 30
0.0
  3
3
  1

  0
POLYLINE
  5
8F
  8
0
 66
     1
 10
0.0
 20
0.0
 30
0.0
 70
    64
 71
    56
 72
    96
  0
VERTEX
  5
90
  8
0
 10
0.0197071060538292
 20
0.1890128999948502
 30
0.0121870003640652
 70
   192
  0
VERTEX
  5
91
  8
0
 10
0.0199999995529652
 20
0.1510121822357178
 30
0.0115200933068991
 70
   192
  0
VERTEX
  5
92
  8
0
 10
0.0199999995529652
 20
0.1890121549367905
 30
0.0114798936992884
 70
   192
  0
VERTEX
  5
93
  8
0
 10
0.0189999993890524
 20
0.1510132402181625
 30
0.0125200925394893
 70
   192
  0
VERTEX
  5
94
  8
0
 10
0.0189999993890524
 20
0.1890132129192352
 30
0.0124798929318786
 70
   192
  0
VERTEX
  5
95
  8
0
 10
0.0197071060538292
 20
0.1510129272937775
 30
0.0122271999716759
 70
   192
  0
VERTEX
  5
96
  8
0
 10
0.0195000004023314
 20
0.1895129084587097
 30
0.0121864713728428
 70
   192
  0
VERTEX
  5
97
  8
0
 10
0.0189999993890524
 20
0.1897200047969818
 30
0.0121862525120378
 70
   192
  0
VERTEX
  5
98
  8
0
 10
0.0197071060538292
 20
0.1897192597389221
 30
0.011479145847261
 70
   192
  0
VERTEX
  5
99
  8
0
 10
0.0189999993890524
 20
0.1900121569633484
 30
0.0114788357168436
 70
   192
  0
VERTEX
  5
9A
  8
0
 10
0.0197071060538292
 20
0.1896949261426926
 30
-0.0115208411589265
 70
   192
  0
VERTEX
  5
9B
  8
0
 10
0.0199999995529652
 20
0.1889878213405609
 30
-0.0115200933068991
 70
   192
  0
VERTEX
  5
9C
  8
0
 10
0.0189999993890524
 20
0.1899878233671188
 30
-0.0115211512893438
 70
   192
  0
VERTEX
  5
9D
  8
0
 10
0.0199999995529652
 20
0.1509878486394882
 30
-0.0114798936992884
 70
   192
  0
VERTEX
  5
9E
  8
0
 10
-0.0141000002622604
 20
0.1500080525875092
 30
0.0076211532577872
 70
   192
  0
VERTEX
  5
9F
  8
0
 10
-0.0148071069270372
 20
0.188007727265358
 30
0.0072880606167018
 70
   192
  0
VERTEX
  5
A0
  8
0
 10
-0.0141000002622604
 20
0.1880080252885818
 30
0.0075809541158378
 70
   192
  0
VERTEX
  5
A1
  8
0
 10
-0.0151000004261732
 20
0.1500069946050644
 30
0.006621154025197
 70
   192
  0
VERTEX
  5
A2
  8
0
 10
-0.0151000004261732
 20
0.1880069673061371
 30
0.0065809544175863
 70
   192
  0
VERTEX
  5
A3
  8
0
 10
-0.0148071069270372
 20
0.1500077396631241
 30
0.0073282602243125
 70
   192
  0
VERTEX
  5
A4
  8
0
 10
0.0141000002622604
 20
0.1500080525875092
 30
0.0076211532577872
 70
   192
  0
VERTEX
  5
A5
  8
0
 10
0.0141000002622604
 20
0.1880080252885818
 30
0.0075809541158378
 70
   192
  0
VERTEX
  5
A6
  8
0
 10
0.0148071069270372
 20
0.188007727265358
 30
0.0072880606167018
 70
   192
  0
VERTEX
  5
A7
  8
0
 10
0.0148071069270372
 20
0.1500077396631241
 30
0.0073282602243125
 70
   192
  0
VERTEX
  5
A8
  8
0
 10
0.0151000004261732
 20
0.1880069673061371
 30
0.0065809544175863
 70
   192
  0
VERTEX
  5
A9
  8
0
 10
0.0151000004261732
 20
0.1500069946050644
 30
0.006621154025197
 70
   192
  0
VERTEX
  5
AA
  8
0
 10
-0.0500000007450581
 20
0.1509867906570435
 30
-0.0124798929318786
 70
   192
  0
VERTEX
  5
AB
  8
0
 10
0.0189999993890524
 20
0.1889867633581161
 30
-0.0125200925394893
 70
   192
  0
VERTEX
  5
AC
  8
0
 10
0.0189999993890524
 20
0.1509867906570435
 30
-0.0124798929318786
 70
   192
  0
VERTEX
  5
AD
  8
0
 10
-0.0500000007450581
 20
0.1889867633581161
 30
-0.0125200925394893
 70
   192
  0
VERTEX
  5
AE
  8
0
 10
0.0197071060538292
 20
0.1509871035814285
 30
-0.0121870003640652
 70
   192
  0
VERTEX
  5
AF
  8
0
 10
0.0197071060538292
 20
0.1889870762825012
 30
-0.0122271999716759
 70
   192
  0
VERTEX
  5
B0
  8
0
 10
0.0195000004023314
 20
0.1894870698451996
 30
-0.0122277289628983
 70
   192
  0
VERTEX
  5
B1
  8
0
 10
0.0189999993890524
 20
0.1896941810846329
 30
-0.0122279478237033
 70
   192
  0
VERTEX
  5
B2
  8
0
 10
-0.0500000007450581
 20
0.1896941810846329
 30
-0.0122279478237033
 70
   192
  0
VERTEX
  5
B3
  8
0
 10
-0.0500000007450581
 20
0.1899878233671188
 30
-0.0115211512893438
 70
   192
  0
VERTEX
  5
B4
  8
0
 10
-0.0500000007450581
 20
0.1900121569633484
 30
0.0114788357168436
 70
   192
  0
VERTEX
  5
B5
  8
0
 10
-0.0500000007450581
 20
0.1897200047969818
 30
0.0121862525120378
 70
   192
  0
VERTEX
  5
B6
  8
0
 10
-0.0500000007450581
 20
0.1890132129192352
 30
0.0124798929318786
 70
   192
  0
VERTEX
  5
B7
  8
0
 10
-0.0500000007450581
 20
0.1510132402181625
 30
0.0125200925394893
 70
   192
  0
VERTEX
  5
B8
  8
0
 10
0.0189999993890524
 20
0.1503058224916458
 30
0.0122279478237033
 70
   192
  0
VERTEX
  5
B9
  8
0
 10
-0.0500000007450581
 20
0.1500121802091599
 30
0.0115211512893438
 70
   192
  0
VERTEX
  5
BA
  8
0
 10
0.0189999993890524
 20
0.1500121802091599
 30
0.0115211512893438
 70
   192
  0
VERTEX
  5
BB
  8
0
 10
-0.0500000007450581
 20
0.1503058224916458
 30
0.0122279478237033
 70
   192
  0
VERTEX
  5
BC
  8
0
 10
0.0197071060538292
 20
0.1503050625324249
 30
0.0115208411589265
 70
   192
  0
VERTEX
  5
BD
  8
0
 10
0.0195000004023314
 20
0.1505129188299179
 30
0.0122277289628983
 70
   192
  0
VERTEX
  5
BE
  8
0
 10
0.0197071060538292
 20
0.1502807438373566
 30
-0.011479145847261
 70
   192
  0
VERTEX
  5
BF
  8
0
 10
0.0189999993890524
 20
0.1499878466129303
 30
-0.0114788357168436
 70
   192
  0
VERTEX
  5
C0
  8
0
 10
-0.0500000007450581
 20
0.1499878466129303
 30
-0.0114788357168436
 70
   192
  0
VERTEX
  5
C1
  8
0
 10
-0.0141000002622604
 20
0.149991974234581
 30
-0.0075788381509483
 70
   192
  0
VERTEX
  5
C2
  8
0
 10
-0.0151000004261732
 20
0.1499930322170258
 30
-0.0065788389183581
 70
   192
  0
VERTEX
  5
C3
  8
0
 10
0.0151000004261732
 20
0.1499930322170258
 30
-0.0065788389183581
 70
   192
  0
VERTEX
  5
C4
  8
0
 10
0.0141000002622604
 20
0.149991974234581
 30
-0.0075788381509483
 70
   192
  0
VERTEX
  5
C5
  8
0
 10
0.0189999993890524
 20
0.1502799838781357
 30
-0.0121862525120378
 70
   192
  0
VERTEX
  5
C6
  8
0
 10
-0.0500000007450581
 20
0.1502799838781357
 30
-0.0121862525120378
 70
   192
  0
VERTEX
  5
C7
  8
0
 10
0.0195000004023314
 20
0.150487095117569
 30
-0.0121864713728428
 70
   192
  0
VERTEX
  5
C8
  8
0
 62
   123
 10
0.0
 20
0.0
 30
0.0
 70
   128
 71
     3
 72
     2
 73
     1
  0
VERTEX
  5
C9
  8
0
 62
   123
 10
0.0
 20
0.0
 30
0.0
 70
   128
 71
     5
 72
     1
 73
     4
  0
VERTEX
  5
CA
  8
0
 62
   123
 10
0.0
 20
0.0
 30
0.0
 70
   128
 71
     4
 72
     1
 73
     6
  0
VERTEX
  5
CB
  8
0
 62
   123
 10
0.0
 20
0.0
 30
0.0
 70
   128
 71
     6
 72
     1
 73
     2
  0
VERTEX
  5
CC
  8
0
 62
   123
 10
0.0
 20
0.0
 30
0.0
 70
   128
 71
     8
 72
     7
 73
     5
  0
VERTEX
  5
CD
  8
0
 62
   123
 10
0.0
 20
0.0
 30
0.0
 70
   128
 71
     5
 72
     5
 73
     1
  0
VERTEX
  5
CE
  8
0
 62
   123
 10
0.0
 20
0.0
 30
0.0
 70
   128
 71
     5
 72
     8
 73
     5
  0
VERTEX
  5
CF
  8
0
 62
   123
 10
0.0
 20
0.0
 30
0.0
 70
   128
 71
    10
 72
     9
 73
     8
  0
VERTEX
  5
D0
  8
0
 62
   123
 10
0.0
 20
0.0
 30
0.0
 70
   128
 71
     3
 72
     1
 73
     9
  0
VERTEX
  5
D1
  8
0
 62
   123
 10
0.0
 20
0.0
 30
0.0
 70
   128
 71
     1
 72
     7
 73
     9
  0
VERTEX
  5
D2
  8
0
 62
   123
 10
0.0
 20
0.0
 30
0.0
 70
   128
 71
     1
 72
     5
 73
     7
  0
VERTEX
  5
D3
  8
0
 62
   123
 10
0.0
 20
0.0
 30
0.0
 70
   128
 71
     8
 72
     9
 73
     7
  0
VERTEX
  5
D4
  8
0
 62
   123
 10
0.0
 20
0.0
 30
0.0
 70
   128
 71
    12
 72
     3
 73
    11
  0
VERTEX
  5
D5
  8
0
 62
   123
 10
0.0
 20
0.0
 30
0.0
 70
   128
 71
    10
 72
    13
 73
     9
  0
VERTEX
  5
D6
  8
0
 62
   123
 10
0.0
 20
0.0
 30
0.0
 70
   128
 71
    13
 72
    11
 73
     9
  0
VERTEX
  5
D7
  8
0
 62
   123
 10
0.0
 20
0.0
 30
0.0
 70
   128
 71
     9
 72
    11
 73
     3
  0
VERTEX
  5
D8
  8
0
 62
   123
 10
0.0
 20
0.0
 30
0.0
 70
   128
 71
     3
 72
    12
 73
     2
  0
VERTEX
  5
D9
  8
0
 62
   123
 10
0.0
 20
0.0
 30
0.0
 70
   128
 71
    14
 72
     2
 73
    12
  0
VERTEX
  5
DA
  8
0
 62
   123
 10
0.0
 20
0.0
 30
0.0
 70
   128
 71
    17
 72
    16
 73
    15
  0
VERTEX
  5
DB
  8
0
 62
   123
 10
0.0
 20
0.0
 30
0.0
 70
   128
 71
    19
 72
    18
 73
    16
  0
VERTEX
  5
DC
  8
0
 62
   123
 10
0.0
 20
0.0
 30
0.0
 70
   128
 71
    18
 72
    20
 73
    16
  0
VERTEX
  5
DD
  8
0
 62
   123
 10
0.0
 20
0.0
 30
0.0
 70
   128
 71
    20
 72
    15
 73
    16
  0
VERTEX
  5
DE
  8
0
 62
   123
 10
0.0
 20
0.0
 30
0.0
 70
   128
 71
    22
 72
    17
 73
    21
  0
VERTEX
  5
DF
  8
0
 62
   123
 10
0.0
 20
0.0
 30
0.0
 70
   128
 71
    15
 72
    21
 73
    17
  0
VERTEX
  5
E0
  8
0
 62
   123
 10
0.0
 20
0.0
 30
0.0
 70
   128
 71
    24
 72
    23
 73
    21
  0
VERTEX
  5
E1
  8
0
 62
   123
 10
0.0
 20
0.0
 30
0.0
 70
   128
 71
    26
 72
    25
 73
    24
  0
VERTEX
  5
E2
  8
0
 62
   123
 10
0.0
 20
0.0
 30
0.0
 70
   128
 71
    25
 72
    23
 73
    24
  0
VERTEX
  5
E3
  8
0
 62
   123
 10
0.0
 20
0.0
 30
0.0
 70
   128
 71
    22
 72
    21
 73
    23
  0
VERTEX
  5
E4
  8
0
 62
   123
 10
0.0
 20
0.0
 30
0.0
 70
   128
 71
    29
 72
    28
 73
    27
  0
VERTEX
  5
E5
  8
0
 62
   123
 10
0.0
 20
0.0
 30
0.0
 70
   128
 71
    30
 72
    27
 73
    28
  0
VERTEX
  5
E6
  8
0
 62
   123
 10
0.0
 20
0.0
 30
0.0
 70
   128
 71
    29
 72
    31
 73
    28
  0
VERTEX
  5
E7
  8
0
 62
   123
 10
0.0
 20
0.0
 30
0.0
 70
   128
 71
    14
 72
    12
 73
    31
  0
VERTEX
  5
E8
  8
0
 62
   123
 10
0.0
 20
0.0
 30
0.0
 70
   128
 71
    12
 72
    32
 73
    31
  0
VERTEX
  5
E9
  8
0
 62
   123
 10
0.0
 20
0.0
 30
0.0
 70
   128
 71
    32
 72
    28
 73
    31
  0
VERTEX
  5
EA
  8
0
 62
   123
 10
0.0
 20
0.0
 30
0.0
 70
   128
 71
    34
 72
    33
 73
    11
  0
VERTEX
  5
EB
  8
0
 62
   123
 10
0.0
 20
0.0
 30
0.0
 70
   128
 71
    13
 72
    34
 73
    11
  0
VERTEX
  5
EC
  8
0
 62
   123
 10
0.0
 20
0.0
 30
0.0
 70
   128
 71
    28
 72
    28
 73
    34
  0
VERTEX
  5
ED
  8
0
 62
   123
 10
0.0
 20
0.0
 30
0.0
 70
   128
 71
    12
 72
    11
 73
    32
  0
VERTEX
  5
EE
  8
0
 62
   123
 10
0.0
 20
0.0
 30
0.0
 70
   128
 71
    28
 72
    32
 73
    28
  0
VERTEX
  5
EF
  8
0
 62
   123
 10
0.0
 20
0.0
 30
0.0
 70
   128
 71
    32
 72
    33
 73
    28
  0
VERTEX
  5
F0
  8
0
 62
   123
 10
0.0
 20
0.0
 30
0.0
 70
   128
 71
    32
 72
    11
 73
    33
  0
VERTEX
  5
F1
  8
0
 62
   123
 10
0.0
 20
0.0
 30
0.0
 70
   128
 71
    34
 72
    28
 73
    33
  0
VERTEX
  5
F2
  8
0
 62
   123
 10
0.0
 20
0.0
 30
0.0
 70
   128
 71
    30
 72
    28
 73
    35
  0
VERTEX
  5
F3
  8
0
 62
   123
 10
0.0
 20
0.0
 30
0.0
 70
   128
 71
    13
 72
    36
 73
    34
  0
VERTEX
  5
F4
  8
0
 62
   123
 10
0.0
 20
0.0
 30
0.0
 70
   128
 71
    36
 72
    35
 73
    34
  0
VERTEX
  5
F5
  8
0
 62
   123
 10
0.0
 20
0.0
 30
0.0
 70
   128
 71
    34
 72
    35
 73
    28
  0
VERTEX
  5
F6
  8
0
 62
   123
 10
0.0
 20
0.0
 30
0.0
 70
   128
 71
    37
 72
    36
 73
    10
  0
VERTEX
  5
F7
  8
0
 62
   123
 10
0.0
 20
0.0
 30
0.0
 70
   128
 71
    13
 72
    10
 73
    36
  0
VERTEX
  5
F8
  8
0
 62
   123
 10
0.0
 20
0.0
 30
0.0
 70
   128
 71
    37
 72
    10
 73
    38
  0
VERTEX
  5
F9
  8
0
 62
   123
 10
0.0
 20
0.0
 30
0.0
 70
   128
 71
     5
 72
    39
 73
     8
  0
VERTEX
  5
FA
  8
0
 62
   123
 10
0.0
 20
0.0
 30
0.0
 70
   128
 71
    39
 72
    38
 73
     8
  0
VERTEX
  5
FB
  8
0
 62
   123
 10
0.0
 20
0.0
 30
0.0
 70
   128
 71
     8
 72
    38
 73
    10
  0
VERTEX
  5
FC
  8
0
 62
   123
 10
0.0
 20
0.0
 30
0.0
 70
   128
 71
    40
 72
    39
 73
     4
  0
VERTEX
  5
FD
  8
0
 62
   123
 10
0.0
 20
0.0
 30
0.0
 70
   128
 71
     5
 72
     4
 73
    39
  0
VERTEX
  5
FE
  8
0
 62
   123
 10
0.0
 20
0.0
 30
0.0
 70
   128
 71
    43
 72
    42
 73
    41
  0
VERTEX
  5
FF
  8
0
 62
   123
 10
0.0
 20
0.0
 30
0.0
 70
   128
 71
    40
 72
     4
 73
    44
  0
VERTEX
  5
100
  8
0
 62
   123
 10
0.0
 20
0.0
 30
0.0
 70
   128
 71
     4
 72
    41
 73
    44
  0
VERTEX
  5
101
  8
0
 62
   123
 10
0.0
 20
0.0
 30
0.0
 70
   128
 71
    44
 72
    41
 73
    42
  0
VERTEX
  5
102
  8
0
 62
   123
 10
0.0
 20
0.0
 30
0.0
 70
   128
 71
    43
 72
    41
 73
    45
  0
VERTEX
  5
103
  8
0
 62
   123
 10
0.0
 20
0.0
 30
0.0
 70
   128
 71
     2
 72
    45
 73
     6
  0
VERTEX
  5
104
  8
0
 62
   123
 10
0.0
 20
0.0
 30
0.0
 70
   128
 71
     4
 72
     6
 73
     4
  0
VERTEX
  5
105
  8
0
 62
   123
 10
0.0
 20
0.0
 30
0.0
 70
   128
 71
    41
 72
    46
 73
    45
  0
VERTEX
  5
106
  8
0
 62
   123
 10
0.0
 20
0.0
 30
0.0
 70
   128
 71
     6
 72
    46
 73
     4
  0
VERTEX
  5
107
  8
0
 62
   123
 10
0.0
 20
0.0
 30
0.0
 70
   128
 71
    41
 72
     4
 73
     4
  0
VERTEX
  5
108
  8
0
 62
   123
 10
0.0
 20
0.0
 30
0.0
 70
   128
 71
    41
 72
     4
 73
    46
  0
VERTEX
  5
109
  8
0
 62
   123
 10
0.0
 20
0.0
 30
0.0
 70
   128
 71
     6
 72
    45
 73
    46
  0
VERTEX
  5
10A
  8
0
 62
   123
 10
0.0
 20
0.0
 30
0.0
 70
   128
 71
    14
 72
    47
 73
     2
  0
VERTEX
  5
10B
  8
0
 62
   123
 10
0.0
 20
0.0
 30
0.0
 70
   128
 71
    48
 72
    43
 73
    47
  0
VERTEX
  5
10C
  8
0
 62
   123
 10
0.0
 20
0.0
 30
0.0
 70
   128
 71
    43
 72
    45
 73
    47
  0
VERTEX
  5
10D
  8
0
 62
   123
 10
0.0
 20
0.0
 30
0.0
 70
   128
 71
    45
 72
     2
 73
    47
  0
VERTEX
  5
10E
  8
0
 62
   123
 10
0.0
 20
0.0
 30
0.0
 70
   128
 71
    51
 72
    50
 73
    49
  0
VERTEX
  5
10F
  8
0
 62
   123
 10
0.0
 20
0.0
 30
0.0
 70
   128
 71
    24
 72
    21
 73
    43
  0
VERTEX
  5
110
  8
0
 62
   123
 10
0.0
 20
0.0
 30
0.0
 70
   128
 71
    43
 72
    21
 73
    42
  0
VERTEX
  5
111
  8
0
 62
   123
 10
0.0
 20
0.0
 30
0.0
 70
   128
 71
    21
 72
    15
 73
    42
  0
VERTEX
  5
112
  8
0
 62
   123
 10
0.0
 20
0.0
 30
0.0
 70
   128
 71
    15
 72
    20
 73
    42
  0
VERTEX
  5
113
  8
0
 62
   123
 10
0.0
 20
0.0
 30
0.0
 70
   128
 71
    20
 72
    18
 73
    42
  0
VERTEX
  5
114
  8
0
 62
   123
 10
0.0
 20
0.0
 30
0.0
 70
   128
 71
    42
 72
    18
 73
    49
  0
VERTEX
  5
115
  8
0
 62
   123
 10
0.0
 20
0.0
 30
0.0
 70
   128
 71
    18
 72
    51
 73
    49
  0
VERTEX
  5
116
  8
0
 62
   123
 10
0.0
 20
0.0
 30
0.0
 70
   128
 71
    24
 72
    43
 73
    26
  0
VERTEX
  5
117
  8
0
 62
   123
 10
0.0
 20
0.0
 30
0.0
 70
   128
 71
    43
 72
    48
 73
    26
  0
VERTEX
  5
118
  8
0
 62
   123
 10
0.0
 20
0.0
 30
0.0
 70
   128
 71
    26
 72
    48
 73
    52
  0
VERTEX
  5
119
  8
0
 62
   123
 10
0.0
 20
0.0
 30
0.0
 70
   128
 71
    52
 72
    48
 73
    53
  0
VERTEX
  5
11A
  8
0
 62
   123
 10
0.0
 20
0.0
 30
0.0
 70
   128
 71
    48
 72
    49
 73
    53
  0
VERTEX
  5
11B
  8
0
 62
   123
 10
0.0
 20
0.0
 30
0.0
 70
   128
 71
    53
 72
    49
 73
    50
  0
VERTEX
  5
11C
  8
0
 62
   123
 10
0.0
 20
0.0
 30
0.0
 70
   128
 71
    48
 72
    54
 73
    49
  0
VERTEX
  5
11D
  8
0
 62
   123
 10
0.0
 20
0.0
 30
0.0
 70
   128
 71
    27
 72
    55
 73
    29
  0
VERTEX
  5
11E
  8
0
 62
   123
 10
0.0
 20
0.0
 30
0.0
 70
   128
 71
    29
 72
    55
 73
    54
  0
VERTEX
  5
11F
  8
0
 62
   123
 10
0.0
 20
0.0
 30
0.0
 70
   128
 71
    55
 72
    49
 73
    54
  0
VERTEX
  5
120
  8
0
 62
   123
 10
0.0
 20
0.0
 30
0.0
 70
   128
 71
    29
 72
    29
 73
    31
  0
VERTEX
  5
121
  8
0
 62
   123
 10
0.0
 20
0.0
 30
0.0
 70
   128
 71
    48
 72
    47
 73
    54
  0
VERTEX
  5
122
  8
0
 62
   123
 10
0.0
 20
0.0
 30
0.0
 70
   128
 71
    14
 72
    31
 73
    47
  0
VERTEX
  5
123
  8
0
 62
   123
 10
0.0
 20
0.0
 30
0.0
 70
   128
 71
    31
 72
    56
 73
    47
  0
VERTEX
  5
124
  8
0
 62
   123
 10
0.0
 20
0.0
 30
0.0
 70
   128
 71
    31
 72
    29
 73
    56
  0
VERTEX
  5
125
  8
0
 62
   123
 10
0.0
 20
0.0
 30
0.0
 70
   128
 71
    54
 72
    29
 73
    29
  0
VERTEX
  5
126
  8
0
 62
   123
 10
0.0
 20
0.0
 30
0.0
 70
   128
 71
    54
 72
    56
 73
    29
  0
VERTEX
  5
127
  8
0
 62
   123
 10
0.0
 20
0.0
 30
0.0
 70
   128
 71
    54
 72
    47
 73
    56
  0
SEQEND
  5
128
  8
0
  0
ENDBLK
  5
12B
  8
0
  0
BLOCK
  8
0
  2
2
 70
     0
 10
0.0
 20
0.0
 30
0.0
  3
2
  1

  0
POLYLINE
  5
12D
  8
0
 66
     1
 10
0.0
 20
0.0
 30
0.0
 70
    64
 71
    48
 72
    84
  0
VERTEX
  5
12E
  8
0
 10
0.0199999995529652
 20
-0.1509999930858612
 30
0.0115000000223517
 70
   192
  0
VERTEX
  5
12F
  8
0
 10
0.0197071060538292
 20
-0.1889999955892563
 30
0.0122071066871285
 70
   192
  0
VERTEX
  5
130
  8
0
 10
0.0199999995529652
 20
-0.1889999955892563
 30
0.0115000000223517
 70
   192
  0
VERTEX
  5
131
  8
0
 10
0.0189999993890524
 20
-0.1889999955892563
 30
0.0125000001862645
 70
   192
  0
VERTEX
  5
132
  8
0
 10
0.0197071060538292
 20
-0.1509999930858612
 30
0.0122071066871285
 70
   192
  0
VERTEX
  5
133
  8
0
 10
0.0189999993890524
 20
-0.1509999930858612
 30
0.0125000001862645
 70
   192
  0
VERTEX
  5
134
  8
0
 10
0.0197071060538292
 20
-0.1502928882837296
 30
0.0115000000223517
 70
   192
  0
VERTEX
  5
135
  8
0
 10
0.0195000004023314
 20
-0.1504999995231628
 30
0.0122071066871285
 70
   192
  0
VERTEX
  5
136
  8
0
 10
0.0189999993890524
 20
-0.1502928882837296
 30
0.0122071066871285
 70
   192
  0
VERTEX
  5
137
  8
0
 10
0.0189999993890524
 20
-0.1500000059604645
 30
0.0115000000223517
 70
   192
  0
VERTEX
  5
138
  8
0
 10
0.0197071060538292
 20
-0.1502928882837296
 30
-0.0115000000223517
 70
   192
  0
VERTEX
  5
139
  8
0
 10
0.0199999995529652
 20
-0.1509999930858612
 30
-0.0115000000223517
 70
   192
  0
VERTEX
  5
13A
  8
0
 10
0.0189999993890524
 20
-0.1500000059604645
 30
-0.0115000000223517
 70
   192
  0
VERTEX
  5
13B
  8
0
 10
0.0199999995529652
 20
-0.1889999955892563
 30
-0.0115000000223517
 70
   192
  0
VERTEX
  5
13C
  8
0
 10
-0.0500000007450581
 20
-0.1889999955892563
 30
-0.0125000001862645
 70
   192
  0
VERTEX
  5
13D
  8
0
 10
0.0189999993890524
 20
-0.1509999930858612
 30
-0.0125000001862645
 70
   192
  0
VERTEX
  5
13E
  8
0
 10
0.0189999993890524
 20
-0.1889999955892563
 30
-0.0125000001862645
 70
   192
  0
VERTEX
  5
13F
  8
0
 10
-0.0500000007450581
 20
-0.1509999930858612
 30
-0.0125000001862645
 70
   192
  0
VERTEX
  5
140
  8
0
 10
0.0197071060538292
 20
-0.1889999955892563
 30
-0.0122071066871285
 70
   192
  0
VERTEX
  5
141
  8
0
 10
0.0197071060538292
 20
-0.1509999930858612
 30
-0.0122071066871285
 70
   192
  0
VERTEX
  5
142
  8
0
 10
0.0195000004023314
 20
-0.1504999995231628
 30
-0.0122071066871285
 70
   192
  0
VERTEX
  5
143
  8
0
 10
0.0189999993890524
 20
-0.1502928882837296
 30
-0.0122071066871285
 70
   192
  0
VERTEX
  5
144
  8
0
 10
-0.0500000007450581
 20
-0.1502928882837296
 30
-0.0122071066871285
 70
   192
  0
VERTEX
  5
145
  8
0
 10
-0.0500000007450581
 20
-0.1500000059604645
 30
-0.0115000000223517
 70
   192
  0
VERTEX
  5
146
  8
0
 10
-0.0500000007450581
 20
-0.1500000059604645
 30
0.0115000000223517
 70
   192
  0
VERTEX
  5
147
  8
0
 10
-0.0141000002622604
 20
-0.1500000059604645
 30
0.00760000012815
 70
   192
  0
VERTEX
  5
148
  8
0
 10
-0.0151000004261732
 20
-0.1500000059604645
 30
0.0065999999642372
 70
   192
  0
VERTEX
  5
149
  8
0
 10
0.0141000002622604
 20
-0.1500000059604645
 30
-0.00760000012815
 70
   192
  0
VERTEX
  5
14A
  8
0
 10
-0.0141000002622604
 20
-0.1500000059604645
 30
-0.00760000012815
 70
   192
  0
VERTEX
  5
14B
  8
0
 10
-0.0151000004261732
 20
-0.1500000059604645
 30
-0.0065999999642372
 70
   192
  0
VERTEX
  5
14C
  8
0
 10
0.0151000004261732
 20
-0.1500000059604645
 30
-0.0065999999642372
 70
   192
  0
VERTEX
  5
14D
  8
0
 10
0.0151000004261732
 20
-0.1500000059604645
 30
0.0065999999642372
 70
   192
  0
VERTEX
  5
14E
  8
0
 10
0.0141000002622604
 20
-0.1500000059604645
 30
0.00760000012815
 70
   192
  0
VERTEX
  5
14F
  8
0
 10
-0.0500000007450581
 20
-0.1502928882837296
 30
0.0122071066871285
 70
   192
  0
VERTEX
  5
150
  8
0
 10
-0.0500000007450581
 20
-0.1509999930858612
 30
0.0125000001862645
 70
   192
  0
VERTEX
  5
151
  8
0
 10
-0.0500000007450581
 20
-0.1889999955892563
 30
0.0125000001862645
 70
   192
  0
VERTEX
  5
152
  8
0
 10
0.0189999993890524
 20
-0.1899999976158142
 30
0.0115000000223517
 70
   192
  0
VERTEX
  5
153
  8
0
 10
-0.0500000007450581
 20
-0.1897071003913879
 30
0.0122071066871285
 70
   192
  0
VERTEX
  5
154
  8
0
 10
-0.0500000007450581
 20
-0.1899999976158142
 30
0.0115000000223517
 70
   192
  0
VERTEX
  5
155
  8
0
 10
0.0189999993890524
 20
-0.1897071003913879
 30
0.0122071066871285
 70
   192
  0
VERTEX
  5
156
  8
0
 10
0.0197071060538292
 20
-0.1897071003913879
 30
0.0115000000223517
 70
   192
  0
VERTEX
  5
157
  8
0
 10
0.0195000004023314
 20
-0.1895000040531158
 30
0.0122071066871285
 70
   192
  0
VERTEX
  5
158
  8
0
 10
0.0189999993890524
 20
-0.1899999976158142
 30
-0.0115000000223517
 70
   192
  0
VERTEX
  5
159
  8
0
 10
0.0197071060538292
 20
-0.1897071003913879
 30
-0.0115000000223517
 70
   192
  0
VERTEX
  5
15A
  8
0
 10
-0.0500000007450581
 20
-0.1899999976158142
 30
-0.0115000000223517
 70
   192
  0
VERTEX
  5
15B
  8
0
 10
0.0189999993890524
 20
-0.1897071003913879
 30
-0.0122071066871285
 70
   192
  0
VERTEX
  5
15C
  8
0
 10
-0.0500000007450581
 20
-0.1897071003913879
 30
-0.0122071066871285
 70
   192
  0
VERTEX
  5
15D
  8
0
 10
0.0195000004023314
 20
-0.1895000040531158
 30
-0.0122071066871285
 70
   192
  0
VERTEX
  5
15E
  8
0
 62
   123
 10
0.0
 20
0.0
 30
0.0
 70
   128
 71
     3
 72
     2
 73
     1
  0
VERTEX
  5
15F
  8
0
 62
   123
 10
0.0
 20
0.0
 30
0.0
 70
   128
 71
     6
 72
     5
 73
     4
  0
VERTEX
  5
160
  8
0
 62
   123
 10
0.0
 20
0.0
 30
0.0
 70
   128
 71
     4
 72
     5
 73
     2
  0
VERTEX
  5
161
  8
0
 62
   123
 10
0.0
 20
0.0
 30
0.0
 70
   128
 71
     5
 72
     1
 73
     2
  0
VERTEX
  5
162
  8
0
 62
   123
 10
0.0
 20
0.0
 30
0.0
 70
   128
 71
     5
 72
     8
 73
     7
  0
VERTEX
  5
163
  8
0
 62
   123
 10
0.0
 20
0.0
 30
0.0
 70
   128
 71
     1
 72
     5
 73
     7
  0
VERTEX
  5
164
  8
0
 62
   123
 10
0.0
 20
0.0
 30
0.0
 70
   128
 71
    10
 72
     7
 73
     9
  0
VERTEX
  5
165
  8
0
 62
   123
 10
0.0
 20
0.0
 30
0.0
 70
   128
 71
     6
 72
     9
 73
     6
  0
VERTEX
  5
166
  8
0
 62
   123
 10
0.0
 20
0.0
 30
0.0
 70
   128
 71
     6
 72
     6
 73
     5
  0
VERTEX
  5
167
  8
0
 62
   123
 10
0.0
 20
0.0
 30
0.0
 70
   128
 71
     9
 72
     8
 73
     6
  0
VERTEX
  5
168
  8
0
 62
   123
 10
0.0
 20
0.0
 30
0.0
 70
   128
 71
     9
 72
     7
 73
     8
  0
VERTEX
  5
169
  8
0
 62
   123
 10
0.0
 20
0.0
 30
0.0
 70
   128
 71
     5
 72
     6
 73
     8
  0
VERTEX
  5
16A
  8
0
 62
   123
 10
0.0
 20
0.0
 30
0.0
 70
   128
 71
    12
 72
     1
 73
    11
  0
VERTEX
  5
16B
  8
0
 62
   123
 10
0.0
 20
0.0
 30
0.0
 70
   128
 71
    10
 72
    13
 73
     7
  0
VERTEX
  5
16C
  8
0
 62
   123
 10
0.0
 20
0.0
 30
0.0
 70
   128
 71
    13
 72
    11
 73
     7
  0
VERTEX
  5
16D
  8
0
 62
   123
 10
0.0
 20
0.0
 30
0.0
 70
   128
 71
     7
 72
    11
 73
     1
  0
VERTEX
  5
16E
  8
0
 62
   123
 10
0.0
 20
0.0
 30
0.0
 70
   128
 71
     1
 72
    12
 73
     3
  0
VERTEX
  5
16F
  8
0
 62
   123
 10
0.0
 20
0.0
 30
0.0
 70
   128
 71
    14
 72
     3
 73
    12
  0
VERTEX
  5
170
  8
0
 62
   123
 10
0.0
 20
0.0
 30
0.0
 70
   128
 71
    17
 72
    16
 73
    15
  0
VERTEX
  5
171
  8
0
 62
   123
 10
0.0
 20
0.0
 30
0.0
 70
   128
 71
    18
 72
    15
 73
    16
  0
VERTEX
  5
172
  8
0
 62
   123
 10
0.0
 20
0.0
 30
0.0
 70
   128
 71
    17
 72
    19
 73
    16
  0
VERTEX
  5
173
  8
0
 62
   123
 10
0.0
 20
0.0
 30
0.0
 70
   128
 71
    12
 72
    20
 73
    14
  0
VERTEX
  5
174
  8
0
 62
   123
 10
0.0
 20
0.0
 30
0.0
 70
   128
 71
    14
 72
    20
 73
    19
  0
VERTEX
  5
175
  8
0
 62
   123
 10
0.0
 20
0.0
 30
0.0
 70
   128
 71
    20
 72
    16
 73
    19
  0
VERTEX
  5
176
  8
0
 62
   123
 10
0.0
 20
0.0
 30
0.0
 70
   128
 71
    22
 72
    21
 73
    11
  0
VERTEX
  5
177
  8
0
 62
   123
 10
0.0
 20
0.0
 30
0.0
 70
   128
 71
    12
 72
    11
 73
    20
  0
VERTEX
  5
178
  8
0
 62
   123
 10
0.0
 20
0.0
 30
0.0
 70
   128
 71
    13
 72
    22
 73
    11
  0
VERTEX
  5
179
  8
0
 62
   123
 10
0.0
 20
0.0
 30
0.0
 70
   128
 71
    16
 72
    20
 73
    16
  0
VERTEX
  5
17A
  8
0
 62
   123
 10
0.0
 20
0.0
 30
0.0
 70
   128
 71
    16
 72
    16
 73
    22
  0
VERTEX
  5
17B
  8
0
 62
   123
 10
0.0
 20
0.0
 30
0.0
 70
   128
 71
    20
 72
    21
 73
    16
  0
VERTEX
  5
17C
  8
0
 62
   123
 10
0.0
 20
0.0
 30
0.0
 70
   128
 71
    20
 72
    11
 73
    21
  0
VERTEX
  5
17D
  8
0
 62
   123
 10
0.0
 20
0.0
 30
0.0
 70
   128
 71
    22
 72
    16
 73
    21
  0
VERTEX
  5
17E
  8
0
 62
   123
 10
0.0
 20
0.0
 30
0.0
 70
   128
 71
    18
 72
    16
 73
    23
  0
VERTEX
  5
17F
  8
0
 62
   123
 10
0.0
 20
0.0
 30
0.0
 70
   128
 71
    13
 72
    24
 73
    22
  0
VERTEX
  5
180
  8
0
 62
   123
 10
0.0
 20
0.0
 30
0.0
 70
   128
 71
    24
 72
    23
 73
    22
  0
VERTEX
  5
181
  8
0
 62
   123
 10
0.0
 20
0.0
 30
0.0
 70
   128
 71
    22
 72
    23
 73
    16
  0
VERTEX
  5
182
  8
0
 62
   123
 10
0.0
 20
0.0
 30
0.0
 70
   128
 71
    27
 72
    26
 73
    25
  0
VERTEX
  5
183
  8
0
 62
   123
 10
0.0
 20
0.0
 30
0.0
 70
   128
 71
    13
 72
    28
 73
    24
  0
VERTEX
  5
184
  8
0
 62
   123
 10
0.0
 20
0.0
 30
0.0
 70
   128
 71
    28
 72
    29
 73
    24
  0
VERTEX
  5
185
  8
0
 62
   123
 10
0.0
 20
0.0
 30
0.0
 70
   128
 71
    29
 72
    30
 73
    24
  0
VERTEX
  5
186
  8
0
 62
   123
 10
0.0
 20
0.0
 30
0.0
 70
   128
 71
    24
 72
    30
 73
    25
  0
VERTEX
  5
187
  8
0
 62
   123
 10
0.0
 20
0.0
 30
0.0
 70
   128
 71
    30
 72
    27
 73
    25
  0
VERTEX
  5
188
  8
0
 62
   123
 10
0.0
 20
0.0
 30
0.0
 70
   128
 71
    28
 72
    13
 73
    31
  0
VERTEX
  5
189
  8
0
 62
   123
 10
0.0
 20
0.0
 30
0.0
 70
   128
 71
    13
 72
    10
 73
    31
  0
VERTEX
  5
18A
  8
0
 62
   123
 10
0.0
 20
0.0
 30
0.0
 70
   128
 71
    31
 72
    10
 73
    32
  0
VERTEX
  5
18B
  8
0
 62
   123
 10
0.0
 20
0.0
 30
0.0
 70
   128
 71
    32
 72
    10
 73
    33
  0
VERTEX
  5
18C
  8
0
 62
   123
 10
0.0
 20
0.0
 30
0.0
 70
   128
 71
    10
 72
    25
 73
    33
  0
VERTEX
  5
18D
  8
0
 62
   123
 10
0.0
 20
0.0
 30
0.0
 70
   128
 71
    33
 72
    25
 73
    26
  0
VERTEX
  5
18E
  8
0
 62
   123
 10
0.0
 20
0.0
 30
0.0
 70
   128
 71
    10
 72
     9
 73
    25
  0
VERTEX
  5
18F
  8
0
 62
   123
 10
0.0
 20
0.0
 30
0.0
 70
   128
 71
    35
 72
    34
 73
     6
  0
VERTEX
  5
190
  8
0
 62
   123
 10
0.0
 20
0.0
 30
0.0
 70
   128
 71
     6
 72
    34
 73
     9
  0
VERTEX
  5
191
  8
0
 62
   123
 10
0.0
 20
0.0
 30
0.0
 70
   128
 71
    34
 72
    25
 73
     9
  0
VERTEX
  5
192
  8
0
 62
   123
 10
0.0
 20
0.0
 30
0.0
 70
   128
 71
    36
 72
    35
 73
     4
  0
VERTEX
  5
193
  8
0
 62
   123
 10
0.0
 20
0.0
 30
0.0
 70
   128
 71
     6
 72
     4
 73
    35
  0
VERTEX
  5
194
  8
0
 62
   123
 10
0.0
 20
0.0
 30
0.0
 70
   128
 71
    39
 72
    38
 73
    37
  0
VERTEX
  5
195
  8
0
 62
   123
 10
0.0
 20
0.0
 30
0.0
 70
   128
 71
     4
 72
    40
 73
    36
  0
VERTEX
  5
196
  8
0
 62
   123
 10
0.0
 20
0.0
 30
0.0
 70
   128
 71
    36
 72
    40
 73
    38
  0
VERTEX
  5
197
  8
0
 62
   123
 10
0.0
 20
0.0
 30
0.0
 70
   128
 71
    40
 72
    37
 73
    38
  0
VERTEX
  5
198
  8
0
 62
   123
 10
0.0
 20
0.0
 30
0.0
 70
   128
 71
    37
 72
    40
 73
    41
  0
VERTEX
  5
199
  8
0
 62
   123
 10
0.0
 20
0.0
 30
0.0
 70
   128
 71
     3
 72
    41
 73
     2
  0
VERTEX
  5
19A
  8
0
 62
   123
 10
0.0
 20
0.0
 30
0.0
 70
   128
 71
     4
 72
     2
 73
     4
  0
VERTEX
  5
19B
  8
0
 62
   123
 10
0.0
 20
0.0
 30
0.0
 70
   128
 71
    40
 72
    42
 73
    41
  0
VERTEX
  5
19C
  8
0
 62
   123
 10
0.0
 20
0.0
 30
0.0
 70
   128
 71
     2
 72
    42
 73
     4
  0
VERTEX
  5
19D
  8
0
 62
   123
 10
0.0
 20
0.0
 30
0.0
 70
   128
 71
    40
 72
     4
 73
     4
  0
VERTEX
  5
19E
  8
0
 62
   123
 10
0.0
 20
0.0
 30
0.0
 70
   128
 71
    40
 72
     4
 73
    42
  0
VERTEX
  5
19F
  8
0
 62
   123
 10
0.0
 20
0.0
 30
0.0
 70
   128
 71
     2
 72
    41
 73
    42
  0
VERTEX
  5
1A0
  8
0
 62
   123
 10
0.0
 20
0.0
 30
0.0
 70
   128
 71
    37
 72
    41
 73
    43
  0
VERTEX
  5
1A1
  8
0
 62
   123
 10
0.0
 20
0.0
 30
0.0
 70
   128
 71
    14
 72
    44
 73
     3
  0
VERTEX
  5
1A2
  8
0
 62
   123
 10
0.0
 20
0.0
 30
0.0
 70
   128
 71
     3
 72
    44
 73
    41
  0
VERTEX
  5
1A3
  8
0
 62
   123
 10
0.0
 20
0.0
 30
0.0
 70
   128
 71
    44
 72
    43
 73
    41
  0
VERTEX
  5
1A4
  8
0
 62
   123
 10
0.0
 20
0.0
 30
0.0
 70
   128
 71
    37
 72
    43
 73
    39
  0
VERTEX
  5
1A5
  8
0
 62
   123
 10
0.0
 20
0.0
 30
0.0
 70
   128
 71
    45
 72
    39
 73
    43
  0
VERTEX
  5
1A6
  8
0
 62
   123
 10
0.0
 20
0.0
 30
0.0
 70
   128
 71
    43
 72
    46
 73
    45
  0
VERTEX
  5
1A7
  8
0
 62
   123
 10
0.0
 20
0.0
 30
0.0
 70
   128
 71
    15
 72
    47
 73
    17
  0
VERTEX
  5
1A8
  8
0
 62
   123
 10
0.0
 20
0.0
 30
0.0
 70
   128
 71
    17
 72
    47
 73
    46
  0
VERTEX
  5
1A9
  8
0
 62
   123
 10
0.0
 20
0.0
 30
0.0
 70
   128
 71
    47
 72
    45
 73
    46
  0
VERTEX
  5
1AA
  8
0
 62
   123
 10
0.0
 20
0.0
 30
0.0
 70
   128
 71
    43
 72
    44
 73
    46
  0
VERTEX
  5
1AB
  8
0
 62
   123
 10
0.0
 20
0.0
 30
0.0
 70
   128
 71
    17
 72
    17
 73
    19
  0
VERTEX
  5
1AC
  8
0
 62
   123
 10
0.0
 20
0.0
 30
0.0
 70
   128
 71
    14
 72
    19
 73
    44
  0
VERTEX
  5
1AD
  8
0
 62
   123
 10
0.0
 20
0.0
 30
0.0
 70
   128
 71
    19
 72
    48
 73
    44
  0
VERTEX
  5
1AE
  8
0
 62
   123
 10
0.0
 20
0.0
 30
0.0
 70
   128
 71
    19
 72
    17
 73
    48
  0
VERTEX
  5
1AF
  8
0
 62
   123
 10
0.0
 20
0.0
 30
0.0
 70
   128
 71
    46
 72
    17
 73
    17
  0
VERTEX
  5
1B0
  8
0
 62
   123
 10
0.0
 20
0.0
 30
0.0
 70
   128
 71
    46
 72
    48
 73
    17
  0
VERTEX
  5
1B1
  8
0
 62
   123
 10
0.0
 20
0.0
 30
0.0
 70
   128
 71
    46
 72
    44
 73
    48
  0
SEQEND
  5
1B2
  8
0
  0
ENDBLK
  5
1B5
  8
0
  0
BLOCK
  8
0
  2
110805_ESSENTIAL_BATHHANDL
 70
     0
 10
0.0
 20
0.0
 30
0.0
  3
110805_ESSENTIAL_BATHHANDL
  1

  0
POLYLINE
  5
1B7
  8
0
 62
   123
 66
     1
 10
0.0
 20
0.0
 30
0.0
 70
    64
 71
    24
 72
    24
  0
VERTEX
  5
1B8
  8
0
 10
-0.0140000004321337
 20
-0.1879999935626984
 30
-0.0074999998323619
 70
   192
  0
VERTEX
  5
1B9
  8
0
 10
-0.0147071070969105
 20
0.1879999935626984
 30
-0.0072071067988873
 70
   192
  0
VERTEX
  5
1BA
  8
0
 10
-0.0140000004321337
 20
0.1879999935626984
 30
-0.0074999998323619
 70
   192
  0
VERTEX
  5
1BB
  8
0
 10
-0.0149999996647239
 20
-0.1879999935626984
 30
-0.0065000001341105
 70
   192
  0
VERTEX
  5
1BC
  8
0
 10
-0.0149999996647239
 20
0.1879999935626984
 30
-0.0065000001341105
 70
   192
  0
VERTEX
  5
1BD
  8
0
 10
-0.0147071070969105
 20
-0.1879999935626984
 30
-0.0072071067988873
 70
   192
  0
VERTEX
  5
1BE
  8
0
 10
0.0140000004321337
 20
0.1879999935626984
 30
-0.0074999998323619
 70
   192
  0
VERTEX
  5
1BF
  8
0
 10
0.0140000004321337
 20
-0.1879999935626984
 30
-0.0074999998323619
 70
   192
  0
VERTEX
  5
1C0
  8
0
 10
0.0149999996647239
 20
0.1879999935626984
 30
-0.0065000001341105
 70
   192
  0
VERTEX
  5
1C1
  8
0
 10
0.0147071070969105
 20
-0.1879999935626984
 30
-0.0072071067988873
 70
   192
  0
VERTEX
  5
1C2
  8
0
 10
0.0147071070969105
 20
0.1879999935626984
 30
-0.0072071067988873
 70
   192
  0
VERTEX
  5
1C3
  8
0
 10
0.0149999996647239
 20
-0.1879999935626984
 30
-0.0065000001341105
 70
   192
  0
VERTEX
  5
1C4
  8
0
 10
0.0149999996647239
 20
0.1879999935626984
 30
0.0065000001341105
 70
   192
  0
VERTEX
  5
1C5
  8
0
 10
0.0149999996647239
 20
-0.1879999935626984
 30
0.0065000001341105
 70
   192
  0
VERTEX
  5
1C6
  8
0
 10
0.0140000004321337
 20
0.1879999935626984
 30
0.0074999998323619
 70
   192
  0
VERTEX
  5
1C7
  8
0
 10
0.0147071070969105
 20
-0.1879999935626984
 30
0.0072071067988873
 70
   192
  0
VERTEX
  5
1C8
  8
0
 10
0.0147071070969105
 20
0.1879999935626984
 30
0.0072071067988873
 70
   192
  0
VERTEX
  5
1C9
  8
0
 10
0.0140000004321337
 20
-0.1879999935626984
 30
0.0074999998323619
 70
   192
  0
VERTEX
  5
1CA
  8
0
 10
-0.0140000004321337
 20
0.1879999935626984
 30
0.0074999998323619
 70
   192
  0
VERTEX
  5
1CB
  8
0
 10
-0.0140000004321337
 20
-0.1879999935626984
 30
0.0074999998323619
 70
   192
  0
VERTEX
  5
1CC
  8
0
 10
-0.0149999996647239
 20
-0.1879999935626984
 30
0.0065000001341105
 70
   192
  0
VERTEX
  5
1CD
  8
0
 10
-0.0147071070969105
 20
0.1879999935626984
 30
0.0072071067988873
 70
   192
  0
VERTEX
  5
1CE
  8
0
 10
-0.0149999996647239
 20
0.1879999935626984
 30
0.0065000001341105
 70
   192
  0
VERTEX
  5
1CF
  8
0
 10
-0.0147071070969105
 20
-0.1879999935626984
 30
0.0072071067988873
 70
   192
  0
VERTEX
  5
1D0
  8
0
 62
   123
 10
0.0
 20
0.0
 30
0.0
 70
   128
 71
     3
 72
     2
 73
     1
  0
VERTEX
  5
1D1
  8
0
 62
   123
 10
0.0
 20
0.0
 30
0.0
 70
   128
 71
     5
 72
     4
 73
     2
  0
VERTEX
  5
1D2
  8
0
 62
   123
 10
0.0
 20
0.0
 30
0.0
 70
   128
 71
     4
 72
     6
 73
     2
  0
VERTEX
  5
1D3
  8
0
 62
   123
 10
0.0
 20
0.0
 30
0.0
 70
   128
 71
     6
 72
     1
 73
     2
  0
VERTEX
  5
1D4
  8
0
 62
   123
 10
0.0
 20
0.0
 30
0.0
 70
   128
 71
     3
 72
     1
 73
     7
  0
VERTEX
  5
1D5
  8
0
 62
   123
 10
0.0
 20
0.0
 30
0.0
 70
   128
 71
     8
 72
     7
 73
     1
  0
VERTEX
  5
1D6
  8
0
 62
   123
 10
0.0
 20
0.0
 30
0.0
 70
   128
 71
    11
 72
    10
 73
     9
  0
VERTEX
  5
1D7
  8
0
 62
   123
 10
0.0
 20
0.0
 30
0.0
 70
   128
 71
     7
 72
     8
 73
    11
  0
VERTEX
  5
1D8
  8
0
 62
   123
 10
0.0
 20
0.0
 30
0.0
 70
   128
 71
     8
 72
    10
 73
    11
  0
VERTEX
  5
1D9
  8
0
 62
   123
 10
0.0
 20
0.0
 30
0.0
 70
   128
 71
    12
 72
     9
 73
    10
  0
VERTEX
  5
1DA
  8
0
 62
   123
 10
0.0
 20
0.0
 30
0.0
 70
   128
 71
     9
 72
    12
 73
    13
  0
VERTEX
  5
1DB
  8
0
 62
   123
 10
0.0
 20
0.0
 30
0.0
 70
   128
 71
    14
 72
    13
 73
    12
  0
VERTEX
  5
1DC
  8
0
 62
   123
 10
0.0
 20
0.0
 30
0.0
 70
   128
 71
    17
 72
    16
 73
    15
  0
VERTEX
  5
1DD
  8
0
 62
   123
 10
0.0
 20
0.0
 30
0.0
 70
   128
 71
    13
 72
    14
 73
    17
  0
VERTEX
  5
1DE
  8
0
 62
   123
 10
0.0
 20
0.0
 30
0.0
 70
   128
 71
    14
 72
    16
 73
    17
  0
VERTEX
  5
1DF
  8
0
 62
   123
 10
0.0
 20
0.0
 30
0.0
 70
   128
 71
    18
 72
    15
 73
    16
  0
VERTEX
  5
1E0
  8
0
 62
   123
 10
0.0
 20
0.0
 30
0.0
 70
   128
 71
    15
 72
    18
 73
    19
  0
VERTEX
  5
1E1
  8
0
 62
   123
 10
0.0
 20
0.0
 30
0.0
 70
   128
 71
    20
 72
    19
 73
    18
  0
VERTEX
  5
1E2
  8
0
 62
   123
 10
0.0
 20
0.0
 30
0.0
 70
   128
 71
    23
 72
    22
 73
    21
  0
VERTEX
  5
1E3
  8
0
 62
   123
 10
0.0
 20
0.0
 30
0.0
 70
   128
 71
    19
 72
    20
 73
    22
  0
VERTEX
  5
1E4
  8
0
 62
   123
 10
0.0
 20
0.0
 30
0.0
 70
   128
 71
    20
 72
    24
 73
    22
  0
VERTEX
  5
1E5
  8
0
 62
   123
 10
0.0
 20
0.0
 30
0.0
 70
   128
 71
    24
 72
    21
 73
    22
  0
VERTEX
  5
1E6
  8
0
 62
   123
 10
0.0
 20
0.0
 30
0.0
 70
   128
 71
    23
 72
    21
 73
     5
  0
VERTEX
  5
1E7
  8
0
 62
   123
 10
0.0
 20
0.0
 30
0.0
 70
   128
 71
     4
 72
     5
 73
    21
  0
SEQEND
  5
1E8
  8
0
 62
   123
  0
ENDBLK
  5
1EB
  8
0
  0
BLOCK
  8
0
  2
110805_ESSENTIAL_BATHHAND0
 70
     0
 10
0.0
 20
0.0
 30
0.0
  3
110805_ESSENTIAL_BATHHAND0
  1

  0
POLYLINE
  5
1ED
  8
0
 66
     1
 10
0.0
 20
0.0
 30
0.0
 70
    64
 71
    58
 72
   102
  0
VERTEX
  5
1EE
  8
0
 10
-0.0509999990463257
 20
-0.1940000057220459
 30
-0.0175000000745058
 70
   192
  0
VERTEX
  5
1EF
  8
0
 10
-0.0579999983310699
 20
-0.1947071105241776
 30
-0.0172071065753698
 70
   192
  0
VERTEX
  5
1F0
  8
0
 10
-0.0579999983310699
 20
-0.1940000057220459
 30
-0.0175000000745058
 70
   192
  0
VERTEX
  5
1F1
  8
0
 10
-0.0579999983310699
 20
-0.1949999928474426
 30
-0.016499999910593
 70
   192
  0
VERTEX
  5
1F2
  8
0
 10
-0.0509999990463257
 20
-0.1947071105241776
 30
-0.0172071065753698
 70
   192
  0
VERTEX
  5
1F3
  8
0
 10
-0.0509999990463257
 20
-0.1949999928474426
 30
-0.016499999910593
 70
   192
  0
VERTEX
  5
1F4
  8
0
 10
-0.0502918101847172
 20
-0.1940000057220459
 30
-0.017206022515893
 70
   192
  0
VERTEX
  5
1F5
  8
0
 10
-0.0502832643687725
 20
-0.1946973502635956
 30
-0.016499999910593
 70
   192
  0
VERTEX
  5
1F6
  8
0
 10
-0.05002810806036
 20
-0.1942347139120102
 30
-0.0165183376520872
 70
   192
  0
VERTEX
  5
1F7
  8
0
 10
-0.0500279366970062
 20
-0.1942347139120102
 30
-0.016499999910593
 70
   192
  0
VERTEX
  5
1F8
  8
0
 10
-0.0500001683831215
 20
-0.1940000057220459
 30
-0.0165183376520872
 70
   192
  0
VERTEX
  5
1F9
  8
0
 10
-0.0504996180534363
 20
-0.1945003867149353
 30
-0.0172065645456314
 70
   192
  0
VERTEX
  5
1FA
  8
0
 10
-0.0502842850983143
 20
-0.1940000057220459
 30
0.0171983931213617
 70
   192
  0
VERTEX
  5
1FB
  8
0
 10
-0.0509999990463257
 20
-0.1459999978542328
 30
0.0175000000745058
 70
   192
  0
VERTEX
  5
1FC
  8
0
 10
-0.0509999990463257
 20
-0.1940000057220459
 30
0.0175000000745058
 70
   192
  0
VERTEX
  5
1FD
  8
0
 10
-0.0502842850983143
 20
-0.1459999978542328
 30
0.0171983931213617
 70
   192
  0
VERTEX
  5
1FE
  8
0
 10
-0.0500190742313862
 20
-0.1940000057220459
 30
0.016694376245141
 70
   192
  0
VERTEX
  5
1FF
  8
0
 10
-0.0500190742313862
 20
-0.1459999978542328
 30
0.016694376245141
 70
   192
  0
VERTEX
  5
200
  8
0
 10
-0.0500000007450581
 20
-0.1459999978542328
 30
0.016694376245141
 70
   192
  0
VERTEX
  5
201
  8
0
 10
-0.0500000007450581
 20
-0.1570000052452087
 30
0.010499999858439
 70
   192
  0
VERTEX
  5
202
  8
0
 10
-0.0500000007450581
 20
-0.1459999978542328
 30
0.016499999910593
 70
   192
  0
VERTEX
  5
203
  8
0
 10
-0.0500000007450581
 20
-0.1519999951124191
 30
0.0054999999701977
 70
   192
  0
VERTEX
  5
204
  8
0
 10
-0.0500000007450581
 20
-0.1459999978542328
 30
-0.016499999910593
 70
   192
  0
VERTEX
  5
205
  8
0
 10
-0.0500000007450581
 20
-0.1519999951124191
 30
-0.0054999999701977
 70
   192
  0
VERTEX
  5
206
  8
0
 10
-0.0500000007450581
 20
-0.1570000052452087
 30
-0.010499999858439
 70
   192
  0
VERTEX
  5
207
  8
0
 10
-0.0500000007450581
 20
-0.1942347139120102
 30
-0.0165183376520872
 70
   192
  0
VERTEX
  5
208
  8
0
 10
-0.0500000007450581
 20
-0.1459999978542328
 30
-0.0165183376520872
 70
   192
  0
VERTEX
  5
209
  8
0
 10
-0.0500000007450581
 20
-0.1829999983310699
 30
-0.010499999858439
 70
   192
  0
VERTEX
  5
20A
  8
0
 10
-0.0500000007450581
 20
-0.1879999935626984
 30
-0.0054999999701977
 70
   192
  0
VERTEX
  5
20B
  8
0
 10
-0.0500000007450581
 20
-0.1942347139120102
 30
0.016694376245141
 70
   192
  0
VERTEX
  5
20C
  8
0
 10
-0.0500000007450581
 20
-0.1879999935626984
 30
0.0054999999701977
 70
   192
  0
VERTEX
  5
20D
  8
0
 10
-0.0500000007450581
 20
-0.1829999983310699
 30
0.010499999858439
 70
   192
  0
VERTEX
  5
20E
  8
0
 10
-0.0509999990463257
 20
-0.1449999958276749
 30
0.016499999910593
 70
   192
  0
VERTEX
  5
20F
  8
0
 10
-0.050292894244194
 20
-0.1452928930521011
 30
-0.016499999910593
 70
   192
  0
VERTEX
  5
210
  8
0
 10
-0.0509999990463257
 20
-0.1449999958276749
 30
-0.016499999910593
 70
   192
  0
VERTEX
  5
211
  8
0
 10
-0.050292894244194
 20
-0.1452928930521011
 30
0.016499999910593
 70
   192
  0
VERTEX
  5
212
  8
0
 10
-0.0504969470202923
 20
-0.1454969495534897
 30
0.0172027628868818
 70
   192
  0
VERTEX
  5
213
  8
0
 10
-0.0509999990463257
 20
-0.1452928930521011
 30
0.0172071065753698
 70
   192
  0
VERTEX
  5
214
  8
0
 10
-0.0579999983310699
 20
-0.1449999958276749
 30
0.016499999910593
 70
   192
  0
VERTEX
  5
215
  8
0
 10
-0.0579999983310699
 20
-0.1452928930521011
 30
0.0172071065753698
 70
   192
  0
VERTEX
  5
216
  8
0
 10
-0.0579999983310699
 20
-0.1459999978542328
 30
0.0175000000745058
 70
   192
  0
VERTEX
  5
217
  8
0
 10
-0.0579999983310699
 20
-0.1940000057220459
 30
0.0175000000745058
 70
   192
  0
VERTEX
  5
218
  8
0
 10
-0.0509999990463257
 20
-0.1947071105241776
 30
0.0172071065753698
 70
   192
  0
VERTEX
  5
219
  8
0
 10
-0.0509999990463257
 20
-0.1949999928474426
 30
0.016499999910593
 70
   192
  0
VERTEX
  5
21A
  8
0
 10
-0.0579999983310699
 20
-0.1947071105241776
 30
0.0172071065753698
 70
   192
  0
VERTEX
  5
21B
  8
0
 10
-0.0579999983310699
 20
-0.1949999928474426
 30
0.016499999910593
 70
   192
  0
VERTEX
  5
21C
  8
0
 10
-0.0500475689768791
 20
-0.1942347139120102
 30
0.016694376245141
 70
   192
  0
VERTEX
  5
21D
  8
0
 10
-0.0502832643687725
 20
-0.1946973502635956
 30
0.016499999910593
 70
   192
  0
VERTEX
  5
21E
  8
0
 10
-0.0500279366970062
 20
-0.1942347139120102
 30
0.016499999910593
 70
   192
  0
VERTEX
  5
21F
  8
0
 10
-0.0504969470202923
 20
-0.194503054022789
 30
0.0172027628868818
 70
   192
  0
VERTEX
  5
220
  8
0
 10
-0.0579999983310699
 20
-0.1459999978542328
 30
-0.0175000000745058
 70
   192
  0
VERTEX
  5
221
  8
0
 10
-0.0579999983310699
 20
-0.1449999958276749
 30
-0.016499999910593
 70
   192
  0
VERTEX
  5
222
  8
0
 10
-0.0579999983310699
 20
-0.1452928930521011
 30
-0.0172071065753698
 70
   192
  0
VERTEX
  5
223
  8
0
 10
-0.0509999990463257
 20
-0.1452928930521011
 30
-0.0172071065753698
 70
   192
  0
VERTEX
  5
224
  8
0
 10
-0.0509999990463257
 20
-0.1459999978542328
 30
-0.0175000000745058
 70
   192
  0
VERTEX
  5
225
  8
0
 10
-0.0502918101847172
 20
-0.1459999978542328
 30
-0.017206022515893
 70
   192
  0
VERTEX
  5
226
  8
0
 10
-0.0500001683831215
 20
-0.1459999978542328
 30
-0.0165183376520872
 70
   192
  0
VERTEX
  5
227
  8
0
 10
-0.0504996180534363
 20
-0.1454996168613434
 30
-0.0172065645456314
 70
   192
  0
VERTEX
  5
228
  8
0
 62
   123
 10
0.0
 20
0.0
 30
0.0
 70
   128
 71
     3
 72
     2
 73
     1
  0
VERTEX
  5
229
  8
0
 62
   123
 10
0.0
 20
0.0
 30
0.0
 70
   128
 71
     6
 72
     5
 73
     4
  0
VERTEX
  5
22A
  8
0
 62
   123
 10
0.0
 20
0.0
 30
0.0
 70
   128
 71
     4
 72
     5
 73
     2
  0
VERTEX
  5
22B
  8
0
 62
   123
 10
0.0
 20
0.0
 30
0.0
 70
   128
 71
     5
 72
     1
 73
     2
  0
VERTEX
  5
22C
  8
0
 62
   123
 10
0.0
 20
0.0
 30
0.0
 70
   128
 71
     1
 72
     1
 73
     7
  0
VERTEX
  5
22D
  8
0
 62
   123
 10
0.0
 20
0.0
 30
0.0
 70
   128
 71
     6
 72
     8
 73
     5
  0
VERTEX
  5
22E
  8
0
 62
   123
 10
0.0
 20
0.0
 30
0.0
 70
   128
 71
    10
 72
     9
 73
     8
  0
VERTEX
  5
22F
  8
0
 62
   123
 10
0.0
 20
0.0
 30
0.0
 70
   128
 71
    11
 72
     7
 73
     9
  0
VERTEX
  5
230
  8
0
 62
   123
 10
0.0
 20
0.0
 30
0.0
 70
   128
 71
     9
 72
     7
 73
     8
  0
VERTEX
  5
231
  8
0
 62
   123
 10
0.0
 20
0.0
 30
0.0
 70
   128
 71
     7
 72
    12
 73
     8
  0
VERTEX
  5
232
  8
0
 62
   123
 10
0.0
 20
0.0
 30
0.0
 70
   128
 71
     7
 72
     1
 73
    12
  0
VERTEX
  5
233
  8
0
 62
   123
 10
0.0
 20
0.0
 30
0.0
 70
   128
 71
     5
 72
     1
 73
     1
  0
VERTEX
  5
234
  8
0
 62
   123
 10
0.0
 20
0.0
 30
0.0
 70
   128
 71
     5
 72
    12
 73
     1
  0
VERTEX
  5
235
  8
0
 62
   123
 10
0.0
 20
0.0
 30
0.0
 70
   128
 71
     5
 72
     8
 73
    12
  0
VERTEX
  5
236
  8
0
 62
   123
 10
0.0
 20
0.0
 30
0.0
 70
   128
 71
    15
 72
    14
 73
    13
  0
VERTEX
  5
237
  8
0
 62
   123
 10
0.0
 20
0.0
 30
0.0
 70
   128
 71
    18
 72
    17
 73
    16
  0
VERTEX
  5
238
  8
0
 62
   123
 10
0.0
 20
0.0
 30
0.0
 70
   128
 71
    17
 72
    13
 73
    16
  0
VERTEX
  5
239
  8
0
 62
   123
 10
0.0
 20
0.0
 30
0.0
 70
   128
 71
    16
 72
    13
 73
    14
  0
VERTEX
  5
23A
  8
0
 62
   123
 10
0.0
 20
0.0
 30
0.0
 70
   128
 71
    21
 72
    20
 73
    19
  0
VERTEX
  5
23B
  8
0
 62
   123
 10
0.0
 20
0.0
 30
0.0
 70
   128
 71
    21
 72
    23
 73
    22
  0
VERTEX
  5
23C
  8
0
 62
   123
 10
0.0
 20
0.0
 30
0.0
 70
   128
 71
    22
 72
    23
 73
    24
  0
VERTEX
  5
23D
  8
0
 62
   123
 10
0.0
 20
0.0
 30
0.0
 70
   128
 71
    24
 72
    23
 73
    25
  0
VERTEX
  5
23E
  8
0
 62
   123
 10
0.0
 20
0.0
 30
0.0
 70
   128
 71
    22
 72
    20
 73
    21
  0
VERTEX
  5
23F
  8
0
 62
   123
 10
0.0
 20
0.0
 30
0.0
 70
   128
 71
    27
 72
    26
 73
    23
  0
VERTEX
  5
240
  8
0
 62
   123
 10
0.0
 20
0.0
 30
0.0
 70
   128
 71
    23
 72
    26
 73
    25
  0
VERTEX
  5
241
  8
0
 62
   123
 10
0.0
 20
0.0
 30
0.0
 70
   128
 71
    25
 72
    26
 73
    28
  0
VERTEX
  5
242
  8
0
 62
   123
 10
0.0
 20
0.0
 30
0.0
 70
   128
 71
    28
 72
    26
 73
    29
  0
VERTEX
  5
243
  8
0
 62
   123
 10
0.0
 20
0.0
 30
0.0
 70
   128
 71
    26
 72
    30
 73
    29
  0
VERTEX
  5
244
  8
0
 62
   123
 10
0.0
 20
0.0
 30
0.0
 70
   128
 71
    29
 72
    30
 73
    31
  0
VERTEX
  5
245
  8
0
 62
   123
 10
0.0
 20
0.0
 30
0.0
 70
   128
 71
    31
 72
    30
 73
    32
  0
VERTEX
  5
246
  8
0
 62
   123
 10
0.0
 20
0.0
 30
0.0
 70
   128
 71
    30
 72
    19
 73
    32
  0
VERTEX
  5
247
  8
0
 62
   123
 10
0.0
 20
0.0
 30
0.0
 70
   128
 71
    32
 72
    19
 73
    20
  0
VERTEX
  5
248
  8
0
 62
   123
 10
0.0
 20
0.0
 30
0.0
 70
   128
 71
    35
 72
    34
 73
    33
  0
VERTEX
  5
249
  8
0
 62
   123
 10
0.0
 20
0.0
 30
0.0
 70
   128
 71
    23
 72
    21
 73
    34
  0
VERTEX
  5
24A
  8
0
 62
   123
 10
0.0
 20
0.0
 30
0.0
 70
   128
 71
    21
 72
    36
 73
    34
  0
VERTEX
  5
24B
  8
0
 62
   123
 10
0.0
 20
0.0
 30
0.0
 70
   128
 71
    36
 72
    33
 73
    34
  0
VERTEX
  5
24C
  8
0
 62
   123
 10
0.0
 20
0.0
 30
0.0
 70
   128
 71
    16
 72
    37
 73
    36
  0
VERTEX
  5
24D
  8
0
 62
   123
 10
0.0
 20
0.0
 30
0.0
 70
   128
 71
    33
 72
    36
 73
    38
  0
VERTEX
  5
24E
  8
0
 62
   123
 10
0.0
 20
0.0
 30
0.0
 70
   128
 71
    21
 72
    18
 73
    36
  0
VERTEX
  5
24F
  8
0
 62
   123
 10
0.0
 20
0.0
 30
0.0
 70
   128
 71
    14
 72
    38
 73
    14
  0
VERTEX
  5
250
  8
0
 62
   123
 10
0.0
 20
0.0
 30
0.0
 70
   128
 71
    14
 72
    14
 73
    16
  0
VERTEX
  5
251
  8
0
 62
   123
 10
0.0
 20
0.0
 30
0.0
 70
   128
 71
    18
 72
    16
 73
    36
  0
VERTEX
  5
252
  8
0
 62
   123
 10
0.0
 20
0.0
 30
0.0
 70
   128
 71
    38
 72
    37
 73
    14
  0
VERTEX
  5
253
  8
0
 62
   123
 10
0.0
 20
0.0
 30
0.0
 70
   128
 71
    38
 72
    36
 73
    37
  0
VERTEX
  5
254
  8
0
 62
   123
 10
0.0
 20
0.0
 30
0.0
 70
   128
 71
    16
 72
    14
 73
    37
  0
VERTEX
  5
255
  8
0
 62
   123
 10
0.0
 20
0.0
 30
0.0
 70
   128
 71
    33
 72
    38
 73
    39
  0
VERTEX
  5
256
  8
0
 62
   123
 10
0.0
 20
0.0
 30
0.0
 70
   128
 71
    41
 72
    40
 73
    14
  0
VERTEX
  5
257
  8
0
 62
   123
 10
0.0
 20
0.0
 30
0.0
 70
   128
 71
    14
 72
    40
 73
    38
  0
VERTEX
  5
258
  8
0
 62
   123
 10
0.0
 20
0.0
 30
0.0
 70
   128
 71
    40
 72
    39
 73
    38
  0
VERTEX
  5
259
  8
0
 62
   123
 10
0.0
 20
0.0
 30
0.0
 70
   128
 71
    42
 72
    41
 73
    15
  0
VERTEX
  5
25A
  8
0
 62
   123
 10
0.0
 20
0.0
 30
0.0
 70
   128
 71
    14
 72
    15
 73
    41
  0
VERTEX
  5
25B
  8
0
 62
   123
 10
0.0
 20
0.0
 30
0.0
 70
   128
 71
    15
 72
    43
 73
    42
  0
VERTEX
  5
25C
  8
0
 62
   123
 10
0.0
 20
0.0
 30
0.0
 70
   128
 71
    46
 72
    45
 73
    44
  0
VERTEX
  5
25D
  8
0
 62
   123
 10
0.0
 20
0.0
 30
0.0
 70
   128
 71
    44
 72
    45
 73
    43
  0
VERTEX
  5
25E
  8
0
 62
   123
 10
0.0
 20
0.0
 30
0.0
 70
   128
 71
    45
 72
    42
 73
    43
  0
VERTEX
  5
25F
  8
0
 62
   123
 10
0.0
 20
0.0
 30
0.0
 70
   128
 71
    49
 72
    48
 73
    47
  0
VERTEX
  5
260
  8
0
 62
   123
 10
0.0
 20
0.0
 30
0.0
 70
   128
 71
    17
 72
    47
 73
    13
  0
VERTEX
  5
261
  8
0
 62
   123
 10
0.0
 20
0.0
 30
0.0
 70
   128
 71
    44
 72
    43
 73
    48
  0
VERTEX
  5
262
  8
0
 62
   123
 10
0.0
 20
0.0
 30
0.0
 70
   128
 71
    15
 72
    13
 73
    15
  0
VERTEX
  5
263
  8
0
 62
   123
 10
0.0
 20
0.0
 30
0.0
 70
   128
 71
    47
 72
    48
 73
    13
  0
VERTEX
  5
264
  8
0
 62
   123
 10
0.0
 20
0.0
 30
0.0
 70
   128
 71
    13
 72
    48
 73
    50
  0
VERTEX
  5
265
  8
0
 62
   123
 10
0.0
 20
0.0
 30
0.0
 70
   128
 71
    43
 72
    15
 73
    50
  0
VERTEX
  5
266
  8
0
 62
   123
 10
0.0
 20
0.0
 30
0.0
 70
   128
 71
    43
 72
    15
 73
    15
  0
VERTEX
  5
267
  8
0
 62
   123
 10
0.0
 20
0.0
 30
0.0
 70
   128
 71
    13
 72
    50
 73
    15
  0
VERTEX
  5
268
  8
0
 62
   123
 10
0.0
 20
0.0
 30
0.0
 70
   128
 71
    43
 72
    50
 73
    48
  0
VERTEX
  5
269
  8
0
 62
   123
 10
0.0
 20
0.0
 30
0.0
 70
   128
 71
     6
 72
    44
 73
     8
  0
VERTEX
  5
26A
  8
0
 62
   123
 10
0.0
 20
0.0
 30
0.0
 70
   128
 71
    10
 72
     8
 73
    49
  0
VERTEX
  5
26B
  8
0
 62
   123
 10
0.0
 20
0.0
 30
0.0
 70
   128
 71
    49
 72
     8
 73
    48
  0
VERTEX
  5
26C
  8
0
 62
   123
 10
0.0
 20
0.0
 30
0.0
 70
   128
 71
    48
 72
     8
 73
    44
  0
VERTEX
  5
26D
  8
0
 62
   123
 10
0.0
 20
0.0
 30
0.0
 70
   128
 71
    44
 72
     6
 73
    46
  0
VERTEX
  5
26E
  8
0
 62
   123
 10
0.0
 20
0.0
 30
0.0
 70
   128
 71
     4
 72
    46
 73
     6
  0
VERTEX
  5
26F
  8
0
 62
   123
 10
0.0
 20
0.0
 30
0.0
 70
   128
 71
     4
 72
     3
 73
    46
  0
VERTEX
  5
270
  8
0
 62
   123
 10
0.0
 20
0.0
 30
0.0
 70
   128
 71
    53
 72
    52
 73
    51
  0
VERTEX
  5
271
  8
0
 62
   123
 10
0.0
 20
0.0
 30
0.0
 70
   128
 71
     2
 72
     3
 73
     4
  0
VERTEX
  5
272
  8
0
 62
   123
 10
0.0
 20
0.0
 30
0.0
 70
   128
 71
    45
 72
    46
 73
    42
  0
VERTEX
  5
273
  8
0
 62
   123
 10
0.0
 20
0.0
 30
0.0
 70
   128
 71
    40
 72
    41
 73
    39
  0
VERTEX
  5
274
  8
0
 62
   123
 10
0.0
 20
0.0
 30
0.0
 70
   128
 71
    39
 72
    41
 73
    52
  0
VERTEX
  5
275
  8
0
 62
   123
 10
0.0
 20
0.0
 30
0.0
 70
   128
 71
    41
 72
    42
 73
    52
  0
VERTEX
  5
276
  8
0
 62
   123
 10
0.0
 20
0.0
 30
0.0
 70
   128
 71
    52
 72
    42
 73
    51
  0
VERTEX
  5
277
  8
0
 62
   123
 10
0.0
 20
0.0
 30
0.0
 70
   128
 71
    51
 72
    42
 73
     3
  0
VERTEX
  5
278
  8
0
 62
   123
 10
0.0
 20
0.0
 30
0.0
 70
   128
 71
    42
 72
    46
 73
     3
  0
VERTEX
  5
279
  8
0
 62
   123
 10
0.0
 20
0.0
 30
0.0
 70
   128
 71
    39
 72
    52
 73
    33
  0
VERTEX
  5
27A
  8
0
 62
   123
 10
0.0
 20
0.0
 30
0.0
 70
   128
 71
    35
 72
    33
 73
    52
  0
VERTEX
  5
27B
  8
0
 62
   123
 10
0.0
 20
0.0
 30
0.0
 70
   128
 71
    52
 72
    53
 73
    35
  0
VERTEX
  5
27C
  8
0
 62
   123
 10
0.0
 20
0.0
 30
0.0
 70
   128
 71
    55
 72
    54
 73
    51
  0
VERTEX
  5
27D
  8
0
 62
   123
 10
0.0
 20
0.0
 30
0.0
 70
   128
 71
    51
 72
    54
 73
    53
  0
VERTEX
  5
27E
  8
0
 62
   123
 10
0.0
 20
0.0
 30
0.0
 70
   128
 71
    54
 72
    35
 73
    53
  0
VERTEX
  5
27F
  8
0
 62
   123
 10
0.0
 20
0.0
 30
0.0
 70
   128
 71
     1
 72
    55
 73
     3
  0
VERTEX
  5
280
  8
0
 62
   123
 10
0.0
 20
0.0
 30
0.0
 70
   128
 71
    51
 72
     3
 73
    55
  0
VERTEX
  5
281
  8
0
 62
   123
 10
0.0
 20
0.0
 30
0.0
 70
   128
 71
     1
 72
     7
 73
    55
  0
VERTEX
  5
282
  8
0
 62
   123
 10
0.0
 20
0.0
 30
0.0
 70
   128
 71
    57
 72
    56
 73
    11
  0
VERTEX
  5
283
  8
0
 62
   123
 10
0.0
 20
0.0
 30
0.0
 70
   128
 71
    11
 72
    56
 73
     7
  0
VERTEX
  5
284
  8
0
 62
   123
 10
0.0
 20
0.0
 30
0.0
 70
   128
 71
    56
 72
    55
 73
     7
  0
VERTEX
  5
285
  8
0
 62
   123
 10
0.0
 20
0.0
 30
0.0
 70
   128
 71
    56
 72
    58
 73
    55
  0
VERTEX
  5
286
  8
0
 62
   123
 10
0.0
 20
0.0
 30
0.0
 70
   128
 71
    35
 72
    54
 73
    34
  0
VERTEX
  5
287
  8
0
 62
   123
 10
0.0
 20
0.0
 30
0.0
 70
   128
 71
    55
 72
    56
 73
    55
  0
VERTEX
  5
288
  8
0
 62
   123
 10
0.0
 20
0.0
 30
0.0
 70
   128
 71
    23
 72
    34
 73
    57
  0
VERTEX
  5
289
  8
0
 62
   123
 10
0.0
 20
0.0
 30
0.0
 70
   128
 71
    55
 72
    55
 73
    54
  0
VERTEX
  5
28A
  8
0
 62
   123
 10
0.0
 20
0.0
 30
0.0
 70
   128
 71
    57
 72
    34
 73
    56
  0
VERTEX
  5
28B
  8
0
 62
   123
 10
0.0
 20
0.0
 30
0.0
 70
   128
 71
    54
 72
    58
 73
    34
  0
VERTEX
  5
28C
  8
0
 62
   123
 10
0.0
 20
0.0
 30
0.0
 70
   128
 71
    54
 72
    55
 73
    58
  0
VERTEX
  5
28D
  8
0
 62
   123
 10
0.0
 20
0.0
 30
0.0
 70
   128
 71
    56
 72
    34
 73
    58
  0
SEQEND
  5
28E
  8
0
  0
ENDBLK
  5
291
  8
0
  0
BLOCK
  8
0
  2
110805_ESSENTIAL_BATHHAND1
 70
     0
 10
0.0
 20
0.0
 30
0.0
  3
110805_ESSENTIAL_BATHHAND1
  1

  0
POLYLINE
  5
293
  8
0
 66
     1
 10
0.0
 20
0.0
 30
0.0
 70
    64
 71
    58
 72
   102
  0
VERTEX
  5
294
  8
0
 10
-0.0509999990463257
 20
0.1940000057220459
 30
0.0175000000745058
 70
   192
  0
VERTEX
  5
295
  8
0
 10
-0.0579999983310699
 20
0.1947071105241776
 30
0.0172071065753698
 70
   192
  0
VERTEX
  5
296
  8
0
 10
-0.0579999983310699
 20
0.1940000057220459
 30
0.0175000000745058
 70
   192
  0
VERTEX
  5
297
  8
0
 10
-0.0579999983310699
 20
0.1949999928474426
 30
0.016499999910593
 70
   192
  0
VERTEX
  5
298
  8
0
 10
-0.0509999990463257
 20
0.1947071105241776
 30
0.0172071065753698
 70
   192
  0
VERTEX
  5
299
  8
0
 10
-0.0509999990463257
 20
0.1949999928474426
 30
0.016499999910593
 70
   192
  0
VERTEX
  5
29A
  8
0
 10
-0.0502918101847172
 20
0.1940000057220459
 30
0.017206022515893
 70
   192
  0
VERTEX
  5
29B
  8
0
 10
-0.0502832643687725
 20
0.1946973502635956
 30
0.016499999910593
 70
   192
  0
VERTEX
  5
29C
  8
0
 10
-0.05002810806036
 20
0.1942347139120102
 30
0.0165183376520872
 70
   192
  0
VERTEX
  5
29D
  8
0
 10
-0.0500279366970062
 20
0.1942347139120102
 30
0.016499999910593
 70
   192
  0
VERTEX
  5
29E
  8
0
 10
-0.0500001683831215
 20
0.1940000057220459
 30
0.0165183376520872
 70
   192
  0
VERTEX
  5
29F
  8
0
 10
-0.0504996180534363
 20
0.1945003867149353
 30
0.0172065645456314
 70
   192
  0
VERTEX
  5
2A0
  8
0
 10
-0.0502842850983143
 20
0.1940000057220459
 30
-0.0171983931213617
 70
   192
  0
VERTEX
  5
2A1
  8
0
 10
-0.0509999990463257
 20
0.1459999978542328
 30
-0.0175000000745058
 70
   192
  0
VERTEX
  5
2A2
  8
0
 10
-0.0509999990463257
 20
0.1940000057220459
 30
-0.0175000000745058
 70
   192
  0
VERTEX
  5
2A3
  8
0
 10
-0.0502842850983143
 20
0.1459999978542328
 30
-0.0171983931213617
 70
   192
  0
VERTEX
  5
2A4
  8
0
 10
-0.0500190742313862
 20
0.1940000057220459
 30
-0.016694376245141
 70
   192
  0
VERTEX
  5
2A5
  8
0
 10
-0.0500190742313862
 20
0.1459999978542328
 30
-0.016694376245141
 70
   192
  0
VERTEX
  5
2A6
  8
0
 10
-0.0500000007450581
 20
0.1459999978542328
 30
-0.016694376245141
 70
   192
  0
VERTEX
  5
2A7
  8
0
 10
-0.0500000007450581
 20
0.1570000052452087
 30
-0.010499999858439
 70
   192
  0
VERTEX
  5
2A8
  8
0
 10
-0.0500000007450581
 20
0.1459999978542328
 30
-0.016499999910593
 70
   192
  0
VERTEX
  5
2A9
  8
0
 10
-0.0500000007450581
 20
0.1519999951124191
 30
-0.0054999999701977
 70
   192
  0
VERTEX
  5
2AA
  8
0
 10
-0.0500000007450581
 20
0.1459999978542328
 30
0.016499999910593
 70
   192
  0
VERTEX
  5
2AB
  8
0
 10
-0.0500000007450581
 20
0.1519999951124191
 30
0.0054999999701977
 70
   192
  0
VERTEX
  5
2AC
  8
0
 10
-0.0500000007450581
 20
0.1570000052452087
 30
0.010499999858439
 70
   192
  0
VERTEX
  5
2AD
  8
0
 10
-0.0500000007450581
 20
0.1942347139120102
 30
0.0165183376520872
 70
   192
  0
VERTEX
  5
2AE
  8
0
 10
-0.0500000007450581
 20
0.1459999978542328
 30
0.0165183376520872
 70
   192
  0
VERTEX
  5
2AF
  8
0
 10
-0.0500000007450581
 20
0.1829999983310699
 30
0.010499999858439
 70
   192
  0
VERTEX
  5
2B0
  8
0
 10
-0.0500000007450581
 20
0.1879999935626984
 30
0.0054999999701977
 70
   192
  0
VERTEX
  5
2B1
  8
0
 10
-0.0500000007450581
 20
0.1942347139120102
 30
-0.016694376245141
 70
   192
  0
VERTEX
  5
2B2
  8
0
 10
-0.0500000007450581
 20
0.1879999935626984
 30
-0.0054999999701977
 70
   192
  0
VERTEX
  5
2B3
  8
0
 10
-0.0500000007450581
 20
0.1829999983310699
 30
-0.010499999858439
 70
   192
  0
VERTEX
  5
2B4
  8
0
 10
-0.0509999990463257
 20
0.1449999958276749
 30
-0.016499999910593
 70
   192
  0
VERTEX
  5
2B5
  8
0
 10
-0.050292894244194
 20
0.1452928930521011
 30
0.016499999910593
 70
   192
  0
VERTEX
  5
2B6
  8
0
 10
-0.0509999990463257
 20
0.1449999958276749
 30
0.016499999910593
 70
   192
  0
VERTEX
  5
2B7
  8
0
 10
-0.050292894244194
 20
0.1452928930521011
 30
-0.016499999910593
 70
   192
  0
VERTEX
  5
2B8
  8
0
 10
-0.0504969470202923
 20
0.1454969495534897
 30
-0.0172027628868818
 70
   192
  0
VERTEX
  5
2B9
  8
0
 10
-0.0509999990463257
 20
0.1452928930521011
 30
-0.0172071065753698
 70
   192
  0
VERTEX
  5
2BA
  8
0
 10
-0.0579999983310699
 20
0.1449999958276749
 30
-0.016499999910593
 70
   192
  0
VERTEX
  5
2BB
  8
0
 10
-0.0579999983310699
 20
0.1452928930521011
 30
-0.0172071065753698
 70
   192
  0
VERTEX
  5
2BC
  8
0
 10
-0.0579999983310699
 20
0.1459999978542328
 30
-0.0175000000745058
 70
   192
  0
VERTEX
  5
2BD
  8
0
 10
-0.0579999983310699
 20
0.1940000057220459
 30
-0.0175000000745058
 70
   192
  0
VERTEX
  5
2BE
  8
0
 10
-0.0509999990463257
 20
0.1947071105241776
 30
-0.0172071065753698
 70
   192
  0
VERTEX
  5
2BF
  8
0
 10
-0.0509999990463257
 20
0.1949999928474426
 30
-0.016499999910593
 70
   192
  0
VERTEX
  5
2C0
  8
0
 10
-0.0579999983310699
 20
0.1947071105241776
 30
-0.0172071065753698
 70
   192
  0
VERTEX
  5
2C1
  8
0
 10
-0.0579999983310699
 20
0.1949999928474426
 30
-0.016499999910593
 70
   192
  0
VERTEX
  5
2C2
  8
0
 10
-0.0500475689768791
 20
0.1942347139120102
 30
-0.016694376245141
 70
   192
  0
VERTEX
  5
2C3
  8
0
 10
-0.0502832643687725
 20
0.1946973502635956
 30
-0.016499999910593
 70
   192
  0
VERTEX
  5
2C4
  8
0
 10
-0.0500279366970062
 20
0.1942347139120102
 30
-0.016499999910593
 70
   192
  0
VERTEX
  5
2C5
  8
0
 10
-0.0504969470202923
 20
0.194503054022789
 30
-0.0172027628868818
 70
   192
  0
VERTEX
  5
2C6
  8
0
 10
-0.0579999983310699
 20
0.1459999978542328
 30
0.0175000000745058
 70
   192
  0
VERTEX
  5
2C7
  8
0
 10
-0.0579999983310699
 20
0.1449999958276749
 30
0.016499999910593
 70
   192
  0
VERTEX
  5
2C8
  8
0
 10
-0.0579999983310699
 20
0.1452928930521011
 30
0.0172071065753698
 70
   192
  0
VERTEX
  5
2C9
  8
0
 10
-0.0509999990463257
 20
0.1452928930521011
 30
0.0172071065753698
 70
   192
  0
VERTEX
  5
2CA
  8
0
 10
-0.0509999990463257
 20
0.1459999978542328
 30
0.0175000000745058
 70
   192
  0
VERTEX
  5
2CB
  8
0
 10
-0.0502918101847172
 20
0.1459999978542328
 30
0.017206022515893
 70
   192
  0
VERTEX
  5
2CC
  8
0
 10
-0.0500001683831215
 20
0.1459999978542328
 30
0.0165183376520872
 70
   192
  0
VERTEX
  5
2CD
  8
0
 10
-0.0504996180534363
 20
0.1454996168613434
 30
0.0172065645456314
 70
   192
  0
VERTEX
  5
2CE
  8
0
 62
   123
 10
0.0
 20
0.0
 30
0.0
 70
   128
 71
     3
 72
     2
 73
     1
  0
VERTEX
  5
2CF
  8
0
 62
   123
 10
0.0
 20
0.0
 30
0.0
 70
   128
 71
     6
 72
     5
 73
     4
  0
VERTEX
  5
2D0
  8
0
 62
   123
 10
0.0
 20
0.0
 30
0.0
 70
   128
 71
     4
 72
     5
 73
     2
  0
VERTEX
  5
2D1
  8
0
 62
   123
 10
0.0
 20
0.0
 30
0.0
 70
   128
 71
     5
 72
     1
 73
     2
  0
VERTEX
  5
2D2
  8
0
 62
   123
 10
0.0
 20
0.0
 30
0.0
 70
   128
 71
     1
 72
     1
 73
     7
  0
VERTEX
  5
2D3
  8
0
 62
   123
 10
0.0
 20
0.0
 30
0.0
 70
   128
 71
     6
 72
     8
 73
     5
  0
VERTEX
  5
2D4
  8
0
 62
   123
 10
0.0
 20
0.0
 30
0.0
 70
   128
 71
    10
 72
     9
 73
     8
  0
VERTEX
  5
2D5
  8
0
 62
   123
 10
0.0
 20
0.0
 30
0.0
 70
   128
 71
    11
 72
     7
 73
     9
  0
VERTEX
  5
2D6
  8
0
 62
   123
 10
0.0
 20
0.0
 30
0.0
 70
   128
 71
     9
 72
     7
 73
     8
  0
VERTEX
  5
2D7
  8
0
 62
   123
 10
0.0
 20
0.0
 30
0.0
 70
   128
 71
     7
 72
    12
 73
     8
  0
VERTEX
  5
2D8
  8
0
 62
   123
 10
0.0
 20
0.0
 30
0.0
 70
   128
 71
     7
 72
     1
 73
    12
  0
VERTEX
  5
2D9
  8
0
 62
   123
 10
0.0
 20
0.0
 30
0.0
 70
   128
 71
     5
 72
     1
 73
     1
  0
VERTEX
  5
2DA
  8
0
 62
   123
 10
0.0
 20
0.0
 30
0.0
 70
   128
 71
     5
 72
    12
 73
     1
  0
VERTEX
  5
2DB
  8
0
 62
   123
 10
0.0
 20
0.0
 30
0.0
 70
   128
 71
     5
 72
     8
 73
    12
  0
VERTEX
  5
2DC
  8
0
 62
   123
 10
0.0
 20
0.0
 30
0.0
 70
   128
 71
    15
 72
    14
 73
    13
  0
VERTEX
  5
2DD
  8
0
 62
   123
 10
0.0
 20
0.0
 30
0.0
 70
   128
 71
    18
 72
    17
 73
    16
  0
VERTEX
  5
2DE
  8
0
 62
   123
 10
0.0
 20
0.0
 30
0.0
 70
   128
 71
    17
 72
    13
 73
    16
  0
VERTEX
  5
2DF
  8
0
 62
   123
 10
0.0
 20
0.0
 30
0.0
 70
   128
 71
    16
 72
    13
 73
    14
  0
VERTEX
  5
2E0
  8
0
 62
   123
 10
0.0
 20
0.0
 30
0.0
 70
   128
 71
    21
 72
    20
 73
    19
  0
VERTEX
  5
2E1
  8
0
 62
   123
 10
0.0
 20
0.0
 30
0.0
 70
   128
 71
    21
 72
    23
 73
    22
  0
VERTEX
  5
2E2
  8
0
 62
   123
 10
0.0
 20
0.0
 30
0.0
 70
   128
 71
    22
 72
    23
 73
    24
  0
VERTEX
  5
2E3
  8
0
 62
   123
 10
0.0
 20
0.0
 30
0.0
 70
   128
 71
    24
 72
    23
 73
    25
  0
VERTEX
  5
2E4
  8
0
 62
   123
 10
0.0
 20
0.0
 30
0.0
 70
   128
 71
    22
 72
    20
 73
    21
  0
VERTEX
  5
2E5
  8
0
 62
   123
 10
0.0
 20
0.0
 30
0.0
 70
   128
 71
    27
 72
    26
 73
    23
  0
VERTEX
  5
2E6
  8
0
 62
   123
 10
0.0
 20
0.0
 30
0.0
 70
   128
 71
    23
 72
    26
 73
    25
  0
VERTEX
  5
2E7
  8
0
 62
   123
 10
0.0
 20
0.0
 30
0.0
 70
   128
 71
    25
 72
    26
 73
    28
  0
VERTEX
  5
2E8
  8
0
 62
   123
 10
0.0
 20
0.0
 30
0.0
 70
   128
 71
    28
 72
    26
 73
    29
  0
VERTEX
  5
2E9
  8
0
 62
   123
 10
0.0
 20
0.0
 30
0.0
 70
   128
 71
    26
 72
    30
 73
    29
  0
VERTEX
  5
2EA
  8
0
 62
   123
 10
0.0
 20
0.0
 30
0.0
 70
   128
 71
    29
 72
    30
 73
    31
  0
VERTEX
  5
2EB
  8
0
 62
   123
 10
0.0
 20
0.0
 30
0.0
 70
   128
 71
    31
 72
    30
 73
    32
  0
VERTEX
  5
2EC
  8
0
 62
   123
 10
0.0
 20
0.0
 30
0.0
 70
   128
 71
    30
 72
    19
 73
    32
  0
VERTEX
  5
2ED
  8
0
 62
   123
 10
0.0
 20
0.0
 30
0.0
 70
   128
 71
    32
 72
    19
 73
    20
  0
VERTEX
  5
2EE
  8
0
 62
   123
 10
0.0
 20
0.0
 30
0.0
 70
   128
 71
    35
 72
    34
 73
    33
  0
VERTEX
  5
2EF
  8
0
 62
   123
 10
0.0
 20
0.0
 30
0.0
 70
   128
 71
    23
 72
    21
 73
    34
  0
VERTEX
  5
2F0
  8
0
 62
   123
 10
0.0
 20
0.0
 30
0.0
 70
   128
 71
    21
 72
    36
 73
    34
  0
VERTEX
  5
2F1
  8
0
 62
   123
 10
0.0
 20
0.0
 30
0.0
 70
   128
 71
    36
 72
    33
 73
    34
  0
VERTEX
  5
2F2
  8
0
 62
   123
 10
0.0
 20
0.0
 30
0.0
 70
   128
 71
    16
 72
    37
 73
    36
  0
VERTEX
  5
2F3
  8
0
 62
   123
 10
0.0
 20
0.0
 30
0.0
 70
   128
 71
    33
 72
    36
 73
    38
  0
VERTEX
  5
2F4
  8
0
 62
   123
 10
0.0
 20
0.0
 30
0.0
 70
   128
 71
    21
 72
    18
 73
    36
  0
VERTEX
  5
2F5
  8
0
 62
   123
 10
0.0
 20
0.0
 30
0.0
 70
   128
 71
    14
 72
    38
 73
    14
  0
VERTEX
  5
2F6
  8
0
 62
   123
 10
0.0
 20
0.0
 30
0.0
 70
   128
 71
    14
 72
    14
 73
    16
  0
VERTEX
  5
2F7
  8
0
 62
   123
 10
0.0
 20
0.0
 30
0.0
 70
   128
 71
    18
 72
    16
 73
    36
  0
VERTEX
  5
2F8
  8
0
 62
   123
 10
0.0
 20
0.0
 30
0.0
 70
   128
 71
    38
 72
    37
 73
    14
  0
VERTEX
  5
2F9
  8
0
 62
   123
 10
0.0
 20
0.0
 30
0.0
 70
   128
 71
    38
 72
    36
 73
    37
  0
VERTEX
  5
2FA
  8
0
 62
   123
 10
0.0
 20
0.0
 30
0.0
 70
   128
 71
    16
 72
    14
 73
    37
  0
VERTEX
  5
2FB
  8
0
 62
   123
 10
0.0
 20
0.0
 30
0.0
 70
   128
 71
    33
 72
    38
 73
    39
  0
VERTEX
  5
2FC
  8
0
 62
   123
 10
0.0
 20
0.0
 30
0.0
 70
   128
 71
    41
 72
    40
 73
    14
  0
VERTEX
  5
2FD
  8
0
 62
   123
 10
0.0
 20
0.0
 30
0.0
 70
   128
 71
    14
 72
    40
 73
    38
  0
VERTEX
  5
2FE
  8
0
 62
   123
 10
0.0
 20
0.0
 30
0.0
 70
   128
 71
    40
 72
    39
 73
    38
  0
VERTEX
  5
2FF
  8
0
 62
   123
 10
0.0
 20
0.0
 30
0.0
 70
   128
 71
    42
 72
    41
 73
    15
  0
VERTEX
  5
300
  8
0
 62
   123
 10
0.0
 20
0.0
 30
0.0
 70
   128
 71
    14
 72
    15
 73
    41
  0
VERTEX
  5
301
  8
0
 62
   123
 10
0.0
 20
0.0
 30
0.0
 70
   128
 71
    15
 72
    43
 73
    42
  0
VERTEX
  5
302
  8
0
 62
   123
 10
0.0
 20
0.0
 30
0.0
 70
   128
 71
    46
 72
    45
 73
    44
  0
VERTEX
  5
303
  8
0
 62
   123
 10
0.0
 20
0.0
 30
0.0
 70
   128
 71
    44
 72
    45
 73
    43
  0
VERTEX
  5
304
  8
0
 62
   123
 10
0.0
 20
0.0
 30
0.0
 70
   128
 71
    45
 72
    42
 73
    43
  0
VERTEX
  5
305
  8
0
 62
   123
 10
0.0
 20
0.0
 30
0.0
 70
   128
 71
    49
 72
    48
 73
    47
  0
VERTEX
  5
306
  8
0
 62
   123
 10
0.0
 20
0.0
 30
0.0
 70
   128
 71
    17
 72
    47
 73
    13
  0
VERTEX
  5
307
  8
0
 62
   123
 10
0.0
 20
0.0
 30
0.0
 70
   128
 71
    44
 72
    43
 73
    48
  0
VERTEX
  5
308
  8
0
 62
   123
 10
0.0
 20
0.0
 30
0.0
 70
   128
 71
    15
 72
    13
 73
    15
  0
VERTEX
  5
309
  8
0
 62
   123
 10
0.0
 20
0.0
 30
0.0
 70
   128
 71
    47
 72
    48
 73
    13
  0
VERTEX
  5
30A
  8
0
 62
   123
 10
0.0
 20
0.0
 30
0.0
 70
   128
 71
    13
 72
    48
 73
    50
  0
VERTEX
  5
30B
  8
0
 62
   123
 10
0.0
 20
0.0
 30
0.0
 70
   128
 71
    43
 72
    15
 73
    50
  0
VERTEX
  5
30C
  8
0
 62
   123
 10
0.0
 20
0.0
 30
0.0
 70
   128
 71
    43
 72
    15
 73
    15
  0
VERTEX
  5
30D
  8
0
 62
   123
 10
0.0
 20
0.0
 30
0.0
 70
   128
 71
    13
 72
    50
 73
    15
  0
VERTEX
  5
30E
  8
0
 62
   123
 10
0.0
 20
0.0
 30
0.0
 70
   128
 71
    43
 72
    50
 73
    48
  0
VERTEX
  5
30F
  8
0
 62
   123
 10
0.0
 20
0.0
 30
0.0
 70
   128
 71
     6
 72
    44
 73
     8
  0
VERTEX
  5
310
  8
0
 62
   123
 10
0.0
 20
0.0
 30
0.0
 70
   128
 71
    10
 72
     8
 73
    49
  0
VERTEX
  5
311
  8
0
 62
   123
 10
0.0
 20
0.0
 30
0.0
 70
   128
 71
    49
 72
     8
 73
    48
  0
VERTEX
  5
312
  8
0
 62
   123
 10
0.0
 20
0.0
 30
0.0
 70
   128
 71
    48
 72
     8
 73
    44
  0
VERTEX
  5
313
  8
0
 62
   123
 10
0.0
 20
0.0
 30
0.0
 70
   128
 71
    44
 72
     6
 73
    46
  0
VERTEX
  5
314
  8
0
 62
   123
 10
0.0
 20
0.0
 30
0.0
 70
   128
 71
     4
 72
    46
 73
     6
  0
VERTEX
  5
315
  8
0
 62
   123
 10
0.0
 20
0.0
 30
0.0
 70
   128
 71
     4
 72
     3
 73
    46
  0
VERTEX
  5
316
  8
0
 62
   123
 10
0.0
 20
0.0
 30
0.0
 70
   128
 71
    53
 72
    52
 73
    51
  0
VERTEX
  5
317
  8
0
 62
   123
 10
0.0
 20
0.0
 30
0.0
 70
   128
 71
     2
 72
     3
 73
     4
  0
VERTEX
  5
318
  8
0
 62
   123
 10
0.0
 20
0.0
 30
0.0
 70
   128
 71
    45
 72
    46
 73
    42
  0
VERTEX
  5
319
  8
0
 62
   123
 10
0.0
 20
0.0
 30
0.0
 70
   128
 71
    40
 72
    41
 73
    39
  0
VERTEX
  5
31A
  8
0
 62
   123
 10
0.0
 20
0.0
 30
0.0
 70
   128
 71
    39
 72
    41
 73
    52
  0
VERTEX
  5
31B
  8
0
 62
   123
 10
0.0
 20
0.0
 30
0.0
 70
   128
 71
    41
 72
    42
 73
    52
  0
VERTEX
  5
31C
  8
0
 62
   123
 10
0.0
 20
0.0
 30
0.0
 70
   128
 71
    52
 72
    42
 73
    51
  0
VERTEX
  5
31D
  8
0
 62
   123
 10
0.0
 20
0.0
 30
0.0
 70
   128
 71
    51
 72
    42
 73
     3
  0
VERTEX
  5
31E
  8
0
 62
   123
 10
0.0
 20
0.0
 30
0.0
 70
   128
 71
    42
 72
    46
 73
     3
  0
VERTEX
  5
31F
  8
0
 62
   123
 10
0.0
 20
0.0
 30
0.0
 70
   128
 71
    39
 72
    52
 73
    33
  0
VERTEX
  5
320
  8
0
 62
   123
 10
0.0
 20
0.0
 30
0.0
 70
   128
 71
    35
 72
    33
 73
    52
  0
VERTEX
  5
321
  8
0
 62
   123
 10
0.0
 20
0.0
 30
0.0
 70
   128
 71
    52
 72
    53
 73
    35
  0
VERTEX
  5
322
  8
0
 62
   123
 10
0.0
 20
0.0
 30
0.0
 70
   128
 71
    55
 72
    54
 73
    51
  0
VERTEX
  5
323
  8
0
 62
   123
 10
0.0
 20
0.0
 30
0.0
 70
   128
 71
    51
 72
    54
 73
    53
  0
VERTEX
  5
324
  8
0
 62
   123
 10
0.0
 20
0.0
 30
0.0
 70
   128
 71
    54
 72
    35
 73
    53
  0
VERTEX
  5
325
  8
0
 62
   123
 10
0.0
 20
0.0
 30
0.0
 70
   128
 71
     1
 72
    55
 73
     3
  0
VERTEX
  5
326
  8
0
 62
   123
 10
0.0
 20
0.0
 30
0.0
 70
   128
 71
    51
 72
     3
 73
    55
  0
VERTEX
  5
327
  8
0
 62
   123
 10
0.0
 20
0.0
 30
0.0
 70
   128
 71
    55
 72
     1
 73
    56
  0
VERTEX
  5
328
  8
0
 62
   123
 10
0.0
 20
0.0
 30
0.0
 70
   128
 71
    57
 72
    56
 73
    11
  0
VERTEX
  5
329
  8
0
 62
   123
 10
0.0
 20
0.0
 30
0.0
 70
   128
 71
    11
 72
    56
 73
     7
  0
VERTEX
  5
32A
  8
0
 62
   123
 10
0.0
 20
0.0
 30
0.0
 70
   128
 71
     7
 72
    56
 73
     1
  0
VERTEX
  5
32B
  8
0
 62
   123
 10
0.0
 20
0.0
 30
0.0
 70
   128
 71
    56
 72
    58
 73
    55
  0
VERTEX
  5
32C
  8
0
 62
   123
 10
0.0
 20
0.0
 30
0.0
 70
   128
 71
    35
 72
    54
 73
    34
  0
VERTEX
  5
32D
  8
0
 62
   123
 10
0.0
 20
0.0
 30
0.0
 70
   128
 71
    55
 72
    56
 73
    55
  0
VERTEX
  5
32E
  8
0
 62
   123
 10
0.0
 20
0.0
 30
0.0
 70
   128
 71
    23
 72
    34
 73
    57
  0
VERTEX
  5
32F
  8
0
 62
   123
 10
0.0
 20
0.0
 30
0.0
 70
   128
 71
    55
 72
    55
 73
    54
  0
VERTEX
  5
330
  8
0
 62
   123
 10
0.0
 20
0.0
 30
0.0
 70
   128
 71
    57
 72
    34
 73
    56
  0
VERTEX
  5
331
  8
0
 62
   123
 10
0.0
 20
0.0
 30
0.0
 70
   128
 71
    54
 72
    58
 73
    34
  0
VERTEX
  5
332
  8
0
 62
   123
 10
0.0
 20
0.0
 30
0.0
 70
   128
 71
    54
 72
    55
 73
    58
  0
VERTEX
  5
333
  8
0
 62
   123
 10
0.0
 20
0.0
 30
0.0
 70
   128
 71
    56
 72
    34
 73
    58
  0
SEQEND
  5
334
  8
0
  0
ENDBLK
  5
337
  8
0
  0
ENDSEC
  0
SECTION
  2
ENTITIES
  0
INSERT
  5
64
  8
LAYER_1
  2
1
 10
0.0
 20
0.0
 30
0.0
  0
INSERT
  5
8B
  8
LAYER_1
  2
1_1_
 10
0.0
 20
0.0
 30
0.0
  0
INSERT
  5
129
  8
LAYER_1
  2
3
 10
0.0
 20
0.0
 30
0.0
  0
INSERT
  5
1B3
  8
LAYER_1
  2
2
 10
0.0
 20
0.0
 30
0.0
  0
INSERT
  5
1E9
  8
LAYER_1
  2
110805_ESSENTIAL_BATHHANDL
 10
0.0
 20
0.0
 30
0.0
  0
INSERT
  5
28F
  8
LAYER_1
  2
110805_ESSENTIAL_BATHHAND0
 10
0.0
 20
0.0
 30
0.0
  0
INSERT
  5
335
  8
LAYER_1
  2
110805_ESSENTIAL_BATHHAND1
 10
0.0
 20
0.0
 30
0.0
  0
ENDSEC
  0
EOF
