  0
SECTION
  2
HEADER
  9
$ACADVER
  1
AC1015
  9
$ACADMAINTVER
 70
     6
  9
$DWGCODEPAGE
  3
ANSI_1252
  9
$INSBASE
 10
0.0
 20
0.0
 30
0.0
  9
$EXTMIN
 10
0.0
 20
0.0
 30
0.0
  9
$EXTMAX
 10
3000.0
 20
4500.0
 30
0.0
  9
$LIMMIN
 10
0.0
 20
0.0
  9
$LIMMAX
 10
3000.0
 20
4500.0
  9
$ORTHOMODE
 70
     0
  9
$REGENMODE
 70
     1
  9
$FILLMODE
 70
     1
  9
$QTEXTMODE
 70
     0
  9
$MIRRTEXT
 70
     1
  9
$LTSCALE
 40
1.0
  9
$ATTMODE
 70
     1
  9
$TEXTSIZE
 40
2.5
  9
$TRACEWID
 40
1.0
  9
$TEXTSTYLE
  7
Standard
  9
$CLAYER
  8
0
  9
$CELTYPE
  6
ByLayer
  9
$CECOLOR
 62
   256
  9
$CELTSCALE
 40
1.0
  9
$DISPSILH
 70
     0
  9
$DIMSCALE
 40
1.0
  9
$DIMASZ
 40
2.5
  9
$DIMEXO
 40
0.625
  9
$DIMDLI
 40
3.75
  9
$DIMRND
 40
0.0
  9
$DIMDLE
 40
0.0
  9
$DIMEXE
 40
1.25
  9
$DIMTP
 40
0.0
  9
$DIMTM
 40
0.0
  9
$DIMTXT
 40
2.5
  9
$DIMCEN
 40
2.5
  9
$DIMTSZ
 40
0.0
  9
$DIMTOL
 70
     0
  9
$DIMLIM
 70
     0
  9
$DIMTIH
 70
     0
  9
$DIMTOH
 70
     0
  9
$DIMSE1
 70
     0
  9
$DIMSE2
 70
     0
  9
$DIMTAD
 70
     1
  9
$DIMZIN
 70
     8
  9
$DIMBLK
  1

  9
$DIMASO
 70
     1
  9
$DIMSHO
 70
     1
  9
$DIMPOST
  1

  9
$DIMAPOST
  1

  9
$DIMALT
 70
     0
  9
$DIMALTD
 70
     3
  9
$DIMALTF
 40
0.0393700787
  9
$DIMLFAC
 40
1.0
  9
$DIMTOFL
 70
     1
  9
$DIMTVP
 40
0.0
  9
$DIMTIX
 70
     0
  9
$DIMSOXD
 70
     0
  9
$DIMSAH
 70
     0
  9
$DIMBLK1
  1

  9
$DIMBLK2
  1

  9
$DIMSTYLE
  2
ISO-25
  9
$DIMCLRD
 70
     0
  9
$DIMCLRE
 70
     0
  9
$DIMCLRT
 70
     0
  9
$DIMTFAC
 40
1.0
  9
$DIMGAP
 40
0.625
  9
$DIMJUST
 70
     0
  9
$DIMSD1
 70
     0
  9
$DIMSD2
 70
     0
  9
$DIMTOLJ
 70
     0
  9
$DIMTZIN
 70
     8
  9
$DIMALTZ
 70
     0
  9
$DIMALTTZ
 70
     0
  9
$DIMUPT
 70
     0
  9
$DIMDEC
 70
     2
  9
$DIMTDEC
 70
     2
  9
$DIMALTU
 70
     2
  9
$DIMALTTD
 70
     3
  9
$DIMTXSTY
  7
Standard
  9
$DIMAUNIT
 70
     0
  9
$DIMADEC
 70
     0
  9
$DIMALTRND
 40
0.0
  9
$DIMAZIN
 70
     0
  9
$DIMDSEP
 70
    44
  9
$DIMATFIT
 70
     3
  9
$DIMFRAC
 70
     0
  9
$DIMLDRBLK
  1

  9
$DIMLUNIT
 70
     2
  9
$DIMLWD
 70
    -2
  9
$DIMLWE
 70
    -2
  9
$DIMTMOVE
 70
     0
  9
$LUNITS
 70
     2
  9
$LUPREC
 70
     4
  9
$SKETCHINC
 40
1.0
  9
$FILLETRAD
 40
10.0
  9
$AUNITS
 70
     0
  9
$AUPREC
 70
     0
  9
$MENU
  1
.
  9
$ELEVATION
 40
0.0
  9
$PELEVATION
 40
0.0
  9
$THICKNESS
 40
0.0
  9
$LIMCHECK
 70
     0
  9
$CHAMFERA
 40
10.0
  9
$CHAMFERB
 40
10.0
  9
$CHAMFERC
 40
20.0
  9
$CHAMFERD
 40
0.0
  9
$SKPOLY
 70
     0
  9
$TDCREATE
 40
2455959.43188478
  9
$TDUCREATE
 40
2455959.390218114
  9
$TDUPDATE
 40
2455959.431884792
  9
$TDUUPDATE
 40
2455959.390218125
  9
$TDINDWG
 40
0.0000000116
  9
$TDUSRTIMER
 40
0.0000000116
  9
$USRTIMER
 70
     1
  9
$ANGBASE
 50
0.0
  9
$ANGDIR
 70
     0
  9
$PDMODE
 70
     0
  9
$PDSIZE
 40
0.0
  9
$PLINEWID
 40
0.0
  9
$SPLFRAME
 70
     0
  9
$SPLINETYPE
 70
     6
  9
$SPLINESEGS
 70
     8
  9
$HANDSEED
  5
1CB
  9
$SURFTAB1
 70
     6
  9
$SURFTAB2
 70
     6
  9
$SURFTYPE
 70
     6
  9
$SURFU
 70
     6
  9
$SURFV
 70
     6
  9
$UCSBASE
  2

  9
$UCSNAME
  2

  9
$UCSORG
 10
0.0
 20
0.0
 30
0.0
  9
$UCSXDIR
 10
1.0
 20
0.0
 30
0.0
  9
$UCSYDIR
 10
0.0
 20
1.0
 30
0.0
  9
$UCSORTHOREF
  2

  9
$UCSORTHOVIEW
 70
     0
  9
$UCSORGTOP
 10
0.0
 20
0.0
 30
0.0
  9
$UCSORGBOTTOM
 10
0.0
 20
0.0
 30
0.0
  9
$UCSORGLEFT
 10
0.0
 20
0.0
 30
0.0
  9
$UCSORGRIGHT
 10
0.0
 20
0.0
 30
0.0
  9
$UCSORGFRONT
 10
0.0
 20
0.0
 30
0.0
  9
$UCSORGBACK
 10
0.0
 20
0.0
 30
0.0
  9
$PUCSBASE
  2

  9
$PUCSNAME
  2

  9
$PUCSORG
 10
0.0
 20
0.0
 30
0.0
  9
$PUCSXDIR
 10
1.0
 20
0.0
 30
0.0
  9
$PUCSYDIR
 10
0.0
 20
1.0
 30
0.0
  9
$PUCSORTHOREF
  2

  9
$PUCSORTHOVIEW
 70
     0
  9
$PUCSORGTOP
 10
0.0
 20
0.0
 30
0.0
  9
$PUCSORGBOTTOM
 10
0.0
 20
0.0
 30
0.0
  9
$PUCSORGLEFT
 10
0.0
 20
0.0
 30
0.0
  9
$PUCSORGRIGHT
 10
0.0
 20
0.0
 30
0.0
  9
$PUCSORGFRONT
 10
0.0
 20
0.0
 30
0.0
  9
$PUCSORGBACK
 10
0.0
 20
0.0
 30
0.0
  9
$USERI1
 70
     0
  9
$USERI2
 70
     0
  9
$USERI3
 70
     0
  9
$USERI4
 70
     0
  9
$USERI5
 70
     0
  9
$USERR1
 40
0.0
  9
$USERR2
 40
0.0
  9
$USERR3
 40
0.0
  9
$USERR4
 40
0.0
  9
$USERR5
 40
0.0
  9
$WORLDVIEW
 70
     1
  9
$SHADEDGE
 70
     3
  9
$SHADEDIF
 70
    70
  9
$TILEMODE
 70
     1
  9
$MAXACTVP
 70
    64
  9
$PINSBASE
 10
0.0
 20
0.0
 30
0.0
  9
$PLIMCHECK
 70
     0
  9
$PEXTMIN
 10
0.0
 20
0.0
 30
0.0
  9
$PEXTMAX
 10
3000.0
 20
4500.0
 30
0.0
  9
$PLIMMIN
 10
0.0
 20
0.0
  9
$PLIMMAX
 10
3000.0
 20
4500.0
  9
$UNITMODE
 70
     0
  9
$VISRETAIN
 70
     1
  9
$PLINEGEN
 70
     0
  9
$PSLTSCALE
 70
     1
  9
$TREEDEPTH
 70
  3020
  9
$CMLSTYLE
  2
Standard
  9
$CMLJUST
 70
     0
  9
$CMLSCALE
 40
20.0
  9
$PROXYGRAPHICS
 70
     1
  9
$MEASUREMENT
 70
     1
  9
$CELWEIGHT
370
    -1
  9
$ENDCAPS
280
     0
  9
$JOINSTYLE
280
     0
  9
$LWDISPLAY
290
     0
  9
$INSUNITS
 70
     4
  9
$HYPERLINKBASE
  1

  9
$STYLESHEET
  1

  9
$XEDIT
290
     1
  9
$CEPSNTYPE
380
     0
  9
$PSTYLEMODE
290
     1
  9
$FINGERPRINTGUID
  2
{2FEC1721-2728-4EB2-835C-DC2A1C6B50E6}
  9
$VERSIONGUID
  2
{FAEB1C32-E019-11D5-929B-00C0DF256EC4}
  9
$EXTNAMES
290
     1
  9
$PSVPSCALE
 40
0.0
  9
$OLESTARTUP
290
     0
  0
ENDSEC
  0
SECTION
  2
CLASSES
  0
CLASS
  1
ACDBDICTIONARYWDFLT
  2
AcDbDictionaryWithDefault
  3
ObjectDBX Classes
 90
        0
280
     0
281
     0
  0
CLASS
  1
VISUALSTYLE
  2
AcDbVisualStyle
  3
ObjectDBX Classes
 90
     4095
280
     0
281
     0
  0
CLASS
  1
SCALE
  2
AcDbScale
  3
ObjectDBX Classes
 90
     1153
280
     0
281
     0
  0
CLASS
  1
DICTIONARYVAR
  2
AcDbDictionaryVar
  3
ObjectDBX Classes
 90
        0
280
     0
281
     0
  0
CLASS
  1
ACDBPLACEHOLDER
  2
AcDbPlaceHolder
  3
ObjectDBX Classes
 90
        0
280
     0
281
     0
  0
CLASS
  1
LAYOUT
  2
AcDbLayout
  3
ObjectDBX Classes
 90
        0
280
     0
281
     0
  0
ENDSEC
  0
SECTION
  2
TABLES
  0
TABLE
  2
VPORT
  5
8
330
0
100
AcDbSymbolTable
 70
     1
  0
VPORT
  5
29
330
8
100
AcDbSymbolTableRecord
100
AcDbViewportTableRecord
  2
*Active
 70
     0
 10
0.0
 20
0.0
 11
1.0
 21
1.0
 12
344.1869158879
 22
148.5
 13
0.0
 23
0.0
 14
10.0
 24
10.0
 15
10.0
 25
10.0
 16
0.0
 26
0.0
 36
1.0
 17
0.0
 27
0.0
 37
0.0
 40
297.0
 41
1.9729729729
 42
50.0
 43
0.0
 44
0.0
 50
0.0
 51
0.0
 71
     0
 72
   100
 73
     1
 74
     3
 75
     0
 76
     0
 77
     0
 78
     0
281
     0
 65
     1
110
0.0
120
0.0
130
0.0
111
1.0
121
0.0
131
0.0
112
0.0
122
1.0
132
0.0
 79
     0
146
0.0
  0
ENDTAB
  0
TABLE
  2
LTYPE
  5
5
330
0
100
AcDbSymbolTable
 70
     2
  0
LTYPE
  5
14
330
5
100
AcDbSymbolTableRecord
100
AcDbLinetypeTableRecord
  2
ByBlock
 70
     0
  3

 72
    65
 73
     0
 40
0.0
  0
LTYPE
  5
15
330
5
100
AcDbSymbolTableRecord
100
AcDbLinetypeTableRecord
  2
ByLayer
 70
     0
  3

 72
    65
 73
     0
 40
0.0
  0
LTYPE
  5
16
330
5
100
AcDbSymbolTableRecord
100
AcDbLinetypeTableRecord
  2
Continuous
 70
     0
  3
Solid line
 72
    65
 73
     0
 40
0.0
  0
LTYPE
  5
89
330
5
100
AcDbSymbolTableRecord
100
AcDbLinetypeTableRecord
  2
CENTER2
 70
     0
  3
Center (.5x) ___ _ ___ _ ___ _ ___ _ ___ _ ___
 72
    65
 73
     4
 40
28.575
 49
19.05
 74
     4
 75
     0
340
0
 46
0.0
 50
0.0
 44
0.0
 45
0.0
 49
-3.175
 74
     4
 75
     0
340
0
 46
0.0
 50
0.0
 44
0.0
 45
0.0
 49
3.175
 74
     4
 75
     0
340
0
 46
0.0
 50
0.0
 44
0.0
 45
0.0
 49
-3.175
 74
     4
 75
     0
340
0
 46
0.0
 50
0.0
 44
0.0
 45
0.0
  0
ENDTAB
  0
TABLE
  2
LAYER
  5
2
330
0
100
AcDbSymbolTable
 70
     6
  0
LAYER
  5
10
330
2
100
AcDbSymbolTableRecord
100
AcDbLayerTableRecord
  2
0
 70
     0
 62
     7
  6
Continuous
370
    -3
390
F
  0
LAYER
  5
5D
330
2
100
AcDbSymbolTableRecord
100
AcDbLayerTableRecord
  2
Standard
 70
     0
 62
     7
  6
Continuous
370
    -3
390
F
  0
LAYER
  5
7E
330
2
100
AcDbSymbolTableRecord
100
AcDbLayerTableRecord
  2
Default
 70
     0
 62
     7
  6
Continuous
370
    -3
390
F
  0
LAYER
  5
9E
330
2
100
AcDbSymbolTableRecord
100
AcDbLayerTableRecord
  2
DV1_Standard
 70
     0
 62
     7
  6
Continuous
370
    -3
390
F
  0
LAYER
  5
E2
330
2
100
AcDbSymbolTableRecord
100
AcDbLayerTableRecord
  2
DV2_Standard
 70
     0
 62
     7
  6
Continuous
370
    -3
390
F
  0
LAYER
  5
148
330
2
100
AcDbSymbolTableRecord
100
AcDbLayerTableRecord
  2
DV3_Standard
 70
     0
 62
     7
  6
Continuous
370
    -3
390
F
  0
ENDTAB
  0
TABLE
  2
STYLE
  5
3
330
0
100
AcDbSymbolTable
 70
     2
  0
STYLE
  5
11
330
3
100
AcDbSymbolTableRecord
100
AcDbTextStyleTableRecord
  2
Standard
 70
     0
 40
0.0
 41
1.0
 50
0.0
 71
     0
 42
2.5
  3
txt
  4

  0
STYLE
  5
1BA
330
3
100
AcDbSymbolTableRecord
100
AcDbTextStyleTableRecord
  2
SEACAD_seiso_ttf
 70
     0
 40
0.0
 41
1.0
 50
0.0
 71
     0
 42
0.2
  3
seiso.ttf
  4

  0
ENDTAB
  0
TABLE
  2
VIEW
  5
6
330
0
100
AcDbSymbolTable
 70
     0
  0
ENDTAB
  0
TABLE
  2
UCS
  5
7
330
0
100
AcDbSymbolTable
 70
     0
  0
ENDTAB
  0
TABLE
  2
APPID
  5
9
330
0
100
AcDbSymbolTable
 70
     1
  0
APPID
  5
12
330
9
100
AcDbSymbolTableRecord
100
AcDbRegAppTableRecord
  2
ACAD
 70
     0
  0
ENDTAB
  0
TABLE
  2
DIMSTYLE
  5
A
330
0
100
AcDbSymbolTable
 70
     1
100
AcDbDimStyleTable
  0
DIMSTYLE
105
27
330
A
100
AcDbSymbolTableRecord
100
AcDbDimStyleTableRecord
  2
ISO-25
 70
     0
 41
2.5
 42
0.625
 43
3.75
 44
1.25
 73
     0
 74
     0
 77
     1
 78
     8
140
2.5
141
2.5
143
0.0393700787
147
0.625
171
     3
172
     1
271
     2
272
     2
274
     3
278
    44
283
     0
284
     8
340
11
  0
ENDTAB
  0
TABLE
  2
BLOCK_RECORD
  5
1
330
0
100
AcDbSymbolTable
 70
     7
  0
BLOCK_RECORD
  5
1F
330
1
100
AcDbSymbolTableRecord
100
AcDbBlockTableRecord
  2
*Model_Space
340
22
  0
BLOCK_RECORD
  5
1B
330
1
100
AcDbSymbolTableRecord
100
AcDbBlockTableRecord
  2
*Paper_Space
340
1E
  0
BLOCK_RECORD
  5
87
330
1
100
AcDbSymbolTableRecord
100
AcDbBlockTableRecord
  2
SEANNOT_GROUP
340
0
102
{BLKREFS
331
88
102
}
  0
BLOCK_RECORD
  5
8E
330
1
100
AcDbSymbolTableRecord
100
AcDbBlockTableRecord
  2
SEANNOT_GROUP1
340
0
102
{BLKREFS
331
8F
102
}
  0
BLOCK_RECORD
  5
96
330
1
100
AcDbSymbolTableRecord
100
AcDbBlockTableRecord
  2
SEANNOT_GROUP2
340
0
102
{BLKREFS
331
97
102
}
  0
BLOCK_RECORD
  5
9C
330
1
100
AcDbSymbolTableRecord
100
AcDbBlockTableRecord
  2
SE
340
0
102
{BLKREFS
331
9D
102
}
  0
BLOCK_RECORD
  5
E0
330
1
100
AcDbSymbolTableRecord
100
AcDbBlockTableRecord
  2
SE1
340
0
102
{BLKREFS
331
E1
102
}
  0
BLOCK_RECORD
  5
146
330
1
100
AcDbSymbolTableRecord
100
AcDbBlockTableRecord
  2
SE2
340
0
102
{BLKREFS
331
147
102
}
  0
ENDTAB
  0
ENDSEC
  0
SECTION
  2
BLOCKS
  0
BLOCK
  5
20
330
1F
100
AcDbEntity
  8
0
100
AcDbBlockBegin
  2
*Model_Space
 70
     0
 10
0.0
 20
0.0
 30
0.0
  3
*Model_Space
  1

  0
ENDBLK
  5
21
330
1F
100
AcDbEntity
  8
0
100
AcDbBlockEnd
  0
BLOCK
  5
1C
330
1B
100
AcDbEntity
 67
     1
  8
0
100
AcDbBlockBegin
  2
*Paper_Space
 70
     0
 10
0.0
 20
0.0
 30
0.0
  3
*Paper_Space
  1

  0
ENDBLK
  5
1D
330
1B
100
AcDbEntity
 67
     1
  8
0
100
AcDbBlockEnd
  0
BLOCK
  5
8C
330
87
100
AcDbEntity
  8
0
100
AcDbBlockBegin
  2
SEANNOT_GROUP
 70
     0
 10
0.0
 20
0.0
 30
0.0
  3
SEANNOT_GROUP
  1

  0
LINE
  5
8A
330
87
100
AcDbEntity
  8
Default
  6
CENTER2
 62
     7
100
AcDbLine
 10
101.349999553
 20
245.95
 30
0.0
 11
61.350000447
 21
245.95
 31
0.0
  0
LINE
  5
8B
330
87
100
AcDbEntity
  8
Default
  6
CENTER2
 62
     7
100
AcDbLine
 10
81.35
 20
265.949999553
 30
0.0
 11
81.35
 21
225.950000447
 31
0.0
  0
ENDBLK
  5
8D
330
87
100
AcDbEntity
  8
0
100
AcDbBlockEnd
  0
BLOCK
  5
92
330
8E
100
AcDbEntity
  8
0
100
AcDbBlockBegin
  2
SEANNOT_GROUP1
 70
     0
 10
0.0
 20
0.0
 30
0.0
  3
SEANNOT_GROUP1
  1

  0
LINE
  5
90
330
8E
100
AcDbEntity
  8
Default
  6
CENTER2
 62
     7
100
AcDbLine
 10
239.249999553
 20
481.05
 30
0.0
 11
199.250000447
 21
481.05
 31
0.0
  0
LINE
  5
91
330
8E
100
AcDbEntity
  8
Default
  6
CENTER2
 62
     7
100
AcDbLine
 10
219.25
 20
501.049999553
 30
0.0
 11
219.25
 21
461.050000447
 31
0.0
  0
ENDBLK
  5
93
330
8E
100
AcDbEntity
  8
0
100
AcDbBlockEnd
  0
BLOCK
  5
9A
330
96
100
AcDbEntity
  8
0
100
AcDbBlockBegin
  2
SEANNOT_GROUP2
 70
     0
 10
0.0
 20
0.0
 30
0.0
  3
SEANNOT_GROUP2
  1

  0
LINE
  5
98
330
96
100
AcDbEntity
  8
Default
  6
CENTER2
 62
     7
100
AcDbLine
 10
101.349999553
 20
481.05
 30
0.0
 11
61.350000447
 21
481.05
 31
0.0
  0
LINE
  5
99
330
96
100
AcDbEntity
  8
Default
  6
CENTER2
 62
     7
100
AcDbLine
 10
81.35
 20
501.049999553
 30
0.0
 11
81.35
 21
461.050000447
 31
0.0
  0
ENDBLK
  5
9B
330
96
100
AcDbEntity
  8
0
100
AcDbBlockEnd
  0
BLOCK
  5
DE
330
9C
100
AcDbEntity
  8
0
100
AcDbBlockBegin
  2
SE
 70
     0
 10
0.0
 20
0.0
 30
0.0
  3
SE
  1

  0
LINE
  5
9F
330
9C
100
AcDbEntity
  8
DV1_Standard
  6
Continuous
 62
     7
100
AcDbLine
 10
242.145
 20
488.65
 30
0.0
 11
347.855
 21
488.65
 31
0.0
  0
ARC
  5
A0
330
9C
100
AcDbEntity
  8
DV1_Standard
  6
Continuous
 62
     7
100
AcDbCircle
 10
347.855
 20
487.15
 30
0.0
 40
1.500000000000001
100
AcDbArc
 50
36.8698976458
 51
90.0
  0
ARC
  5
A1
330
9C
100
AcDbEntity
  8
DV1_Standard
  6
Continuous
 62
     7
100
AcDbCircle
 10
242.145
 20
487.15
 30
0.0
 40
1.5
100
AcDbArc
 50
90.0
 51
143.1301023542
  0
LINE
  5
A2
330
9C
100
AcDbEntity
  8
DV1_Standard
  6
Continuous
 62
     7
100
AcDbLine
 10
345.355
 20
475.8399684044
 30
0.0
 11
345.355
 21
310.65
 31
0.0
  0
LINE
  5
A3
330
9C
100
AcDbEntity
  8
DV1_Standard
  6
Continuous
 62
     7
100
AcDbLine
 10
343.355
 20
308.65
 30
0.0
 11
246.645
 21
308.65
 31
0.0
  0
LINE
  5
A4
330
9C
100
AcDbEntity
  8
DV1_Standard
  6
Continuous
 62
     7
100
AcDbLine
 10
244.645
 20
310.65
 30
0.0
 11
244.645
 21
474.2489731438
 31
0.0
  0
ARC
  5
A5
330
9C
100
AcDbEntity
  8
DV1_Standard
  6
Continuous
 62
     7
100
AcDbCircle
 10
343.355
 20
310.65
 30
0.0
 40
2.000000000000002
100
AcDbArc
 50
270.0
 51
0.0
  0
ARC
  5
A6
330
9C
100
AcDbEntity
  8
DV1_Standard
  6
Continuous
 62
     7
100
AcDbCircle
 10
246.645
 20
310.65
 30
0.0
 40
2.000000000000002
100
AcDbArc
 50
180.0
 51
270.0
  0
LINE
  5
A7
330
9C
100
AcDbEntity
  8
DV1_Standard
  6
Continuous
 62
     7
100
AcDbLine
 10
357.9610570721
 20
476.0391162255
 30
0.0
 11
232.2531591635
 21
474.0532094655
 31
0.0
  0
ARC
  5
A8
330
9C
100
AcDbEntity
  8
DV1_Standard
  6
Continuous
 62
     7
100
AcDbCircle
 10
357.95
 20
476.7390288923
 30
0.0
 40
0.6999999999999983
100
AcDbArc
 50
270.9050713079
 51
0.0
  0
LINE
  5
A9
330
9C
100
AcDbEntity
  8
DV1_Standard
  6
Continuous
 62
     7
100
AcDbLine
 10
358.65
 20
487.35
 30
0.0
 11
358.65
 21
476.7390288923
 31
0.0
  0
ARC
  5
AA
330
9C
100
AcDbEntity
  8
DV1_Standard
  6
Continuous
 62
     7
100
AcDbCircle
 10
357.95
 20
487.35
 30
0.0
 40
0.6999999999999923
100
AcDbArc
 50
0.0
 51
90.0
  0
ARC
  5
AB
330
9C
100
AcDbEntity
  8
DV1_Standard
  6
Continuous
 62
     7
100
AcDbCircle
 10
201.2281531234
 20
474.2632241345
 30
0.0
 40
31.02571684823959
100
AcDbArc
 50
359.6121589671
 51
0.9049719618
  0
LINE
  5
AC
330
9C
100
AcDbEntity
  8
DV1_Standard
  6
Continuous
 62
     7
100
AcDbLine
 10
232.25
 20
487.35
 30
0.0
 11
232.25
 21
474.7532469018
 31
0.0
  0
LINE
  5
AD
330
9C
100
AcDbEntity
  8
DV1_Standard
  6
Continuous
 62
     7
100
AcDbLine
 10
232.25
 20
488.05
 30
0.0
 11
357.95
 21
488.05
 31
0.0
  0
LINE
  5
AE
330
9C
100
AcDbEntity
  8
DV1_Standard
  6
Continuous
 62
     7
100
AcDbLine
 10
232.25
 20
488.05
 30
0.0
 11
232.25
 21
487.35
 31
0.0
  0
LINE
  5
AF
330
9C
100
AcDbEntity
  8
DV1_Standard
  6
Continuous
 62
     7
100
AcDbLine
 10
232.25
 20
488.05
 30
0.0
 11
232.05
 21
487.85
 31
0.0
  0
LINE
  5
B0
330
9C
100
AcDbEntity
  8
DV1_Standard
  6
Continuous
 62
     7
100
AcDbLine
 10
232.25
 20
474.7532469018
 30
0.0
 11
232.05
 21
474.7532469018
 31
0.0
  0
LINE
  5
B1
330
9C
100
AcDbEntity
  8
DV1_Standard
  6
Continuous
 62
     7
100
AcDbLine
 10
232.2531591635
 20
474.0532094655
 30
0.0
 11
232.05
 21
474.2531845131
 31
0.0
  0
ARC
  5
B2
330
9C
100
AcDbEntity
  8
DV1_Standard
  6
Continuous
 62
     7
100
AcDbCircle
 10
225.9647140828
 20
505.35
 30
0.0
 40
0.7000000000000027
100
AcDbArc
 50
17.2847409907
 51
90.0
  0
LINE
  5
B3
330
9C
100
AcDbEntity
  8
DV1_Standard
  6
Continuous
 62
     7
100
AcDbLine
 10
226.6020069952
 20
505.35
 30
0.0
 11
226.6020069952
 21
456.75
 31
0.0
  0
LINE
  5
B4
330
9C
100
AcDbEntity
  8
DV1_Standard
  6
Continuous
 62
     7
100
AcDbLine
 10
232.05
 20
487.842087112
 30
0.0
 11
232.05
 21
474.257912888
 31
0.0
  0
LINE
  5
B5
330
9C
100
AcDbEntity
  8
DV1_Standard
  6
Continuous
 62
     7
100
AcDbLine
 10
226.6331020566
 20
505.5579844142
 30
0.0
 11
232.05
 21
488.15
 31
0.0
  0
LINE
  5
B6
330
9C
100
AcDbEntity
  8
DV1_Standard
  6
Continuous
 62
     7
100
AcDbLine
 10
232.05
 20
488.15
 30
0.0
 11
232.05
 21
487.842087112
 31
0.0
  0
LINE
  5
B7
330
9C
100
AcDbEntity
  8
DV1_Standard
  6
Continuous
 62
     7
100
AcDbLine
 10
232.05
 20
473.95
 30
0.0
 11
226.6331020566
 21
456.5420155858
 31
0.0
  0
LINE
  5
B8
330
9C
100
AcDbEntity
  8
DV1_Standard
  6
Continuous
 62
     7
100
AcDbLine
 10
232.05
 20
474.257912888
 30
0.0
 11
232.05
 21
473.95
 31
0.0
  0
ARC
  5
B9
330
9C
100
AcDbEntity
  8
DV1_Standard
  6
Continuous
 62
     7
100
AcDbCircle
 10
225.9647140828
 20
456.75
 30
0.0
 40
0.6999999999999853
100
AcDbArc
 50
270.0
 51
342.7152590093
  0
LINE
  5
BA
330
9C
100
AcDbEntity
  8
DV1_Standard
  6
Continuous
 62
     7
100
AcDbLine
 10
225.9647140828
 20
456.05
 30
0.0
 11
219.25
 21
456.05
 31
0.0
  0
LINE
  5
BB
330
9C
100
AcDbEntity
  8
DV1_Standard
  6
Continuous
 62
     7
100
AcDbLine
 10
219.05
 20
456.25
 30
0.0
 11
219.05
 21
456.75
 31
0.0
  0
LINE
  5
BC
330
9C
100
AcDbEntity
  8
DV1_Standard
  6
Continuous
 62
     7
100
AcDbLine
 10
219.05
 20
505.35
 30
0.0
 11
219.05
 21
505.85
 31
0.0
  0
LINE
  5
BD
330
9C
100
AcDbEntity
  8
DV1_Standard
  6
Continuous
 62
     7
100
AcDbLine
 10
219.05
 20
456.75
 30
0.0
 11
219.05
 21
505.35
 31
0.0
  0
LINE
  5
BE
330
9C
100
AcDbEntity
  8
DV1_Standard
  6
Continuous
 62
     7
100
AcDbLine
 10
219.25
 20
505.35
 30
0.0
 11
219.25
 21
456.75
 31
0.0
  0
LINE
  5
BF
330
9C
100
AcDbEntity
  8
DV1_Standard
  6
Continuous
 62
     7
100
AcDbLine
 10
219.25
 20
506.05
 30
0.0
 11
225.9647140828
 21
506.05
 31
0.0
  0
LINE
  5
C0
330
9C
100
AcDbEntity
  8
DV1_Standard
  6
Continuous
 62
     7
100
AcDbLine
 10
219.25
 20
506.05
 30
0.0
 11
219.25
 21
505.35
 31
0.0
  0
LINE
  5
C1
330
9C
100
AcDbEntity
  8
DV1_Standard
  6
Continuous
 62
     7
100
AcDbLine
 10
219.25
 20
456.75
 30
0.0
 11
219.25
 21
456.05
 31
0.0
  0
LINE
  5
C2
330
9C
100
AcDbEntity
  8
DV1_Standard
  6
Continuous
 62
     7
100
AcDbLine
 10
219.05
 20
456.25
 30
0.0
 11
219.25
 21
456.05
 31
0.0
  0
LINE
  5
C3
330
9C
100
AcDbEntity
  8
DV1_Standard
  6
Continuous
 62
     7
100
AcDbLine
 10
219.25
 20
506.05
 30
0.0
 11
219.05
 21
505.85
 31
0.0
  0
LINE
  5
C4
330
9C
100
AcDbEntity
  8
DV1_Standard
  6
Continuous
 62
     7
100
AcDbLine
 10
288.0
 20
726.65
 30
0.0
 11
288.1050350225
 21
726.7025135116
 31
0.0
  0
LINE
  5
C5
330
9C
100
AcDbEntity
  8
DV1_Standard
  6
Continuous
 62
     7
100
AcDbLine
 10
303.1
 20
726.65
 30
0.0
 11
303.0
 21
726.65
 31
0.0
  0
LINE
  5
C6
330
9C
100
AcDbEntity
  8
DV1_Standard
  6
Continuous
 62
     7
100
AcDbLine
 10
286.9
 20
726.65
 30
0.0
 11
286.90056353
 21
726.7145741364
 31
0.0
  0
LINE
  5
C7
330
9C
100
AcDbEntity
  8
DV1_Standard
  6
Continuous
 62
     7
100
AcDbLine
 10
287.0
 20
726.65
 30
0.0
 11
286.9
 21
726.65
 31
0.0
  0
LINE
  5
C8
330
9C
100
AcDbEntity
  8
DV1_Standard
  6
Continuous
 62
     7
100
AcDbLine
 10
287.6005901808
 20
726.7206822461
 30
0.0
 11
302.3994098192
 21
726.7206822461
 31
0.0
  0
ELLIPSE
  5
C9
330
9C
100
AcDbEntity
  8
DV1_Standard
  6
Continuous
 62
     7
100
AcDbEllipse
 10
287.6005901808
 20
726.7145736712
 30
0.0
 11
0.7000266528402206
 21
0.0
 31
0.0
210
0.0
220
0.0
230
1.0
 40
0.0087262032
 41
1.570796326794897
 42
3.141516501749655
  0
LINE
  5
CA
330
9C
100
AcDbEntity
  8
DV1_Standard
  6
Continuous
 62
     7
100
AcDbLine
 10
286.90056353
 20
726.7145741364
 30
0.0
 11
286.9209901759
 21
729.0552359213
 31
0.0
  0
LINE
  5
CB
330
9C
100
AcDbEntity
  8
DV1_Standard
  6
Continuous
 62
     7
100
AcDbLine
 10
303.09943647
 20
726.7145741364
 30
0.0
 11
303.1
 21
726.65
 31
0.0
  0
ELLIPSE
  5
CC
330
9C
100
AcDbEntity
  8
DV1_Standard
  6
Continuous
 62
     7
100
AcDbEllipse
 10
302.3994098192
 20
726.7145736712
 30
0.0
 11
0.7000266528402249
 21
-2.775557561562891E-14
 31
0.0
210
0.0
220
0.0
230
1.0
 40
0.0087262032
 41
0.0000761529875019
 42
1.570796326794897
  0
LINE
  5
CD
330
9C
100
AcDbEntity
  8
DV1_Standard
  6
Continuous
 62
     7
100
AcDbLine
 10
302.379036478
 20
729.65
 30
0.0
 11
302.4790326703
 21
729.65
 31
0.0
  0
LINE
  5
CE
330
9C
100
AcDbEntity
  8
DV1_Standard
  6
Continuous
 62
     7
100
AcDbLine
 10
287.620963522
 20
729.65
 30
0.0
 11
302.379036478
 21
729.65
 31
0.0
  0
LINE
  5
CF
330
9C
100
AcDbEntity
  8
DV1_Standard
  6
Continuous
 62
     7
100
AcDbLine
 10
287.5209673297
 20
729.65
 30
0.0
 11
287.620963522
 21
729.65
 31
0.0
  0
LINE
  5
D0
330
9C
100
AcDbEntity
  8
DV1_Standard
  6
Continuous
 62
     7
100
AcDbLine
 10
303.0790098241
 20
729.0552359213
 30
0.0
 11
303.09943647
 21
726.7145741364
 31
0.0
  0
ARC
  5
D1
330
9C
100
AcDbEntity
  8
DV1_Standard
  6
Continuous
 62
     7
100
AcDbCircle
 10
302.4790326703
 20
729.05
 30
0.0
 40
0.599999999999998
100
AcDbArc
 50
0.5
 51
90.0
  0
ARC
  5
D2
330
9C
100
AcDbEntity
  8
DV1_Standard
  6
Continuous
 62
     7
100
AcDbCircle
 10
287.5209673297
 20
729.05
 30
0.0
 40
0.599999999999998
100
AcDbArc
 50
90.0
 51
179.5
  0
LINE
  5
D3
330
9C
100
AcDbEntity
  8
DV1_Standard
  6
Continuous
 62
     7
100
AcDbLine
 10
301.8949649775
 20
726.7025135116
 30
0.0
 11
302.0
 21
726.65
 31
0.0
  0
LINE
  5
D4
330
9C
100
AcDbEntity
  8
DV1_Standard
  6
Continuous
 62
     7
100
AcDbLine
 10
301.8949649775
 20
726.7025135116
 30
0.0
 11
301.8949649775
 21
726.65
 31
0.0
  0
ELLIPSE
  5
D5
330
9C
100
AcDbEntity
  8
DV1_Standard
  6
Continuous
 62
     7
100
AcDbEllipse
 10
300.8951172824
 20
726.7023612067
 30
0.0
 11
-1.0
 21
2.775557561562891E-14
 31
0.0
210
0.0
220
0.0
230
1.0
 40
0.0087268678
 41
3.159045946105727
 42
4.71238898038469
  0
LINE
  5
D6
330
9C
100
AcDbEntity
  8
DV1_Standard
  6
Continuous
 62
     7
100
AcDbLine
 10
288.1050350225
 20
726.65
 30
0.0
 11
288.1050350225
 21
726.7025135116
 31
0.0
  0
LINE
  5
D7
330
9C
100
AcDbEntity
  8
DV1_Standard
  6
Continuous
 62
     7
100
AcDbLine
 10
289.1048827176
 20
726.7110880745
 30
0.0
 11
300.8951172824
 21
726.7110880745
 31
0.0
  0
ELLIPSE
  5
D8
330
9C
100
AcDbEntity
  8
DV1_Standard
  6
Continuous
 62
     7
100
AcDbEllipse
 10
289.1048827176
 20
726.7023612067
 30
0.0
 11
-0.9999999999999991
 21
0.0
 31
0.0
210
0.0
220
0.0
230
1.0
 40
0.0087268678
 41
4.71238898038469
 42
6.265732014660446
  0
LINE
  5
D9
330
9C
100
AcDbEntity
  8
DV1_Standard
  6
Continuous
 62
     7
100
AcDbLine
 10
303.0
 20
726.65
 30
0.0
 11
302.3
 21
726.65
 31
0.0
  0
LINE
  5
DA
330
9C
100
AcDbEntity
  8
DV1_Standard
  6
Continuous
 62
     7
100
AcDbLine
 10
302.3
 20
726.65
 30
0.0
 11
287.7
 21
726.65
 31
0.0
  0
LINE
  5
DB
330
9C
100
AcDbEntity
  8
DV1_Standard
  6
Continuous
 62
     7
100
AcDbLine
 10
287.7
 20
726.65
 30
0.0
 11
287.0
 21
726.65
 31
0.0
  0
LINE
  5
DC
330
9C
100
AcDbEntity
  8
DV1_Standard
  6
Continuous
 62
     7
100
AcDbLine
 10
303.0
 20
726.65
 30
0.0
 11
303.0
 21
488.65
 31
0.0
  0
LINE
  5
DD
330
9C
100
AcDbEntity
  8
DV1_Standard
  6
Continuous
 62
     7
100
AcDbLine
 10
287.0
 20
726.65
 30
0.0
 11
287.0
 21
488.65
 31
0.0
  0
ENDBLK
  5
DF
330
9C
100
AcDbEntity
  8
0
100
AcDbBlockEnd
  0
BLOCK
  5
144
330
E0
100
AcDbEntity
  8
0
100
AcDbBlockBegin
  2
SE1
 70
     0
 10
0.0
 20
0.0
 30
0.0
  3
SE1
  1

  0
LINE
  5
E3
330
E0
100
AcDbEntity
  8
DV2_Standard
  6
Continuous
 62
     7
100
AcDbLine
 10
28.495
 20
488.65
 30
0.0
 11
134.205
 21
488.65
 31
0.0
  0
ARC
  5
E4
330
E0
100
AcDbEntity
  8
DV2_Standard
  6
Continuous
 62
     7
100
AcDbCircle
 10
134.205
 20
487.15
 30
0.0
 40
1.500000000000001
100
AcDbArc
 50
36.8698976458
 51
90.0
  0
ARC
  5
E5
330
E0
100
AcDbEntity
  8
DV2_Standard
  6
Continuous
 62
     7
100
AcDbCircle
 10
28.495
 20
487.15
 30
0.0
 40
1.500000000000001
100
AcDbArc
 50
90.0
 51
143.1301023542
  0
LINE
  5
E6
330
E0
100
AcDbEntity
  8
DV2_Standard
  6
Continuous
 62
     7
100
AcDbLine
 10
131.705
 20
475.8779169112
 30
0.0
 11
131.705
 21
310.65
 31
0.0
  0
LINE
  5
E7
330
E0
100
AcDbEntity
  8
DV2_Standard
  6
Continuous
 62
     7
100
AcDbLine
 10
129.705
 20
308.65
 30
0.0
 11
32.995
 21
308.65
 31
0.0
  0
LINE
  5
E8
330
E0
100
AcDbEntity
  8
DV2_Standard
  6
Continuous
 62
     7
100
AcDbLine
 10
30.995
 20
310.65
 30
0.0
 11
30.995
 21
475.877917021
 31
0.0
  0
ARC
  5
E9
330
E0
100
AcDbEntity
  8
DV2_Standard
  6
Continuous
 62
     7
100
AcDbCircle
 10
32.995
 20
310.65
 30
0.0
 40
2.000000000000002
100
AcDbArc
 50
180.0
 51
270.0
  0
ARC
  5
EA
330
E0
100
AcDbEntity
  8
DV2_Standard
  6
Continuous
 62
     7
100
AcDbCircle
 10
129.705
 20
310.65
 30
0.0
 40
1.999999999999974
100
AcDbArc
 50
270.0
 51
0.0
  0
LINE
  5
EB
330
E0
100
AcDbEntity
  8
DV2_Standard
  6
Continuous
 62
     7
100
AcDbLine
 10
29.3435856236
 20
475.8665314904
 30
0.0
 11
29.3665193482
 21
474.5526592854
 31
0.0
  0
ELLIPSE
  5
EC
330
E0
100
AcDbEntity
  8
DV2_Standard
  6
Continuous
 62
     7
100
AcDbEllipse
 10
31.295
 20
474.5526676864
 30
0.0
 11
-1.928480725113986
 21
0.0
 31
0.0
210
0.0
220
0.0
230
1.0
 40
0.0157977889
 41
0.000275751424556
 42
1.414599090228737
  0
LINE
  5
ED
330
E0
100
AcDbEntity
  8
DV2_Standard
  6
Continuous
 62
     7
100
AcDbLine
 10
30.7296212823
 20
475.8775641601
 30
0.0
 11
30.7753476548
 21
474.5681321748
 31
0.0
  0
ELLIPSE
  5
EE
330
E0
100
AcDbEntity
  8
DV2_Standard
  6
Continuous
 62
     7
100
AcDbEllipse
 10
32.2762609633
 20
474.5681610384
 30
0.0
 11
-1.500913536650682
 21
-1.580126199503262E-5
 31
0.0
210
0.0
220
0.0
230
1.0
 40
0.0157890826
 41
0.0005512004263384
 42
0.5478349522047176
  0
LINE
  5
EF
330
E0
100
AcDbEntity
  8
DV2_Standard
  6
Continuous
 62
     7
100
AcDbLine
 10
133.3564143764
 20
475.8665314904
 30
0.0
 11
133.3334806518
 21
474.5526592854
 31
0.0
  0
ELLIPSE
  5
F0
330
E0
100
AcDbEntity
  8
DV2_Standard
  6
Continuous
 62
     7
100
AcDbEllipse
 10
131.405
 20
474.5526676864
 30
0.0
 11
1.928480725113986
 21
0.0
 31
0.0
210
0.0
220
0.0
230
1.0
 40
0.0157977889
 41
4.868586216950833
 42
6.282909555674506
  0
ELLIPSE
  5
F1
330
E0
100
AcDbEntity
  8
DV2_Standard
  6
Continuous
 62
     7
100
AcDbEllipse
 10
130.4237390367
 20
474.5681610384
 30
0.0
 11
1.500913536650682
 21
-1.580126199503262E-5
 31
0.0
210
0.0
220
0.0
230
1.0
 40
0.0157890826
 41
5.735350354974873
 42
6.282634106753248
  0
LINE
  5
F2
330
E0
100
AcDbEntity
  8
DV2_Standard
  6
Continuous
 62
     7
100
AcDbLine
 10
131.9703787042
 20
475.8775637729
 30
0.0
 11
131.9246523452
 21
474.5681321748
 31
0.0
  0
LINE
  5
F3
330
E0
100
AcDbEntity
  8
DV2_Standard
  6
Continuous
 62
     7
100
AcDbLine
 10
143.15
 20
476.0391162255
 30
0.0
 11
19.55
 21
476.0391162255
 31
0.0
  0
LINE
  5
F4
330
E0
100
AcDbEntity
  8
DV2_Standard
  6
Continuous
 62
     7
100
AcDbLine
 10
18.85
 20
476.7390288923
 30
0.0
 11
18.85
 21
487.35
 31
0.0
  0
LINE
  5
F5
330
E0
100
AcDbEntity
  8
DV2_Standard
  6
Continuous
 62
     7
100
AcDbLine
 10
143.85
 20
476.7390288923
 30
0.0
 11
143.85
 21
474.7532469018
 31
0.0
  0
ELLIPSE
  5
F6
330
E0
100
AcDbEntity
  8
DV2_Standard
  6
Continuous
 62
     7
100
AcDbEllipse
 10
143.15
 20
476.7390288923
 30
0.0
 11
-0.7000000000004641
 21
-6.330005963839369E-12
 31
0.0
210
0.0
220
0.0
230
1.0
 40
0.9998752383
 41
1.570796326785855
 42
3.141592653589793
  0
ELLIPSE
  5
F7
330
E0
100
AcDbEntity
  8
DV2_Standard
  6
Continuous
 62
     7
100
AcDbEllipse
 10
19.55
 20
476.7390288923
 30
0.0
 11
0.7000000000004641
 21
-6.330005963839369E-12
 31
0.0
210
0.0
220
0.0
230
1.0
 40
0.9998752383
 41
3.141592653589741
 42
4.712388980393731
  0
LINE
  5
F8
330
E0
100
AcDbEntity
  8
DV2_Standard
  6
Continuous
 62
     7
100
AcDbLine
 10
19.55
 20
488.05
 30
0.0
 11
143.15
 21
488.05
 31
0.0
  0
LINE
  5
F9
330
E0
100
AcDbEntity
  8
DV2_Standard
  6
Continuous
 62
     7
100
AcDbLine
 10
143.85
 20
487.35
 30
0.0
 11
143.85
 21
476.7390288923
 31
0.0
  0
ARC
  5
FA
330
E0
100
AcDbEntity
  8
DV2_Standard
  6
Continuous
 62
     7
100
AcDbCircle
 10
143.15
 20
487.35
 30
0.0
 40
0.6999999999999993
100
AcDbArc
 50
0.0
 51
90.0
  0
ARC
  5
FB
330
E0
100
AcDbEntity
  8
DV2_Standard
  6
Continuous
 62
     7
100
AcDbCircle
 10
19.55
 20
487.35
 30
0.0
 40
0.6999999999999993
100
AcDbArc
 50
90.0
 51
180.0
  0
ARC
  5
FC
330
E0
100
AcDbEntity
  8
DV2_Standard
  6
Continuous
 62
     7
100
AcDbCircle
 10
132.239316172
 20
514.0460794866
 30
0.0
 40
39.84007096442814
100
AcDbArc
 50
269.2318002638
 51
272.6884289484
  0
LINE
  5
FD
330
E0
100
AcDbEntity
  8
DV2_Standard
  6
Continuous
 62
     7
100
AcDbLine
 10
134.1079612828
 20
475.8384363928
 30
0.0
 11
134.1079612828
 21
474.2507586677
 31
0.0
  0
ARC
  5
FE
330
E0
100
AcDbEntity
  8
DV2_Standard
  6
Continuous
 62
     7
100
AcDbCircle
 10
132.23934759
 20
436.0431160781
 30
0.0
 40
39.84007096444252
100
AcDbArc
 50
87.31063395
 51
90.9195136999
  0
LINE
  5
FF
330
E0
100
AcDbEntity
  8
DV2_Standard
  6
Continuous
 62
     7
100
AcDbLine
 10
92.85
 20
475.8780566342
 30
0.0
 11
131.6
 21
475.8780566342
 31
0.0
  0
ARC
  5
100
330
E0
100
AcDbEntity
  8
DV2_Standard
  6
Continuous
 62
     7
100
AcDbCircle
 10
92.7264034202
 20
483.7533800391
 30
0.0
 40
7.876293217356486
100
AcDbArc
 50
267.3183599589
 51
270.8991352728
  0
LINE
  5
101
330
E0
100
AcDbEntity
  8
DV2_Standard
  6
Continuous
 62
     7
100
AcDbLine
 10
92.3579612828
 20
475.9197950026
 30
0.0
 11
92.3579612828
 21
475.8858297577
 31
0.0
  0
ARC
  5
102
330
E0
100
AcDbEntity
  8
DV2_Standard
  6
Continuous
 62
     7
100
AcDbCircle
 10
90.8594760298
 20
443.8131816528
 30
0.0
 40
32.14237270213103
100
AcDbArc
 50
87.3267351516
 51
90.9082107598
  0
LINE
  5
103
330
E0
100
AcDbEntity
  8
DV2_Standard
  6
Continuous
 62
     7
100
AcDbLine
 10
72.35
 20
475.9515163499
 30
0.0
 11
90.35
 21
475.9515163499
 31
0.0
  0
ARC
  5
104
330
E0
100
AcDbEntity
  8
DV2_Standard
  6
Continuous
 62
     7
100
AcDbCircle
 10
30.46065241
 20
514.0460789823
 30
0.0
 40
39.84007096441395
100
AcDbArc
 50
267.3116161524
 51
270.7682436451
  0
ARC
  5
105
330
E0
100
AcDbEntity
  8
DV2_Standard
  6
Continuous
 62
     7
100
AcDbCircle
 10
71.8405456631
 20
443.813181309
 30
0.0
 40
32.14237270213025
100
AcDbArc
 50
89.0918279139
 51
92.6733016005
  0
LINE
  5
106
330
E0
100
AcDbEntity
  8
DV2_Standard
  6
Continuous
 62
     7
100
AcDbLine
 10
28.5920387172
 20
474.2507586677
 30
0.0
 11
28.5920387172
 21
475.8384363928
 31
0.0
  0
LINE
  5
107
330
E0
100
AcDbEntity
  8
DV2_Standard
  6
Continuous
 62
     7
100
AcDbLine
 10
70.3420387172
 20
475.8858297577
 30
0.0
 11
70.3420387172
 21
475.9197950026
 31
0.0
  0
ARC
  5
108
330
E0
100
AcDbEntity
  8
DV2_Standard
  6
Continuous
 62
     7
100
AcDbCircle
 10
30.460683828
 20
436.0431155739
 30
0.0
 40
39.84007096439368
100
AcDbArc
 50
89.0805314895
 51
92.6894089375
  0
ARC
  5
109
330
E0
100
AcDbEntity
  8
DV2_Standard
  6
Continuous
 62
     7
100
AcDbCircle
 10
69.9736434321
 20
483.7533793036
 30
0.0
 40
7.876293217358517
100
AcDbArc
 50
269.1005238602
 51
272.6813097256
  0
LINE
  5
10A
330
E0
100
AcDbEntity
  8
DV2_Standard
  6
Continuous
 62
     7
100
AcDbLine
 10
31.1
 20
475.8780566342
 30
0.0
 11
69.85
 21
475.8780566342
 31
0.0
  0
LINE
  5
10B
330
E0
100
AcDbEntity
  8
DV2_Standard
  6
Continuous
 62
     7
100
AcDbLine
 10
29.1
 20
475.8610417787
 30
0.0
 11
29.1
 21
474.7586565763
 31
0.0
  0
ARC
  5
10C
330
E0
100
AcDbEntity
  8
DV2_Standard
  6
Continuous
 62
     7
100
AcDbCircle
 10
30.6232576233
 20
501.152497881
 30
0.0
 40
26.43776035530654
100
AcDbArc
 50
266.6969746167
 51
267.2567819311
  0
LINE
  5
10D
330
E0
100
AcDbEntity
  8
DV2_Standard
  6
Continuous
 62
     7
100
AcDbLine
 10
133.6
 20
474.7586565763
 30
0.0
 11
133.6
 21
475.8610417787
 31
0.0
  0
ARC
  5
10E
330
E0
100
AcDbEntity
  8
DV2_Standard
  6
Continuous
 62
     7
100
AcDbCircle
 10
132.0747451654
 20
501.2533156063
 30
0.0
 40
26.53852594667083
100
AcDbArc
 50
272.7370972258
 51
273.2947891532
  0
LINE
  5
10F
330
E0
100
AcDbEntity
  8
DV2_Standard
  6
Continuous
 62
     7
100
AcDbLine
 10
133.6
 20
474.7586565763
 30
0.0
 11
134.1079612828
 21
474.2507586677
 31
0.0
  0
LINE
  5
110
330
E0
100
AcDbEntity
  8
DV2_Standard
  6
Continuous
 62
     7
100
AcDbLine
 10
28.5920387172
 20
474.2507586677
 30
0.0
 11
29.1
 21
474.7586565763
 31
0.0
  0
LINE
  5
111
330
E0
100
AcDbEntity
  8
DV2_Standard
  6
Continuous
 62
     7
100
AcDbLine
 10
19.55
 20
474.0532094655
 30
0.0
 11
30.995
 21
474.0532094655
 31
0.0
  0
LINE
  5
112
330
E0
100
AcDbEntity
  8
DV2_Standard
  6
Continuous
 62
     7
100
AcDbLine
 10
131.705
 20
474.0532094655
 30
0.0
 11
143.15
 21
474.0532094655
 31
0.0
  0
LINE
  5
113
330
E0
100
AcDbEntity
  8
DV2_Standard
  6
Continuous
 62
     7
100
AcDbLine
 10
18.85
 20
474.7532469018
 30
0.0
 11
18.85
 21
476.7390288923
 31
0.0
  0
ARC
  5
114
330
E0
100
AcDbEntity
  8
DV2_Standard
  6
Continuous
 62
     7
100
AcDbCircle
 10
19.5500628348
 20
474.7532722979
 30
0.0
 40
0.7000628352559161
100
AcDbArc
 50
180.0020785158
 51
269.9948573637
  0
ARC
  5
115
330
E0
100
AcDbEntity
  8
DV2_Standard
  6
Continuous
 62
     7
100
AcDbCircle
 10
143.1499371652
 20
474.7532722979
 30
0.0
 40
0.700062835255913
100
AcDbArc
 50
270.0051426363
 51
359.9979214842
  0
LINE
  5
116
330
E0
100
AcDbEntity
  8
DV2_Standard
  6
Continuous
 62
     7
100
AcDbLine
 10
7.05
 20
506.05
 30
0.0
 11
73.35
 21
506.05
 31
0.0
  0
LINE
  5
117
330
E0
100
AcDbEntity
  8
DV2_Standard
  6
Continuous
 62
     7
100
AcDbLine
 10
89.35
 20
506.05
 30
0.0
 11
155.65
 21
506.05
 31
0.0
  0
LINE
  5
118
330
E0
100
AcDbEntity
  8
DV2_Standard
  6
Continuous
 62
     7
100
AcDbLine
 10
18.75
 20
487.842087112
 30
0.0
 11
18.75
 21
474.257912888
 31
0.0
  0
LINE
  5
119
330
E0
100
AcDbEntity
  8
DV2_Standard
  6
Continuous
 62
     7
100
AcDbLine
 10
18.75
 20
487.842087112
 30
0.0
 11
6.7604179842
 21
505.35
 31
0.0
  0
LINE
  5
11A
330
E0
100
AcDbEntity
  8
DV2_Standard
  6
Continuous
 62
     7
100
AcDbLine
 10
18.971150065
 20
488.15
 30
0.0
 11
27.3769660113
 21
488.15
 31
0.0
  0
LINE
  5
11B
330
E0
100
AcDbEntity
  8
DV2_Standard
  6
Continuous
 62
     7
100
AcDbLine
 10
135.3230339887
 20
488.15
 30
0.0
 11
143.728849935
 21
488.15
 31
0.0
  0
LINE
  5
11C
330
E0
100
AcDbEntity
  8
DV2_Standard
  6
Continuous
 62
     7
100
AcDbLine
 10
7.05
 20
505.5579844142
 30
0.0
 11
18.971150065
 21
488.15
 31
0.0
  0
ELLIPSE
  5
11D
330
E0
100
AcDbEntity
  8
DV2_Standard
  6
Continuous
 62
     7
100
AcDbEllipse
 10
20.4420940297
 20
485.7940542339
 30
0.0
 11
1.590475948551554
 21
-2.322509185142029
 31
0.0
210
0.0
220
0.0
230
1.0
 40
0.2486766746
 41
2.972914721810867
 42
3.489918763316779
  0
ARC
  5
11E
330
E0
100
AcDbEntity
  8
DV2_Standard
  6
Continuous
 62
     7
100
AcDbCircle
 10
7.05
 20
505.35
 30
0.0
 40
0.6999999999999923
100
AcDbArc
 50
90.0
 51
180.0
  0
LINE
  5
11F
330
E0
100
AcDbEntity
  8
DV2_Standard
  6
Continuous
 62
     7
100
AcDbLine
 10
143.95
 20
487.842087112
 30
0.0
 11
143.95
 21
474.257912888
 31
0.0
  0
LINE
  5
120
330
E0
100
AcDbEntity
  8
DV2_Standard
  6
Continuous
 62
     7
100
AcDbLine
 10
155.9395820158
 20
505.35
 30
0.0
 11
143.95
 21
487.842087112
 31
0.0
  0
ELLIPSE
  5
121
330
E0
100
AcDbEntity
  8
DV2_Standard
  6
Continuous
 62
     7
100
AcDbEllipse
 10
142.2579059703
 20
485.7940542339
 30
0.0
 11
-1.590475948551556
 21
-2.322509185142026
 31
0.0
210
0.0
220
0.0
230
1.0
 40
0.2486766746
 41
2.793266543862847
 42
3.310270585368555
  0
LINE
  5
122
330
E0
100
AcDbEntity
  8
DV2_Standard
  6
Continuous
 62
     7
100
AcDbLine
 10
143.728849935
 20
488.15
 30
0.0
 11
155.65
 21
505.5579844142
 31
0.0
  0
LINE
  5
123
330
E0
100
AcDbEntity
  8
DV2_Standard
  6
Continuous
 62
     7
100
AcDbLine
 10
156.35
 20
505.35
 30
0.0
 11
156.35
 21
456.75
 31
0.0
  0
ARC
  5
124
330
E0
100
AcDbEntity
  8
DV2_Standard
  6
Continuous
 62
     7
100
AcDbCircle
 10
155.65
 20
505.35
 30
0.0
 40
0.6999999999999923
100
AcDbArc
 50
0.0
 51
90.0
  0
LINE
  5
125
330
E0
100
AcDbEntity
  8
DV2_Standard
  6
Continuous
 62
     7
100
AcDbLine
 10
155.65
 20
456.5420155858
 30
0.0
 11
143.728849935
 21
473.95
 31
0.0
  0
ELLIPSE
  5
126
330
E0
100
AcDbEntity
  8
DV2_Standard
  6
Continuous
 62
     7
100
AcDbEllipse
 10
142.2579059703
 20
476.3059457661
 30
0.0
 11
-1.590475948551556
 21
2.322509185142026
 31
0.0
210
0.0
220
0.0
230
1.0
 40
0.2486766746
 41
2.972914721811031
 42
3.489918763316674
  0
LINE
  5
127
330
E0
100
AcDbEntity
  8
DV2_Standard
  6
Continuous
 62
     7
100
AcDbLine
 10
143.95
 20
474.257912888
 30
0.0
 11
155.9395820158
 21
456.75
 31
0.0
  0
LINE
  5
128
330
E0
100
AcDbEntity
  8
DV2_Standard
  6
Continuous
 62
     7
100
AcDbLine
 10
155.65
 20
456.05
 30
0.0
 11
131.705
 21
456.05
 31
0.0
  0
LINE
  5
129
330
E0
100
AcDbEntity
  8
DV2_Standard
  6
Continuous
 62
     7
100
AcDbLine
 10
30.995
 20
456.05
 30
0.0
 11
7.05
 21
456.05
 31
0.0
  0
ARC
  5
12A
330
E0
100
AcDbEntity
  8
DV2_Standard
  6
Continuous
 62
     7
100
AcDbCircle
 10
155.65
 20
456.75
 30
0.0
 40
0.6999999999999993
100
AcDbArc
 50
270.0
 51
0.0
  0
LINE
  5
12B
330
E0
100
AcDbEntity
  8
DV2_Standard
  6
Continuous
 62
     7
100
AcDbLine
 10
18.971150065
 20
473.95
 30
0.0
 11
30.995
 21
473.95
 31
0.0
  0
LINE
  5
12C
330
E0
100
AcDbEntity
  8
DV2_Standard
  6
Continuous
 62
     7
100
AcDbLine
 10
131.705
 20
473.95
 30
0.0
 11
143.728849935
 21
473.95
 31
0.0
  0
LINE
  5
12D
330
E0
100
AcDbEntity
  8
DV2_Standard
  6
Continuous
 62
     7
100
AcDbLine
 10
18.971150065
 20
473.95
 30
0.0
 11
7.05
 21
456.5420155858
 31
0.0
  0
LINE
  5
12E
330
E0
100
AcDbEntity
  8
DV2_Standard
  6
Continuous
 62
     7
100
AcDbLine
 10
6.7604179842
 20
456.75
 30
0.0
 11
18.75
 21
474.257912888
 31
0.0
  0
ELLIPSE
  5
12F
330
E0
100
AcDbEntity
  8
DV2_Standard
  6
Continuous
 62
     7
100
AcDbEllipse
 10
20.4420940297
 20
476.3059457661
 30
0.0
 11
1.590475948551554
 21
2.322509185142029
 31
0.0
210
0.0
220
0.0
230
1.0
 40
0.2486766746
 41
2.793266543862907
 42
3.31027058536853
  0
LINE
  5
130
330
E0
100
AcDbEntity
  8
DV2_Standard
  6
Continuous
 62
     7
100
AcDbLine
 10
6.35
 20
456.75
 30
0.0
 11
6.35
 21
505.35
 31
0.0
  0
ARC
  5
131
330
E0
100
AcDbEntity
  8
DV2_Standard
  6
Continuous
 62
     7
100
AcDbCircle
 10
7.05
 20
456.75
 30
0.0
 40
0.6999999999999923
100
AcDbArc
 50
180.0
 51
270.0
  0
LINE
  5
132
330
E0
100
AcDbEntity
  8
DV2_Standard
  6
Continuous
 62
     7
100
AcDbLine
 10
81.35
 20
726.65
 30
0.0
 11
88.7494631239
 21
726.7145741364
 31
0.0
  0
LINE
  5
133
330
E0
100
AcDbEntity
  8
DV2_Standard
  6
Continuous
 62
     7
100
AcDbLine
 10
89.4493831654
 20
726.7206822461
 30
0.0
 11
88.7494631239
 21
726.7145741364
 31
0.0
  0
LINE
  5
134
330
E0
100
AcDbEntity
  8
DV2_Standard
  6
Continuous
 62
     7
100
AcDbLine
 10
73.9505368761
 20
726.7145741364
 30
0.0
 11
81.35
 21
726.65
 31
0.0
  0
LINE
  5
135
330
E0
100
AcDbEntity
  8
DV2_Standard
  6
Continuous
 62
     7
100
AcDbLine
 10
73.9505368761
 20
726.7145741364
 30
0.0
 11
73.2506168346
 21
726.7206822461
 31
0.0
  0
LINE
  5
136
330
E0
100
AcDbEntity
  8
DV2_Standard
  6
Continuous
 62
     7
100
AcDbLine
 10
73.2506168346
 20
726.7206822461
 30
0.0
 11
73.2709901759
 21
729.0552359213
 31
0.0
  0
LINE
  5
137
330
E0
100
AcDbEntity
  8
DV2_Standard
  6
Continuous
 62
     7
100
AcDbLine
 10
73.970963522
 20
729.65
 30
0.0
 11
88.729036478
 21
729.65
 31
0.0
  0
LINE
  5
138
330
E0
100
AcDbEntity
  8
DV2_Standard
  6
Continuous
 62
     7
100
AcDbLine
 10
73.8709673297
 20
729.65
 30
0.0
 11
73.970963522
 21
729.65
 31
0.0
  0
LINE
  5
139
330
E0
100
AcDbEntity
  8
DV2_Standard
  6
Continuous
 62
     7
100
AcDbLine
 10
88.729036478
 20
729.65
 30
0.0
 11
88.8290326703
 21
729.65
 31
0.0
  0
LINE
  5
13A
330
E0
100
AcDbEntity
  8
DV2_Standard
  6
Continuous
 62
     7
100
AcDbLine
 10
89.4290098241
 20
729.0552359213
 30
0.0
 11
89.4493831654
 21
726.7206822461
 31
0.0
  0
ARC
  5
13B
330
E0
100
AcDbEntity
  8
DV2_Standard
  6
Continuous
 62
     7
100
AcDbCircle
 10
88.8290326703
 20
729.05
 30
0.0
 40
0.5999999999999894
100
AcDbArc
 50
0.5
 51
90.0
  0
ARC
  5
13C
330
E0
100
AcDbEntity
  8
DV2_Standard
  6
Continuous
 62
     7
100
AcDbCircle
 10
73.8709673297
 20
729.05
 30
0.0
 40
0.5999999999999989
100
AcDbArc
 50
90.0
 51
179.5
  0
LINE
  5
13D
330
E0
100
AcDbEntity
  8
DV2_Standard
  6
Continuous
 62
     7
100
AcDbLine
 10
88.35
 20
726.7110880745
 30
0.0
 11
88.35
 21
726.65
 31
0.0
  0
LINE
  5
13E
330
E0
100
AcDbEntity
  8
DV2_Standard
  6
Continuous
 62
     7
100
AcDbLine
 10
74.35
 20
726.65
 30
0.0
 11
74.35
 21
726.7110880745
 31
0.0
  0
LINE
  5
13F
330
E0
100
AcDbEntity
  8
DV2_Standard
  6
Continuous
 62
     7
100
AcDbLine
 10
89.35
 20
726.65
 30
0.0
 11
88.65
 21
726.65
 31
0.0
  0
LINE
  5
140
330
E0
100
AcDbEntity
  8
DV2_Standard
  6
Continuous
 62
     7
100
AcDbLine
 10
88.65
 20
726.65
 30
0.0
 11
74.05
 21
726.65
 31
0.0
  0
LINE
  5
141
330
E0
100
AcDbEntity
  8
DV2_Standard
  6
Continuous
 62
     7
100
AcDbLine
 10
74.05
 20
726.65
 30
0.0
 11
73.35
 21
726.65
 31
0.0
  0
LINE
  5
142
330
E0
100
AcDbEntity
  8
DV2_Standard
  6
Continuous
 62
     7
100
AcDbLine
 10
73.35
 20
726.65
 30
0.0
 11
73.35
 21
488.65
 31
0.0
  0
LINE
  5
143
330
E0
100
AcDbEntity
  8
DV2_Standard
  6
Continuous
 62
     7
100
AcDbLine
 10
89.35
 20
726.65
 30
0.0
 11
89.35
 21
488.65
 31
0.0
  0
ENDBLK
  5
145
330
E0
100
AcDbEntity
  8
0
100
AcDbBlockEnd
  0
BLOCK
  5
1B8
330
146
100
AcDbEntity
  8
0
100
AcDbBlockBegin
  2
SE2
 70
     0
 10
0.0
 20
0.0
 30
0.0
  3
SE2
  1

  0
LINE
  5
149
330
146
100
AcDbEntity
  8
DV3_Standard
  6
Continuous
 62
     7
100
AcDbLine
 10
125.85
 20
209.5068523262
 30
0.0
 11
125.85
 21
130.4931476738
 31
0.0
  0
LINE
  5
14A
330
146
100
AcDbEntity
  8
DV3_Standard
  6
Continuous
 62
     7
100
AcDbLine
 10
117.4920073599
 20
201.1488596862
 30
0.0
 11
117.4920073599
 21
185.8847127455
 31
0.0
  0
SPLINE
  5
14B
330
146
100
AcDbEntity
  8
DV3_Standard
  6
Continuous
 62
     7
100
AcDbSpline
210
0.0
220
0.0
230
1.0
 70
     8
 71
     3
 72
    14
 73
    10
 74
     0
 42
0.0000000012667272
 43
0.0000000001
 40
0.0
 40
0.0
 40
0.0
 40
0.0
 40
0.2499999601683446
 40
0.2499999601683446
 40
0.499999999999998
 40
0.499999999999998
 40
0.7500000398316157
 40
0.7500000398316157
 40
1.0
 40
1.0
 40
1.0
 40
1.0
 10
117.4920070679672
 20
201.1488596861678
 30
0.0
 10
117.4920065047416
 20
201.8028246886604
 30
0.0
 10
117.3622485813481
 20
202.4564046035285
 30
0.0
 10
116.8623827014703
 20
203.6643750237589
 30
0.0
 10
116.492470260876
 20
204.2182819322918
 30
0.0
 10
115.5682819322919
 20
205.1424702608759
 30
0.0
 10
115.0143750237589
 20
205.5123827014703
 30
0.0
 10
113.8064046035285
 20
206.0122485813481
 30
0.0
 10
113.1528246886604
 20
206.1420065047416
 30
0.0
 10
112.4988596861678
 20
206.1420070679672
 30
0.0
  0
ELLIPSE
  5
14C
330
146
100
AcDbEntity
  8
DV3_Standard
  6
Continuous
 62
     7
100
AcDbEllipse
 10
120.84313827
 20
209.49313827
 30
0.0
 11
-3.545231217175329
 21
-3.545231217175334
 31
0.0
210
0.0
220
0.0
230
1.0
 40
0.9972646886
 41
2.357564018062739
 42
3.925621289116854
  0
LINE
  5
14D
330
146
100
AcDbEntity
  8
DV3_Standard
  6
Continuous
 62
     7
100
AcDbLine
 10
50.2011403138
 20
206.1420073599
 30
0.0
 11
65.5394613171
 21
206.1420073599
 31
0.0
  0
LINE
  5
14E
330
146
100
AcDbEntity
  8
DV3_Standard
  6
Continuous
 62
     7
100
AcDbLine
 10
41.8431476738
 20
214.5
 30
0.0
 11
120.8568523262
 21
214.5
 31
0.0
  0
SPLINE
  5
14F
330
146
100
AcDbEntity
  8
DV3_Standard
  6
Continuous
 62
     7
100
AcDbSpline
210
0.0
220
0.0
230
1.0
 70
     8
 71
     3
 72
    14
 73
    10
 74
     0
 42
0.0000000012667272
 43
0.0000000001
 40
0.0
 40
0.0
 40
0.0
 40
0.0
 40
0.2499999601683597
 40
0.2499999601683597
 40
0.4999999999999956
 40
0.4999999999999956
 40
0.7500000398316383
 40
0.7500000398316383
 40
1.0
 40
1.0
 40
1.0
 40
1.0
 10
50.20114031383228
 20
206.1420070679671
 30
0.0
 10
49.54717531133968
 20
206.1420065047415
 30
0.0
 10
48.89359539647148
 20
206.012248581348
 30
0.0
 10
47.68562497624113
 20
205.5123827014701
 30
0.0
 10
47.13171806770823
 20
205.1424702608759
 30
0.0
 10
46.20752973912418
 20
204.2182819322918
 30
0.0
 10
45.83761729852993
 20
203.6643750237589
 30
0.0
 10
45.33775141865203
 20
202.4564046035286
 30
0.0
 10
45.20799349525853
 20
201.8028246886603
 30
0.0
 10
45.20799293203289
 20
201.1488596861677
 30
0.0
  0
ELLIPSE
  5
150
330
146
100
AcDbEntity
  8
DV3_Standard
  6
Continuous
 62
     7
100
AcDbEllipse
 10
41.85686173
 20
209.49313827
 30
0.0
 11
3.545231217175332
 21
-3.545231217175332
 31
0.0
210
0.0
220
0.0
230
0.9999999999999998
 40
0.9972646886
 41
2.357564018062742
 42
3.925621289116846
  0
LINE
  5
151
330
146
100
AcDbEntity
  8
DV3_Standard
  6
Continuous
 62
     7
100
AcDbLine
 10
45.2079926401
 20
138.8511403138
 30
0.0
 11
45.2079926401
 21
154.197184467
 31
0.0
  0
LINE
  5
152
330
146
100
AcDbEntity
  8
DV3_Standard
  6
Continuous
 62
     7
100
AcDbLine
 10
36.85
 20
130.4931476738
 30
0.0
 11
36.85
 21
209.5068523262
 31
0.0
  0
SPLINE
  5
153
330
146
100
AcDbEntity
  8
DV3_Standard
  6
Continuous
 62
     7
100
AcDbSpline
210
0.0
220
0.0
230
1.0
 70
     8
 71
     3
 72
    14
 73
    10
 74
     0
 42
0.0000000012667272
 43
0.0000000001
 40
0.0
 40
0.0
 40
0.0
 40
0.0
 40
0.2499999601683575
 40
0.2499999601683575
 40
0.499999999999996
 40
0.499999999999996
 40
0.7500000398316345
 40
0.7500000398316345
 40
1.0
 40
1.0
 40
1.0
 40
1.0
 10
45.20799264005929
 20
138.8511403138322
 30
0.0
 10
45.20799349525849
 20
138.1971753113397
 30
0.0
 10
45.33775141865193
 20
137.5435953964715
 30
0.0
 10
45.83761729852979
 20
136.3356249762411
 30
0.0
 10
46.20752973912408
 20
135.7817180677082
 30
0.0
 10
47.13171806770814
 20
134.8575297391242
 30
0.0
 10
47.68562497624103
 20
134.4876172985299
 30
0.0
 10
48.89359539647138
 20
133.987751418652
 30
0.0
 10
49.54717531133959
 20
133.8579934952585
 30
0.0
 10
50.20114031383223
 20
133.8579929320329
 30
0.0
  0
ELLIPSE
  5
154
330
146
100
AcDbEntity
  8
DV3_Standard
  6
Continuous
 62
     7
100
AcDbEllipse
 10
41.85686173
 20
130.50686173
 30
0.0
 11
3.545231217175334
 21
3.545231217175329
 31
0.0
210
0.0
220
0.0
230
1.0
 40
0.9972646886
 41
2.357564018062743
 42
3.925621289116852
  0
LINE
  5
155
330
146
100
AcDbEntity
  8
DV3_Standard
  6
Continuous
 62
     7
100
AcDbLine
 10
112.4988596862
 20
133.8579926401
 30
0.0
 11
97.2011167652
 21
133.8579926401
 31
0.0
  0
LINE
  5
156
330
146
100
AcDbEntity
  8
DV3_Standard
  6
Continuous
 62
     7
100
AcDbLine
 10
120.8568523262
 20
125.5
 30
0.0
 11
41.8431476738
 21
125.5
 31
0.0
  0
SPLINE
  5
157
330
146
100
AcDbEntity
  8
DV3_Standard
  6
Continuous
 62
     7
100
AcDbSpline
210
0.0
220
0.0
230
1.0
 70
     8
 71
     3
 72
    14
 73
    10
 74
     0
 42
0.0000000012667272
 43
0.0000000001
 40
0.0
 40
0.0
 40
0.0
 40
0.0
 40
0.2499999601683694
 40
0.2499999601683694
 40
0.4999999999999841
 40
0.4999999999999841
 40
0.7500000398316345
 40
0.7500000398316345
 40
1.0
 40
1.0
 40
1.0
 40
1.0
 10
112.4988596861679
 20
133.8579929320329
 30
0.0
 10
113.1528246886605
 20
133.8579934952586
 30
0.0
 10
113.8064046035288
 20
133.987751418652
 30
0.0
 10
115.0143750237591
 20
134.48761729853
 30
0.0
 10
115.5682819322919
 20
134.8575297391241
 30
0.0
 10
116.492470260876
 20
135.7817180677082
 30
0.0
 10
116.8623827014702
 20
136.335624976241
 30
0.0
 10
117.3622485813481
 20
137.5435953964713
 30
0.0
 10
117.4920065047416
 20
138.1971753113397
 30
0.0
 10
117.4920070679673
 20
138.8511403138323
 30
0.0
  0
ELLIPSE
  5
158
330
146
100
AcDbEntity
  8
DV3_Standard
  6
Continuous
 62
     7
100
AcDbEllipse
 10
120.84313827
 20
130.50686173
 30
0.0
 11
-3.545231217175334
 21
3.545231217175329
 31
0.0
210
0.0
220
0.0
230
1.0
 40
0.9972646886
 41
2.357564018062747
 42
3.925621289116851
  0
LINE
  5
159
330
146
100
AcDbEntity
  8
DV3_Standard
  6
Continuous
 62
     7
100
AcDbLine
 10
112.4988596862
 20
206.1420073599
 30
0.0
 11
97.2277222716
 21
206.1420073599
 31
0.0
  0
LINE
  5
15A
330
146
100
AcDbEntity
  8
DV3_Standard
  6
Continuous
 62
     7
100
AcDbLine
 10
45.2079926401
 20
201.1488596862
 30
0.0
 11
45.2079926401
 21
185.8129238821
 31
0.0
  0
LINE
  5
15B
330
146
100
AcDbEntity
  8
DV3_Standard
  6
Continuous
 62
     7
100
AcDbLine
 10
50.2011403138
 20
133.8579926401
 30
0.0
 11
65.5487568328
 21
133.8579926401
 31
0.0
  0
LINE
  5
15C
330
146
100
AcDbEntity
  8
DV3_Standard
  6
Continuous
 62
     7
100
AcDbLine
 10
117.4920073599
 20
138.8511403138
 30
0.0
 11
117.4920073599
 21
154.1476929428
 31
0.0
  0
LINE
  5
15D
330
146
100
AcDbEntity
  8
DV3_Standard
  6
Continuous
 62
     7
100
AcDbLine
 10
26.995
 20
117.145
 30
0.0
 11
26.995
 21
222.855
 31
0.0
  0
ARC
  5
15E
330
146
100
AcDbEntity
  8
DV3_Standard
  6
Continuous
 62
     7
100
AcDbCircle
 10
28.495
 20
117.145
 30
0.0
 40
1.500000000000001
100
AcDbArc
 50
180.0
 51
270.0
  0
ARC
  5
15F
330
146
100
AcDbEntity
  8
DV3_Standard
  6
Continuous
 62
     7
100
AcDbCircle
 10
28.495
 20
222.855
 30
0.0
 40
1.500000000000001
100
AcDbArc
 50
90.0
 51
180.0
  0
LINE
  5
160
330
146
100
AcDbEntity
  8
DV3_Standard
  6
Continuous
 62
     7
100
AcDbLine
 10
134.205
 20
115.645
 30
0.0
 11
28.495
 21
115.645
 31
0.0
  0
LINE
  5
161
330
146
100
AcDbEntity
  8
DV3_Standard
  6
Continuous
 62
     7
100
AcDbLine
 10
28.495
 20
224.355
 30
0.0
 11
134.205
 21
224.355
 31
0.0
  0
ARC
  5
162
330
146
100
AcDbEntity
  8
DV3_Standard
  6
Continuous
 62
     7
100
AcDbCircle
 10
134.205
 20
117.145
 30
0.0
 40
1.500000000000001
100
AcDbArc
 50
270.0
 51
0.0
  0
ARC
  5
163
330
146
100
AcDbEntity
  8
DV3_Standard
  6
Continuous
 62
     7
100
AcDbCircle
 10
134.205
 20
222.855
 30
0.0
 40
1.500000000000001
100
AcDbArc
 50
0.0
 51
90.0
  0
LINE
  5
164
330
146
100
AcDbEntity
  8
DV3_Standard
  6
Continuous
 62
     7
100
AcDbLine
 10
135.705
 20
222.855
 30
0.0
 11
135.705
 21
117.145
 31
0.0
  0
ARC
  5
165
330
146
100
AcDbEntity
  8
DV3_Standard
  6
Continuous
 62
     7
100
AcDbCircle
 10
28.75
 20
117.4
 30
0.0
 40
2.000000000000002
100
AcDbArc
 50
180.0
 51
270.0
  0
LINE
  5
166
330
146
100
AcDbEntity
  8
DV3_Standard
  6
Continuous
 62
     7
100
AcDbLine
 10
26.75
 20
117.4
 30
0.0
 11
26.75
 21
222.6
 31
0.0
  0
ARC
  5
167
330
146
100
AcDbEntity
  8
DV3_Standard
  6
Continuous
 62
     7
100
AcDbCircle
 10
28.75
 20
222.6
 30
0.0
 40
2.000000000000002
100
AcDbArc
 50
90.0
 51
180.0
  0
LINE
  5
168
330
146
100
AcDbEntity
  8
DV3_Standard
  6
Continuous
 62
     7
100
AcDbLine
 10
28.75
 20
224.6
 30
0.0
 11
71.1501218346
 21
224.6
 31
0.0
  0
LINE
  5
169
330
146
100
AcDbEntity
  8
DV3_Standard
  6
Continuous
 62
     7
100
AcDbLine
 10
133.95
 20
115.4
 30
0.0
 11
91.5498781654
 21
115.4
 31
0.0
  0
ARC
  5
16A
330
146
100
AcDbEntity
  8
DV3_Standard
  6
Continuous
 62
     7
100
AcDbCircle
 10
133.95
 20
222.6
 30
0.0
 40
2.000000000000002
100
AcDbArc
 50
0.0
 51
90.0
  0
LINE
  5
16B
330
146
100
AcDbEntity
  8
DV3_Standard
  6
Continuous
 62
     7
100
AcDbLine
 10
135.95
 20
222.6
 30
0.0
 11
135.95
 21
117.4
 31
0.0
  0
ARC
  5
16C
330
146
100
AcDbEntity
  8
DV3_Standard
  6
Continuous
 62
     7
100
AcDbCircle
 10
133.95
 20
117.4
 30
0.0
 40
2.000000000000002
100
AcDbArc
 50
270.0
 51
0.0
  0
LINE
  5
16D
330
146
100
AcDbEntity
  8
DV3_Standard
  6
Continuous
 62
     7
100
AcDbLine
 10
71.35
 20
115.15
 30
0.0
 11
71.35
 21
115.2001218346
 31
0.0
  0
LINE
  5
16E
330
146
100
AcDbEntity
  8
DV3_Standard
  6
Continuous
 62
     7
100
AcDbLine
 10
91.35
 20
115.15
 30
0.0
 11
91.35
 21
115.2001218346
 31
0.0
  0
LINE
  5
16F
330
146
100
AcDbEntity
  8
DV3_Standard
  6
Continuous
 62
     7
100
AcDbLine
 10
71.35
 20
224.7998781654
 30
0.0
 11
71.35
 21
224.85
 31
0.0
  0
ELLIPSE
  5
170
330
146
100
AcDbEntity
  8
DV3_Standard
  6
Continuous
 62
     7
100
AcDbEllipse
 10
71.1498780911
 20
224.8001219089
 30
0.0
 11
-0.1415937089198382
 21
0.1415937089198382
 31
0.0
210
0.0
220
0.0
230
1.0
 40
0.998782766
 41
2.356803477777961
 42
3.926381829401413
  0
LINE
  5
171
330
146
100
AcDbEntity
  8
DV3_Standard
  6
Continuous
 62
     7
100
AcDbLine
 10
71.1501218346
 20
115.4
 30
0.0
 11
28.75
 21
115.4
 31
0.0
  0
ELLIPSE
  5
172
330
146
100
AcDbEntity
  8
DV3_Standard
  6
Continuous
 62
     7
100
AcDbEllipse
 10
71.1498780911
 20
115.1998780911
 30
0.0
 11
-0.1415937089198382
 21
-0.1415937089198382
 31
0.0
210
0.0
220
0.0
230
1.0
 40
0.998782766
 41
2.356803477778244
 42
3.926381829401484
  0
ELLIPSE
  5
173
330
146
100
AcDbEntity
  8
DV3_Standard
  6
Continuous
 62
     7
100
AcDbEllipse
 10
91.5501219089
 20
115.1998780911
 30
0.0
 11
0.1415937089198382
 21
-0.1415937089198382
 31
0.0
210
0.0
220
0.0
230
1.0
 40
0.998782766
 41
2.356803477778032
 42
3.926381829401271
  0
LINE
  5
174
330
146
100
AcDbEntity
  8
DV3_Standard
  6
Continuous
 62
     7
100
AcDbLine
 10
91.35
 20
224.7998781654
 30
0.0
 11
91.35
 21
224.85
 31
0.0
  0
LINE
  5
175
330
146
100
AcDbEntity
  8
DV3_Standard
  6
Continuous
 62
     7
100
AcDbLine
 10
91.5498781654
 20
224.6
 30
0.0
 11
133.95
 21
224.6
 31
0.0
  0
ELLIPSE
  5
176
330
146
100
AcDbEntity
  8
DV3_Standard
  6
Continuous
 62
     7
100
AcDbEllipse
 10
91.5501219089
 20
224.8001219089
 30
0.0
 11
0.1415937089198382
 21
0.1415937089198382
 31
0.0
210
0.0
220
0.0
230
1.0
 40
0.998782766
 41
2.356803477778244
 42
3.926381829401697
  0
ARC
  5
177
330
146
100
AcDbEntity
  8
DV3_Standard
  6
Continuous
 62
     7
100
AcDbCircle
 10
134.2
 20
117.15
 30
0.0
 40
2.000000000000002
100
AcDbArc
 50
270.0
 51
0.0
  0
LINE
  5
178
330
146
100
AcDbEntity
  8
DV3_Standard
  6
Continuous
 62
     7
100
AcDbLine
 10
136.2
 20
117.15
 30
0.0
 11
136.2
 21
222.85
 31
0.0
  0
LINE
  5
179
330
146
100
AcDbEntity
  8
DV3_Standard
  6
Continuous
 62
     7
100
AcDbLine
 10
28.5
 20
115.15
 30
0.0
 11
134.2
 21
115.15
 31
0.0
  0
ARC
  5
17A
330
146
100
AcDbEntity
  8
DV3_Standard
  6
Continuous
 62
     7
100
AcDbCircle
 10
134.2
 20
222.85
 30
0.0
 40
2.000000000000002
100
AcDbArc
 50
0.0
 51
90.0
  0
ARC
  5
17B
330
146
100
AcDbEntity
  8
DV3_Standard
  6
Continuous
 62
     7
100
AcDbCircle
 10
28.5
 20
117.15
 30
0.0
 40
2.000000000000002
100
AcDbArc
 50
180.0
 51
270.0
  0
LINE
  5
17C
330
146
100
AcDbEntity
  8
DV3_Standard
  6
Continuous
 62
     7
100
AcDbLine
 10
134.2
 20
224.85
 30
0.0
 11
28.5
 21
224.85
 31
0.0
  0
LINE
  5
17D
330
146
100
AcDbEntity
  8
DV3_Standard
  6
Continuous
 62
     7
100
AcDbLine
 10
26.5
 20
222.85
 30
0.0
 11
26.5
 21
117.15
 31
0.0
  0
ARC
  5
17E
330
146
100
AcDbEntity
  8
DV3_Standard
  6
Continuous
 62
     7
100
AcDbCircle
 10
28.5
 20
222.85
 30
0.0
 40
2.000000000000002
100
AcDbArc
 50
90.0
 51
180.0
  0
LINE
  5
17F
330
146
100
AcDbEntity
  8
DV3_Standard
  6
Continuous
 62
     7
100
AcDbLine
 10
18.85
 20
107.05
 30
0.0
 11
18.85
 21
232.75
 31
0.0
  0
ARC
  5
180
330
146
100
AcDbEntity
  8
DV3_Standard
  6
Continuous
 62
     7
100
AcDbCircle
 10
19.55
 20
107.05
 30
0.0
 40
0.6999999999999923
100
AcDbArc
 50
180.0
 51
270.0
  0
LINE
  5
181
330
146
100
AcDbEntity
  8
DV3_Standard
  6
Continuous
 62
     7
100
AcDbLine
 10
143.15
 20
106.35
 30
0.0
 11
19.55
 21
106.35
 31
0.0
  0
ARC
  5
182
330
146
100
AcDbEntity
  8
DV3_Standard
  6
Continuous
 62
     7
100
AcDbCircle
 10
143.15
 20
107.05
 30
0.0
 40
0.6999999999999993
100
AcDbArc
 50
270.0
 51
0.0
  0
LINE
  5
183
330
146
100
AcDbEntity
  8
DV3_Standard
  6
Continuous
 62
     7
100
AcDbLine
 10
70.85
 20
115.4
 30
0.0
 11
70.85
 21
115.15
 31
0.0
  0
LINE
  5
184
330
146
100
AcDbEntity
  8
DV3_Standard
  6
Continuous
 62
     7
100
AcDbLine
 10
91.85
 20
115.15
 30
0.0
 11
91.85
 21
115.4
 31
0.0
  0
LINE
  5
185
330
146
100
AcDbEntity
  8
DV3_Standard
  6
Continuous
 62
     7
100
AcDbLine
 10
70.85
 20
224.85
 30
0.0
 11
70.85
 21
224.6
 31
0.0
  0
LINE
  5
186
330
146
100
AcDbEntity
  8
DV3_Standard
  6
Continuous
 62
     7
100
AcDbLine
 10
91.85
 20
224.6
 30
0.0
 11
91.85
 21
224.85
 31
0.0
  0
LINE
  5
187
330
146
100
AcDbEntity
  8
DV3_Standard
  6
Continuous
 62
     7
100
AcDbLine
 10
70.35
 20
224.6
 30
0.0
 11
70.35
 21
224.85
 31
0.0
  0
LINE
  5
188
330
146
100
AcDbEntity
  8
DV3_Standard
  6
Continuous
 62
     7
100
AcDbLine
 10
70.35
 20
115.15
 30
0.0
 11
70.35
 21
115.4
 31
0.0
  0
LINE
  5
189
330
146
100
AcDbEntity
  8
DV3_Standard
  6
Continuous
 62
     7
100
AcDbLine
 10
92.35
 20
224.85
 30
0.0
 11
92.35
 21
224.6
 31
0.0
  0
LINE
  5
18A
330
146
100
AcDbEntity
  8
DV3_Standard
  6
Continuous
 62
     7
100
AcDbLine
 10
92.35
 20
115.4
 30
0.0
 11
92.35
 21
115.15
 31
0.0
  0
LINE
  5
18B
330
146
100
AcDbEntity
  8
DV3_Standard
  6
Continuous
 62
     7
100
AcDbLine
 10
143.85
 20
232.75
 30
0.0
 11
143.85
 21
107.05
 31
0.0
  0
LINE
  5
18C
330
146
100
AcDbEntity
  8
DV3_Standard
  6
Continuous
 62
     7
100
AcDbLine
 10
19.55
 20
232.75
 30
0.0
 11
18.85
 21
232.75
 31
0.0
  0
LINE
  5
18D
330
146
100
AcDbEntity
  8
DV3_Standard
  6
Continuous
 62
     7
100
AcDbLine
 10
143.85
 20
232.75
 30
0.0
 11
143.15
 21
232.75
 31
0.0
  0
LINE
  5
18E
330
146
100
AcDbEntity
  8
DV3_Standard
  6
Continuous
 62
     7
100
AcDbLine
 10
143.15
 20
232.75
 30
0.0
 11
19.55
 21
232.75
 31
0.0
  0
LINE
  5
18F
330
146
100
AcDbEntity
  8
DV3_Standard
  6
Continuous
 62
     7
100
AcDbLine
 10
18.85
 20
232.75
 30
0.0
 11
19.05
 21
232.95
 31
0.0
  0
LINE
  5
190
330
146
100
AcDbEntity
  8
DV3_Standard
  6
Continuous
 62
     7
100
AcDbLine
 10
143.65
 20
232.95
 30
0.0
 11
143.85
 21
232.75
 31
0.0
  0
LINE
  5
191
330
146
100
AcDbEntity
  8
DV3_Standard
  6
Continuous
 62
     7
100
AcDbLine
 10
6.35
 20
239.0352859172
 30
0.0
 11
6.35
 21
245.75
 31
0.0
  0
ARC
  5
192
330
146
100
AcDbEntity
  8
DV3_Standard
  6
Continuous
 62
     7
100
AcDbCircle
 10
7.05
 20
239.0352859172
 30
0.0
 40
0.7000000000000085
100
AcDbArc
 50
180.0
 51
245.5632418863
  0
LINE
  5
193
330
146
100
AcDbEntity
  8
DV3_Standard
  6
Continuous
 62
     7
100
AcDbLine
 10
18.75
 20
232.95
 30
0.0
 11
6.7604179842
 21
238.3979930048
 31
0.0
  0
LINE
  5
194
330
146
100
AcDbEntity
  8
DV3_Standard
  6
Continuous
 62
     7
100
AcDbLine
 10
18.971150065
 20
232.95
 30
0.0
 11
143.728849935
 21
232.95
 31
0.0
  0
LINE
  5
195
330
146
100
AcDbEntity
  8
DV3_Standard
  6
Continuous
 62
     7
100
AcDbLine
 10
18.971150065
 20
232.95
 30
0.0
 11
18.75
 21
232.95
 31
0.0
  0
LINE
  5
196
330
146
100
AcDbEntity
  8
DV3_Standard
  6
Continuous
 62
     7
100
AcDbLine
 10
155.9395820158
 20
238.3979930048
 30
0.0
 11
143.95
 21
232.95
 31
0.0
  0
LINE
  5
197
330
146
100
AcDbEntity
  8
DV3_Standard
  6
Continuous
 62
     7
100
AcDbLine
 10
143.95
 20
232.95
 30
0.0
 11
143.728849935
 21
232.95
 31
0.0
  0
LINE
  5
198
330
146
100
AcDbEntity
  8
DV3_Standard
  6
Continuous
 62
     7
100
AcDbLine
 10
155.65
 20
238.3668979434
 30
0.0
 11
7.05
 21
238.3668979434
 31
0.0
  0
ARC
  5
199
330
146
100
AcDbEntity
  8
DV3_Standard
  6
Continuous
 62
     7
100
AcDbCircle
 10
155.65
 20
239.0352859172
 30
0.0
 40
0.6999999999999923
100
AcDbArc
 50
294.4367581137
 51
0.0
  0
LINE
  5
19A
330
146
100
AcDbEntity
  8
DV3_Standard
  6
Continuous
 62
     7
100
AcDbLine
 10
155.65
 20
245.95
 30
0.0
 11
156.15
 21
245.95
 31
0.0
  0
LINE
  5
19B
330
146
100
AcDbEntity
  8
DV3_Standard
  6
Continuous
 62
     7
100
AcDbLine
 10
7.05
 20
245.95
 30
0.0
 11
155.65
 21
245.95
 31
0.0
  0
LINE
  5
19C
330
146
100
AcDbEntity
  8
DV3_Standard
  6
Continuous
 62
     7
100
AcDbLine
 10
6.55
 20
245.95
 30
0.0
 11
7.05
 21
245.95
 31
0.0
  0
LINE
  5
19D
330
146
100
AcDbEntity
  8
DV3_Standard
  6
Continuous
 62
     7
100
AcDbLine
 10
7.05
 20
245.75
 30
0.0
 11
6.35
 21
245.75
 31
0.0
  0
LINE
  5
19E
330
146
100
AcDbEntity
  8
DV3_Standard
  6
Continuous
 62
     7
100
AcDbLine
 10
155.65
 20
245.75
 30
0.0
 11
7.05
 21
245.75
 31
0.0
  0
LINE
  5
19F
330
146
100
AcDbEntity
  8
DV3_Standard
  6
Continuous
 62
     7
100
AcDbLine
 10
156.35
 20
245.75
 30
0.0
 11
156.35
 21
239.0352859172
 31
0.0
  0
LINE
  5
1A0
330
146
100
AcDbEntity
  8
DV3_Standard
  6
Continuous
 62
     7
100
AcDbLine
 10
156.35
 20
245.75
 30
0.0
 11
155.65
 21
245.75
 31
0.0
  0
LINE
  5
1A1
330
146
100
AcDbEntity
  8
DV3_Standard
  6
Continuous
 62
     7
100
AcDbLine
 10
156.35
 20
245.75
 30
0.0
 11
156.15
 21
245.95
 31
0.0
  0
LINE
  5
1A2
330
146
100
AcDbEntity
  8
DV3_Standard
  6
Continuous
 62
     7
100
AcDbLine
 10
6.35
 20
245.75
 30
0.0
 11
6.55
 21
245.95
 31
0.0
  0
LINE
  5
1A3
330
146
100
AcDbEntity
  8
DV3_Standard
  6
Continuous
 62
     7
100
AcDbLine
 10
73.25
 20
170.0
 30
0.0
 11
73.2506168346
 21
169.9293177539
 31
0.0
  0
LINE
  5
1A4
330
146
100
AcDbEntity
  8
DV3_Standard
  6
Continuous
 62
     7
100
AcDbLine
 10
89.45
 20
170.0
 30
0.0
 11
89.4493831654
 21
170.0706822461
 31
0.0
  0
LINE
  5
1A5
330
146
100
AcDbEntity
  8
DV3_Standard
  6
Continuous
 62
     7
100
AcDbLine
 10
89.4493831654
 20
169.9293177539
 30
0.0
 11
89.45
 21
170.0
 31
0.0
  0
ARC
  5
1A6
330
146
100
AcDbEntity
  8
DV3_Standard
  6
Continuous
 62
     7
100
AcDbCircle
 10
88.6853945235
 20
162.6
 30
0.0
 40
0.6999999999999993
100
AcDbArc
 50
270.0
 51
272.2935882341
  0
LINE
  5
1A7
330
146
100
AcDbEntity
  8
DV3_Standard
  6
Continuous
 62
     7
100
AcDbLine
 10
73.2506168346
 20
170.0706822461
 30
0.0
 11
73.25
 21
170.0
 31
0.0
  0
ARC
  5
1A8
330
146
100
AcDbEntity
  8
DV3_Standard
  6
Continuous
 62
     7
100
AcDbCircle
 10
74.0146054765
 20
177.4
 30
0.0
 40
0.6999999999999993
100
AcDbArc
 50
90.0
 51
92.2935882341
  0
LINE
  5
1A9
330
146
100
AcDbEntity
  8
DV3_Standard
  6
Continuous
 62
     7
100
AcDbLine
 10
88.6853945235
 20
178.1
 30
0.0
 11
74.0146054765
 21
178.1
 31
0.0
  0
ARC
  5
1AA
330
146
100
AcDbEntity
  8
DV3_Standard
  6
Continuous
 62
     7
100
AcDbCircle
 10
88.6853945235
 20
177.4
 30
0.0
 40
0.7000000000000005
100
AcDbArc
 50
87.7064117659
 51
90.0
  0
LINE
  5
1AB
330
146
100
AcDbEntity
  8
DV3_Standard
  6
Continuous
 62
     7
100
AcDbLine
 10
74.0146054765
 20
161.9
 30
0.0
 11
88.6853945235
 21
161.9
 31
0.0
  0
ARC
  5
1AC
330
146
100
AcDbEntity
  8
DV3_Standard
  6
Continuous
 62
     7
100
AcDbCircle
 10
74.0146054765
 20
162.6
 30
0.0
 40
0.6999999999999988
100
AcDbArc
 50
267.7064117659
 51
270.0
  0
LINE
  5
1AD
330
146
100
AcDbEntity
  8
DV3_Standard
  6
Continuous
 62
     7
100
AcDbLine
 10
81.35
 20
161.9
 30
0.0
 11
88.7494631239
 21
161.90056353
 31
0.0
  0
LINE
  5
1AE
330
146
100
AcDbEntity
  8
DV3_Standard
  6
Continuous
 62
     7
100
AcDbLine
 10
81.35
 20
178.1
 30
0.0
 11
73.9505368761
 21
178.09943647
 31
0.0
  0
LINE
  5
1AF
330
146
100
AcDbEntity
  8
DV3_Standard
  6
Continuous
 62
     7
100
AcDbLine
 10
89.4493831654
 20
162.6005901808
 30
0.0
 11
89.4493831654
 21
177.3994098192
 31
0.0
  0
ELLIPSE
  5
1B0
330
146
100
AcDbEntity
  8
DV3_Standard
  6
Continuous
 62
     7
100
AcDbEllipse
 10
88.7494098192
 20
162.6005901808
 30
0.0
 11
0.0
 21
0.700026652839718
 31
0.0
210
0.0
220
0.0
230
1.0
 40
1.0
 41
3.141668800265693
 42
4.71238898038469
  0
LINE
  5
1B1
330
146
100
AcDbEntity
  8
DV3_Standard
  6
Continuous
 62
     7
100
AcDbLine
 10
73.2506168346
 20
177.3994098192
 30
0.0
 11
73.2506168346
 21
162.6005901808
 31
0.0
  0
ELLIPSE
  5
1B2
330
146
100
AcDbEntity
  8
DV3_Standard
  6
Continuous
 62
     7
100
AcDbEllipse
 10
73.9505901808
 20
177.3994098192
 30
0.0
 11
-1.539567084929416E-12
 21
-0.7000266528409934
 31
0.0
210
0.0
220
0.0
230
1.0
 40
0.9999238505
 41
3.141668806067033
 42
4.712388980386889
  0
LINE
  5
1B3
330
146
100
AcDbEntity
  8
DV3_Standard
  6
Continuous
 62
     7
100
AcDbLine
 10
73.9505368761
 20
161.90056353
 30
0.0
 11
81.35
 21
161.9
 31
0.0
  0
ELLIPSE
  5
1B4
330
146
100
AcDbEntity
  8
DV3_Standard
  6
Continuous
 62
     7
100
AcDbEllipse
 10
73.9505901808
 20
162.6005901808
 30
0.0
 11
-3.452967078931835E-12
 21
-0.7000266528400289
 31
0.0
210
0.0
220
0.0
230
1.0
 40
0.9999238505
 41
4.712388980389622
 42
6.283109154674646
  0
LINE
  5
1B5
330
146
100
AcDbEntity
  8
DV3_Standard
  6
Continuous
 62
     7
100
AcDbLine
 10
88.7494631239
 20
178.09943647
 30
0.0
 11
81.35
 21
178.1
 31
0.0
  0
ELLIPSE
  5
1B6
330
146
100
AcDbEntity
  8
DV3_Standard
  6
Continuous
 62
     7
100
AcDbEllipse
 10
88.7494098192
 20
177.3994098192
 30
0.0
 11
0.0
 21
0.6999733461451143
 31
0.0
210
0.0
220
0.0
230
1.0
 40
1.0
 41
-1.570796326794897
 42
-0.0000761466627863
  0
CIRCLE
  5
1B7
330
146
100
AcDbEntity
  8
DV3_Standard
  6
Continuous
 62
     7
100
AcDbCircle
 10
81.35
 20
170.0
 30
0.0
 40
16.25
  0
ENDBLK
  5
1B9
330
146
100
AcDbEntity
  8
0
100
AcDbBlockEnd
  0
ENDSEC
  0
SECTION
  2
ENTITIES
  0
SPLINE
  5
5E
330
1F
100
AcDbEntity
  8
Standard
  6
Continuous
 62
     7
100
AcDbSpline
210
0.0
220
0.0
230
1.0
 70
     8
 71
     3
 72
    23
 73
    19
 74
     0
 42
0.0000000066600911
 43
0.0000000001
 40
0.0
 40
0.0
 40
0.0
 40
0.0
 40
0.0733868649604682
 40
0.0733868649604682
 40
0.0733868649604682
 40
0.2881791470887312
 40
0.2881791470887312
 40
0.2881791470887312
 40
0.5031002599534371
 40
0.5031002599534371
 40
0.5031002599534371
 40
0.7181724723485752
 40
0.7181724723485752
 40
0.7181724723485752
 40
0.9331854450987294
 40
0.9331854450987294
 40
0.9331854450987294
 40
1.0
 40
1.0
 40
1.0
 40
1.0
 10
79.8501226514452
 20
130.5783143992232
 30
0.0
 10
79.85012252721747
 20
130.5777408276259
 30
0.0
 10
79.85341725577422
 20
130.5770440406296
 30
0.0
 10
79.86003660590623
 20
130.5762263396799
 30
0.0
 10
79.87941080531414
 20
130.5738330078667
 30
0.0
 10
79.92779709000098
 20
130.5703438739785
 30
0.0
 10
80.00118044841997
 20
130.5663305286819
 30
0.0
 10
80.07460754133089
 20
130.5623147915404
 30
0.0
 10
80.17508366429604
 20
130.557683416217
 30
0.0
 10
80.29430328213184
 20
130.5533158201802
 30
0.0
 10
80.41360362681793
 20
130.5489452667249
 30
0.0
 10
80.55496715269828
 20
130.5447434132245
 30
0.0
 10
80.70669711699152
 20
130.5415520765055
 30
0.0
 10
80.85838345380859
 20
130.5383616574033
 30
0.0
 10
81.0246209048997
 20
130.5361127088482
 30
0.0
 10
81.19162255499712
 20
130.5352658730599
 30
0.0
 10
81.24419295720375
 20
130.5349992978615
 30
0.0
 10
81.29713342035727
 20
130.53486455777
 30
0.0
 10
81.35000000000004
 20
130.53486455777
 30
0.0
  0
SPLINE
  5
5F
330
1F
100
AcDbEntity
  8
Standard
  6
Continuous
 62
     7
100
AcDbSpline
210
0.0
220
0.0
230
1.0
 70
     8
 71
     3
 72
    23
 73
    19
 74
     0
 42
0.0000000066600911
 43
0.0000000001
 40
0.0
 40
0.0
 40
0.0
 40
0.0
 40
0.073386864960652
 40
0.073386864960652
 40
0.073386864960652
 40
0.2881791470888981
 40
0.2881791470888981
 40
0.2881791470888981
 40
0.5031002599535852
 40
0.5031002599535852
 40
0.5031002599535852
 40
0.7181724723487057
 40
0.7181724723487057
 40
0.7181724723487057
 40
0.9331854450988429
 40
0.9331854450988429
 40
0.9331854450988429
 40
1.0
 40
1.0
 40
1.0
 40
1.0
 10
82.84987734855476
 20
130.5783143992232
 30
0.0
 10
82.8498774727825
 20
130.5777408276259
 30
0.0
 10
82.84658274422586
 20
130.5770440406296
 30
0.0
 10
82.83996339409372
 20
130.5762263396799
 30
0.0
 10
82.82058919468571
 20
130.5738330078667
 30
0.0
 10
82.77220290999887
 20
130.5703438739785
 30
0.0
 10
82.69881955157976
 20
130.5663305286819
 30
0.0
 10
82.62539245866884
 20
130.5623147915404
 30
0.0
 10
82.5249163357037
 20
130.557683416217
 30
0.0
 10
82.4056967178679
 20
130.55331582018
 30
0.0
 10
82.2863963731818
 20
130.5489452667248
 30
0.0
 10
82.14503284730135
 20
130.5447434132245
 30
0.0
 10
81.99330288300798
 20
130.5415520765055
 30
0.0
 10
81.84161654619093
 20
130.5383616574033
 30
0.0
 10
81.67537909509991
 20
130.5361127088482
 30
0.0
 10
81.5083774450024
 20
130.5352658730599
 30
0.0
 10
81.45580704279575
 20
130.5349992978615
 30
0.0
 10
81.40286657964224
 20
130.53486455777
 30
0.0
 10
81.35000000000004
 20
130.53486455777
 30
0.0
  0
SPLINE
  5
60
330
1F
100
AcDbEntity
  8
Standard
  6
Continuous
 62
     7
100
AcDbSpline
210
0.0
220
0.0
230
1.0
 70
     8
 71
     3
 72
    23
 73
    19
 74
     0
 42
0.0000000066600911
 43
0.0000000001
 40
0.0
 40
0.0
 40
0.0
 40
0.0
 40
0.0733868649604688
 40
0.0733868649604688
 40
0.0733868649604688
 40
0.2881791470887363
 40
0.2881791470887363
 40
0.2881791470887363
 40
0.5031002599534414
 40
0.5031002599534414
 40
0.5031002599534414
 40
0.7181724723485841
 40
0.7181724723485841
 40
0.7181724723485841
 40
0.9331854450987302
 40
0.9331854450987302
 40
0.9331854450987302
 40
1.0
 40
1.0
 40
1.0
 40
1.0
 10
110.2859146582247
 20
196.8147677700022
 30
0.0
 10
110.286320322433
 20
196.8151732585258
 30
0.0
 10
110.2844833003385
 20
196.8179956862406
 30
0.0
 10
110.2803809148595
 20
196.8232544754924
 30
0.0
 10
110.2683736282328
 20
196.8386464444287
 30
0.0
 10
110.2366265484472
 20
196.87532790468
 30
0.0
 10
110.1875745417573
 20
196.9300556387188
 30
0.0
 10
110.1384933014015
 20
196.9848159890031
 30
0.0
 10
110.0707208304028
 20
197.0591382137965
 30
0.0
 10
109.9895081869559
 20
197.1465275707938
 30
0.0
 10
109.9082405522162
 20
197.2339761015049
 30
0.0
 10
109.8112526035573
 20
197.336906368371
 30
0.0
 10
109.7062199327314
 20
197.446452270867
 30
0.0
 10
109.6012174623367
 20
197.5559666752258
 30
0.0
 10
109.485260080157
 20
197.6751045509533
 30
0.0
 10
109.3677708842322
 20
197.793791353535
 30
0.0
 10
109.3307864934727
 20
197.8311527385555
 30
0.0
 10
109.29344720861
 20
197.8686825746828
 30
0.0
 10
109.2560648916465
 20
197.9060648916464
 30
0.0
  0
SPLINE
  5
61
330
1F
100
AcDbEntity
  8
Standard
  6
Continuous
 62
     7
100
AcDbSpline
210
0.0
220
0.0
230
1.0
 70
     8
 71
     3
 72
    23
 73
    19
 74
     0
 42
0.0000000066600911
 43
0.0000000001
 40
0.0
 40
0.0
 40
0.0
 40
0.0
 40
0.0733868649606476
 40
0.0733868649606476
 40
0.0733868649606476
 40
0.2881791470888916
 40
0.2881791470888916
 40
0.2881791470888916
 40
0.5031002599535827
 40
0.5031002599535827
 40
0.5031002599535827
 40
0.7181724723487006
 40
0.7181724723487006
 40
0.7181724723487006
 40
0.9331854450988403
 40
0.9331854450988403
 40
0.9331854450988403
 40
1.0
 40
1.0
 40
1.0
 40
1.0
 10
108.1647677700023
 20
198.9359146582245
 30
0.0
 10
108.165173258526
 20
198.9363203224328
 30
0.0
 10
108.1679956862407
 20
198.9344833003383
 30
0.0
 10
108.1732544754926
 20
198.9303809148593
 30
0.0
 10
108.1886464444289
 20
198.9183736282326
 30
0.0
 10
108.2253279046802
 20
198.886626548447
 30
0.0
 10
108.280055638719
 20
198.837574541757
 30
0.0
 10
108.3348159890034
 20
198.7884933014011
 30
0.0
 10
108.4091382137968
 20
198.7207208304025
 30
0.0
 10
108.4965275707942
 20
198.6395081869555
 30
0.0
 10
108.5839761015053
 20
198.5582405522158
 30
0.0
 10
108.6869063683714
 20
198.461252603557
 30
0.0
 10
108.7964522708674
 20
198.3562199327311
 30
0.0
 10
108.9059666752262
 20
198.2512174623363
 30
0.0
 10
109.0251045509537
 20
198.1352600801565
 30
0.0
 10
109.1437913535355
 20
198.0177708842317
 30
0.0
 10
109.1811527385559
 20
197.9807864934722
 30
0.0
 10
109.2186825746833
 20
197.9434472086096
 30
0.0
 10
109.2560648916465
 20
197.9060648916464
 30
0.0
  0
SPLINE
  5
62
330
1F
100
AcDbEntity
  8
Standard
  6
Continuous
 62
     7
100
AcDbSpline
210
0.0
220
0.0
230
1.0
 70
     8
 71
     3
 72
    23
 73
    19
 74
     0
 42
0.0000000066600911
 43
0.0000000001
 40
0.0
 40
0.0
 40
0.0
 40
0.0
 40
0.0733868649604733
 40
0.0733868649604733
 40
0.0733868649604733
 40
0.2881791470887266
 40
0.2881791470887266
 40
0.2881791470887266
 40
0.5031002599534236
 40
0.5031002599534236
 40
0.5031002599534236
 40
0.7181724723485604
 40
0.7181724723485604
 40
0.7181724723485604
 40
0.9331854450987168
 40
0.9331854450987168
 40
0.9331854450987168
 40
1.0
 40
1.0
 40
1.0
 40
1.0
 10
54.53523222999801
 20
198.9359146582246
 30
0.0
 10
54.53482674147425
 20
198.936320322433
 30
0.0
 10
54.5320043137596
 20
198.9344833003384
 30
0.0
 10
54.52674552450765
 20
198.9303809148595
 30
0.0
 10
54.51135355557146
 20
198.9183736282328
 30
0.0
 10
54.4746720953202
 20
198.8866265484473
 30
0.0
 10
54.4199443612814
 20
198.8375745417573
 30
0.0
 10
54.36518401099699
 20
198.7884933014015
 30
0.0
 10
54.29086178620368
 20
198.7207208304028
 30
0.0
 10
54.20347242920631
 20
198.6395081869559
 30
0.0
 10
54.11602389849524
 20
198.5582405522161
 30
0.0
 10
54.0130936316292
 20
198.4612526035574
 30
0.0
 10
53.90354772913308
 20
198.3562199327316
 30
0.0
 10
53.79403332477439
 20
198.2512174623368
 30
0.0
 10
53.6748954490468
 20
198.135260080157
 30
0.0
 10
53.55620864646504
 20
198.0177708842322
 30
0.0
 10
53.51884726144463
 20
197.9807864934726
 30
0.0
 10
53.48131742531726
 20
197.9434472086101
 30
0.0
 10
53.44393510835377
 20
197.9060648916465
 30
0.0
  0
SPLINE
  5
63
330
1F
100
AcDbEntity
  8
Standard
  6
Continuous
 62
     7
100
AcDbSpline
210
0.0
220
0.0
230
1.0
 70
     8
 71
     3
 72
    23
 73
    19
 74
     0
 42
0.0000000066600911
 43
0.0000000001
 40
0.0
 40
0.0
 40
0.0
 40
0.0
 40
0.0733868649606464
 40
0.0733868649606464
 40
0.0733868649606464
 40
0.2881791470888838
 40
0.2881791470888838
 40
0.2881791470888838
 40
0.5031002599535725
 40
0.5031002599535725
 40
0.5031002599535725
 40
0.7181724723486891
 40
0.7181724723486891
 40
0.7181724723486891
 40
0.9331854450988272
 40
0.9331854450988272
 40
0.9331854450988272
 40
1.0
 40
1.0
 40
1.0
 40
1.0
 10
52.4140853417756
 20
196.8147677700023
 30
0.0
 10
52.41367967756727
 20
196.8151732585259
 30
0.0
 10
52.41551669966182
 20
196.8179956862408
 30
0.0
 10
52.41961908514081
 20
196.8232544754927
 30
0.0
 10
52.43162637176757
 20
196.8386464444289
 30
0.0
 10
52.46337345155317
 20
196.8753279046802
 30
0.0
 10
52.51242545824309
 20
196.930055638719
 30
0.0
 10
52.56150669859893
 20
196.9848159890035
 30
0.0
 10
52.62927916959769
 20
197.0591382137968
 30
0.0
 10
52.71049181304455
 20
197.1465275707942
 30
0.0
 10
52.79175944778436
 20
197.2339761015054
 30
0.0
 10
52.88874739644322
 20
197.3369063683714
 30
0.0
 10
52.99378006726907
 20
197.4464522708674
 30
0.0
 10
53.09878253766376
 20
197.5559666752262
 30
0.0
 10
53.2147399198436
 20
197.6751045509537
 30
0.0
 10
53.33222911576829
 20
197.7937913535355
 30
0.0
 10
53.3692135065279
 20
197.8311527385559
 30
0.0
 10
53.4065527913905
 20
197.8686825746834
 30
0.0
 10
53.44393510835377
 20
197.9060648916465
 30
0.0
  0
SPLINE
  5
64
330
1F
100
AcDbEntity
  8
Standard
  6
Continuous
 62
     7
100
AcDbSpline
210
0.0
220
0.0
230
1.0
 70
     8
 71
     3
 72
    23
 73
    19
 74
     0
 42
0.0000000066600911
 43
0.0000000001
 40
0.0
 40
0.0
 40
0.0
 40
0.0
 40
0.0733868649604632
 40
0.0733868649604632
 40
0.0733868649604632
 40
0.2881791470887305
 40
0.2881791470887305
 40
0.2881791470887305
 40
0.5031002599534316
 40
0.5031002599534316
 40
0.5031002599534316
 40
0.7181724723485713
 40
0.7181724723485713
 40
0.7181724723485713
 40
0.9331854450987317
 40
0.9331854450987317
 40
0.9331854450987317
 40
1.0
 40
1.0
 40
1.0
 40
1.0
 10
52.4140853417755
 20
143.1852322299979
 30
0.0
 10
52.41367967756716
 20
143.1848267414742
 30
0.0
 10
52.41551669966172
 20
143.1820043137595
 30
0.0
 10
52.4196190851407
 20
143.1767455245077
 30
0.0
 10
52.43162637176735
 20
143.1613535555714
 30
0.0
 10
52.46337345155294
 20
143.1246720953201
 30
0.0
 10
52.51242545824286
 20
143.0699443612813
 30
0.0
 10
52.56150669859871
 20
143.0151840109969
 30
0.0
 10
52.62927916959737
 20
142.9408617862036
 30
0.0
 10
52.71049181304421
 20
142.8534724292063
 30
0.0
 10
52.79175944778392
 20
142.7660238984951
 30
0.0
 10
52.88874739644278
 20
142.6630936316291
 30
0.0
 10
52.99378006726874
 20
142.553547729133
 30
0.0
 10
53.09878253766331
 20
142.4440333247743
 30
0.0
 10
53.21473991984315
 20
142.3248954490468
 30
0.0
 10
53.33222911576796
 20
142.2062086464651
 30
0.0
 10
53.36921350652746
 20
142.1688472614446
 30
0.0
 10
53.40655279139017
 20
142.1313174253171
 30
0.0
 10
53.44393510835366
 20
142.0939351083537
 30
0.0
  0
SPLINE
  5
65
330
1F
100
AcDbEntity
  8
Standard
  6
Continuous
 62
     7
100
AcDbSpline
210
0.0
220
0.0
230
1.0
 70
     8
 71
     3
 72
    23
 73
    19
 74
     0
 42
0.0000000066600911
 43
0.0000000001
 40
0.0
 40
0.0
 40
0.0
 40
0.0
 40
0.0733868649606517
 40
0.0733868649606517
 40
0.0733868649606517
 40
0.2881791470888971
 40
0.2881791470888971
 40
0.2881791470888971
 40
0.5031002599535739
 40
0.5031002599535739
 40
0.5031002599535739
 40
0.7181724723487022
 40
0.7181724723487022
 40
0.7181724723487022
 40
0.933185445098827
 40
0.933185445098827
 40
0.933185445098827
 40
1.0
 40
1.0
 40
1.0
 40
1.0
 10
54.53523222999779
 20
141.0640853417755
 30
0.0
 10
54.53482674147414
 20
141.0636796775673
 30
0.0
 10
54.53200431375937
 20
141.0655166996617
 30
0.0
 10
54.52674552450753
 20
141.0696190851408
 30
0.0
 10
54.51135355557124
 20
141.0816263717674
 30
0.0
 10
54.47467209531997
 20
141.1133734515531
 30
0.0
 10
54.41994436128106
 20
141.162425458243
 30
0.0
 10
54.36518401099666
 20
141.2115066985988
 30
0.0
 10
54.29086178620335
 20
141.2792791695976
 30
0.0
 10
54.20347242920598
 20
141.3604918130444
 30
0.0
 10
54.11602389849479
 20
141.4417594477842
 30
0.0
 10
54.01309363162876
 20
141.5387473964431
 30
0.0
 10
53.90354772913264
 20
141.643780067269
 30
0.0
 10
53.79403332477395
 20
141.7487825376637
 30
0.0
 10
53.67489544904635
 20
141.8647399198435
 30
0.0
 10
53.5562086464646
 20
141.9822291157682
 30
0.0
 10
53.51884726144418
 20
142.0192135065278
 30
0.0
 10
53.48131742531681
 20
142.0565527913904
 30
0.0
 10
53.44393510835366
 20
142.0939351083537
 30
0.0
  0
SPLINE
  5
66
330
1F
100
AcDbEntity
  8
Standard
  6
Continuous
 62
     7
100
AcDbSpline
210
0.0
220
0.0
230
1.0
 70
     8
 71
     3
 72
    23
 73
    19
 74
     0
 42
0.0000000066600911
 43
0.0000000001
 40
0.0
 40
0.0
 40
0.0
 40
0.0
 40
0.0733868649604679
 40
0.0733868649604679
 40
0.0733868649604679
 40
0.2881791470887304
 40
0.2881791470887304
 40
0.2881791470887304
 40
0.503100259953436
 40
0.503100259953436
 40
0.503100259953436
 40
0.7181724723485751
 40
0.7181724723485751
 40
0.7181724723485751
 40
0.9331854450987296
 40
0.9331854450987296
 40
0.9331854450987296
 40
1.0
 40
1.0
 40
1.0
 40
1.0
 10
120.7716856007768
 20
168.5001226514452
 30
0.0
 10
120.7722591723742
 20
168.5001225272173
 30
0.0
 10
120.7729559593704
 20
168.5034172557741
 30
0.0
 10
120.77377366032
 20
168.5100366059061
 30
0.0
 10
120.7761669921333
 20
168.5294108053141
 30
0.0
 10
120.7796561260216
 20
168.5777970900009
 30
0.0
 10
120.7836694713181
 20
168.65118044842
 30
0.0
 10
120.7876852084597
 20
168.7246075413309
 30
0.0
 10
120.792316583783
 20
168.8250836642959
 30
0.0
 10
120.7966841798199
 20
168.9443032821318
 30
0.0
 10
120.8010547332752
 20
169.0636036268178
 30
0.0
 10
120.8052565867754
 20
169.2049671526983
 30
0.0
 10
120.8084479234945
 20
169.3566971169915
 30
0.0
 10
120.8116383425968
 20
169.5083834538085
 30
0.0
 10
120.8138872911518
 20
169.6746209048996
 30
0.0
 10
120.8147341269402
 20
169.8416225549971
 30
0.0
 10
120.8150007021386
 20
169.8941929572038
 30
0.0
 10
120.81513544223
 20
169.9471334203573
 30
0.0
 10
120.81513544223
 20
169.9999999999999
 30
0.0
  0
SPLINE
  5
67
330
1F
100
AcDbEntity
  8
Standard
  6
Continuous
 62
     7
100
AcDbSpline
210
0.0
220
0.0
230
1.0
 70
     8
 71
     3
 72
    23
 73
    19
 74
     0
 42
0.0000000066600911
 43
0.0000000001
 40
0.0
 40
0.0
 40
0.0
 40
0.0
 40
0.0733868649606518
 40
0.0733868649606518
 40
0.0733868649606518
 40
0.2881791470888976
 40
0.2881791470888976
 40
0.2881791470888976
 40
0.5031002599535846
 40
0.5031002599535846
 40
0.5031002599535846
 40
0.7181724723487053
 40
0.7181724723487053
 40
0.7181724723487053
 40
0.9331854450988427
 40
0.9331854450988427
 40
0.9331854450988427
 40
1.0
 40
1.0
 40
1.0
 40
1.0
 10
120.7716856007768
 20
171.4998773485548
 30
0.0
 10
120.7722591723742
 20
171.4998774727825
 30
0.0
 10
120.7729559593704
 20
171.4965827442257
 30
0.0
 10
120.77377366032
 20
171.4899633940936
 30
0.0
 10
120.7761669921333
 20
171.4705891946857
 30
0.0
 10
120.7796561260216
 20
171.4222029099988
 30
0.0
 10
120.7836694713181
 20
171.3488195515798
 30
0.0
 10
120.7876852084597
 20
171.2753924586687
 30
0.0
 10
120.7923165837831
 20
171.1749163357036
 30
0.0
 10
120.79668417982
 20
171.0556967178678
 30
0.0
 10
120.8010547332752
 20
170.9363963731817
 30
0.0
 10
120.8052565867754
 20
170.7950328473013
 30
0.0
 10
120.8084479234945
 20
170.643302883008
 30
0.0
 10
120.8116383425968
 20
170.4916165461909
 30
0.0
 10
120.8138872911518
 20
170.3253790950998
 30
0.0
 10
120.8147341269402
 20
170.1583774450024
 30
0.0
 10
120.8150007021386
 20
170.1058070427958
 30
0.0
 10
120.81513544223
 20
170.0528665796423
 30
0.0
 10
120.81513544223
 20
169.9999999999999
 30
0.0
  0
SPLINE
  5
68
330
1F
100
AcDbEntity
  8
Standard
  6
Continuous
 62
     7
100
AcDbSpline
210
0.0
220
0.0
230
1.0
 70
     8
 71
     3
 72
    23
 73
    19
 74
     0
 42
0.0000000066600911
 43
0.0000000001
 40
0.0
 40
0.0
 40
0.0
 40
0.0
 40
0.0733868649604632
 40
0.0733868649604632
 40
0.0733868649604632
 40
0.2881791470887211
 40
0.2881791470887211
 40
0.2881791470887211
 40
0.5031002599534341
 40
0.5031002599534341
 40
0.5031002599534341
 40
0.7181724723485701
 40
0.7181724723485701
 40
0.7181724723485701
 40
0.9331854450987321
 40
0.9331854450987321
 40
0.9331854450987321
 40
1.0
 40
1.0
 40
1.0
 40
1.0
 10
108.1647677700022
 20
141.0640853417755
 30
0.0
 10
108.1651732585258
 20
141.0636796775672
 30
0.0
 10
108.1679956862406
 20
141.0655166996617
 30
0.0
 10
108.1732544754924
 20
141.0696190851406
 30
0.0
 10
108.1886464444286
 20
141.0816263717674
 30
0.0
 10
108.22532790468
 20
141.1133734515528
 30
0.0
 10
108.2800556387188
 20
141.1624254582429
 30
0.0
 10
108.3348159890031
 20
141.2115066985986
 30
0.0
 10
108.4091382137965
 20
141.2792791695973
 30
0.0
 10
108.4965275707939
 20
141.3604918130442
 30
0.0
 10
108.5839761015049
 20
141.4417594477839
 30
0.0
 10
108.686906368371
 20
141.5387473964427
 30
0.0
 10
108.7964522708671
 20
141.6437800672686
 30
0.0
 10
108.9059666752258
 20
141.7487825376633
 30
0.0
 10
109.0251045509533
 20
141.8647399198432
 30
0.0
 10
109.1437913535351
 20
141.982229115768
 30
0.0
 10
109.1811527385556
 20
142.0192135065275
 30
0.0
 10
109.2186825746829
 20
142.0565527913901
 30
0.0
 10
109.2560648916464
 20
142.0939351083537
 30
0.0
  0
SPLINE
  5
69
330
1F
100
AcDbEntity
  8
Standard
  6
Continuous
 62
     7
100
AcDbSpline
210
0.0
220
0.0
230
1.0
 70
     8
 71
     3
 72
    23
 73
    19
 74
     0
 42
0.0000000066600911
 43
0.0000000001
 40
0.0
 40
0.0
 40
0.0
 40
0.0
 40
0.073386864960652
 40
0.073386864960652
 40
0.073386864960652
 40
0.2881791470888967
 40
0.2881791470888967
 40
0.2881791470888967
 40
0.5031002599535912
 40
0.5031002599535912
 40
0.5031002599535912
 40
0.7181724723487115
 40
0.7181724723487115
 40
0.7181724723487115
 40
0.9331854450988549
 40
0.9331854450988549
 40
0.9331854450988549
 40
1.0
 40
1.0
 40
1.0
 40
1.0
 10
110.2859146582246
 20
143.1852322299978
 30
0.0
 10
110.2863203224328
 20
143.1848267414742
 30
0.0
 10
110.2844833003384
 20
143.1820043137594
 30
0.0
 10
110.2803809148594
 20
143.1767455245074
 30
0.0
 10
110.2683736282326
 20
143.1613535555713
 30
0.0
 10
110.236626548447
 20
143.1246720953199
 30
0.0
 10
110.187574541757
 20
143.0699443612811
 30
0.0
 10
110.1384933014011
 20
143.0151840109967
 30
0.0
 10
110.0707208304025
 20
142.9408617862034
 30
0.0
 10
109.9895081869555
 20
142.8534724292059
 30
0.0
 10
109.9082405522158
 20
142.7660238984948
 30
0.0
 10
109.811252603557
 20
142.6630936316288
 30
0.0
 10
109.706219932731
 20
142.5535477291326
 30
0.0
 10
109.6012174623363
 20
142.4440333247738
 30
0.0
 10
109.4852600801566
 20
142.3248954490464
 30
0.0
 10
109.3677708842318
 20
142.2062086464646
 30
0.0
 10
109.3307864934723
 20
142.1688472614442
 30
0.0
 10
109.2934472086096
 20
142.1313174253168
 30
0.0
 10
109.2560648916464
 20
142.0939351083537
 30
0.0
  0
SPLINE
  5
6A
330
1F
100
AcDbEntity
  8
Standard
  6
Continuous
 62
     7
100
AcDbSpline
210
0.0
220
0.0
230
1.0
 70
     8
 71
     3
 72
    23
 73
    19
 74
     0
 42
0.0000000066600911
 43
0.0000000001
 40
0.0
 40
0.0
 40
0.0
 40
0.0
 40
0.0733868649604682
 40
0.0733868649604682
 40
0.0733868649604682
 40
0.288179147088731
 40
0.288179147088731
 40
0.288179147088731
 40
0.5031002599534361
 40
0.5031002599534361
 40
0.5031002599534361
 40
0.7181724723485746
 40
0.7181724723485746
 40
0.7181724723485746
 40
0.9331854450987291
 40
0.9331854450987291
 40
0.9331854450987291
 40
1.0
 40
1.0
 40
1.0
 40
1.0
 10
82.84987734855487
 20
209.4216856007769
 30
0.0
 10
82.84987747278272
 20
209.4222591723742
 30
0.0
 10
82.84658274422596
 20
209.4229559593704
 30
0.0
 10
82.83996339409394
 20
209.4237736603202
 30
0.0
 10
82.82058919468594
 20
209.4261669921333
 30
0.0
 10
82.77220290999921
 20
209.4296561260216
 30
0.0
 10
82.6988195515802
 20
209.4336694713181
 30
0.0
 10
82.62539245866918
 20
209.4376852084596
 30
0.0
 10
82.52491633570413
 20
209.4423165837831
 30
0.0
 10
82.40569671786835
 20
209.4466841798199
 30
0.0
 10
82.28639637318224
 20
209.4510547332752
 30
0.0
 10
82.1450328473019
 20
209.4552565867756
 30
0.0
 10
81.99330288300865
 20
209.4584479234946
 30
0.0
 10
81.8416165461916
 20
209.4616383425968
 30
0.0
 10
81.67537909510048
 20
209.4638872911518
 30
0.0
 10
81.50837744500305
 20
209.4647341269402
 30
0.0
 10
81.45580704279642
 20
209.4650007021386
 30
0.0
 10
81.4028665796429
 20
209.4651354422301
 30
0.0
 10
81.35000000000015
 20
209.4651354422301
 30
0.0
  0
SPLINE
  5
6B
330
1F
100
AcDbEntity
  8
Standard
  6
Continuous
 62
     7
100
AcDbSpline
210
0.0
220
0.0
230
1.0
 70
     8
 71
     3
 72
    23
 73
    19
 74
     0
 42
0.0000000066600911
 43
0.0000000001
 40
0.0
 40
0.0
 40
0.0
 40
0.0
 40
0.073386864960652
 40
0.073386864960652
 40
0.073386864960652
 40
0.2881791470888982
 40
0.2881791470888982
 40
0.2881791470888982
 40
0.5031002599535858
 40
0.5031002599535858
 40
0.5031002599535858
 40
0.7181724723487061
 40
0.7181724723487061
 40
0.7181724723487061
 40
0.9331854450988438
 40
0.9331854450988438
 40
0.9331854450988438
 40
1.0
 40
1.0
 40
1.0
 40
1.0
 10
79.85012265144542
 20
209.4216856007769
 30
0.0
 10
79.85012252721756
 20
209.4222591723742
 30
0.0
 10
79.85341725577433
 20
209.4229559593704
 30
0.0
 10
79.86003660590646
 20
209.4237736603202
 30
0.0
 10
79.87941080531446
 20
209.4261669921333
 30
0.0
 10
79.9277970900013
 20
209.4296561260216
 30
0.0
 10
80.00118044842041
 20
209.4336694713181
 30
0.0
 10
80.07460754133133
 20
209.4376852084597
 30
0.0
 10
80.1750836642965
 20
209.4423165837831
 30
0.0
 10
80.29430328213228
 20
209.44668417982
 30
0.0
 10
80.41360362681837
 20
209.4510547332753
 30
0.0
 10
80.55496715269884
 20
209.4552565867756
 30
0.0
 10
80.70669711699207
 20
209.4584479234946
 30
0.0
 10
80.85838345380914
 20
209.4616383425968
 30
0.0
 10
81.02462090490026
 20
209.4638872911518
 30
0.0
 10
81.19162255499779
 20
209.4647341269402
 30
0.0
 10
81.2441929572043
 20
209.4650007021386
 30
0.0
 10
81.29713342035782
 20
209.4651354422301
 30
0.0
 10
81.35000000000015
 20
209.4651354422301
 30
0.0
  0
SPLINE
  5
6C
330
1F
100
AcDbEntity
  8
Standard
  6
Continuous
 62
     7
100
AcDbSpline
210
0.0
220
0.0
230
1.0
 70
     8
 71
     3
 72
    23
 73
    19
 74
     0
 42
0.0000000066600911
 43
0.0000000001
 40
0.0
 40
0.0
 40
0.0
 40
0.0
 40
0.0733868649604682
 40
0.0733868649604682
 40
0.0733868649604682
 40
0.2881791470887312
 40
0.2881791470887312
 40
0.2881791470887312
 40
0.5031002599534364
 40
0.5031002599534364
 40
0.5031002599534364
 40
0.7181724723485745
 40
0.7181724723485745
 40
0.7181724723485745
 40
0.9331854450987291
 40
0.9331854450987291
 40
0.9331854450987291
 40
1.0
 40
1.0
 40
1.0
 40
1.0
 10
41.92831439922329
 20
171.4998773485548
 30
0.0
 10
41.92774082762585
 20
171.4998774727826
 30
0.0
 10
41.92704404062964
 20
171.4965827442259
 30
0.0
 10
41.92622633968001
 20
171.4899633940938
 30
0.0
 10
41.92383300786673
 20
171.4705891946859
 30
0.0
 10
41.92034387397847
 20
171.4222029099991
 30
0.0
 10
41.91633052868193
 20
171.34881955158
 30
0.0
 10
41.91231479154034
 20
171.2753924586692
 30
0.0
 10
41.90768341621709
 20
171.1749163357039
 30
0.0
 10
41.90331582018014
 20
171.0556967178682
 30
0.0
 10
41.89894526672489
 20
170.9363963731821
 30
0.0
 10
41.89474341322463
 20
170.7950328473018
 30
0.0
 10
41.89155207650552
 20
170.6433028830085
 30
0.0
 10
41.88836165740328
 20
170.4916165461914
 30
0.0
 10
41.88611270884823
 20
170.3253790951004
 30
0.0
 10
41.88526587305985
 20
170.1583774450028
 30
0.0
 10
41.88499929786149
 20
170.1058070427963
 30
0.0
 10
41.88486455777007
 20
170.0528665796428
 30
0.0
 10
41.88486455777007
 20
169.9999999999999
 30
0.0
  0
SPLINE
  5
6D
330
1F
100
AcDbEntity
  8
Standard
  6
Continuous
 62
     7
100
AcDbSpline
210
0.0
220
0.0
230
1.0
 70
     8
 71
     3
 72
    23
 73
    19
 74
     0
 42
0.0000000066600911
 43
0.0000000001
 40
0.0
 40
0.0
 40
0.0
 40
0.0
 40
0.0733868649606517
 40
0.0733868649606517
 40
0.0733868649606517
 40
0.2881791470888976
 40
0.2881791470888976
 40
0.2881791470888976
 40
0.5031002599535855
 40
0.5031002599535855
 40
0.5031002599535855
 40
0.7181724723487062
 40
0.7181724723487062
 40
0.7181724723487062
 40
0.933185445098844
 40
0.933185445098844
 40
0.933185445098844
 40
1.0
 40
1.0
 40
1.0
 40
1.0
 10
41.92831439922329
 20
168.5001226514453
 30
0.0
 10
41.92774082762585
 20
168.5001225272175
 30
0.0
 10
41.92704404062964
 20
168.5034172557742
 30
0.0
 10
41.92622633968001
 20
168.5100366059062
 30
0.0
 10
41.92383300786673
 20
168.5294108053144
 30
0.0
 10
41.92034387397847
 20
168.5777970900011
 30
0.0
 10
41.91633052868193
 20
168.6511804484203
 30
0.0
 10
41.91231479154034
 20
168.7246075413312
 30
0.0
 10
41.90768341621698
 20
168.8250836642964
 30
0.0
 10
41.90331582018003
 20
168.9443032821322
 30
0.0
 10
41.89894526672489
 20
169.0636036268183
 30
0.0
 10
41.89474341322463
 20
169.2049671526987
 30
0.0
 10
41.89155207650552
 20
169.356697116992
 30
0.0
 10
41.88836165740328
 20
169.5083834538091
 30
0.0
 10
41.88611270884823
 20
169.6746209049002
 30
0.0
 10
41.88526587305985
 20
169.8416225549977
 30
0.0
 10
41.88499929786149
 20
169.8941929572042
 30
0.0
 10
41.88486455777007
 20
169.9471334203577
 30
0.0
 10
41.88486455777007
 20
169.9999999999999
 30
0.0
  0
LINE
  5
6E
330
1F
100
AcDbEntity
  8
Standard
  6
Continuous
 62
     7
100
AcDbLine
 10
82.85
 20
130.5776017428
 30
0.0
 11
82.85
 21
153.8193788747
 31
0.0
  0
LINE
  5
6F
330
1F
100
AcDbEntity
  8
Standard
  6
Continuous
 62
     7
100
AcDbLine
 10
79.85
 20
153.8193788747
 30
0.0
 11
79.85
 21
130.5776017428
 31
0.0
  0
LINE
  5
70
330
1F
100
AcDbEntity
  8
Standard
  6
Continuous
 62
     7
100
AcDbLine
 10
108.1651849666
 20
198.9365053101
 30
0.0
 11
91.7307667497
 21
182.5020870933
 31
0.0
  0
LINE
  5
71
330
1F
100
AcDbEntity
  8
Standard
  6
Continuous
 62
     7
100
AcDbLine
 10
93.8520870933
 20
180.3807667497
 30
0.0
 11
110.2865053101
 21
196.8151849666
 31
0.0
  0
LINE
  5
72
330
1F
100
AcDbEntity
  8
Standard
  6
Continuous
 62
     7
100
AcDbLine
 10
52.4134946899
 20
196.8151849666
 30
0.0
 11
68.8479129067
 21
180.3807667497
 31
0.0
  0
LINE
  5
73
330
1F
100
AcDbEntity
  8
Standard
  6
Continuous
 62
     7
100
AcDbLine
 10
70.9692332503
 20
182.5020870933
 30
0.0
 11
54.5348150334
 21
198.9365053101
 31
0.0
  0
LINE
  5
74
330
1F
100
AcDbEntity
  8
Standard
  6
Continuous
 62
     7
100
AcDbLine
 10
54.5348150334
 20
141.0634946899
 30
0.0
 11
70.9692332503
 21
157.4979129067
 31
0.0
  0
LINE
  5
75
330
1F
100
AcDbEntity
  8
Standard
  6
Continuous
 62
     7
100
AcDbLine
 10
68.8479129067
 20
159.6192332503
 30
0.0
 11
52.4134946899
 21
143.1848150334
 31
0.0
  0
LINE
  5
76
330
1F
100
AcDbEntity
  8
Standard
  6
Continuous
 62
     7
100
AcDbLine
 10
120.7723982572
 20
171.5
 30
0.0
 11
97.5306211253
 21
171.5
 31
0.0
  0
LINE
  5
77
330
1F
100
AcDbEntity
  8
Standard
  6
Continuous
 62
     7
100
AcDbLine
 10
97.5306211253
 20
168.5
 30
0.0
 11
120.7723982572
 21
168.5
 31
0.0
  0
LINE
  5
78
330
1F
100
AcDbEntity
  8
Standard
  6
Continuous
 62
     7
100
AcDbLine
 10
110.2865053101
 20
143.1848150334
 30
0.0
 11
93.8520870933
 21
159.6192332503
 31
0.0
  0
LINE
  5
79
330
1F
100
AcDbEntity
  8
Standard
  6
Continuous
 62
     7
100
AcDbLine
 10
91.7307667497
 20
157.4979129067
 30
0.0
 11
108.1651849666
 21
141.0634946899
 31
0.0
  0
LINE
  5
7A
330
1F
100
AcDbEntity
  8
Standard
  6
Continuous
 62
     7
100
AcDbLine
 10
79.85
 20
209.4223982572
 30
0.0
 11
79.85
 21
186.4316767252
 31
0.0
  0
LINE
  5
7B
330
1F
100
AcDbEntity
  8
Standard
  6
Continuous
 62
     7
100
AcDbLine
 10
82.85
 20
186.4316767252
 30
0.0
 11
82.85
 21
209.4223982572
 31
0.0
  0
LINE
  5
7C
330
1F
100
AcDbEntity
  8
Standard
  6
Continuous
 62
     7
100
AcDbLine
 10
41.9276017428
 20
168.5
 30
0.0
 11
65.1693788747
 21
168.5
 31
0.0
  0
LINE
  5
7D
330
1F
100
AcDbEntity
  8
Standard
  6
Continuous
 62
     7
100
AcDbLine
 10
65.1693788747
 20
171.5
 30
0.0
 11
41.9276017428
 21
171.5
 31
0.0
  0
LINE
  5
7F
330
1F
100
AcDbEntity
  8
Default
  6
Continuous
 62
     7
100
AcDbLine
 10
45.2079926401
 20
185.5744298431
 30
0.0
 11
45.2079926401
 21
171.5
 31
0.0
  0
LINE
  5
80
330
1F
100
AcDbEntity
  8
Default
  6
Continuous
 62
     7
100
AcDbLine
 10
45.2079926401
 20
154.4255701569
 30
0.0
 11
45.2079926401
 21
168.5
 31
0.0
  0
LINE
  5
81
330
1F
100
AcDbEntity
  8
Default
  6
Continuous
 62
     7
100
AcDbLine
 10
65.7755701569
 20
206.1420073599
 30
0.0
 11
79.85
 21
206.1420073599
 31
0.0
  0
LINE
  5
82
330
1F
100
AcDbEntity
  8
Default
  6
Continuous
 62
     7
100
AcDbLine
 10
96.9244298431
 20
206.1420073599
 30
0.0
 11
82.85
 21
206.1420073599
 31
0.0
  0
LINE
  5
83
330
1F
100
AcDbEntity
  8
Default
  6
Continuous
 62
     7
100
AcDbLine
 10
117.4920073599
 20
185.5744298431
 30
0.0
 11
117.4920073599
 21
171.5
 31
0.0
  0
LINE
  5
84
330
1F
100
AcDbEntity
  8
Default
  6
Continuous
 62
     7
100
AcDbLine
 10
117.4920073599
 20
154.4255701569
 30
0.0
 11
117.4920073599
 21
168.5
 31
0.0
  0
LINE
  5
85
330
1F
100
AcDbEntity
  8
Default
  6
Continuous
 62
     7
100
AcDbLine
 10
96.9244298431
 20
133.8579926401
 30
0.0
 11
82.85
 21
133.8579926401
 31
0.0
  0
LINE
  5
86
330
1F
100
AcDbEntity
  8
Default
  6
Continuous
 62
     7
100
AcDbLine
 10
65.7755701569
 20
133.8579926401
 30
0.0
 11
79.85
 21
133.8579926401
 31
0.0
  0
INSERT
  5
88
330
1F
100
AcDbEntity
  8
Default
100
AcDbBlockReference
  2
SEANNOT_GROUP
 10
0.0
 20
0.0
 30
0.0
  0
INSERT
  5
8F
330
1F
100
AcDbEntity
  8
Default
100
AcDbBlockReference
  2
SEANNOT_GROUP1
 10
0.0
 20
0.0
 30
0.0
  0
LINE
  5
94
330
1F
100
AcDbEntity
  8
Default
  6
Continuous
 62
     7
100
AcDbLine
 10
79.3185175673
 20
481.05
 30
0.0
 11
81.35
 21
481.05
 31
0.0
  0
LINE
  5
95
330
1F
100
AcDbEntity
  8
Default
  6
Continuous
 62
     7
100
AcDbLine
 10
81.35
 20
480.153836436
 30
0.0
 11
81.35
 21
481.05
 31
0.0
  0
INSERT
  5
97
330
1F
100
AcDbEntity
  8
Default
100
AcDbBlockReference
  2
SEANNOT_GROUP2
 10
0.0
 20
0.0
 30
0.0
  0
INSERT
  5
9D
330
1F
100
AcDbEntity
  8
Default
100
AcDbBlockReference
  2
SE
 10
0.0
 20
0.0
 30
0.0
  0
INSERT
  5
E1
330
1F
100
AcDbEntity
  8
Default
100
AcDbBlockReference
  2
SE1
 10
0.0
 20
0.0
 30
0.0
  0
INSERT
  5
147
330
1F
100
AcDbEntity
  8
Default
100
AcDbBlockReference
  2
SE2
 10
0.0
 20
0.0
 30
0.0
  0
TEXT
  5
1BB
330
1F
100
AcDbEntity
  8
Default
  6
Continuous
 62
     7
100
AcDbText
 10
5.9362635081
 20
53.4225120485
 30
0.0
 40
10.0
  1
Grohe AG^J
  7
SEACAD_seiso_ttf
 11
5.9362635081
 21
63.4225120485
 31
0.0
100
AcDbText
 73
     3
  0
TEXT
  5
1BC
330
1F
100
AcDbEntity
  8
Default
  6
Continuous
 62
     7
100
AcDbText
 10
5.9362635081
 20
37.0588756849
 30
0.0
 40
10.0
  1
 
  7
SEACAD_seiso_ttf
 11
5.9362635081
 21
47.0588756849
 31
0.0
100
AcDbText
 73
     3
  0
TEXT
  5
1BD
330
1F
100
AcDbEntity
  8
Default
  6
Continuous
 62
     7
100
AcDbText
 10
5.9362635081
 20
20.6952393213
 30
0.0
 40
10.0
  1
ecn:
  7
SEACAD_seiso_ttf
 11
5.9362635081
 21
30.6952393213
 31
0.0
100
AcDbText
 73
     3
  0
TEXT
  5
1BE
330
1F
100
AcDbEntity
  8
Default
  6
Continuous
 62
     7
100
AcDbText
 10
5.9362635081
 20
4.3316029576
 30
0.0
 40
10.0
  1
unit: mm
  7
SEACAD_seiso_ttf
 11
5.9362635081
 21
14.3316029576
 31
0.0
100
AcDbText
 73
     3
  0
LINE
  5
1BF
330
1F
100
AcDbEntity
  8
Default
  6
Continuous
 62
     7
100
AcDbLine
 10
0.0
 20
0.0
 30
0.0
 11
100.0
 21
0.0
 31
0.0
  0
LINE
  5
1C0
330
1F
100
AcDbEntity
  8
Default
  6
Continuous
 62
     7
100
AcDbLine
 10
0.0
 20
0.0
 30
0.0
 11
0.0
 21
100.0
 31
0.0
  0
TEXT
  5
1C1
330
1F
100
AcDbEntity
  8
Default
  6
Continuous
 62
     7
100
AcDbText
 10
24.3923665681
 20
-18.2375342018
 30
0.0
 40
10.0
  1
100 mm
  7
SEACAD_seiso_ttf
 11
24.3923665681
 21
-8.2375342018
 31
0.0
100
AcDbText
 73
     3
  0
TEXT
  5
1C2
330
1F
100
AcDbEntity
  8
Default
  6
Continuous
 62
     7
100
AcDbText
 10
-7.6150308803
 20
24.6231930421
 30
0.0
 40
10.0
  1
100 mm
 50
90.0
  7
SEACAD_seiso_ttf
 11
-17.6150308803
 21
24.6231930421
 31
0.0
100
AcDbText
 73
     3
  0
TEXT
  5
1C3
330
1F
100
AcDbEntity
  8
Default
  6
Continuous
 62
     7
100
AcDbText
 10
28.4878128572
 20
20.0907663715
 30
0.0
 40
10.0
  1
222070
  7
SEACAD_seiso_ttf
 11
28.4878128572
 21
30.0907663715
 31
0.0
100
AcDbText
 73
     3
  0
TEXT
  5
1C4
330
1F
100
AcDbEntity
  8
Default
  6
Continuous
 62
     7
100
AcDbText
 10
5.9012241913
 20
36.7242780188
 30
0.0
 40
10.0
  1
40500000
  7
SEACAD_seiso_ttf
 11
5.9012241913
 21
46.7242780188
 31
0.0
100
AcDbText
 73
     3
  0
ENDSEC
  0
SECTION
  2
OBJECTS
  0
DICTIONARY
  5
C
330
0
100
AcDbDictionary
281
     1
  3
ACAD_GROUP
350
D
  3
ACAD_LAYOUT
350
1A
  3
ACAD_MLEADERSTYLE
350
1C8
  3
ACAD_MLINESTYLE
350
17
  3
ACAD_PLOTSETTINGS
350
19
  3
ACAD_PLOTSTYLENAME
350
E
  3
ACAD_SCALELIST
350
3B
  3
ACAD_TABLESTYLE
350
1C7
  3
ACAD_VISUALSTYLE
350
2A
  3
AcDbVariableDictionary
350
1C5
  0
DICTIONARY
  5
D
102
{ACAD_REACTORS
330
C
102
}
330
C
100
AcDbDictionary
281
     1
  0
DICTIONARY
  5
1A
102
{ACAD_REACTORS
330
C
102
}
330
C
100
AcDbDictionary
281
     1
  3
Layout1
350
1E
  3
Model
350
22
  0
DICTIONARY
  5
1C8
102
{ACAD_REACTORS
330
C
102
}
330
C
100
AcDbDictionary
281
     1
  0
DICTIONARY
  5
17
102
{ACAD_REACTORS
330
C
102
}
330
C
100
AcDbDictionary
281
     1
  3
Standard
350
18
  0
DICTIONARY
  5
19
102
{ACAD_REACTORS
330
C
102
}
330
C
100
AcDbDictionary
281
     1
  0
ACDBDICTIONARYWDFLT
  5
E
102
{ACAD_REACTORS
330
C
102
}
330
C
100
AcDbDictionary
281
     1
  3
Normal
350
F
100
AcDbDictionaryWithDefault
340
F
  0
DICTIONARY
  5
3B
102
{ACAD_REACTORS
330
C
102
}
330
C
100
AcDbDictionary
281
     1
  3
A0
350
3C
  3
A1
350
3D
  3
A2
350
3E
  3
A3
350
3F
  3
A4
350
40
  3
A5
350
41
  3
A6
350
42
  3
A7
350
43
  3
A8
350
44
  3
A9
350
45
  3
B0
350
46
  3
B1
350
47
  3
B2
350
48
  3
B3
350
49
  3
B4
350
4A
  3
B5
350
4B
  3
B6
350
4C
  3
B7
350
4D
  3
B8
350
4E
  3
B9
350
4F
  3
C0
350
50
  3
C1
350
51
  3
C2
350
52
  3
C3
350
53
  3
C4
350
54
  3
C5
350
55
  3
C6
350
56
  3
C7
350
57
  3
C8
350
58
  3
C9
350
59
  3
D0
350
5A
  3
D1
350
5B
  3
D2
350
5C
  0
DICTIONARY
  5
1C7
102
{ACAD_REACTORS
330
C
102
}
330
C
100
AcDbDictionary
281
     1
  0
DICTIONARY
  5
2A
102
{ACAD_REACTORS
330
C
102
}
330
C
100
AcDbDictionary
281
     1
  3
2dWireframe
350
2F
  3
3D Hidden
350
31
  3
3dWireframe
350
30
  3
Basic
350
32
  3
Brighten
350
36
  3
ColorChange
350
3A
  3
Conceptual
350
34
  3
Dim
350
35
  3
Facepattern
350
39
  3
Flat
350
2B
  3
FlatWithEdges
350
2C
  3
Gouraud
350
2D
  3
GouraudWithEdges
350
2E
  3
Linepattern
350
38
  3
Realistic
350
33
  3
Thicken
350
37
  0
DICTIONARY
  5
1C5
102
{ACAD_REACTORS
330
C
102
}
330
C
100
AcDbDictionary
281
     1
  3
CANNOSCALE
350
1C6
  3
PSOLHEIGHT
350
1CA
  3
PSOLWIDTH
350
1C9
  0
LAYOUT
  5
1E
102
{ACAD_REACTORS
330
1A
102
}
330
1A
100
AcDbPlotSettings
  1

  2
none_device
  4

  6

 40
0.0
 41
0.0
 42
0.0
 43
0.0
 44
0.0
 45
0.0
 46
0.0
 47
0.0
 48
0.0
 49
0.0
140
0.0
141
0.0
142
1.0
143
1.0
 70
   688
 72
     0
 73
     0
 74
     5
  7

 75
    16
147
1.0
148
0.0
149
0.0
100
AcDbLayout
  1
Layout1
 70
     1
 71
     1
 10
0.0
 20
0.0
 11
3000.0
 21
4500.0
 12
0.0
 22
0.0
 32
0.0
 14
0.0
 24
0.0
 34
0.0
 15
3000.0
 25
4500.0
 35
0.0
146
0.0
 13
0.0
 23
0.0
 33
0.0
 16
1.0
 26
0.0
 36
0.0
 17
0.0
 27
1.0
 37
0.0
 76
     0
330
1B
  0
LAYOUT
  5
22
102
{ACAD_REACTORS
330
1A
102
}
330
1A
100
AcDbPlotSettings
  1

  2
none_device
  4

  6

 40
0.0
 41
0.0
 42
0.0
 43
0.0
 44
0.0
 45
0.0
 46
0.0
 47
0.0
 48
0.0
 49
0.0
140
0.0
141
0.0
142
1.0
143
1.0
 70
  1712
 72
     0
 73
     0
 74
     0
  7

 75
     0
147
1.0
148
0.0
149
0.0
100
AcDbLayout
  1
Model
 70
     1
 71
     0
 10
0.0
 20
0.0
 11
3000.0
 21
4500.0
 12
0.0
 22
0.0
 32
0.0
 14
0.0
 24
0.0
 34
0.0
 15
3000.0
 25
4500.0
 35
0.0
146
0.0
 13
0.0
 23
0.0
 33
0.0
 16
1.0
 26
0.0
 36
0.0
 17
0.0
 27
1.0
 37
0.0
 76
     0
330
1F
331
29
  0
MLINESTYLE
  5
18
102
{ACAD_REACTORS
330
17
102
}
330
17
100
AcDbMlineStyle
  2
Standard
 70
     0
  3

 62
   256
 51
90.0
 52
90.0
 71
     2
 49
0.5
 62
   256
  6
BYLAYER
 49
-0.5
 62
   256
  6
BYLAYER
  0
ACDBPLACEHOLDER
  5
F
102
{ACAD_REACTORS
330
E
102
}
330
E
  0
SCALE
  5
3C
102
{ACAD_REACTORS
330
3B
102
}
330
3B
100
AcDbScale
 70
     0
300
1:1
140
1.0
141
1.0
290
     1
  0
SCALE
  5
3D
102
{ACAD_REACTORS
330
3B
102
}
330
3B
100
AcDbScale
 70
     0
300
1:2
140
1.0
141
2.0
290
     0
  0
SCALE
  5
3E
102
{ACAD_REACTORS
330
3B
102
}
330
3B
100
AcDbScale
 70
     0
300
1:4
140
1.0
141
4.0
290
     0
  0
SCALE
  5
3F
102
{ACAD_REACTORS
330
3B
102
}
330
3B
100
AcDbScale
 70
     0
300
1:5
140
1.0
141
5.0
290
     0
  0
SCALE
  5
40
102
{ACAD_REACTORS
330
3B
102
}
330
3B
100
AcDbScale
 70
     0
300
1:8
140
1.0
141
8.0
290
     0
  0
SCALE
  5
41
102
{ACAD_REACTORS
330
3B
102
}
330
3B
100
AcDbScale
 70
     0
300
1:10
140
1.0
141
10.0
290
     0
  0
SCALE
  5
42
102
{ACAD_REACTORS
330
3B
102
}
330
3B
100
AcDbScale
 70
     0
300
1:16
140
1.0
141
16.0
290
     0
  0
SCALE
  5
43
102
{ACAD_REACTORS
330
3B
102
}
330
3B
100
AcDbScale
 70
     0
300
1:20
140
1.0
141
20.0
290
     0
  0
SCALE
  5
44
102
{ACAD_REACTORS
330
3B
102
}
330
3B
100
AcDbScale
 70
     0
300
1:30
140
1.0
141
30.0
290
     0
  0
SCALE
  5
45
102
{ACAD_REACTORS
330
3B
102
}
330
3B
100
AcDbScale
 70
     0
300
1:40
140
1.0
141
40.0
290
     0
  0
SCALE
  5
46
102
{ACAD_REACTORS
330
3B
102
}
330
3B
100
AcDbScale
 70
     0
300
1:50
140
1.0
141
50.0
290
     0
  0
SCALE
  5
47
102
{ACAD_REACTORS
330
3B
102
}
330
3B
100
AcDbScale
 70
     0
300
1:100
140
1.0
141
100.0
290
     0
  0
SCALE
  5
48
102
{ACAD_REACTORS
330
3B
102
}
330
3B
100
AcDbScale
 70
     0
300
2:1
140
2.0
141
1.0
290
     0
  0
SCALE
  5
49
102
{ACAD_REACTORS
330
3B
102
}
330
3B
100
AcDbScale
 70
     0
300
4:1
140
4.0
141
1.0
290
     0
  0
SCALE
  5
4A
102
{ACAD_REACTORS
330
3B
102
}
330
3B
100
AcDbScale
 70
     0
300
8:1
140
8.0
141
1.0
290
     0
  0
SCALE
  5
4B
102
{ACAD_REACTORS
330
3B
102
}
330
3B
100
AcDbScale
 70
     0
300
10:1
140
10.0
141
1.0
290
     0
  0
SCALE
  5
4C
102
{ACAD_REACTORS
330
3B
102
}
330
3B
100
AcDbScale
 70
     0
300
100:1
140
100.0
141
1.0
290
     0
  0
SCALE
  5
4D
102
{ACAD_REACTORS
330
3B
102
}
330
3B
100
AcDbScale
 70
     0
300
1/128" = 1'-0"
140
0.0078125
141
12.0
290
     0
  0
SCALE
  5
4E
102
{ACAD_REACTORS
330
3B
102
}
330
3B
100
AcDbScale
 70
     0
300
1/64" = 1'-0"
140
0.015625
141
12.0
290
     0
  0
SCALE
  5
4F
102
{ACAD_REACTORS
330
3B
102
}
330
3B
100
AcDbScale
 70
     0
300
1/32" = 1'-0"
140
0.03125
141
12.0
290
     0
  0
SCALE
  5
50
102
{ACAD_REACTORS
330
3B
102
}
330
3B
100
AcDbScale
 70
     0
300
1/16" = 1'-0"
140
0.0625
141
12.0
290
     0
  0
SCALE
  5
51
102
{ACAD_REACTORS
330
3B
102
}
330
3B
100
AcDbScale
 70
     0
300
3/32" = 1'-0"
140
0.09375
141
12.0
290
     0
  0
SCALE
  5
52
102
{ACAD_REACTORS
330
3B
102
}
330
3B
100
AcDbScale
 70
     0
300
1/8" = 1'-0"
140
0.125
141
12.0
290
     0
  0
SCALE
  5
53
102
{ACAD_REACTORS
330
3B
102
}
330
3B
100
AcDbScale
 70
     0
300
3/16" = 1'-0"
140
0.1875
141
12.0
290
     0
  0
SCALE
  5
54
102
{ACAD_REACTORS
330
3B
102
}
330
3B
100
AcDbScale
 70
     0
300
1/4" = 1'-0"
140
0.25
141
12.0
290
     0
  0
SCALE
  5
55
102
{ACAD_REACTORS
330
3B
102
}
330
3B
100
AcDbScale
 70
     0
300
3/8" = 1'-0"
140
0.375
141
12.0
290
     0
  0
SCALE
  5
56
102
{ACAD_REACTORS
330
3B
102
}
330
3B
100
AcDbScale
 70
     0
300
1/2" = 1'-0"
140
0.5
141
12.0
290
     0
  0
SCALE
  5
57
102
{ACAD_REACTORS
330
3B
102
}
330
3B
100
AcDbScale
 70
     0
300
3/4" = 1'-0"
140
0.75
141
12.0
290
     0
  0
SCALE
  5
58
102
{ACAD_REACTORS
330
3B
102
}
330
3B
100
AcDbScale
 70
     0
300
1" = 1'-0"
140
1.0
141
12.0
290
     0
  0
SCALE
  5
59
102
{ACAD_REACTORS
330
3B
102
}
330
3B
100
AcDbScale
 70
     0
300
1-1/2" = 1'-0"
140
1.5
141
12.0
290
     0
  0
SCALE
  5
5A
102
{ACAD_REACTORS
330
3B
102
}
330
3B
100
AcDbScale
 70
     0
300
3" = 1'-0"
140
3.0
141
12.0
290
     0
  0
SCALE
  5
5B
102
{ACAD_REACTORS
330
3B
102
}
330
3B
100
AcDbScale
 70
     0
300
6" = 1'-0"
140
6.0
141
12.0
290
     0
  0
SCALE
  5
5C
102
{ACAD_REACTORS
330
3B
102
}
330
3B
100
AcDbScale
 70
     0
300
1'-0" = 1'-0"
140
12.0
141
12.0
290
     0
  0
VISUALSTYLE
  5
2F
102
{ACAD_REACTORS
330
2A
102
}
330
2A
100
AcDbVisualStyle
  2
2dWireframe
 70
     4
 71
     0
 72
     2
 73
     0
 90
        0
 40
-0.6
 41
-30.0
 62
     5
 63
     7
 74
     1
 91
        4
 64
     7
 65
   257
 75
     1
175
     1
 42
1.0
 92
        0
 66
   257
 43
1.0
 76
     1
 77
     6
 78
     2
 67
     7
 79
     5
170
     0
171
     0
290
     0
174
     0
 93
        1
 44
0.0
173
     0
291
     0
 45
0.0
1001
ACAD
1000
AcDbSavedByObjectVersion
1070
     0
  0
VISUALSTYLE
  5
31
102
{ACAD_REACTORS
330
2A
102
}
330
2A
100
AcDbVisualStyle
  2
3D Hidden
 70
     6
 71
     1
 72
     2
 73
     2
 90
        0
 40
-0.6
 41
-30.0
 62
     5
 63
     7
 74
     2
 91
        2
 64
     7
 65
   257
 75
     2
175
     1
 42
40.0
 92
        0
 66
   257
 43
1.0
 76
     1
 77
     6
 78
     2
 67
     7
 79
     3
170
     0
171
     0
290
     0
174
     0
 93
        1
 44
0.0
173
     0
291
     0
 45
0.0
1001
ACAD
1000
AcDbSavedByObjectVersion
1070
     0
  0
VISUALSTYLE
  5
30
102
{ACAD_REACTORS
330
2A
102
}
330
2A
100
AcDbVisualStyle
  2
3dWireframe
 70
     5
 71
     0
 72
     2
 73
     0
 90
        0
 40
-0.6
 41
-30.0
 62
     5
 63
     7
 74
     1
 91
        4
 64
     7
 65
   257
 75
     1
175
     1
 42
1.0
 92
        0
 66
   257
 43
1.0
 76
     1
 77
     6
 78
     2
 67
     7
 79
     5
170
     0
171
     0
290
     0
174
     0
 93
        1
 44
0.0
173
     0
291
     0
 45
0.0
1001
ACAD
1000
AcDbSavedByObjectVersion
1070
     0
  0
VISUALSTYLE
  5
32
102
{ACAD_REACTORS
330
2A
102
}
330
2A
100
AcDbVisualStyle
  2
Basic
 70
     7
 71
     1
 72
     0
 73
     1
 90
        0
 40
-0.6
 41
-30.0
 62
     5
 63
     7
 74
     0
 91
        4
 64
     7
 65
   257
 75
     1
175
     1
 42
1.0
 92
        8
 66
     7
 43
1.0
 76
     1
 77
     6
 78
     2
 67
     7
 79
     5
170
     0
171
     0
290
     0
174
     0
 93
        1
 44
0.0
173
     0
291
     1
 45
0.0
1001
ACAD
1000
AcDbSavedByObjectVersion
1070
     0
  0
VISUALSTYLE
  5
36
102
{ACAD_REACTORS
330
2A
102
}
330
2A
100
AcDbVisualStyle
  2
Brighten
 70
    12
 71
     2
 72
     2
 73
     0
 90
        0
 40
-0.6
 41
-30.0
 62
     5
 63
     7
 74
     1
 91
        4
 64
     7
 65
   257
 75
     1
175
     1
 42
1.0
 92
        8
 66
     7
 43
1.0
 76
     1
 77
     6
 78
     2
 67
     7
 79
     5
170
     0
171
     0
290
     0
174
     0
 93
        1
 44
50.0
173
     0
291
     1
 45
0.0
1001
ACAD
1000
AcDbSavedByObjectVersion
1070
     0
  0
VISUALSTYLE
  5
3A
102
{ACAD_REACTORS
330
2A
102
}
330
2A
100
AcDbVisualStyle
  2
ColorChange
 70
    16
 71
     2
 72
     2
 73
     3
 90
        0
 40
-0.6
 41
-30.0
 62
     5
 63
     8
 74
     1
 91
        4
 64
     7
 65
   257
 75
     1
175
     1
 42
1.0
 92
        8
 66
     8
 43
1.0
 76
     1
 77
     6
 78
     2
 67
     7
 79
     5
170
     0
171
     0
290
     0
174
     0
 93
        1
 44
0.0
173
     0
291
     1
 45
0.0
1001
ACAD
1000
AcDbSavedByObjectVersion
1070
     0
  0
VISUALSTYLE
  5
34
102
{ACAD_REACTORS
330
2A
102
}
330
2A
100
AcDbVisualStyle
  2
Conceptual
 70
     9
 71
     3
 72
     2
 73
     0
 90
        0
 40
-0.6
 41
-30.0
 62
     5
 63
     7
 74
     2
 91
        2
 64
     7
 65
   257
 75
     1
175
     1
 42
40.0
 92
        8
 66
     7
 43
1.0
 76
     1
 77
     6
 78
     2
 67
     7
 79
     3
170
     0
171
     0
290
     0
174
     0
 93
        1
 44
0.0
173
     0
291
     0
 45
0.0
1001
ACAD
1000
AcDbSavedByObjectVersion
1070
     0
  0
VISUALSTYLE
  5
35
102
{ACAD_REACTORS
330
2A
102
}
330
2A
100
AcDbVisualStyle
  2
Dim
 70
    11
 71
     2
 72
     2
 73
     0
 90
        0
 40
-0.6
 41
-30.0
 62
     5
 63
     7
 74
     1
 91
        4
 64
     7
 65
   257
 75
     1
175
     1
 42
1.0
 92
        8
 66
     7
 43
1.0
 76
     1
 77
     6
 78
     2
 67
     7
 79
     5
170
     0
171
     0
290
     0
174
     0
 93
        1
 44
-50.0
173
     0
291
     1
 45
0.0
1001
ACAD
1000
AcDbSavedByObjectVersion
1070
     0
  0
VISUALSTYLE
  5
39
102
{ACAD_REACTORS
330
2A
102
}
330
2A
100
AcDbVisualStyle
  2
Facepattern
 70
    15
 71
     2
 72
     2
 73
     0
 90
        0
 40
-0.6
 41
-30.0
 62
     5
 63
     7
 74
     1
 91
        4
 64
     7
 65
   257
 75
     1
175
     1
 42
1.0
 92
        8
 66
     7
 43
1.0
 76
     1
 77
     6
 78
     2
 67
     7
 79
     5
170
     0
171
     0
290
     0
174
     0
 93
        1
 44
0.0
173
     0
291
     1
 45
0.0
1001
ACAD
1000
AcDbSavedByObjectVersion
1070
     0
  0
VISUALSTYLE
  5
2B
102
{ACAD_REACTORS
330
2A
102
}
330
2A
100
AcDbVisualStyle
  2
Flat
 70
     0
 71
     2
 72
     1
 73
     1
 90
        2
 40
-0.6
 41
30.0
 62
     5
 63
     7
 74
     0
 91
        4
 64
     7
 65
   257
 75
     1
175
     1
 42
1.0
 92
        8
 66
     7
 43
1.0
 76
     1
 77
     6
 78
     2
 67
     7
 79
     5
170
     0
171
     0
290
     0
174
     0
 93
       13
 44
0.0
173
     0
291
     1
 45
0.0
1001
ACAD
1000
AcDbSavedByObjectVersion
1070
     0
  0
VISUALSTYLE
  5
2C
102
{ACAD_REACTORS
330
2A
102
}
330
2A
100
AcDbVisualStyle
  2
FlatWithEdges
 70
     1
 71
     2
 72
     1
 73
     1
 90
        2
 40
-0.6
 41
30.0
 62
     5
 63
     7
 74
     1
 91
        4
 64
     7
 65
   257
 75
     1
175
     1
 42
1.0
 92
        0
 66
   257
 43
1.0
 76
     1
 77
     6
 78
     2
 67
     7
 79
     5
170
     0
171
     0
290
     0
174
     0
 93
       13
 44
0.0
173
     0
291
     1
 45
0.0
1001
ACAD
1000
AcDbSavedByObjectVersion
1070
     0
  0
VISUALSTYLE
  5
2D
102
{ACAD_REACTORS
330
2A
102
}
330
2A
100
AcDbVisualStyle
  2
Gouraud
 70
     2
 71
     2
 72
     2
 73
     1
 90
        2
 40
-0.6
 41
30.0
 62
     5
 63
     7
 74
     0
 91
        4
 64
     7
 65
   257
 75
     1
175
     1
 42
1.0
 92
        0
 66
     7
 43
1.0
 76
     1
 77
     6
 78
     2
 67
     7
 79
     5
170
     0
171
     0
290
     0
174
     0
 93
       13
 44
0.0
173
     0
291
     1
 45
0.0
1001
ACAD
1000
AcDbSavedByObjectVersion
1070
     0
  0
VISUALSTYLE
  5
2E
102
{ACAD_REACTORS
330
2A
102
}
330
2A
100
AcDbVisualStyle
  2
GouraudWithEdges
 70
     3
 71
     2
 72
     2
 73
     1
 90
        2
 40
-0.6
 41
30.0
 62
     5
 63
     7
 74
     1
 91
        4
 64
     7
 65
   257
 75
     1
175
     1
 42
1.0
 92
        0
 66
   257
 43
1.0
 76
     1
 77
     6
 78
     2
 67
     7
 79
     5
170
     0
171
     0
290
     0
174
     0
 93
       13
 44
0.0
173
     0
291
     1
 45
0.0
1001
ACAD
1000
AcDbSavedByObjectVersion
1070
     0
  0
VISUALSTYLE
  5
38
102
{ACAD_REACTORS
330
2A
102
}
330
2A
100
AcDbVisualStyle
  2
Linepattern
 70
    14
 71
     2
 72
     2
 73
     0
 90
        0
 40
-0.6
 41
-30.0
 62
     5
 63
     7
 74
     1
 91
        4
 64
     7
 65
   257
 75
     7
175
     7
 42
1.0
 92
        8
 66
     7
 43
1.0
 76
     1
 77
     6
 78
     2
 67
     7
 79
     5
170
     0
171
     0
290
     0
174
     0
 93
        1
 44
0.0
173
     0
291
     1
 45
0.0
1001
ACAD
1000
AcDbSavedByObjectVersion
1070
     0
  0
VISUALSTYLE
  5
33
102
{ACAD_REACTORS
330
2A
102
}
330
2A
100
AcDbVisualStyle
  2
Realistic
 70
     8
 71
     2
 72
     2
 73
     0
 90
        0
 40
-0.6
 41
-30.0
 62
     5
 63
     7
 74
     1
 91
        0
 64
     7
 65
   257
 75
     1
175
     1
 42
1.0
 92
        8
 66
     8
 43
1.0
 76
     1
 77
     6
 78
     2
 67
     7
 79
     5
170
     0
171
     0
290
     0
174
     0
 93
       13
 44
0.0
173
     0
291
     0
 45
0.0
1001
ACAD
1000
AcDbSavedByObjectVersion
1070
     0
  0
VISUALSTYLE
  5
37
102
{ACAD_REACTORS
330
2A
102
}
330
2A
100
AcDbVisualStyle
  2
Thicken
 70
    13
 71
     2
 72
     2
 73
     0
 90
        0
 40
-0.6
 41
-30.0
 62
     5
 63
     7
 74
     1
 91
        4
 64
     7
 65
   257
 75
     1
175
     1
 42
1.0
 92
       12
 66
     7
 43
1.0
 76
     1
 77
     6
 78
     2
 67
     7
 79
     5
170
     0
171
     0
290
     0
174
     0
 93
        1
 44
0.0
173
     0
291
     1
 45
0.0
1001
ACAD
1000
AcDbSavedByObjectVersion
1070
     0
  0
DICTIONARYVAR
  5
1C6
102
{ACAD_REACTORS
330
1C5
102
}
330
1C5
100
DictionaryVariables
280
     0
  1
1:1
  0
DICTIONARYVAR
  5
1CA
102
{ACAD_REACTORS
330
1C5
102
}
330
1C5
100
DictionaryVariables
280
     0
  1
80.000000
  0
DICTIONARYVAR
  5
1C9
102
{ACAD_REACTORS
330
1C5
102
}
330
1C5
100
DictionaryVariables
280
     0
  1
5.000000
  0
ENDSEC
  0
EOF
