  0
SECTION
  2
HEADER
  9
$ACADVER
  1
AC1015
  9
$ACADMAINTVER
 70
     6
  9
$DWGCODEPAGE
  3
ANSI_1252
  9
$INSBASE
 10
0.0
 20
0.0
 30
0.0
  9
$EXTMIN
 10
0.0
 20
0.0
 30
0.0
  9
$EXTMAX
 10
3000.0
 20
4500.0
 30
0.0
  9
$LIMMIN
 10
0.0
 20
0.0
  9
$LIMMAX
 10
3000.0
 20
4500.0
  9
$ORTHOMODE
 70
     0
  9
$REGENMODE
 70
     1
  9
$FILLMODE
 70
     1
  9
$QTEXTMODE
 70
     0
  9
$MIRRTEXT
 70
     1
  9
$LTSCALE
 40
1.0
  9
$ATTMODE
 70
     1
  9
$TEXTSIZE
 40
2.5
  9
$TRACEWID
 40
1.0
  9
$TEXTSTYLE
  7
Standard
  9
$CLAYER
  8
0
  9
$CELTYPE
  6
ByLayer
  9
$CECOLOR
 62
   256
  9
$CELTSCALE
 40
1.0
  9
$DISPSILH
 70
     0
  9
$DIMSCALE
 40
1.0
  9
$DIMASZ
 40
2.5
  9
$DIMEXO
 40
0.625
  9
$DIMDLI
 40
3.75
  9
$DIMRND
 40
0.0
  9
$DIMDLE
 40
0.0
  9
$DIMEXE
 40
1.25
  9
$DIMTP
 40
0.0
  9
$DIMTM
 40
0.0
  9
$DIMTXT
 40
2.5
  9
$DIMCEN
 40
2.5
  9
$DIMTSZ
 40
0.0
  9
$DIMTOL
 70
     0
  9
$DIMLIM
 70
     0
  9
$DIMTIH
 70
     0
  9
$DIMTOH
 70
     0
  9
$DIMSE1
 70
     0
  9
$DIMSE2
 70
     0
  9
$DIMTAD
 70
     1
  9
$DIMZIN
 70
     8
  9
$DIMBLK
  1

  9
$DIMASO
 70
     1
  9
$DIMSHO
 70
     1
  9
$DIMPOST
  1

  9
$DIMAPOST
  1

  9
$DIMALT
 70
     0
  9
$DIMALTD
 70
     3
  9
$DIMALTF
 40
0.0393700787
  9
$DIMLFAC
 40
1.0
  9
$DIMTOFL
 70
     1
  9
$DIMTVP
 40
0.0
  9
$DIMTIX
 70
     0
  9
$DIMSOXD
 70
     0
  9
$DIMSAH
 70
     0
  9
$DIMBLK1
  1

  9
$DIMBLK2
  1

  9
$DIMSTYLE
  2
ISO-25
  9
$DIMCLRD
 70
     0
  9
$DIMCLRE
 70
     0
  9
$DIMCLRT
 70
     0
  9
$DIMTFAC
 40
1.0
  9
$DIMGAP
 40
0.625
  9
$DIMJUST
 70
     0
  9
$DIMSD1
 70
     0
  9
$DIMSD2
 70
     0
  9
$DIMTOLJ
 70
     0
  9
$DIMTZIN
 70
     8
  9
$DIMALTZ
 70
     0
  9
$DIMALTTZ
 70
     0
  9
$DIMUPT
 70
     0
  9
$DIMDEC
 70
     2
  9
$DIMTDEC
 70
     2
  9
$DIMALTU
 70
     2
  9
$DIMALTTD
 70
     3
  9
$DIMTXSTY
  7
Standard
  9
$DIMAUNIT
 70
     0
  9
$DIMADEC
 70
     0
  9
$DIMALTRND
 40
0.0
  9
$DIMAZIN
 70
     0
  9
$DIMDSEP
 70
    44
  9
$DIMATFIT
 70
     3
  9
$DIMFRAC
 70
     0
  9
$DIMLDRBLK
  1

  9
$DIMLUNIT
 70
     2
  9
$DIMLWD
 70
    -2
  9
$DIMLWE
 70
    -2
  9
$DIMTMOVE
 70
     0
  9
$LUNITS
 70
     2
  9
$LUPREC
 70
     4
  9
$SKETCHINC
 40
1.0
  9
$FILLETRAD
 40
10.0
  9
$AUNITS
 70
     0
  9
$AUPREC
 70
     0
  9
$MENU
  1
.
  9
$ELEVATION
 40
0.0
  9
$PELEVATION
 40
0.0
  9
$THICKNESS
 40
0.0
  9
$LIMCHECK
 70
     0
  9
$CHAMFERA
 40
10.0
  9
$CHAMFERB
 40
10.0
  9
$CHAMFERC
 40
20.0
  9
$CHAMFERD
 40
0.0
  9
$SKPOLY
 70
     0
  9
$TDCREATE
 40
2455954.451871574
  9
$TDUCREATE
 40
2455954.410204907
  9
$TDUPDATE
 40
2455954.451871586
  9
$TDUUPDATE
 40
2455954.410204919
  9
$TDINDWG
 40
0.0000000116
  9
$TDUSRTIMER
 40
0.0000000116
  9
$USRTIMER
 70
     1
  9
$ANGBASE
 50
0.0
  9
$ANGDIR
 70
     0
  9
$PDMODE
 70
     0
  9
$PDSIZE
 40
0.0
  9
$PLINEWID
 40
0.0
  9
$SPLFRAME
 70
     0
  9
$SPLINETYPE
 70
     6
  9
$SPLINESEGS
 70
     8
  9
$HANDSEED
  5
2CE
  9
$SURFTAB1
 70
     6
  9
$SURFTAB2
 70
     6
  9
$SURFTYPE
 70
     6
  9
$SURFU
 70
     6
  9
$SURFV
 70
     6
  9
$UCSBASE
  2

  9
$UCSNAME
  2

  9
$UCSORG
 10
0.0
 20
0.0
 30
0.0
  9
$UCSXDIR
 10
1.0
 20
0.0
 30
0.0
  9
$UCSYDIR
 10
0.0
 20
1.0
 30
0.0
  9
$UCSORTHOREF
  2

  9
$UCSORTHOVIEW
 70
     0
  9
$UCSORGTOP
 10
0.0
 20
0.0
 30
0.0
  9
$UCSORGBOTTOM
 10
0.0
 20
0.0
 30
0.0
  9
$UCSORGLEFT
 10
0.0
 20
0.0
 30
0.0
  9
$UCSORGRIGHT
 10
0.0
 20
0.0
 30
0.0
  9
$UCSORGFRONT
 10
0.0
 20
0.0
 30
0.0
  9
$UCSORGBACK
 10
0.0
 20
0.0
 30
0.0
  9
$PUCSBASE
  2

  9
$PUCSNAME
  2

  9
$PUCSORG
 10
0.0
 20
0.0
 30
0.0
  9
$PUCSXDIR
 10
1.0
 20
0.0
 30
0.0
  9
$PUCSYDIR
 10
0.0
 20
1.0
 30
0.0
  9
$PUCSORTHOREF
  2

  9
$PUCSORTHOVIEW
 70
     0
  9
$PUCSORGTOP
 10
0.0
 20
0.0
 30
0.0
  9
$PUCSORGBOTTOM
 10
0.0
 20
0.0
 30
0.0
  9
$PUCSORGLEFT
 10
0.0
 20
0.0
 30
0.0
  9
$PUCSORGRIGHT
 10
0.0
 20
0.0
 30
0.0
  9
$PUCSORGFRONT
 10
0.0
 20
0.0
 30
0.0
  9
$PUCSORGBACK
 10
0.0
 20
0.0
 30
0.0
  9
$USERI1
 70
     0
  9
$USERI2
 70
     0
  9
$USERI3
 70
     0
  9
$USERI4
 70
     0
  9
$USERI5
 70
     0
  9
$USERR1
 40
0.0
  9
$USERR2
 40
0.0
  9
$USERR3
 40
0.0
  9
$USERR4
 40
0.0
  9
$USERR5
 40
0.0
  9
$WORLDVIEW
 70
     1
  9
$SHADEDGE
 70
     3
  9
$SHADEDIF
 70
    70
  9
$TILEMODE
 70
     1
  9
$MAXACTVP
 70
    64
  9
$PINSBASE
 10
0.0
 20
0.0
 30
0.0
  9
$PLIMCHECK
 70
     0
  9
$PEXTMIN
 10
0.0
 20
0.0
 30
0.0
  9
$PEXTMAX
 10
3000.0
 20
4500.0
 30
0.0
  9
$PLIMMIN
 10
0.0
 20
0.0
  9
$PLIMMAX
 10
3000.0
 20
4500.0
  9
$UNITMODE
 70
     0
  9
$VISRETAIN
 70
     1
  9
$PLINEGEN
 70
     0
  9
$PSLTSCALE
 70
     1
  9
$TREEDEPTH
 70
  3020
  9
$CMLSTYLE
  2
Standard
  9
$CMLJUST
 70
     0
  9
$CMLSCALE
 40
20.0
  9
$PROXYGRAPHICS
 70
     1
  9
$MEASUREMENT
 70
     1
  9
$CELWEIGHT
370
    -1
  9
$ENDCAPS
280
     0
  9
$JOINSTYLE
280
     0
  9
$LWDISPLAY
290
     0
  9
$INSUNITS
 70
     4
  9
$HYPERLINKBASE
  1

  9
$STYLESHEET
  1

  9
$XEDIT
290
     1
  9
$CEPSNTYPE
380
     0
  9
$PSTYLEMODE
290
     1
  9
$FINGERPRINTGUID
  2
{F3386BAA-E3B6-42B3-B2F9-8B75F1099E59}
  9
$VERSIONGUID
  2
{FAEB1C32-E019-11D5-929B-00C0DF256EC4}
  9
$EXTNAMES
290
     1
  9
$PSVPSCALE
 40
0.0
  9
$OLESTARTUP
290
     0
  0
ENDSEC
  0
SECTION
  2
CLASSES
  0
CLASS
  1
ACDBDICTIONARYWDFLT
  2
AcDbDictionaryWithDefault
  3
ObjectDBX Classes
 90
        0
280
     0
281
     0
  0
CLASS
  1
VISUALSTYLE
  2
AcDbVisualStyle
  3
ObjectDBX Classes
 90
     4095
280
     0
281
     0
  0
CLASS
  1
SCALE
  2
AcDbScale
  3
ObjectDBX Classes
 90
     1153
280
     0
281
     0
  0
CLASS
  1
DICTIONARYVAR
  2
AcDbDictionaryVar
  3
ObjectDBX Classes
 90
        0
280
     0
281
     0
  0
CLASS
  1
ACDBPLACEHOLDER
  2
AcDbPlaceHolder
  3
ObjectDBX Classes
 90
        0
280
     0
281
     0
  0
CLASS
  1
LAYOUT
  2
AcDbLayout
  3
ObjectDBX Classes
 90
        0
280
     0
281
     0
  0
ENDSEC
  0
SECTION
  2
TABLES
  0
TABLE
  2
VPORT
  5
8
330
0
100
AcDbSymbolTable
 70
     1
  0
VPORT
  5
29
330
8
100
AcDbSymbolTableRecord
100
AcDbViewportTableRecord
  2
*Active
 70
     0
 10
0.0
 20
0.0
 11
1.0
 21
1.0
 12
344.1869158879
 22
148.5
 13
0.0
 23
0.0
 14
10.0
 24
10.0
 15
10.0
 25
10.0
 16
0.0
 26
0.0
 36
1.0
 17
0.0
 27
0.0
 37
0.0
 40
297.0
 41
1.9729729729
 42
50.0
 43
0.0
 44
0.0
 50
0.0
 51
0.0
 71
     0
 72
   100
 73
     1
 74
     3
 75
     0
 76
     0
 77
     0
 78
     0
281
     0
 65
     1
110
0.0
120
0.0
130
0.0
111
1.0
121
0.0
131
0.0
112
0.0
122
1.0
132
0.0
 79
     0
146
0.0
  0
ENDTAB
  0
TABLE
  2
LTYPE
  5
5
330
0
100
AcDbSymbolTable
 70
     2
  0
LTYPE
  5
14
330
5
100
AcDbSymbolTableRecord
100
AcDbLinetypeTableRecord
  2
ByBlock
 70
     0
  3

 72
    65
 73
     0
 40
0.0
  0
LTYPE
  5
15
330
5
100
AcDbSymbolTableRecord
100
AcDbLinetypeTableRecord
  2
ByLayer
 70
     0
  3

 72
    65
 73
     0
 40
0.0
  0
LTYPE
  5
16
330
5
100
AcDbSymbolTableRecord
100
AcDbLinetypeTableRecord
  2
Continuous
 70
     0
  3
Solid line
 72
    65
 73
     0
 40
0.0
  0
LTYPE
  5
60
330
5
100
AcDbSymbolTableRecord
100
AcDbLinetypeTableRecord
  2
CENTER2
 70
     0
  3
Center (.5x) ___ _ ___ _ ___ _ ___ _ ___ _ ___
 72
    65
 73
     4
 40
28.575
 49
19.05
 74
     4
 75
     0
340
0
 46
0.0
 50
0.0
 44
0.0
 45
0.0
 49
-3.175
 74
     4
 75
     0
340
0
 46
0.0
 50
0.0
 44
0.0
 45
0.0
 49
3.175
 74
     4
 75
     0
340
0
 46
0.0
 50
0.0
 44
0.0
 45
0.0
 49
-3.175
 74
     4
 75
     0
340
0
 46
0.0
 50
0.0
 44
0.0
 45
0.0
  0
ENDTAB
  0
TABLE
  2
LAYER
  5
2
330
0
100
AcDbSymbolTable
 70
    10
  0
LAYER
  5
10
330
2
100
AcDbSymbolTableRecord
100
AcDbLayerTableRecord
  2
0
 70
     0
 62
     7
  6
Continuous
370
    -3
390
F
  0
LAYER
  5
5D
330
2
100
AcDbSymbolTableRecord
100
AcDbLayerTableRecord
  2
Default
 70
     0
 62
     7
  6
Continuous
370
    -3
390
F
  0
LAYER
  5
9B
330
2
100
AcDbSymbolTableRecord
100
AcDbLayerTableRecord
  2
$DDT_AUDIT_GENERATED_(9B)
 70
     0
 62
     7
  6
Continuous
370
    -3
390
F
  0
LAYER
  5
A0
330
2
100
AcDbSymbolTableRecord
100
AcDbLayerTableRecord
  2
$DDT_AUDIT_GENERATED_(A0)
 70
     0
 62
     7
  6
Continuous
370
    -3
390
F
  0
LAYER
  5
C5
330
2
100
AcDbSymbolTableRecord
100
AcDbLayerTableRecord
  2
$DDT_AUDIT_GENERATED_(C5)
 70
     0
 62
     7
  6
Continuous
370
    -3
390
F
  0
LAYER
  5
D6
330
2
100
AcDbSymbolTableRecord
100
AcDbLayerTableRecord
  2
$DDT_AUDIT_GENERATED_(D6)
 70
     0
 62
     7
  6
Continuous
370
    -3
390
F
  0
LAYER
  5
E7
330
2
100
AcDbSymbolTableRecord
100
AcDbLayerTableRecord
  2
$DDT_AUDIT_GENERATED_(E7)
 70
     0
 62
     7
  6
Continuous
370
    -3
390
F
  0
LAYER
  5
104
330
2
100
AcDbSymbolTableRecord
100
AcDbLayerTableRecord
  2
$DDT_AUDIT_GENERATED_(104)
 70
     0
 62
     7
  6
Continuous
370
    -3
390
F
  0
LAYER
  5
111
330
2
100
AcDbSymbolTableRecord
100
AcDbLayerTableRecord
  2
$DDT_AUDIT_GENERATED_(111)
 70
     0
 62
     7
  6
Continuous
370
    -3
390
F
  0
LAYER
  5
1EC
330
2
100
AcDbSymbolTableRecord
100
AcDbLayerTableRecord
  2
$DDT_AUDIT_GENERATED_(1EC)
 70
     0
 62
     7
  6
Continuous
370
    -3
390
F
  0
ENDTAB
  0
TABLE
  2
STYLE
  5
3
330
0
100
AcDbSymbolTable
 70
     2
  0
STYLE
  5
11
330
3
100
AcDbSymbolTableRecord
100
AcDbTextStyleTableRecord
  2
Standard
 70
     0
 40
0.0
 41
1.0
 50
0.0
 71
     0
 42
2.5
  3
txt
  4

  0
STYLE
  5
2BD
330
3
100
AcDbSymbolTableRecord
100
AcDbTextStyleTableRecord
  2
SEACAD_seiso_ttf
 70
     0
 40
0.0
 41
1.0
 50
0.0
 71
     0
 42
0.2
  3
seiso.ttf
  4

  0
ENDTAB
  0
TABLE
  2
VIEW
  5
6
330
0
100
AcDbSymbolTable
 70
     0
  0
ENDTAB
  0
TABLE
  2
UCS
  5
7
330
0
100
AcDbSymbolTable
 70
     0
  0
ENDTAB
  0
TABLE
  2
APPID
  5
9
330
0
100
AcDbSymbolTable
 70
     1
  0
APPID
  5
12
330
9
100
AcDbSymbolTableRecord
100
AcDbRegAppTableRecord
  2
ACAD
 70
     0
  0
ENDTAB
  0
TABLE
  2
DIMSTYLE
  5
A
330
0
100
AcDbSymbolTable
 70
     1
100
AcDbDimStyleTable
  0
DIMSTYLE
105
27
330
A
100
AcDbSymbolTableRecord
100
AcDbDimStyleTableRecord
  2
ISO-25
 70
     0
 41
2.5
 42
0.625
 43
3.75
 44
1.25
 73
     0
 74
     0
 77
     1
 78
     8
140
2.5
141
2.5
143
0.0393700787
147
0.625
171
     3
172
     1
271
     2
272
     2
274
     3
278
    44
283
     0
284
     8
340
11
  0
ENDTAB
  0
TABLE
  2
BLOCK_RECORD
  5
1
330
0
100
AcDbSymbolTable
 70
    11
  0
BLOCK_RECORD
  5
1F
330
1
100
AcDbSymbolTableRecord
100
AcDbBlockTableRecord
  2
*Model_Space
340
22
  0
BLOCK_RECORD
  5
1B
330
1
100
AcDbSymbolTableRecord
100
AcDbBlockTableRecord
  2
*Paper_Space
340
1E
  0
BLOCK_RECORD
  5
5E
330
1
100
AcDbSymbolTableRecord
100
AcDbBlockTableRecord
  2
SEANNOT_GROUP
340
0
102
{BLKREFS
331
5F
102
}
  0
BLOCK_RECORD
  5
69
330
1
100
AcDbSymbolTableRecord
100
AcDbBlockTableRecord
  2
SEANNOT_GROUP1
340
0
102
{BLKREFS
331
6A
102
}
  0
BLOCK_RECORD
  5
73
330
1
100
AcDbSymbolTableRecord
100
AcDbBlockTableRecord
  2
SEANNOT_GROUP2
340
0
102
{BLKREFS
331
74
102
}
  0
BLOCK_RECORD
  5
7D
330
1
100
AcDbSymbolTableRecord
100
AcDbBlockTableRecord
  2
SEANNOT_GROUP3
340
0
102
{BLKREFS
331
7E
102
}
  0
BLOCK_RECORD
  5
83
330
1
100
AcDbSymbolTableRecord
100
AcDbBlockTableRecord
  2
SEANNOT_GROUP4
340
0
102
{BLKREFS
331
84
102
}
  0
BLOCK_RECORD
  5
89
330
1
100
AcDbSymbolTableRecord
100
AcDbBlockTableRecord
  2
SEANNOT_GROUP5
340
0
102
{BLKREFS
331
8A
102
}
  0
BLOCK_RECORD
  5
93
330
1
100
AcDbSymbolTableRecord
100
AcDbBlockTableRecord
  2
SEANNOT_GROUP6
340
0
102
{BLKREFS
331
94
102
}
  0
BLOCK_RECORD
  5
99
330
1
100
AcDbSymbolTableRecord
100
AcDbBlockTableRecord
  2
SE
340
0
102
{BLKREFS
331
9A
102
}
  0
BLOCK_RECORD
  5
1D0
330
1
100
AcDbSymbolTableRecord
100
AcDbBlockTableRecord
  2
SE1
340
0
102
{BLKREFS
331
1D1
102
}
  0
BLOCK_RECORD
  5
228
330
1
100
AcDbSymbolTableRecord
100
AcDbBlockTableRecord
  2
SE2
340
0
102
{BLKREFS
331
229
102
}
  0
ENDTAB
  0
ENDSEC
  0
SECTION
  2
BLOCKS
  0
BLOCK
  5
20
330
1F
100
AcDbEntity
  8
0
100
AcDbBlockBegin
  2
*Model_Space
 70
     0
 10
0.0
 20
0.0
 30
0.0
  3
*Model_Space
  1

  0
ENDBLK
  5
21
330
1F
100
AcDbEntity
  8
0
100
AcDbBlockEnd
  0
BLOCK
  5
1C
330
1B
100
AcDbEntity
 67
     1
  8
0
100
AcDbBlockBegin
  2
*Paper_Space
 70
     0
 10
0.0
 20
0.0
 30
0.0
  3
*Paper_Space
  1

  0
ENDBLK
  5
1D
330
1B
100
AcDbEntity
 67
     1
  8
0
100
AcDbBlockEnd
  0
BLOCK
  5
67
330
5E
100
AcDbEntity
  8
0
100
AcDbBlockBegin
  2
SEANNOT_GROUP
 70
     0
 10
0.0
 20
0.0
 30
0.0
  3
SEANNOT_GROUP
  1

  0
LINE
  5
61
330
5E
100
AcDbEntity
  8
Default
  6
CENTER2
 62
     7
100
AcDbLine
 10
117.1061928342
 20
545.5312326654
 30
0.0
 11
77.1061937282
 21
545.5312326654
 31
0.0
  0
LINE
  5
62
330
5E
100
AcDbEntity
  8
Default
  6
CENTER2
 62
     7
100
AcDbLine
 10
97.1061932812
 20
565.5312322183
 30
0.0
 11
97.1061932812
 21
525.5312331124
 31
0.0
  0
LINE
  5
63
330
5E
100
AcDbEntity
  8
Default
  6
CENTER2
 62
     7
100
AcDbLine
 10
122.1061927224
 20
545.5312326654
 30
0.0
 11
110.3561932812
 21
545.5312326654
 31
0.0
  0
LINE
  5
64
330
5E
100
AcDbEntity
  8
Default
  6
CENTER2
 62
     7
100
AcDbLine
 10
97.1061932812
 20
570.5312321066
 30
0.0
 11
97.1061932812
 21
558.7812326654
 31
0.0
  0
LINE
  5
65
330
5E
100
AcDbEntity
  8
Default
  6
CENTER2
 62
     7
100
AcDbLine
 10
72.10619384
 20
545.5312326654
 30
0.0
 11
83.8561932812
 21
545.5312326654
 31
0.0
  0
LINE
  5
66
330
5E
100
AcDbEntity
  8
Default
  6
CENTER2
 62
     7
100
AcDbLine
 10
97.1061932812
 20
520.5312332241
 30
0.0
 11
97.1061932812
 21
532.2812326654
 31
0.0
  0
ENDBLK
  5
68
330
5E
100
AcDbEntity
  8
0
100
AcDbBlockEnd
  0
BLOCK
  5
71
330
69
100
AcDbEntity
  8
0
100
AcDbBlockBegin
  2
SEANNOT_GROUP1
 70
     0
 10
0.0
 20
0.0
 30
0.0
  3
SEANNOT_GROUP1
  1

  0
LINE
  5
6B
330
69
100
AcDbEntity
  8
Default
  6
CENTER2
 62
     7
100
AcDbLine
 10
217.1061928342
 20
545.5280792451
 30
0.0
 11
177.1061937282
 21
545.5280792451
 31
0.0
  0
LINE
  5
6C
330
69
100
AcDbEntity
  8
Default
  6
CENTER2
 62
     7
100
AcDbLine
 10
197.1061932812
 20
565.5280787981
 30
0.0
 11
197.1061932812
 21
525.5280796921
 31
0.0
  0
LINE
  5
6D
330
69
100
AcDbEntity
  8
Default
  6
CENTER2
 62
     7
100
AcDbLine
 10
222.1061927224
 20
545.5280792451
 30
0.0
 11
223.1061932551
 21
545.5280792451
 31
0.0
  0
LINE
  5
6E
330
69
100
AcDbEntity
  8
Default
  6
CENTER2
 62
     7
100
AcDbLine
 10
197.1061932812
 20
570.5280786863
 30
0.0
 11
197.1061932812
 21
571.5280792189
 31
0.0
  0
LINE
  5
6F
330
69
100
AcDbEntity
  8
Default
  6
CENTER2
 62
     7
100
AcDbLine
 10
172.10619384
 20
545.5280792451
 30
0.0
 11
171.1061933074
 21
545.5280792451
 31
0.0
  0
LINE
  5
70
330
69
100
AcDbEntity
  8
Default
  6
CENTER2
 62
     7
100
AcDbLine
 10
197.1061932812
 20
520.5280798039
 30
0.0
 11
197.1061932812
 21
519.5280792712
 31
0.0
  0
ENDBLK
  5
72
330
69
100
AcDbEntity
  8
0
100
AcDbBlockEnd
  0
BLOCK
  5
7B
330
73
100
AcDbEntity
  8
0
100
AcDbBlockBegin
  2
SEANNOT_GROUP2
 70
     0
 10
0.0
 20
0.0
 30
0.0
  3
SEANNOT_GROUP2
  1

  0
LINE
  5
75
330
73
100
AcDbEntity
  8
Default
  6
CENTER2
 62
     7
100
AcDbLine
 10
317.1061928342
 20
545.5312326654
 30
0.0
 11
277.1061937282
 21
545.5312326654
 31
0.0
  0
LINE
  5
76
330
73
100
AcDbEntity
  8
Default
  6
CENTER2
 62
     7
100
AcDbLine
 10
297.1061932812
 20
565.5312322183
 30
0.0
 11
297.1061932812
 21
525.5312331124
 31
0.0
  0
LINE
  5
77
330
73
100
AcDbEntity
  8
Default
  6
CENTER2
 62
     7
100
AcDbLine
 10
322.1061927224
 20
545.5312326654
 30
0.0
 11
310.3561932812
 21
545.5312326654
 31
0.0
  0
LINE
  5
78
330
73
100
AcDbEntity
  8
Default
  6
CENTER2
 62
     7
100
AcDbLine
 10
297.1061932812
 20
570.5312321066
 30
0.0
 11
297.1061932812
 21
558.7812326654
 31
0.0
  0
LINE
  5
79
330
73
100
AcDbEntity
  8
Default
  6
CENTER2
 62
     7
100
AcDbLine
 10
272.10619384
 20
545.5312326654
 30
0.0
 11
283.8561932812
 21
545.5312326654
 31
0.0
  0
LINE
  5
7A
330
73
100
AcDbEntity
  8
Default
  6
CENTER2
 62
     7
100
AcDbLine
 10
297.1061932812
 20
520.5312332241
 30
0.0
 11
297.1061932812
 21
532.2812326654
 31
0.0
  0
ENDBLK
  5
7C
330
73
100
AcDbEntity
  8
0
100
AcDbBlockEnd
  0
BLOCK
  5
81
330
7D
100
AcDbEntity
  8
0
100
AcDbBlockBegin
  2
SEANNOT_GROUP3
 70
     0
 10
0.0
 20
0.0
 30
0.0
  3
SEANNOT_GROUP3
  1

  0
LINE
  5
7F
330
7D
100
AcDbEntity
  8
Default
  6
CENTER2
 62
     7
100
AcDbLine
 10
501.1133220459
 20
545.5312326654
 30
0.0
 11
461.11332294
 21
545.5312326654
 31
0.0
  0
LINE
  5
80
330
7D
100
AcDbEntity
  8
Default
  6
CENTER2
 62
     7
100
AcDbLine
 10
481.1133224929
 20
565.5312322183
 30
0.0
 11
481.1133224929
 21
525.5312331124
 31
0.0
  0
ENDBLK
  5
82
330
7D
100
AcDbEntity
  8
0
100
AcDbBlockEnd
  0
BLOCK
  5
87
330
83
100
AcDbEntity
  8
0
100
AcDbBlockBegin
  2
SEANNOT_GROUP4
 70
     0
 10
0.0
 20
0.0
 30
0.0
  3
SEANNOT_GROUP4
  1

  0
LINE
  5
85
330
83
100
AcDbEntity
  8
Default
  6
CENTER2
 62
     7
100
AcDbLine
 10
117.1061928342
 20
325.9476171951
 30
0.0
 11
77.1061937282
 21
325.9476171951
 31
0.0
  0
LINE
  5
86
330
83
100
AcDbEntity
  8
Default
  6
CENTER2
 62
     7
100
AcDbLine
 10
97.1061932812
 20
345.947616748
 30
0.0
 11
97.1061932812
 21
305.9476176421
 31
0.0
  0
ENDBLK
  5
88
330
83
100
AcDbEntity
  8
0
100
AcDbBlockEnd
  0
BLOCK
  5
91
330
89
100
AcDbEntity
  8
0
100
AcDbBlockBegin
  2
SEANNOT_GROUP5
 70
     0
 10
0.0
 20
0.0
 30
0.0
  3
SEANNOT_GROUP5
  1

  0
LINE
  5
8B
330
89
100
AcDbEntity
  8
Default
  6
CENTER2
 62
     7
100
AcDbLine
 10
217.1061928342
 20
325.9505124877
 30
0.0
 11
177.1061937282
 21
325.9505124877
 31
0.0
  0
LINE
  5
8C
330
89
100
AcDbEntity
  8
Default
  6
CENTER2
 62
     7
100
AcDbLine
 10
197.1061932812
 20
345.9505120406
 30
0.0
 11
197.1061932812
 21
305.9505129347
 31
0.0
  0
LINE
  5
8D
330
89
100
AcDbEntity
  8
Default
  6
CENTER2
 62
     7
100
AcDbLine
 10
222.1061927224
 20
325.9505124877
 30
0.0
 11
228.1061932812
 21
325.9505124877
 31
0.0
  0
LINE
  5
8E
330
89
100
AcDbEntity
  8
Default
  6
CENTER2
 62
     7
100
AcDbLine
 10
197.1061932812
 20
350.9505119289
 30
0.0
 11
197.1061932812
 21
329.4514499967
 31
0.0
  0
LINE
  5
8F
330
89
100
AcDbEntity
  8
Default
  6
CENTER2
 62
     7
100
AcDbLine
 10
172.10619384
 20
325.9505124877
 30
0.0
 11
166.1061932812
 21
325.9505124877
 31
0.0
  0
LINE
  5
90
330
89
100
AcDbEntity
  8
Default
  6
CENTER2
 62
     7
100
AcDbLine
 10
197.1061932812
 20
300.9505130465
 30
0.0
 11
197.1061932812
 21
322.4495749787
 31
0.0
  0
ENDBLK
  5
92
330
89
100
AcDbEntity
  8
0
100
AcDbBlockEnd
  0
BLOCK
  5
97
330
93
100
AcDbEntity
  8
0
100
AcDbBlockBegin
  2
SEANNOT_GROUP6
 70
     0
 10
0.0
 20
0.0
 30
0.0
  3
SEANNOT_GROUP6
  1

  0
LINE
  5
95
330
93
100
AcDbEntity
  8
Default
  6
CENTER2
 62
     7
100
AcDbLine
 10
317.1061928342
 20
325.9476171951
 30
0.0
 11
277.1061937282
 21
325.9476171951
 31
0.0
  0
LINE
  5
96
330
93
100
AcDbEntity
  8
Default
  6
CENTER2
 62
     7
100
AcDbLine
 10
297.1061932812
 20
345.947616748
 30
0.0
 11
297.1061932812
 21
305.9476176421
 31
0.0
  0
ENDBLK
  5
98
330
93
100
AcDbEntity
  8
0
100
AcDbBlockEnd
  0
BLOCK
  5
1CE
330
99
100
AcDbEntity
  8
0
100
AcDbBlockBegin
  2
SE
 70
     0
 10
0.0
 20
0.0
 30
0.0
  3
SE
  1

  0
ARC
  5
9C
330
99
100
AcDbEntity
  8
$DDT_AUDIT_GENERATED_(9B)
  6
Continuous
 62
     7
100
AcDbCircle
 10
297.1061932812
 20
545.5312326654
 30
0.0
 40
14.85
100
AcDbArc
 50
353.8310078895
 51
0.0
  0
ARC
  5
9D
330
99
100
AcDbEntity
  8
$DDT_AUDIT_GENERATED_(9B)
  6
Continuous
 62
     7
100
AcDbCircle
 10
297.1061932812
 20
545.5312326654
 30
0.0
 40
14.85
100
AcDbArc
 50
233.8310078895
 51
306.1689921105
  0
ARC
  5
9E
330
99
100
AcDbEntity
  8
$DDT_AUDIT_GENERATED_(9B)
  6
Continuous
 62
     7
100
AcDbCircle
 10
297.1061932812
 20
545.5312326654
 30
0.0
 40
14.85
100
AcDbArc
 50
113.8310078895
 51
186.1689921105
  0
ARC
  5
9F
330
99
100
AcDbEntity
  8
$DDT_AUDIT_GENERATED_(9B)
  6
Continuous
 62
     7
100
AcDbCircle
 10
297.1061932812
 20
545.5312326654
 30
0.0
 40
14.85
100
AcDbArc
 50
0.0
 51
66.1689921105
  0
CIRCLE
  5
A1
330
99
100
AcDbEntity
  8
$DDT_AUDIT_GENERATED_(A0)
  6
Continuous
 62
     7
100
AcDbCircle
 10
297.1061932812
 20
545.5312326654
 30
0.0
 40
9.75
  0
LINE
  5
A2
330
99
100
AcDbEntity
  8
$DDT_AUDIT_GENERATED_(A0)
  6
Continuous
 62
     7
100
AcDbLine
 10
291.6061932812
 20
583.0312326654
 30
0.0
 11
302.6061932812
 21
583.0312326654
 31
0.0
  0
LINE
  5
A3
330
99
100
AcDbEntity
  8
$DDT_AUDIT_GENERATED_(A0)
  6
Continuous
 62
     7
100
AcDbLine
 10
261.8802406393
 20
531.5443723862
 30
0.0
 11
267.3802406393
 21
522.0180929445
 31
0.0
  0
LINE
  5
A4
330
99
100
AcDbEntity
  8
$DDT_AUDIT_GENERATED_(A0)
  6
Continuous
 62
     7
100
AcDbLine
 10
326.8321459231
 20
522.0180929445
 30
0.0
 11
332.3321459231
 21
531.5443723862
 31
0.0
  0
LINE
  5
A5
330
99
100
AcDbEntity
  8
$DDT_AUDIT_GENERATED_(A0)
  6
Continuous
 62
     7
100
AcDbLine
 10
332.1491332212
 20
532.2273850881
 30
0.0
 11
306.7617830372
 21
546.8847785508
 31
0.0
  0
LINE
  5
A6
330
99
100
AcDbEntity
  8
$DDT_AUDIT_GENERATED_(A0)
  6
Continuous
 62
     7
100
AcDbLine
 10
300.7655230642
 20
536.4903143998
 30
0.0
 11
326.1491332212
 21
521.8350802426
 31
0.0
  0
LINE
  5
A7
330
99
100
AcDbEntity
  8
$DDT_AUDIT_GENERATED_(A0)
  6
Continuous
 62
     7
100
AcDbLine
 10
268.0632533412
 20
521.8350802426
 30
0.0
 11
293.4506035252
 21
536.4924737054
 31
0.0
  0
LINE
  5
A8
330
99
100
AcDbEntity
  8
$DDT_AUDIT_GENERATED_(A0)
  6
Continuous
 62
     7
100
AcDbLine
 10
287.4468634982
 20
546.8826192452
 30
0.0
 11
262.0632533412
 21
532.2273850881
 31
0.0
  0
LINE
  5
A9
330
99
100
AcDbEntity
  8
$DDT_AUDIT_GENERATED_(A0)
  6
Continuous
 62
     7
100
AcDbLine
 10
291.1061932812
 20
582.5312326654
 30
0.0
 11
291.1061932812
 21
553.2164457398
 31
0.0
  0
LINE
  5
AA
330
99
100
AcDbEntity
  8
$DDT_AUDIT_GENERATED_(A0)
  6
Continuous
 62
     7
100
AcDbLine
 10
303.1061932812
 20
553.220764351
 30
0.0
 11
303.1061932812
 21
582.5312326654
 31
0.0
  0
ARC
  5
AB
330
99
100
AcDbEntity
  8
$DDT_AUDIT_GENERATED_(A0)
  6
Continuous
 62
     7
100
AcDbCircle
 10
302.6061932812
 20
582.5312326654
 30
0.0
 40
0.5000000000000004
100
AcDbArc
 50
0.0
 51
90.0
  0
ARC
  5
AC
330
99
100
AcDbEntity
  8
$DDT_AUDIT_GENERATED_(A0)
  6
Continuous
 62
     7
100
AcDbCircle
 10
291.6061932812
 20
582.5312326654
 30
0.0
 40
0.4999999999999935
100
AcDbArc
 50
90.0
 51
180.0
  0
ARC
  5
AD
330
99
100
AcDbEntity
  8
$DDT_AUDIT_GENERATED_(A0)
  6
Continuous
 62
     7
100
AcDbCircle
 10
262.3132533412
 20
531.7943723862
 30
0.0
 40
0.4999999999999966
100
AcDbArc
 50
120.0
 51
210.0
  0
ARC
  5
AE
330
99
100
AcDbEntity
  8
$DDT_AUDIT_GENERATED_(A0)
  6
Continuous
 62
     7
100
AcDbCircle
 10
267.8132533412
 20
522.2680929445
 30
0.0
 40
0.5000000000000036
100
AcDbArc
 50
210.0
 51
300.0
  0
ARC
  5
AF
330
99
100
AcDbEntity
  8
$DDT_AUDIT_GENERATED_(A0)
  6
Continuous
 62
     7
100
AcDbCircle
 10
331.8991332212
 20
531.7943723862
 30
0.0
 40
0.500000000000002
100
AcDbArc
 50
330.0
 51
60.0
  0
ARC
  5
B0
330
99
100
AcDbEntity
  8
$DDT_AUDIT_GENERATED_(A0)
  6
Continuous
 62
     7
100
AcDbCircle
 10
326.3991332212
 20
522.2680929445
 30
0.0
 40
0.4999999999999989
100
AcDbArc
 50
240.0
 51
330.0
  0
ARC
  5
B1
330
99
100
AcDbEntity
  8
$DDT_AUDIT_GENERATED_(9B)
  6
Continuous
 62
     7
100
AcDbCircle
 10
97.1061932812
 20
545.5312326654
 30
0.0
 40
14.85
100
AcDbArc
 50
353.8310078895
 51
0.0
  0
ARC
  5
B2
330
99
100
AcDbEntity
  8
$DDT_AUDIT_GENERATED_(9B)
  6
Continuous
 62
     7
100
AcDbCircle
 10
97.1061932812
 20
545.5312326654
 30
0.0
 40
14.85
100
AcDbArc
 50
233.8310078895
 51
306.1689921105
  0
ARC
  5
B3
330
99
100
AcDbEntity
  8
$DDT_AUDIT_GENERATED_(9B)
  6
Continuous
 62
     7
100
AcDbCircle
 10
97.1061932812
 20
545.5312326654
 30
0.0
 40
14.85
100
AcDbArc
 50
113.8310078895
 51
186.1689921105
  0
ARC
  5
B4
330
99
100
AcDbEntity
  8
$DDT_AUDIT_GENERATED_(9B)
  6
Continuous
 62
     7
100
AcDbCircle
 10
97.1061932812
 20
545.5312326654
 30
0.0
 40
14.85
100
AcDbArc
 50
0.0
 51
66.1689921105
  0
CIRCLE
  5
B5
330
99
100
AcDbEntity
  8
$DDT_AUDIT_GENERATED_(A0)
  6
Continuous
 62
     7
100
AcDbCircle
 10
97.1061932812
 20
545.5312326654
 30
0.0
 40
9.75
  0
LINE
  5
B6
330
99
100
AcDbEntity
  8
$DDT_AUDIT_GENERATED_(A0)
  6
Continuous
 62
     7
100
AcDbLine
 10
102.6061932812
 20
583.0312326654
 30
0.0
 11
91.6061932812
 21
583.0312326654
 31
0.0
  0
LINE
  5
B7
330
99
100
AcDbEntity
  8
$DDT_AUDIT_GENERATED_(A0)
  6
Continuous
 62
     7
100
AcDbLine
 10
61.8802406393
 20
531.5443723862
 30
0.0
 11
67.3802406393
 21
522.0180929445
 31
0.0
  0
LINE
  5
B8
330
99
100
AcDbEntity
  8
$DDT_AUDIT_GENERATED_(A0)
  6
Continuous
 62
     7
100
AcDbLine
 10
126.8321459231
 20
522.0180929445
 30
0.0
 11
132.3321459231
 21
531.5443723862
 31
0.0
  0
LINE
  5
B9
330
99
100
AcDbEntity
  8
$DDT_AUDIT_GENERATED_(A0)
  6
Continuous
 62
     7
100
AcDbLine
 10
132.1491332212
 20
532.2273850881
 30
0.0
 11
106.7617830372
 21
546.8847785508
 31
0.0
  0
LINE
  5
BA
330
99
100
AcDbEntity
  8
$DDT_AUDIT_GENERATED_(A0)
  6
Continuous
 62
     7
100
AcDbLine
 10
100.7655230642
 20
536.4903143998
 30
0.0
 11
126.1491332212
 21
521.8350802426
 31
0.0
  0
LINE
  5
BB
330
99
100
AcDbEntity
  8
$DDT_AUDIT_GENERATED_(A0)
  6
Continuous
 62
     7
100
AcDbLine
 10
68.0632533412
 20
521.8350802426
 30
0.0
 11
93.4506035252
 21
536.4924737054
 31
0.0
  0
LINE
  5
BC
330
99
100
AcDbEntity
  8
$DDT_AUDIT_GENERATED_(A0)
  6
Continuous
 62
     7
100
AcDbLine
 10
87.4468634982
 20
546.8826192452
 30
0.0
 11
62.0632533412
 21
532.2273850881
 31
0.0
  0
LINE
  5
BD
330
99
100
AcDbEntity
  8
$DDT_AUDIT_GENERATED_(A0)
  6
Continuous
 62
     7
100
AcDbLine
 10
91.1061932812
 20
582.5312326654
 30
0.0
 11
91.1061932812
 21
553.2164457398
 31
0.0
  0
LINE
  5
BE
330
99
100
AcDbEntity
  8
$DDT_AUDIT_GENERATED_(A0)
  6
Continuous
 62
     7
100
AcDbLine
 10
103.1061932812
 20
553.220764351
 30
0.0
 11
103.1061932812
 21
582.5312326654
 31
0.0
  0
ARC
  5
BF
330
99
100
AcDbEntity
  8
$DDT_AUDIT_GENERATED_(A0)
  6
Continuous
 62
     7
100
AcDbCircle
 10
102.6061932812
 20
582.5312326654
 30
0.0
 40
0.5000000000000004
100
AcDbArc
 50
0.0
 51
90.0
  0
ARC
  5
C0
330
99
100
AcDbEntity
  8
$DDT_AUDIT_GENERATED_(A0)
  6
Continuous
 62
     7
100
AcDbCircle
 10
91.6061932812
 20
582.5312326654
 30
0.0
 40
0.5000000000000004
100
AcDbArc
 50
90.0
 51
180.0
  0
ARC
  5
C1
330
99
100
AcDbEntity
  8
$DDT_AUDIT_GENERATED_(A0)
  6
Continuous
 62
     7
100
AcDbCircle
 10
62.3132533412
 20
531.7943723862
 30
0.0
 40
0.5000000000000034
100
AcDbArc
 50
120.0
 51
210.0
  0
ARC
  5
C2
330
99
100
AcDbEntity
  8
$DDT_AUDIT_GENERATED_(A0)
  6
Continuous
 62
     7
100
AcDbCircle
 10
67.8132533412
 20
522.2680929445
 30
0.0
 40
0.500000000000002
100
AcDbArc
 50
210.0
 51
300.0
  0
ARC
  5
C3
330
99
100
AcDbEntity
  8
$DDT_AUDIT_GENERATED_(A0)
  6
Continuous
 62
     7
100
AcDbCircle
 10
131.8991332212
 20
531.7943723862
 30
0.0
 40
0.500000000000002
100
AcDbArc
 50
330.0
 51
60.0
  0
ARC
  5
C4
330
99
100
AcDbEntity
  8
$DDT_AUDIT_GENERATED_(A0)
  6
Continuous
 62
     7
100
AcDbCircle
 10
126.3991332212
 20
522.2680929445
 30
0.0
 40
0.4999999999999989
100
AcDbArc
 50
240.0
 51
330.0
  0
ARC
  5
C6
330
99
100
AcDbEntity
  8
$DDT_AUDIT_GENERATED_(C5)
  6
Continuous
 62
     7
100
AcDbCircle
 10
297.1061932812
 20
545.5312326654
 30
0.0
 40
15.0
100
AcDbArc
 50
353.5781784782
 51
0.0
  0
ARC
  5
C7
330
99
100
AcDbEntity
  8
$DDT_AUDIT_GENERATED_(C5)
  6
Continuous
 62
     7
100
AcDbCircle
 10
297.1061932812
 20
545.5312326654
 30
0.0
 40
15.0
100
AcDbArc
 50
233.5781784782
 51
306.4218215218
  0
ARC
  5
C8
330
99
100
AcDbEntity
  8
$DDT_AUDIT_GENERATED_(C5)
  6
Continuous
 62
     7
100
AcDbCircle
 10
297.1061932812
 20
545.5312326654
 30
0.0
 40
15.0
100
AcDbArc
 50
113.5781784782
 51
186.4218215218
  0
ARC
  5
C9
330
99
100
AcDbEntity
  8
$DDT_AUDIT_GENERATED_(C5)
  6
Continuous
 62
     7
100
AcDbCircle
 10
297.1061932812
 20
545.5312326654
 30
0.0
 40
15.0
100
AcDbArc
 50
0.0
 51
66.4218215218
  0
ARC
  5
CA
330
99
100
AcDbEntity
  8
$DDT_AUDIT_GENERATED_(C5)
  6
Continuous
 62
     7
100
AcDbCircle
 10
297.1061932812
 20
545.5312326654
 30
0.0
 40
18.0
100
AcDbArc
 50
349.4712206345
 51
0.0
  0
ARC
  5
CB
330
99
100
AcDbEntity
  8
$DDT_AUDIT_GENERATED_(C5)
  6
Continuous
 62
     7
100
AcDbCircle
 10
297.1061932812
 20
545.5312326654
 30
0.0
 40
18.0
100
AcDbArc
 50
229.4712206345
 51
310.5287793655
  0
ARC
  5
CC
330
99
100
AcDbEntity
  8
$DDT_AUDIT_GENERATED_(C5)
  6
Continuous
 62
     7
100
AcDbCircle
 10
297.1061932812
 20
545.5312326654
 30
0.0
 40
18.0
100
AcDbArc
 50
109.4712206345
 51
190.5287793655
  0
ARC
  5
CD
330
99
100
AcDbEntity
  8
$DDT_AUDIT_GENERATED_(C5)
  6
Continuous
 62
     7
100
AcDbCircle
 10
297.1061932812
 20
545.5312326654
 30
0.0
 40
18.0
100
AcDbArc
 50
0.0
 51
70.5287793655
  0
ARC
  5
CE
330
99
100
AcDbEntity
  8
$DDT_AUDIT_GENERATED_(C5)
  6
Continuous
 62
     7
100
AcDbCircle
 10
97.1061932812
 20
545.5312326654
 30
0.0
 40
15.0
100
AcDbArc
 50
353.5781784782
 51
0.0
  0
ARC
  5
CF
330
99
100
AcDbEntity
  8
$DDT_AUDIT_GENERATED_(C5)
  6
Continuous
 62
     7
100
AcDbCircle
 10
97.1061932812
 20
545.5312326654
 30
0.0
 40
15.0
100
AcDbArc
 50
233.5781784782
 51
306.4218215218
  0
ARC
  5
D0
330
99
100
AcDbEntity
  8
$DDT_AUDIT_GENERATED_(C5)
  6
Continuous
 62
     7
100
AcDbCircle
 10
97.1061932812
 20
545.5312326654
 30
0.0
 40
15.0
100
AcDbArc
 50
113.5781784782
 51
186.4218215218
  0
ARC
  5
D1
330
99
100
AcDbEntity
  8
$DDT_AUDIT_GENERATED_(C5)
  6
Continuous
 62
     7
100
AcDbCircle
 10
97.1061932812
 20
545.5312326654
 30
0.0
 40
15.0
100
AcDbArc
 50
0.0
 51
66.4218215218
  0
ARC
  5
D2
330
99
100
AcDbEntity
  8
$DDT_AUDIT_GENERATED_(C5)
  6
Continuous
 62
     7
100
AcDbCircle
 10
97.1061932812
 20
545.5312326654
 30
0.0
 40
18.0
100
AcDbArc
 50
349.4712206345
 51
0.0
  0
ARC
  5
D3
330
99
100
AcDbEntity
  8
$DDT_AUDIT_GENERATED_(C5)
  6
Continuous
 62
     7
100
AcDbCircle
 10
97.1061932812
 20
545.5312326654
 30
0.0
 40
18.0
100
AcDbArc
 50
229.4712206345
 51
310.5287793655
  0
ARC
  5
D4
330
99
100
AcDbEntity
  8
$DDT_AUDIT_GENERATED_(C5)
  6
Continuous
 62
     7
100
AcDbCircle
 10
97.1061932812
 20
545.5312326654
 30
0.0
 40
18.0
100
AcDbArc
 50
109.4712206345
 51
190.5287793655
  0
ARC
  5
D5
330
99
100
AcDbEntity
  8
$DDT_AUDIT_GENERATED_(C5)
  6
Continuous
 62
     7
100
AcDbCircle
 10
97.1061932812
 20
545.5312326654
 30
0.0
 40
18.0
100
AcDbArc
 50
0.0
 51
70.5287793655
  0
ARC
  5
D7
330
99
100
AcDbEntity
  8
$DDT_AUDIT_GENERATED_(D6)
  6
Continuous
 62
     7
100
AcDbCircle
 10
297.1061932812
 20
545.5312326654
 30
0.0
 40
27.5
100
AcDbArc
 50
342.6022648415
 51
0.0
  0
ARC
  5
D8
330
99
100
AcDbEntity
  8
$DDT_AUDIT_GENERATED_(D6)
  6
Continuous
 62
     7
100
AcDbCircle
 10
297.1061932812
 20
545.5312326654
 30
0.0
 40
27.5
100
AcDbArc
 50
222.6022648415
 51
317.3977351585
  0
ARC
  5
D9
330
99
100
AcDbEntity
  8
$DDT_AUDIT_GENERATED_(D6)
  6
Continuous
 62
     7
100
AcDbCircle
 10
297.1061932812
 20
545.5312326654
 30
0.0
 40
27.5
100
AcDbArc
 50
102.6022648415
 51
197.3977351585
  0
ARC
  5
DA
330
99
100
AcDbEntity
  8
$DDT_AUDIT_GENERATED_(D6)
  6
Continuous
 62
     7
100
AcDbCircle
 10
297.1061932812
 20
545.5312326654
 30
0.0
 40
27.5
100
AcDbArc
 50
0.0
 51
77.3977351585
  0
ARC
  5
DB
330
99
100
AcDbEntity
  8
$DDT_AUDIT_GENERATED_(D6)
  6
Continuous
 62
     7
100
AcDbCircle
 10
297.1061932812
 20
545.5312326654
 30
0.0
 40
22.49999999999996
100
AcDbArc
 50
345.4660099534
 51
0.0
  0
ARC
  5
DC
330
99
100
AcDbEntity
  8
$DDT_AUDIT_GENERATED_(D6)
  6
Continuous
 62
     7
100
AcDbCircle
 10
297.1061932812
 20
545.5312326654
 30
0.0
 40
22.49999999999996
100
AcDbArc
 50
225.4660099534
 51
314.5339900466
  0
ARC
  5
DD
330
99
100
AcDbEntity
  8
$DDT_AUDIT_GENERATED_(D6)
  6
Continuous
 62
     7
100
AcDbCircle
 10
297.1061932812
 20
545.5312326654
 30
0.0
 40
22.49999999999996
100
AcDbArc
 50
105.4660099534
 51
194.5339900466
  0
ARC
  5
DE
330
99
100
AcDbEntity
  8
$DDT_AUDIT_GENERATED_(D6)
  6
Continuous
 62
     7
100
AcDbCircle
 10
297.1061932812
 20
545.5312326654
 30
0.0
 40
22.49999999999996
100
AcDbArc
 50
0.0
 51
74.5339900466
  0
ARC
  5
DF
330
99
100
AcDbEntity
  8
$DDT_AUDIT_GENERATED_(D6)
  6
Continuous
 62
     7
100
AcDbCircle
 10
97.1061932812
 20
545.5312326654
 30
0.0
 40
27.5
100
AcDbArc
 50
342.6022648415
 51
0.0
  0
ARC
  5
E0
330
99
100
AcDbEntity
  8
$DDT_AUDIT_GENERATED_(D6)
  6
Continuous
 62
     7
100
AcDbCircle
 10
97.1061932812
 20
545.5312326654
 30
0.0
 40
27.5
100
AcDbArc
 50
222.6022648415
 51
317.3977351585
  0
ARC
  5
E1
330
99
100
AcDbEntity
  8
$DDT_AUDIT_GENERATED_(D6)
  6
Continuous
 62
     7
100
AcDbCircle
 10
97.1061932812
 20
545.5312326654
 30
0.0
 40
27.5
100
AcDbArc
 50
102.6022648415
 51
197.3977351585
  0
ARC
  5
E2
330
99
100
AcDbEntity
  8
$DDT_AUDIT_GENERATED_(D6)
  6
Continuous
 62
     7
100
AcDbCircle
 10
97.1061932812
 20
545.5312326654
 30
0.0
 40
27.5
100
AcDbArc
 50
0.0
 51
77.3977351585
  0
ARC
  5
E3
330
99
100
AcDbEntity
  8
$DDT_AUDIT_GENERATED_(D6)
  6
Continuous
 62
     7
100
AcDbCircle
 10
97.1061932812
 20
545.5312326654
 30
0.0
 40
22.49999999999996
100
AcDbArc
 50
345.4660099534
 51
0.0
  0
ARC
  5
E4
330
99
100
AcDbEntity
  8
$DDT_AUDIT_GENERATED_(D6)
  6
Continuous
 62
     7
100
AcDbCircle
 10
97.1061932812
 20
545.5312326654
 30
0.0
 40
22.49999999999996
100
AcDbArc
 50
225.4660099534
 51
314.5339900466
  0
ARC
  5
E5
330
99
100
AcDbEntity
  8
$DDT_AUDIT_GENERATED_(D6)
  6
Continuous
 62
     7
100
AcDbCircle
 10
97.1061932812
 20
545.5312326654
 30
0.0
 40
22.49999999999996
100
AcDbArc
 50
105.4660099534
 51
194.5339900466
  0
ARC
  5
E6
330
99
100
AcDbEntity
  8
$DDT_AUDIT_GENERATED_(D6)
  6
Continuous
 62
     7
100
AcDbCircle
 10
97.1061932812
 20
545.5312326654
 30
0.0
 40
22.49999999999996
100
AcDbArc
 50
0.0
 51
74.5339900466
  0
ARC
  5
E8
330
99
100
AcDbEntity
  8
$DDT_AUDIT_GENERATED_(E7)
  6
Continuous
 62
     7
100
AcDbCircle
 10
197.1061932812
 20
545.5265280874
 30
0.0
 40
11.49999998663455
100
AcDbArc
 50
0.0
 51
180.0000000333
  0
ARC
  5
E9
330
99
100
AcDbEntity
  8
$DDT_AUDIT_GENERATED_(E7)
  6
Continuous
 62
     7
100
AcDbCircle
 10
197.1061932812
 20
545.5265792263
 30
0.0
 40
14.99999998256681
100
AcDbArc
 50
0.0
 51
219.9039490773
  0
ARC
  5
EA
330
99
100
AcDbEntity
  8
$DDT_AUDIT_GENERATED_(E7)
  6
Continuous
 62
     7
100
AcDbCircle
 10
197.1061932812
 20
545.5265792263
 30
0.0
 40
14.99999998256681
100
AcDbArc
 50
320.0960509227
 51
0.0
  0
ARC
  5
EB
330
99
100
AcDbEntity
  8
$DDT_AUDIT_GENERATED_(E7)
  6
Continuous
 62
     7
100
AcDbCircle
 10
197.1061932812
 20
545.5266644544
 30
0.0
 40
14.99999998256681
100
AcDbArc
 50
0.0
 51
180.0000000332
  0
ARC
  5
EC
330
99
100
AcDbEntity
  8
$DDT_AUDIT_GENERATED_(E7)
  6
Continuous
 62
     7
100
AcDbCircle
 10
197.1061932812
 20
545.526715593
 30
0.0
 40
17.99999997907957
100
AcDbArc
 50
0.0
 51
230.2909834518
  0
ARC
  5
ED
330
99
100
AcDbEntity
  8
$DDT_AUDIT_GENERATED_(E7)
  6
Continuous
 62
     7
100
AcDbCircle
 10
197.1061932812
 20
545.526715593
 30
0.0
 40
17.99999997907957
100
AcDbArc
 50
309.7090165482
 51
0.0
  0
ARC
  5
EE
330
99
100
AcDbEntity
  8
$DDT_AUDIT_GENERATED_(E7)
  6
Continuous
 62
     7
100
AcDbCircle
 10
197.1061932812
 20
545.5280281056
 30
0.0
 40
17.99999997908017
100
AcDbArc
 50
0.0
 51
180.0000000333
  0
ARC
  5
EF
330
99
100
AcDbEntity
  8
$DDT_AUDIT_GENERATED_(E7)
  6
Continuous
 62
     7
100
AcDbCircle
 10
197.1061932812
 20
545.5280792451
 30
0.0
 40
22.49999997385092
100
AcDbArc
 50
0.0
 51
239.2621313303
  0
ARC
  5
F0
330
99
100
AcDbEntity
  8
$DDT_AUDIT_GENERATED_(E7)
  6
Continuous
 62
     7
100
AcDbCircle
 10
197.1061932812
 20
545.5280792451
 30
0.0
 40
22.49999997385092
100
AcDbArc
 50
300.7378686697
 51
0.0
  0
ARC
  5
F1
330
99
100
AcDbEntity
  8
$DDT_AUDIT_GENERATED_(E7)
  6
Continuous
 62
     7
100
AcDbCircle
 10
197.1061932812
 20
545.5281644732
 30
0.0
 40
22.49999997385022
100
AcDbArc
 50
0.0
 51
180.0000000333
  0
ARC
  5
F2
330
99
100
AcDbEntity
  8
$DDT_AUDIT_GENERATED_(E7)
  6
Continuous
 62
     7
100
AcDbCircle
 10
197.1061932812
 20
545.5282156129
 30
0.0
 40
27.49999996803983
100
AcDbArc
 50
0.0
 51
245.2801488184
  0
ARC
  5
F3
330
99
100
AcDbEntity
  8
$DDT_AUDIT_GENERATED_(E7)
  6
Continuous
 62
     7
100
AcDbCircle
 10
197.1061932812
 20
545.5282156129
 30
0.0
 40
27.49999996803983
100
AcDbArc
 50
294.7198511816
 51
0.0
  0
ARC
  5
F4
330
99
100
AcDbEntity
  8
$DDT_AUDIT_GENERATED_(E7)
  6
Continuous
 62
     7
100
AcDbCircle
 10
197.1061932812
 20
545.5284031147
 30
0.0
 40
27.49999996803916
100
AcDbArc
 50
0.0
 51
180.0000000332
  0
ELLIPSE
  5
F5
330
99
100
AcDbEntity
  8
$DDT_AUDIT_GENERATED_(E7)
  6
Continuous
 62
     7
100
AcDbEllipse
 10
197.1061932812
 20
517.8927902145
 30
0.0
 11
11.5
 21
3.469446951953614E-15
 31
0.0
210
0.0
220
0.0
230
1.0
 40
0.4225873643
 41
0.3861650397239859
 42
2.919874405064112
  0
LINE
  5
F6
330
99
100
AcDbEntity
  8
$DDT_AUDIT_GENERATED_(E7)
  6
Continuous
 62
     7
100
AcDbLine
 10
185.6061932812
 20
522.4244011849
 30
0.0
 11
185.6061932812
 21
518.3127691754
 31
0.0
  0
LINE
  5
F7
330
99
100
AcDbEntity
  8
$DDT_AUDIT_GENERATED_(E7)
  6
Continuous
 62
     7
100
AcDbLine
 10
208.6061932812
 20
518.3127691754
 30
0.0
 11
208.6061932812
 21
522.4244011849
 31
0.0
  0
LINE
  5
F8
330
99
100
AcDbEntity
  8
$DDT_AUDIT_GENERATED_(E7)
  6
Continuous
 62
     7
100
AcDbLine
 10
185.6061932812
 20
545.5224540073
 30
0.0
 11
185.6061932812
 21
522.4255902058
 31
0.0
  0
LINE
  5
F9
330
99
100
AcDbEntity
  8
$DDT_AUDIT_GENERATED_(E7)
  6
Continuous
 62
     7
100
AcDbLine
 10
208.6061932812
 20
522.4260888666
 30
0.0
 11
208.6061932812
 21
545.5224540073
 31
0.0
  0
LINE
  5
FA
330
99
100
AcDbEntity
  8
$DDT_AUDIT_GENERATED_(E7)
  6
Continuous
 62
     7
100
AcDbLine
 10
185.6061932812
 20
545.526528082
 30
0.0
 11
185.6061932812
 21
545.5224540086
 31
0.0
  0
LINE
  5
FB
330
99
100
AcDbEntity
  8
$DDT_AUDIT_GENERATED_(E7)
  6
Continuous
 62
     7
100
AcDbLine
 10
208.6061932812
 20
545.5224540061
 30
0.0
 11
208.6061932812
 21
545.5265280795
 31
0.0
  0
LINE
  5
FC
330
99
100
AcDbEntity
  8
$DDT_AUDIT_GENERATED_(E7)
  6
Continuous
 62
     7
100
AcDbLine
 10
182.1061932812
 20
545.5266644457
 30
0.0
 11
182.1061932812
 21
545.5265792176
 31
0.0
  0
LINE
  5
FD
330
99
100
AcDbEntity
  8
$DDT_AUDIT_GENERATED_(E7)
  6
Continuous
 62
     7
100
AcDbLine
 10
212.1061932812
 20
545.5265792176
 30
0.0
 11
212.1061932812
 21
545.5266644456
 31
0.0
  0
LINE
  5
FE
330
99
100
AcDbEntity
  8
$DDT_AUDIT_GENERATED_(E7)
  6
Continuous
 62
     7
100
AcDbLine
 10
174.6061932812
 20
545.5281644601
 30
0.0
 11
174.6061932812
 21
545.528079232
 31
0.0
  0
LINE
  5
FF
330
99
100
AcDbEntity
  8
$DDT_AUDIT_GENERATED_(E7)
  6
Continuous
 62
     7
100
AcDbLine
 10
219.6061932812
 20
545.528079232
 30
0.0
 11
219.6061932812
 21
545.5281644601
 31
0.0
  0
LINE
  5
100
330
99
100
AcDbEntity
  8
$DDT_AUDIT_GENERATED_(E7)
  6
Continuous
 62
     7
100
AcDbLine
 10
169.6061932812
 20
545.5284030988
 30
0.0
 11
169.6061932812
 21
545.528215597
 31
0.0
  0
LINE
  5
101
330
99
100
AcDbEntity
  8
$DDT_AUDIT_GENERATED_(E7)
  6
Continuous
 62
     7
100
AcDbLine
 10
224.6061932812
 20
545.5282155969
 30
0.0
 11
224.6061932812
 21
545.5284030987
 31
0.0
  0
LINE
  5
102
330
99
100
AcDbEntity
  8
$DDT_AUDIT_GENERATED_(E7)
  6
Continuous
 62
     7
100
AcDbLine
 10
179.1061932812
 20
545.5280280951
 30
0.0
 11
179.1061932812
 21
545.5267155825
 31
0.0
  0
LINE
  5
103
330
99
100
AcDbEntity
  8
$DDT_AUDIT_GENERATED_(E7)
  6
Continuous
 62
     7
100
AcDbLine
 10
215.1061932812
 20
545.5267155826
 30
0.0
 11
215.1061932812
 21
545.5280280952
 31
0.0
  0
ELLIPSE
  5
105
330
99
100
AcDbEntity
  8
$DDT_AUDIT_GENERATED_(104)
  6
Continuous
 62
     7
100
AcDbEllipse
 10
197.1061932812
 20
502.485312915
 30
0.0
 11
10.075
 21
0.0
 31
0.0
210
0.0
220
0.0
230
1.0
 40
0.4225873643
 41
0.0
 42
6.283185307179586
  0
ELLIPSE
  5
106
330
99
100
AcDbEntity
  8
$DDT_AUDIT_GENERATED_(104)
  6
Continuous
 62
     7
100
AcDbEllipse
 10
197.1061932812
 20
503.3916351091
 30
0.0
 11
11.575
 21
0.0
 31
0.0
210
0.0
220
0.0
230
1.0
 40
0.4225873643
 41
6.280060543648291
 42
6.283185307179586
  0
ELLIPSE
  5
107
330
99
100
AcDbEntity
  8
$DDT_AUDIT_GENERATED_(104)
  6
Continuous
 62
     7
100
AcDbEllipse
 10
197.1061932812
 20
503.3916351091
 30
0.0
 11
11.575
 21
0.0
 31
0.0
210
0.0
220
0.0
230
1.0
 40
0.4225873643
 41
0.0
 42
3.138687878623895
  0
ELLIPSE
  5
108
330
99
100
AcDbEntity
  8
$DDT_AUDIT_GENERATED_(104)
  6
Continuous
 62
     7
100
AcDbEllipse
 10
197.1061932812
 20
517.7568418854
 30
0.0
 11
11.575
 21
3.469446951953614E-15
 31
0.0
210
0.0
220
0.0
230
1.0
 40
0.4225873643
 41
0.0
 42
0.2623687649809466
  0
ELLIPSE
  5
109
330
99
100
AcDbEntity
  8
$DDT_AUDIT_GENERATED_(104)
  6
Continuous
 62
     7
100
AcDbEllipse
 10
197.1061932812
 20
517.7568418854
 30
0.0
 11
11.575
 21
3.469446951953614E-15
 31
0.0
210
0.0
220
0.0
230
1.0
 40
0.4225873643
 41
2.891713305244249
 42
3.141592653589793
  0
ELLIPSE
  5
10A
330
99
100
AcDbEntity
  8
$DDT_AUDIT_GENERATED_(104)
  6
Continuous
 62
     7
100
AcDbEllipse
 10
197.1061932812
 20
517.8927902145
 30
0.0
 11
11.425
 21
3.469446951953615E-15
 31
0.0
210
0.0
220
0.0
230
1.0
 40
0.4225873643
 41
0.863787406732366
 42
2.307012996851989
  0
LINE
  5
10B
330
99
100
AcDbEntity
  8
$DDT_AUDIT_GENERATED_(104)
  6
Continuous
 62
     7
100
AcDbLine
 10
208.6811932812
 20
503.3916351091
 30
0.0
 11
208.6811932812
 21
517.7568418854
 31
0.0
  0
LINE
  5
10C
330
99
100
AcDbEntity
  8
$DDT_AUDIT_GENERATED_(104)
  6
Continuous
 62
     7
100
AcDbLine
 10
185.5311932812
 20
517.7568418854
 30
0.0
 11
185.5311932812
 21
503.3916351091
 31
0.0
  0
SPLINE
  5
10D
330
99
100
AcDbEntity
  8
$DDT_AUDIT_GENERATED_(104)
  6
Continuous
 62
     7
100
AcDbSpline
210
0.0
220
0.0
230
1.0
 70
     8
 71
     3
 72
    29
 73
    25
 74
     0
 42
0.0000000007189908
 43
0.0000000001
 40
0.0
 40
0.0
 40
0.0
 40
0.0
 40
0.0056779392095005
 40
0.0483216648420236
 40
0.090885555335929
 40
0.1339633202551096
 40
0.178155583977349
 40
0.2238860385947016
 40
0.2713026547339478
 40
0.3202192031378144
 40
0.3701860729888311
 40
0.4206851718017647
 40
0.471277281200256
 40
0.5217108035981246
 40
0.5719141235354749
 40
0.6218788710582613
 40
0.6716254961927591
 40
0.7211849503427207
 40
0.7705901237990995
 40
0.8198723400642312
 40
0.8690602706993429
 40
0.9181799422603425
 40
0.967255203909466
 40
1.0
 40
1.0
 40
1.0
 40
1.0
 10
185.535147849349
 20
503.4113250226328
 30
0.0
 10
185.5336009367328
 20
503.3900027181712
 30
0.0
 10
185.5225198961071
 20
503.2341369488605
 30
0.0
 10
185.5633389707034
 20
502.9125986724152
 30
0.0
 10
185.6625444864243
 20
502.4875411451517
 30
0.0
 10
185.8305318828617
 20
502.0687976502869
 30
0.0
 10
186.0588871744425
 20
501.6627129559378
 30
0.0
 10
186.3508694622295
 20
501.2672203708765
 30
0.0
 10
186.7072357359476
 20
500.8836914089699
 30
0.0
 10
187.128252522504
 20
500.514321132841
 30
0.0
 10
187.6116464237999
 20
500.1624803955457
 30
0.0
 10
188.1529074040436
 20
499.8315928578395
 30
0.0
 10
188.7463188935855
 20
499.5243426253324
 30
0.0
 10
189.3862778624381
 20
499.2423495728403
 30
0.0
 10
190.0679445653398
 20
498.9864287917056
 30
0.0
 10
190.7871283191587
 20
498.7570185428734
 30
0.0
 10
191.5398250819611
 20
498.5544923997919
 30
0.0
 10
192.3219727600234
 20
498.379230624296
 30
0.0
 10
193.1296287913304
 20
498.2316083761586
 30
0.0
 10
193.9579205495029
 20
498.1120376364582
 30
0.0
 10
194.8048021733196
 20
498.0207115928105
 30
0.0
 10
195.6570731340443
 20
497.9584369232055
 30
0.0
 10
196.4444731854092
 20
497.9273050295095
 30
0.0
 10
196.8938997669734
 20
497.9239545823748
 30
0.0
 10
197.1061932812136
 20
497.9227737311607
 30
0.0
  0
SPLINE
  5
10E
330
99
100
AcDbEntity
  8
$DDT_AUDIT_GENERATED_(104)
  6
Continuous
 62
     7
100
AcDbSpline
210
0.0
220
0.0
230
1.0
 70
     8
 71
     3
 72
    28
 73
    24
 74
     0
 42
0.0000000007211232
 43
0.0000000001
 40
0.0
 40
0.0
 40
0.0
 40
0.0
 40
0.025989011005068
 40
0.0752327887828328
 40
0.1245034757999882
 40
0.1738141091187207
 40
0.2231879677069108
 40
0.2726503572325512
 40
0.3222293562489931
 40
0.3719564571416023
 40
0.4218668611890838
 40
0.4719988876746603
 40
0.5223913364663337
 40
0.5730764275758047
 40
0.6240637883842317
 40
0.6753080759081741
 40
0.7266049801549491
 40
0.7774989889996607
 40
0.82738587965054
 40
0.8756641392389285
 40
0.9220380136016423
 40
0.9666614539190929
 40
1.0
 40
1.0
 40
1.0
 40
1.0
 10
197.1061932812136
 20
497.9227737311607
 30
0.0
 10
197.2740147885768
 20
497.9235116178627
 30
0.0
 10
197.6867125507785
 20
497.9259923037792
 30
0.0
 10
198.434489250092
 20
497.9519180299367
 30
0.0
 10
199.2869128460489
 20
498.0101415031843
 30
0.0
 10
200.134801702524
 20
498.0972935745943
 30
0.0
 10
200.9641686912437
 20
498.2126031953545
 30
0.0
 10
201.7731551369988
 20
498.3558105582656
 30
0.0
 10
202.5568585156679
 20
498.5264575257652
 30
0.0
 10
203.3114270622249
 20
498.7241185903528
 30
0.0
 10
204.0329834257988
 20
498.9483936836212
 30
0.0
 10
204.7179150414885
 20
499.1989789926548
 30
0.0
 10
205.3627559817576
 20
499.4757263213901
 30
0.0
 10
205.9641082703929
 20
499.778699299325
 30
0.0
 10
206.5184357420991
 20
500.1081730368509
 30
0.0
 10
207.0215924417987
 20
500.4643970929533
 30
0.0
 10
207.4682941493168
 20
500.8469171937755
 30
0.0
 10
207.8524357200881
 20
501.2539887365131
 30
0.0
 10
208.1676312632251
 20
501.6813276928136
 30
0.0
 10
208.4101614121498
 20
502.1243845606249
 30
0.0
 10
208.5752464976621
 20
502.5714543593314
 30
0.0
 10
208.6670916139373
 20
502.9979549302086
 30
0.0
 10
208.6730924449745
 20
503.2453439031918
 30
0.0
 10
208.675069650506
 20
503.3704748022805
 30
0.0
  0
ARC
  5
10F
330
99
100
AcDbEntity
  8
$DDT_AUDIT_GENERATED_(104)
  6
Continuous
 62
     7
100
AcDbCircle
 10
191.2991946641
 20
515.0553192501
 30
0.0
 40
6.692047950939857
100
AcDbArc
 50
107.0637639578
 51
143.5825794496
  0
ARC
  5
110
330
99
100
AcDbEntity
  8
$DDT_AUDIT_GENERATED_(104)
  6
Continuous
 62
     7
100
AcDbCircle
 10
202.685278892
 20
514.7622114248
 30
0.0
 40
7.056798954160071
100
AcDbArc
 50
37.811656152
 51
74.047178265
  0
ELLIPSE
  5
112
330
99
100
AcDbEntity
  8
$DDT_AUDIT_GENERATED_(111)
  6
Continuous
 62
     7
100
AcDbEllipse
 10
197.1061932812
 20
502.2587323665
 30
0.0
 11
-9.0
 21
0.0
 31
0.0
210
0.0
220
0.0
230
1.0
 40
0.4225873643
 41
0.0
 42
6.283185307179586
  0
ELLIPSE
  5
113
330
99
100
AcDbEntity
  8
$DDT_AUDIT_GENERATED_(111)
  6
Continuous
 62
     7
100
AcDbEllipse
 10
197.1061932812
 20
505.0560723482
 30
0.0
 11
9.386474103793081
 21
2.151057110211241E-13
 31
0.0
210
0.0
220
0.0
230
1.0
 40
0.4225873643
 41
-0.2879555481429703
 42
-0.2082190453743857
  0
ELLIPSE
  5
114
330
99
100
AcDbEntity
  8
$DDT_AUDIT_GENERATED_(111)
  6
Continuous
 62
     7
100
AcDbEllipse
 10
197.1061932812
 20
505.0560723482
 30
0.0
 11
-9.386474103796083
 21
-2.012279232133096E-13
 31
0.0
210
0.0
220
0.0
230
1.0
 40
0.4225873643
 41
0.2082190453743575
 42
0.2879555481429232
  0
ELLIPSE
  5
115
330
99
100
AcDbEntity
  8
$DDT_AUDIT_GENERATED_(111)
  6
Continuous
 62
     7
100
AcDbEllipse
 10
197.1061932812
 20
502.2587323665
 30
0.0
 11
5.25
 21
0.0
 31
0.0
210
0.0
220
0.0
230
1.0
 40
0.4225873643
 41
0.0
 42
6.283185307179586
  0
ELLIPSE
  5
116
330
99
100
AcDbEntity
  8
$DDT_AUDIT_GENERATED_(111)
  6
Continuous
 62
     7
100
AcDbEllipse
 10
197.1061932812
 20
502.2587323665
 30
0.0
 11
-6.250000000000003
 21
-6.938893903907229E-15
 31
0.0
210
0.0
220
0.0
230
1.0
 40
0.4225873643
 41
0.0
 42
6.283185307179586
  0
ELLIPSE
  5
117
330
99
100
AcDbEntity
  8
$DDT_AUDIT_GENERATED_(111)
  6
Continuous
 62
     7
100
AcDbEllipse
 10
197.1061932812
 20
502.2587323665
 30
0.0
 11
2.750000000000003
 21
0.0
 31
0.0
210
0.0
220
0.0
230
1.0
 40
0.4225873643
 41
0.0
 42
6.283185307179586
  0
ELLIPSE
  5
118
330
99
100
AcDbEntity
  8
$DDT_AUDIT_GENERATED_(111)
  6
Continuous
 62
     7
100
AcDbEllipse
 10
197.1061932812
 20
502.2587323665
 30
0.0
 11
2.150000000000001
 21
0.0
 31
0.0
210
0.0
220
0.0
230
1.0
 40
0.4225873643
 41
0.0
 42
6.283185307179586
  0
ELLIPSE
  5
119
330
99
100
AcDbEntity
  8
$DDT_AUDIT_GENERATED_(111)
  6
Continuous
 62
     7
100
AcDbEllipse
 10
197.1061932812
 20
502.4399968053
 30
0.0
 11
0.5196299438963559
 21
0.0
 31
0.0
210
0.0
220
0.0
230
1.0
 40
0.4225873643
 41
0.0
 42
6.283185307179586
  0
ELLIPSE
  5
11A
330
99
100
AcDbEntity
  8
$DDT_AUDIT_GENERATED_(111)
  6
Continuous
 62
     7
100
AcDbEllipse
 10
197.1061932812
 20
502.2587323665
 30
0.0
 11
8.700000000000003
 21
0.0
 31
0.0
210
0.0
220
0.0
230
1.0
 40
0.4225873643
 41
0.0
 42
6.283185307179586
  0
ARC
  5
11B
330
99
100
AcDbEntity
  8
$DDT_AUDIT_GENERATED_(111)
  6
Continuous
 62
     7
100
AcDbCircle
 10
197.1061932812
 20
518.9610447589
 30
0.0
 40
20.11304055756053
100
AcDbArc
 50
269.7151300152
 51
270.2848699848
  0
ELLIPSE
  5
11C
330
99
100
AcDbEntity
  8
$DDT_AUDIT_GENERATED_(111)
  6
Continuous
 62
     7
100
AcDbEllipse
 10
197.1061932812
 20
502.4399968053
 30
0.0
 11
8.499999999995067
 21
5.898059818321143E-13
 31
0.0
210
0.0
220
0.0
230
1.0
 40
0.4225873643
 41
4.724153957672616
 42
4.962423390895724
  0
LINE
  5
11D
330
99
100
AcDbEntity
  8
$DDT_AUDIT_GENERATED_(111)
  6
Continuous
 62
     7
100
AcDbLine
 10
197.0061932812
 20
499.6178994309
 30
0.0
 11
197.0061932812
 21
498.8482527978
 31
0.0
  0
LINE
  5
11E
330
99
100
AcDbEntity
  8
$DDT_AUDIT_GENERATED_(111)
  6
Continuous
 62
     7
100
AcDbLine
 10
197.2061932812
 20
499.6178994309
 30
0.0
 11
197.2061932812
 21
498.8482527978
 31
0.0
  0
LINE
  5
11F
330
99
100
AcDbEntity
  8
$DDT_AUDIT_GENERATED_(111)
  6
Continuous
 62
     7
100
AcDbLine
 10
197.3561932812
 20
501.7617288298
 30
0.0
 11
197.3561932812
 21
502.2474920127
 31
0.0
  0
LINE
  5
120
330
99
100
AcDbEntity
  8
$DDT_AUDIT_GENERATED_(111)
  6
Continuous
 62
     7
100
AcDbLine
 10
196.8561932812
 20
501.7617288298
 30
0.0
 11
196.8561932812
 21
502.2474920127
 31
0.0
  0
ELLIPSE
  5
121
330
99
100
AcDbEntity
  8
$DDT_AUDIT_GENERATED_(111)
  6
Continuous
 62
     7
100
AcDbEllipse
 10
197.1061932812
 20
502.6641285013
 30
0.0
 11
-2.149999999999242
 21
-3.469446951953614E-14
 31
0.0
210
0.0
220
0.0
230
1.0
 40
0.4225873643
 41
1.454253618345496
 42
1.687339035244257
  0
LINE
  5
122
330
99
100
AcDbEntity
  8
$DDT_AUDIT_GENERATED_(111)
  6
Continuous
 62
     7
100
AcDbLine
 10
196.8366854119
 20
502.8518737458
 30
0.0
 11
196.8366854119
 21
503.1601286992
 31
0.0
  0
ELLIPSE
  5
123
330
99
100
AcDbEntity
  8
$DDT_AUDIT_GENERATED_(111)
  6
Continuous
 62
     7
100
AcDbEllipse
 10
197.1061932812
 20
502.6641285013
 30
0.0
 11
-0.519629943896358
 21
-2.081668171172169E-14
 31
0.0
210
0.0
220
0.0
230
1.0
 40
0.4225873643
 41
5.257664250556947
 42
6.261508812604329
  0
LINE
  5
124
330
99
100
AcDbEntity
  8
$DDT_AUDIT_GENERATED_(111)
  6
Continuous
 62
     7
100
AcDbLine
 10
195.6038600096
 20
502.9086787037
 30
0.0
 11
196.5866854119
 21
502.6688880494
 31
0.0
  0
LINE
  5
125
330
99
100
AcDbEntity
  8
$DDT_AUDIT_GENERATED_(111)
  6
Continuous
 62
     7
100
AcDbLine
 10
196.0369984329
 20
503.0469821175
 30
0.0
 11
196.8366854119
 21
502.8518737458
 31
0.0
  0
ELLIPSE
  5
126
330
99
100
AcDbEntity
  8
$DDT_AUDIT_GENERATED_(111)
  6
Continuous
 62
     7
100
AcDbEllipse
 10
197.1061932812
 20
502.6641285013
 30
0.0
 11
0.519629943896357
 21
-3.469446951953614E-14
 31
0.0
210
0.0
220
0.0
230
1.0
 40
0.4225873643
 41
0.0216764945751758
 42
1.025521056622585
  0
LINE
  5
127
330
99
100
AcDbEntity
  8
$DDT_AUDIT_GENERATED_(111)
  6
Continuous
 62
     7
100
AcDbLine
 10
198.1753881296
 20
503.0469821175
 30
0.0
 11
197.3757011505
 21
502.8518737458
 31
0.0
  0
LINE
  5
128
330
99
100
AcDbEntity
  8
$DDT_AUDIT_GENERATED_(111)
  6
Continuous
 62
     7
100
AcDbLine
 10
197.3757011505
 20
502.8518737458
 30
0.0
 11
197.3757011505
 21
503.1601286992
 31
0.0
  0
LINE
  5
129
330
99
100
AcDbEntity
  8
$DDT_AUDIT_GENERATED_(111)
  6
Continuous
 62
     7
100
AcDbLine
 10
198.6085265529
 20
502.9086787037
 30
0.0
 11
197.6257011505
 21
502.6688880494
 31
0.0
  0
ELLIPSE
  5
12A
330
99
100
AcDbEntity
  8
$DDT_AUDIT_GENERATED_(111)
  6
Continuous
 62
     7
100
AcDbEllipse
 10
197.1061931592
 20
502.4399966129
 30
0.0
 11
-8.499999748559285
 21
6.062660790062679E-8
 31
0.0
210
0.0
220
0.0
230
1.0
 40
0.4225873542
 41
1.297231971328642
 42
1.320761926557188
  0
ELLIPSE
  5
12B
330
99
100
AcDbEntity
  8
$DDT_AUDIT_GENERATED_(111)
  6
Continuous
 62
     7
100
AcDbEllipse
 10
197.1061932812
 20
502.4399968053
 30
0.0
 11
-8.499999999992228
 21
1.137978600240785E-12
 31
0.0
210
0.0
220
0.0
230
1.0
 40
0.4225873643
 41
1.320761916283938
 42
1.559031349507118
  0
LINE
  5
12C
330
99
100
AcDbEntity
  8
$DDT_AUDIT_GENERATED_(111)
  6
Continuous
 62
     7
100
AcDbLine
 10
194.809791067
 20
498.9815758728
 30
0.0
 11
194.809791067
 21
499.8023022485
 31
0.0
  0
LINE
  5
12D
330
99
100
AcDbEntity
  8
$DDT_AUDIT_GENERATED_(111)
  6
Continuous
 62
     7
100
AcDbLine
 10
195.2856690247
 20
499.7320913347
 30
0.0
 11
194.809791067
 21
498.9815758728
 31
0.0
  0
LINE
  5
12E
330
99
100
AcDbEntity
  8
$DDT_AUDIT_GENERATED_(111)
  6
Continuous
 62
     7
100
AcDbLine
 10
195.477934455
 20
499.7087660729
 30
0.0
 11
195.0029762322
 21
498.9597011412
 31
0.0
  0
ELLIPSE
  5
12F
330
99
100
AcDbEntity
  8
$DDT_AUDIT_GENERATED_(111)
  6
Continuous
 62
     7
100
AcDbEllipse
 10
197.1061930796
 20
502.4399966576
 30
0.0
 11
-8.499999747921546
 21
8.984316762772337E-8
 31
0.0
210
0.0
220
0.0
230
1.0
 40
0.4225873593
 41
1.035432588357475
 42
1.058962543492056
  0
ELLIPSE
  5
130
330
99
100
AcDbEntity
  8
$DDT_AUDIT_GENERATED_(111)
  6
Continuous
 62
     7
100
AcDbEllipse
 10
197.1061932812
 20
502.4399968053
 30
0.0
 11
-8.499999999985093
 21
4.760081218080359E-12
 31
0.0
210
0.0
220
0.0
230
1.0
 40
0.4225873643
 41
1.058962528485296
 42
1.297231961708625
  0
LINE
  5
131
330
99
100
AcDbEntity
  8
$DDT_AUDIT_GENERATED_(111)
  6
Continuous
 62
     7
100
AcDbLine
 10
192.7698848687
 20
499.3505846191
 30
0.0
 11
192.7698848687
 21
500.356670003
 31
0.0
  0
LINE
  5
132
330
99
100
AcDbEntity
  8
$DDT_AUDIT_GENERATED_(111)
  6
Continuous
 62
     7
100
AcDbLine
 10
193.7128126187
 20
500.0407537832
 30
0.0
 11
192.7698848687
 21
499.3505846191
 31
0.0
  0
LINE
  5
133
330
99
100
AcDbEntity
  8
$DDT_AUDIT_GENERATED_(111)
  6
Continuous
 62
     7
100
AcDbLine
 10
193.8825837202
 20
499.9959815704
 30
0.0
 11
192.9430899494
 21
499.3083258827
 31
0.0
  0
ELLIPSE
  5
134
330
99
100
AcDbEntity
  8
$DDT_AUDIT_GENERATED_(111)
  6
Continuous
 62
     7
100
AcDbEllipse
 10
197.1061929488
 20
502.4399966648
 30
0.0
 11
-8.499999647407563
 21
1.209173247640472E-7
 31
0.0
210
0.0
220
0.0
230
1.0
 40
0.4225873643
 41
0.773633205624127
 42
0.7971631608510182
  0
ELLIPSE
  5
135
330
99
100
AcDbEntity
  8
$DDT_AUDIT_GENERATED_(111)
  6
Continuous
 62
     7
100
AcDbEllipse
 10
197.1061932812
 20
502.4399968053
 30
0.0
 11
-8.500000000016144
 21
-5.842548667089886E-12
 31
0.0
210
0.0
220
0.0
230
1.0
 40
0.4225873643
 41
0.7971631406847438
 42
1.035432573907374
  0
LINE
  5
136
330
99
100
AcDbEntity
  8
$DDT_AUDIT_GENERATED_(111)
  6
Continuous
 62
     7
100
AcDbLine
 10
191.0254909226
 20
499.9301317004
 30
0.0
 11
191.0254909226
 21
500.9076252118
 31
0.0
  0
LINE
  5
137
330
99
100
AcDbEntity
  8
$DDT_AUDIT_GENERATED_(111)
  6
Continuous
 62
     7
100
AcDbLine
 10
192.4108062391
 20
500.5155484488
 30
0.0
 11
191.0254909226
 21
499.9301317004
 31
0.0
  0
LINE
  5
138
330
99
100
AcDbEntity
  8
$DDT_AUDIT_GENERATED_(111)
  6
Continuous
 62
     7
100
AcDbLine
 10
192.5453555828
 20
500.4528815449
 30
0.0
 11
191.1669122788
 21
499.8703688222
 31
0.0
  0
ELLIPSE
  5
139
330
99
100
AcDbEntity
  8
$DDT_AUDIT_GENERATED_(111)
  6
Continuous
 62
     7
100
AcDbEllipse
 10
197.1061929329
 20
502.4399967202
 30
0.0
 11
-8.4999996480547
 21
8.966608705529566E-8
 31
0.0
210
0.0
220
0.0
230
1.0
 40
0.4225873693
 41
0.51183381273245
 42
0.5353637678654796
  0
ELLIPSE
  5
13A
330
99
100
AcDbEntity
  8
$DDT_AUDIT_GENERATED_(111)
  6
Continuous
 62
     7
100
AcDbEllipse
 10
197.1061932812
 20
502.4399968053
 30
0.0
 11
-8.500000000016671
 21
-5.197231534026514E-12
 31
0.0
210
0.0
220
0.0
230
1.0
 40
0.4225873643
 41
0.53536375288569
 42
0.7736331861083713
  0
LINE
  5
13B
330
99
100
AcDbEntity
  8
$DDT_AUDIT_GENERATED_(111)
  6
Continuous
 62
     7
100
AcDbLine
 10
189.6954867934
 20
500.6807219408
 30
0.0
 11
189.6954867934
 21
501.5571186474
 31
0.0
  0
LINE
  5
13C
330
99
100
AcDbEntity
  8
$DDT_AUDIT_GENERATED_(111)
  6
Continuous
 62
     7
100
AcDbLine
 10
191.4732206524
 20
501.1144550985
 30
0.0
 11
189.6954867934
 21
500.6807219408
 31
0.0
  0
LINE
  5
13D
330
99
100
AcDbEntity
  8
$DDT_AUDIT_GENERATED_(111)
  6
Continuous
 62
     7
100
AcDbLine
 10
191.5629065417
 20
501.0387443736
 30
0.0
 11
189.7954867934
 21
500.6075276622
 31
0.0
  0
ELLIPSE
  5
13E
330
99
100
AcDbEntity
  8
$DDT_AUDIT_GENERATED_(111)
  6
Continuous
 62
     7
100
AcDbEllipse
 10
197.1061928252
 20
502.4399967536
 30
0.0
 11
-8.499999543729015
 21
6.072936598044976E-8
 31
0.0
210
0.0
220
0.0
230
1.0
 40
0.4225873745
 41
0.2500344201464291
 42
0.2735643753760211
  0
ELLIPSE
  5
13F
330
99
100
AcDbEntity
  8
$DDT_AUDIT_GENERATED_(111)
  6
Continuous
 62
     7
100
AcDbEllipse
 10
197.1061932812
 20
502.4399968053
 30
0.0
 11
-8.500000000020695
 21
-4.080069615497450E-12
 31
0.0
210
0.0
220
0.0
230
1.0
 40
0.4225873643
 41
0.2735643650867114
 42
0.5118337983093736
  0
LINE
  5
140
330
99
100
AcDbEntity
  8
$DDT_AUDIT_GENERATED_(111)
  6
Continuous
 62
     7
100
AcDbLine
 10
188.8705100646
 20
501.5512038559
 30
0.0
 11
188.8705100646
 21
502.3977380688
 31
0.0
  0
LINE
  5
141
330
99
100
AcDbEntity
  8
$DDT_AUDIT_GENERATED_(111)
  6
Continuous
 62
     7
100
AcDbLine
 10
190.9565160256
 20
501.787406364
 30
0.0
 11
188.8705100646
 21
501.5512038559
 31
0.0
  0
LINE
  5
142
330
99
100
AcDbEntity
  8
$DDT_AUDIT_GENERATED_(111)
  6
Continuous
 62
     7
100
AcDbLine
 10
190.99544335
 20
501.7043152541
 30
0.0
 11
188.9222738736
 21
501.4695662461
 31
0.0
  0
ARC
  5
143
330
99
100
AcDbEntity
  8
$DDT_AUDIT_GENERATED_(111)
  6
Continuous
 62
     7
100
AcDbCircle
 10
190.1246071704
 20
502.4399968053
 30
0.0
 40
1.518413795567496
100
AcDbArc
 50
178.4052042161
 51
181.5947957839
  0
ELLIPSE
  5
144
330
99
100
AcDbEntity
  8
$DDT_AUDIT_GENERATED_(111)
  6
Continuous
 62
     7
100
AcDbEllipse
 10
197.1061932812
 20
502.4399968053
 30
0.0
 11
-8.500000000036062
 21
-2.137179322403426E-12
 31
0.0
210
0.0
220
0.0
230
1.0
 40
0.4225873643
 41
0.0117649772879232
 42
0.2500344105104233
  0
ARC
  5
145
330
99
100
AcDbEntity
  8
$DDT_AUDIT_GENERATED_(111)
  6
Continuous
 62
     7
100
AcDbCircle
 10
191.9729759623
 20
502.4399968053
 30
0.0
 40
1.116782445731524
100
AcDbArc
 50
177.8314259547
 51
180.0
  0
LINE
  5
146
330
99
100
AcDbEntity
  8
$DDT_AUDIT_GENERATED_(111)
  6
Continuous
 62
     7
100
AcDbLine
 10
190.8569933324
 20
502.4822555417
 30
0.0
 11
190.8569933324
 21
503.1038563945
 31
0.0
  0
LINE
  5
147
330
99
100
AcDbEntity
  8
$DDT_AUDIT_GENERATED_(111)
  6
Continuous
 62
     7
100
AcDbLine
 10
190.8569933324
 20
502.4822555417
 30
0.0
 11
188.6067815369
 21
502.4822555417
 31
0.0
  0
LINE
  5
148
330
99
100
AcDbEntity
  8
$DDT_AUDIT_GENERATED_(111)
  6
Continuous
 62
     7
100
AcDbLine
 10
190.8561932812
 20
502.3977380688
 30
0.0
 11
188.6067815369
 21
502.3977380688
 31
0.0
  0
ELLIPSE
  5
149
330
99
100
AcDbEntity
  8
$DDT_AUDIT_GENERATED_(111)
  6
Continuous
 62
     7
100
AcDbEllipse
 10
197.1061933061
 20
502.4399968025
 30
0.0
 11
-8.500000024896469
 21
3.246833357728462E-9
 31
0.0
210
0.0
220
0.0
230
1.0
 40
0.4225873638
 41
-0.2735643645285748
 42
-0.2500344099880056
  0
ELLIPSE
  5
14A
330
99
100
AcDbEntity
  8
$DDT_AUDIT_GENERATED_(111)
  6
Continuous
 62
     7
100
AcDbEllipse
 10
197.1061932812
 20
502.4399968053
 30
0.0
 11
-8.500000000031083
 21
2.095545958979983E-12
 31
0.0
210
0.0
220
0.0
230
1.0
 40
0.4225873643
 41
6.033150896669076
 42
6.271420329891446
  0
ELLIPSE
  5
14B
330
99
100
AcDbEntity
  8
$DDT_AUDIT_GENERATED_(111)
  6
Continuous
 62
     7
100
AcDbEllipse
 10
197.106193337
 20
502.439996799
 30
0.0
 11
-6.250000055859831
 21
7.423693604291515E-9
 31
0.0
210
0.0
220
0.0
230
1.0
 40
0.4225873626
 41
-0.2778000688123701
 42
-0.2457987034697
  0
LINE
  5
14C
330
99
100
AcDbEntity
  8
$DDT_AUDIT_GENERATED_(111)
  6
Continuous
 62
     7
100
AcDbLine
 10
191.0958115615
 20
503.1643134689
 30
0.0
 11
191.0958115615
 21
503.8576191325
 31
0.0
  0
LINE
  5
14D
330
99
100
AcDbEntity
  8
$DDT_AUDIT_GENERATED_(111)
  6
Continuous
 62
     7
100
AcDbLine
 10
191.0958115615
 20
503.1643134689
 30
0.0
 11
188.9222738736
 21
503.4104273645
 31
0.0
  0
LINE
  5
14E
330
99
100
AcDbEntity
  8
$DDT_AUDIT_GENERATED_(111)
  6
Continuous
 62
     7
100
AcDbLine
 10
191.0440477525
 20
503.082675859
 30
0.0
 11
188.8705100646
 21
503.3287897546
 31
0.0
  0
ELLIPSE
  5
14F
330
99
100
AcDbEntity
  8
$DDT_AUDIT_GENERATED_(111)
  6
Continuous
 62
     7
100
AcDbEllipse
 10
197.1061932812
 20
502.4399968053
 30
0.0
 11
-8.500000000032154
 21
6.376843497690743E-12
 31
0.0
210
0.0
220
0.0
230
1.0
 40
0.4225873643
 41
-0.462872183999095
 42
-0.2735643650864406
  0
ELLIPSE
  5
150
330
99
100
AcDbEntity
  8
$DDT_AUDIT_GENERATED_(111)
  6
Continuous
 62
     7
100
AcDbEllipse
 10
197.1061933087
 20
502.4399967986
 30
0.0
 11
-6.250000027770249
 21
7.062662954471222E-9
 31
0.0
210
0.0
220
0.0
230
1.0
 40
0.4225873638
 41
-0.5395994567256794
 42
-0.5075980913162752
  0
LINE
  5
151
330
99
100
AcDbEntity
  8
$DDT_AUDIT_GENERATED_(111)
  6
Continuous
 62
     7
100
AcDbLine
 10
191.7442273722
 20
503.7970104124
 30
0.0
 11
191.7442273722
 21
504.6461329682
 31
0.0
  0
LINE
  5
152
330
99
100
AcDbEntity
  8
$DDT_AUDIT_GENERATED_(111)
  6
Continuous
 62
     7
100
AcDbLine
 10
191.7442273722
 20
503.7970104124
 30
0.0
 11
189.8185802245
 21
504.2668315916
 31
0.0
  0
LINE
  5
153
330
99
100
AcDbEntity
  8
$DDT_AUDIT_GENERATED_(111)
  6
Continuous
 62
     7
100
AcDbLine
 10
191.6442273722
 20
503.7238161338
 30
0.0
 11
189.7111774733
 21
504.1954434431
 31
0.0
  0
ELLIPSE
  5
154
330
99
100
AcDbEntity
  8
$DDT_AUDIT_GENERATED_(111)
  6
Continuous
 62
     7
100
AcDbEllipse
 10
197.1061933224
 20
502.4399967879
 30
0.0
 11
-6.250000043721355
 21
1.499094598456097E-8
 31
0.0
210
0.0
220
0.0
230
1.0
 40
0.4225873643
 41
-0.8013988427219445
 42
-0.7693974773805348
  0
LINE
  5
155
330
99
100
AcDbEntity
  8
$DDT_AUDIT_GENERATED_(111)
  6
Continuous
 62
     7
100
AcDbLine
 10
192.7580522985
 20
504.3372291211
 30
0.0
 11
192.7580522985
 21
505.4431369197
 31
0.0
  0
LINE
  5
156
330
99
100
AcDbEntity
  8
$DDT_AUDIT_GENERATED_(111)
  6
Continuous
 62
     7
100
AcDbLine
 10
192.7580522985
 20
504.3372291211
 30
0.0
 11
191.246158357
 21
504.9761363971
 31
0.0
  0
LINE
  5
157
330
99
100
AcDbEntity
  8
$DDT_AUDIT_GENERATED_(111)
  6
Continuous
 62
     7
100
AcDbLine
 10
192.6166309423
 20
504.2774662429
 30
0.0
 11
191.0998033353
 21
504.9184584235
 31
0.0
  0
ELLIPSE
  5
158
330
99
100
AcDbEntity
  8
$DDT_AUDIT_GENERATED_(111)
  6
Continuous
 62
     7
100
AcDbEllipse
 10
197.1061933169
 20
502.4399967792
 30
0.0
 11
-6.250000044558635
 21
1.589560427728287E-8
 31
0.0
210
0.0
220
0.0
230
1.0
 40
0.4225873655
 41
-1.063198230300083
 42
-1.031196864991885
  0
LINE
  5
159
330
99
100
AcDbEntity
  8
$DDT_AUDIT_GENERATED_(111)
  6
Continuous
 62
     7
100
AcDbLine
 10
194.0681958472
 20
504.7481545829
 30
0.0
 11
194.0681958472
 21
505.7038062735
 31
0.0
  0
LINE
  5
15A
330
99
100
AcDbEntity
  8
$DDT_AUDIT_GENERATED_(111)
  6
Continuous
 62
     7
100
AcDbLine
 10
194.0681958472
 20
504.7481545829
 30
0.0
 11
193.0313747313
 21
505.5070483187
 31
0.0
  0
LINE
  5
15B
330
99
100
AcDbEntity
  8
$DDT_AUDIT_GENERATED_(111)
  6
Continuous
 62
     7
100
AcDbLine
 10
193.8949907664
 20
504.7058958464
 30
0.0
 11
192.8557035682
 21
505.4665946135
 31
0.0
  0
ELLIPSE
  5
15C
330
99
100
AcDbEntity
  8
$DDT_AUDIT_GENERATED_(111)
  6
Continuous
 62
     7
100
AcDbEllipse
 10
197.1061932691
 20
502.4399968244
 30
0.0
 11
-6.249999975061391
 21
-6.009998054778976E-9
 31
0.0
210
0.0
220
0.0
230
1.0
 40
0.422587363
 41
-1.324997623140525
 42
-1.29299625753018
  0
LINE
  5
15D
330
99
100
AcDbEntity
  8
$DDT_AUDIT_GENERATED_(111)
  6
Continuous
 62
     7
100
AcDbLine
 10
195.5853739004
 20
505.0017829065
 30
0.0
 11
195.5853739004
 21
505.8786342887
 31
0.0
  0
LINE
  5
15E
330
99
100
AcDbEntity
  8
$DDT_AUDIT_GENERATED_(111)
  6
Continuous
 62
     7
100
AcDbLine
 10
195.5853739004
 20
505.0017829065
 30
0.0
 11
195.0589575052
 21
505.8320034232
 31
0.0
  0
LINE
  5
15F
330
99
100
AcDbEntity
  8
$DDT_AUDIT_GENERATED_(111)
  6
Continuous
 62
     7
100
AcDbLine
 10
195.3921887352
 20
504.9799081749
 30
0.0
 11
194.8651117022
 21
505.8111705949
 31
0.0
  0
ARC
  5
160
330
99
100
AcDbEntity
  8
$DDT_AUDIT_GENERATED_(111)
  6
Continuous
 62
     7
100
AcDbCircle
 10
197.1061932812
 20
490.2928817896
 30
0.0
 40
14.78828606063851
100
AcDbArc
 50
89.6125567497
 51
90.3874432503
  0
LINE
  5
161
330
99
100
AcDbEntity
  8
$DDT_AUDIT_GENERATED_(111)
  6
Continuous
 62
     7
100
AcDbLine
 10
197.2061932812
 20
505.0808297409
 30
0.0
 11
197.2061932812
 21
505.9349995619
 31
0.0
  0
LINE
  5
162
330
99
100
AcDbEntity
  8
$DDT_AUDIT_GENERATED_(111)
  6
Continuous
 62
     7
100
AcDbLine
 10
197.0061932812
 20
505.0808297409
 30
0.0
 11
197.0061932812
 21
505.9349995619
 31
0.0
  0
ELLIPSE
  5
163
330
99
100
AcDbEntity
  8
$DDT_AUDIT_GENERATED_(111)
  6
Continuous
 62
     7
100
AcDbEllipse
 10
197.1061932681
 20
502.4399967847
 30
0.0
 11
6.250000026934471
 21
6.494353665953412E-9
 31
0.0
210
0.0
220
0.0
230
1.0
 40
0.4225873658
 41
1.292996254862705
 42
1.324997620224104
  0
LINE
  5
164
330
99
100
AcDbEntity
  8
$DDT_AUDIT_GENERATED_(111)
  6
Continuous
 62
     7
100
AcDbLine
 10
198.8201978272
 20
504.9799081749
 30
0.0
 11
199.3472748602
 21
505.8111705949
 31
0.0
  0
LINE
  5
165
330
99
100
AcDbEntity
  8
$DDT_AUDIT_GENERATED_(111)
  6
Continuous
 62
     7
100
AcDbLine
 10
198.627012662
 20
505.0017829065
 30
0.0
 11
199.1534290572
 21
505.8320034232
 31
0.0
  0
LINE
  5
166
330
99
100
AcDbEntity
  8
$DDT_AUDIT_GENERATED_(111)
  6
Continuous
 62
     7
100
AcDbLine
 10
198.627012662
 20
505.0017829065
 30
0.0
 11
198.627012662
 21
505.8786342887
 31
0.0
  0
ELLIPSE
  5
167
330
99
100
AcDbEntity
  8
$DDT_AUDIT_GENERATED_(111)
  6
Continuous
 62
     7
100
AcDbEllipse
 10
197.1061932517
 20
502.4399967837
 30
0.0
 11
6.250000036879469
 21
1.315259012812930E-8
 31
0.0
210
0.0
220
0.0
230
1.0
 40
0.4225873653
 41
1.031196865594049
 42
1.063198230933617
  0
LINE
  5
168
330
99
100
AcDbEntity
  8
$DDT_AUDIT_GENERATED_(111)
  6
Continuous
 62
     7
100
AcDbLine
 10
200.317395796
 20
504.7058958464
 30
0.0
 11
201.3566829943
 21
505.4665946135
 31
0.0
  0
LINE
  5
169
330
99
100
AcDbEntity
  8
$DDT_AUDIT_GENERATED_(111)
  6
Continuous
 62
     7
100
AcDbLine
 10
200.1441907152
 20
504.7481545829
 30
0.0
 11
201.1810118311
 21
505.5070483187
 31
0.0
  0
LINE
  5
16A
330
99
100
AcDbEntity
  8
$DDT_AUDIT_GENERATED_(111)
  6
Continuous
 62
     7
100
AcDbLine
 10
200.1441907152
 20
504.7481545829
 30
0.0
 11
200.1441907152
 21
505.7038062735
 31
0.0
  0
ELLIPSE
  5
16B
330
99
100
AcDbEntity
  8
$DDT_AUDIT_GENERATED_(111)
  6
Continuous
 62
     7
100
AcDbEllipse
 10
197.1061932401
 20
502.4399967879
 30
0.0
 11
6.250000043630264
 21
1.498164786672973E-8
 31
0.0
210
0.0
220
0.0
230
1.0
 40
0.4225873643
 41
0.7693974773865545
 42
0.8013988427282537
  0
LINE
  5
16C
330
99
100
AcDbEntity
  8
$DDT_AUDIT_GENERATED_(111)
  6
Continuous
 62
     7
100
AcDbLine
 10
201.5957556201
 20
504.2774662429
 30
0.0
 11
203.1125832271
 21
504.9184584235
 31
0.0
  0
LINE
  5
16D
330
99
100
AcDbEntity
  8
$DDT_AUDIT_GENERATED_(111)
  6
Continuous
 62
     7
100
AcDbLine
 10
201.4543342639
 20
504.3372291211
 30
0.0
 11
202.9662282055
 21
504.9761363971
 31
0.0
  0
LINE
  5
16E
330
99
100
AcDbEntity
  8
$DDT_AUDIT_GENERATED_(111)
  6
Continuous
 62
     7
100
AcDbLine
 10
201.4543342639
 20
504.3372291211
 30
0.0
 11
201.4543342639
 21
505.4431369197
 31
0.0
  0
ELLIPSE
  5
16F
330
99
100
AcDbEntity
  8
$DDT_AUDIT_GENERATED_(111)
  6
Continuous
 62
     7
100
AcDbEllipse
 10
197.1061932306
 20
502.4399967929
 30
0.0
 11
6.250000051141356
 21
1.302695451510516E-8
 31
0.0
210
0.0
220
0.0
230
1.0
 40
0.4225873634
 41
0.5075980900221829
 42
0.5395994553631972
  0
LINE
  5
170
330
99
100
AcDbEntity
  8
$DDT_AUDIT_GENERATED_(111)
  6
Continuous
 62
     7
100
AcDbLine
 10
202.5681591902
 20
503.7238161338
 30
0.0
 11
204.5012090892
 21
504.1954434431
 31
0.0
  0
LINE
  5
171
330
99
100
AcDbEntity
  8
$DDT_AUDIT_GENERATED_(111)
  6
Continuous
 62
     7
100
AcDbLine
 10
202.4681591902
 20
503.7970104124
 30
0.0
 11
204.393806338
 21
504.2668315916
 31
0.0
  0
LINE
  5
172
330
99
100
AcDbEntity
  8
$DDT_AUDIT_GENERATED_(111)
  6
Continuous
 62
     7
100
AcDbLine
 10
202.4681591902
 20
503.7970104124
 30
0.0
 11
202.4681591902
 21
504.6461329682
 31
0.0
  0
ELLIPSE
  5
173
330
99
100
AcDbEntity
  8
$DDT_AUDIT_GENERATED_(111)
  6
Continuous
 62
     7
100
AcDbEllipse
 10
197.1061938024
 20
502.4399968642
 30
0.0
 11
8.49999947851698
 21
-6.931995949477354E-8
 31
0.0
210
0.0
220
0.0
230
1.0
 40
0.422587376
 41
0.250034421520149
 42
0.2735643768430542
  0
ELLIPSE
  5
174
330
99
100
AcDbEntity
  8
$DDT_AUDIT_GENERATED_(111)
  6
Continuous
 62
     7
100
AcDbEllipse
 10
197.1061932812
 20
502.4399968053
 30
0.0
 11
8.500000000030555
 21
6.258882301324320E-12
 31
0.0
210
0.0
220
0.0
230
1.0
 40
0.4225873643
 41
0.2735643650864686
 42
0.4628721839991285
  0
ELLIPSE
  5
175
330
99
100
AcDbEntity
  8
$DDT_AUDIT_GENERATED_(111)
  6
Continuous
 62
     7
100
AcDbEllipse
 10
197.1061932252
 20
502.4399967989
 30
0.0
 11
6.250000056054663
 21
7.449554861871377E-9
 31
0.0
210
0.0
220
0.0
230
1.0
 40
0.4225873626
 41
0.2457987034643081
 42
0.2778000688064629
  0
LINE
  5
176
330
99
100
AcDbEntity
  8
$DDT_AUDIT_GENERATED_(111)
  6
Continuous
 62
     7
100
AcDbLine
 10
203.1683388099
 20
503.082675859
 30
0.0
 11
205.3418764979
 21
503.3287897546
 31
0.0
  0
LINE
  5
177
330
99
100
AcDbEntity
  8
$DDT_AUDIT_GENERATED_(111)
  6
Continuous
 62
     7
100
AcDbLine
 10
203.1165750009
 20
503.1643134689
 30
0.0
 11
205.2901126888
 21
503.4104273645
 31
0.0
  0
LINE
  5
178
330
99
100
AcDbEntity
  8
$DDT_AUDIT_GENERATED_(111)
  6
Continuous
 62
     7
100
AcDbLine
 10
203.1165750009
 20
503.1643134689
 30
0.0
 11
203.1165750009
 21
503.8576191325
 31
0.0
  0
ARC
  5
179
330
99
100
AcDbEntity
  8
$DDT_AUDIT_GENERATED_(111)
  6
Continuous
 62
     7
100
AcDbCircle
 10
204.087779392
 20
502.4399968053
 30
0.0
 40
1.518413795568117
100
AcDbArc
 50
358.4052042161
 51
1.5947957839
  0
ELLIPSE
  5
17A
330
99
100
AcDbEntity
  8
$DDT_AUDIT_GENERATED_(111)
  6
Continuous
 62
     7
100
AcDbEllipse
 10
197.1061932812
 20
502.4399968053
 30
0.0
 11
8.500000000025858
 21
1.762479051592436E-12
 31
0.0
210
0.0
220
0.0
230
1.0
 40
0.4225873643
 41
0.0117649772879327
 42
0.2500344105105929
  0
ARC
  5
17B
330
99
100
AcDbEntity
  8
$DDT_AUDIT_GENERATED_(111)
  6
Continuous
 62
     7
100
AcDbCircle
 10
202.2394106001
 20
502.4399968053
 30
0.0
 40
1.116782445731277
100
AcDbArc
 50
0.0
 51
2.1685740453
  0
LINE
  5
17C
330
99
100
AcDbEntity
  8
$DDT_AUDIT_GENERATED_(111)
  6
Continuous
 62
     7
100
AcDbLine
 10
203.3561932812
 20
502.3977380688
 30
0.0
 11
205.6056050256
 21
502.3977380688
 31
0.0
  0
LINE
  5
17D
330
99
100
AcDbEntity
  8
$DDT_AUDIT_GENERATED_(111)
  6
Continuous
 62
     7
100
AcDbLine
 10
203.35539323
 20
502.4822555417
 30
0.0
 11
205.6056050256
 21
502.4822555417
 31
0.0
  0
LINE
  5
17E
330
99
100
AcDbEntity
  8
$DDT_AUDIT_GENERATED_(111)
  6
Continuous
 62
     7
100
AcDbLine
 10
203.35539323
 20
502.4822555417
 30
0.0
 11
203.35539323
 21
503.1038563945
 31
0.0
  0
ELLIPSE
  5
17F
330
99
100
AcDbEntity
  8
$DDT_AUDIT_GENERATED_(111)
  6
Continuous
 62
     7
100
AcDbEllipse
 10
197.1061938025
 20
502.4399967462
 30
0.0
 11
8.499999478353448
 21
6.951817593803256E-8
 31
0.0
210
0.0
220
0.0
230
1.0
 40
0.422587376
 41
-0.2735643768536784
 42
-0.2500344215303967
  0
ELLIPSE
  5
180
330
99
100
AcDbEntity
  8
$DDT_AUDIT_GENERATED_(111)
  6
Continuous
 62
     7
100
AcDbEllipse
 10
197.1061932812
 20
502.4399968053
 30
0.0
 11
8.500000000033477
 21
-1.977584762613560E-12
 31
0.0
210
0.0
220
0.0
230
1.0
 40
0.4225873643
 41
6.03315089666913
 42
6.271420329891644
  0
LINE
  5
181
330
99
100
AcDbEntity
  8
$DDT_AUDIT_GENERATED_(111)
  6
Continuous
 62
     7
100
AcDbLine
 10
205.3418764979
 20
501.5512038559
 30
0.0
 11
205.3418764979
 21
502.3977380688
 31
0.0
  0
LINE
  5
182
330
99
100
AcDbEntity
  8
$DDT_AUDIT_GENERATED_(111)
  6
Continuous
 62
     7
100
AcDbLine
 10
203.2169432124
 20
501.7043152541
 30
0.0
 11
205.2901126888
 21
501.4695662461
 31
0.0
  0
LINE
  5
183
330
99
100
AcDbEntity
  8
$DDT_AUDIT_GENERATED_(111)
  6
Continuous
 62
     7
100
AcDbLine
 10
203.2558705368
 20
501.787406364
 30
0.0
 11
205.3418764979
 21
501.5512038559
 31
0.0
  0
ELLIPSE
  5
184
330
99
100
AcDbEntity
  8
$DDT_AUDIT_GENERATED_(111)
  6
Continuous
 62
     7
100
AcDbEllipse
 10
197.1061937489
 20
502.4399966911
 30
0.0
 11
8.499999527472987
 21
1.203938823635120E-7
 31
0.0
210
0.0
220
0.0
230
1.0
 40
0.422587371
 41
-0.5353637729984655
 42
-0.5118338176746908
  0
ELLIPSE
  5
185
330
99
100
AcDbEntity
  8
$DDT_AUDIT_GENERATED_(111)
  6
Continuous
 62
     7
100
AcDbEllipse
 10
197.1061932812
 20
502.4399968053
 30
0.0
 11
8.500000000016492
 21
-3.351485755587191E-12
 31
0.0
210
0.0
220
0.0
230
1.0
 40
0.4225873643
 41
-0.5118337983095333
 42
-0.273564365086818
  0
LINE
  5
186
330
99
100
AcDbEntity
  8
$DDT_AUDIT_GENERATED_(111)
  6
Continuous
 62
     7
100
AcDbLine
 10
204.516899769
 20
500.6807219408
 30
0.0
 11
204.516899769
 21
501.5571186474
 31
0.0
  0
LINE
  5
187
330
99
100
AcDbEntity
  8
$DDT_AUDIT_GENERATED_(111)
  6
Continuous
 62
     7
100
AcDbLine
 10
202.6494800207
 20
501.0387443736
 30
0.0
 11
204.416899769
 21
500.6075276622
 31
0.0
  0
LINE
  5
188
330
99
100
AcDbEntity
  8
$DDT_AUDIT_GENERATED_(111)
  6
Continuous
 62
     7
100
AcDbLine
 10
202.73916591
 20
501.1144550985
 30
0.0
 11
204.516899769
 21
500.6807219408
 31
0.0
  0
ELLIPSE
  5
189
330
99
100
AcDbEntity
  8
$DDT_AUDIT_GENERATED_(111)
  6
Continuous
 62
     7
100
AcDbEllipse
 10
197.1061936641
 20
502.4399966433
 30
0.0
 11
8.499999593791333
 21
1.393988119380296E-7
 31
0.0
210
0.0
220
0.0
230
1.0
 40
0.4225873643
 41
-0.7971631639133516
 42
-0.7736332085873228
  0
ELLIPSE
  5
18A
330
99
100
AcDbEntity
  8
$DDT_AUDIT_GENERATED_(111)
  6
Continuous
 62
     7
100
AcDbEllipse
 10
197.1061932812
 20
502.4399968053
 30
0.0
 11
8.500000000023034
 21
-7.341349750333848E-12
 31
0.0
210
0.0
220
0.0
230
1.0
 40
0.4225873643
 41
-0.7736331861079835
 42
-0.5353637528854103
  0
LINE
  5
18B
330
99
100
AcDbEntity
  8
$DDT_AUDIT_GENERATED_(111)
  6
Continuous
 62
     7
100
AcDbLine
 10
203.1868956399
 20
499.9301317004
 30
0.0
 11
203.1868956399
 21
500.9076252118
 31
0.0
  0
LINE
  5
18C
330
99
100
AcDbEntity
  8
$DDT_AUDIT_GENERATED_(111)
  6
Continuous
 62
     7
100
AcDbLine
 10
201.6670309796
 20
500.4528815449
 30
0.0
 11
203.0454742836
 21
499.8703688222
 31
0.0
  0
LINE
  5
18D
330
99
100
AcDbEntity
  8
$DDT_AUDIT_GENERATED_(111)
  6
Continuous
 62
     7
100
AcDbLine
 10
201.8015803233
 20
500.5155484488
 30
0.0
 11
203.1868956399
 21
499.9301317004
 31
0.0
  0
ELLIPSE
  5
18E
330
99
100
AcDbEntity
  8
$DDT_AUDIT_GENERATED_(111)
  6
Continuous
 62
     7
100
AcDbEllipse
 10
197.1061935361
 20
502.4399966186
 30
0.0
 11
8.499999681302514
 21
1.135855784428763E-7
 31
0.0
210
0.0
220
0.0
230
1.0
 40
0.422587358
 41
-1.058962547465576
 42
-1.035432592183472
  0
ELLIPSE
  5
18F
330
99
100
AcDbEntity
  8
$DDT_AUDIT_GENERATED_(111)
  6
Continuous
 62
     7
100
AcDbEllipse
 10
197.1061932812
 20
502.4399968053
 30
0.0
 11
8.500000000020723
 21
-7.660538869913580E-12
 31
0.0
210
0.0
220
0.0
230
1.0
 40
0.4225873643
 41
-1.035432573907051
 42
-0.797163140684507
  0
LINE
  5
190
330
99
100
AcDbEntity
  8
$DDT_AUDIT_GENERATED_(111)
  6
Continuous
 62
     7
100
AcDbLine
 10
201.4425016938
 20
499.3505846191
 30
0.0
 11
201.4425016938
 21
500.356670003
 31
0.0
  0
LINE
  5
191
330
99
100
AcDbEntity
  8
$DDT_AUDIT_GENERATED_(111)
  6
Continuous
 62
     7
100
AcDbLine
 10
200.3298028422
 20
499.9959815704
 30
0.0
 11
201.269296613
 21
499.3083258827
 31
0.0
  0
LINE
  5
192
330
99
100
AcDbEntity
  8
$DDT_AUDIT_GENERATED_(111)
  6
Continuous
 62
     7
100
AcDbLine
 10
200.4995739437
 20
500.0407537832
 30
0.0
 11
201.4425016938
 21
499.3505846191
 31
0.0
  0
ELLIPSE
  5
193
330
99
100
AcDbEntity
  8
$DDT_AUDIT_GENERATED_(111)
  6
Continuous
 62
     7
100
AcDbEllipse
 10
197.1061934041
 20
502.4399966114
 30
0.0
 11
8.499999746637133
 21
6.106125327587364E-8
 31
0.0
210
0.0
220
0.0
230
1.0
 40
0.4225873541
 41
-1.32076192663126
 42
-1.297231971397645
  0
ELLIPSE
  5
194
330
99
100
AcDbEntity
  8
$DDT_AUDIT_GENERATED_(111)
  6
Continuous
 62
     7
100
AcDbEllipse
 10
197.1061932812
 20
502.4399968053
 30
0.0
 11
8.499999999995374
 21
1.471045507628332E-12
 31
0.0
210
0.0
220
0.0
230
1.0
 40
0.4225873643
 41
-1.297231961707946
 42
-1.058962528484864
  0
LINE
  5
195
330
99
100
AcDbEntity
  8
$DDT_AUDIT_GENERATED_(111)
  6
Continuous
 62
     7
100
AcDbLine
 10
199.4025954954
 20
498.9815758728
 30
0.0
 11
199.4025954954
 21
499.8023022485
 31
0.0
  0
LINE
  5
196
330
99
100
AcDbEntity
  8
$DDT_AUDIT_GENERATED_(111)
  6
Continuous
 62
     7
100
AcDbLine
 10
198.7344521074
 20
499.7087660729
 30
0.0
 11
199.2094103302
 21
498.9597011412
 31
0.0
  0
LINE
  5
197
330
99
100
AcDbEntity
  8
$DDT_AUDIT_GENERATED_(111)
  6
Continuous
 62
     7
100
AcDbLine
 10
198.9267175377
 20
499.7320913347
 30
0.0
 11
199.4025954954
 21
498.9815758728
 31
0.0
  0
ARC
  5
198
330
99
100
AcDbEntity
  8
$DDT_AUDIT_GENERATED_(111)
  6
Continuous
 62
     7
100
AcDbCircle
 10
197.1061932812
 20
512.6392087721
 30
0.0
 40
12.41779591109345
100
AcDbArc
 50
269.1925222956
 51
270.8074777044
  0
LINE
  5
199
330
99
100
AcDbEntity
  8
$DDT_AUDIT_GENERATED_(111)
  6
Continuous
 62
     7
100
AcDbLine
 10
196.9311932812
 20
501.0989725448
 30
0.0
 11
196.9311932812
 21
500.2226460315
 31
0.0
  0
LINE
  5
19A
330
99
100
AcDbEntity
  8
$DDT_AUDIT_GENERATED_(111)
  6
Continuous
 62
     7
100
AcDbLine
 10
197.2811932812
 20
501.0989725448
 30
0.0
 11
197.2811932812
 21
500.2226460315
 31
0.0
  0
ELLIPSE
  5
19B
330
99
100
AcDbEntity
  8
$DDT_AUDIT_GENERATED_(111)
  6
Continuous
 62
     7
100
AcDbEllipse
 10
197.1061932794
 20
502.4399968039
 30
0.0
 11
-5.24999999769545
 21
8.229250614277817E-10
 31
0.0
210
0.0
220
0.0
230
1.0
 40
0.4225873643
 41
1.01385804214235
 42
1.080537060688364
  0
LINE
  5
19C
330
99
100
AcDbEntity
  8
$DDT_AUDIT_GENERATED_(111)
  6
Continuous
 62
     7
100
AcDbLine
 10
195.4077621078
 20
501.3447479385
 30
0.0
 11
194.3310975742
 21
500.5566911005
 31
0.0
  0
LINE
  5
19D
330
99
100
AcDbEntity
  8
$DDT_AUDIT_GENERATED_(111)
  6
Continuous
 62
     7
100
AcDbLine
 10
195.6971530796
 20
501.2607544175
 30
0.0
 11
194.6342064655
 21
500.4827383117
 31
0.0
  0
LINE
  5
19E
330
99
100
AcDbEntity
  8
$DDT_AUDIT_GENERATED_(111)
  6
Continuous
 62
     7
100
AcDbLine
 10
194.3310975742
 20
501.6775330528
 30
0.0
 11
194.3310975742
 21
500.5566911005
 31
0.0
  0
ELLIPSE
  5
19F
330
99
100
AcDbEntity
  8
$DDT_AUDIT_GENERATED_(111)
  6
Continuous
 62
     7
100
AcDbEllipse
 10
197.106193278
 20
502.4399968045
 30
0.0
 11
-5.249999996751531
 21
8.284622987630997E-10
 31
0.0
210
0.0
220
0.0
230
1.0
 40
0.4225873644
 41
0.4902592665451897
 42
0.5569382850913609
  0
LINE
  5
1A0
330
99
100
AcDbEntity
  8
$DDT_AUDIT_GENERATED_(111)
  6
Continuous
 62
     7
100
AcDbLine
 10
194.4988831375
 20
501.8892561804
 30
0.0
 11
192.4745865208
 21
501.3953664121
 31
0.0
  0
LINE
  5
1A1
330
99
100
AcDbEntity
  8
$DDT_AUDIT_GENERATED_(111)
  6
Continuous
 62
     7
100
AcDbLine
 10
194.6324730729
 20
501.7510629269
 30
0.0
 11
192.6495865208
 21
501.2672764247
 31
0.0
  0
LINE
  5
1A2
330
99
100
AcDbEntity
  8
$DDT_AUDIT_GENERATED_(111)
  6
Continuous
 62
     7
100
AcDbLine
 10
192.4745865208
 20
502.3660440165
 30
0.0
 11
192.4745865208
 21
501.3953664121
 31
0.0
  0
LINE
  5
1A3
330
99
100
AcDbEntity
  8
$DDT_AUDIT_GENERATED_(111)
  6
Continuous
 62
     7
100
AcDbLine
 10
194.3617671117
 20
503.0241911255
 30
0.0
 11
194.3617671117
 21
502.513949594
 31
0.0
  0
ELLIPSE
  5
1A4
330
99
100
AcDbEntity
  8
$DDT_AUDIT_GENERATED_(111)
  6
Continuous
 62
     7
100
AcDbEllipse
 10
197.1061932813
 20
502.4399968053
 30
0.0
 11
2.75000000008936
 21
-1.054711873393899E-12
 31
0.0
210
0.0
220
0.0
230
1.0
 40
0.4225873643
 41
3.077913261334064
 42
3.141592653589793
  0
LINE
  5
1A5
330
99
100
AcDbEntity
  8
$DDT_AUDIT_GENERATED_(111)
  6
Continuous
 62
     7
100
AcDbLine
 10
194.3617671117
 20
502.513949594
 30
0.0
 11
191.8910463987
 21
502.513949594
 31
0.0
  0
LINE
  5
1A6
330
99
100
AcDbEntity
  8
$DDT_AUDIT_GENERATED_(111)
  6
Continuous
 62
     7
100
AcDbLine
 10
194.3561932812
 20
502.3660440165
 30
0.0
 11
191.8623383348
 21
502.3660440165
 31
0.0
  0
LINE
  5
1A7
330
99
100
AcDbEntity
  8
$DDT_AUDIT_GENERATED_(111)
  6
Continuous
 62
     7
100
AcDbLine
 10
194.8169504996
 20
503.9676859664
 30
0.0
 11
194.8169504996
 21
503.0839217098
 31
0.0
  0
ELLIPSE
  5
1A8
330
99
100
AcDbEntity
  8
$DDT_AUDIT_GENERATED_(111)
  6
Continuous
 62
     7
100
AcDbEllipse
 10
197.1061932812
 20
502.4399968053
 30
0.0
 11
-2.74999999995198
 21
-1.303124275153777E-11
 31
0.0
210
0.0
220
0.0
230
1.0
 40
0.4225873643
 41
-0.5872781678622987
 42
-0.4599193833470068
  0
LINE
  5
1A9
330
99
100
AcDbEntity
  8
$DDT_AUDIT_GENERATED_(111)
  6
Continuous
 62
     7
100
AcDbLine
 10
194.8169504996
 20
503.0839217098
 30
0.0
 11
192.857494044
 21
503.5619917153
 31
0.0
  0
LINE
  5
1AA
330
99
100
AcDbEntity
  8
$DDT_AUDIT_GENERATED_(111)
  6
Continuous
 62
     7
100
AcDbLine
 10
194.6419504996
 20
502.9558317223
 30
0.0
 11
192.6609811006
 21
503.4391504757
 31
0.0
  0
LINE
  5
1AB
330
99
100
AcDbEntity
  8
$DDT_AUDIT_GENERATED_(111)
  6
Continuous
 62
     7
100
AcDbLine
 10
195.8855346421
 20
504.4165154434
 30
0.0
 11
195.8855346421
 21
503.4813546675
 31
0.0
  0
ELLIPSE
  5
1AC
330
99
100
AcDbEntity
  8
$DDT_AUDIT_GENERATED_(111)
  6
Continuous
 62
     7
100
AcDbEllipse
 10
197.1061932812
 20
502.4399968053
 30
0.0
 11
-2.750000000009777
 21
3.302913498259840E-12
 31
0.0
210
0.0
220
0.0
230
1.0
 40
0.4225873643
 41
-1.110876943451721
 42
-0.9835181589380522
  0
LINE
  5
1AD
330
99
100
AcDbEntity
  8
$DDT_AUDIT_GENERATED_(111)
  6
Continuous
 62
     7
100
AcDbLine
 10
195.8855346421
 20
503.4813546675
 30
0.0
 11
194.8257171475
 21
504.2570804368
 31
0.0
  0
LINE
  5
1AE
330
99
100
AcDbEntity
  8
$DDT_AUDIT_GENERATED_(111)
  6
Continuous
 62
     7
100
AcDbLine
 10
195.5824257508
 20
503.4074018787
 30
0.0
 11
194.5154492991
 21
504.188367595
 31
0.0
  0
ARC
  5
1AF
330
99
100
AcDbEntity
  8
$DDT_AUDIT_GENERATED_(111)
  6
Continuous
 62
     7
100
AcDbCircle
 10
197.1061932812
 20
497.1054162819
 30
0.0
 40
6.496697739366431
100
AcDbArc
 50
88.4564505285
 51
91.5435494715
  0
LINE
  5
1B0
330
99
100
AcDbEntity
  8
$DDT_AUDIT_GENERATED_(111)
  6
Continuous
 62
     7
100
AcDbLine
 10
197.2811932812
 20
503.5997566269
 30
0.0
 11
197.2811932812
 21
504.4760831402
 31
0.0
  0
LINE
  5
1B1
330
99
100
AcDbEntity
  8
$DDT_AUDIT_GENERATED_(111)
  6
Continuous
 62
     7
100
AcDbLine
 10
196.9311932812
 20
503.5997566269
 30
0.0
 11
196.9311932812
 21
504.4760831402
 31
0.0
  0
ELLIPSE
  5
1B2
330
99
100
AcDbEntity
  8
$DDT_AUDIT_GENERATED_(111)
  6
Continuous
 62
     7
100
AcDbEllipse
 10
197.1061932812
 20
502.4399968053
 30
0.0
 11
2.750000000009514
 21
3.830269434956790E-12
 31
0.0
210
0.0
220
0.0
230
1.0
 40
0.4225873643
 41
0.98351815893797
 42
1.110876943451651
  0
LINE
  5
1B3
330
99
100
AcDbEntity
  8
$DDT_AUDIT_GENERATED_(111)
  6
Continuous
 62
     7
100
AcDbLine
 10
198.3268519203
 20
504.4165154434
 30
0.0
 11
198.3268519203
 21
503.4813546675
 31
0.0
  0
LINE
  5
1B4
330
99
100
AcDbEntity
  8
$DDT_AUDIT_GENERATED_(111)
  6
Continuous
 62
     7
100
AcDbLine
 10
198.6299608116
 20
503.4074018787
 30
0.0
 11
199.6969372633
 21
504.188367595
 31
0.0
  0
LINE
  5
1B5
330
99
100
AcDbEntity
  8
$DDT_AUDIT_GENERATED_(111)
  6
Continuous
 62
     7
100
AcDbLine
 10
198.3268519203
 20
503.4813546675
 30
0.0
 11
199.3866694149
 21
504.2570804368
 31
0.0
  0
ELLIPSE
  5
1B6
330
99
100
AcDbEntity
  8
$DDT_AUDIT_GENERATED_(111)
  6
Continuous
 62
     7
100
AcDbEllipse
 10
197.1061932811
 20
502.4399968053
 30
0.0
 11
2.7500000000781
 21
1.908889712964879E-11
 31
0.0
210
0.0
220
0.0
230
1.0
 40
0.4225873643
 41
0.4599193833323236
 42
0.5872781678443244
  0
LINE
  5
1B7
330
99
100
AcDbEntity
  8
$DDT_AUDIT_GENERATED_(111)
  6
Continuous
 62
     7
100
AcDbLine
 10
199.3954360628
 20
503.9676859664
 30
0.0
 11
199.3954360628
 21
503.0839217098
 31
0.0
  0
LINE
  5
1B8
330
99
100
AcDbEntity
  8
$DDT_AUDIT_GENERATED_(111)
  6
Continuous
 62
     7
100
AcDbLine
 10
199.5704360628
 20
502.9558317223
 30
0.0
 11
201.5514054618
 21
503.4391504757
 31
0.0
  0
LINE
  5
1B9
330
99
100
AcDbEntity
  8
$DDT_AUDIT_GENERATED_(111)
  6
Continuous
 62
     7
100
AcDbLine
 10
199.3954360628
 20
503.0839217098
 30
0.0
 11
201.3548925184
 21
503.5619917153
 31
0.0
  0
ELLIPSE
  5
1BA
330
99
100
AcDbEntity
  8
$DDT_AUDIT_GENERATED_(111)
  6
Continuous
 62
     7
100
AcDbEllipse
 10
197.1061932812
 20
502.4399968053
 30
0.0
 11
-2.749999999995782
 21
-6.938893903907228E-15
 31
0.0
210
0.0
220
0.0
230
1.0
 40
0.4225873643
 41
3.141592653589885
 42
3.205272045846688
  0
LINE
  5
1BB
330
99
100
AcDbEntity
  8
$DDT_AUDIT_GENERATED_(111)
  6
Continuous
 62
     7
100
AcDbLine
 10
199.8506194507
 20
503.0241911255
 30
0.0
 11
199.8506194507
 21
502.513949594
 31
0.0
  0
LINE
  5
1BC
330
99
100
AcDbEntity
  8
$DDT_AUDIT_GENERATED_(111)
  6
Continuous
 62
     7
100
AcDbLine
 10
199.8561932812
 20
502.3660440165
 30
0.0
 11
202.3500482276
 21
502.3660440165
 31
0.0
  0
LINE
  5
1BD
330
99
100
AcDbEntity
  8
$DDT_AUDIT_GENERATED_(111)
  6
Continuous
 62
     7
100
AcDbLine
 10
199.8506194507
 20
502.513949594
 30
0.0
 11
202.3213401637
 21
502.513949594
 31
0.0
  0
ELLIPSE
  5
1BE
330
99
100
AcDbEntity
  8
$DDT_AUDIT_GENERATED_(111)
  6
Continuous
 62
     7
100
AcDbEllipse
 10
197.1061932842
 20
502.4399968045
 30
0.0
 11
5.24999999696669
 21
7.735548313014816E-10
 31
0.0
210
0.0
220
0.0
230
1.0
 40
0.4225873644
 41
-0.5569382850758311
 42
-0.4902592665312104
  0
LINE
  5
1BF
330
99
100
AcDbEntity
  8
$DDT_AUDIT_GENERATED_(111)
  6
Continuous
 62
     7
100
AcDbLine
 10
199.5799134896
 20
501.7510629269
 30
0.0
 11
201.5628000416
 21
501.2672764247
 31
0.0
  0
LINE
  5
1C0
330
99
100
AcDbEntity
  8
$DDT_AUDIT_GENERATED_(111)
  6
Continuous
 62
     7
100
AcDbLine
 10
199.713503425
 20
501.8892561804
 30
0.0
 11
201.7378000416
 21
501.3953664121
 31
0.0
  0
LINE
  5
1C1
330
99
100
AcDbEntity
  8
$DDT_AUDIT_GENERATED_(111)
  6
Continuous
 62
     7
100
AcDbLine
 10
201.7378000416
 20
502.3660440165
 30
0.0
 11
201.7378000416
 21
501.3953664121
 31
0.0
  0
ELLIPSE
  5
1C2
330
99
100
AcDbEntity
  8
$DDT_AUDIT_GENERATED_(111)
  6
Continuous
 62
     7
100
AcDbEllipse
 10
197.1061932811
 20
502.4399968054
 30
0.0
 11
5.250000000145516
 21
-5.014738624353754E-11
 31
0.0
210
0.0
220
0.0
230
1.0
 40
0.4225873643
 41
-1.080537060444221
 42
-1.013858041923113
  0
LINE
  5
1C3
330
99
100
AcDbEntity
  8
$DDT_AUDIT_GENERATED_(111)
  6
Continuous
 62
     7
100
AcDbLine
 10
198.5152334828
 20
501.2607544175
 30
0.0
 11
199.5781800969
 21
500.4827383117
 31
0.0
  0
LINE
  5
1C4
330
99
100
AcDbEntity
  8
$DDT_AUDIT_GENERATED_(111)
  6
Continuous
 62
     7
100
AcDbLine
 10
198.8046244546
 20
501.3447479385
 30
0.0
 11
199.8812889882
 21
500.5566911005
 31
0.0
  0
LINE
  5
1C5
330
99
100
AcDbEntity
  8
$DDT_AUDIT_GENERATED_(111)
  6
Continuous
 62
     7
100
AcDbLine
 10
199.8812889882
 20
501.6775330528
 30
0.0
 11
199.8812889882
 21
500.5566911005
 31
0.0
  0
LINE
  5
1C6
330
99
100
AcDbEntity
  8
$DDT_AUDIT_GENERATED_(111)
  6
Continuous
 62
     7
100
AcDbLine
 10
188.1061932812
 20
504.398921068
 30
0.0
 11
188.1061932812
 21
502.2587323665
 31
0.0
  0
LINE
  5
1C7
330
99
100
AcDbEntity
  8
$DDT_AUDIT_GENERATED_(111)
  6
Continuous
 62
     7
100
AcDbLine
 10
206.1061932812
 20
502.2587323665
 30
0.0
 11
206.1061932812
 21
504.398921068
 31
0.0
  0
LINE
  5
1C8
330
99
100
AcDbEntity
  8
$DDT_AUDIT_GENERATED_(111)
  6
Continuous
 62
     7
100
AcDbLine
 10
190.8561932812
 20
502.4399968053
 30
0.0
 11
190.8561932812
 21
502.2587323665
 31
0.0
  0
LINE
  5
1C9
330
99
100
AcDbEntity
  8
$DDT_AUDIT_GENERATED_(111)
  6
Continuous
 62
     7
100
AcDbLine
 10
203.3561932812
 20
502.2587323665
 30
0.0
 11
203.3561932812
 21
502.4399968053
 31
0.0
  0
LINE
  5
1CA
330
99
100
AcDbEntity
  8
$DDT_AUDIT_GENERATED_(111)
  6
Continuous
 62
     7
100
AcDbLine
 10
194.3561932812
 20
502.4399968053
 30
0.0
 11
194.3561932812
 21
502.2587323665
 31
0.0
  0
LINE
  5
1CB
330
99
100
AcDbEntity
  8
$DDT_AUDIT_GENERATED_(111)
  6
Continuous
 62
     7
100
AcDbLine
 10
199.8561932812
 20
502.2587323665
 30
0.0
 11
199.8561932812
 21
502.4399968053
 31
0.0
  0
LINE
  5
1CC
330
99
100
AcDbEntity
  8
$DDT_AUDIT_GENERATED_(111)
  6
Continuous
 62
     7
100
AcDbLine
 10
196.5865633373
 20
502.6689178333
 30
0.0
 11
196.5865633373
 21
502.4399968053
 31
0.0
  0
LINE
  5
1CD
330
99
100
AcDbEntity
  8
$DDT_AUDIT_GENERATED_(111)
  6
Continuous
 62
     7
100
AcDbLine
 10
197.6258232251
 20
502.4399968053
 30
0.0
 11
197.6258232251
 21
502.6689178333
 31
0.0
  0
ENDBLK
  5
1CF
330
99
100
AcDbEntity
  8
0
100
AcDbBlockEnd
  0
BLOCK
  5
226
330
1D0
100
AcDbEntity
  8
0
100
AcDbBlockBegin
  2
SE1
 70
     0
 10
0.0
 20
0.0
 30
0.0
  3
SE1
  1

  0
LINE
  5
1D2
330
1D0
100
AcDbEntity
  8
$DDT_AUDIT_GENERATED_(9B)
  6
Continuous
 62
     7
100
AcDbLine
 10
536.3133224929
 20
531.1812326654
 30
0.0
 11
536.3133224929
 21
559.8812326654
 31
0.0
  0
LINE
  5
1D3
330
1D0
100
AcDbEntity
  8
$DDT_AUDIT_GENERATED_(9B)
  6
Continuous
 62
     7
100
AcDbLine
 10
532.1133224929
 20
530.6812326654
 30
0.0
 11
535.8133224929
 21
530.6812326654
 31
0.0
  0
LINE
  5
1D4
330
1D0
100
AcDbEntity
  8
$DDT_AUDIT_GENERATED_(9B)
  6
Continuous
 62
     7
100
AcDbLine
 10
535.8133224929
 20
560.3812326654
 30
0.0
 11
532.1133224929
 21
560.3812326654
 31
0.0
  0
ARC
  5
1D5
330
1D0
100
AcDbEntity
  8
$DDT_AUDIT_GENERATED_(9B)
  6
Continuous
 62
     7
100
AcDbCircle
 10
535.8133224929
 20
531.1812326654
 30
0.0
 40
0.4999999999999987
100
AcDbArc
 50
270.0
 51
0.0
  0
ARC
  5
1D6
330
1D0
100
AcDbEntity
  8
$DDT_AUDIT_GENERATED_(9B)
  6
Continuous
 62
     7
100
AcDbCircle
 10
535.8133224929
 20
559.8812326654
 30
0.0
 40
0.5000000000000004
100
AcDbArc
 50
0.0
 51
90.0
  0
LINE
  5
1D7
330
1D0
100
AcDbEntity
  8
$DDT_AUDIT_GENERATED_(A0)
  6
Continuous
 62
     7
100
AcDbLine
 10
536.5133224929
 20
535.7812326654
 30
0.0
 11
536.5133224929
 21
555.2812326654
 31
0.0
  0
SPLINE
  5
1D8
330
1D0
100
AcDbEntity
  8
$DDT_AUDIT_GENERATED_(A0)
  6
Continuous
 62
     7
100
AcDbSpline
210
0.0
220
0.0
230
1.0
 70
     8
 71
     3
 72
    22
 73
    18
 74
     0
 42
0.0000000002606264
 43
0.0000000001
 40
0.2506472005983312
 40
0.2506472005983312
 40
0.2506472005983312
 40
0.2506472005983312
 40
0.3125000000000001
 40
0.3125000000000001
 40
0.3750000000000002
 40
0.3750000000000002
 40
0.4375000000000002
 40
0.4375000000000002
 40
0.5000000000000002
 40
0.5000000000000002
 40
0.6250000000000002
 40
0.6250000000000002
 40
0.6875000000000003
 40
0.6875000000000003
 40
0.7500000000000003
 40
0.7500000000000003
 40
0.7505640454311335
 40
0.7505640454311335
 40
0.7505640454311335
 40
0.7505640454311335
 10
546.0133238879223
 20
540.6568663546169
 30
0.0
 10
546.0135066863289
 20
541.3510018731407
 30
0.0
 10
546.1782079391475
 20
542.0936908656846
 30
0.0
 10
546.7844213803426
 20
543.5233509610242
 30
0.0
 10
547.2268053854214
 20
544.2123619268849
 30
0.0
 10
548.3030851992884
 20
545.4073244340412
 30
0.0
 10
548.9454910916426
 20
545.9236652880885
 30
0.0
 10
550.3723094159602
 20
546.6597966665365
 30
0.0
 10
551.1731518134006
 20
546.8804901190571
 30
0.0
 10
553.619443928871
 20
546.8931631661416
 30
0.0
 10
555.145568565493
 20
546.035762438675
 30
0.0
 10
556.7795761494908
 20
544.2412615416397
 30
0.0
 10
557.2194256714743
 20
543.5642803941661
 30
0.0
 10
557.8418872090407
 20
542.1213152434711
 30
0.0
 10
558.0102315116039
 20
541.3812184131606
 30
0.0
 10
558.0133078760075
 20
540.6693513859806
 30
0.0
 10
558.0133216429355
 20
540.6629893824226
 30
0.0
 10
558.0133216836042
 20
540.6566323533835
 30
0.0
  0
ARC
  5
1D9
330
1D0
100
AcDbEntity
  8
$DDT_AUDIT_GENERATED_(A0)
  6
Continuous
 62
     7
100
AcDbCircle
 10
552.0133224802
 20
562.8302467402
 30
0.0
 40
9.643008853318456
100
AcDbArc
 50
231.5221308857
 51
308.4778726016
  0
LINE
  5
1DA
330
1D0
100
AcDbEntity
  8
$DDT_AUDIT_GENERATED_(A0)
  6
Continuous
 62
     7
100
AcDbLine
 10
559.5133224929
 20
536.2812326654
 30
0.0
 11
559.5133224929
 21
554.7812326654
 31
0.0
  0
LINE
  5
1DB
330
1D0
100
AcDbEntity
  8
$DDT_AUDIT_GENERATED_(A0)
  6
Continuous
 62
     7
100
AcDbLine
 10
557.5133224929
 20
583.0312326654
 30
0.0
 11
546.5133224929
 21
583.0312326654
 31
0.0
  0
ELLIPSE
  5
1DC
330
1D0
100
AcDbEntity
  8
$DDT_AUDIT_GENERATED_(A0)
  6
Continuous
 62
     7
100
AcDbEllipse
 10
552.0133224929
 20
527.0312326654
 30
0.0
 11
-6.00000000000002
 21
1.040834085586084E-14
 31
0.0
210
0.0
220
0.0
230
1.0
 40
0.8660254038
 41
6.04424316688561
 42
6.283185307179586
  0
ELLIPSE
  5
1DD
330
1D0
100
AcDbEntity
  8
$DDT_AUDIT_GENERATED_(A0)
  6
Continuous
 62
     7
100
AcDbEllipse
 10
552.0133224929
 20
527.0312326654
 30
0.0
 11
-6.00000000000002
 21
1.040834085586084E-14
 31
0.0
210
0.0
220
0.0
230
1.0
 40
0.8660254038
 41
2.886760850845487
 42
3.402266491624278
  0
ELLIPSE
  5
1DE
330
1D0
100
AcDbEntity
  8
$DDT_AUDIT_GENERATED_(A0)
  6
Continuous
 62
     7
100
AcDbEllipse
 10
552.0133224929
 20
527.0312326654
 30
0.0
 11
-6.00000000000002
 21
1.040834085586084E-14
 31
0.0
210
0.0
220
0.0
230
1.0
 40
0.8660254038
 41
0.0
 42
0.259583065136669
  0
LINE
  5
1DF
330
1D0
100
AcDbEntity
  8
$DDT_AUDIT_GENERATED_(A0)
  6
Continuous
 62
     7
100
AcDbLine
 10
558.0133224929
 20
527.0312326654
 30
0.0
 11
558.0133224929
 21
540.6595494864
 31
0.0
  0
LINE
  5
1E0
330
1D0
100
AcDbEntity
  8
$DDT_AUDIT_GENERATED_(A0)
  6
Continuous
 62
     7
100
AcDbLine
 10
546.0133224929
 20
540.6603589752
 30
0.0
 11
546.0133224929
 21
527.0312326654
 31
0.0
  0
LINE
  5
1E1
330
1D0
100
AcDbEntity
  8
$DDT_AUDIT_GENERATED_(A0)
  6
Continuous
 62
     7
100
AcDbLine
 10
546.0267911711
 20
555.2812326654
 30
0.0
 11
536.5133224929
 21
555.2812326654
 31
0.0
  0
LINE
  5
1E2
330
1D0
100
AcDbEntity
  8
$DDT_AUDIT_GENERATED_(A0)
  6
Continuous
 62
     7
100
AcDbLine
 10
559.0133224929
 20
555.2812326654
 30
0.0
 11
558.0025122809
 21
555.2812326654
 31
0.0
  0
LINE
  5
1E3
330
1D0
100
AcDbEntity
  8
$DDT_AUDIT_GENERATED_(A0)
  6
Continuous
 62
     7
100
AcDbLine
 10
536.5133224929
 20
535.7812326654
 30
0.0
 11
546.0133224929
 21
535.7812326654
 31
0.0
  0
LINE
  5
1E4
330
1D0
100
AcDbEntity
  8
$DDT_AUDIT_GENERATED_(A0)
  6
Continuous
 62
     7
100
AcDbLine
 10
558.0133224929
 20
535.7812326654
 30
0.0
 11
559.0133224929
 21
535.7812326654
 31
0.0
  0
LINE
  5
1E5
330
1D0
100
AcDbEntity
  8
$DDT_AUDIT_GENERATED_(A0)
  6
Continuous
 62
     7
100
AcDbLine
 10
546.0133224929
 20
582.5312326654
 30
0.0
 11
546.0133224929
 21
555.2729800457
 31
0.0
  0
LINE
  5
1E6
330
1D0
100
AcDbEntity
  8
$DDT_AUDIT_GENERATED_(A0)
  6
Continuous
 62
     7
100
AcDbLine
 10
558.0133224929
 20
555.2745990233
 30
0.0
 11
558.0133224929
 21
582.5312326654
 31
0.0
  0
ARC
  5
1E7
330
1D0
100
AcDbEntity
  8
$DDT_AUDIT_GENERATED_(A0)
  6
Continuous
 62
     7
100
AcDbCircle
 10
559.0133224929
 20
536.2812326654
 30
0.0
 40
0.4999999999999987
100
AcDbArc
 50
270.0
 51
0.0
  0
ARC
  5
1E8
330
1D0
100
AcDbEntity
  8
$DDT_AUDIT_GENERATED_(A0)
  6
Continuous
 62
     7
100
AcDbCircle
 10
559.0133224929
 20
554.7812326654
 30
0.0
 40
0.4999999999975024
100
AcDbArc
 50
0.0
 51
90.0
  0
ARC
  5
1E9
330
1D0
100
AcDbEntity
  8
$DDT_AUDIT_GENERATED_(A0)
  6
Continuous
 62
     7
100
AcDbCircle
 10
557.5133224929
 20
582.5312326654
 30
0.0
 40
0.5000000000000004
100
AcDbArc
 50
0.0
 51
90.0
  0
ARC
  5
1EA
330
1D0
100
AcDbEntity
  8
$DDT_AUDIT_GENERATED_(A0)
  6
Continuous
 62
     7
100
AcDbCircle
 10
546.5133224929
 20
582.5312326654
 30
0.0
 40
0.5000000000000073
100
AcDbArc
 50
90.0
 51
180.0
  0
SPLINE
  5
1EB
330
1D0
100
AcDbEntity
  8
$DDT_AUDIT_GENERATED_(A0)
  6
Continuous
 62
     7
100
AcDbSpline
210
0.0
220
0.0
230
1.0
 70
     8
 71
     3
 72
    33
 73
    29
 74
     0
 42
0.0000000006676537
 43
0.0000000001
 40
0.0
 40
0.0
 40
0.0
 40
0.0
 40
0.006417068266203
 40
0.0462230658690443
 40
0.0860847850023079
 40
0.1260185786145402
 40
0.1660321553936606
 40
0.2061253348065258
 40
0.2462919349300508
 40
0.2865221343902088
 40
0.3268047104925285
 40
0.367128765857207
 40
0.4074847971280885
 40
0.4478651430170227
 40
0.4882639436082811
 40
0.5286767624969857
 40
0.5690997464882368
 40
0.6095285185066158
 40
0.6499587047616288
 40
0.690384371941399
 40
0.7307974360099541
 40
0.7711873139560537
 40
0.8115409852084016
 40
0.8518436515752513
 40
0.8920801435180972
 40
0.9322370787258122
 40
0.9723055307486069
 40
1.0
 40
1.0
 40
1.0
 40
1.0
 10
546.2239822045944
 20
525.6627421983164
 30
0.0
 10
546.2321186139432
 20
525.6308266462764
 30
0.0
 10
546.2827154337568
 20
525.4335507150089
 30
0.0
 10
546.4469221474538
 20
525.0466937256474
 30
0.0
 10
546.7083275161783
 20
524.5487968271522
 30
0.0
 10
547.0357253206714
 20
524.073669215598
 30
0.0
 10
547.4161830389355
 20
523.6322536690101
 30
0.0
 10
547.8481587434802
 20
523.2278760604087
 30
0.0
 10
548.3262808900323
 20
522.8654644248204
 30
0.0
 10
548.8454891588212
 20
522.5489779453288
 30
0.0
 10
549.3999992105331
 20
522.2820122496994
 30
0.0
 10
549.9836763842766
 20
522.0675677287147
 30
0.0
 10
550.5900394058642
 20
521.9080620799649
 30
0.0
 10
551.2123644192817
 20
521.8052951043509
 30
0.0
 10
551.8437585134005
 20
521.7604404679794
 30
0.0
 10
552.4772347601594
 20
521.7740402350333
 30
0.0
 10
553.1057792617851
 20
521.8460042749721
 30
0.0
 10
553.7224225309541
 20
521.9756112721082
 30
0.0
 10
554.3203072546556
 20
522.1615137957193
 30
0.0
 10
554.8927543094464
 20
522.4017423935069
 30
0.0
 10
555.4333372691158
 20
522.6937217536536
 30
0.0
 10
555.9359182173533
 20
523.0342422990918
 30
0.0
 10
556.3948647260688
 20
523.4196190935303
 30
0.0
 10
556.8046171158993
 20
523.8451876353867
 30
0.0
 10
557.1616983890655
 20
524.3073267203115
 30
0.0
 10
557.4576365906556
 20
524.7961546146286
 30
0.0
 10
557.6803305610575
 20
525.2691895389268
 30
0.0
 10
557.7668522513532
 20
525.5518185153525
 30
0.0
 10
557.8076965386148
 20
525.6882818051649
 30
0.0
  0
LINE
  5
1ED
330
1D0
100
AcDbEntity
  8
$DDT_AUDIT_GENERATED_(1EC)
  6
Continuous
 62
     7
100
AcDbLine
 10
536.5133224929
 20
554.4168733114
 30
0.0
 11
536.3133224929
 21
554.4168733114
 31
0.0
  0
LINE
  5
1EE
330
1D0
100
AcDbEntity
  8
$DDT_AUDIT_GENERATED_(1EC)
  6
Continuous
 62
     7
100
AcDbLine
 10
536.3133224929
 20
536.6455920193
 30
0.0
 11
536.5133224929
 21
536.6455920193
 31
0.0
  0
LINE
  5
1EF
330
1D0
100
AcDbEntity
  8
$DDT_AUDIT_GENERATED_(C5)
  6
Continuous
 62
     7
100
AcDbLine
 10
532.1133224929
 20
528.0312326654
 30
0.0
 11
532.1133224929
 21
563.0312326654
 31
0.0
  0
LINE
  5
1F0
330
1D0
100
AcDbEntity
  8
$DDT_AUDIT_GENERATED_(C5)
  6
Continuous
 62
     7
100
AcDbLine
 10
491.1133224929
 20
527.5312326654
 30
0.0
 11
531.6133224929
 21
527.5312326654
 31
0.0
  0
LINE
  5
1F1
330
1D0
100
AcDbEntity
  8
$DDT_AUDIT_GENERATED_(C5)
  6
Continuous
 62
     7
100
AcDbLine
 10
531.6133224929
 20
563.5312326654
 30
0.0
 11
491.1133224929
 21
563.5312326654
 31
0.0
  0
ARC
  5
1F2
330
1D0
100
AcDbEntity
  8
$DDT_AUDIT_GENERATED_(C5)
  6
Continuous
 62
     7
100
AcDbCircle
 10
531.6133224929
 20
528.0312326654
 30
0.0
 40
0.5000000000000004
100
AcDbArc
 50
270.0
 51
0.0
  0
ARC
  5
1F3
330
1D0
100
AcDbEntity
  8
$DDT_AUDIT_GENERATED_(C5)
  6
Continuous
 62
     7
100
AcDbCircle
 10
531.6133224929
 20
563.0312326654
 30
0.0
 40
0.5000000000000004
100
AcDbArc
 50
0.0
 51
90.0
  0
LINE
  5
1F4
330
1D0
100
AcDbEntity
  8
$DDT_AUDIT_GENERATED_(D6)
  6
Continuous
 62
     7
100
AcDbLine
 10
481.1133224929
 20
518.0312326654
 30
0.0
 11
481.1133224929
 21
573.0312326654
 31
0.0
  0
LINE
  5
1F5
330
1D0
100
AcDbEntity
  8
$DDT_AUDIT_GENERATED_(D6)
  6
Continuous
 62
     7
100
AcDbLine
 10
487.1133224929
 20
518.5312326654
 30
0.0
 11
487.1133224929
 21
572.5312326654
 31
0.0
  0
LINE
  5
1F6
330
1D0
100
AcDbEntity
  8
$DDT_AUDIT_GENERATED_(D6)
  6
Continuous
 62
     7
100
AcDbLine
 10
491.1133224929
 20
523.5312326654
 30
0.0
 11
491.1133224929
 21
567.5312326654
 31
0.0
  0
LINE
  5
1F7
330
1D0
100
AcDbEntity
  8
$DDT_AUDIT_GENERATED_(D6)
  6
Continuous
 62
     7
100
AcDbLine
 10
490.6133224929
 20
568.0312326654
 30
0.0
 11
487.6133224929
 21
568.0312326654
 31
0.0
  0
LINE
  5
1F8
330
1D0
100
AcDbEntity
  8
$DDT_AUDIT_GENERATED_(D6)
  6
Continuous
 62
     7
100
AcDbLine
 10
487.6133224929
 20
523.0312326654
 30
0.0
 11
490.6133224929
 21
523.0312326654
 31
0.0
  0
LINE
  5
1F9
330
1D0
100
AcDbEntity
  8
$DDT_AUDIT_GENERATED_(D6)
  6
Continuous
 62
     7
100
AcDbLine
 10
486.6133224929
 20
573.0312326654
 30
0.0
 11
481.1133224929
 21
573.0312326654
 31
0.0
  0
LINE
  5
1FA
330
1D0
100
AcDbEntity
  8
$DDT_AUDIT_GENERATED_(D6)
  6
Continuous
 62
     7
100
AcDbLine
 10
481.1133224929
 20
518.0312326654
 30
0.0
 11
486.6133224929
 21
518.0312326654
 31
0.0
  0
ARC
  5
1FB
330
1D0
100
AcDbEntity
  8
$DDT_AUDIT_GENERATED_(D6)
  6
Continuous
 62
     7
100
AcDbCircle
 10
486.6133224929
 20
572.5312326654
 30
0.0
 40
0.5000000000000004
100
AcDbArc
 50
0.0
 51
90.0
  0
ARC
  5
1FC
330
1D0
100
AcDbEntity
  8
$DDT_AUDIT_GENERATED_(D6)
  6
Continuous
 62
     7
100
AcDbCircle
 10
486.6133224929
 20
518.5312326654
 30
0.0
 40
0.5000000000000004
100
AcDbArc
 50
270.0
 51
0.0
  0
ARC
  5
1FD
330
1D0
100
AcDbEntity
  8
$DDT_AUDIT_GENERATED_(D6)
  6
Continuous
 62
     7
100
AcDbCircle
 10
490.6133224929
 20
567.5312326654
 30
0.0
 40
0.5000000000000004
100
AcDbArc
 50
0.0
 51
90.0
  0
ARC
  5
1FE
330
1D0
100
AcDbEntity
  8
$DDT_AUDIT_GENERATED_(D6)
  6
Continuous
 62
     7
100
AcDbCircle
 10
490.6133224929
 20
523.5312326654
 30
0.0
 40
0.5000000000000004
100
AcDbArc
 50
270.0
 51
0.0
  0
ARC
  5
1FF
330
1D0
100
AcDbEntity
  8
$DDT_AUDIT_GENERATED_(D6)
  6
Continuous
 62
     7
100
AcDbCircle
 10
487.6133224929
 20
568.5312326654
 30
0.0
 40
0.4999999999999935
100
AcDbArc
 50
180.0
 51
270.0
  0
ARC
  5
200
330
1D0
100
AcDbEntity
  8
$DDT_AUDIT_GENERATED_(D6)
  6
Continuous
 62
     7
100
AcDbCircle
 10
487.6133224929
 20
522.5312326654
 30
0.0
 40
0.5000000000000004
100
AcDbArc
 50
90.0
 51
180.0
  0
LINE
  5
201
330
1D0
100
AcDbEntity
  8
$DDT_AUDIT_GENERATED_(E7)
  6
Continuous
 62
     7
100
AcDbLine
 10
481.1094896913
 20
518.0284031147
 30
0.0
 11
481.1095938095
 21
521.082506994
 31
0.0
  0
LINE
  5
202
330
1D0
100
AcDbEntity
  8
$DDT_AUDIT_GENERATED_(E7)
  6
Continuous
 62
     7
100
AcDbLine
 10
481.1112607957
 20
569.980300662
 30
0.0
 11
481.1113647093
 21
573.0284030828
 31
0.0
  0
LINE
  5
203
330
1D0
100
AcDbEntity
  8
$DDT_AUDIT_GENERATED_(E7)
  6
Continuous
 62
     7
100
AcDbLine
 10
683.553866826
 20
513.0330355246
 30
0.0
 11
704.3992772901
 21
522.7525449044
 31
0.0
  0
LINE
  5
204
330
1D0
100
AcDbEntity
  8
$DDT_AUDIT_GENERATED_(E7)
  6
Continuous
 62
     7
100
AcDbLine
 10
681.4409300043
 20
517.564646495
 30
0.0
 11
683.553866826
 21
513.0330355246
 31
0.0
  0
LINE
  5
205
330
1D0
100
AcDbEntity
  8
$DDT_AUDIT_GENERATED_(E7)
  6
Continuous
 62
     7
100
AcDbLine
 10
704.3992772901
 20
522.7525449044
 30
0.0
 11
702.2731743454
 21
527.31239323
 31
0.0
  0
ARC
  5
206
330
1D0
100
AcDbEntity
  8
$DDT_AUDIT_GENERATED_(E7)
  6
Continuous
 62
     7
100
AcDbCircle
 10
655.6140662195
 20
505.5224540306
 30
0.0
 40
28.49999999999836
100
AcDbArc
 50
24.9978227817
 51
89.998046716
  0
ARC
  5
207
330
1D0
100
AcDbEntity
  8
$DDT_AUDIT_GENERATED_(E7)
  6
Continuous
 62
     7
100
AcDbCircle
 10
655.6140662195
 20
505.5224540306
 30
0.0
 40
51.49999999999778
100
AcDbArc
 50
24.9981564333
 51
89.998046716
  0
LINE
  5
208
330
1D0
100
AcDbEntity
  8
$DDT_AUDIT_GENERATED_(E7)
  6
Continuous
 62
     7
100
AcDbLine
 10
536.3133224929
 20
534.0265211571
 30
0.0
 11
546.0133224929
 21
534.0261904721
 31
0.0
  0
LINE
  5
209
330
1D0
100
AcDbEntity
  8
$DDT_AUDIT_GENERATED_(E7)
  6
Continuous
 62
     7
100
AcDbLine
 10
558.0133224929
 20
534.0257813772
 30
0.0
 11
655.6150378198
 21
534.022454014
 31
0.0
  0
LINE
  5
20A
330
1D0
100
AcDbEntity
  8
$DDT_AUDIT_GENERATED_(E7)
  6
Continuous
 62
     7
100
AcDbLine
 10
655.6158219183
 20
557.0224540007
 30
0.0
 11
558.0133224929
 21
557.0257813906
 31
0.0
  0
LINE
  5
20B
330
1D0
100
AcDbEntity
  8
$DDT_AUDIT_GENERATED_(E7)
  6
Continuous
 62
     7
100
AcDbLine
 10
546.0133224929
 20
557.0261904855
 30
0.0
 11
536.3133224929
 21
557.0265211705
 31
0.0
  0
ARC
  5
20C
330
1D0
100
AcDbEntity
  8
$DDT_AUDIT_GENERATED_(E7)
  6
Continuous
 62
     7
100
AcDbCircle
 10
534.6109214921
 20
560.0265792092
 30
0.0
 40
0.4999999999997264
100
AcDbArc
 50
45.178551763
 51
89.9980467159
  0
ARC
  5
20D
330
1D0
100
AcDbEntity
  8
$DDT_AUDIT_GENERATED_(E7)
  6
Continuous
 62
     7
100
AcDbCircle
 10
534.6099328463
 20
531.026579226
 30
0.0
 40
0.499999999999368
100
AcDbArc
 50
269.9980467161
 51
316.3149995041
  0
LINE
  5
20E
330
1D0
100
AcDbEntity
  8
$DDT_AUDIT_GENERATED_(E7)
  6
Continuous
 62
     7
100
AcDbLine
 10
532.1133224929
 20
530.5266643382
 30
0.0
 11
534.6099158007
 21
530.5265792263
 31
0.0
  0
LINE
  5
20F
330
1D0
100
AcDbEntity
  8
$DDT_AUDIT_GENERATED_(E7)
  6
Continuous
 62
     7
100
AcDbLine
 10
534.6109385378
 20
560.5265792089
 30
0.0
 11
532.1133224929
 21
560.5266643557
 31
0.0
  0
ARC
  5
210
330
1D0
100
AcDbEntity
  8
$DDT_AUDIT_GENERATED_(E7)
  6
Continuous
 62
     7
100
AcDbCircle
 10
530.6098305749
 20
528.0267155927
 30
0.0
 40
0.5000000000000047
100
AcDbArc
 50
269.998046716
 51
277.7074136102
  0
ARC
  5
211
330
1D0
100
AcDbEntity
  8
$DDT_AUDIT_GENERATED_(E7)
  6
Continuous
 62
     7
100
AcDbCircle
 10
492.1110749274
 20
564.5280280841
 30
0.0
 40
0.999999999999961
100
AcDbArc
 50
183.8421576864
 51
265.4118319231
  0
ARC
  5
212
330
1D0
100
AcDbEntity
  8
$DDT_AUDIT_GENERATED_(E7)
  6
Continuous
 62
     7
100
AcDbCircle
 10
492.1097794604
 20
526.5280281062
 30
0.0
 40
0.999999999999961
100
AcDbArc
 50
89.998046716
 51
175.1754866874
  0
ARC
  5
213
330
1D0
100
AcDbEntity
  8
$DDT_AUDIT_GENERATED_(E7)
  6
Continuous
 62
     7
100
AcDbCircle
 10
490.6096771876
 20
523.5280792448
 30
0.0
 40
0.4999999999999457
100
AcDbArc
 50
269.998046716
 51
311.2222688436
  0
LINE
  5
214
330
1D0
100
AcDbEntity
  8
$DDT_AUDIT_GENERATED_(E7)
  6
Continuous
 62
     7
100
AcDbLine
 10
488.1096601434
 20
523.0281644732
 30
0.0
 11
490.6096601419
 21
523.0280792451
 31
0.0
  0
ARC
  5
215
330
1D0
100
AcDbEntity
  8
$DDT_AUDIT_GENERATED_(E7)
  6
Continuous
 62
     7
100
AcDbCircle
 10
488.1096260522
 20
522.0281644738
 30
0.0
 40
0.9999999999999677
100
AcDbArc
 50
89.998046716
 51
175.0720831115
  0
ARC
  5
216
330
1D0
100
AcDbEntity
  8
$DDT_AUDIT_GENERATED_(E7)
  6
Continuous
 62
     7
100
AcDbCircle
 10
488.1112283403
 20
569.0281644464
 30
0.0
 40
0.9999999999999677
100
AcDbArc
 50
183.7086650644
 51
265.5105627469
  0
ARC
  5
217
330
1D0
100
AcDbEntity
  8
$DDT_AUDIT_GENERATED_(E7)
  6
Continuous
 62
     7
100
AcDbCircle
 10
486.6095067337
 20
518.5282156126
 30
0.0
 40
0.5000000000000429
100
AcDbArc
 50
269.998046716
 51
308.5543949362
  0
LINE
  5
218
330
1D0
100
AcDbEntity
  8
$DDT_AUDIT_GENERATED_(E7)
  6
Continuous
 62
     7
100
AcDbLine
 10
481.1094896913
 20
518.0284031147
 30
0.0
 11
486.6094896881
 21
518.0282156129
 31
0.0
  0
LINE
  5
219
330
1D0
100
AcDbEntity
  8
$DDT_AUDIT_GENERATED_(E7)
  6
Continuous
 62
     7
100
AcDbLine
 10
481.1133224929
 20
573.028403016
 30
0.0
 11
481.1113647093
 21
573.0284030828
 31
0.0
  0
LINE
  5
21A
330
1D0
100
AcDbEntity
  8
$DDT_AUDIT_GENERATED_(E7)
  6
Continuous
 62
     7
100
AcDbLine
 10
504.1024431
 20
527.527619262
 30
0.0
 11
530.6098135293
 21
527.526715593
 31
0.0
  0
LINE
  5
21B
330
1D0
100
AcDbEntity
  8
$DDT_AUDIT_GENERATED_(E7)
  6
Continuous
 62
     7
100
AcDbLine
 10
492.1098135516
 20
527.5280281056
 30
0.0
 11
498.1141995655
 21
527.5278234087
 31
0.0
  0
LINE
  5
21C
330
1D0
100
AcDbEntity
  8
$DDT_AUDIT_GENERATED_(104)
  6
Continuous
 62
     7
100
AcDbLine
 10
691.5762000494
 20
498.0164515371
 30
0.0
 11
710.7449144543
 21
506.9541742929
 31
0.0
  0
LINE
  5
21D
330
1D0
100
AcDbEntity
  8
$DDT_AUDIT_GENERATED_(104)
  6
Continuous
 62
     7
100
AcDbLine
 10
711.2286492841
 20
508.2830838513
 30
0.0
 11
704.5306395593
 21
522.6482906276
 31
0.0
  0
LINE
  5
21E
330
1D0
100
AcDbEntity
  8
$DDT_AUDIT_GENERATED_(104)
  6
Continuous
 62
     7
100
AcDbLine
 10
683.5492807661
 20
512.8653931431
 30
0.0
 11
690.2472904909
 21
498.5001863668
 31
0.0
  0
ARC
  5
21F
330
1D0
100
AcDbEntity
  8
$DDT_AUDIT_GENERATED_(104)
  6
Continuous
 62
     7
100
AcDbCircle
 10
710.32232709
 20
507.860496487
 30
0.0
 40
1.00000000000001
100
AcDbArc
 50
294.998046716
 51
24.998046716
  0
ARC
  5
220
330
1D0
100
AcDbEntity
  8
$DDT_AUDIT_GENERATED_(104)
  6
Continuous
 62
     7
100
AcDbCircle
 10
691.153612685
 20
498.9227737312
 30
0.0
 40
1.000000000000011
100
AcDbArc
 50
204.998046716
 51
294.998046716
  0
ARC
  5
221
330
1D0
100
AcDbEntity
  8
$DDT_AUDIT_GENERATED_(104)
  6
Continuous
 62
     7
100
AcDbCircle
 10
704.3946912302
 20
522.584902523
 30
0.0
 40
0.1499999999999976
100
AcDbArc
 50
24.998046716
 51
114.998046716
  0
ARC
  5
222
330
1D0
100
AcDbEntity
  8
$DDT_AUDIT_GENERATED_(104)
  6
Continuous
 62
     7
100
AcDbCircle
 10
683.6852290952
 20
512.9287812478
 30
0.0
 40
0.1500000000000019
100
AcDbArc
 50
114.998046716
 51
204.998046716
  0
LINE
  5
223
330
1D0
100
AcDbEntity
  8
$DDT_AUDIT_GENERATED_(111)
  6
Continuous
 62
     7
100
AcDbLine
 10
709.4231038397
 20
506.0620186455
 30
0.0
 11
693.1093043461
 21
498.4554460874
 31
0.0
  0
LINE
  5
224
330
1D0
100
AcDbEntity
  8
$DDT_AUDIT_GENERATED_(111)
  6
Continuous
 62
     7
100
AcDbLine
 10
693.003657505
 20
498.6820266359
 30
0.0
 11
693.1093043461
 21
498.4554460874
 31
0.0
  0
LINE
  5
225
330
1D0
100
AcDbEntity
  8
$DDT_AUDIT_GENERATED_(111)
  6
Continuous
 62
     7
100
AcDbLine
 10
709.4231038397
 20
506.0620186455
 30
0.0
 11
709.3174569987
 21
506.2885991941
 31
0.0
  0
ENDBLK
  5
227
330
1D0
100
AcDbEntity
  8
0
100
AcDbBlockEnd
  0
BLOCK
  5
2BB
330
228
100
AcDbEntity
  8
0
100
AcDbBlockBegin
  2
SE2
 70
     0
 10
0.0
 20
0.0
 30
0.0
  3
SE2
  1

  0
LINE
  5
22A
330
228
100
AcDbEntity
  8
$DDT_AUDIT_GENERATED_(9B)
  6
Continuous
 62
     7
100
AcDbLine
 10
282.7561932812
 20
270.7476171951
 30
0.0
 11
311.4561932812
 21
270.7476171951
 31
0.0
  0
LINE
  5
22B
330
228
100
AcDbEntity
  8
$DDT_AUDIT_GENERATED_(9B)
  6
Continuous
 62
     7
100
AcDbLine
 10
282.2561932812
 20
274.9476171951
 30
0.0
 11
282.2561932812
 21
271.2476171951
 31
0.0
  0
LINE
  5
22C
330
228
100
AcDbEntity
  8
$DDT_AUDIT_GENERATED_(9B)
  6
Continuous
 62
     7
100
AcDbLine
 10
311.9561932812
 20
271.2476171951
 30
0.0
 11
311.9561932812
 21
274.9476171951
 31
0.0
  0
ARC
  5
22D
330
228
100
AcDbEntity
  8
$DDT_AUDIT_GENERATED_(9B)
  6
Continuous
 62
     7
100
AcDbCircle
 10
282.7561932812
 20
271.2476171951
 30
0.0
 40
0.5000000000000004
100
AcDbArc
 50
180.0
 51
270.0
  0
ARC
  5
22E
330
228
100
AcDbEntity
  8
$DDT_AUDIT_GENERATED_(9B)
  6
Continuous
 62
     7
100
AcDbCircle
 10
311.4561932812
 20
271.2476171951
 30
0.0
 40
0.5000000000000004
100
AcDbArc
 50
270.0
 51
0.0
  0
LINE
  5
22F
330
228
100
AcDbEntity
  8
$DDT_AUDIT_GENERATED_(A0)
  6
Continuous
 62
     7
100
AcDbLine
 10
287.3561932812
 20
270.547617195
 30
0.0
 11
306.8561932812
 21
270.547617195
 31
0.0
  0
SPLINE
  5
230
330
228
100
AcDbEntity
  8
$DDT_AUDIT_GENERATED_(A0)
  6
Continuous
 62
     7
100
AcDbSpline
210
0.0
220
0.0
230
1.0
 70
     8
 71
     3
 72
     8
 73
     4
 74
     0
 42
0.0000000002820056
 43
0.0000000001
 40
0.0
 40
0.0
 40
0.0
 40
0.0
 40
0.09799567453033
 40
0.09799567453033
 40
0.09799567453033
 40
0.09799567453033
 10
306.7617830372008
 20
255.0476171950623
 30
0.0
 10
306.7617830372008
 20
253.7682895382233
 30
0.0
 10
306.8569951826203
 20
252.5594663609799
 30
0.0
 10
306.8568494308984
 20
251.5764065573543
 30
0.0
  0
SPLINE
  5
231
330
228
100
AcDbEntity
  8
$DDT_AUDIT_GENERATED_(A0)
  6
Continuous
 62
     7
100
AcDbSpline
210
0.0
220
0.0
230
1.0
 70
     8
 71
     3
 72
    10
 73
     6
 74
     0
 42
0.0000000002798605
 43
0.0000000001
 40
0.9041134078120215
 40
0.9041134078120215
 40
0.9041134078120215
 40
0.9041134078120215
 40
0.9374999999999999
 40
0.9374999999999999
 40
1.0
 40
1.0
 40
1.0
 40
1.0
 10
306.8559049541561
 20
258.4719524065852
 30
0.0
 10
306.854223132212
 20
258.1360688583388
 30
0.0
 10
306.8415586607256
 20
257.7743242921173
 30
0.0
 10
306.7967109780657
 20
256.666364741084
 30
0.0
 10
306.7617830372008
 20
255.863550948625
 30
0.0
 10
306.7617830372008
 20
255.0476171950623
 30
0.0
  0
SPLINE
  5
232
330
228
100
AcDbEntity
  8
$DDT_AUDIT_GENERATED_(A0)
  6
Continuous
 62
     7
100
AcDbSpline
210
0.0
220
0.0
230
1.0
 70
     8
 71
     3
 72
    12
 73
     8
 74
     0
 42
0.0000000002814981
 43
0.0000000001
 40
0.4022822089976062
 40
0.4022822089976062
 40
0.4022822089976062
 40
0.4022822089976062
 40
0.4375000000000002
 40
0.4375000000000002
 40
0.5000000000000002
 40
0.5000000000000002
 40
0.5975436280588686
 40
0.5975436280588686
 40
0.5975436280588686
 40
0.5975436280588686
 10
287.3564178082604
 20
258.5344397903019
 30
0.0
 10
287.3567103030366
 20
258.1834850666835
 30
0.0
 10
287.3696713479236
 20
257.8040345505306
 30
0.0
 10
287.4146946921354
 20
256.6886302720181
 30
0.0
 10
287.4500023904231
 20
255.8877878745779
 30
0.0
 10
287.4515187122136
 20
253.7997160588355
 30
0.0
 10
287.3566588440063
 20
252.5908538410102
 30
0.0
 10
287.3553805005889
 20
251.6035568810252
 30
0.0
  0
LINE
  5
233
330
228
100
AcDbEntity
  8
$DDT_AUDIT_GENERATED_(A0)
  6
Continuous
 62
     7
100
AcDbLine
 10
287.8561932812
 20
247.5476171951
 30
0.0
 11
306.3561932812
 21
247.5476171951
 31
0.0
  0
CIRCLE
  5
234
330
228
100
AcDbEntity
  8
$DDT_AUDIT_GENERATED_(A0)
  6
Continuous
 62
     7
100
AcDbCircle
 10
297.1061932812
 20
255.0476171951
 30
0.0
 40
6.0
  0
LINE
  5
235
330
228
100
AcDbEntity
  8
$DDT_AUDIT_GENERATED_(A0)
  6
Continuous
 62
     7
100
AcDbLine
 10
329.1491332212
 20
261.0476171951
 30
0.0
 11
306.8561932812
 21
261.0476171951
 31
0.0
  0
LINE
  5
236
330
228
100
AcDbEntity
  8
$DDT_AUDIT_GENERATED_(A0)
  6
Continuous
 62
     7
100
AcDbLine
 10
306.8561932812
 20
249.0476171951
 30
0.0
 11
329.1491332212
 21
249.0476171951
 31
0.0
  0
LINE
  5
237
330
228
100
AcDbEntity
  8
$DDT_AUDIT_GENERATED_(A0)
  6
Continuous
 62
     7
100
AcDbLine
 10
265.0632533412
 20
249.0476171951
 30
0.0
 11
287.3561932812
 21
249.0476171951
 31
0.0
  0
LINE
  5
238
330
228
100
AcDbEntity
  8
$DDT_AUDIT_GENERATED_(A0)
  6
Continuous
 62
     7
100
AcDbLine
 10
287.3561932812
 20
261.0476171951
 30
0.0
 11
265.0632533412
 21
261.0476171951
 31
0.0
  0
LINE
  5
239
330
228
100
AcDbEntity
  8
$DDT_AUDIT_GENERATED_(A0)
  6
Continuous
 62
     7
100
AcDbLine
 10
306.8561932812
 20
258.422737775
 30
0.0
 11
306.8561932812
 21
270.547617195
 31
0.0
  0
LINE
  5
23A
330
228
100
AcDbEntity
  8
$DDT_AUDIT_GENERATED_(A0)
  6
Continuous
 62
     7
100
AcDbLine
 10
306.8561932812
 20
248.0476171951
 30
0.0
 11
306.8561932812
 21
251.5922092811
 31
0.0
  0
LINE
  5
23B
330
228
100
AcDbEntity
  8
$DDT_AUDIT_GENERATED_(A0)
  6
Continuous
 62
     7
100
AcDbLine
 10
287.3561932812
 20
251.6369339423
 30
0.0
 11
287.3561932812
 21
248.0476171951
 31
0.0
  0
LINE
  5
23C
330
228
100
AcDbEntity
  8
$DDT_AUDIT_GENERATED_(A0)
  6
Continuous
 62
     7
100
AcDbLine
 10
287.3561932812
 20
270.547617195
 30
0.0
 11
287.3561932812
 21
258.5269027342
 31
0.0
  0
ARC
  5
23D
330
228
100
AcDbEntity
  8
$DDT_AUDIT_GENERATED_(A0)
  6
Continuous
 62
     7
100
AcDbCircle
 10
287.8561932812
 20
248.0476171951
 30
0.0
 40
0.5000000000000004
100
AcDbArc
 50
180.0
 51
270.0
  0
ARC
  5
23E
330
228
100
AcDbEntity
  8
$DDT_AUDIT_GENERATED_(A0)
  6
Continuous
 62
     7
100
AcDbCircle
 10
306.3561932812
 20
248.0476171951
 30
0.0
 40
0.4999999999975024
100
AcDbArc
 50
270.0
 51
0.0
  0
LINE
  5
23F
330
228
100
AcDbEntity
  8
$DDT_AUDIT_GENERATED_(A0)
  6
Continuous
 62
     7
100
AcDbLine
 10
261.8216200035
 20
255.2131868638
 30
0.0
 11
261.8132533412
 21
255.0476171951
 31
0.0
  0
SPLINE
  5
240
330
228
100
AcDbEntity
  8
$DDT_AUDIT_GENERATED_(A0)
  6
Continuous
 62
     7
100
AcDbSpline
210
0.0
220
0.0
230
1.0
 70
     8
 71
     3
 72
    16
 73
    12
 74
     0
 42
0.0000000013689853
 43
0.0000000001
 40
0.0
 40
0.0
 40
0.0
 40
0.0
 40
0.0456038936978785
 40
0.1581590770951052
 40
0.271630556349841
 40
0.3906200576591515
 40
0.5146130969516755
 40
0.6402949743799603
 40
0.7655099953109538
 40
0.8901285816556974
 40
1.0
 40
1.0
 40
1.0
 40
1.0
 10
265.0549639067784
 20
261.0209749683643
 30
0.0
 10
264.9618633837156
 20
261.0284869044628
 30
0.0
 10
264.6862431311015
 20
261.0482231902786
 30
0.0
 10
264.1802035563927
 20
260.8634623437004
 30
0.0
 10
263.620305132698
 20
260.4916291622731
 30
0.0
 10
263.1080665362813
 20
259.9272534588581
 30
0.0
 10
262.6599562560456
 20
259.1903328563073
 30
0.0
 10
262.2914193638963
 20
258.2962711981109
 30
0.0
 10
262.0222507745975
 20
257.2944198253435
 30
0.0
 10
261.8534807650821
 20
256.2316727695281
 30
0.0
 10
261.8314416001172
 20
255.575688067301
 30
0.0
 10
261.8216200034821
 20
255.2131868638463
 30
0.0
  0
SPLINE
  5
241
330
228
100
AcDbEntity
  8
$DDT_AUDIT_GENERATED_(A0)
  6
Continuous
 62
     7
100
AcDbSpline
210
0.0
220
0.0
230
1.0
 70
     8
 71
     3
 72
    16
 73
    12
 74
     0
 42
0.0000000013688835
 43
0.0000000001
 40
0.0
 40
0.0
 40
0.0
 40
0.0
 40
0.0488469257186623
 40
0.173033635422785
 40
0.2976361290461872
 40
0.4228484148549113
 40
0.5490368459840387
 40
0.6764688254407024
 40
0.8043166760499882
 40
0.9143370299203835
 40
1.0
 40
1.0
 40
1.0
 40
1.0
 10
261.8170661401142
 20
254.8988670344071
 30
0.0
 10
261.8195049007745
 20
254.7376629851195
 30
0.0
 10
261.828631894965
 20
254.2507509780838
 30
0.0
 10
261.923510432766
 20
253.3444758298214
 30
0.0
 10
262.1396649852681
 20
252.3046027902459
 30
0.0
 10
262.4600009406968
 20
251.3453193775254
 30
0.0
 10
262.8755829188605
 20
250.51206461968
 30
0.0
 10
263.3837168108667
 20
249.828272214069
 30
0.0
 10
263.9475160638449
 20
249.3571849049149
 30
0.0
 10
264.5265812933223
 20
249.086479147552
 30
0.0
 10
264.8662961139577
 20
249.0738059694225
 30
0.0
 10
265.0416400424651
 20
249.070146871837
 30
0.0
  0
LINE
  5
242
330
228
100
AcDbEntity
  8
$DDT_AUDIT_GENERATED_(A0)
  6
Continuous
 62
     7
100
AcDbLine
 10
261.8132533412
 20
255.0476171951
 30
0.0
 11
261.8170661401
 21
254.8988670344
 31
0.0
  0
LINE
  5
243
330
228
100
AcDbEntity
  8
$DDT_AUDIT_GENERATED_(A0)
  6
Continuous
 62
     7
100
AcDbLine
 10
332.3907665589
 20
254.8820475263
 30
0.0
 11
332.3991332212
 21
255.0476171951
 31
0.0
  0
SPLINE
  5
244
330
228
100
AcDbEntity
  8
$DDT_AUDIT_GENERATED_(A0)
  6
Continuous
 62
     7
100
AcDbSpline
210
0.0
220
0.0
230
1.0
 70
     8
 71
     3
 72
    16
 73
    12
 74
     0
 42
0.0000000013689853
 43
0.0000000001
 40
0.0
 40
0.0
 40
0.0
 40
0.0
 40
0.0456038936978603
 40
0.158159077095087
 40
0.2716305563498228
 40
0.3906200576591313
 40
0.5146130969516575
 40
0.6402949743799454
 40
0.7655099953109386
 40
0.8901285816556802
 40
1.0
 40
1.0
 40
1.0
 40
1.0
 10
329.157422655649
 20
249.0742594217603
 30
0.0
 10
329.2505231787117
 20
249.0667474856618
 30
0.0
 10
329.5261434313259
 20
249.0470111998458
 30
0.0
 10
330.0321830060347
 20
249.2317720464243
 30
0.0
 10
330.5920814297295
 20
249.6036052278515
 30
0.0
 10
331.1043200261458
 20
250.1679809312666
 30
0.0
 10
331.5524303063818
 20
250.9049015338173
 30
0.0
 10
331.9209671985309
 20
251.7989631920136
 30
0.0
 10
332.19013578783
 20
252.8008145647811
 30
0.0
 10
332.3589057973452
 20
253.8635616205964
 30
0.0
 10
332.3809449623103
 20
254.5195463228236
 30
0.0
 10
332.3907665589454
 20
254.8820475262784
 30
0.0
  0
SPLINE
  5
245
330
228
100
AcDbEntity
  8
$DDT_AUDIT_GENERATED_(A0)
  6
Continuous
 62
     7
100
AcDbSpline
210
0.0
220
0.0
230
1.0
 70
     8
 71
     3
 72
    16
 73
    12
 74
     0
 42
0.0000000013688835
 43
0.0000000001
 40
0.0
 40
0.0
 40
0.0
 40
0.0
 40
0.0488469257186622
 40
0.1730336354227799
 40
0.2976361290461815
 40
0.4228484148549046
 40
0.5490368459840311
 40
0.6764688254406943
 40
0.8043166760499801
 40
0.914337029920374
 40
1.0
 40
1.0
 40
1.0
 40
1.0
 10
332.3953204223133
 20
255.1963673557175
 30
0.0
 10
332.392881661653
 20
255.3575714050051
 30
0.0
 10
332.3837546674623
 20
255.8444834120408
 30
0.0
 10
332.2888761296616
 20
256.7507585603031
 30
0.0
 10
332.0727215771591
 20
257.7906315998785
 30
0.0
 10
331.7523856217307
 20
258.7499150125993
 30
0.0
 10
331.3368036435669
 20
259.5831697704446
 30
0.0
 10
330.8286697515608
 20
260.2669621760558
 30
0.0
 10
330.2648704985825
 20
260.7380494852097
 30
0.0
 10
329.6858052691052
 20
261.0087552425727
 30
0.0
 10
329.3460904484697
 20
261.0214284207021
 30
0.0
 10
329.1707465199624
 20
261.0250875182876
 30
0.0
  0
LINE
  5
246
330
228
100
AcDbEntity
  8
$DDT_AUDIT_GENERATED_(A0)
  6
Continuous
 62
     7
100
AcDbLine
 10
332.3991332212
 20
255.0476171951
 30
0.0
 11
332.3953204223
 21
255.1963673557
 31
0.0
  0
LINE
  5
247
330
228
100
AcDbEntity
  8
$DDT_AUDIT_GENERATED_(1EC)
  6
Continuous
 62
     7
100
AcDbLine
 10
305.9918339272
 20
270.547617195
 30
0.0
 11
305.9918339272
 21
270.7476171951
 31
0.0
  0
LINE
  5
248
330
228
100
AcDbEntity
  8
$DDT_AUDIT_GENERATED_(1EC)
  6
Continuous
 62
     7
100
AcDbLine
 10
288.2205526352
 20
270.7476171951
 30
0.0
 11
288.2205526352
 21
270.547617195
 31
0.0
  0
LINE
  5
249
330
228
100
AcDbEntity
  8
$DDT_AUDIT_GENERATED_(9B)
  6
Continuous
 62
     7
100
AcDbLine
 10
82.7561932812
 20
270.7476171951
 30
0.0
 11
111.4561932812
 21
270.7476171951
 31
0.0
  0
LINE
  5
24A
330
228
100
AcDbEntity
  8
$DDT_AUDIT_GENERATED_(9B)
  6
Continuous
 62
     7
100
AcDbLine
 10
82.2561932812
 20
274.9476171951
 30
0.0
 11
82.2561932812
 21
271.2476171951
 31
0.0
  0
LINE
  5
24B
330
228
100
AcDbEntity
  8
$DDT_AUDIT_GENERATED_(9B)
  6
Continuous
 62
     7
100
AcDbLine
 10
111.9561932812
 20
271.2476171951
 30
0.0
 11
111.9561932812
 21
274.9476171951
 31
0.0
  0
ARC
  5
24C
330
228
100
AcDbEntity
  8
$DDT_AUDIT_GENERATED_(9B)
  6
Continuous
 62
     7
100
AcDbCircle
 10
82.7561932812
 20
271.2476171951
 30
0.0
 40
0.5000000000000004
100
AcDbArc
 50
180.0
 51
270.0
  0
ARC
  5
24D
330
228
100
AcDbEntity
  8
$DDT_AUDIT_GENERATED_(9B)
  6
Continuous
 62
     7
100
AcDbCircle
 10
111.4561932812
 20
271.2476171951
 30
0.0
 40
0.5000000000000004
100
AcDbArc
 50
270.0
 51
0.0
  0
LINE
  5
24E
330
228
100
AcDbEntity
  8
$DDT_AUDIT_GENERATED_(A0)
  6
Continuous
 62
     7
100
AcDbLine
 10
87.3561932812
 20
270.547617195
 30
0.0
 11
106.8561932812
 21
270.547617195
 31
0.0
  0
SPLINE
  5
24F
330
228
100
AcDbEntity
  8
$DDT_AUDIT_GENERATED_(A0)
  6
Continuous
 62
     7
100
AcDbSpline
210
0.0
220
0.0
230
1.0
 70
     8
 71
     3
 72
     8
 73
     4
 74
     0
 42
0.0000000002820056
 43
0.0000000001
 40
0.0
 40
0.0
 40
0.0
 40
0.0
 40
0.0979956745303302
 40
0.0979956745303302
 40
0.0979956745303302
 40
0.0979956745303302
 10
106.7617830372004
 20
255.0476171950622
 30
0.0
 10
106.7617830372004
 20
253.7682895382232
 30
0.0
 10
106.8569951826198
 20
252.5594663609798
 30
0.0
 10
106.856849430898
 20
251.5764065573541
 30
0.0
  0
SPLINE
  5
250
330
228
100
AcDbEntity
  8
$DDT_AUDIT_GENERATED_(A0)
  6
Continuous
 62
     7
100
AcDbSpline
210
0.0
220
0.0
230
1.0
 70
     8
 71
     3
 72
    10
 73
     6
 74
     0
 42
0.0000000002798605
 43
0.0000000001
 40
0.9041134078120217
 40
0.9041134078120217
 40
0.9041134078120217
 40
0.9041134078120217
 40
0.9374999999999999
 40
0.9374999999999999
 40
1.0
 40
1.0
 40
1.0
 40
1.0
 10
106.8559049541558
 20
258.4719524065851
 30
0.0
 10
106.8542231322115
 20
258.1360688583387
 30
0.0
 10
106.8415586607252
 20
257.7743242921172
 30
0.0
 10
106.7967109780652
 20
256.6663647410838
 30
0.0
 10
106.7617830372004
 20
255.8635509486249
 30
0.0
 10
106.7617830372004
 20
255.0476171950622
 30
0.0
  0
SPLINE
  5
251
330
228
100
AcDbEntity
  8
$DDT_AUDIT_GENERATED_(A0)
  6
Continuous
 62
     7
100
AcDbSpline
210
0.0
220
0.0
230
1.0
 70
     8
 71
     3
 72
    12
 73
     8
 74
     0
 42
0.0000000002814981
 43
0.0000000001
 40
0.4022822089976062
 40
0.4022822089976062
 40
0.4022822089976062
 40
0.4022822089976062
 40
0.4375000000000002
 40
0.4375000000000002
 40
0.5000000000000002
 40
0.5000000000000002
 40
0.5975436280588681
 40
0.5975436280588681
 40
0.5975436280588681
 40
0.5975436280588681
 10
87.35641780825996
 20
258.534439790302
 30
0.0
 10
87.3567103030362
 20
258.1834850666835
 30
0.0
 10
87.36967134792322
 20
257.8040345505307
 30
0.0
 10
87.41469469213497
 20
256.6886302720181
 30
0.0
 10
87.45000239042271
 20
255.8877878745779
 30
0.0
 10
87.45151871221313
 20
253.7997160588355
 30
0.0
 10
87.35665884400589
 20
252.5908538410102
 30
0.0
 10
87.35538050058835
 20
251.6035568810252
 30
0.0
  0
LINE
  5
252
330
228
100
AcDbEntity
  8
$DDT_AUDIT_GENERATED_(A0)
  6
Continuous
 62
     7
100
AcDbLine
 10
87.8561932812
 20
247.5476171951
 30
0.0
 11
106.3561932812
 21
247.5476171951
 31
0.0
  0
CIRCLE
  5
253
330
228
100
AcDbEntity
  8
$DDT_AUDIT_GENERATED_(A0)
  6
Continuous
 62
     7
100
AcDbCircle
 10
97.1061932812
 20
255.0476171951
 30
0.0
 40
6.0
  0
LINE
  5
254
330
228
100
AcDbEntity
  8
$DDT_AUDIT_GENERATED_(A0)
  6
Continuous
 62
     7
100
AcDbLine
 10
129.1491332212
 20
261.0476171951
 30
0.0
 11
106.8561932812
 21
261.0476171951
 31
0.0
  0
LINE
  5
255
330
228
100
AcDbEntity
  8
$DDT_AUDIT_GENERATED_(A0)
  6
Continuous
 62
     7
100
AcDbLine
 10
106.8561932812
 20
249.0476171951
 30
0.0
 11
129.1491332212
 21
249.0476171951
 31
0.0
  0
LINE
  5
256
330
228
100
AcDbEntity
  8
$DDT_AUDIT_GENERATED_(A0)
  6
Continuous
 62
     7
100
AcDbLine
 10
65.0632533412
 20
249.0476171951
 30
0.0
 11
87.3561932812
 21
249.0476171951
 31
0.0
  0
LINE
  5
257
330
228
100
AcDbEntity
  8
$DDT_AUDIT_GENERATED_(A0)
  6
Continuous
 62
     7
100
AcDbLine
 10
87.3561932812
 20
261.0476171951
 30
0.0
 11
65.0632533412
 21
261.0476171951
 31
0.0
  0
LINE
  5
258
330
228
100
AcDbEntity
  8
$DDT_AUDIT_GENERATED_(A0)
  6
Continuous
 62
     7
100
AcDbLine
 10
106.8561932812
 20
258.422737775
 30
0.0
 11
106.8561932812
 21
270.547617195
 31
0.0
  0
LINE
  5
259
330
228
100
AcDbEntity
  8
$DDT_AUDIT_GENERATED_(A0)
  6
Continuous
 62
     7
100
AcDbLine
 10
106.8561932812
 20
248.0476171951
 30
0.0
 11
106.8561932812
 21
251.5922092811
 31
0.0
  0
LINE
  5
25A
330
228
100
AcDbEntity
  8
$DDT_AUDIT_GENERATED_(A0)
  6
Continuous
 62
     7
100
AcDbLine
 10
87.3561932812
 20
251.6369339423
 30
0.0
 11
87.3561932812
 21
248.0476171951
 31
0.0
  0
LINE
  5
25B
330
228
100
AcDbEntity
  8
$DDT_AUDIT_GENERATED_(A0)
  6
Continuous
 62
     7
100
AcDbLine
 10
87.3561932812
 20
270.547617195
 30
0.0
 11
87.3561932812
 21
258.5269027342
 31
0.0
  0
ARC
  5
25C
330
228
100
AcDbEntity
  8
$DDT_AUDIT_GENERATED_(A0)
  6
Continuous
 62
     7
100
AcDbCircle
 10
87.8561932812
 20
248.0476171951
 30
0.0
 40
0.4999999999999866
100
AcDbArc
 50
180.0
 51
270.0
  0
ARC
  5
25D
330
228
100
AcDbEntity
  8
$DDT_AUDIT_GENERATED_(A0)
  6
Continuous
 62
     7
100
AcDbCircle
 10
106.3561932812
 20
248.0476171951
 30
0.0
 40
0.4999999999975024
100
AcDbArc
 50
270.0
 51
0.0
  0
LINE
  5
25E
330
228
100
AcDbEntity
  8
$DDT_AUDIT_GENERATED_(A0)
  6
Continuous
 62
     7
100
AcDbLine
 10
61.8216200035
 20
255.2131868638
 30
0.0
 11
61.8132533412
 21
255.0476171951
 31
0.0
  0
SPLINE
  5
25F
330
228
100
AcDbEntity
  8
$DDT_AUDIT_GENERATED_(A0)
  6
Continuous
 62
     7
100
AcDbSpline
210
0.0
220
0.0
230
1.0
 70
     8
 71
     3
 72
    16
 73
    12
 74
     0
 42
0.0000000013689853
 43
0.0000000001
 40
0.0
 40
0.0
 40
0.0
 40
0.0
 40
0.0456038936978774
 40
0.158159077095106
 40
0.2716305563498405
 40
0.3906200576591507
 40
0.5146130969516741
 40
0.6402949743799599
 40
0.7655099953109531
 40
0.8901285816556957
 40
1.0
 40
1.0
 40
1.0
 40
1.0
 10
65.05496390677796
 20
261.0209749683644
 30
0.0
 10
64.96186338371527
 20
261.0284869044629
 30
0.0
 10
64.68624313110116
 20
261.048223190279
 30
0.0
 10
64.18020355639226
 20
260.8634623437005
 30
0.0
 10
63.62030513269748
 20
260.4916291622731
 30
0.0
 10
63.10806653628106
 20
259.9272534588583
 30
0.0
 10
62.6599562560452
 20
259.1903328563075
 30
0.0
 10
62.29141936389579
 20
258.2962711981111
 30
0.0
 10
62.02225077459719
 20
257.2944198253438
 30
0.0
 10
61.85348076508166
 20
256.2316727695283
 30
0.0
 10
61.83144160011675
 20
255.5756880673011
 30
0.0
 10
61.82162000348163
 20
255.2131868638464
 30
0.0
  0
SPLINE
  5
260
330
228
100
AcDbEntity
  8
$DDT_AUDIT_GENERATED_(A0)
  6
Continuous
 62
     7
100
AcDbSpline
210
0.0
220
0.0
230
1.0
 70
     8
 71
     3
 72
    16
 73
    12
 74
     0
 42
0.0000000013688835
 43
0.0000000001
 40
0.0
 40
0.0
 40
0.0
 40
0.0
 40
0.0488469257186623
 40
0.1730336354227847
 40
0.2976361290461867
 40
0.4228484148549116
 40
0.5490368459840366
 40
0.6764688254407034
 40
0.8043166760499885
 40
0.9143370299203828
 40
1.0
 40
1.0
 40
1.0
 40
1.0
 10
61.8170661401137
 20
254.8988670344072
 30
0.0
 10
61.81950490077409
 20
254.7376629851197
 30
0.0
 10
61.82863189496462
 20
254.250750978084
 30
0.0
 10
61.92351043276559
 20
253.3444758298216
 30
0.0
 10
62.1396649852676
 20
252.304602790246
 30
0.0
 10
62.46000094069648
 20
251.3453193775255
 30
0.0
 10
62.87558291885998
 20
250.5120646196801
 30
0.0
 10
63.38371681086624
 20
249.8282722140689
 30
0.0
 10
63.94751606384452
 20
249.3571849049152
 30
0.0
 10
64.52658129332175
 20
249.086479147552
 30
0.0
 10
64.86629611395728
 20
249.0738059694226
 30
0.0
 10
65.04164004246459
 20
249.0701468718372
 30
0.0
  0
LINE
  5
261
330
228
100
AcDbEntity
  8
$DDT_AUDIT_GENERATED_(A0)
  6
Continuous
 62
     7
100
AcDbLine
 10
61.8132533412
 20
255.0476171951
 30
0.0
 11
61.8170661401
 21
254.8988670344
 31
0.0
  0
LINE
  5
262
330
228
100
AcDbEntity
  8
$DDT_AUDIT_GENERATED_(A0)
  6
Continuous
 62
     7
100
AcDbLine
 10
132.3907665589
 20
254.8820475263
 30
0.0
 11
132.3991332212
 21
255.0476171951
 31
0.0
  0
SPLINE
  5
263
330
228
100
AcDbEntity
  8
$DDT_AUDIT_GENERATED_(A0)
  6
Continuous
 62
     7
100
AcDbSpline
210
0.0
220
0.0
230
1.0
 70
     8
 71
     3
 72
    16
 73
    12
 74
     0
 42
0.0000000013689853
 43
0.0000000001
 40
0.0
 40
0.0
 40
0.0
 40
0.0
 40
0.0456038936978588
 40
0.1581590770950876
 40
0.2716305563498215
 40
0.3906200576591324
 40
0.5146130969516575
 40
0.6402949743799451
 40
0.7655099953109386
 40
0.8901285816556831
 40
1.0
 40
1.0
 40
1.0
 40
1.0
 10
129.1574226556486
 20
249.07425942176
 30
0.0
 10
129.2505231787113
 20
249.0667474856616
 30
0.0
 10
129.5261434313255
 20
249.0470111998456
 30
0.0
 10
130.0321830060342
 20
249.231772046424
 30
0.0
 10
130.592081429729
 20
249.6036052278512
 30
0.0
 10
131.1043200261455
 20
250.1679809312662
 30
0.0
 10
131.5524303063814
 20
250.9049015338172
 30
0.0
 10
131.9209671985305
 20
251.7989631920132
 30
0.0
 10
132.1901357878295
 20
252.8008145647808
 30
0.0
 10
132.3589057973448
 20
253.8635616205962
 30
0.0
 10
132.3809449623098
 20
254.5195463228233
 30
0.0
 10
132.3907665589449
 20
254.8820475262781
 30
0.0
  0
SPLINE
  5
264
330
228
100
AcDbEntity
  8
$DDT_AUDIT_GENERATED_(A0)
  6
Continuous
 62
     7
100
AcDbSpline
210
0.0
220
0.0
230
1.0
 70
     8
 71
     3
 72
    16
 73
    12
 74
     0
 42
0.0000000013688835
 43
0.0000000001
 40
0.0
 40
0.0
 40
0.0
 40
0.0
 40
0.0488469257186622
 40
0.1730336354227795
 40
0.2976361290461828
 40
0.4228484148549053
 40
0.5490368459840304
 40
0.6764688254406935
 40
0.8043166760499804
 40
0.9143370299203741
 40
1.0
 40
1.0
 40
1.0
 40
1.0
 10
132.3953204223129
 20
255.1963673557173
 30
0.0
 10
132.3928816616525
 20
255.3575714050048
 30
0.0
 10
132.383754667462
 20
255.8444834120406
 30
0.0
 10
132.288876129661
 20
256.7507585603028
 30
0.0
 10
132.0727215771589
 20
257.7906315998784
 30
0.0
 10
131.7523856217301
 20
258.7499150125989
 30
0.0
 10
131.3368036435665
 20
259.5831697704443
 30
0.0
 10
130.8286697515604
 20
260.2669621760555
 30
0.0
 10
130.2648704985822
 20
260.7380494852093
 30
0.0
 10
129.6858052691047
 20
261.0087552425724
 30
0.0
 10
129.3460904484693
 20
261.0214284207019
 30
0.0
 10
129.170746519962
 20
261.0250875182874
 30
0.0
  0
LINE
  5
265
330
228
100
AcDbEntity
  8
$DDT_AUDIT_GENERATED_(A0)
  6
Continuous
 62
     7
100
AcDbLine
 10
132.3991332212
 20
255.0476171951
 30
0.0
 11
132.3953204223
 21
255.1963673557
 31
0.0
  0
LINE
  5
266
330
228
100
AcDbEntity
  8
$DDT_AUDIT_GENERATED_(1EC)
  6
Continuous
 62
     7
100
AcDbLine
 10
105.9918339272
 20
270.547617195
 30
0.0
 11
105.9918339272
 21
270.7476171951
 31
0.0
  0
LINE
  5
267
330
228
100
AcDbEntity
  8
$DDT_AUDIT_GENERATED_(1EC)
  6
Continuous
 62
     7
100
AcDbLine
 10
88.2205526352
 20
270.7476171951
 30
0.0
 11
88.2205526352
 21
270.547617195
 31
0.0
  0
LINE
  5
268
330
228
100
AcDbEntity
  8
$DDT_AUDIT_GENERATED_(C5)
  6
Continuous
 62
     7
100
AcDbLine
 10
279.6061932812
 20
274.9476171951
 30
0.0
 11
314.6061932812
 21
274.9476171951
 31
0.0
  0
LINE
  5
269
330
228
100
AcDbEntity
  8
$DDT_AUDIT_GENERATED_(C5)
  6
Continuous
 62
     7
100
AcDbLine
 10
279.1061932812
 20
315.9476171951
 30
0.0
 11
279.1061932812
 21
275.4476171951
 31
0.0
  0
LINE
  5
26A
330
228
100
AcDbEntity
  8
$DDT_AUDIT_GENERATED_(C5)
  6
Continuous
 62
     7
100
AcDbLine
 10
315.1061932812
 20
275.4476171951
 30
0.0
 11
315.1061932812
 21
315.9476171951
 31
0.0
  0
ARC
  5
26B
330
228
100
AcDbEntity
  8
$DDT_AUDIT_GENERATED_(C5)
  6
Continuous
 62
     7
100
AcDbCircle
 10
279.6061932812
 20
275.4476171951
 30
0.0
 40
0.5000000000000004
100
AcDbArc
 50
180.0
 51
270.0
  0
ARC
  5
26C
330
228
100
AcDbEntity
  8
$DDT_AUDIT_GENERATED_(C5)
  6
Continuous
 62
     7
100
AcDbCircle
 10
314.6061932812
 20
275.4476171951
 30
0.0
 40
0.5000000000000004
100
AcDbArc
 50
270.0
 51
0.0
  0
LINE
  5
26D
330
228
100
AcDbEntity
  8
$DDT_AUDIT_GENERATED_(C5)
  6
Continuous
 62
     7
100
AcDbLine
 10
79.6061932812
 20
274.9476171951
 30
0.0
 11
114.6061932812
 21
274.9476171951
 31
0.0
  0
LINE
  5
26E
330
228
100
AcDbEntity
  8
$DDT_AUDIT_GENERATED_(C5)
  6
Continuous
 62
     7
100
AcDbLine
 10
79.1061932812
 20
315.9476171951
 30
0.0
 11
79.1061932812
 21
275.4476171951
 31
0.0
  0
LINE
  5
26F
330
228
100
AcDbEntity
  8
$DDT_AUDIT_GENERATED_(C5)
  6
Continuous
 62
     7
100
AcDbLine
 10
115.1061932812
 20
275.4476171951
 30
0.0
 11
115.1061932812
 21
315.9476171951
 31
0.0
  0
ARC
  5
270
330
228
100
AcDbEntity
  8
$DDT_AUDIT_GENERATED_(C5)
  6
Continuous
 62
     7
100
AcDbCircle
 10
79.6061932812
 20
275.4476171951
 30
0.0
 40
0.5000000000000004
100
AcDbArc
 50
180.0
 51
270.0
  0
ARC
  5
271
330
228
100
AcDbEntity
  8
$DDT_AUDIT_GENERATED_(C5)
  6
Continuous
 62
     7
100
AcDbCircle
 10
114.6061932812
 20
275.4476171951
 30
0.0
 40
0.5000000000000004
100
AcDbArc
 50
270.0
 51
0.0
  0
LINE
  5
272
330
228
100
AcDbEntity
  8
$DDT_AUDIT_GENERATED_(D6)
  6
Continuous
 62
     7
100
AcDbLine
 10
269.6061932812
 20
325.9476171951
 30
0.0
 11
324.6061932812
 21
325.9476171951
 31
0.0
  0
LINE
  5
273
330
228
100
AcDbEntity
  8
$DDT_AUDIT_GENERATED_(D6)
  6
Continuous
 62
     7
100
AcDbLine
 10
270.1061932812
 20
319.9476171951
 30
0.0
 11
324.1061932812
 21
319.9476171951
 31
0.0
  0
LINE
  5
274
330
228
100
AcDbEntity
  8
$DDT_AUDIT_GENERATED_(D6)
  6
Continuous
 62
     7
100
AcDbLine
 10
275.1061932812
 20
315.9476171951
 30
0.0
 11
319.1061932812
 21
315.9476171951
 31
0.0
  0
LINE
  5
275
330
228
100
AcDbEntity
  8
$DDT_AUDIT_GENERATED_(D6)
  6
Continuous
 62
     7
100
AcDbLine
 10
319.6061932812
 20
316.4476171951
 30
0.0
 11
319.6061932812
 21
319.4476171951
 31
0.0
  0
LINE
  5
276
330
228
100
AcDbEntity
  8
$DDT_AUDIT_GENERATED_(D6)
  6
Continuous
 62
     7
100
AcDbLine
 10
274.6061932812
 20
319.4476171951
 30
0.0
 11
274.6061932812
 21
316.4476171951
 31
0.0
  0
LINE
  5
277
330
228
100
AcDbEntity
  8
$DDT_AUDIT_GENERATED_(D6)
  6
Continuous
 62
     7
100
AcDbLine
 10
324.6061932812
 20
320.4476171951
 30
0.0
 11
324.6061932812
 21
325.9476171951
 31
0.0
  0
LINE
  5
278
330
228
100
AcDbEntity
  8
$DDT_AUDIT_GENERATED_(D6)
  6
Continuous
 62
     7
100
AcDbLine
 10
269.6061932812
 20
325.9476171951
 30
0.0
 11
269.6061932812
 21
320.4476171951
 31
0.0
  0
ARC
  5
279
330
228
100
AcDbEntity
  8
$DDT_AUDIT_GENERATED_(D6)
  6
Continuous
 62
     7
100
AcDbCircle
 10
324.1061932812
 20
320.4476171951
 30
0.0
 40
0.5000000000000004
100
AcDbArc
 50
270.0
 51
0.0
  0
ARC
  5
27A
330
228
100
AcDbEntity
  8
$DDT_AUDIT_GENERATED_(D6)
  6
Continuous
 62
     7
100
AcDbCircle
 10
270.1061932812
 20
320.4476171951
 30
0.0
 40
0.5000000000000004
100
AcDbArc
 50
180.0
 51
270.0
  0
ARC
  5
27B
330
228
100
AcDbEntity
  8
$DDT_AUDIT_GENERATED_(D6)
  6
Continuous
 62
     7
100
AcDbCircle
 10
319.1061932812
 20
316.4476171951
 30
0.0
 40
0.5000000000000004
100
AcDbArc
 50
270.0
 51
0.0
  0
ARC
  5
27C
330
228
100
AcDbEntity
  8
$DDT_AUDIT_GENERATED_(D6)
  6
Continuous
 62
     7
100
AcDbCircle
 10
275.1061932812
 20
316.4476171951
 30
0.0
 40
0.5000000000000004
100
AcDbArc
 50
180.0
 51
270.0
  0
ARC
  5
27D
330
228
100
AcDbEntity
  8
$DDT_AUDIT_GENERATED_(D6)
  6
Continuous
 62
     7
100
AcDbCircle
 10
320.1061932812
 20
319.4476171951
 30
0.0
 40
0.5000000000000004
100
AcDbArc
 50
90.0
 51
180.0
  0
ARC
  5
27E
330
228
100
AcDbEntity
  8
$DDT_AUDIT_GENERATED_(D6)
  6
Continuous
 62
     7
100
AcDbCircle
 10
274.1061932812
 20
319.4476171951
 30
0.0
 40
0.5000000000000004
100
AcDbArc
 50
0.0
 51
90.0
  0
LINE
  5
27F
330
228
100
AcDbEntity
  8
$DDT_AUDIT_GENERATED_(D6)
  6
Continuous
 62
     7
100
AcDbLine
 10
69.6061932812
 20
325.9476171951
 30
0.0
 11
124.6061932812
 21
325.9476171951
 31
0.0
  0
LINE
  5
280
330
228
100
AcDbEntity
  8
$DDT_AUDIT_GENERATED_(D6)
  6
Continuous
 62
     7
100
AcDbLine
 10
70.1061932812
 20
319.9476171951
 30
0.0
 11
124.1061932812
 21
319.9476171951
 31
0.0
  0
LINE
  5
281
330
228
100
AcDbEntity
  8
$DDT_AUDIT_GENERATED_(D6)
  6
Continuous
 62
     7
100
AcDbLine
 10
75.1061932812
 20
315.9476171951
 30
0.0
 11
119.1061932812
 21
315.9476171951
 31
0.0
  0
LINE
  5
282
330
228
100
AcDbEntity
  8
$DDT_AUDIT_GENERATED_(D6)
  6
Continuous
 62
     7
100
AcDbLine
 10
119.6061932812
 20
316.4476171951
 30
0.0
 11
119.6061932812
 21
319.4476171951
 31
0.0
  0
LINE
  5
283
330
228
100
AcDbEntity
  8
$DDT_AUDIT_GENERATED_(D6)
  6
Continuous
 62
     7
100
AcDbLine
 10
74.6061932812
 20
319.4476171951
 30
0.0
 11
74.6061932812
 21
316.4476171951
 31
0.0
  0
LINE
  5
284
330
228
100
AcDbEntity
  8
$DDT_AUDIT_GENERATED_(D6)
  6
Continuous
 62
     7
100
AcDbLine
 10
124.6061932812
 20
320.4476171951
 30
0.0
 11
124.6061932812
 21
325.9476171951
 31
0.0
  0
LINE
  5
285
330
228
100
AcDbEntity
  8
$DDT_AUDIT_GENERATED_(D6)
  6
Continuous
 62
     7
100
AcDbLine
 10
69.6061932812
 20
325.9476171951
 30
0.0
 11
69.6061932812
 21
320.4476171951
 31
0.0
  0
ARC
  5
286
330
228
100
AcDbEntity
  8
$DDT_AUDIT_GENERATED_(D6)
  6
Continuous
 62
     7
100
AcDbCircle
 10
124.1061932812
 20
320.4476171951
 30
0.0
 40
0.5000000000000004
100
AcDbArc
 50
270.0
 51
0.0
  0
ARC
  5
287
330
228
100
AcDbEntity
  8
$DDT_AUDIT_GENERATED_(D6)
  6
Continuous
 62
     7
100
AcDbCircle
 10
70.1061932812
 20
320.4476171951
 30
0.0
 40
0.4999999999999727
100
AcDbArc
 50
180.0
 51
270.0
  0
ARC
  5
288
330
228
100
AcDbEntity
  8
$DDT_AUDIT_GENERATED_(D6)
  6
Continuous
 62
     7
100
AcDbCircle
 10
119.1061932812
 20
316.4476171951
 30
0.0
 40
0.5000000000000004
100
AcDbArc
 50
270.0
 51
0.0
  0
ARC
  5
289
330
228
100
AcDbEntity
  8
$DDT_AUDIT_GENERATED_(D6)
  6
Continuous
 62
     7
100
AcDbCircle
 10
75.1061932812
 20
316.4476171951
 30
0.0
 40
0.4999999999999866
100
AcDbArc
 50
180.0
 51
270.0
  0
ARC
  5
28A
330
228
100
AcDbEntity
  8
$DDT_AUDIT_GENERATED_(D6)
  6
Continuous
 62
     7
100
AcDbCircle
 10
120.1061932812
 20
319.4476171951
 30
0.0
 40
0.5000000000000004
100
AcDbArc
 50
90.0
 51
180.0
  0
ARC
  5
28B
330
228
100
AcDbEntity
  8
$DDT_AUDIT_GENERATED_(D6)
  6
Continuous
 62
     7
100
AcDbCircle
 10
74.1061932812
 20
319.4476171951
 30
0.0
 40
0.5000000000000004
100
AcDbArc
 50
0.0
 51
90.0
  0
ELLIPSE
  5
28C
330
228
100
AcDbEntity
  8
$DDT_AUDIT_GENERATED_(E7)
  6
Continuous
 62
     7
100
AcDbEllipse
 10
197.1061932812
 20
271.9505125191
 30
0.0
 11
14.49999997257322
 21
2.775557561562891E-14
 31
0.0
210
0.0
220
0.0
230
1.0
 40
0.0000340912
 41
3.141569022875647
 42
6.283185307179586
  0
ELLIPSE
  5
28D
330
228
100
AcDbEntity
  8
$DDT_AUDIT_GENERATED_(E7)
  6
Continuous
 62
     7
100
AcDbEllipse
 10
197.1061932812
 20
275.9505125167
 30
0.0
 11
17.4999999999979
 21
2.775557561562891E-14
 31
0.0
210
0.0
220
0.0
230
1.0
 40
0.0000340912
 41
2.696757649591878
 42
6.283185307179586
  0
ELLIPSE
  5
28E
330
228
100
AcDbEntity
  8
$DDT_AUDIT_GENERATED_(E7)
  6
Continuous
 62
     7
100
AcDbEllipse
 10
197.1061932812
 20
275.9505125167
 30
0.0
 11
17.4999999999979
 21
2.775557561562891E-14
 31
0.0
210
0.0
220
0.0
230
1.0
 40
0.0000340912
 41
0.0
 42
0.4405773292209479
  0
ELLIPSE
  5
28F
330
228
100
AcDbEntity
  8
$DDT_AUDIT_GENERATED_(E7)
  6
Continuous
 62
     7
100
AcDbEllipse
 10
197.1061932812
 20
315.9505124935
 30
0.0
 11
21.99999999999736
 21
0.0
 31
0.0
210
0.0
220
0.0
230
1.0
 40
0.0000340912
 41
3.142066321823839
 42
6.283185307179586
  0
ARC
  5
290
330
228
100
AcDbEntity
  8
$DDT_AUDIT_GENERATED_(E7)
  6
Continuous
 62
     7
100
AcDbCircle
 10
185.2862761039
 20
2370.8350478453
 30
0.0
 40
2050.917794961463
100
AcDbArc
 50
269.673695811
 51
270.022881091
  0
ELLIPSE
  5
291
330
228
100
AcDbEntity
  8
$DDT_AUDIT_GENERATED_(E7)
  6
Continuous
 62
     7
100
AcDbEllipse
 10
197.1061932812
 20
319.9505124912
 30
0.0
 11
26.99999999999676
 21
0.0
 31
0.0
210
0.0
220
0.0
230
1.0
 40
0.0000340912
 41
3.141455548508402
 42
6.28292490822389
  0
ELLIPSE
  5
292
330
228
100
AcDbEntity
  8
$DDT_AUDIT_GENERATED_(E7)
  6
Continuous
 62
     7
100
AcDbEllipse
 10
197.1061932812
 20
325.9505124877
 30
0.0
 11
27.50000000000001
 21
-6.938893903907228E-15
 31
0.0
210
0.0
220
0.0
230
1.0
 40
0.0000340912
 41
2.667120917750322
 42
6.283185307179586
  0
ELLIPSE
  5
293
330
228
100
AcDbEntity
  8
$DDT_AUDIT_GENERATED_(E7)
  6
Continuous
 62
     7
100
AcDbEllipse
 10
197.1061932812
 20
325.9505124877
 30
0.0
 11
27.50000000000001
 21
-6.938893903907228E-15
 31
0.0
210
0.0
220
0.0
230
1.0
 40
0.0000340912
 41
0.0
 42
0.4763898432713473
  0
ELLIPSE
  5
294
330
228
100
AcDbEntity
  8
$DDT_AUDIT_GENERATED_(E7)
  6
Continuous
 62
     7
100
AcDbEllipse
 10
197.1061932812
 20
325.9505124877
 30
0.0
 11
25.87803569939752
 21
0.0
 31
0.0
210
0.0
220
0.0
230
1.0
 40
0.0000340912
 41
2.815845899436984
 42
6.283185307179586
  0
ELLIPSE
  5
295
330
228
100
AcDbEntity
  8
$DDT_AUDIT_GENERATED_(E7)
  6
Continuous
 62
     7
100
AcDbEllipse
 10
197.1061932812
 20
325.9505124877
 30
0.0
 11
25.87803569939752
 21
0.0
 31
0.0
210
0.0
220
0.0
230
1.0
 40
0.0000340912
 41
0.0
 42
0.3278674550763411
  0
ELLIPSE
  5
296
330
228
100
AcDbEntity
  8
$DDT_AUDIT_GENERATED_(E7)
  6
Continuous
 62
     7
100
AcDbEllipse
 10
197.1061932812
 20
113.0843676299
 30
0.0
 11
11.50000000000001
 21
0.0
 31
0.0
210
0.0
220
0.0
230
1.0
 40
0.9063221941
 41
3.141592653589793
 42
6.283185307179586
  0
LINE
  5
297
330
228
100
AcDbEntity
  8
$DDT_AUDIT_GENERATED_(E7)
  6
Continuous
 62
     7
100
AcDbLine
 10
185.6061932812
 20
115.1948366055
 30
0.0
 11
185.6061932812
 21
113.0843676299
 31
0.0
  0
LINE
  5
298
330
228
100
AcDbEntity
  8
$DDT_AUDIT_GENERATED_(E7)
  6
Continuous
 62
     7
100
AcDbLine
 10
208.6061932812
 20
113.0843676299
 30
0.0
 11
208.6061932812
 21
115.1931144422
 31
0.0
  0
LINE
  5
299
330
228
100
AcDbEntity
  8
$DDT_AUDIT_GENERATED_(E7)
  6
Continuous
 62
     7
100
AcDbLine
 10
185.6061932812
 20
151.445509819
 30
0.0
 11
185.6061932812
 21
115.1948366055
 31
0.0
  0
LINE
  5
29A
330
228
100
AcDbEntity
  8
$DDT_AUDIT_GENERATED_(E7)
  6
Continuous
 62
     7
100
AcDbLine
 10
208.6061932812
 20
115.1931144422
 30
0.0
 11
208.6061932812
 21
151.445509819
 31
0.0
  0
LINE
  5
29B
330
228
100
AcDbEntity
  8
$DDT_AUDIT_GENERATED_(E7)
  6
Continuous
 62
     7
100
AcDbLine
 10
185.6061932812
 20
270.9505125196
 30
0.0
 11
185.6061932812
 21
151.445509819
 31
0.0
  0
LINE
  5
29C
330
228
100
AcDbEntity
  8
$DDT_AUDIT_GENERATED_(E7)
  6
Continuous
 62
     7
100
AcDbLine
 10
208.6061932812
 20
151.445509819
 30
0.0
 11
208.6061932812
 21
270.9505125196
 31
0.0
  0
ARC
  5
29D
330
228
100
AcDbEntity
  8
$DDT_AUDIT_GENERATED_(E7)
  6
Continuous
 62
     7
100
AcDbCircle
 10
184.6249468512
 20
270.9621649425
 30
0.0
 40
0.9785373772460788
100
AcDbArc
 50
359.4823450935
 51
72.3163574351
  0
ARC
  5
29E
330
228
100
AcDbEntity
  8
$DDT_AUDIT_GENERATED_(E7)
  6
Continuous
 62
     7
100
AcDbCircle
 10
209.5997083106
 20
270.9525473904
 30
0.0
 40
0.9935171132932425
100
AcDbArc
 50
107.8916452671
 51
180.1173503587
  0
ARC
  5
29F
330
228
100
AcDbEntity
  8
$DDT_AUDIT_GENERATED_(E7)
  6
Continuous
 62
     7
100
AcDbCircle
 10
211.6140523171
 20
272.4478446368
 30
0.0
 40
0.492148195317094
100
AcDbArc
 50
288.0948362935
 51
0.3105957262
  0
SPLINE
  5
2A0
330
228
100
AcDbEntity
  8
$DDT_AUDIT_GENERATED_(E7)
  6
Continuous
 62
     7
100
AcDbSpline
210
0.0
220
0.0
230
1.0
 70
     8
 71
     3
 72
    14
 73
    10
 74
     0
 42
0.0000000145874692
 43
0.0000000001
 40
0.0
 40
0.0
 40
0.0
 40
0.0
 40
0.071044605402421
 40
0.3347702530359343
 40
0.5440533313342046
 40
0.7197415039783575
 40
0.8674751601812115
 40
0.9872871737780858
 40
1.0
 40
1.0
 40
1.0
 40
1.0
 10
182.1127388109065
 20
272.4622160142798
 30
0.0
 10
182.1101536508518
 20
272.4447937666077
 30
0.0
 10
182.1001371079099
 20
272.3740510933831
 30
0.0
 10
182.1413041519011
 20
272.2482520205368
 30
0.0
 10
182.2187646889639
 20
272.1251569667368
 30
0.0
 10
182.3093301763481
 20
272.0430459451971
 30
0.0
 10
182.3958577610073
 20
271.9944974297013
 30
0.0
 10
182.4573198853461
 20
271.9710189955008
 30
0.0
 10
182.4850617641679
 20
271.9656960730309
 30
0.0
 10
182.4881565140147
 20
271.965107259789
 30
0.0
  0
LINE
  5
2A1
330
228
100
AcDbEntity
  8
$DDT_AUDIT_GENERATED_(E7)
  6
Continuous
 62
     7
100
AcDbLine
 10
182.1061932812
 20
274.9505125173
 30
0.0
 11
182.1061932812
 21
272.4505125188
 31
0.0
  0
LINE
  5
2A2
330
228
100
AcDbEntity
  8
$DDT_AUDIT_GENERATED_(E7)
  6
Continuous
 62
     7
100
AcDbLine
 10
212.1061932812
 20
272.4505125188
 30
0.0
 11
212.1061932812
 21
274.9505125173
 31
0.0
  0
ARC
  5
2A3
330
228
100
AcDbEntity
  8
$DDT_AUDIT_GENERATED_(E7)
  6
Continuous
 62
     7
100
AcDbCircle
 10
181.1389871988
 20
274.9762862656
 30
0.0
 40
0.959073965558547
100
AcDbArc
 50
357.7500114331
 51
77.9918621557
  0
ARC
  5
2A4
330
228
100
AcDbEntity
  8
$DDT_AUDIT_GENERATED_(E7)
  6
Continuous
 62
     7
100
AcDbCircle
 10
213.1031905288
 20
274.9509552162
 30
0.0
 40
0.9969973458951705
100
AcDbArc
 50
103.3627671594
 51
180.0254411705
  0
ARC
  5
2A5
330
228
100
AcDbEntity
  8
$DDT_AUDIT_GENERATED_(E7)
  6
Continuous
 62
     7
100
AcDbCircle
 10
214.6309970062
 20
276.443793101
 30
0.0
 40
0.4752437799291372
100
AcDbArc
 50
305.7664012649
 51
0.8101252303
  0
ARC
  5
2A6
330
228
100
AcDbEntity
  8
$DDT_AUDIT_GENERATED_(E7)
  6
Continuous
 62
     7
100
AcDbCircle
 10
179.5922021988
 20
276.4327767404
 30
0.0
 40
0.4783997297026131
100
AcDbArc
 50
178.2673268711
 51
257.1381940046
  0
ARC
  5
2A7
330
228
100
AcDbEntity
  8
$DDT_AUDIT_GENERATED_(E7)
  6
Continuous
 62
     7
100
AcDbCircle
 10
178.1345095272
 20
314.9869507562
 30
0.0
 40
0.9563396251764684
100
AcDbArc
 50
357.6447111069
 51
77.7092798022
  0
ARC
  5
2A8
330
228
100
AcDbEntity
  8
$DDT_AUDIT_GENERATED_(E7)
  6
Continuous
 62
     7
100
AcDbCircle
 10
216.105339443
 20
314.9505172681
 30
0.0
 40
0.9991461617540552
100
AcDbArc
 50
105.4861535022
 51
180.0002737668
  0
ARC
  5
2A9
330
228
100
AcDbEntity
  8
$DDT_AUDIT_GENERATED_(E7)
  6
Continuous
 62
     7
100
AcDbCircle
 10
219.1385804071
 20
316.4405727983
 30
0.0
 40
0.4677185025229336
100
AcDbArc
 50
302.269546204
 51
1.2177098877
  0
SPLINE
  5
2AA
330
228
100
AcDbEntity
  8
$DDT_AUDIT_GENERATED_(E7)
  6
Continuous
 62
     7
100
AcDbSpline
210
0.0
220
0.0
230
1.0
 70
     8
 71
     3
 72
    13
 73
     9
 74
     0
 42
0.0000000150797735
 43
0.0000000001
 40
0.0
 40
0.0
 40
0.0
 40
0.0
 40
0.0427567030862632
 40
0.3256446000653216
 40
0.5477861873261906
 40
0.7333791132114155
 40
0.8898069972490813
 40
1.0
 40
1.0
 40
1.0
 40
1.0
 10
174.6107926976929
 20
316.4683220085902
 30
0.0
 10
174.6089014104276
 20
316.4582573611
 30
0.0
 10
174.596722373899
 20
316.3921494429944
 30
0.0
 10
174.6333381923024
 20
316.2673374959356
 30
0.0
 10
174.7081477886769
 20
316.1376870825008
 30
0.0
 10
174.7975808623895
 20
316.0519769633137
 30
0.0
 10
174.8840034298483
 20
315.9989809827123
 30
0.0
 10
174.93534630461
 20
315.981365575589
 30
0.0
 10
174.9604074465646
 20
315.9730968798607
 30
0.0
  0
LINE
  5
2AB
330
228
100
AcDbEntity
  8
$DDT_AUDIT_GENERATED_(E7)
  6
Continuous
 62
     7
100
AcDbLine
 10
174.6061932812
 20
318.9505124917
 30
0.0
 11
174.6061932812
 21
316.4505124932
 31
0.0
  0
LINE
  5
2AC
330
228
100
AcDbEntity
  8
$DDT_AUDIT_GENERATED_(E7)
  6
Continuous
 62
     7
100
AcDbLine
 10
219.6061932812
 20
316.4505124932
 30
0.0
 11
219.6061932812
 21
318.9505124917
 31
0.0
  0
ARC
  5
2AD
330
228
100
AcDbEntity
  8
$DDT_AUDIT_GENERATED_(E7)
  6
Continuous
 62
     7
100
AcDbCircle
 10
173.6123584002
 20
318.9522211983
 30
0.0
 40
0.9938363498717938
100
AcDbArc
 50
359.9014911033
 51
76.905145141
  0
ARC
  5
2AE
330
228
100
AcDbEntity
  8
$DDT_AUDIT_GENERATED_(E7)
  6
Continuous
 62
     7
100
AcDbCircle
 10
220.5857703472
 20
318.9752639874
 30
0.0
 40
0.9693226519456908
100
AcDbArc
 50
105.5150114882
 51
182.3445900581
  0
ARC
  5
2AF
330
228
100
AcDbEntity
  8
$DDT_AUDIT_GENERATED_(E7)
  6
Continuous
 62
     7
100
AcDbCircle
 10
170.0957593154
 20
320.4374763365
 30
0.0
 40
0.4838872920254201
100
AcDbArc
 50
180.5908861068
 51
257.2081612393
  0
SPLINE
  5
2B0
330
228
100
AcDbEntity
  8
$DDT_AUDIT_GENERATED_(E7)
  6
Continuous
 62
     7
100
AcDbSpline
210
0.0
220
0.0
230
1.0
 70
     8
 71
     3
 72
    12
 73
     8
 74
     0
 42
0.0000000146323863
 43
0.0000000001
 40
0.0
 40
0.0
 40
0.0
 40
0.0
 40
0.168577764382751
 40
0.4029706395171667
 40
0.6799974782319385
 40
0.9483612473749801
 40
1.0
 40
1.0
 40
1.0
 40
1.0
 10
224.2341680336901
 20
319.9698575699589
 30
0.0
 10
224.2738489726575
 20
319.9816703212825
 30
0.0
 10
224.3543064538576
 20
320.007223273745
 30
0.0
 10
224.4808826626213
 20
320.1044216684432
 30
0.0
 10
224.5735619314998
 20
320.2500389021877
 30
0.0
 10
224.615235828746
 20
320.3888813243132
 30
0.0
 10
224.6028075260799
 20
320.4554814942666
 30
0.0
 10
224.6004226964093
 20
320.4679402653928
 30
0.0
  0
LINE
  5
2B1
330
228
100
AcDbEntity
  8
$DDT_AUDIT_GENERATED_(E7)
  6
Continuous
 62
     7
100
AcDbLine
 10
169.6061932812
 20
325.9505124877
 30
0.0
 11
169.6061932812
 21
320.4505124909
 31
0.0
  0
LINE
  5
2B2
330
228
100
AcDbEntity
  8
$DDT_AUDIT_GENERATED_(E7)
  6
Continuous
 62
     7
100
AcDbLine
 10
224.6061932812
 20
320.4505124909
 30
0.0
 11
224.6061932812
 21
325.9505124877
 31
0.0
  0
LINE
  5
2B3
330
228
100
AcDbEntity
  8
$DDT_AUDIT_GENERATED_(E7)
  6
Continuous
 62
     7
100
AcDbLine
 10
179.1061932812
 20
314.9505124941
 30
0.0
 11
179.1061932812
 21
276.4505125164
 31
0.0
  0
LINE
  5
2B4
330
228
100
AcDbEntity
  8
$DDT_AUDIT_GENERATED_(E7)
  6
Continuous
 62
     7
100
AcDbLine
 10
215.1061932812
 20
276.4505125164
 30
0.0
 11
215.1061932812
 21
314.9505124941
 31
0.0
  0
ELLIPSE
  5
2B5
330
228
100
AcDbEntity
  8
$DDT_AUDIT_GENERATED_(104)
  6
Continuous
 62
     7
100
AcDbEllipse
 10
197.1061932812
 20
106.3229698005
 30
0.0
 11
11.57500000000001
 21
2.389976496293363E-31
 31
0.0
210
0.0
220
0.0
230
1.0
 40
0.9063221941
 41
3.141592653589793
 42
3.655143024853615
  0
ELLIPSE
  5
2B6
330
228
100
AcDbEntity
  8
$DDT_AUDIT_GENERATED_(104)
  6
Continuous
 62
     7
100
AcDbEllipse
 10
197.1061932812
 20
106.3229698005
 30
0.0
 11
11.57500000000001
 21
2.389976496293363E-31
 31
0.0
210
0.0
220
0.0
230
1.0
 40
0.9063221941
 41
5.752494049368415
 42
6.283185307179586
  0
ELLIPSE
  5
2B7
330
228
100
AcDbEntity
  8
$DDT_AUDIT_GENERATED_(104)
  6
Continuous
 62
     7
100
AcDbEllipse
 10
197.1061932812
 20
113.0209795253
 30
0.0
 11
11.57500000000001
 21
0.0
 31
0.0
210
0.0
220
0.0
230
1.0
 40
0.9063221941
 41
3.141592653589793
 42
6.283185307179586
  0
LINE
  5
2B8
330
228
100
AcDbEntity
  8
$DDT_AUDIT_GENERATED_(104)
  6
Continuous
 62
     7
100
AcDbLine
 10
208.6811932812
 20
106.3229698005
 30
0.0
 11
208.6811932812
 21
113.0209795253
 31
0.0
  0
LINE
  5
2B9
330
228
100
AcDbEntity
  8
$DDT_AUDIT_GENERATED_(104)
  6
Continuous
 62
     7
100
AcDbLine
 10
185.5311932812
 20
113.0209795253
 30
0.0
 11
185.5311932812
 21
106.3229698005
 31
0.0
  0
ARC
  5
2BA
330
228
100
AcDbEntity
  8
$DDT_AUDIT_GENERATED_(104)
  6
Continuous
 62
     7
100
AcDbCircle
 10
197.1020527295
 20
107.8621988697
 30
0.0
 40
12.11587217485964
100
AcDbArc
 50
213.9793044881
 51
325.1602162139
  0
ENDBLK
  5
2BC
330
228
100
AcDbEntity
  8
0
100
AcDbBlockEnd
  0
ENDSEC
  0
SECTION
  2
ENTITIES
  0
INSERT
  5
5F
330
1F
100
AcDbEntity
  8
Default
100
AcDbBlockReference
  2
SEANNOT_GROUP
 10
0.0
 20
0.0
 30
0.0
  0
INSERT
  5
6A
330
1F
100
AcDbEntity
  8
Default
100
AcDbBlockReference
  2
SEANNOT_GROUP1
 10
0.0
 20
0.0
 30
0.0
  0
INSERT
  5
74
330
1F
100
AcDbEntity
  8
Default
100
AcDbBlockReference
  2
SEANNOT_GROUP2
 10
0.0
 20
0.0
 30
0.0
  0
INSERT
  5
7E
330
1F
100
AcDbEntity
  8
Default
100
AcDbBlockReference
  2
SEANNOT_GROUP3
 10
0.0
 20
0.0
 30
0.0
  0
INSERT
  5
84
330
1F
100
AcDbEntity
  8
Default
100
AcDbBlockReference
  2
SEANNOT_GROUP4
 10
0.0
 20
0.0
 30
0.0
  0
INSERT
  5
8A
330
1F
100
AcDbEntity
  8
Default
100
AcDbBlockReference
  2
SEANNOT_GROUP5
 10
0.0
 20
0.0
 30
0.0
  0
INSERT
  5
94
330
1F
100
AcDbEntity
  8
Default
100
AcDbBlockReference
  2
SEANNOT_GROUP6
 10
0.0
 20
0.0
 30
0.0
  0
INSERT
  5
9A
330
1F
100
AcDbEntity
  8
Default
100
AcDbBlockReference
  2
SE
 10
0.0
 20
0.0
 30
0.0
  0
INSERT
  5
1D1
330
1F
100
AcDbEntity
  8
Default
100
AcDbBlockReference
  2
SE1
 10
0.0
 20
0.0
 30
0.0
  0
INSERT
  5
229
330
1F
100
AcDbEntity
  8
Default
100
AcDbBlockReference
  2
SE2
 10
0.0
 20
0.0
 30
0.0
  0
TEXT
  5
2BE
330
1F
100
AcDbEntity
  8
Default
  6
Continuous
 62
     7
100
AcDbText
 10
5.9362635081
 20
53.4225120485
 30
0.0
 40
10.0
  1
Grohe AG^J
  7
SEACAD_seiso_ttf
 11
5.9362635081
 21
63.4225120485
 31
0.0
100
AcDbText
 73
     3
  0
TEXT
  5
2BF
330
1F
100
AcDbEntity
  8
Default
  6
Continuous
 62
     7
100
AcDbText
 10
5.9362635081
 20
37.0588756849
 30
0.0
 40
10.0
  1
 
  7
SEACAD_seiso_ttf
 11
5.9362635081
 21
47.0588756849
 31
0.0
100
AcDbText
 73
     3
  0
TEXT
  5
2C0
330
1F
100
AcDbEntity
  8
Default
  6
Continuous
 62
     7
100
AcDbText
 10
5.9362635081
 20
20.6952393213
 30
0.0
 40
10.0
  1
ecn:
  7
SEACAD_seiso_ttf
 11
5.9362635081
 21
30.6952393213
 31
0.0
100
AcDbText
 73
     3
  0
TEXT
  5
2C1
330
1F
100
AcDbEntity
  8
Default
  6
Continuous
 62
     7
100
AcDbText
 10
5.9362635081
 20
4.3316029576
 30
0.0
 40
10.0
  1
unit: mm
  7
SEACAD_seiso_ttf
 11
5.9362635081
 21
14.3316029576
 31
0.0
100
AcDbText
 73
     3
  0
LINE
  5
2C2
330
1F
100
AcDbEntity
  8
Default
  6
Continuous
 62
     7
100
AcDbLine
 10
0.0
 20
0.0
 30
0.0
 11
100.0
 21
0.0
 31
0.0
  0
LINE
  5
2C3
330
1F
100
AcDbEntity
  8
Default
  6
Continuous
 62
     7
100
AcDbLine
 10
0.0
 20
0.0
 30
0.0
 11
0.0
 21
100.0
 31
0.0
  0
TEXT
  5
2C4
330
1F
100
AcDbEntity
  8
Default
  6
Continuous
 62
     7
100
AcDbText
 10
24.3923665681
 20
-18.2375342018
 30
0.0
 40
10.0
  1
100 mm
  7
SEACAD_seiso_ttf
 11
24.3923665681
 21
-8.2375342018
 31
0.0
100
AcDbText
 73
     3
  0
TEXT
  5
2C5
330
1F
100
AcDbEntity
  8
Default
  6
Continuous
 62
     7
100
AcDbText
 10
-7.6150308803
 20
24.6231930421
 30
0.0
 40
10.0
  1
100 mm
 50
90.0
  7
SEACAD_seiso_ttf
 11
-17.6150308803
 21
24.6231930421
 31
0.0
100
AcDbText
 73
     3
  0
TEXT
  5
2C6
330
1F
100
AcDbEntity
  8
Default
  6
Continuous
 62
     7
100
AcDbText
 10
28.4878128572
 20
20.0907663715
 30
0.0
 40
10.0
  1
221779
  7
SEACAD_seiso_ttf
 11
28.4878128572
 21
30.0907663715
 31
0.0
100
AcDbText
 73
     3
  0
TEXT
  5
2C7
330
1F
100
AcDbEntity
  8
Default
  6
Continuous
 62
     7
100
AcDbText
 10
5.9012241913
 20
36.7242780188
 30
0.0
 40
10.0
  1
20387000
  7
SEACAD_seiso_ttf
 11
5.9012241913
 21
46.7242780188
 31
0.0
100
AcDbText
 73
     3
  0
ENDSEC
  0
SECTION
  2
OBJECTS
  0
DICTIONARY
  5
C
330
0
100
AcDbDictionary
281
     1
  3
ACAD_GROUP
350
D
  3
ACAD_LAYOUT
350
1A
  3
ACAD_MLEADERSTYLE
350
2CB
  3
ACAD_MLINESTYLE
350
17
  3
ACAD_PLOTSETTINGS
350
19
  3
ACAD_PLOTSTYLENAME
350
E
  3
ACAD_SCALELIST
350
3B
  3
ACAD_TABLESTYLE
350
2CA
  3
ACAD_VISUALSTYLE
350
2A
  3
AcDbVariableDictionary
350
2C8
  0
DICTIONARY
  5
D
102
{ACAD_REACTORS
330
C
102
}
330
C
100
AcDbDictionary
281
     1
  0
DICTIONARY
  5
1A
102
{ACAD_REACTORS
330
C
102
}
330
C
100
AcDbDictionary
281
     1
  3
Layout1
350
1E
  3
Model
350
22
  0
DICTIONARY
  5
2CB
102
{ACAD_REACTORS
330
C
102
}
330
C
100
AcDbDictionary
281
     1
  0
DICTIONARY
  5
17
102
{ACAD_REACTORS
330
C
102
}
330
C
100
AcDbDictionary
281
     1
  3
Standard
350
18
  0
DICTIONARY
  5
19
102
{ACAD_REACTORS
330
C
102
}
330
C
100
AcDbDictionary
281
     1
  0
ACDBDICTIONARYWDFLT
  5
E
102
{ACAD_REACTORS
330
C
102
}
330
C
100
AcDbDictionary
281
     1
  3
Normal
350
F
100
AcDbDictionaryWithDefault
340
F
  0
DICTIONARY
  5
3B
102
{ACAD_REACTORS
330
C
102
}
330
C
100
AcDbDictionary
281
     1
  3
A0
350
3C
  3
A1
350
3D
  3
A2
350
3E
  3
A3
350
3F
  3
A4
350
40
  3
A5
350
41
  3
A6
350
42
  3
A7
350
43
  3
A8
350
44
  3
A9
350
45
  3
B0
350
46
  3
B1
350
47
  3
B2
350
48
  3
B3
350
49
  3
B4
350
4A
  3
B5
350
4B
  3
B6
350
4C
  3
B7
350
4D
  3
B8
350
4E
  3
B9
350
4F
  3
C0
350
50
  3
C1
350
51
  3
C2
350
52
  3
C3
350
53
  3
C4
350
54
  3
C5
350
55
  3
C6
350
56
  3
C7
350
57
  3
C8
350
58
  3
C9
350
59
  3
D0
350
5A
  3
D1
350
5B
  3
D2
350
5C
  0
DICTIONARY
  5
2CA
102
{ACAD_REACTORS
330
C
102
}
330
C
100
AcDbDictionary
281
     1
  0
DICTIONARY
  5
2A
102
{ACAD_REACTORS
330
C
102
}
330
C
100
AcDbDictionary
281
     1
  3
2dWireframe
350
2F
  3
3D Hidden
350
31
  3
3dWireframe
350
30
  3
Basic
350
32
  3
Brighten
350
36
  3
ColorChange
350
3A
  3
Conceptual
350
34
  3
Dim
350
35
  3
Facepattern
350
39
  3
Flat
350
2B
  3
FlatWithEdges
350
2C
  3
Gouraud
350
2D
  3
GouraudWithEdges
350
2E
  3
Linepattern
350
38
  3
Realistic
350
33
  3
Thicken
350
37
  0
DICTIONARY
  5
2C8
102
{ACAD_REACTORS
330
C
102
}
330
C
100
AcDbDictionary
281
     1
  3
CANNOSCALE
350
2C9
  3
PSOLHEIGHT
350
2CD
  3
PSOLWIDTH
350
2CC
  0
LAYOUT
  5
1E
102
{ACAD_REACTORS
330
1A
102
}
330
1A
100
AcDbPlotSettings
  1

  2
none_device
  4

  6

 40
0.0
 41
0.0
 42
0.0
 43
0.0
 44
0.0
 45
0.0
 46
0.0
 47
0.0
 48
0.0
 49
0.0
140
0.0
141
0.0
142
1.0
143
1.0
 70
   688
 72
     0
 73
     0
 74
     5
  7

 75
    16
147
1.0
148
0.0
149
0.0
100
AcDbLayout
  1
Layout1
 70
     1
 71
     1
 10
0.0
 20
0.0
 11
3000.0
 21
4500.0
 12
0.0
 22
0.0
 32
0.0
 14
0.0
 24
0.0
 34
0.0
 15
3000.0
 25
4500.0
 35
0.0
146
0.0
 13
0.0
 23
0.0
 33
0.0
 16
1.0
 26
0.0
 36
0.0
 17
0.0
 27
1.0
 37
0.0
 76
     0
330
1B
  0
LAYOUT
  5
22
102
{ACAD_REACTORS
330
1A
102
}
330
1A
100
AcDbPlotSettings
  1

  2
none_device
  4

  6

 40
0.0
 41
0.0
 42
0.0
 43
0.0
 44
0.0
 45
0.0
 46
0.0
 47
0.0
 48
0.0
 49
0.0
140
0.0
141
0.0
142
1.0
143
1.0
 70
  1712
 72
     0
 73
     0
 74
     0
  7

 75
     0
147
1.0
148
0.0
149
0.0
100
AcDbLayout
  1
Model
 70
     1
 71
     0
 10
0.0
 20
0.0
 11
3000.0
 21
4500.0
 12
0.0
 22
0.0
 32
0.0
 14
0.0
 24
0.0
 34
0.0
 15
3000.0
 25
4500.0
 35
0.0
146
0.0
 13
0.0
 23
0.0
 33
0.0
 16
1.0
 26
0.0
 36
0.0
 17
0.0
 27
1.0
 37
0.0
 76
     0
330
1F
331
29
  0
MLINESTYLE
  5
18
102
{ACAD_REACTORS
330
17
102
}
330
17
100
AcDbMlineStyle
  2
Standard
 70
     0
  3

 62
   256
 51
90.0
 52
90.0
 71
     2
 49
0.5
 62
   256
  6
BYLAYER
 49
-0.5
 62
   256
  6
BYLAYER
  0
ACDBPLACEHOLDER
  5
F
102
{ACAD_REACTORS
330
E
102
}
330
E
  0
SCALE
  5
3C
102
{ACAD_REACTORS
330
3B
102
}
330
3B
100
AcDbScale
 70
     0
300
1:1
140
1.0
141
1.0
290
     1
  0
SCALE
  5
3D
102
{ACAD_REACTORS
330
3B
102
}
330
3B
100
AcDbScale
 70
     0
300
1:2
140
1.0
141
2.0
290
     0
  0
SCALE
  5
3E
102
{ACAD_REACTORS
330
3B
102
}
330
3B
100
AcDbScale
 70
     0
300
1:4
140
1.0
141
4.0
290
     0
  0
SCALE
  5
3F
102
{ACAD_REACTORS
330
3B
102
}
330
3B
100
AcDbScale
 70
     0
300
1:5
140
1.0
141
5.0
290
     0
  0
SCALE
  5
40
102
{ACAD_REACTORS
330
3B
102
}
330
3B
100
AcDbScale
 70
     0
300
1:8
140
1.0
141
8.0
290
     0
  0
SCALE
  5
41
102
{ACAD_REACTORS
330
3B
102
}
330
3B
100
AcDbScale
 70
     0
300
1:10
140
1.0
141
10.0
290
     0
  0
SCALE
  5
42
102
{ACAD_REACTORS
330
3B
102
}
330
3B
100
AcDbScale
 70
     0
300
1:16
140
1.0
141
16.0
290
     0
  0
SCALE
  5
43
102
{ACAD_REACTORS
330
3B
102
}
330
3B
100
AcDbScale
 70
     0
300
1:20
140
1.0
141
20.0
290
     0
  0
SCALE
  5
44
102
{ACAD_REACTORS
330
3B
102
}
330
3B
100
AcDbScale
 70
     0
300
1:30
140
1.0
141
30.0
290
     0
  0
SCALE
  5
45
102
{ACAD_REACTORS
330
3B
102
}
330
3B
100
AcDbScale
 70
     0
300
1:40
140
1.0
141
40.0
290
     0
  0
SCALE
  5
46
102
{ACAD_REACTORS
330
3B
102
}
330
3B
100
AcDbScale
 70
     0
300
1:50
140
1.0
141
50.0
290
     0
  0
SCALE
  5
47
102
{ACAD_REACTORS
330
3B
102
}
330
3B
100
AcDbScale
 70
     0
300
1:100
140
1.0
141
100.0
290
     0
  0
SCALE
  5
48
102
{ACAD_REACTORS
330
3B
102
}
330
3B
100
AcDbScale
 70
     0
300
2:1
140
2.0
141
1.0
290
     0
  0
SCALE
  5
49
102
{ACAD_REACTORS
330
3B
102
}
330
3B
100
AcDbScale
 70
     0
300
4:1
140
4.0
141
1.0
290
     0
  0
SCALE
  5
4A
102
{ACAD_REACTORS
330
3B
102
}
330
3B
100
AcDbScale
 70
     0
300
8:1
140
8.0
141
1.0
290
     0
  0
SCALE
  5
4B
102
{ACAD_REACTORS
330
3B
102
}
330
3B
100
AcDbScale
 70
     0
300
10:1
140
10.0
141
1.0
290
     0
  0
SCALE
  5
4C
102
{ACAD_REACTORS
330
3B
102
}
330
3B
100
AcDbScale
 70
     0
300
100:1
140
100.0
141
1.0
290
     0
  0
SCALE
  5
4D
102
{ACAD_REACTORS
330
3B
102
}
330
3B
100
AcDbScale
 70
     0
300
1/128" = 1'-0"
140
0.0078125
141
12.0
290
     0
  0
SCALE
  5
4E
102
{ACAD_REACTORS
330
3B
102
}
330
3B
100
AcDbScale
 70
     0
300
1/64" = 1'-0"
140
0.015625
141
12.0
290
     0
  0
SCALE
  5
4F
102
{ACAD_REACTORS
330
3B
102
}
330
3B
100
AcDbScale
 70
     0
300
1/32" = 1'-0"
140
0.03125
141
12.0
290
     0
  0
SCALE
  5
50
102
{ACAD_REACTORS
330
3B
102
}
330
3B
100
AcDbScale
 70
     0
300
1/16" = 1'-0"
140
0.0625
141
12.0
290
     0
  0
SCALE
  5
51
102
{ACAD_REACTORS
330
3B
102
}
330
3B
100
AcDbScale
 70
     0
300
3/32" = 1'-0"
140
0.09375
141
12.0
290
     0
  0
SCALE
  5
52
102
{ACAD_REACTORS
330
3B
102
}
330
3B
100
AcDbScale
 70
     0
300
1/8" = 1'-0"
140
0.125
141
12.0
290
     0
  0
SCALE
  5
53
102
{ACAD_REACTORS
330
3B
102
}
330
3B
100
AcDbScale
 70
     0
300
3/16" = 1'-0"
140
0.1875
141
12.0
290
     0
  0
SCALE
  5
54
102
{ACAD_REACTORS
330
3B
102
}
330
3B
100
AcDbScale
 70
     0
300
1/4" = 1'-0"
140
0.25
141
12.0
290
     0
  0
SCALE
  5
55
102
{ACAD_REACTORS
330
3B
102
}
330
3B
100
AcDbScale
 70
     0
300
3/8" = 1'-0"
140
0.375
141
12.0
290
     0
  0
SCALE
  5
56
102
{ACAD_REACTORS
330
3B
102
}
330
3B
100
AcDbScale
 70
     0
300
1/2" = 1'-0"
140
0.5
141
12.0
290
     0
  0
SCALE
  5
57
102
{ACAD_REACTORS
330
3B
102
}
330
3B
100
AcDbScale
 70
     0
300
3/4" = 1'-0"
140
0.75
141
12.0
290
     0
  0
SCALE
  5
58
102
{ACAD_REACTORS
330
3B
102
}
330
3B
100
AcDbScale
 70
     0
300
1" = 1'-0"
140
1.0
141
12.0
290
     0
  0
SCALE
  5
59
102
{ACAD_REACTORS
330
3B
102
}
330
3B
100
AcDbScale
 70
     0
300
1-1/2" = 1'-0"
140
1.5
141
12.0
290
     0
  0
SCALE
  5
5A
102
{ACAD_REACTORS
330
3B
102
}
330
3B
100
AcDbScale
 70
     0
300
3" = 1'-0"
140
3.0
141
12.0
290
     0
  0
SCALE
  5
5B
102
{ACAD_REACTORS
330
3B
102
}
330
3B
100
AcDbScale
 70
     0
300
6" = 1'-0"
140
6.0
141
12.0
290
     0
  0
SCALE
  5
5C
102
{ACAD_REACTORS
330
3B
102
}
330
3B
100
AcDbScale
 70
     0
300
1'-0" = 1'-0"
140
12.0
141
12.0
290
     0
  0
VISUALSTYLE
  5
2F
102
{ACAD_REACTORS
330
2A
102
}
330
2A
100
AcDbVisualStyle
  2
2dWireframe
 70
     4
 71
     0
 72
     2
 73
     0
 90
        0
 40
-0.6
 41
-30.0
 62
     5
 63
     7
 74
     1
 91
        4
 64
     7
 65
   257
 75
     1
175
     1
 42
1.0
 92
        0
 66
   257
 43
1.0
 76
     1
 77
     6
 78
     2
 67
     7
 79
     5
170
     0
171
     0
290
     0
174
     0
 93
        1
 44
0.0
173
     0
291
     0
 45
0.0
1001
ACAD
1000
AcDbSavedByObjectVersion
1070
     0
  0
VISUALSTYLE
  5
31
102
{ACAD_REACTORS
330
2A
102
}
330
2A
100
AcDbVisualStyle
  2
3D Hidden
 70
     6
 71
     1
 72
     2
 73
     2
 90
        0
 40
-0.6
 41
-30.0
 62
     5
 63
     7
 74
     2
 91
        2
 64
     7
 65
   257
 75
     2
175
     1
 42
40.0
 92
        0
 66
   257
 43
1.0
 76
     1
 77
     6
 78
     2
 67
     7
 79
     3
170
     0
171
     0
290
     0
174
     0
 93
        1
 44
0.0
173
     0
291
     0
 45
0.0
1001
ACAD
1000
AcDbSavedByObjectVersion
1070
     0
  0
VISUALSTYLE
  5
30
102
{ACAD_REACTORS
330
2A
102
}
330
2A
100
AcDbVisualStyle
  2
3dWireframe
 70
     5
 71
     0
 72
     2
 73
     0
 90
        0
 40
-0.6
 41
-30.0
 62
     5
 63
     7
 74
     1
 91
        4
 64
     7
 65
   257
 75
     1
175
     1
 42
1.0
 92
        0
 66
   257
 43
1.0
 76
     1
 77
     6
 78
     2
 67
     7
 79
     5
170
     0
171
     0
290
     0
174
     0
 93
        1
 44
0.0
173
     0
291
     0
 45
0.0
1001
ACAD
1000
AcDbSavedByObjectVersion
1070
     0
  0
VISUALSTYLE
  5
32
102
{ACAD_REACTORS
330
2A
102
}
330
2A
100
AcDbVisualStyle
  2
Basic
 70
     7
 71
     1
 72
     0
 73
     1
 90
        0
 40
-0.6
 41
-30.0
 62
     5
 63
     7
 74
     0
 91
        4
 64
     7
 65
   257
 75
     1
175
     1
 42
1.0
 92
        8
 66
     7
 43
1.0
 76
     1
 77
     6
 78
     2
 67
     7
 79
     5
170
     0
171
     0
290
     0
174
     0
 93
        1
 44
0.0
173
     0
291
     1
 45
0.0
1001
ACAD
1000
AcDbSavedByObjectVersion
1070
     0
  0
VISUALSTYLE
  5
36
102
{ACAD_REACTORS
330
2A
102
}
330
2A
100
AcDbVisualStyle
  2
Brighten
 70
    12
 71
     2
 72
     2
 73
     0
 90
        0
 40
-0.6
 41
-30.0
 62
     5
 63
     7
 74
     1
 91
        4
 64
     7
 65
   257
 75
     1
175
     1
 42
1.0
 92
        8
 66
     7
 43
1.0
 76
     1
 77
     6
 78
     2
 67
     7
 79
     5
170
     0
171
     0
290
     0
174
     0
 93
        1
 44
50.0
173
     0
291
     1
 45
0.0
1001
ACAD
1000
AcDbSavedByObjectVersion
1070
     0
  0
VISUALSTYLE
  5
3A
102
{ACAD_REACTORS
330
2A
102
}
330
2A
100
AcDbVisualStyle
  2
ColorChange
 70
    16
 71
     2
 72
     2
 73
     3
 90
        0
 40
-0.6
 41
-30.0
 62
     5
 63
     8
 74
     1
 91
        4
 64
     7
 65
   257
 75
     1
175
     1
 42
1.0
 92
        8
 66
     8
 43
1.0
 76
     1
 77
     6
 78
     2
 67
     7
 79
     5
170
     0
171
     0
290
     0
174
     0
 93
        1
 44
0.0
173
     0
291
     1
 45
0.0
1001
ACAD
1000
AcDbSavedByObjectVersion
1070
     0
  0
VISUALSTYLE
  5
34
102
{ACAD_REACTORS
330
2A
102
}
330
2A
100
AcDbVisualStyle
  2
Conceptual
 70
     9
 71
     3
 72
     2
 73
     0
 90
        0
 40
-0.6
 41
-30.0
 62
     5
 63
     7
 74
     2
 91
        2
 64
     7
 65
   257
 75
     1
175
     1
 42
40.0
 92
        8
 66
     7
 43
1.0
 76
     1
 77
     6
 78
     2
 67
     7
 79
     3
170
     0
171
     0
290
     0
174
     0
 93
        1
 44
0.0
173
     0
291
     0
 45
0.0
1001
ACAD
1000
AcDbSavedByObjectVersion
1070
     0
  0
VISUALSTYLE
  5
35
102
{ACAD_REACTORS
330
2A
102
}
330
2A
100
AcDbVisualStyle
  2
Dim
 70
    11
 71
     2
 72
     2
 73
     0
 90
        0
 40
-0.6
 41
-30.0
 62
     5
 63
     7
 74
     1
 91
        4
 64
     7
 65
   257
 75
     1
175
     1
 42
1.0
 92
        8
 66
     7
 43
1.0
 76
     1
 77
     6
 78
     2
 67
     7
 79
     5
170
     0
171
     0
290
     0
174
     0
 93
        1
 44
-50.0
173
     0
291
     1
 45
0.0
1001
ACAD
1000
AcDbSavedByObjectVersion
1070
     0
  0
VISUALSTYLE
  5
39
102
{ACAD_REACTORS
330
2A
102
}
330
2A
100
AcDbVisualStyle
  2
Facepattern
 70
    15
 71
     2
 72
     2
 73
     0
 90
        0
 40
-0.6
 41
-30.0
 62
     5
 63
     7
 74
     1
 91
        4
 64
     7
 65
   257
 75
     1
175
     1
 42
1.0
 92
        8
 66
     7
 43
1.0
 76
     1
 77
     6
 78
     2
 67
     7
 79
     5
170
     0
171
     0
290
     0
174
     0
 93
        1
 44
0.0
173
     0
291
     1
 45
0.0
1001
ACAD
1000
AcDbSavedByObjectVersion
1070
     0
  0
VISUALSTYLE
  5
2B
102
{ACAD_REACTORS
330
2A
102
}
330
2A
100
AcDbVisualStyle
  2
Flat
 70
     0
 71
     2
 72
     1
 73
     1
 90
        2
 40
-0.6
 41
30.0
 62
     5
 63
     7
 74
     0
 91
        4
 64
     7
 65
   257
 75
     1
175
     1
 42
1.0
 92
        8
 66
     7
 43
1.0
 76
     1
 77
     6
 78
     2
 67
     7
 79
     5
170
     0
171
     0
290
     0
174
     0
 93
       13
 44
0.0
173
     0
291
     1
 45
0.0
1001
ACAD
1000
AcDbSavedByObjectVersion
1070
     0
  0
VISUALSTYLE
  5
2C
102
{ACAD_REACTORS
330
2A
102
}
330
2A
100
AcDbVisualStyle
  2
FlatWithEdges
 70
     1
 71
     2
 72
     1
 73
     1
 90
        2
 40
-0.6
 41
30.0
 62
     5
 63
     7
 74
     1
 91
        4
 64
     7
 65
   257
 75
     1
175
     1
 42
1.0
 92
        0
 66
   257
 43
1.0
 76
     1
 77
     6
 78
     2
 67
     7
 79
     5
170
     0
171
     0
290
     0
174
     0
 93
       13
 44
0.0
173
     0
291
     1
 45
0.0
1001
ACAD
1000
AcDbSavedByObjectVersion
1070
     0
  0
VISUALSTYLE
  5
2D
102
{ACAD_REACTORS
330
2A
102
}
330
2A
100
AcDbVisualStyle
  2
Gouraud
 70
     2
 71
     2
 72
     2
 73
     1
 90
        2
 40
-0.6
 41
30.0
 62
     5
 63
     7
 74
     0
 91
        4
 64
     7
 65
   257
 75
     1
175
     1
 42
1.0
 92
        0
 66
     7
 43
1.0
 76
     1
 77
     6
 78
     2
 67
     7
 79
     5
170
     0
171
     0
290
     0
174
     0
 93
       13
 44
0.0
173
     0
291
     1
 45
0.0
1001
ACAD
1000
AcDbSavedByObjectVersion
1070
     0
  0
VISUALSTYLE
  5
2E
102
{ACAD_REACTORS
330
2A
102
}
330
2A
100
AcDbVisualStyle
  2
GouraudWithEdges
 70
     3
 71
     2
 72
     2
 73
     1
 90
        2
 40
-0.6
 41
30.0
 62
     5
 63
     7
 74
     1
 91
        4
 64
     7
 65
   257
 75
     1
175
     1
 42
1.0
 92
        0
 66
   257
 43
1.0
 76
     1
 77
     6
 78
     2
 67
     7
 79
     5
170
     0
171
     0
290
     0
174
     0
 93
       13
 44
0.0
173
     0
291
     1
 45
0.0
1001
ACAD
1000
AcDbSavedByObjectVersion
1070
     0
  0
VISUALSTYLE
  5
38
102
{ACAD_REACTORS
330
2A
102
}
330
2A
100
AcDbVisualStyle
  2
Linepattern
 70
    14
 71
     2
 72
     2
 73
     0
 90
        0
 40
-0.6
 41
-30.0
 62
     5
 63
     7
 74
     1
 91
        4
 64
     7
 65
   257
 75
     7
175
     7
 42
1.0
 92
        8
 66
     7
 43
1.0
 76
     1
 77
     6
 78
     2
 67
     7
 79
     5
170
     0
171
     0
290
     0
174
     0
 93
        1
 44
0.0
173
     0
291
     1
 45
0.0
1001
ACAD
1000
AcDbSavedByObjectVersion
1070
     0
  0
VISUALSTYLE
  5
33
102
{ACAD_REACTORS
330
2A
102
}
330
2A
100
AcDbVisualStyle
  2
Realistic
 70
     8
 71
     2
 72
     2
 73
     0
 90
        0
 40
-0.6
 41
-30.0
 62
     5
 63
     7
 74
     1
 91
        0
 64
     7
 65
   257
 75
     1
175
     1
 42
1.0
 92
        8
 66
     8
 43
1.0
 76
     1
 77
     6
 78
     2
 67
     7
 79
     5
170
     0
171
     0
290
     0
174
     0
 93
       13
 44
0.0
173
     0
291
     0
 45
0.0
1001
ACAD
1000
AcDbSavedByObjectVersion
1070
     0
  0
VISUALSTYLE
  5
37
102
{ACAD_REACTORS
330
2A
102
}
330
2A
100
AcDbVisualStyle
  2
Thicken
 70
    13
 71
     2
 72
     2
 73
     0
 90
        0
 40
-0.6
 41
-30.0
 62
     5
 63
     7
 74
     1
 91
        4
 64
     7
 65
   257
 75
     1
175
     1
 42
1.0
 92
       12
 66
     7
 43
1.0
 76
     1
 77
     6
 78
     2
 67
     7
 79
     5
170
     0
171
     0
290
     0
174
     0
 93
        1
 44
0.0
173
     0
291
     1
 45
0.0
1001
ACAD
1000
AcDbSavedByObjectVersion
1070
     0
  0
DICTIONARYVAR
  5
2C9
102
{ACAD_REACTORS
330
2C8
102
}
330
2C8
100
DictionaryVariables
280
     0
  1
1:1
  0
DICTIONARYVAR
  5
2CD
102
{ACAD_REACTORS
330
2C8
102
}
330
2C8
100
DictionaryVariables
280
     0
  1
80.000000
  0
DICTIONARYVAR
  5
2CC
102
{ACAD_REACTORS
330
2C8
102
}
330
2C8
100
DictionaryVariables
280
     0
  1
5.000000
  0
ENDSEC
  0
EOF
