  0
SECTION
  2
HEADER
  9
$ACADVER
  1
AC1015
  9
$ACADMAINTVER
 70
     6
  9
$DWGCODEPAGE
  3
ANSI_1252
  9
$INSBASE
 10
0.0
 20
0.0
 30
0.0
  9
$EXTMIN
 10
0.0
 20
0.0
 30
0.0
  9
$EXTMAX
 10
3000.0
 20
4500.0
 30
0.0
  9
$LIMMIN
 10
0.0
 20
0.0
  9
$LIMMAX
 10
3000.0
 20
4500.0
  9
$ORTHOMODE
 70
     0
  9
$REGENMODE
 70
     1
  9
$FILLMODE
 70
     1
  9
$QTEXTMODE
 70
     0
  9
$MIRRTEXT
 70
     1
  9
$LTSCALE
 40
1.0
  9
$ATTMODE
 70
     1
  9
$TEXTSIZE
 40
2.5
  9
$TRACEWID
 40
1.0
  9
$TEXTSTYLE
  7
Standard
  9
$CLAYER
  8
0
  9
$CELTYPE
  6
ByLayer
  9
$CECOLOR
 62
   256
  9
$CELTSCALE
 40
1.0
  9
$DISPSILH
 70
     0
  9
$DIMSCALE
 40
1.0
  9
$DIMASZ
 40
2.5
  9
$DIMEXO
 40
0.625
  9
$DIMDLI
 40
3.75
  9
$DIMRND
 40
0.0
  9
$DIMDLE
 40
0.0
  9
$DIMEXE
 40
1.25
  9
$DIMTP
 40
0.0
  9
$DIMTM
 40
0.0
  9
$DIMTXT
 40
2.5
  9
$DIMCEN
 40
2.5
  9
$DIMTSZ
 40
0.0
  9
$DIMTOL
 70
     0
  9
$DIMLIM
 70
     0
  9
$DIMTIH
 70
     0
  9
$DIMTOH
 70
     0
  9
$DIMSE1
 70
     0
  9
$DIMSE2
 70
     0
  9
$DIMTAD
 70
     1
  9
$DIMZIN
 70
     8
  9
$DIMBLK
  1

  9
$DIMASO
 70
     1
  9
$DIMSHO
 70
     1
  9
$DIMPOST
  1

  9
$DIMAPOST
  1

  9
$DIMALT
 70
     0
  9
$DIMALTD
 70
     3
  9
$DIMALTF
 40
0.0393700787
  9
$DIMLFAC
 40
1.0
  9
$DIMTOFL
 70
     1
  9
$DIMTVP
 40
0.0
  9
$DIMTIX
 70
     0
  9
$DIMSOXD
 70
     0
  9
$DIMSAH
 70
     0
  9
$DIMBLK1
  1

  9
$DIMBLK2
  1

  9
$DIMSTYLE
  2
ISO-25
  9
$DIMCLRD
 70
     0
  9
$DIMCLRE
 70
     0
  9
$DIMCLRT
 70
     0
  9
$DIMTFAC
 40
1.0
  9
$DIMGAP
 40
0.625
  9
$DIMJUST
 70
     0
  9
$DIMSD1
 70
     0
  9
$DIMSD2
 70
     0
  9
$DIMTOLJ
 70
     0
  9
$DIMTZIN
 70
     8
  9
$DIMALTZ
 70
     0
  9
$DIMALTTZ
 70
     0
  9
$DIMUPT
 70
     0
  9
$DIMDEC
 70
     2
  9
$DIMTDEC
 70
     2
  9
$DIMALTU
 70
     2
  9
$DIMALTTD
 70
     3
  9
$DIMTXSTY
  7
Standard
  9
$DIMAUNIT
 70
     0
  9
$DIMADEC
 70
     0
  9
$DIMALTRND
 40
0.0
  9
$DIMAZIN
 70
     0
  9
$DIMDSEP
 70
    44
  9
$DIMATFIT
 70
     3
  9
$DIMFRAC
 70
     0
  9
$DIMLDRBLK
  1

  9
$DIMLUNIT
 70
     2
  9
$DIMLWD
 70
    -2
  9
$DIMLWE
 70
    -2
  9
$DIMTMOVE
 70
     0
  9
$LUNITS
 70
     2
  9
$LUPREC
 70
     4
  9
$SKETCHINC
 40
1.0
  9
$FILLETRAD
 40
10.0
  9
$AUNITS
 70
     0
  9
$AUPREC
 70
     0
  9
$MENU
  1
.
  9
$ELEVATION
 40
0.0
  9
$PELEVATION
 40
0.0
  9
$THICKNESS
 40
0.0
  9
$LIMCHECK
 70
     0
  9
$CHAMFERA
 40
10.0
  9
$CHAMFERB
 40
10.0
  9
$CHAMFERC
 40
20.0
  9
$CHAMFERD
 40
0.0
  9
$SKPOLY
 70
     0
  9
$TDCREATE
 40
2455888.56484603
  9
$TDUCREATE
 40
2455888.523179363
  9
$TDUPDATE
 40
2455888.564846042
  9
$TDUUPDATE
 40
2455888.523179375
  9
$TDINDWG
 40
0.0000000116
  9
$TDUSRTIMER
 40
0.0000000116
  9
$USRTIMER
 70
     1
  9
$ANGBASE
 50
0.0
  9
$ANGDIR
 70
     0
  9
$PDMODE
 70
     0
  9
$PDSIZE
 40
0.0
  9
$PLINEWID
 40
0.0
  9
$SPLFRAME
 70
     0
  9
$SPLINETYPE
 70
     6
  9
$SPLINESEGS
 70
     8
  9
$HANDSEED
  5
1EF
  9
$SURFTAB1
 70
     6
  9
$SURFTAB2
 70
     6
  9
$SURFTYPE
 70
     6
  9
$SURFU
 70
     6
  9
$SURFV
 70
     6
  9
$UCSBASE
  2

  9
$UCSNAME
  2

  9
$UCSORG
 10
0.0
 20
0.0
 30
0.0
  9
$UCSXDIR
 10
1.0
 20
0.0
 30
0.0
  9
$UCSYDIR
 10
0.0
 20
1.0
 30
0.0
  9
$UCSORTHOREF
  2

  9
$UCSORTHOVIEW
 70
     0
  9
$UCSORGTOP
 10
0.0
 20
0.0
 30
0.0
  9
$UCSORGBOTTOM
 10
0.0
 20
0.0
 30
0.0
  9
$UCSORGLEFT
 10
0.0
 20
0.0
 30
0.0
  9
$UCSORGRIGHT
 10
0.0
 20
0.0
 30
0.0
  9
$UCSORGFRONT
 10
0.0
 20
0.0
 30
0.0
  9
$UCSORGBACK
 10
0.0
 20
0.0
 30
0.0
  9
$PUCSBASE
  2

  9
$PUCSNAME
  2

  9
$PUCSORG
 10
0.0
 20
0.0
 30
0.0
  9
$PUCSXDIR
 10
1.0
 20
0.0
 30
0.0
  9
$PUCSYDIR
 10
0.0
 20
1.0
 30
0.0
  9
$PUCSORTHOREF
  2

  9
$PUCSORTHOVIEW
 70
     0
  9
$PUCSORGTOP
 10
0.0
 20
0.0
 30
0.0
  9
$PUCSORGBOTTOM
 10
0.0
 20
0.0
 30
0.0
  9
$PUCSORGLEFT
 10
0.0
 20
0.0
 30
0.0
  9
$PUCSORGRIGHT
 10
0.0
 20
0.0
 30
0.0
  9
$PUCSORGFRONT
 10
0.0
 20
0.0
 30
0.0
  9
$PUCSORGBACK
 10
0.0
 20
0.0
 30
0.0
  9
$USERI1
 70
     0
  9
$USERI2
 70
     0
  9
$USERI3
 70
     0
  9
$USERI4
 70
     0
  9
$USERI5
 70
     0
  9
$USERR1
 40
0.0
  9
$USERR2
 40
0.0
  9
$USERR3
 40
0.0
  9
$USERR4
 40
0.0
  9
$USERR5
 40
0.0
  9
$WORLDVIEW
 70
     1
  9
$SHADEDGE
 70
     3
  9
$SHADEDIF
 70
    70
  9
$TILEMODE
 70
     1
  9
$MAXACTVP
 70
    64
  9
$PINSBASE
 10
0.0
 20
0.0
 30
0.0
  9
$PLIMCHECK
 70
     0
  9
$PEXTMIN
 10
0.0
 20
0.0
 30
0.0
  9
$PEXTMAX
 10
3000.0
 20
4500.0
 30
0.0
  9
$PLIMMIN
 10
0.0
 20
0.0
  9
$PLIMMAX
 10
3000.0
 20
4500.0
  9
$UNITMODE
 70
     0
  9
$VISRETAIN
 70
     1
  9
$PLINEGEN
 70
     0
  9
$PSLTSCALE
 70
     1
  9
$TREEDEPTH
 70
  3020
  9
$CMLSTYLE
  2
Standard
  9
$CMLJUST
 70
     0
  9
$CMLSCALE
 40
20.0
  9
$PROXYGRAPHICS
 70
     1
  9
$MEASUREMENT
 70
     1
  9
$CELWEIGHT
370
    -1
  9
$ENDCAPS
280
     0
  9
$JOINSTYLE
280
     0
  9
$LWDISPLAY
290
     0
  9
$INSUNITS
 70
     4
  9
$HYPERLINKBASE
  1

  9
$STYLESHEET
  1

  9
$XEDIT
290
     1
  9
$CEPSNTYPE
380
     0
  9
$PSTYLEMODE
290
     1
  9
$FINGERPRINTGUID
  2
{B2D0CF19-6E3F-4633-B0B0-12D3788EEFC4}
  9
$VERSIONGUID
  2
{FAEB1C32-E019-11D5-929B-00C0DF256EC4}
  9
$EXTNAMES
290
     1
  9
$PSVPSCALE
 40
0.0
  9
$OLESTARTUP
290
     0
  0
ENDSEC
  0
SECTION
  2
CLASSES
  0
CLASS
  1
ACDBDICTIONARYWDFLT
  2
AcDbDictionaryWithDefault
  3
ObjectDBX Classes
 90
        0
280
     0
281
     0
  0
CLASS
  1
VISUALSTYLE
  2
AcDbVisualStyle
  3
ObjectDBX Classes
 90
     4095
280
     0
281
     0
  0
CLASS
  1
SCALE
  2
AcDbScale
  3
ObjectDBX Classes
 90
     1153
280
     0
281
     0
  0
CLASS
  1
DICTIONARYVAR
  2
AcDbDictionaryVar
  3
ObjectDBX Classes
 90
        0
280
     0
281
     0
  0
CLASS
  1
ACDBPLACEHOLDER
  2
AcDbPlaceHolder
  3
ObjectDBX Classes
 90
        0
280
     0
281
     0
  0
CLASS
  1
LAYOUT
  2
AcDbLayout
  3
ObjectDBX Classes
 90
        0
280
     0
281
     0
  0
ENDSEC
  0
SECTION
  2
TABLES
  0
TABLE
  2
VPORT
  5
8
330
0
100
AcDbSymbolTable
 70
     1
  0
VPORT
  5
29
330
8
100
AcDbSymbolTableRecord
100
AcDbViewportTableRecord
  2
*Active
 70
     0
 10
0.0
 20
0.0
 11
1.0
 21
1.0
 12
344.1869158879
 22
148.5
 13
0.0
 23
0.0
 14
10.0
 24
10.0
 15
10.0
 25
10.0
 16
0.0
 26
0.0
 36
1.0
 17
0.0
 27
0.0
 37
0.0
 40
297.0
 41
1.9729729729
 42
50.0
 43
0.0
 44
0.0
 50
0.0
 51
0.0
 71
     0
 72
   100
 73
     1
 74
     3
 75
     0
 76
     0
 77
     0
 78
     0
281
     0
 65
     1
110
0.0
120
0.0
130
0.0
111
1.0
121
0.0
131
0.0
112
0.0
122
1.0
132
0.0
 79
     0
146
0.0
  0
ENDTAB
  0
TABLE
  2
LTYPE
  5
5
330
0
100
AcDbSymbolTable
 70
     2
  0
LTYPE
  5
14
330
5
100
AcDbSymbolTableRecord
100
AcDbLinetypeTableRecord
  2
ByBlock
 70
     0
  3

 72
    65
 73
     0
 40
0.0
  0
LTYPE
  5
15
330
5
100
AcDbSymbolTableRecord
100
AcDbLinetypeTableRecord
  2
ByLayer
 70
     0
  3

 72
    65
 73
     0
 40
0.0
  0
LTYPE
  5
16
330
5
100
AcDbSymbolTableRecord
100
AcDbLinetypeTableRecord
  2
Continuous
 70
     0
  3
Solid line
 72
    65
 73
     0
 40
0.0
  0
LTYPE
  5
60
330
5
100
AcDbSymbolTableRecord
100
AcDbLinetypeTableRecord
  2
CENTER2
 70
     0
  3
Center (.5x) ___ _ ___ _ ___ _ ___ _ ___ _ ___
 72
    65
 73
     4
 40
28.575
 49
19.05
 74
     4
 75
     0
340
0
 46
0.0
 50
0.0
 44
0.0
 45
0.0
 49
-3.175
 74
     4
 75
     0
340
0
 46
0.0
 50
0.0
 44
0.0
 45
0.0
 49
3.175
 74
     4
 75
     0
340
0
 46
0.0
 50
0.0
 44
0.0
 45
0.0
 49
-3.175
 74
     4
 75
     0
340
0
 46
0.0
 50
0.0
 44
0.0
 45
0.0
  0
ENDTAB
  0
TABLE
  2
LAYER
  5
2
330
0
100
AcDbSymbolTable
 70
    11
  0
LAYER
  5
10
330
2
100
AcDbSymbolTableRecord
100
AcDbLayerTableRecord
  2
0
 70
     0
 62
     7
  6
Continuous
370
    -3
390
F
  0
LAYER
  5
5D
330
2
100
AcDbSymbolTableRecord
100
AcDbLayerTableRecord
  2
Default
 70
     0
 62
     7
  6
Continuous
370
    -3
390
F
  0
LAYER
  5
6B
330
2
100
AcDbSymbolTableRecord
100
AcDbLayerTableRecord
  2
$DDT_AUDIT_GENERATED_(6B)
 70
     0
 62
     7
  6
Continuous
370
    -3
390
F
  0
LAYER
  5
8F
330
2
100
AcDbSymbolTableRecord
100
AcDbLayerTableRecord
  2
$DDT_AUDIT_GENERATED_(8F)
 70
     0
 62
     7
  6
Continuous
370
    -3
390
F
  0
LAYER
  5
96
330
2
100
AcDbSymbolTableRecord
100
AcDbLayerTableRecord
  2
02636038_GEHÄUSE
 70
     0
 62
     7
  6
Continuous
370
    -3
390
F
  0
LAYER
  5
AC
330
2
100
AcDbSymbolTableRecord
100
AcDbLayerTableRecord
  2
$DDT_AUDIT_GENERATED_(AC)
 70
     0
 62
     7
  6
Continuous
370
    -3
390
F
  0
LAYER
  5
168
330
2
100
AcDbSymbolTableRecord
100
AcDbLayerTableRecord
  2
$DDT_AUDIT_GENERATED_(168)
 70
     0
 62
     7
  6
Continuous
370
    -3
390
F
  0
LAYER
  5
1B4
330
2
100
AcDbSymbolTableRecord
100
AcDbLayerTableRecord
  2
DV2_Default
 70
     0
 62
     7
  6
Continuous
370
    -3
390
F
  0
LAYER
  5
1C3
330
2
100
AcDbSymbolTableRecord
100
AcDbLayerTableRecord
  2
$DDT_AUDIT_GENERATED_(1C3)
 70
     0
 62
     7
  6
Continuous
370
    -3
390
F
  0
LAYER
  5
1D6
330
2
100
AcDbSymbolTableRecord
100
AcDbLayerTableRecord
  2
$DDT_AUDIT_GENERATED_(1D6)
 70
     0
 62
     7
  6
Continuous
370
    -3
390
F
  0
LAYER
  5
1D9
330
2
100
AcDbSymbolTableRecord
100
AcDbLayerTableRecord
  2
$DDT_AUDIT_GENERATED_(1D9)
 70
     0
 62
     7
  6
Continuous
370
    -3
390
F
  0
ENDTAB
  0
TABLE
  2
STYLE
  5
3
330
0
100
AcDbSymbolTable
 70
     2
  0
STYLE
  5
11
330
3
100
AcDbSymbolTableRecord
100
AcDbTextStyleTableRecord
  2
Standard
 70
     0
 40
0.0
 41
1.0
 50
0.0
 71
     0
 42
2.5
  3
txt
  4

  0
STYLE
  5
1DE
330
3
100
AcDbSymbolTableRecord
100
AcDbTextStyleTableRecord
  2
SEACAD_seiso_ttf
 70
     0
 40
0.0
 41
1.0
 50
0.0
 71
     0
 42
0.2
  3
seiso.ttf
  4

  0
ENDTAB
  0
TABLE
  2
VIEW
  5
6
330
0
100
AcDbSymbolTable
 70
     0
  0
ENDTAB
  0
TABLE
  2
UCS
  5
7
330
0
100
AcDbSymbolTable
 70
     0
  0
ENDTAB
  0
TABLE
  2
APPID
  5
9
330
0
100
AcDbSymbolTable
 70
     1
  0
APPID
  5
12
330
9
100
AcDbSymbolTableRecord
100
AcDbRegAppTableRecord
  2
ACAD
 70
     0
  0
ENDTAB
  0
TABLE
  2
DIMSTYLE
  5
A
330
0
100
AcDbSymbolTable
 70
     1
100
AcDbDimStyleTable
  0
DIMSTYLE
105
27
330
A
100
AcDbSymbolTableRecord
100
AcDbDimStyleTableRecord
  2
ISO-25
 70
     0
 41
2.5
 42
0.625
 43
3.75
 44
1.25
 73
     0
 74
     0
 77
     1
 78
     8
140
2.5
141
2.5
143
0.0393700787
147
0.625
171
     3
172
     1
271
     2
272
     2
274
     3
278
    44
283
     0
284
     8
340
11
  0
ENDTAB
  0
TABLE
  2
BLOCK_RECORD
  5
1
330
0
100
AcDbSymbolTable
 70
     6
  0
BLOCK_RECORD
  5
1F
330
1
100
AcDbSymbolTableRecord
100
AcDbBlockTableRecord
  2
*Model_Space
340
22
  0
BLOCK_RECORD
  5
1B
330
1
100
AcDbSymbolTableRecord
100
AcDbBlockTableRecord
  2
*Paper_Space
340
1E
  0
BLOCK_RECORD
  5
5E
330
1
100
AcDbSymbolTableRecord
100
AcDbBlockTableRecord
  2
SEANNOT_GROUP
340
0
102
{BLKREFS
331
5F
102
}
  0
BLOCK_RECORD
  5
64
330
1
100
AcDbSymbolTableRecord
100
AcDbBlockTableRecord
  2
SEANNOT_GROUP1
340
0
102
{BLKREFS
331
65
102
}
  0
BLOCK_RECORD
  5
69
330
1
100
AcDbSymbolTableRecord
100
AcDbBlockTableRecord
  2
SE
340
0
102
{BLKREFS
331
6A
102
}
  0
BLOCK_RECORD
  5
183
330
1
100
AcDbSymbolTableRecord
100
AcDbBlockTableRecord
  2
SE1
340
0
102
{BLKREFS
331
184
102
}
  0
BLOCK_RECORD
  5
1B8
330
1
100
AcDbSymbolTableRecord
100
AcDbBlockTableRecord
  2
SE2
340
0
102
{BLKREFS
331
1B9
102
}
  0
ENDTAB
  0
ENDSEC
  0
SECTION
  2
BLOCKS
  0
BLOCK
  5
20
330
1F
100
AcDbEntity
  8
0
100
AcDbBlockBegin
  2
*Model_Space
 70
     0
 10
0.0
 20
0.0
 30
0.0
  3
*Model_Space
  1

  0
ENDBLK
  5
21
330
1F
100
AcDbEntity
  8
0
100
AcDbBlockEnd
  0
BLOCK
  5
1C
330
1B
100
AcDbEntity
 67
     1
  8
0
100
AcDbBlockBegin
  2
*Paper_Space
 70
     0
 10
0.0
 20
0.0
 30
0.0
  3
*Paper_Space
  1

  0
ENDBLK
  5
1D
330
1B
100
AcDbEntity
 67
     1
  8
0
100
AcDbBlockEnd
  0
BLOCK
  5
62
330
5E
100
AcDbEntity
  8
0
100
AcDbBlockBegin
  2
SEANNOT_GROUP
 70
     0
 10
0.0
 20
0.0
 30
0.0
  3
SEANNOT_GROUP
  1

  0
LINE
  5
61
330
5E
100
AcDbEntity
  8
Default
  6
CENTER2
 62
     7
100
AcDbLine
 10
40.8684870302
 20
276.8652648235
 30
0.0
 11
40.8684870302
 21
412.9010519219
 31
0.0
  0
ENDBLK
  5
63
330
5E
100
AcDbEntity
  8
0
100
AcDbBlockEnd
  0
BLOCK
  5
67
330
64
100
AcDbEntity
  8
0
100
AcDbBlockBegin
  2
SEANNOT_GROUP1
 70
     0
 10
0.0
 20
0.0
 30
0.0
  3
SEANNOT_GROUP1
  1

  0
LINE
  5
66
330
64
100
AcDbEntity
  8
Default
  6
CENTER2
 62
     7
100
AcDbLine
 10
40.8684897698
 20
252.850004721
 30
0.0
 11
40.868443462
 21
102.85
 31
0.0
  0
ENDBLK
  5
68
330
64
100
AcDbEntity
  8
0
100
AcDbBlockEnd
  0
BLOCK
  5
181
330
69
100
AcDbEntity
  8
0
100
AcDbBlockBegin
  2
SE
 70
     0
 10
0.0
 20
0.0
 30
0.0
  3
SE
  1

  0
LINE
  5
6C
330
69
100
AcDbEntity
  8
$DDT_AUDIT_GENERATED_(6B)
  6
Continuous
 62
     7
100
AcDbLine
 10
16.8925070053
 20
280.3652648235
 30
0.0
 11
64.844467055
 21
280.3652648235
 31
0.0
  0
LINE
  5
6D
330
69
100
AcDbEntity
  8
$DDT_AUDIT_GENERATED_(6B)
  6
Continuous
 62
     7
100
AcDbLine
 10
58.8685517768
 20
395.755091617
 30
0.0
 11
58.8685517768
 21
404.8652645851
 31
0.0
  0
LINE
  5
6E
330
69
100
AcDbEntity
  8
$DDT_AUDIT_GENERATED_(6B)
  6
Continuous
 62
     7
100
AcDbLine
 10
58.5997220117
 20
395.0728299493
 30
0.0
 11
58.5998132011
 21
395.0734404118
 31
0.0
  0
ARC
  5
6F
330
69
100
AcDbEntity
  8
$DDT_AUDIT_GENERATED_(6B)
  6
Continuous
 62
     7
100
AcDbCircle
 10
40.8591841131
 20
411.6016311843
 30
0.0
 40
24.2335451677897
100
AcDbArc
 50
223.0043629139
 51
240.1822187415
  0
ARC
  5
70
330
69
100
AcDbEntity
  8
$DDT_AUDIT_GENERATED_(6B)
  6
Continuous
 62
     7
100
AcDbCircle
 10
57.8571236976
 20
395.7595816648
 30
0.0
 40
1.011406502099355
100
AcDbArc
 50
317.2466100715
 51
359.7456397284
  0
LINE
  5
71
330
69
100
AcDbEntity
  8
$DDT_AUDIT_GENERATED_(6B)
  6
Continuous
 62
     7
100
AcDbLine
 10
16.8722239994
 20
404.8652645851
 30
0.0
 11
16.8925340664
 21
404.8652645851
 31
0.0
  0
LINE
  5
72
330
69
100
AcDbEntity
  8
$DDT_AUDIT_GENERATED_(6B)
  6
Continuous
 62
     7
100
AcDbLine
 10
23.3683373078
 20
405.3652645851
 30
0.0
 11
58.3685517768
 21
405.3652645851
 31
0.0
  0
LINE
  5
73
330
69
100
AcDbEntity
  8
$DDT_AUDIT_GENERATED_(6B)
  6
Continuous
 62
     7
100
AcDbLine
 10
58.4163941462
 20
405.3652645851
 30
0.0
 11
61.4890508765
 21
405.3652645851
 31
0.0
  0
LINE
  5
74
330
69
100
AcDbEntity
  8
$DDT_AUDIT_GENERATED_(6B)
  6
Continuous
 62
     7
100
AcDbLine
 10
20.248008235
 20
405.3652645851
 30
0.0
 11
23.3193063266
 21
405.3652645851
 31
0.0
  0
LINE
  5
75
330
69
100
AcDbEntity
  8
$DDT_AUDIT_GENERATED_(6B)
  6
Continuous
 62
     7
100
AcDbLine
 10
61.4890407788
 20
405.3652645851
 30
0.0
 11
64.3451281775
 21
405.3652645851
 31
0.0
  0
LINE
  5
76
330
69
100
AcDbEntity
  8
$DDT_AUDIT_GENERATED_(6B)
  6
Continuous
 62
     7
100
AcDbLine
 10
17.3920937239
 20
405.3652645851
 30
0.0
 11
20.248122396
 21
405.3652645851
 31
0.0
  0
LINE
  5
77
330
69
100
AcDbEntity
  8
$DDT_AUDIT_GENERATED_(6B)
  6
Continuous
 62
     7
100
AcDbLine
 10
64.8445655753
 20
404.8652645851
 30
0.0
 11
64.8649335606
 21
404.8652645851
 31
0.0
  0
LINE
  5
78
330
69
100
AcDbEntity
  8
$DDT_AUDIT_GENERATED_(6B)
  6
Continuous
 62
     7
100
AcDbLine
 10
22.8675852171
 20
404.8652645851
 30
0.0
 11
22.8638445231
 21
404.8652645851
 31
0.0
  0
LINE
  5
79
330
69
100
AcDbEntity
  8
$DDT_AUDIT_GENERATED_(6B)
  6
Continuous
 62
     7
100
AcDbLine
 10
22.8683373078
 20
404.8652645851
 30
0.0
 11
22.8683373078
 21
395.7551389355
 31
0.0
  0
SPLINE
  5
7A
330
69
100
AcDbEntity
  8
$DDT_AUDIT_GENERATED_(6B)
  6
Continuous
 62
     7
100
AcDbSpline
210
0.0
220
0.0
230
1.0
 70
     8
 71
     3
 72
    10
 73
     6
 74
     0
 42
0.0000000124193995
 43
0.0000000001
 40
0.0
 40
0.0
 40
0.0
 40
0.0
 40
0.5
 40
0.5
 40
1.0
 40
1.0
 40
1.0
 40
1.0
 10
58.36852023302678
 20
405.3652645850574
 30
0.0
 10
58.4993883831533
 20
405.3652645850574
 30
0.0
 10
58.62948201863536
 20
405.3113780368623
 30
0.0
 10
58.81460214105862
 20
405.126257914439
 30
0.0
 10
58.86848868925372
 20
404.996164278957
 30
0.0
 10
58.86852023303095
 20
404.8652645850574
 30
0.0
  0
SPLINE
  5
7B
330
69
100
AcDbEntity
  8
$DDT_AUDIT_GENERATED_(6B)
  6
Continuous
 62
     7
100
AcDbSpline
210
0.0
220
0.0
230
1.0
 70
     8
 71
     3
 72
    10
 73
     6
 74
     0
 42
0.0000000124200802
 43
0.0000000001
 40
0.0
 40
0.0
 40
0.0
 40
0.0
 40
0.5
 40
0.5
 40
1.0
 40
1.0
 40
1.0
 40
1.0
 10
22.8684129985178
 20
404.8652645850574
 30
0.0
 10
22.86848868925373
 20
404.996164278957
 30
0.0
 10
22.92237523744882
 20
405.1262579144391
 30
0.0
 10
23.10749535987209
 20
405.3113780368623
 30
0.0
 10
23.23758899535414
 20
405.3652645850574
 30
0.0
 10
23.36841299852197
 20
405.3652645850574
 30
0.0
  0
ARC
  5
7C
330
69
100
AcDbEntity
  8
$DDT_AUDIT_GENERATED_(6B)
  6
Continuous
 62
     7
100
AcDbCircle
 10
64.3445528557
 20
404.8652520609
 30
0.0
 40
0.5000127197054853
100
AcDbArc
 50
0.0014351217
 51
89.9493221792
  0
ARC
  5
7D
330
69
100
AcDbEntity
  8
$DDT_AUDIT_GENERATED_(6B)
  6
Continuous
 62
     7
100
AcDbCircle
 10
40.8779329379
 20
411.6014787043
 30
0.0
 40
24.23333902163374
100
AcDbArc
 50
299.8176771794
 51
316.9955159224
  0
LINE
  5
7E
330
69
100
AcDbEntity
  8
$DDT_AUDIT_GENERATED_(6B)
  6
Continuous
 62
     7
100
AcDbLine
 10
36.0684886893
 20
309.1152645851
 30
0.0
 11
36.0684886893
 21
300.6152645851
 31
0.0
  0
ARC
  5
7F
330
69
100
AcDbEntity
  8
$DDT_AUDIT_GENERATED_(6B)
  6
Continuous
 62
     7
100
AcDbCircle
 10
40.8684886893
 20
309.1152645851
 30
0.0
 40
4.80000000000001
100
AcDbArc
 50
0.0
 51
180.0
  0
LINE
  5
80
330
69
100
AcDbEntity
  8
$DDT_AUDIT_GENERATED_(6B)
  6
Continuous
 62
     7
100
AcDbLine
 10
45.6684886893
 20
300.6152645851
 30
0.0
 11
45.6684886893
 21
309.1152645851
 31
0.0
  0
ARC
  5
81
330
69
100
AcDbEntity
  8
$DDT_AUDIT_GENERATED_(6B)
  6
Continuous
 62
     7
100
AcDbCircle
 10
40.8684886893
 20
300.6152645851
 30
0.0
 40
4.80000000000001
100
AcDbArc
 50
180.0
 51
0.0
  0
ARC
  5
82
330
69
100
AcDbEntity
  8
$DDT_AUDIT_GENERATED_(6B)
  6
Continuous
 62
     7
100
AcDbCircle
 10
40.8706605989
 20
411.6154418473
 30
0.0
 40
24.24906973139684
100
AcDbArc
 50
299.1309010221
 51
299.8161803735
  0
SPLINE
  5
83
330
69
100
AcDbEntity
  8
$DDT_AUDIT_GENERATED_(6B)
  6
Continuous
 62
     7
100
AcDbSpline
210
0.0
220
0.0
230
1.0
 70
     8
 71
     3
 72
    32
 73
    28
 74
     0
 42
0.0000000003864116
 43
0.0000000001
 40
0.0
 40
0.0
 40
0.0
 40
0.0
 40
0.0625000000000002
 40
0.0625000000000002
 40
0.1250000000000004
 40
0.1250000000000004
 40
0.1875000000000007
 40
0.1875000000000007
 40
0.2500000000000009
 40
0.2500000000000009
 40
0.3750000000000012
 40
0.3750000000000012
 40
0.4375000000000012
 40
0.4375000000000012
 40
0.5000000000000011
 40
0.5000000000000011
 40
0.5625000000000011
 40
0.5625000000000011
 40
0.6250000000000011
 40
0.6250000000000011
 40
0.7500000000000007
 40
0.7500000000000007
 40
0.8125000000000004
 40
0.8125000000000004
 40
0.8750000000000002
 40
0.8750000000000002
 40
1.0
 40
1.0
 40
1.0
 40
1.0
 10
52.92775877403998
 20
390.5763409531538
 30
0.0
 10
53.08355573527567
 20
390.665636724022
 30
0.0
 10
53.14278861327821
 20
390.7589959970037
 30
0.0
 10
53.0765679828339
 20
390.9509271641723
 30
0.0
 10
52.94799188331133
 20
391.0508521660153
 30
0.0
 10
52.50466140539776
 20
391.2512898060295
 30
0.0
 10
52.19376982309067
 20
391.350759940818
 30
0.0
 10
51.39202948374524
 20
391.5450581105113
 30
0.0
 10
50.89789507505568
 20
391.6399893290154
 30
0.0
 10
49.20812150108404
 20
391.9042245368443
 30
0.0
 10
47.75797118392157
 20
392.0559343534663
 30
0.0
 10
45.32357953903679
 20
392.2128460023319
 30
0.0
 10
44.45356874739645
 20
392.2544811892839
 30
0.0
 10
42.69514577268401
 20
392.3088862472365
 30
0.0
 10
41.79773544452461
 20
392.3224572643597
 30
0.0
 10
39.96917149158981
 20
392.3227496004635
 30
0.0
 10
39.07218239615019
 20
392.3095065673575
 30
0.0
 10
37.31137617679521
 20
392.2556548342133
 30
0.0
 10
36.44081897035424
 20
392.2143082440287
 30
0.0
 10
34.00309260404312
 20
392.0580827182512
 30
0.0
 10
32.55047251751819
 20
391.906949969593
 30
0.0
 10
30.85163612737444
 20
391.6422731079859
 30
0.0
 10
30.35559118971922
 20
391.5472285965776
 30
0.0
 10
29.552679046444
 20
391.3534540511629
 30
0.0
 10
29.23878790225875
 20
391.2537488113038
 30
0.0
 10
28.56547456543469
 20
390.9507215322615
 30
0.0
 10
28.49760094498444
 20
390.7549518500527
 30
0.0
 10
28.80921757952051
 20
390.5763364672478
 30
0.0
  0
ARC
  5
84
330
69
100
AcDbEntity
  8
$DDT_AUDIT_GENERATED_(6B)
  6
Continuous
 62
     7
100
AcDbCircle
 10
40.8735598235
 20
411.6291085082
 30
0.0
 40
24.26453305524464
100
AcDbArc
 50
240.1850295981
 51
240.8698700119
  0
ARC
  5
85
330
69
100
AcDbEntity
  8
$DDT_AUDIT_GENERATED_(6B)
  6
Continuous
 62
     7
100
AcDbCircle
 10
147.5227472633
 20
305.3644220902
 30
0.0
 40
82.86708080424114
100
AcDbArc
 50
176.1319593315
 51
183.8695994654
  0
SPLINE
  5
86
330
69
100
AcDbEntity
  8
$DDT_AUDIT_GENERATED_(6B)
  6
Continuous
 62
     7
100
AcDbSpline
210
0.0
220
0.0
230
1.0
 70
     8
 71
     3
 72
     8
 73
     4
 74
     0
 42
0.0000000003678912
 43
0.0000000001
 40
0.0
 40
0.0
 40
0.0
 40
0.0
 40
0.0331349440064584
 40
0.0331349440064584
 40
0.0331349440064584
 40
0.0331349440064584
 10
64.84458462632142
 20
299.7720608721802
 30
0.0
 10
64.85723591077317
 20
299.4438457468838
 30
0.0
 10
64.86444787830503
 20
299.1430203191679
 30
0.0
 10
64.8639720703781
 20
298.8717190512526
 30
0.0
  0
SPLINE
  5
87
330
69
100
AcDbEntity
  8
$DDT_AUDIT_GENERATED_(6B)
  6
Continuous
 62
     7
100
AcDbSpline
210
0.0
220
0.0
230
1.0
 70
     8
 71
     3
 72
     8
 73
     4
 74
     0
 42
0.0000000003666798
 43
0.0000000001
 40
0.967060925025481
 40
0.967060925025481
 40
0.967060925025481
 40
0.967060925025481
 40
1.0
 40
1.0
 40
1.0
 40
1.0
 10
64.863835709202
 20
311.8525094522616
 30
0.0
 10
64.86426675326074
 20
311.5815378282746
 30
0.0
 10
64.85706360587051
 20
311.2814418918066
 30
0.0
 10
64.84443251036693
 20
310.9545339527102
 30
0.0
  0
LINE
  5
88
330
69
100
AcDbEntity
  8
$DDT_AUDIT_GENERATED_(6B)
  6
Continuous
 62
     7
100
AcDbLine
 10
55.2837115513
 20
392.1150563777
 30
0.0
 11
55.2843506776
 21
392.1155289169
 31
0.0
  0
LINE
  5
89
330
69
100
AcDbEntity
  8
$DDT_AUDIT_GENERATED_(6B)
  6
Continuous
 62
     7
100
AcDbLine
 10
26.4526267009
 20
392.115528917
 30
0.0
 11
26.4532657842
 21
392.1150564095
 31
0.0
  0
LINE
  5
8A
330
69
100
AcDbEntity
  8
$DDT_AUDIT_GENERATED_(6B)
  6
Continuous
 62
     7
100
AcDbLine
 10
16.8719400128
 20
404.8652645851
 30
0.0
 11
16.8719400128
 21
280.3652645851
 31
0.0
  0
LINE
  5
8B
330
69
100
AcDbEntity
  8
$DDT_AUDIT_GENERATED_(6B)
  6
Continuous
 62
     7
100
AcDbLine
 10
64.8650373657
 20
311.8431657817
 30
0.0
 11
64.8650373657
 21
404.8652645851
 31
0.0
  0
LINE
  5
8C
330
69
100
AcDbEntity
  8
$DDT_AUDIT_GENERATED_(6B)
  6
Continuous
 62
     7
100
AcDbLine
 10
64.8650373657
 20
280.3652645851
 30
0.0
 11
64.8650373657
 21
298.8716125198
 31
0.0
  0
ARC
  5
8D
330
69
100
AcDbEntity
  8
$DDT_AUDIT_GENERATED_(6B)
  6
Continuous
 62
     7
100
AcDbCircle
 10
64.3646562352
 20
404.865264628
 30
0.0
 40
0.4999999590594162
100
AcDbArc
 50
0.1492508852
 51
90.087434753
  0
ARC
  5
8E
330
69
100
AcDbEntity
  8
$DDT_AUDIT_GENERATED_(6B)
  6
Continuous
 62
     7
100
AcDbCircle
 10
17.3723461145
 20
404.8652645717
 30
0.0
 40
0.4999910888705269
100
AcDbArc
 50
89.9068416591
 51
180.0436817031
  0
ARC
  5
90
330
69
100
AcDbEntity
  8
$DDT_AUDIT_GENERATED_(8F)
  6
Continuous
 62
     7
100
AcDbCircle
 10
40.8684886893
 20
300.6236731387
 30
0.0
 40
4.675711801908216
100
AcDbArc
 50
180.103037765
 51
359.896962235
  0
LINE
  5
91
330
69
100
AcDbEntity
  8
$DDT_AUDIT_GENERATED_(8F)
  6
Continuous
 62
     7
100
AcDbLine
 10
45.5101900052
 20
309.1152645851
 30
0.0
 11
45.5101900076
 21
300.6152645851
 31
0.0
  0
LINE
  5
92
330
69
100
AcDbEntity
  8
$DDT_AUDIT_GENERATED_(8F)
  6
Continuous
 62
     7
100
AcDbLine
 10
36.2267873663
 20
300.6152645851
 30
0.0
 11
36.2267873666
 21
309.1152645851
 31
0.0
  0
LINE
  5
93
330
69
100
AcDbEntity
  8
$DDT_AUDIT_GENERATED_(8F)
  6
Continuous
 62
     7
100
AcDbLine
 10
36.1927844481
 20
309.1152645851
 30
0.0
 11
36.1927844481
 21
300.6152645851
 31
0.0
  0
ARC
  5
94
330
69
100
AcDbEntity
  8
$DDT_AUDIT_GENERATED_(8F)
  6
Continuous
 62
     7
100
AcDbCircle
 10
40.8684886893
 20
309.1068559493
 30
0.0
 40
4.675711802056504
100
AcDbArc
 50
0.1030387711
 51
179.8969612289
  0
LINE
  5
95
330
69
100
AcDbEntity
  8
$DDT_AUDIT_GENERATED_(8F)
  6
Continuous
 62
     7
100
AcDbLine
 10
45.5441929304
 20
300.6152645851
 30
0.0
 11
45.5441929304
 21
309.1152645851
 31
0.0
  0
ELLIPSE
  5
97
330
69
100
AcDbEntity
  8
02636038_GEHÄUSE
  6
Continuous
 62
     7
100
AcDbEllipse
 10
40.8684886893
 20
385.3678773084
 30
0.0
 11
10.05000000000001
 21
0.0
 31
0.0
210
0.0
220
0.0
230
1.0
 40
0.3420201433
 41
4.995511118732577
 42
6.283185307179586
  0
ELLIPSE
  5
98
330
69
100
AcDbEntity
  8
02636038_GEHÄUSE
  6
Continuous
 62
     7
100
AcDbEllipse
 10
40.8684886893
 20
385.3678773084
 30
0.0
 11
10.05000000000001
 21
0.0
 31
0.0
210
0.0
220
0.0
230
1.0
 40
0.3420201433
 41
0.0
 42
4.429266842036802
  0
ELLIPSE
  5
99
330
69
100
AcDbEntity
  8
02636038_GEHÄUSE
  6
Continuous
 62
     7
100
AcDbEllipse
 10
40.8684886893
 20
385.3678773084
 30
0.0
 11
10.75000000000001
 21
0.0
 31
0.0
210
0.0
220
0.0
230
1.0
 40
0.3420201433
 41
0.0
 42
6.283185307179586
  0
ELLIPSE
  5
9A
330
69
100
AcDbEntity
  8
02636038_GEHÄUSE
  6
Continuous
 62
     7
100
AcDbEllipse
 10
40.8684886893
 20
385.6662697915
 30
0.0
 11
11.30000000000003
 21
-1.387778780781446E-14
 31
0.0
210
0.0
220
0.0
230
1.0
 40
0.3420201433
 41
-0.6820876318288533
 42
-0.6117210279624201
  0
ELLIPSE
  5
9B
330
69
100
AcDbEntity
  8
02636038_GEHÄUSE
  6
Continuous
 62
     7
100
AcDbEllipse
 10
40.8684886893
 20
385.6662697915
 30
0.0
 11
11.30000000000003
 21
-1.387778780781446E-14
 31
0.0
210
0.0
220
0.0
230
1.0
 40
0.3420201433
 41
3.73104248530365
 42
3.823680285418654
  0
LINE
  5
9C
330
69
100
AcDbEntity
  8
02636038_GEHÄUSE
  6
Continuous
 62
     7
100
AcDbLine
 10
51.8684886893
 20
384.7816335173
 30
0.0
 11
51.8684886893
 21
386.5509060658
 31
0.0
  0
ELLIPSE
  5
9D
330
69
100
AcDbEntity
  8
02636038_GEHÄUSE
  6
Continuous
 62
     7
100
AcDbEllipse
 10
40.8684886893
 20
388.1869551707
 30
0.0
 11
-11.79999999999975
 21
1.110223024625157E-13
 31
0.0
210
0.0
220
0.0
230
1.0
 40
0.3420201433
 41
2.771250021498084
 42
3.511935285681524
  0
LINE
  5
9E
330
69
100
AcDbEntity
  8
02636038_GEHÄUSE
  6
Continuous
 62
     7
100
AcDbLine
 10
51.8684886893
 20
384.7816335173
 30
0.0
 11
51.8684886893
 21
384.6536745817
 31
0.0
  0
LINE
  5
9F
330
69
100
AcDbEntity
  8
02636038_GEHÄUSE
  6
Continuous
 62
     7
100
AcDbLine
 10
51.8684886893
 20
386.5509060658
 30
0.0
 11
51.8684886893
 21
387.9407778065
 31
0.0
  0
LINE
  5
A0
330
69
100
AcDbEntity
  8
02636038_GEHÄUSE
  6
Continuous
 62
     7
100
AcDbLine
 10
51.8684886893
 20
387.9407778065
 30
0.0
 11
51.8684886893
 21
389.6476655044
 31
0.0
  0
LINE
  5
A1
330
69
100
AcDbEntity
  8
02636038_GEHÄUSE
  6
Continuous
 62
     7
100
AcDbLine
 10
29.8684886893
 20
386.5509060658
 30
0.0
 11
29.8684886893
 21
384.7816335173
 31
0.0
  0
ELLIPSE
  5
A2
330
69
100
AcDbEntity
  8
02636038_GEHÄUSE
  6
Continuous
 62
     7
100
AcDbEllipse
 10
40.8684886893
 20
388.1869551707
 30
0.0
 11
11.80000000000025
 21
0.0
 31
0.0
210
0.0
220
0.0
230
1.0
 40
0.3420201433
 41
2.771250021498094
 42
3.511935285681516
  0
LINE
  5
A3
330
69
100
AcDbEntity
  8
02636038_GEHÄUSE
  6
Continuous
 62
     7
100
AcDbLine
 10
29.8684886893
 20
389.6476655044
 30
0.0
 11
29.8684886893
 21
387.9407778065
 31
0.0
  0
LINE
  5
A4
330
69
100
AcDbEntity
  8
02636038_GEHÄUSE
  6
Continuous
 62
     7
100
AcDbLine
 10
29.8684886893
 20
387.9407778065
 30
0.0
 11
29.8684886893
 21
386.5509060658
 31
0.0
  0
LINE
  5
A5
330
69
100
AcDbEntity
  8
02636038_GEHÄUSE
  6
Continuous
 62
     7
100
AcDbLine
 10
29.8684886893
 20
384.6536636076
 30
0.0
 11
29.8684886893
 21
384.7816335173
 31
0.0
  0
LINE
  5
A6
330
69
100
AcDbEntity
  8
02636038_GEHÄUSE
  6
Continuous
 62
     7
100
AcDbLine
 10
32.0967694816
 20
383.2298247266
 30
0.0
 11
32.5237115669
 21
383.0500202776
 31
0.0
  0
LINE
  5
A7
330
69
100
AcDbEntity
  8
02636038_GEHÄUSE
  6
Continuous
 62
     7
100
AcDbLine
 10
49.2132658116
 20
383.0500202776
 30
0.0
 11
49.6402078969
 21
383.2298247266
 31
0.0
  0
ARC
  5
A8
330
69
100
AcDbEntity
  8
02636038_GEHÄUSE
  6
Continuous
 62
     7
100
AcDbCircle
 10
47.8415929663
 20
388.6127227862
 30
0.0
 40
5.642262684134717
100
AcDbArc
 50
294.093499994
 51
315.5513557325
  0
ARC
  5
A9
330
69
100
AcDbEntity
  8
02636038_GEHÄUSE
  6
Continuous
 62
     7
100
AcDbCircle
 10
33.8313678675
 20
388.5642231777
 30
0.0
 40
5.566179572179487
100
AcDbArc
 50
224.5596073342
 51
244.4046302517
  0
LINE
  5
AA
330
69
100
AcDbEntity
  8
02636038_GEHÄUSE
  6
Continuous
 62
     7
100
AcDbLine
 10
29.0684886893
 20
391.1733398559
 30
0.0
 11
29.0684886893
 21
388.1869551707
 31
0.0
  0
LINE
  5
AB
330
69
100
AcDbEntity
  8
02636038_GEHÄUSE
  6
Continuous
 62
     7
100
AcDbLine
 10
52.6684886893
 20
388.1869551707
 30
0.0
 11
52.6684886893
 21
391.174312288
 31
0.0
  0
ELLIPSE
  5
AD
330
69
100
AcDbEntity
  8
$DDT_AUDIT_GENERATED_(AC)
  6
Continuous
 62
     7
100
AcDbEllipse
 10
40.8684886893
 20
384.9920002601
 30
0.0
 11
9.000000000000005
 21
0.0
 31
0.0
210
0.0
220
0.0
230
1.0
 40
0.3420201433
 41
0.0
 42
6.283185307179586
  0
ELLIPSE
  5
AE
330
69
100
AcDbEntity
  8
$DDT_AUDIT_GENERATED_(AC)
  6
Continuous
 62
     7
100
AcDbEllipse
 10
40.8684886893
 20
384.9920002601
 30
0.0
 11
5.250000000000001
 21
0.0
 31
0.0
210
0.0
220
0.0
230
1.0
 40
0.3420201433
 41
0.0
 42
6.283185307179586
  0
ELLIPSE
  5
AF
330
69
100
AcDbEntity
  8
$DDT_AUDIT_GENERATED_(AC)
  6
Continuous
 62
     7
100
AcDbEllipse
 10
40.8684886893
 20
384.9920002601
 30
0.0
 11
6.250000000000004
 21
0.0
 31
0.0
210
0.0
220
0.0
230
1.0
 40
0.3420201433
 41
0.0
 42
6.283185307179586
  0
ELLIPSE
  5
B0
330
69
100
AcDbEntity
  8
$DDT_AUDIT_GENERATED_(AC)
  6
Continuous
 62
     7
100
AcDbEllipse
 10
40.8684886893
 20
384.9920002601
 30
0.0
 11
-2.750000000000002
 21
0.0
 31
0.0
210
0.0
220
0.0
230
1.0
 40
0.3420201433
 41
0.0
 42
6.283185307179586
  0
ELLIPSE
  5
B1
330
69
100
AcDbEntity
  8
$DDT_AUDIT_GENERATED_(AC)
  6
Continuous
 62
     7
100
AcDbEllipse
 10
40.8684886893
 20
384.9920002601
 30
0.0
 11
2.15
 21
0.0
 31
0.0
210
0.0
220
0.0
230
1.0
 40
0.3420201433
 41
0.0
 42
6.283185307179586
  0
ELLIPSE
  5
B2
330
69
100
AcDbEntity
  8
$DDT_AUDIT_GENERATED_(AC)
  6
Continuous
 62
     7
100
AcDbEllipse
 10
40.8684886893
 20
385.1799387842
 30
0.0
 11
0.5196299438963562
 21
0.0
 31
0.0
210
0.0
220
0.0
230
1.0
 40
0.3420201433
 41
0.0
 42
6.283185307179586
  0
ELLIPSE
  5
B3
330
69
100
AcDbEntity
  8
$DDT_AUDIT_GENERATED_(AC)
  6
Continuous
 62
     7
100
AcDbEllipse
 10
40.8684886893
 20
384.9920002601
 30
0.0
 11
8.700000000000006
 21
0.0
 31
0.0
210
0.0
220
0.0
230
1.0
 40
0.3420201433
 41
0.0
 42
6.283185307179586
  0
ARC
  5
B4
330
69
100
AcDbEntity
  8
$DDT_AUDIT_GENERATED_(AC)
  6
Continuous
 62
     7
100
AcDbCircle
 10
33.3633192488
 20
385.1799387842
 30
0.0
 40
0.9948304059779797
100
AcDbArc
 50
178.0297975391
 51
181.9702024609
  0
ARC
  5
B5
330
69
100
AcDbEntity
  8
$DDT_AUDIT_GENERATED_(AC)
  6
Continuous
 62
     7
100
AcDbCircle
 10
35.3503062675
 20
385.1799387842
 30
0.0
 40
0.7318171920803673
100
AcDbArc
 50
177.3212638677
 51
180.0
  0
ELLIPSE
  5
B6
330
69
100
AcDbEntity
  8
$DDT_AUDIT_GENERATED_(AC)
  6
Continuous
 62
     7
100
AcDbEllipse
 10
40.8684886893
 20
385.1799387842
 30
0.0
 11
-8.500000000030292
 21
-9.853229343548264E-13
 31
0.0
210
0.0
220
0.0
230
1.0
 40
0.3420201433
 41
0.0117649772880648
 42
0.2500344105105853
  0
LINE
  5
B7
330
69
100
AcDbEntity
  8
$DDT_AUDIT_GENERATED_(AC)
  6
Continuous
 62
     7
100
AcDbLine
 10
34.6192887405
 20
385.2141407986
 30
0.0
 11
34.6192887405
 21
385.717232066
 31
0.0
  0
LINE
  5
B8
330
69
100
AcDbEntity
  8
$DDT_AUDIT_GENERATED_(AC)
  6
Continuous
 62
     7
100
AcDbLine
 10
34.6192887405
 20
385.2141407986
 30
0.0
 11
32.3690769449
 21
385.2141407986
 31
0.0
  0
LINE
  5
B9
330
69
100
AcDbEntity
  8
$DDT_AUDIT_GENERATED_(AC)
  6
Continuous
 62
     7
100
AcDbLine
 10
34.6184886893
 20
385.1457367699
 30
0.0
 11
32.3690769449
 21
385.1457367699
 31
0.0
  0
LINE
  5
BA
330
69
100
AcDbEntity
  8
$DDT_AUDIT_GENERATED_(AC)
  6
Continuous
 62
     7
100
AcDbLine
 10
40.4129502402
 20
385.497827957
 30
0.0
 11
40.4129502402
 21
385.7106483691
 31
0.0
  0
ELLIPSE
  5
BB
330
69
100
AcDbEntity
  8
$DDT_AUDIT_GENERATED_(AC)
  6
Continuous
 62
     7
100
AcDbEllipse
 10
40.8684886893
 20
385.4123229212
 30
0.0
 11
0.5196299438963559
 21
0.0
 31
0.0
210
0.0
220
0.0
230
1.0
 40
0.3420201433
 41
2.639670372565438
 42
3.141592653589793
  0
LINE
  5
BC
330
69
100
AcDbEntity
  8
$DDT_AUDIT_GENERATED_(AC)
  6
Continuous
 62
     7
100
AcDbLine
 10
38.9542854511
 20
385.3268178853
 30
0.0
 11
40.3488587454
 21
385.3268178853
 31
0.0
  0
LINE
  5
BD
330
69
100
AcDbEntity
  8
$DDT_AUDIT_GENERATED_(AC)
  6
Continuous
 62
     7
100
AcDbLine
 10
39.3079654466
 20
385.497827957
 30
0.0
 11
40.4129502402
 21
385.497827957
 31
0.0
  0
ELLIPSE
  5
BE
330
69
100
AcDbEntity
  8
$DDT_AUDIT_GENERATED_(AC)
  6
Continuous
 62
     7
100
AcDbEllipse
 10
40.8684886893
 20
385.4123229212
 30
0.0
 11
0.5196299438963452
 21
0.0
 31
0.0
210
0.0
220
0.0
230
1.0
 40
0.3420201433
 41
0.5452752701723679
 42
1.549119832220897
  0
LINE
  5
BF
330
69
100
AcDbEntity
  8
$DDT_AUDIT_GENERATED_(AC)
  6
Continuous
 62
     7
100
AcDbLine
 10
40.8797515628
 20
385.5900050771
 30
0.0
 11
40.8797515628
 21
385.7273334784
 31
0.0
  0
LINE
  5
C0
330
69
100
AcDbEntity
  8
$DDT_AUDIT_GENERATED_(AC)
  6
Continuous
 62
     7
100
AcDbLine
 10
41.1041103517
 20
385.7229143857
 30
0.0
 11
40.8797515628
 21
385.5900050771
 31
0.0
  0
LINE
  5
C1
330
69
100
AcDbEntity
  8
$DDT_AUDIT_GENERATED_(AC)
  6
Continuous
 62
     7
100
AcDbLine
 10
41.6122888985
 20
385.6819373157
 30
0.0
 11
41.3127642647
 21
385.5045000412
 31
0.0
  0
LINE
  5
C2
330
69
100
AcDbEntity
  8
$DDT_AUDIT_GENERATED_(AC)
  6
Continuous
 62
     7
100
AcDbLine
 10
42.1527028654
 20
384.8225693108
 30
0.0
 11
41.3881186332
 21
385.2755061546
 31
0.0
  0
LINE
  5
C3
330
69
100
AcDbEntity
  8
$DDT_AUDIT_GENERATED_(AC)
  6
Continuous
 62
     7
100
AcDbLine
 10
42.1527028654
 20
385.5817538704
 30
0.0
 11
42.1527028654
 21
384.8225693108
 31
0.0
  0
LINE
  5
C4
330
69
100
AcDbEntity
  8
$DDT_AUDIT_GENERATED_(AC)
  6
Continuous
 62
     7
100
AcDbLine
 10
41.7196901635
 20
384.737064275
 30
0.0
 11
41.2021036069
 21
385.0436806182
 31
0.0
  0
ELLIPSE
  5
C5
330
69
100
AcDbEntity
  8
$DDT_AUDIT_GENERATED_(AC)
  6
Continuous
 62
     7
100
AcDbEllipse
 10
40.8684886893
 20
385.4123229212
 30
0.0
 11
2.150000000001332
 21
-4.857225732735060E-13
 31
0.0
210
0.0
220
0.0
230
1.0
 40
0.3420201433
 41
-1.163740259645574
 42
-0.9306548427470043
  0
ELLIPSE
  5
C6
330
69
100
AcDbEntity
  8
$DDT_AUDIT_GENERATED_(AC)
  6
Continuous
 62
     7
100
AcDbEllipse
 10
40.8684882333
 20
385.179938826
 30
0.0
 11
-8.499999543789619
 21
-4.575645418114505E-8
 31
0.0
210
0.0
220
0.0
230
1.0
 40
0.3420201515
 41
-0.2735643741970826
 42
-0.250034418967596
  0
ELLIPSE
  5
C7
330
69
100
AcDbEntity
  8
$DDT_AUDIT_GENERATED_(AC)
  6
Continuous
 62
     7
100
AcDbEllipse
 10
40.8684886893
 20
385.1799387842
 30
0.0
 11
-8.500000000032955
 21
2.234323837058128E-12
 31
0.0
210
0.0
220
0.0
230
1.0
 40
0.3420201433
 41
6.033150896669111
 42
6.271420329891682
  0
ELLIPSE
  5
C8
330
69
100
AcDbEntity
  8
$DDT_AUDIT_GENERATED_(AC)
  6
Continuous
 62
     7
100
AcDbEllipse
 10
40.8684887187
 20
385.1799387816
 30
0.0
 11
-6.250000029488915
 21
2.914835040002117E-9
 31
0.0
210
0.0
220
0.0
230
1.0
 40
0.3420201426
 41
-0.2778000697356084
 42
-0.245798704323076
  0
LINE
  5
C9
330
69
100
AcDbEntity
  8
$DDT_AUDIT_GENERATED_(AC)
  6
Continuous
 62
     7
100
AcDbLine
 10
34.8581069696
 20
385.7661628647
 30
0.0
 11
34.8581069696
 21
386.3272882614
 31
0.0
  0
LINE
  5
CA
330
69
100
AcDbEntity
  8
$DDT_AUDIT_GENERATED_(AC)
  6
Continuous
 62
     7
100
AcDbLine
 10
34.8581069696
 20
385.7661628647
 30
0.0
 11
32.6845692816
 21
385.9653545987
 31
0.0
  0
LINE
  5
CB
330
69
100
AcDbEntity
  8
$DDT_AUDIT_GENERATED_(AC)
  6
Continuous
 62
     7
100
AcDbLine
 10
34.8063431606
 20
385.7000896468
 30
0.0
 11
32.6328054726
 21
385.8992813808
 31
0.0
  0
ELLIPSE
  5
CC
330
69
100
AcDbEntity
  8
$DDT_AUDIT_GENERATED_(AC)
  6
Continuous
 62
     7
100
AcDbEllipse
 10
40.8684886893
 20
385.1799387842
 30
0.0
 11
-8.500000000023933
 21
3.844147222764605E-12
 31
0.0
210
0.0
220
0.0
230
1.0
 40
0.3420201433
 41
-0.3425913452226856
 42
-0.2735643650867292
  0
ELLIPSE
  5
CD
330
69
100
AcDbEntity
  8
$DDT_AUDIT_GENERATED_(AC)
  6
Continuous
 62
     7
100
AcDbEllipse
 10
40.8684886363
 20
385.1799387947
 30
0.0
 11
-6.249999946482415
 21
-1.025039775282011E-8
 31
0.0
210
0.0
220
0.0
230
1.0
 40
0.3420201442
 41
-0.5395994611030535
 42
-0.5075980954558945
  0
LINE
  5
CE
330
69
100
AcDbEntity
  8
$DDT_AUDIT_GENERATED_(AC)
  6
Continuous
 62
     7
100
AcDbLine
 10
35.5065227803
 20
386.2782347286
 30
0.0
 11
35.5065227803
 21
386.9654701804
 31
0.0
  0
LINE
  5
CF
330
69
100
AcDbEntity
  8
$DDT_AUDIT_GENERATED_(AC)
  6
Continuous
 62
     7
100
AcDbLine
 10
35.5065227803
 20
386.2782347286
 30
0.0
 11
33.6385302855
 21
386.6470986545
 31
0.0
  0
LINE
  5
D0
330
69
100
AcDbEntity
  8
$DDT_AUDIT_GENERATED_(AC)
  6
Continuous
 62
     7
100
AcDbLine
 10
35.4065227803
 20
386.218995102
 30
0.0
 11
33.5290413901
 21
386.5897327567
 31
0.0
  0
ELLIPSE
  5
D1
330
69
100
AcDbEntity
  8
$DDT_AUDIT_GENERATED_(AC)
  6
Continuous
 62
     7
100
AcDbEllipse
 10
40.8684887301
 20
385.1799387703
 30
0.0
 11
-6.250000043280133
 21
1.117957115770452E-8
 31
0.0
210
0.0
220
0.0
230
1.0
 40
0.3420201433
 41
-0.8013988431482666
 42
-0.7693974778053185
  0
LINE
  5
D2
330
69
100
AcDbEntity
  8
$DDT_AUDIT_GENERATED_(AC)
  6
Continuous
 62
     7
100
AcDbLine
 10
36.5203477066
 20
386.7154595388
 30
0.0
 11
36.5203477066
 21
387.5692910018
 31
0.0
  0
LINE
  5
D3
330
69
100
AcDbEntity
  8
$DDT_AUDIT_GENERATED_(AC)
  6
Continuous
 62
     7
100
AcDbLine
 10
36.5203477066
 20
386.7154595388
 30
0.0
 11
35.0718254498
 21
387.2108833287
 31
0.0
  0
LINE
  5
D4
330
69
100
AcDbEntity
  8
$DDT_AUDIT_GENERATED_(AC)
  6
Continuous
 62
     7
100
AcDbLine
 10
36.3789263504
 20
386.6670905863
 30
0.0
 11
34.9240813257
 21
387.1646768902
 31
0.0
  0
ELLIPSE
  5
D5
330
69
100
AcDbEntity
  8
$DDT_AUDIT_GENERATED_(AC)
  6
Continuous
 62
     7
100
AcDbEllipse
 10
40.8684887178
 20
385.1799387673
 30
0.0
 11
-6.250000035737211
 21
9.599043782060335E-9
 31
0.0
210
0.0
220
0.0
230
1.0
 40
0.3420201441
 41
-1.063198231362229
 42
-1.031196866017985
  0
LINE
  5
D6
330
69
100
AcDbEntity
  8
$DDT_AUDIT_GENERATED_(AC)
  6
Continuous
 62
     7
100
AcDbLine
 10
37.8304912552
 20
387.0480411473
 30
0.0
 11
37.8304912552
 21
387.7802631635
 31
0.0
  0
LINE
  5
D7
330
69
100
AcDbEntity
  8
$DDT_AUDIT_GENERATED_(AC)
  6
Continuous
 62
     7
100
AcDbLine
 10
37.8304912552
 20
387.0480411473
 30
0.0
 11
36.8470671409
 21
387.6306179199
 31
0.0
  0
LINE
  5
D8
330
69
100
AcDbEntity
  8
$DDT_AUDIT_GENERATED_(AC)
  6
Continuous
 62
     7
100
AcDbLine
 10
37.6572861745
 20
387.0138391329
 30
0.0
 11
36.670702255
 21
387.5982877623
 31
0.0
  0
ELLIPSE
  5
D9
330
69
100
AcDbEntity
  8
$DDT_AUDIT_GENERATED_(AC)
  6
Continuous
 62
     7
100
AcDbEllipse
 10
40.8684887024
 20
385.1799387674
 30
0.0
 11
-6.250000027200731
 21
4.939978981433057E-9
 31
0.0
210
0.0
220
0.0
230
1.0
 40
0.3420201445
 41
-1.324997620388455
 42
-1.292996255028347
  0
LINE
  5
DA
330
69
100
AcDbEntity
  8
$DDT_AUDIT_GENERATED_(AC)
  6
Continuous
 62
     7
100
AcDbLine
 10
39.3476693085
 20
387.2533146668
 30
0.0
 11
39.3476693085
 21
387.9217598288
 31
0.0
  0
LINE
  5
DB
330
69
100
AcDbEntity
  8
$DDT_AUDIT_GENERATED_(AC)
  6
Continuous
 62
     7
100
AcDbLine
 10
39.3476693085
 20
387.2533146668
 30
0.0
 11
38.8516023229
 21
387.8865126995
 31
0.0
  0
LINE
  5
DC
330
69
100
AcDbEntity
  8
$DDT_AUDIT_GENERATED_(AC)
  6
Continuous
 62
     7
100
AcDbLine
 10
39.1544841432
 20
387.2356104014
 30
0.0
 11
38.6575707997
 21
387.8698887563
 31
0.0
  0
ARC
  5
DD
330
69
100
AcDbEntity
  8
$DDT_AUDIT_GENERATED_(AC)
  6
Continuous
 62
     7
100
AcDbCircle
 10
40.8684886893
 20
369.0458527388
 30
0.0
 40
18.27171195670157
100
AcDbArc
 50
89.6864220185
 51
90.3135779815
  0
LINE
  5
DE
330
69
100
AcDbEntity
  8
$DDT_AUDIT_GENERATED_(AC)
  6
Continuous
 62
     7
100
AcDbLine
 10
40.9684886893
 20
387.3172910464
 30
0.0
 11
40.9684886893
 21
387.9673789372
 31
0.0
  0
LINE
  5
DF
330
69
100
AcDbEntity
  8
$DDT_AUDIT_GENERATED_(AC)
  6
Continuous
 62
     7
100
AcDbLine
 10
40.7684886893
 20
387.3172910464
 30
0.0
 11
40.7684886893
 21
387.9673789372
 31
0.0
  0
ELLIPSE
  5
E0
330
69
100
AcDbEntity
  8
$DDT_AUDIT_GENERATED_(AC)
  6
Continuous
 62
     7
100
AcDbEllipse
 10
40.8684886743
 20
385.1799387651
 30
0.0
 11
6.250000030779702
 21
5.587086349123638E-9
 31
0.0
210
0.0
220
0.0
230
1.0
 40
0.3420201447
 41
1.29299625486516
 42
1.32499762020806
  0
LINE
  5
E1
330
69
100
AcDbEntity
  8
$DDT_AUDIT_GENERATED_(AC)
  6
Continuous
 62
     7
100
AcDbLine
 10
42.5824932353
 20
387.2356104014
 30
0.0
 11
43.0794065788
 21
387.8698887563
 31
0.0
  0
LINE
  5
E2
330
69
100
AcDbEntity
  8
$DDT_AUDIT_GENERATED_(AC)
  6
Continuous
 62
     7
100
AcDbLine
 10
42.38930807
 20
387.2533146668
 30
0.0
 11
42.8853750556
 21
387.8865126995
 31
0.0
  0
LINE
  5
E3
330
69
100
AcDbEntity
  8
$DDT_AUDIT_GENERATED_(AC)
  6
Continuous
 62
     7
100
AcDbLine
 10
42.38930807
 20
387.2533146668
 30
0.0
 11
42.38930807
 21
387.9217598288
 31
0.0
  0
ELLIPSE
  5
E4
330
69
100
AcDbEntity
  8
$DDT_AUDIT_GENERATED_(AC)
  6
Continuous
 62
     7
100
AcDbEllipse
 10
40.8684886602
 20
385.179938767
 30
0.0
 11
6.250000036286114
 21
9.745912410430435E-9
 31
0.0
210
0.0
220
0.0
230
1.0
 40
0.3420201441
 41
1.031196865981562
 42
1.063198231323564
  0
LINE
  5
E5
330
69
100
AcDbEntity
  8
$DDT_AUDIT_GENERATED_(AC)
  6
Continuous
 62
     7
100
AcDbLine
 10
44.079691204
 20
387.0138391329
 30
0.0
 11
45.0662751235
 21
387.5982877623
 31
0.0
  0
LINE
  5
E6
330
69
100
AcDbEntity
  8
$DDT_AUDIT_GENERATED_(AC)
  6
Continuous
 62
     7
100
AcDbLine
 10
43.9064861233
 20
387.0480411473
 30
0.0
 11
44.8899102376
 21
387.6306179199
 31
0.0
  0
LINE
  5
E7
330
69
100
AcDbEntity
  8
$DDT_AUDIT_GENERATED_(AC)
  6
Continuous
 62
     7
100
AcDbLine
 10
43.9064861233
 20
387.0480411473
 30
0.0
 11
43.9064861233
 21
387.7802631635
 31
0.0
  0
ELLIPSE
  5
E8
330
69
100
AcDbEntity
  8
$DDT_AUDIT_GENERATED_(AC)
  6
Continuous
 62
     7
100
AcDbEllipse
 10
40.8684886485
 20
385.1799387703
 30
0.0
 11
6.250000043239333
 21
1.116741421558487E-8
 31
0.0
210
0.0
220
0.0
230
1.0
 40
0.3420201433
 41
0.7693974778086164
 42
0.8013988431516461
  0
LINE
  5
E9
330
69
100
AcDbEntity
  8
$DDT_AUDIT_GENERATED_(AC)
  6
Continuous
 62
     7
100
AcDbLine
 10
45.3580510282
 20
386.6670905863
 30
0.0
 11
46.8128960528
 21
387.1646768902
 31
0.0
  0
LINE
  5
EA
330
69
100
AcDbEntity
  8
$DDT_AUDIT_GENERATED_(AC)
  6
Continuous
 62
     7
100
AcDbLine
 10
45.2166296719
 20
386.7154595388
 30
0.0
 11
46.6651519287
 21
387.2108833287
 31
0.0
  0
LINE
  5
EB
330
69
100
AcDbEntity
  8
$DDT_AUDIT_GENERATED_(AC)
  6
Continuous
 62
     7
100
AcDbLine
 10
45.2166296719
 20
386.7154595388
 30
0.0
 11
45.2166296719
 21
387.5692910018
 31
0.0
  0
ELLIPSE
  5
EC
330
69
100
AcDbEntity
  8
$DDT_AUDIT_GENERATED_(AC)
  6
Continuous
 62
     7
100
AcDbEllipse
 10
40.8684886276
 20
385.179938772
 30
0.0
 11
6.2500000623391
 21
1.196004406622819E-8
 31
0.0
210
0.0
220
0.0
230
1.0
 40
0.3420201424
 41
0.5075980898227517
 42
0.5395994551309448
  0
LINE
  5
ED
330
69
100
AcDbEntity
  8
$DDT_AUDIT_GENERATED_(AC)
  6
Continuous
 62
     7
100
AcDbLine
 10
46.3304545982
 20
386.218995102
 30
0.0
 11
48.2079359884
 21
386.5897327567
 31
0.0
  0
LINE
  5
EE
330
69
100
AcDbEntity
  8
$DDT_AUDIT_GENERATED_(AC)
  6
Continuous
 62
     7
100
AcDbLine
 10
46.2304545982
 20
386.2782347286
 30
0.0
 11
48.098447093
 21
386.6470986545
 31
0.0
  0
LINE
  5
EF
330
69
100
AcDbEntity
  8
$DDT_AUDIT_GENERATED_(AC)
  6
Continuous
 62
     7
100
AcDbLine
 10
46.2304545982
 20
386.2782347286
 30
0.0
 11
46.2304545982
 21
386.9654701804
 31
0.0
  0
ELLIPSE
  5
F0
330
69
100
AcDbEntity
  8
$DDT_AUDIT_GENERATED_(AC)
  6
Continuous
 62
     7
100
AcDbEllipse
 10
40.8684891453
 20
385.179938826
 30
0.0
 11
8.499999543723645
 21
-4.565339772888422E-8
 31
0.0
210
0.0
220
0.0
230
1.0
 40
0.3420201516
 41
0.250034418964411
 42
0.2735643741939886
  0
ELLIPSE
  5
F1
330
69
100
AcDbEntity
  8
$DDT_AUDIT_GENERATED_(AC)
  6
Continuous
 62
     7
100
AcDbEllipse
 10
40.8684886892
 20
385.1799387842
 30
0.0
 11
8.500000000033108
 21
4.635181127810029E-12
 31
0.0
210
0.0
220
0.0
230
1.0
 40
0.3420201433
 41
0.2735643650865462
 42
0.3425913452224753
  0
ELLIPSE
  5
F2
330
69
100
AcDbEntity
  8
$DDT_AUDIT_GENERATED_(AC)
  6
Continuous
 62
     7
100
AcDbEllipse
 10
40.8684886336
 20
385.1799387791
 30
0.0
 11
6.250000055674119
 21
5.597897145825925E-9
 31
0.0
210
0.0
220
0.0
230
1.0
 40
0.342020142
 41
0.2457987036690202
 42
0.27780006901219
  0
LINE
  5
F3
330
69
100
AcDbEntity
  8
$DDT_AUDIT_GENERATED_(AC)
  6
Continuous
 62
     7
100
AcDbLine
 10
46.9306342179
 20
385.7000896468
 30
0.0
 11
49.1041719059
 21
385.8992813808
 31
0.0
  0
LINE
  5
F4
330
69
100
AcDbEntity
  8
$DDT_AUDIT_GENERATED_(AC)
  6
Continuous
 62
     7
100
AcDbLine
 10
46.8788704089
 20
385.7661628647
 30
0.0
 11
49.0524080969
 21
385.9653545987
 31
0.0
  0
LINE
  5
F5
330
69
100
AcDbEntity
  8
$DDT_AUDIT_GENERATED_(AC)
  6
Continuous
 62
     7
100
AcDbLine
 10
46.8788704089
 20
385.7661628647
 30
0.0
 11
46.8788704089
 21
386.3272882614
 31
0.0
  0
ARC
  5
F6
330
69
100
AcDbEntity
  8
$DDT_AUDIT_GENERATED_(AC)
  6
Continuous
 62
     7
100
AcDbCircle
 10
48.3736581297
 20
385.1799387842
 30
0.0
 40
0.9948304059787124
100
AcDbArc
 50
358.0297975391
 51
1.9702024609
  0
ELLIPSE
  5
F7
330
69
100
AcDbEntity
  8
$DDT_AUDIT_GENERATED_(AC)
  6
Continuous
 62
     7
100
AcDbEllipse
 10
40.8684886892
 20
385.1799387842
 30
0.0
 11
8.50000000003114
 21
1.040834085586084E-12
 31
0.0
210
0.0
220
0.0
230
1.0
 40
0.3420201433
 41
0.0117649772879799
 42
0.2500344105105674
  0
ARC
  5
F8
330
69
100
AcDbEntity
  8
$DDT_AUDIT_GENERATED_(AC)
  6
Continuous
 62
     7
100
AcDbCircle
 10
46.386671111
 20
385.1799387842
 30
0.0
 40
0.7318171920807631
100
AcDbArc
 50
0.0
 51
2.6787361323
  0
LINE
  5
F9
330
69
100
AcDbEntity
  8
$DDT_AUDIT_GENERATED_(AC)
  6
Continuous
 62
     7
100
AcDbLine
 10
47.1184886893
 20
385.1457367699
 30
0.0
 11
49.3679004336
 21
385.1457367699
 31
0.0
  0
LINE
  5
FA
330
69
100
AcDbEntity
  8
$DDT_AUDIT_GENERATED_(AC)
  6
Continuous
 62
     7
100
AcDbLine
 10
47.117688638
 20
385.2141407986
 30
0.0
 11
49.3679004336
 21
385.2141407986
 31
0.0
  0
LINE
  5
FB
330
69
100
AcDbEntity
  8
$DDT_AUDIT_GENERATED_(AC)
  6
Continuous
 62
     7
100
AcDbLine
 10
47.117688638
 20
385.2141407986
 30
0.0
 11
47.117688638
 21
385.717232066
 31
0.0
  0
ELLIPSE
  5
FC
330
69
100
AcDbEntity
  8
$DDT_AUDIT_GENERATED_(AC)
  6
Continuous
 62
     7
100
AcDbEllipse
 10
40.8684891451
 20
385.1799387424
 30
0.0
 11
8.499999543901033
 21
4.574510215071825E-8
 31
0.0
210
0.0
220
0.0
230
1.0
 40
0.3420201515
 41
-0.2735643741947502
 42
-0.2500344189654147
  0
ELLIPSE
  5
FD
330
69
100
AcDbEntity
  8
$DDT_AUDIT_GENERATED_(AC)
  6
Continuous
 62
     7
100
AcDbEllipse
 10
40.8684886892
 20
385.1799387842
 30
0.0
 11
8.50000000003088
 21
-2.123301534595612E-12
 31
0.0
210
0.0
220
0.0
230
1.0
 40
0.3420201433
 41
6.03315089666908
 42
6.271420329891672
  0
LINE
  5
FE
330
69
100
AcDbEntity
  8
$DDT_AUDIT_GENERATED_(AC)
  6
Continuous
 62
     7
100
AcDbLine
 10
49.1041719059
 20
384.4605961877
 30
0.0
 11
49.1041719059
 21
385.1457367699
 31
0.0
  0
LINE
  5
FF
330
69
100
AcDbEntity
  8
$DDT_AUDIT_GENERATED_(AC)
  6
Continuous
 62
     7
100
AcDbLine
 10
47.0026606833
 20
384.5823700652
 30
0.0
 11
49.0524080969
 21
384.3945229698
 31
0.0
  0
LINE
  5
100
330
69
100
AcDbEntity
  8
$DDT_AUDIT_GENERATED_(AC)
  6
Continuous
 62
     7
100
AcDbLine
 10
47.0379569112
 20
384.6499524385
 30
0.0
 11
49.1041719059
 21
384.4605961877
 31
0.0
  0
ELLIPSE
  5
101
330
69
100
AcDbEntity
  8
$DDT_AUDIT_GENERATED_(AC)
  6
Continuous
 62
     7
100
AcDbEllipse
 10
40.8684890689
 20
385.1799387093
 30
0.0
 11
8.499999616403333
 21
7.348753550129317E-8
 31
0.0
210
0.0
220
0.0
230
1.0
 40
0.3420201477
 41
-0.5353637673157223
 42
-0.5118338121328243
  0
ELLIPSE
  5
102
330
69
100
AcDbEntity
  8
$DDT_AUDIT_GENERATED_(AC)
  6
Continuous
 62
     7
100
AcDbEllipse
 10
40.8684886892
 20
385.1799387842
 30
0.0
 11
8.50000000002615
 21
-4.163336342344337E-12
 31
0.0
210
0.0
220
0.0
230
1.0
 40
0.3420201433
 41
-0.5118337983092491
 42
-0.2735643650866706
  0
LINE
  5
103
330
69
100
AcDbEntity
  8
$DDT_AUDIT_GENERATED_(AC)
  6
Continuous
 62
     7
100
AcDbLine
 10
48.2791951771
 20
383.756073586
 30
0.0
 11
48.2791951771
 21
384.465383311
 31
0.0
  0
LINE
  5
104
330
69
100
AcDbEntity
  8
$DDT_AUDIT_GENERATED_(AC)
  6
Continuous
 62
     7
100
AcDbLine
 10
46.4592887083
 20
384.0364560158
 30
0.0
 11
48.1791951771
 21
383.6968339595
 31
0.0
  0
LINE
  5
105
330
69
100
AcDbEntity
  8
$DDT_AUDIT_GENERATED_(AC)
  6
Continuous
 62
     7
100
AcDbLine
 10
46.5460607092
 20
384.0983077148
 30
0.0
 11
48.2791951771
 21
383.756073586
 31
0.0
  0
ELLIPSE
  5
106
330
69
100
AcDbEntity
  8
$DDT_AUDIT_GENERATED_(AC)
  6
Continuous
 62
     7
100
AcDbEllipse
 10
40.8684889991
 20
385.1799386783
 30
0.0
 11
8.499999671360309
 21
8.486901459381357E-8
 31
0.0
210
0.0
220
0.0
230
1.0
 40
0.3420201433
 41
-0.797163157296211
 42
-0.7736332021136105
  0
ELLIPSE
  5
107
330
69
100
AcDbEntity
  8
$DDT_AUDIT_GENERATED_(AC)
  6
Continuous
 62
     7
100
AcDbEllipse
 10
40.8684886893
 20
385.1799387842
 30
0.0
 11
8.49999999999071
 21
2.373101715136272E-12
 31
0.0
210
0.0
220
0.0
230
1.0
 40
0.3420201433
 41
-0.7736331861098682
 42
-0.5353637528867328
  0
LINE
  5
108
330
69
100
AcDbEntity
  8
$DDT_AUDIT_GENERATED_(AC)
  6
Continuous
 62
     7
100
AcDbLine
 10
46.9491910479
 20
383.1485850445
 30
0.0
 11
46.9491910479
 21
383.9397172437
 31
0.0
  0
LINE
  5
109
330
69
100
AcDbEntity
  8
$DDT_AUDIT_GENERATED_(AC)
  6
Continuous
 62
     7
100
AcDbLine
 10
45.487230599
 20
383.5518670617
 30
0.0
 11
46.8077696917
 21
383.100216092
 31
0.0
  0
LINE
  5
10A
330
69
100
AcDbEntity
  8
$DDT_AUDIT_GENERATED_(AC)
  6
Continuous
 62
     7
100
AcDbLine
 10
45.6198418516
 20
383.6032492472
 30
0.0
 11
46.9491910479
 21
383.1485850445
 31
0.0
  0
ELLIPSE
  5
10B
330
69
100
AcDbEntity
  8
$DDT_AUDIT_GENERATED_(AC)
  6
Continuous
 62
     7
100
AcDbEllipse
 10
40.8684889091
 20
385.179938654
 30
0.0
 11
8.499999725310005
 21
7.376696475880351E-8
 31
0.0
210
0.0
220
0.0
230
1.0
 40
0.3420201389
 41
-1.058962542959188
 42
-1.035432587774789
  0
ELLIPSE
  5
10C
330
69
100
AcDbEntity
  8
$DDT_AUDIT_GENERATED_(AC)
  6
Continuous
 62
     7
100
AcDbEllipse
 10
40.8684886893
 20
385.1799387842
 30
0.0
 11
8.499999999996916
 21
6.522560269672795E-13
 31
0.0
210
0.0
220
0.0
230
1.0
 40
0.3420201433
 41
-1.035432573908697
 42
-0.7971631406856705
  0
LINE
  5
10D
330
69
100
AcDbEntity
  8
$DDT_AUDIT_GENERATED_(AC)
  6
Continuous
 62
     7
100
AcDbLine
 10
45.2047971018
 20
382.6795299034
 30
0.0
 11
45.2047971018
 21
383.4525703172
 31
0.0
  0
LINE
  5
10E
330
69
100
AcDbEntity
  8
$DDT_AUDIT_GENERATED_(AC)
  6
Continuous
 62
     7
100
AcDbLine
 10
44.1436029633
 20
383.1713692907
 30
0.0
 11
45.0315920211
 21
382.6453278891
 31
0.0
  0
LINE
  5
10F
330
69
100
AcDbEntity
  8
$DDT_AUDIT_GENERATED_(AC)
  6
Continuous
 62
     7
100
AcDbLine
 10
44.312407261
 20
383.2081783125
 30
0.0
 11
45.2047971018
 21
382.6795299034
 31
0.0
  0
ELLIPSE
  5
110
330
69
100
AcDbEntity
  8
$DDT_AUDIT_GENERATED_(AC)
  6
Continuous
 62
     7
100
AcDbEllipse
 10
40.8684888114
 20
385.1799386283
 30
0.0
 11
8.499999748178302
 21
4.569081224481408E-8
 31
0.0
210
0.0
220
0.0
230
1.0
 40
0.3420201351
 41
-1.320761925390995
 42
-1.297231970161489
  0
ELLIPSE
  5
111
330
69
100
AcDbEntity
  8
$DDT_AUDIT_GENERATED_(AC)
  6
Continuous
 62
     7
100
AcDbEllipse
 10
40.8684886892
 20
385.1799387842
 30
0.0
 11
8.500000000007429
 21
-1.609823385706477E-12
 31
0.0
210
0.0
220
0.0
230
1.0
 40
0.3420201433
 41
-1.29723196170723
 42
-1.058962528484455
  0
LINE
  5
112
330
69
100
AcDbEntity
  8
$DDT_AUDIT_GENERATED_(AC)
  6
Continuous
 62
     7
100
AcDbLine
 10
43.1648909035
 20
382.3808734955
 30
0.0
 11
43.1648909035
 21
383.0038940082
 31
0.0
  0
LINE
  5
113
330
69
100
AcDbEntity
  8
$DDT_AUDIT_GENERATED_(AC)
  6
Continuous
 62
     7
100
AcDbLine
 10
42.5268521011
 20
382.9309966729
 30
0.0
 11
42.9717057382
 21
382.3631692301
 31
0.0
  0
LINE
  5
114
330
69
100
AcDbEntity
  8
$DDT_AUDIT_GENERATED_(AC)
  6
Continuous
 62
     7
100
AcDbLine
 10
42.7188589153
 20
382.9502050286
 30
0.0
 11
43.1648909035
 21
382.3808734955
 31
0.0
  0
ARC
  5
115
330
69
100
AcDbEntity
  8
$DDT_AUDIT_GENERATED_(AC)
  6
Continuous
 62
     7
100
AcDbCircle
 10
40.8684886893
 20
407.1235862182
 30
0.0
 40
24.85081865839965
100
AcDbArc
 50
269.7694404561
 51
270.2305595439
  0
ELLIPSE
  5
116
330
69
100
AcDbEntity
  8
$DDT_AUDIT_GENERATED_(AC)
  6
Continuous
 62
     7
100
AcDbEllipse
 10
40.8684886893
 20
385.1799387842
 30
0.0
 11
8.500000000005373
 21
-5.134781488891349E-13
 31
0.0
210
0.0
220
0.0
230
1.0
 40
0.3420201433
 41
4.724153957672955
 42
4.962423390895777
  0
LINE
  5
117
330
69
100
AcDbEntity
  8
$DDT_AUDIT_GENERATED_(AC)
  6
Continuous
 62
     7
100
AcDbLine
 10
40.7684886893
 20
382.8546479979
 30
0.0
 11
40.7684886893
 21
382.2729687612
 31
0.0
  0
LINE
  5
118
330
69
100
AcDbEntity
  8
$DDT_AUDIT_GENERATED_(AC)
  6
Continuous
 62
     7
100
AcDbLine
 10
40.9684886893
 20
382.8546479979
 30
0.0
 11
40.9684886893
 21
382.2729687612
 31
0.0
  0
ELLIPSE
  5
119
330
69
100
AcDbEntity
  8
$DDT_AUDIT_GENERATED_(AC)
  6
Continuous
 62
     7
100
AcDbEllipse
 10
40.8684885717
 20
385.1799386341
 30
0.0
 11
-8.499999757699751
 21
4.397959774138371E-8
 31
0.0
210
0.0
220
0.0
230
1.0
 40
0.3420201354
 41
1.297231969838567
 42
1.320761925043457
  0
ELLIPSE
  5
11A
330
69
100
AcDbEntity
  8
$DDT_AUDIT_GENERATED_(AC)
  6
Continuous
 62
     7
100
AcDbEllipse
 10
40.8684886893
 20
385.1799387842
 30
0.0
 11
-8.500000000007047
 21
-7.632783294297951E-13
 31
0.0
210
0.0
220
0.0
230
1.0
 40
0.3420201433
 41
1.32076191628378
 42
1.559031349506555
  0
LINE
  5
11B
330
69
100
AcDbEntity
  8
$DDT_AUDIT_GENERATED_(AC)
  6
Continuous
 62
     7
100
AcDbLine
 10
38.572086475
 20
382.3808734955
 30
0.0
 11
38.572086475
 21
383.0038940082
 31
0.0
  0
LINE
  5
11C
330
69
100
AcDbEntity
  8
$DDT_AUDIT_GENERATED_(AC)
  6
Continuous
 62
     7
100
AcDbLine
 10
39.0181184632
 20
382.9502050286
 30
0.0
 11
38.572086475
 21
382.3808734955
 31
0.0
  0
LINE
  5
11D
330
69
100
AcDbEntity
  8
$DDT_AUDIT_GENERATED_(AC)
  6
Continuous
 62
     7
100
AcDbLine
 10
39.2101252774
 20
382.9309966729
 30
0.0
 11
38.7652716403
 21
382.3631692301
 31
0.0
  0
ELLIPSE
  5
11E
330
69
100
AcDbEntity
  8
$DDT_AUDIT_GENERATED_(AC)
  6
Continuous
 62
     7
100
AcDbEllipse
 10
40.8684884536
 20
385.1799386446
 30
0.0
 11
-8.49999970548736
 21
7.904847609818688E-8
 31
0.0
210
0.0
220
0.0
230
1.0
 40
0.3420201386
 41
1.035432588767785
 42
1.058962543996147
  0
ELLIPSE
  5
11F
330
69
100
AcDbEntity
  8
$DDT_AUDIT_GENERATED_(AC)
  6
Continuous
 62
     7
100
AcDbEllipse
 10
40.8684886893
 20
385.1799387842
 30
0.0
 11
-8.499999999996502
 21
7.077671781985373E-13
 31
0.0
210
0.0
220
0.0
230
1.0
 40
0.3420201433
 41
1.058962528484815
 42
1.297231961707862
  0
LINE
  5
120
330
69
100
AcDbEntity
  8
$DDT_AUDIT_GENERATED_(AC)
  6
Continuous
 62
     7
100
AcDbLine
 10
36.5321802767
 20
382.6795299034
 30
0.0
 11
36.5321802767
 21
383.4525703172
 31
0.0
  0
LINE
  5
121
330
69
100
AcDbEntity
  8
$DDT_AUDIT_GENERATED_(AC)
  6
Continuous
 62
     7
100
AcDbLine
 10
37.4245701175
 20
383.2081783125
 30
0.0
 11
36.5321802767
 21
382.6795299034
 31
0.0
  0
LINE
  5
122
330
69
100
AcDbEntity
  8
$DDT_AUDIT_GENERATED_(AC)
  6
Continuous
 62
     7
100
AcDbLine
 10
37.5933744152
 20
383.1713692907
 30
0.0
 11
36.7053853575
 21
382.6453278891
 31
0.0
  0
ELLIPSE
  5
123
330
69
100
AcDbEntity
  8
$DDT_AUDIT_GENERATED_(AC)
  6
Continuous
 62
     7
100
AcDbEllipse
 10
40.8684883561
 20
385.1799386703
 30
0.0
 11
-8.499999646648639
 21
9.124533073556762E-8
 31
0.0
210
0.0
220
0.0
230
1.0
 40
0.3420201433
 41
0.7736332033136135
 42
0.797163158541911
  0
ELLIPSE
  5
124
330
69
100
AcDbEntity
  8
$DDT_AUDIT_GENERATED_(AC)
  6
Continuous
 62
     7
100
AcDbEllipse
 10
40.8684886893
 20
385.1799387842
 30
0.0
 11
-8.499999999995996
 21
8.604228440844963E-13
 31
0.0
210
0.0
220
0.0
230
1.0
 40
0.3420201433
 41
0.7971631406856949
 42
1.035432573908749
  0
LINE
  5
125
330
69
100
AcDbEntity
  8
$DDT_AUDIT_GENERATED_(AC)
  6
Continuous
 62
     7
100
AcDbLine
 10
34.7877863306
 20
383.1485850445
 30
0.0
 11
34.7877863306
 21
383.9397172437
 31
0.0
  0
LINE
  5
126
330
69
100
AcDbEntity
  8
$DDT_AUDIT_GENERATED_(AC)
  6
Continuous
 62
     7
100
AcDbLine
 10
36.1171355269
 20
383.6032492472
 30
0.0
 11
34.7877863306
 21
383.1485850445
 31
0.0
  0
LINE
  5
127
330
69
100
AcDbEntity
  8
$DDT_AUDIT_GENERATED_(AC)
  6
Continuous
 62
     7
100
AcDbLine
 10
36.2497467795
 20
383.5518670617
 30
0.0
 11
34.9292076868
 21
383.100216092
 31
0.0
  0
ELLIPSE
  5
128
330
69
100
AcDbEntity
  8
$DDT_AUDIT_GENERATED_(AC)
  6
Continuous
 62
     7
100
AcDbEllipse
 10
40.8684882812
 20
385.1799387037
 30
0.0
 11
-8.499999587723201
 21
7.898409704054643E-8
 31
0.0
210
0.0
220
0.0
230
1.0
 40
0.3420201481
 41
0.5118338131649471
 42
0.5353637683932628
  0
ELLIPSE
  5
129
330
69
100
AcDbEntity
  8
$DDT_AUDIT_GENERATED_(AC)
  6
Continuous
 62
     7
100
AcDbEllipse
 10
40.8684886893
 20
385.1799387842
 30
0.0
 11
-8.499999999999908
 21
2.359223927328458E-13
 31
0.0
210
0.0
220
0.0
230
1.0
 40
0.3420201433
 41
0.5353637528863788
 42
0.7736331861093597
  0
LINE
  5
12A
330
69
100
AcDbEntity
  8
$DDT_AUDIT_GENERATED_(AC)
  6
Continuous
 62
     7
100
AcDbLine
 10
33.4577822014
 20
383.756073586
 30
0.0
 11
33.4577822014
 21
384.465383311
 31
0.0
  0
LINE
  5
12B
330
69
100
AcDbEntity
  8
$DDT_AUDIT_GENERATED_(AC)
  6
Continuous
 62
     7
100
AcDbLine
 10
35.1909166693
 20
384.0983077148
 30
0.0
 11
33.4577822014
 21
383.756073586
 31
0.0
  0
LINE
  5
12C
330
69
100
AcDbEntity
  8
$DDT_AUDIT_GENERATED_(AC)
  6
Continuous
 62
     7
100
AcDbLine
 10
35.2776886702
 20
384.0364560158
 30
0.0
 11
33.5577822014
 21
383.6968339595
 31
0.0
  0
ELLIPSE
  5
12D
330
69
100
AcDbEntity
  8
$DDT_AUDIT_GENERATED_(AC)
  6
Continuous
 62
     7
100
AcDbEllipse
 10
40.8684881678
 20
385.1799387365
 30
0.0
 11
-8.499999478233343
 21
5.221534316035559E-8
 31
0.0
210
0.0
220
0.0
230
1.0
 40
0.3420201527
 41
0.2500344201790062
 42
0.2735643755023099
  0
ELLIPSE
  5
12E
330
69
100
AcDbEntity
  8
$DDT_AUDIT_GENERATED_(AC)
  6
Continuous
 62
     7
100
AcDbEllipse
 10
40.8684886893
 20
385.1799387842
 30
0.0
 11
-8.500000000030557
 21
-4.801714581503802E-12
 31
0.0
210
0.0
220
0.0
230
1.0
 40
0.3420201433
 41
0.2735643650865873
 42
0.5118337983091003
  0
LINE
  5
12F
330
69
100
AcDbEntity
  8
$DDT_AUDIT_GENERATED_(AC)
  6
Continuous
 62
     7
100
AcDbLine
 10
32.6328054726
 20
384.4605961877
 30
0.0
 11
32.6328054726
 21
385.1457367699
 31
0.0
  0
LINE
  5
130
330
69
100
AcDbEntity
  8
$DDT_AUDIT_GENERATED_(AC)
  6
Continuous
 62
     7
100
AcDbLine
 10
34.6990204673
 20
384.6499524385
 30
0.0
 11
32.6328054726
 21
384.4605961877
 31
0.0
  0
LINE
  5
131
330
69
100
AcDbEntity
  8
$DDT_AUDIT_GENERATED_(AC)
  6
Continuous
 62
     7
100
AcDbLine
 10
34.7343166952
 20
384.5823700652
 30
0.0
 11
32.6845692816
 21
384.3945229698
 31
0.0
  0
LINE
  5
132
330
69
100
AcDbEntity
  8
$DDT_AUDIT_GENERATED_(AC)
  6
Continuous
 62
     7
100
AcDbLine
 10
38.1240625197
 20
385.6527551578
 30
0.0
 11
38.1240625197
 21
385.2397923093
 31
0.0
  0
ELLIPSE
  5
133
330
69
100
AcDbEntity
  8
$DDT_AUDIT_GENERATED_(AC)
  6
Continuous
 62
     7
100
AcDbEllipse
 10
40.8684886893
 20
385.1799387842
 30
0.0
 11
2.750000000094679
 21
-1.942890293094024E-12
 31
0.0
210
0.0
220
0.0
230
1.0
 40
0.3420201433
 41
3.077913261334139
 42
3.141592653589793
  0
LINE
  5
134
330
69
100
AcDbEntity
  8
$DDT_AUDIT_GENERATED_(AC)
  6
Continuous
 62
     7
100
AcDbLine
 10
38.1240625197
 20
385.2397923093
 30
0.0
 11
35.6687188584
 21
385.2397923093
 31
0.0
  0
LINE
  5
135
330
69
100
AcDbEntity
  8
$DDT_AUDIT_GENERATED_(AC)
  6
Continuous
 62
     7
100
AcDbLine
 10
38.1184886893
 20
385.1200852591
 30
0.0
 11
35.6318625681
 21
385.1200852591
 31
0.0
  0
LINE
  5
136
330
69
100
AcDbEntity
  8
$DDT_AUDIT_GENERATED_(AC)
  6
Continuous
 62
     7
100
AcDbLine
 10
38.5792459076
 20
386.4163706086
 30
0.0
 11
38.5792459076
 21
385.7010979734
 31
0.0
  0
ELLIPSE
  5
137
330
69
100
AcDbEntity
  8
$DDT_AUDIT_GENERATED_(AC)
  6
Continuous
 62
     7
100
AcDbEllipse
 10
40.8684886892
 20
385.1799387842
 30
0.0
 11
-2.749999999991614
 21
-2.692290834716005E-12
 31
0.0
210
0.0
220
0.0
230
1.0
 40
0.3420201433
 41
-0.5872781678565433
 42
-0.4599193833422852
  0
LINE
  5
138
330
69
100
AcDbEntity
  8
$DDT_AUDIT_GENERATED_(AC)
  6
Continuous
 62
     7
100
AcDbLine
 10
38.5792459076
 20
385.7010979734
 30
0.0
 11
36.6823704642
 21
386.0756652829
 31
0.0
  0
LINE
  5
139
330
69
100
AcDbEntity
  8
$DDT_AUDIT_GENERATED_(AC)
  6
Continuous
 62
     7
100
AcDbLine
 10
38.4042459076
 20
385.5974286269
 30
0.0
 11
36.4797665254
 21
385.9774467599
 31
0.0
  0
LINE
  5
13A
330
69
100
AcDbEntity
  8
$DDT_AUDIT_GENERATED_(AC)
  6
Continuous
 62
     7
100
AcDbLine
 10
39.6478300502
 20
386.7383971936
 30
0.0
 11
39.6478300502
 21
386.0227594536
 31
0.0
  0
ELLIPSE
  5
13B
330
69
100
AcDbEntity
  8
$DDT_AUDIT_GENERATED_(AC)
  6
Continuous
 62
     7
100
AcDbEllipse
 10
40.8684886893
 20
385.1799387842
 30
0.0
 11
-2.750000000108312
 21
2.860212067190560E-11
 31
0.0
210
0.0
220
0.0
230
1.0
 40
0.3420201433
 41
-1.110876943434412
 42
-0.9835181589243938
  0
LINE
  5
13C
330
69
100
AcDbEntity
  8
$DDT_AUDIT_GENERATED_(AC)
  6
Continuous
 62
     7
100
AcDbLine
 10
39.6478300502
 20
386.0227594536
 30
0.0
 11
38.642631445
 21
386.6182353533
 31
0.0
  0
LINE
  5
13D
330
69
100
AcDbEntity
  8
$DDT_AUDIT_GENERATED_(AC)
  6
Continuous
 62
     7
100
AcDbLine
 10
39.3447211588
 20
385.9629059285
 30
0.0
 11
38.3303466016
 21
386.563817628
 31
0.0
  0
ARC
  5
13E
330
69
100
AcDbEntity
  8
$DDT_AUDIT_GENERATED_(AC)
  6
Continuous
 62
     7
100
AcDbCircle
 10
40.8684886893
 20
378.0944225057
 30
0.0
 40
8.026073381695108
100
AcDbArc
 50
88.7506274138
 51
91.2493725862
  0
LINE
  5
13F
330
69
100
AcDbEntity
  8
$DDT_AUDIT_GENERATED_(AC)
  6
Continuous
 62
     7
100
AcDbLine
 10
41.0434886893
 20
386.1185878161
 30
0.0
 11
41.0434886893
 21
386.7866081765
 31
0.0
  0
LINE
  5
140
330
69
100
AcDbEntity
  8
$DDT_AUDIT_GENERATED_(AC)
  6
Continuous
 62
     7
100
AcDbLine
 10
40.6934886893
 20
386.1185878161
 30
0.0
 11
40.6934886893
 21
386.7866081765
 31
0.0
  0
ELLIPSE
  5
141
330
69
100
AcDbEntity
  8
$DDT_AUDIT_GENERATED_(AC)
  6
Continuous
 62
     7
100
AcDbEllipse
 10
40.8684886893
 20
385.1799387842
 30
0.0
 11
2.749999999994944
 21
-2.775557561562892E-14
 31
0.0
210
0.0
220
0.0
230
1.0
 40
0.3420201433
 41
0.983518158940188
 42
1.110876943454431
  0
LINE
  5
142
330
69
100
AcDbEntity
  8
$DDT_AUDIT_GENERATED_(AC)
  6
Continuous
 62
     7
100
AcDbLine
 10
42.0891473284
 20
386.7383971936
 30
0.0
 11
42.0891473284
 21
386.0227594536
 31
0.0
  0
LINE
  5
143
330
69
100
AcDbEntity
  8
$DDT_AUDIT_GENERATED_(AC)
  6
Continuous
 62
     7
100
AcDbLine
 10
42.3922562197
 20
385.9629059285
 30
0.0
 11
43.4066307769
 21
386.563817628
 31
0.0
  0
LINE
  5
144
330
69
100
AcDbEntity
  8
$DDT_AUDIT_GENERATED_(AC)
  6
Continuous
 62
     7
100
AcDbLine
 10
42.0891473284
 20
386.0227594536
 30
0.0
 11
43.0943459335
 21
386.6182353533
 31
0.0
  0
ELLIPSE
  5
145
330
69
100
AcDbEntity
  8
$DDT_AUDIT_GENERATED_(AC)
  6
Continuous
 62
     7
100
AcDbEllipse
 10
40.8684886893
 20
385.1799387842
 30
0.0
 11
2.749999999992209
 21
-8.465450562766819E-13
 31
0.0
210
0.0
220
0.0
230
1.0
 40
0.3420201433
 41
0.4599193833419979
 42
0.5872781678562566
  0
LINE
  5
146
330
69
100
AcDbEntity
  8
$DDT_AUDIT_GENERATED_(AC)
  6
Continuous
 62
     7
100
AcDbLine
 10
43.1577314709
 20
386.4163706086
 30
0.0
 11
43.1577314709
 21
385.7010979734
 31
0.0
  0
LINE
  5
147
330
69
100
AcDbEntity
  8
$DDT_AUDIT_GENERATED_(AC)
  6
Continuous
 62
     7
100
AcDbLine
 10
43.3327314709
 20
385.5974286269
 30
0.0
 11
45.2572108531
 21
385.9774467599
 31
0.0
  0
LINE
  5
148
330
69
100
AcDbEntity
  8
$DDT_AUDIT_GENERATED_(AC)
  6
Continuous
 62
     7
100
AcDbLine
 10
43.1577314709
 20
385.7010979734
 30
0.0
 11
45.0546069143
 21
386.0756652829
 31
0.0
  0
ELLIPSE
  5
149
330
69
100
AcDbEntity
  8
$DDT_AUDIT_GENERATED_(AC)
  6
Continuous
 62
     7
100
AcDbEllipse
 10
40.8684886892
 20
385.1799387842
 30
0.0
 11
-2.75000000009652
 21
1.942890293094024E-12
 31
0.0
210
0.0
220
0.0
230
1.0
 40
0.3420201433
 41
3.141592653590046
 42
3.205272045845953
  0
LINE
  5
14A
330
69
100
AcDbEntity
  8
$DDT_AUDIT_GENERATED_(AC)
  6
Continuous
 62
     7
100
AcDbLine
 10
43.6129148588
 20
385.6527551578
 30
0.0
 11
43.6129148588
 21
385.2397923093
 31
0.0
  0
LINE
  5
14B
330
69
100
AcDbEntity
  8
$DDT_AUDIT_GENERATED_(AC)
  6
Continuous
 62
     7
100
AcDbLine
 10
43.6184886893
 20
385.1200852591
 30
0.0
 11
46.1051148104
 21
385.1200852591
 31
0.0
  0
LINE
  5
14C
330
69
100
AcDbEntity
  8
$DDT_AUDIT_GENERATED_(AC)
  6
Continuous
 62
     7
100
AcDbLine
 10
43.6129148588
 20
385.2397923093
 30
0.0
 11
46.0682585201
 21
385.2397923093
 31
0.0
  0
ELLIPSE
  5
14D
330
69
100
AcDbEntity
  8
$DDT_AUDIT_GENERATED_(AC)
  6
Continuous
 62
     7
100
AcDbEllipse
 10
40.8684886886
 20
385.1799387844
 30
0.0
 11
5.250000000699226
 21
-1.405542349175448E-10
 31
0.0
210
0.0
220
0.0
230
1.0
 40
0.3420201433
 41
-0.556938284814886
 42
-0.4902592662973486
  0
LINE
  5
14E
330
69
100
AcDbEntity
  8
$DDT_AUDIT_GENERATED_(AC)
  6
Continuous
 62
     7
100
AcDbLine
 10
43.3861998533
 20
384.6136649896
 30
0.0
 11
45.3250954497
 21
384.2308001528
 31
0.0
  0
LINE
  5
14F
330
69
100
AcDbEntity
  8
$DDT_AUDIT_GENERATED_(AC)
  6
Continuous
 62
     7
100
AcDbLine
 10
43.50782961
 20
384.7278731136
 30
0.0
 11
45.5000954497
 21
384.3344694992
 31
0.0
  0
LINE
  5
150
330
69
100
AcDbEntity
  8
$DDT_AUDIT_GENERATED_(AC)
  6
Continuous
 62
     7
100
AcDbLine
 10
45.5000954497
 20
385.1200852591
 30
0.0
 11
45.5000954497
 21
384.3344694992
 31
0.0
  0
ELLIPSE
  5
151
330
69
100
AcDbEntity
  8
$DDT_AUDIT_GENERATED_(AC)
  6
Continuous
 62
     7
100
AcDbEllipse
 10
40.868488691
 20
385.1799387832
 30
0.0
 11
5.249999997795991
 21
5.945938186258104E-10
 31
0.0
210
0.0
220
0.0
230
1.0
 40
0.3420201433
 41
-1.080537060653223
 42
-1.013858042108215
  0
LINE
  5
152
330
69
100
AcDbEntity
  8
$DDT_AUDIT_GENERATED_(AC)
  6
Continuous
 62
     7
100
AcDbLine
 10
42.3289679599
 20
384.1950492684
 30
0.0
 11
43.3404755049
 21
383.5958359762
 31
0.0
  0
LINE
  5
153
330
69
100
AcDbEntity
  8
$DDT_AUDIT_GENERATED_(AC)
  6
Continuous
 62
     7
100
AcDbLine
 10
42.614468571
 20
384.2653338729
 30
0.0
 11
43.6435843963
 21
383.6556895013
 31
0.0
  0
LINE
  5
154
330
69
100
AcDbEntity
  8
$DDT_AUDIT_GENERATED_(AC)
  6
Continuous
 62
     7
100
AcDbLine
 10
43.6435843963
 20
384.5628404422
 30
0.0
 11
43.6435843963
 21
383.6556895013
 31
0.0
  0
ARC
  5
155
330
69
100
AcDbEntity
  8
$DDT_AUDIT_GENERATED_(AC)
  6
Continuous
 62
     7
100
AcDbCircle
 10
40.8684886893
 20
398.7267738356
 30
0.0
 40
15.34244104882525
100
AcDbArc
 50
269.3464547907
 51
270.6535452093
  0
LINE
  5
156
330
69
100
AcDbEntity
  8
$DDT_AUDIT_GENERATED_(AC)
  6
Continuous
 62
     7
100
AcDbLine
 10
40.6934886893
 20
384.0533512282
 30
0.0
 11
40.6934886893
 21
383.3853308678
 31
0.0
  0
LINE
  5
157
330
69
100
AcDbEntity
  8
$DDT_AUDIT_GENERATED_(AC)
  6
Continuous
 62
     7
100
AcDbLine
 10
41.0434886893
 20
384.0533512282
 30
0.0
 11
41.0434886893
 21
383.3853308678
 31
0.0
  0
ELLIPSE
  5
158
330
69
100
AcDbEntity
  8
$DDT_AUDIT_GENERATED_(AC)
  6
Continuous
 62
     7
100
AcDbEllipse
 10
40.8684886882
 20
385.1799387836
 30
0.0
 11
-5.249999998646492
 21
3.599898157347071E-10
 31
0.0
210
0.0
220
0.0
230
1.0
 40
0.3420201433
 41
1.013858042041538
 42
1.080537060577877
  0
LINE
  5
159
330
69
100
AcDbEntity
  8
$DDT_AUDIT_GENERATED_(AC)
  6
Continuous
 62
     7
100
AcDbLine
 10
39.1225088075
 20
384.2653338729
 30
0.0
 11
38.0933929822
 21
383.6556895013
 31
0.0
  0
LINE
  5
15A
330
69
100
AcDbEntity
  8
$DDT_AUDIT_GENERATED_(AC)
  6
Continuous
 62
     7
100
AcDbLine
 10
39.4080094186
 20
384.1950492684
 30
0.0
 11
38.3965018736
 21
383.5958359762
 31
0.0
  0
LINE
  5
15B
330
69
100
AcDbEntity
  8
$DDT_AUDIT_GENERATED_(AC)
  6
Continuous
 62
     7
100
AcDbLine
 10
38.0933929822
 20
384.5628404422
 30
0.0
 11
38.0933929822
 21
383.6556895013
 31
0.0
  0
ELLIPSE
  5
15C
330
69
100
AcDbEntity
  8
$DDT_AUDIT_GENERATED_(AC)
  6
Continuous
 62
     7
100
AcDbEllipse
 10
40.8684886908
 20
385.1799387845
 30
0.0
 11
-5.250000001592986
 21
-3.056305208914978E-10
 31
0.0
210
0.0
220
0.0
230
1.0
 40
0.3420201433
 41
0.4902592662478172
 42
0.5569382847588724
  0
LINE
  5
15D
330
69
100
AcDbEntity
  8
$DDT_AUDIT_GENERATED_(AC)
  6
Continuous
 62
     7
100
AcDbLine
 10
38.2291477685
 20
384.7278731136
 30
0.0
 11
36.2368819288
 21
384.3344694992
 31
0.0
  0
LINE
  5
15E
330
69
100
AcDbEntity
  8
$DDT_AUDIT_GENERATED_(AC)
  6
Continuous
 62
     7
100
AcDbLine
 10
38.3507775253
 20
384.6136649896
 30
0.0
 11
36.4118819288
 21
384.2308001528
 31
0.0
  0
LINE
  5
15F
330
69
100
AcDbEntity
  8
$DDT_AUDIT_GENERATED_(AC)
  6
Continuous
 62
     7
100
AcDbLine
 10
36.2368819288
 20
385.1200852591
 30
0.0
 11
36.2368819288
 21
384.3344694992
 31
0.0
  0
LINE
  5
160
330
69
100
AcDbEntity
  8
$DDT_AUDIT_GENERATED_(AC)
  6
Continuous
 62
     7
100
AcDbLine
 10
31.8684886893
 20
386.8975334832
 30
0.0
 11
31.8684886893
 21
384.9920002601
 31
0.0
  0
LINE
  5
161
330
69
100
AcDbEntity
  8
$DDT_AUDIT_GENERATED_(AC)
  6
Continuous
 62
     7
100
AcDbLine
 10
49.8684886893
 20
384.9920002601
 30
0.0
 11
49.8684886893
 21
386.8975334832
 31
0.0
  0
LINE
  5
162
330
69
100
AcDbEntity
  8
$DDT_AUDIT_GENERATED_(AC)
  6
Continuous
 62
     7
100
AcDbLine
 10
34.6184886893
 20
385.1799387842
 30
0.0
 11
34.6184886893
 21
384.9920002601
 31
0.0
  0
LINE
  5
163
330
69
100
AcDbEntity
  8
$DDT_AUDIT_GENERATED_(AC)
  6
Continuous
 62
     7
100
AcDbLine
 10
47.1184886893
 20
384.9920002601
 30
0.0
 11
47.1184886893
 21
385.1799387842
 31
0.0
  0
LINE
  5
164
330
69
100
AcDbEntity
  8
$DDT_AUDIT_GENERATED_(AC)
  6
Continuous
 62
     7
100
AcDbLine
 10
38.1184886893
 20
385.1799387842
 30
0.0
 11
38.1184886893
 21
384.9920002601
 31
0.0
  0
LINE
  5
165
330
69
100
AcDbEntity
  8
$DDT_AUDIT_GENERATED_(AC)
  6
Continuous
 62
     7
100
AcDbLine
 10
43.6184886893
 20
384.9920002601
 30
0.0
 11
43.6184886893
 21
385.1799387842
 31
0.0
  0
LINE
  5
166
330
69
100
AcDbEntity
  8
$DDT_AUDIT_GENERATED_(AC)
  6
Continuous
 62
     7
100
AcDbLine
 10
40.3488587454
 20
385.4123229212
 30
0.0
 11
40.3488587454
 21
385.1799387842
 31
0.0
  0
LINE
  5
167
330
69
100
AcDbEntity
  8
$DDT_AUDIT_GENERATED_(AC)
  6
Continuous
 62
     7
100
AcDbLine
 10
41.3881186332
 20
385.1799387842
 30
0.0
 11
41.3881186332
 21
385.5491396877
 31
0.0
  0
LINE
  5
169
330
69
100
AcDbEntity
  8
$DDT_AUDIT_GENERATED_(168)
  6
Continuous
 62
     7
100
AcDbLine
 10
80.6684886893
 20
312.8735493302
 30
0.0
 11
80.6684886893
 21
306.7822006986
 31
0.0
  0
LINE
  5
16A
330
69
100
AcDbEntity
  8
$DDT_AUDIT_GENERATED_(168)
  6
Continuous
 62
     7
100
AcDbLine
 10
80.6684886893
 20
303.9483284715
 30
0.0
 11
80.6684886893
 21
297.85697984
 31
0.0
  0
LINE
  5
16B
330
69
100
AcDbEntity
  8
$DDT_AUDIT_GENERATED_(168)
  6
Continuous
 62
     7
100
AcDbLine
 10
70.1510362828
 20
307.7820483938
 30
0.0
 11
74.9184886893
 21
307.8652645851
 31
0.0
  0
LINE
  5
16C
330
69
100
AcDbEntity
  8
$DDT_AUDIT_GENERATED_(168)
  6
Continuous
 62
     7
100
AcDbLine
 10
74.9184886893
 20
307.8652645851
 30
0.0
 11
79.6859410957
 21
307.7820483938
 31
0.0
  0
ARC
  5
16D
330
69
100
AcDbEntity
  8
$DDT_AUDIT_GENERATED_(168)
  6
Continuous
 62
     7
100
AcDbCircle
 10
79.6684886893
 20
306.7822006986
 30
0.0
 40
1.000000000000001
100
AcDbArc
 50
0.0
 51
89.0
  0
LINE
  5
16E
330
69
100
AcDbEntity
  8
$DDT_AUDIT_GENERATED_(168)
  6
Continuous
 62
     7
100
AcDbLine
 10
74.9184886893
 20
306.865112257
 30
0.0
 11
74.9184886893
 21
307.8652645851
 31
0.0
  0
ARC
  5
16F
330
69
100
AcDbEntity
  8
$DDT_AUDIT_GENERATED_(168)
  6
Continuous
 62
     7
100
AcDbCircle
 10
70.1684886893
 20
306.7822006986
 30
0.0
 40
1.000000000000001
100
AcDbArc
 50
91.0
 51
180.0
  0
LINE
  5
170
330
69
100
AcDbEntity
  8
$DDT_AUDIT_GENERATED_(168)
  6
Continuous
 62
     7
100
AcDbLine
 10
74.9184886893
 20
302.8652645851
 30
0.0
 11
70.1510362828
 21
302.9484807764
 31
0.0
  0
LINE
  5
171
330
69
100
AcDbEntity
  8
$DDT_AUDIT_GENERATED_(168)
  6
Continuous
 62
     7
100
AcDbLine
 10
69.1684886893
 20
303.9483284715
 30
0.0
 11
69.1684886893
 21
306.7822006986
 31
0.0
  0
LINE
  5
172
330
69
100
AcDbEntity
  8
$DDT_AUDIT_GENERATED_(168)
  6
Continuous
 62
     7
100
AcDbLine
 10
80.6684886893
 20
303.9483284715
 30
0.0
 11
80.6684886893
 21
306.7822006986
 31
0.0
  0
LINE
  5
173
330
69
100
AcDbEntity
  8
$DDT_AUDIT_GENERATED_(168)
  6
Continuous
 62
     7
100
AcDbLine
 10
79.6859410957
 20
302.9484807764
 30
0.0
 11
74.9184886893
 21
302.8652645851
 31
0.0
  0
ARC
  5
174
330
69
100
AcDbEntity
  8
$DDT_AUDIT_GENERATED_(168)
  6
Continuous
 62
     7
100
AcDbCircle
 10
79.6684886893
 20
303.9483284715
 30
0.0
 40
0.9999999999999977
100
AcDbArc
 50
271.0
 51
0.0
  0
LINE
  5
175
330
69
100
AcDbEntity
  8
$DDT_AUDIT_GENERATED_(168)
  6
Continuous
 62
     7
100
AcDbLine
 10
74.9184886893
 20
302.8652645851
 30
0.0
 11
74.9184886893
 21
303.8654169131
 31
0.0
  0
ARC
  5
176
330
69
100
AcDbEntity
  8
$DDT_AUDIT_GENERATED_(168)
  6
Continuous
 62
     7
100
AcDbCircle
 10
70.1684886893
 20
303.9483284715
 30
0.0
 40
0.9999999999999979
100
AcDbArc
 50
180.0
 51
269.0
  0
LINE
  5
177
330
69
100
AcDbEntity
  8
$DDT_AUDIT_GENERATED_(168)
  6
Continuous
 62
     7
100
AcDbLine
 10
74.9184886893
 20
313.4652645851
 30
0.0
 11
74.9184886893
 21
308.1907992754
 31
0.0
  0
LINE
  5
178
330
69
100
AcDbEntity
  8
$DDT_AUDIT_GENERATED_(168)
  6
Continuous
 62
     7
100
AcDbLine
 10
74.9184886893
 20
302.5397298947
 30
0.0
 11
74.9184886893
 21
297.2652645851
 31
0.0
  0
LINE
  5
179
330
69
100
AcDbEntity
  8
$DDT_AUDIT_GENERATED_(168)
  6
Continuous
 62
     7
100
AcDbLine
 10
74.9184886893
 20
302.5397298947
 30
0.0
 11
74.9184886893
 21
302.8652645851
 31
0.0
  0
LINE
  5
17A
330
69
100
AcDbEntity
  8
$DDT_AUDIT_GENERATED_(168)
  6
Continuous
 62
     7
100
AcDbLine
 10
74.9184886893
 20
308.1907992754
 30
0.0
 11
74.9184886893
 21
307.8652645851
 31
0.0
  0
LINE
  5
17B
330
69
100
AcDbEntity
  8
$DDT_AUDIT_GENERATED_(168)
  6
Continuous
 62
     7
100
AcDbLine
 10
74.9184886893
 20
297.2652645851
 30
0.0
 11
80.1772148925
 21
297.3570559924
 31
0.0
  0
LINE
  5
17C
330
69
100
AcDbEntity
  8
$DDT_AUDIT_GENERATED_(168)
  6
Continuous
 62
     7
100
AcDbLine
 10
80.1772148925
 20
313.3734731777
 30
0.0
 11
74.9184886893
 21
313.4652645851
 31
0.0
  0
LINE
  5
17D
330
69
100
AcDbEntity
  8
$DDT_AUDIT_GENERATED_(168)
  6
Continuous
 62
     7
100
AcDbLine
 10
74.9184886893
 20
313.4652645851
 30
0.0
 11
64.8650373657
 21
313.2897809395
 31
0.0
  0
LINE
  5
17E
330
69
100
AcDbEntity
  8
$DDT_AUDIT_GENERATED_(168)
  6
Continuous
 62
     7
100
AcDbLine
 10
64.8650373657
 20
297.4407482307
 30
0.0
 11
74.9184886893
 21
297.2652645851
 31
0.0
  0
ARC
  5
17F
330
69
100
AcDbEntity
  8
$DDT_AUDIT_GENERATED_(168)
  6
Continuous
 62
     7
100
AcDbCircle
 10
80.1684886893
 20
297.85697984
 30
0.0
 40
0.5000000000000024
100
AcDbArc
 50
271.0
 51
0.0
  0
ARC
  5
180
330
69
100
AcDbEntity
  8
$DDT_AUDIT_GENERATED_(168)
  6
Continuous
 62
     7
100
AcDbCircle
 10
80.1684886893
 20
312.8735493302
 30
0.0
 40
0.5000000000000004
100
AcDbArc
 50
0.0
 51
89.0
  0
ENDBLK
  5
182
330
69
100
AcDbEntity
  8
0
100
AcDbBlockEnd
  0
BLOCK
  5
1B6
330
183
100
AcDbEntity
  8
0
100
AcDbBlockBegin
  2
SE1
 70
     0
 10
0.0
 20
0.0
 30
0.0
  3
SE1
  1

  0
SPLINE
  5
185
330
183
100
AcDbEntity
  8
$DDT_AUDIT_GENERATED_(6B)
  6
Continuous
 62
     7
100
AcDbSpline
210
0.0
220
0.0
230
1.0
 70
     8
 71
     3
 72
    10
 73
     6
 74
     0
 42
0.0000000001268841
 43
0.0000000001
 40
0.0
 40
0.0
 40
0.0
 40
0.0
 40
0.3430769106552884
 40
0.686153821310578
 40
1.0
 40
1.0
 40
1.0
 40
1.0
 10
182.3230306783057
 20
369.1152646374341
 30
0.0
 10
182.3230306783057
 20
375.0622007192233
 30
0.0
 10
186.1519320002195
 20
383.0823805671774
 30
0.0
 10
207.2761313982271
 20
387.1552799977115
 30
0.0
 10
233.6862276330791
 20
387.3526111986188
 30
0.0
 10
249.7399911667664
 20
387.3638854002
 30
0.0
  0
LINE
  5
186
330
183
100
AcDbEntity
  8
$DDT_AUDIT_GENERATED_(6B)
  6
Continuous
 62
     7
100
AcDbLine
 10
182.3230307254
 20
280.3652645925
 30
0.0
 11
159.3154923032
 21
280.3652648235
 31
0.0
  0
LINE
  5
187
330
183
100
AcDbEntity
  8
$DDT_AUDIT_GENERATED_(6B)
  6
Continuous
 62
     7
100
AcDbLine
 10
159.3154924413
 20
280.3652648235
 30
0.0
 11
134.3154851941
 21
280.3652649029
 31
0.0
  0
LINE
  5
188
330
183
100
AcDbEntity
  8
$DDT_AUDIT_GENERATED_(6B)
  6
Continuous
 62
     7
100
AcDbLine
 10
134.3154851941
 20
395.3652645851
 30
0.0
 11
134.3154851941
 21
280.3652649029
 31
0.0
  0
LINE
  5
189
330
183
100
AcDbEntity
  8
$DDT_AUDIT_GENERATED_(6B)
  6
Continuous
 62
     7
100
AcDbLine
 10
134.3154851941
 20
404.8652645851
 30
0.0
 11
134.3154851941
 21
395.3652645851
 31
0.0
  0
LINE
  5
18A
330
183
100
AcDbEntity
  8
$DDT_AUDIT_GENERATED_(6B)
  6
Continuous
 62
     7
100
AcDbLine
 10
276.8154899152
 20
405.3652645851
 30
0.0
 11
259.3154851945
 21
405.3652645851
 31
0.0
  0
LINE
  5
18B
330
183
100
AcDbEntity
  8
$DDT_AUDIT_GENERATED_(6B)
  6
Continuous
 62
     7
100
AcDbLine
 10
254.3154389227
 20
405.3652645851
 30
0.0
 11
259.3154851941
 21
405.3652645851
 31
0.0
  0
LINE
  5
18C
330
183
100
AcDbEntity
  8
$DDT_AUDIT_GENERATED_(6B)
  6
Continuous
 62
     7
100
AcDbLine
 10
169.5842868636
 20
405.3652645851
 30
0.0
 11
254.3154389227
 21
405.3652645851
 31
0.0
  0
LINE
  5
18D
330
183
100
AcDbEntity
  8
$DDT_AUDIT_GENERATED_(6B)
  6
Continuous
 62
     7
100
AcDbLine
 10
159.2947708474
 20
405.3652645851
 30
0.0
 11
169.5842245127
 21
405.3652645851
 31
0.0
  0
LINE
  5
18E
330
183
100
AcDbEntity
  8
$DDT_AUDIT_GENERATED_(6B)
  6
Continuous
 62
     7
100
AcDbLine
 10
134.8154851941
 20
405.3652645851
 30
0.0
 11
159.2947703992
 21
405.3652645851
 31
0.0
  0
SPLINE
  5
18F
330
183
100
AcDbEntity
  8
$DDT_AUDIT_GENERATED_(6B)
  6
Continuous
 62
     7
100
AcDbSpline
210
0.0
220
0.0
230
1.0
 70
     8
 71
     3
 72
    10
 73
     6
 74
     0
 42
0.0000000124189131
 43
0.0000000001
 40
0.0
 40
0.0
 40
0.0
 40
0.0
 40
0.5
 40
0.5
 40
1.0
 40
1.0
 40
1.0
 40
1.0
 10
134.8154851941061
 20
405.3652645850574
 30
0.0
 10
134.6845855002066
 20
405.3652645850574
 30
0.0
 10
134.5544918647245
 20
405.3113780368623
 30
0.0
 10
134.3693717423012
 20
405.126257914439
 30
0.0
 10
134.3154851941061
 20
404.996164278957
 30
0.0
 10
134.3154851941061
 20
404.8652645850574
 30
0.0
  0
LINE
  5
190
330
183
100
AcDbEntity
  8
$DDT_AUDIT_GENERATED_(6B)
  6
Continuous
 62
     7
100
AcDbLine
 10
181.8376252491
 20
309.1152645851
 30
0.0
 11
181.8376252491
 21
300.6152645851
 31
0.0
  0
ARC
  5
191
330
183
100
AcDbEntity
  8
$DDT_AUDIT_GENERATED_(6B)
  6
Continuous
 62
     7
100
AcDbCircle
 10
206.4054543936
 20
309.0553586483
 30
0.0
 40
24.56790218145496
100
AcDbArc
 50
168.5907734336
 51
179.8602908495
  0
ARC
  5
192
330
183
100
AcDbEntity
  8
$DDT_AUDIT_GENERATED_(6B)
  6
Continuous
 62
     7
100
AcDbCircle
 10
206.4054543936
 20
300.6751705218
 30
0.0
 40
24.56790218145263
100
AcDbArc
 50
180.1397091505
 51
191.4092265664
  0
ARC
  5
193
330
183
100
AcDbEntity
  8
$DDT_AUDIT_GENERATED_(6B)
  6
Continuous
 62
     7
100
AcDbCircle
 10
216.8797441587
 20
810.28390882
 30
0.0
 40
421.847406810082
100
AcDbArc
 50
275.7734343832
 51
277.7830717197
  0
ARC
  5
194
330
183
100
AcDbEntity
  8
$DDT_AUDIT_GENERATED_(6B)
  6
Continuous
 62
     7
100
AcDbCircle
 10
261.5013180696
 20
368.7761079854
 30
0.0
 40
21.90953659632442
100
AcDbArc
 50
95.725691723
 51
109.1460592142
  0
ARC
  5
195
330
183
100
AcDbEntity
  8
$DDT_AUDIT_GENERATED_(6B)
  6
Continuous
 62
     7
100
AcDbCircle
 10
268.5165719135
 20
352.660476677
 30
0.0
 40
39.45740186011165
100
AcDbArc
 50
111.094627988
 51
118.4159891762
  0
ARC
  5
196
330
183
100
AcDbEntity
  8
$DDT_AUDIT_GENERATED_(6B)
  6
Continuous
 62
     7
100
AcDbCircle
 10
259.3835827783
 20
411.5486977692
 30
0.0
 40
24.15480494454342
100
AcDbArc
 50
307.2505140681
 51
317.1014164959
  0
LINE
  5
197
330
183
100
AcDbEntity
  8
$DDT_AUDIT_GENERATED_(6B)
  6
Continuous
 62
     7
100
AcDbLine
 10
277.3154899152
 20
395.7551470083
 30
0.0
 11
277.3154899152
 21
404.8652645851
 31
0.0
  0
LINE
  5
198
330
183
100
AcDbEntity
  8
$DDT_AUDIT_GENERATED_(6B)
  6
Continuous
 62
     7
100
AcDbLine
 10
182.3230306783
 20
313.8989079349
 30
0.0
 11
182.3230306783
 21
369.1152645851
 31
0.0
  0
LINE
  5
199
330
183
100
AcDbEntity
  8
$DDT_AUDIT_GENERATED_(6B)
  6
Continuous
 62
     7
100
AcDbLine
 10
182.3230306783
 20
280.3652645851
 30
0.0
 11
182.3230306783
 21
295.8316212352
 31
0.0
  0
ARC
  5
19A
330
183
100
AcDbEntity
  8
$DDT_AUDIT_GENERATED_(6B)
  6
Continuous
 62
     7
100
AcDbCircle
 10
276.3154899146
 20
395.7545435761
 30
0.0
 40
0.999999999987978
100
AcDbArc
 50
316.4574020983
 51
0.0643889652
  0
ARC
  5
19B
330
183
100
AcDbEntity
  8
$DDT_AUDIT_GENERATED_(6B)
  6
Continuous
 62
     7
100
AcDbCircle
 10
276.8154899152
 20
404.8652645851
 30
0.0
 40
0.5000000000000004
100
AcDbArc
 50
0.0
 51
90.0
  0
LINE
  5
19C
330
183
100
AcDbEntity
  8
$DDT_AUDIT_GENERATED_(8F)
  6
Continuous
 62
     7
100
AcDbLine
 10
182.2654851941
 20
296.1788092636
 30
0.0
 11
182.2654851941
 21
313.5517296994
 31
0.0
  0
LINE
  5
19D
330
183
100
AcDbEntity
  8
02636038_GEHÄUSE
  6
Continuous
 62
     7
100
AcDbLine
 10
273.6043520858
 20
389.0445938491
 30
0.0
 11
253.4009607389
 21
381.6911607676
 31
0.0
  0
SPLINE
  5
19E
330
183
100
AcDbEntity
  8
02636038_GEHÄUSE
  6
Continuous
 62
     7
100
AcDbSpline
210
0.0
220
0.0
230
1.0
 70
     8
 71
     3
 72
    10
 73
     6
 74
     0
 42
0.0000000019260148
 43
0.0000000001
 40
0.0
 40
0.0
 40
0.0
 40
0.0
 40
0.5
 40
0.5
 40
1.0
 40
1.0
 40
1.0
 40
1.0
 10
265.8245686183819
 20
386.5509060658158
 30
0.0
 10
265.0532332036792
 20
386.1488927502724
 30
0.0
 10
264.2632562232877
 20
385.7983030696826
 30
0.0
 10
262.6429038712666
 20
385.208564569127
 30
0.0
 10
261.8125290438055
 20
384.9694142480469
 30
0.0
 10
260.9635322423678
 20
384.7816335172614
 30
0.0
  0
LINE
  5
19F
330
183
100
AcDbEntity
  8
02636038_GEHÄUSE
  6
Continuous
 62
     7
100
AcDbLine
 10
266.4898646404
 20
389.6476655044
 30
0.0
 11
258.4633273244
 21
386.7262448371
 31
0.0
  0
LINE
  5
1A0
330
183
100
AcDbEntity
  8
02636038_GEHÄUSE
  6
Continuous
 62
     7
100
AcDbLine
 10
266.4898646404
 20
389.6476655044
 30
0.0
 11
267.1111209556
 21
387.9407778065
 31
0.0
  0
SPLINE
  5
1A1
330
183
100
AcDbEntity
  8
02636038_GEHÄUSE
  6
Continuous
 62
     7
100
AcDbSpline
210
0.0
220
0.0
230
1.0
 70
     8
 71
     3
 72
    14
 73
    10
 74
     0
 42
0.0000000049320844
 43
0.0000000001
 40
0.0
 40
0.0
 40
0.0
 40
0.0
 40
0.1249999999999997
 40
0.1249999999999997
 40
0.2499999999999994
 40
0.2499999999999994
 40
0.4999999999999996
 40
0.4999999999999996
 40
1.0
 40
1.0
 40
1.0
 40
1.0
 10
267.1111209556438
 20
387.9407778065117
 30
0.0
 10
267.139996071558
 20
387.8614440775532
 30
0.0
 10
267.1385054969114
 20
387.7714657940651
 30
0.0
 10
267.0960663662059
 20
387.6079074829176
 30
0.0
 10
267.0569144481158
 20
387.5308490189481
 30
0.0
 10
266.918455413309
 20
387.3196436937539
 30
0.0
 10
266.7962916098116
 20
387.1992078950263
 30
0.0
 10
266.412497659795
 20
386.8771659754044
 30
0.0
 10
266.1208084820134
 20
386.7053037085333
 30
0.0
 10
265.8245686183819
 20
386.5509060658158
 30
0.0
  0
SPLINE
  5
1A2
330
183
100
AcDbEntity
  8
02636038_GEHÄUSE
  6
Continuous
 62
     7
100
AcDbSpline
210
0.0
220
0.0
230
1.0
 70
     8
 71
     3
 72
    14
 73
    10
 74
     0
 42
0.0000000049319876
 43
0.0000000001
 40
0.0
 40
0.0
 40
0.0
 40
0.0
 40
0.4999999999999996
 40
0.4999999999999996
 40
0.7499999999999993
 40
0.7499999999999993
 40
0.8749999999999997
 40
0.8749999999999997
 40
1.0
 40
1.0
 40
1.0
 40
1.0
 10
260.9635322423678
 20
384.7816335172614
 30
0.0
 10
260.6359548421965
 20
384.7091800951887
 30
0.0
 10
260.3046908763693
 20
384.6535955021674
 30
0.0
 10
259.8011459665241
 20
384.6536771368088
 30
0.0
 10
259.6315786892847
 20
384.6675315425856
 30
0.0
 10
259.3912502195303
 20
384.739586610608
 30
0.0
 10
259.3112650985844
 20
384.7733709779829
 30
0.0
 10
259.1727818278715
 20
384.8716373637361
 30
0.0
 10
259.1135956670473
 20
384.9396472491013
 30
0.0
 10
259.0845836396538
 20
385.0193571392643
 30
0.0
  0
LINE
  5
1A3
330
183
100
AcDbEntity
  8
02636038_GEHÄUSE
  6
Continuous
 62
     7
100
AcDbLine
 10
259.0845836397
 20
385.0193571393
 30
0.0
 11
258.4633273244
 21
386.7262448371
 31
0.0
  0
LINE
  5
1A4
330
183
100
AcDbEntity
  8
02636038_GEHÄUSE
  6
Continuous
 62
     7
100
AcDbLine
 10
252.7755238155
 20
381.801442172
 30
0.0
 11
253.4009607389
 21
381.6911607676
 31
0.0
  0
LINE
  5
1A5
330
183
100
AcDbEntity
  8
02636038_GEHÄUSE
  6
Continuous
 62
     7
100
AcDbLine
 10
273.6043520858
 20
389.0445938491
 30
0.0
 11
274.0125770453
 21
389.5310974111
 31
0.0
  0
ARC
  5
1A6
330
183
100
AcDbEntity
  8
02636038_GEHÄUSE
  6
Continuous
 62
     7
100
AcDbCircle
 10
273.2465326021
 20
390.1738850208
 30
0.0
 40
1.000000000000004
100
AcDbArc
 50
320.0
 51
20.0
  0
ARC
  5
1A7
330
183
100
AcDbEntity
  8
02636038_GEHÄUSE
  6
Continuous
 62
     7
100
AcDbCircle
 10
252.9491719932
 20
382.786249925
 30
0.0
 40
0.9999999999999931
100
AcDbArc
 50
200.0
 51
260.0
  0
LINE
  5
1A8
330
183
100
AcDbEntity
  8
02636038_GEHÄUSE
  6
Continuous
 62
     7
100
AcDbLine
 10
250.1462841641
 20
387.5633165445
 30
0.0
 11
252.0094793724
 21
382.4442297816
 31
0.0
  0
LINE
  5
1A9
330
183
100
AcDbEntity
  8
02636038_GEHÄUSE
  6
Continuous
 62
     7
100
AcDbLine
 10
274.1862252229
 20
390.5159051641
 30
0.0
 11
273.5508956725
 21
392.261458758
 31
0.0
  0
LINE
  5
1AA
330
183
100
AcDbEntity
  8
$DDT_AUDIT_GENERATED_(AC)
  6
Continuous
 62
     7
100
AcDbLine
 10
272.0966980568
 20
388.07018155
 30
0.0
 11
255.1822308826
 21
381.9138189701
 31
0.0
  0
LINE
  5
1AB
330
183
100
AcDbEntity
  8
$DDT_AUDIT_GENERATED_(AC)
  6
Continuous
 62
     7
100
AcDbLine
 10
255.0454228253
 20
382.2896960184
 30
0.0
 11
255.1822308826
 21
381.9138189701
 31
0.0
  0
LINE
  5
1AC
330
183
100
AcDbEntity
  8
$DDT_AUDIT_GENERATED_(AC)
  6
Continuous
 62
     7
100
AcDbLine
 10
272.0966980568
 20
388.07018155
 30
0.0
 11
271.9598899994
 21
388.4460585983
 31
0.0
  0
ELLIPSE
  5
1AD
330
183
100
AcDbEntity
  8
$DDT_AUDIT_GENERATED_(168)
  6
Continuous
 62
     7
100
AcDbEllipse
 10
181.3654851941
 20
307.8649599522
 30
0.0
 11
-4.749999999999997
 21
0.0
 31
0.0
210
0.0
220
0.0
230
1.0
 40
0.0174550649
 41
-4.521762887066689
 42
-3.247874823043137
  0
SPLINE
  5
1AE
330
183
100
AcDbEntity
  8
$DDT_AUDIT_GENERATED_(168)
  6
Continuous
 62
     7
100
AcDbSpline
210
0.0
220
0.0
230
1.0
 70
     8
 71
     3
 72
    14
 73
    10
 74
     0
 42
0.000000006325287
 43
0.0000000001
 40
0.0
 40
0.0
 40
0.0
 40
0.0
 40
0.2499999999999997
 40
0.2499999999999997
 40
0.4999999999999998
 40
0.4999999999999998
 40
0.7499999999999999
 40
0.7499999999999999
 40
1.0
 40
1.0
 40
1.0
 40
1.0
 10
187.1154851941062
 20
306.8651122570135
 30
0.0
 10
187.1154851941062
 20
306.9953386509831
 30
0.0
 10
187.0889853097743
 20
307.1282935786829
 30
0.0
 10
186.989158202204
 20
307.3688086480779
 30
0.0
 10
186.9146427559899
 20
307.4802981367565
 30
0.0
 10
186.7301580902501
 20
307.6647105098976
 30
0.0
 10
186.619259690847
 20
307.738950078329
 30
0.0
 10
186.3771328802946
 20
307.8392710623771
 30
0.0
 10
186.2475317748496
 20
307.8652645850574
 30
0.0
 10
186.1154531322621
 20
307.8652645850574
 30
0.0
  0
ELLIPSE
  5
1AF
330
183
100
AcDbEntity
  8
$DDT_AUDIT_GENERATED_(168)
  6
Continuous
 62
     7
100
AcDbEllipse
 10
181.3654851941
 20
302.8655692179
 30
0.0
 11
-4.749999999999997
 21
-3.469446951953614E-15
 31
0.0
210
0.0
220
0.0
230
1.0
 40
0.0174550649
 41
3.248215751474508
 42
4.521762887066689
  0
SPLINE
  5
1B0
330
183
100
AcDbEntity
  8
$DDT_AUDIT_GENERATED_(168)
  6
Continuous
 62
     7
100
AcDbSpline
210
0.0
220
0.0
230
1.0
 70
     8
 71
     3
 72
    14
 73
    10
 74
     0
 42
0.000000006325287
 43
0.0000000001
 40
0.0
 40
0.0
 40
0.0
 40
0.0
 40
0.25
 40
0.25
 40
0.5
 40
0.5
 40
0.75
 40
0.75
 40
1.0
 40
1.0
 40
1.0
 40
1.0
 10
186.1154531322621
 20
302.8652645850573
 30
0.0
 10
186.2475317748496
 20
302.8652645850573
 30
0.0
 10
186.3771328802946
 20
302.8912581077377
 30
0.0
 10
186.619259690847
 20
302.9915790917858
 30
0.0
 10
186.7301580902501
 20
303.0658186602171
 30
0.0
 10
186.9146427559898
 20
303.2502310333584
 30
0.0
 10
186.989158202204
 20
303.3617205220369
 30
0.0
 10
187.0889853097743
 20
303.6022355914318
 30
0.0
 10
187.1154851941062
 20
303.7351905191317
 30
0.0
 10
187.1154851941062
 20
303.8654169131013
 30
0.0
  0
LINE
  5
1B1
330
183
100
AcDbEntity
  8
$DDT_AUDIT_GENERATED_(168)
  6
Continuous
 62
     7
100
AcDbLine
 10
182.2654851941
 20
307.8652645851
 30
0.0
 11
186.1154531323
 21
307.8652645851
 31
0.0
  0
LINE
  5
1B2
330
183
100
AcDbEntity
  8
$DDT_AUDIT_GENERATED_(168)
  6
Continuous
 62
     7
100
AcDbLine
 10
182.2654851941
 20
302.8652645851
 30
0.0
 11
186.1154531323
 21
302.8652645851
 31
0.0
  0
LINE
  5
1B3
330
183
100
AcDbEntity
  8
$DDT_AUDIT_GENERATED_(168)
  6
Continuous
 62
     7
100
AcDbLine
 10
187.1154851941
 20
303.8654169131
 30
0.0
 11
187.1154851941
 21
306.865112257
 31
0.0
  0
LINE
  5
1B5
330
183
100
AcDbEntity
  8
DV2_Default
  6
Continuous
 62
     7
100
AcDbLine
 10
178.8146335279
 20
395.508183054
 30
0.0
 11
275.0941858976
 21
395.508183054
 31
0.0
  0
ENDBLK
  5
1B7
330
183
100
AcDbEntity
  8
0
100
AcDbBlockEnd
  0
BLOCK
  5
1DC
330
1B8
100
AcDbEntity
  8
0
100
AcDbBlockBegin
  2
SE2
 70
     0
 10
0.0
 20
0.0
 30
0.0
  3
SE2
  1

  0
SPLINE
  5
1BA
330
1B8
100
AcDbEntity
  8
$DDT_AUDIT_GENERATED_(6B)
  6
Continuous
 62
     7
100
AcDbSpline
210
0.0
220
0.0
230
1.0
 70
     8
 71
     3
 72
    18
 73
    14
 74
     0
 42
0.0000000002573618
 43
0.0000000001
 40
0.0
 40
0.0
 40
0.0
 40
0.0
 40
0.2500000000000001
 40
0.2500000000000001
 40
0.3750000000000001
 40
0.3750000000000001
 40
0.5000000000000001
 40
0.5000000000000001
 40
0.6250000000000001
 40
0.6250000000000001
 40
0.7500000000000002
 40
0.7500000000000002
 40
1.0
 40
1.0
 40
1.0
 40
1.0
 10
16.89253406635061
 20
224.3499986015103
 30
0.0
 10
16.75784872905709
 20
227.5975509248287
 30
0.0
 10
17.29545755945972
 20
230.8584719156768
 30
0.0
 10
19.00190017981627
 20
235.3545658163924
 30
0.0
 10
19.7314787466519
 20
236.81598037292
 30
0.0
 10
21.45596970098891
 20
239.5402283834911
 30
0.0
 10
22.44453540673789
 20
240.8015414188162
 30
0.0
 10
24.67276952965953
 20
243.1237727610627
 30
0.0
 10
25.9196503825162
 20
244.1847481639291
 30
0.0
 10
28.55898121759228
 20
246.0082724997612
 30
0.0
 10
29.96317470074049
 20
246.785249871511
 30
0.0
 10
34.43845169294546
 20
248.6972974457037
 30
0.0
 10
37.61738064121931
 20
249.3500047210489
 30
0.0
 10
40.86848868925373
 20
249.3500047210489
 30
0.0
  0
SPLINE
  5
1BB
330
1B8
100
AcDbEntity
  8
$DDT_AUDIT_GENERATED_(6B)
  6
Continuous
 62
     7
100
AcDbSpline
210
0.0
220
0.0
230
1.0
 70
     8
 71
     3
 72
    18
 73
    14
 74
     0
 42
0.0000000002573618
 43
0.0000000001
 40
0.0
 40
0.0
 40
0.0
 40
0.0
 40
0.2499999999999999
 40
0.2499999999999999
 40
0.3749999999999999
 40
0.3749999999999999
 40
0.4999999999999999
 40
0.4999999999999999
 40
0.6249999999999999
 40
0.6249999999999999
 40
0.7499999999999999
 40
0.7499999999999999
 40
1.0
 40
1.0
 40
1.0
 40
1.0
 10
40.86848868925373
 20
249.3500047210489
 30
0.0
 10
44.1188436876938
 20
249.3500006517672
 30
0.0
 10
47.35451252149466
 20
248.6764639428591
 30
0.0
 10
51.77520646744272
 20
246.7830913182588
 30
0.0
 10
53.20479891830033
 20
245.9928825612685
 30
0.0
 10
55.85438798757104
 20
244.1559381039008
 30
0.0
 10
57.07327654231452
 20
243.1155061935881
 30
0.0
 10
59.30039863743231
 20
240.792055330076
 30
0.0
 10
60.30825967456556
 20
239.5019574237397
 30
0.0
 10
62.01965412945523
 20
236.7887213202588
 30
0.0
 10
62.73711796284895
 20
235.3532106263723
 30
0.0
 10
64.46003401817522
 20
230.8015680718488
 30
0.0
 10
64.97916076692617
 20
227.5982271654989
 30
0.0
 10
64.8445655752767
 20
224.3499935150663
 30
0.0
  0
ARC
  5
1BC
330
1B8
100
AcDbEntity
  8
$DDT_AUDIT_GENERATED_(6B)
  6
Continuous
 62
     7
100
AcDbCircle
 10
40.8645005664
 20
225.3448221658
 30
0.0
 40
23.99261074948731
100
AcDbArc
 50
182.3763800912
 51
208.6495550077
  0
ARC
  5
1BD
330
1B8
100
AcDbEntity
  8
$DDT_AUDIT_GENERATED_(6B)
  6
Continuous
 62
     7
100
AcDbCircle
 10
40.8629377642
 20
225.3474872359
 30
0.0
 40
24.00249694254001
100
AcDbArc
 50
331.3557794442
 51
357.6182077434
  0
SPLINE
  5
1BE
330
1B8
100
AcDbEntity
  8
$DDT_AUDIT_GENERATED_(6B)
  6
Continuous
 62
     7
100
AcDbSpline
210
0.0
220
0.0
230
1.0
 70
     8
 71
     3
 72
    18
 73
    14
 74
     0
 42
0.0000000001175944
 43
0.0000000001
 40
0.0
 40
0.0
 40
0.0
 40
0.0
 40
0.4999999999999998
 40
0.4999999999999998
 40
0.7499999999999997
 40
0.7499999999999997
 40
0.8749999999999996
 40
0.8749999999999996
 40
0.9062499999999997
 40
0.9062499999999997
 40
0.9374999999999998
 40
0.9374999999999998
 40
1.0
 40
1.0
 40
1.0
 40
1.0
 10
22.86848868925373
 20
129.3500047210489
 30
0.0
 10
22.86717797948781
 20
143.5132805372683
 30
0.0
 10
22.86887300275656
 20
157.6765576428958
 30
0.0
 10
22.85691679765268
 20
178.9214675456675
 30
0.0
 10
22.8590560625228
 20
186.0033567364203
 30
0.0
 10
22.78919633886971
 20
196.6246179166428
 30
0.0
 10
22.78134897790704
 20
200.1653586746603
 30
0.0
 10
22.56945299335975
 20
204.5870913092804
 30
0.0
 10
22.51468692199556
 20
205.4711808078149
 30
0.0
 10
22.32858862352036
 20
207.2377710525497
 30
0.0
 10
22.1938230336348
 20
208.1279472475528
 30
0.0
 10
21.50459104076599
 20
210.7071751069606
 30
0.0
 10
20.66135283871862
 20
212.2810065071974
 30
0.0
 10
19.80922391936354
 20
213.8414775282293
 30
0.0
  0
SPLINE
  5
1BF
330
1B8
100
AcDbEntity
  8
$DDT_AUDIT_GENERATED_(6B)
  6
Continuous
 62
     7
100
AcDbSpline
210
0.0
220
0.0
230
1.0
 70
     8
 71
     3
 72
    16
 73
    12
 74
     0
 42
0.0000000001175774
 43
0.0000000001
 40
0.0
 40
0.0
 40
0.0
 40
0.0
 40
0.0625000000000001
 40
0.0625000000000001
 40
0.1250000000000002
 40
0.1250000000000002
 40
0.2500000000000002
 40
0.2500000000000002
 40
0.5
 40
0.5
 40
1.0
 40
1.0
 40
1.0
 40
1.0
 10
61.92785750788802
 20
213.8414206617036
 30
0.0
 10
61.08160182153675
 20
212.2919505705182
 30
0.0
 10
60.24235204537697
 20
210.7276532051848
 30
0.0
 10
59.31905023094143
 20
207.3058424413239
 30
0.0
 10
59.2133966902823
 20
205.5211465489159
 30
0.0
 10
58.95572745276826
 20
200.2128462968823
 30
0.0
 10
58.94820242870912
 20
196.6677871131928
 30
0.0
 10
58.87788381942478
 20
186.0390933772955
 30
0.0
 10
58.88008875001488
 20
178.9527962694668
 30
0.0
 10
58.86809343485299
 20
157.6944604212065
 30
0.0
 10
58.86980022739895
 20
143.5222318434383
 30
0.0
 10
58.86848868925373
 20
129.3500047210489
 30
0.0
  0
LINE
  5
1C0
330
1B8
100
AcDbEntity
  8
$DDT_AUDIT_GENERATED_(6B)
  6
Continuous
 62
     7
100
AcDbLine
 10
22.8684886893
 20
124.350004721
 30
0.0
 11
22.8684886893
 21
129.350004721
 31
0.0
  0
LINE
  5
1C1
330
1B8
100
AcDbEntity
  8
$DDT_AUDIT_GENERATED_(6B)
  6
Continuous
 62
     7
100
AcDbLine
 10
58.8684886893
 20
129.350004721
 30
0.0
 11
58.8684886893
 21
124.350004721
 31
0.0
  0
ARC
  5
1C2
330
1B8
100
AcDbEntity
  8
$DDT_AUDIT_GENERATED_(6B)
  6
Continuous
 62
     7
100
AcDbCircle
 10
40.8684445423
 20
124.3501072348
 30
0.0
 40
18.00010723480507
100
AcDbArc
 50
180.0003263122
 51
359.9996736894
  0
LINE
  5
1C4
330
1B8
100
AcDbEntity
  8
$DDT_AUDIT_GENERATED_(1C3)
  6
Continuous
 62
     7
100
AcDbLine
 10
73.719452739
 20
238.300004721
 30
0.0
 11
71.9416995526
 21
238.300004721
 31
0.0
  0
LINE
  5
1C5
330
1B8
100
AcDbEntity
  8
$DDT_AUDIT_GENERATED_(168)
  6
Continuous
 62
     7
100
AcDbLine
 10
80.6684886893
 20
237.8582894662
 30
0.0
 11
80.6684886893
 21
222.9766315538
 31
0.0
  0
LINE
  5
1C6
330
1B8
100
AcDbEntity
  8
$DDT_AUDIT_GENERATED_(168)
  6
Continuous
 62
     7
100
AcDbLine
 10
69.1684886893
 20
202.300004721
 30
0.0
 11
69.1684886893
 21
221.9780833458
 31
0.0
  0
ARC
  5
1C7
330
1B8
100
AcDbEntity
  8
$DDT_AUDIT_GENERATED_(168)
  6
Continuous
 62
     7
100
AcDbCircle
 10
74.9184886893
 20
202.300004721
 30
0.0
 40
5.749999999999998
100
AcDbArc
 50
270.0
 51
0.0
  0
ARC
  5
1C8
330
1B8
100
AcDbEntity
  8
$DDT_AUDIT_GENERATED_(168)
  6
Continuous
 62
     7
100
AcDbCircle
 10
74.9184886893
 20
202.300004721
 30
0.0
 40
5.749999999999995
100
AcDbArc
 50
180.0
 51
270.0
  0
LINE
  5
1C9
330
1B8
100
AcDbEntity
  8
$DDT_AUDIT_GENERATED_(168)
  6
Continuous
 62
     7
100
AcDbLine
 10
80.6684886893
 20
222.9766315538
 30
0.0
 11
80.6684886893
 21
202.300004721
 31
0.0
  0
LINE
  5
1CA
330
1B8
100
AcDbEntity
  8
$DDT_AUDIT_GENERATED_(168)
  6
Continuous
 62
     7
100
AcDbLine
 10
74.9184886893
 20
196.550004721
 30
0.0
 11
74.9184886893
 21
197.5500367829
 31
0.0
  0
LINE
  5
1CB
330
1B8
100
AcDbEntity
  8
$DDT_AUDIT_GENERATED_(168)
  6
Continuous
 62
     7
100
AcDbLine
 10
74.9184886893
 20
238.450004721
 30
0.0
 11
74.9184886893
 21
222.7588023318
 31
0.0
  0
LINE
  5
1CC
330
1B8
100
AcDbEntity
  8
$DDT_AUDIT_GENERATED_(168)
  6
Continuous
 62
     7
100
AcDbLine
 10
74.9184886893
 20
222.2902809607
 30
0.0
 11
74.9184886893
 21
197.5500367829
 31
0.0
  0
LINE
  5
1CD
330
1B8
100
AcDbEntity
  8
$DDT_AUDIT_GENERATED_(168)
  6
Continuous
 62
     7
100
AcDbLine
 10
74.9184886893
 20
222.7588023318
 30
0.0
 11
74.9184886893
 21
222.2902809607
 31
0.0
  0
ARC
  5
1CE
330
1B8
100
AcDbEntity
  8
$DDT_AUDIT_GENERATED_(168)
  6
Continuous
 62
     7
100
AcDbCircle
 10
72.8305453493
 20
246.318619013
 30
0.0
 40
8.068428449350243
100
AcDbArc
 50
259.4086978724
 51
263.7340151728
  0
ARC
  5
1CF
330
1B8
100
AcDbEntity
  8
$DDT_AUDIT_GENERATED_(168)
  6
Continuous
 62
     7
100
AcDbCircle
 10
72.8305453493
 20
246.318619013
 30
0.0
 40
8.068428449350243
100
AcDbArc
 50
276.2611270676
 51
282.5913308635
  0
LINE
  5
1D0
330
1B8
100
AcDbEntity
  8
$DDT_AUDIT_GENERATED_(168)
  6
Continuous
 62
     7
100
AcDbLine
 10
80.1772148925
 20
238.3582133137
 30
0.0
 11
74.9184886893
 21
238.450004721
 31
0.0
  0
LINE
  5
1D1
330
1B8
100
AcDbEntity
  8
$DDT_AUDIT_GENERATED_(168)
  6
Continuous
 62
     7
100
AcDbLine
 10
71.3613822278
 20
238.3879151968
 30
0.0
 11
61.0992922697
 21
238.2087897503
 31
0.0
  0
LINE
  5
1D2
330
1B8
100
AcDbEntity
  8
$DDT_AUDIT_GENERATED_(168)
  6
Continuous
 62
     7
100
AcDbLine
 10
74.9184886893
 20
238.450004721
 30
0.0
 11
74.5757384654
 21
238.4440219936
 31
0.0
  0
LINE
  5
1D3
330
1B8
100
AcDbEntity
  8
$DDT_AUDIT_GENERATED_(168)
  6
Continuous
 62
     7
100
AcDbLine
 10
64.6872930271
 20
222.4285909056
 30
0.0
 11
68.6772148925
 21
222.3589465604
 31
0.0
  0
ARC
  5
1D4
330
1B8
100
AcDbEntity
  8
$DDT_AUDIT_GENERATED_(168)
  6
Continuous
 62
     7
100
AcDbCircle
 10
80.1684886893
 20
237.8582894662
 30
0.0
 40
0.5000000000000004
100
AcDbArc
 50
0.0
 51
89.0
  0
ARC
  5
1D5
330
1B8
100
AcDbEntity
  8
$DDT_AUDIT_GENERATED_(168)
  6
Continuous
 62
     7
100
AcDbCircle
 10
68.6684886893
 20
221.8590227128
 30
0.0
 40
0.4999999999999991
100
AcDbArc
 50
0.0
 51
89.0
  0
ARC
  5
1D7
330
1B8
100
AcDbEntity
  8
$DDT_AUDIT_GENERATED_(1D6)
  6
Continuous
 62
     7
100
AcDbCircle
 10
53.9753571177
 20
244.250004721
 30
0.0
 40
1.999999999999998
100
AcDbArc
 50
354.8981205465
 51
55.2592682222
  0
ARC
  5
1D8
330
1B8
100
AcDbEntity
  8
$DDT_AUDIT_GENERATED_(1D6)
  6
Continuous
 62
     7
100
AcDbCircle
 10
40.8684886893
 20
225.350004721
 30
0.0
 40
25.0
100
AcDbArc
 50
55.2592682222
 51
220.7675423376
  0
ARC
  5
1DA
330
1B8
100
AcDbEntity
  8
$DDT_AUDIT_GENERATED_(1D9)
  6
Continuous
 62
     7
100
AcDbCircle
 10
41.8684886893
 20
224.650004721
 30
0.0
 40
24.0
100
AcDbArc
 50
317.938269808
 51
354.6441133461
  0
ARC
  5
1DB
330
1B8
100
AcDbEntity
  8
$DDT_AUDIT_GENERATED_(1D9)
  6
Continuous
 62
     7
100
AcDbCircle
 10
41.8684886893
 20
224.650004721
 30
0.0
 40
24.0
100
AcDbArc
 50
34.4273374194
 51
56.1348328392
  0
ENDBLK
  5
1DD
330
1B8
100
AcDbEntity
  8
0
100
AcDbBlockEnd
  0
ENDSEC
  0
SECTION
  2
ENTITIES
  0
INSERT
  5
5F
330
1F
100
AcDbEntity
  8
Default
100
AcDbBlockReference
  2
SEANNOT_GROUP
 10
0.0
 20
0.0
 30
0.0
  0
INSERT
  5
65
330
1F
100
AcDbEntity
  8
Default
100
AcDbBlockReference
  2
SEANNOT_GROUP1
 10
0.0
 20
0.0
 30
0.0
  0
INSERT
  5
6A
330
1F
100
AcDbEntity
  8
Default
100
AcDbBlockReference
  2
SE
 10
0.0
 20
0.0
 30
0.0
  0
INSERT
  5
184
330
1F
100
AcDbEntity
  8
Default
100
AcDbBlockReference
  2
SE1
 10
0.0
 20
0.0
 30
0.0
  0
INSERT
  5
1B9
330
1F
100
AcDbEntity
  8
Default
100
AcDbBlockReference
  2
SE2
 10
0.0
 20
0.0
 30
0.0
  0
TEXT
  5
1DF
330
1F
100
AcDbEntity
  8
Default
  6
Continuous
 62
     7
100
AcDbText
 10
5.9362635081
 20
53.4225120485
 30
0.0
 40
10.0
  1
Grohe AG^J
  7
SEACAD_seiso_ttf
 11
5.9362635081
 21
63.4225120485
 31
0.0
100
AcDbText
 73
     3
  0
TEXT
  5
1E0
330
1F
100
AcDbEntity
  8
Default
  6
Continuous
 62
     7
100
AcDbText
 10
5.9362635081
 20
37.0588756849
 30
0.0
 40
10.0
  1
 
  7
SEACAD_seiso_ttf
 11
5.9362635081
 21
47.0588756849
 31
0.0
100
AcDbText
 73
     3
  0
TEXT
  5
1E1
330
1F
100
AcDbEntity
  8
Default
  6
Continuous
 62
     7
100
AcDbText
 10
5.9362635081
 20
20.6952393213
 30
0.0
 40
10.0
  1
ecn:
  7
SEACAD_seiso_ttf
 11
5.9362635081
 21
30.6952393213
 31
0.0
100
AcDbText
 73
     3
  0
TEXT
  5
1E2
330
1F
100
AcDbEntity
  8
Default
  6
Continuous
 62
     7
100
AcDbText
 10
5.9362635081
 20
4.3316029576
 30
0.0
 40
10.0
  1
unit: mm
  7
SEACAD_seiso_ttf
 11
5.9362635081
 21
14.3316029576
 31
0.0
100
AcDbText
 73
     3
  0
LINE
  5
1E3
330
1F
100
AcDbEntity
  8
Default
  6
Continuous
 62
     7
100
AcDbLine
 10
0.0
 20
0.0
 30
0.0
 11
100.0
 21
0.0
 31
0.0
  0
LINE
  5
1E4
330
1F
100
AcDbEntity
  8
Default
  6
Continuous
 62
     7
100
AcDbLine
 10
0.0
 20
0.0
 30
0.0
 11
0.0
 21
100.0
 31
0.0
  0
TEXT
  5
1E5
330
1F
100
AcDbEntity
  8
Default
  6
Continuous
 62
     7
100
AcDbText
 10
24.3923665681
 20
-18.2375342018
 30
0.0
 40
10.0
  1
100 mm
  7
SEACAD_seiso_ttf
 11
24.3923665681
 21
-8.2375342018
 31
0.0
100
AcDbText
 73
     3
  0
TEXT
  5
1E6
330
1F
100
AcDbEntity
  8
Default
  6
Continuous
 62
     7
100
AcDbText
 10
-7.6150308803
 20
24.6231930421
 30
0.0
 40
10.0
  1
100 mm
 50
90.0
  7
SEACAD_seiso_ttf
 11
-17.6150308803
 21
24.6231930421
 31
0.0
100
AcDbText
 73
     3
  0
TEXT
  5
1E7
330
1F
100
AcDbEntity
  8
Default
  6
Continuous
 62
     7
100
AcDbText
 10
28.4878128572
 20
20.0907663715
 30
0.0
 40
10.0
  1
222425
  7
SEACAD_seiso_ttf
 11
28.4878128572
 21
30.0907663715
 31
0.0
100
AcDbText
 73
     3
  0
TEXT
  5
1E8
330
1F
100
AcDbEntity
  8
Default
  6
Continuous
 62
     7
100
AcDbText
 10
5.9012241913
 20
36.7242780188
 30
0.0
 40
10.0
  1
36324000
  7
SEACAD_seiso_ttf
 11
5.9012241913
 21
46.7242780188
 31
0.0
100
AcDbText
 73
     3
  0
ENDSEC
  0
SECTION
  2
OBJECTS
  0
DICTIONARY
  5
C
330
0
100
AcDbDictionary
281
     1
  3
ACAD_GROUP
350
D
  3
ACAD_LAYOUT
350
1A
  3
ACAD_MLEADERSTYLE
350
1EC
  3
ACAD_MLINESTYLE
350
17
  3
ACAD_PLOTSETTINGS
350
19
  3
ACAD_PLOTSTYLENAME
350
E
  3
ACAD_SCALELIST
350
3B
  3
ACAD_TABLESTYLE
350
1EB
  3
ACAD_VISUALSTYLE
350
2A
  3
AcDbVariableDictionary
350
1E9
  0
DICTIONARY
  5
D
102
{ACAD_REACTORS
330
C
102
}
330
C
100
AcDbDictionary
281
     1
  0
DICTIONARY
  5
1A
102
{ACAD_REACTORS
330
C
102
}
330
C
100
AcDbDictionary
281
     1
  3
Layout1
350
1E
  3
Model
350
22
  0
DICTIONARY
  5
1EC
102
{ACAD_REACTORS
330
C
102
}
330
C
100
AcDbDictionary
281
     1
  0
DICTIONARY
  5
17
102
{ACAD_REACTORS
330
C
102
}
330
C
100
AcDbDictionary
281
     1
  3
Standard
350
18
  0
DICTIONARY
  5
19
102
{ACAD_REACTORS
330
C
102
}
330
C
100
AcDbDictionary
281
     1
  0
ACDBDICTIONARYWDFLT
  5
E
102
{ACAD_REACTORS
330
C
102
}
330
C
100
AcDbDictionary
281
     1
  3
Normal
350
F
100
AcDbDictionaryWithDefault
340
F
  0
DICTIONARY
  5
3B
102
{ACAD_REACTORS
330
C
102
}
330
C
100
AcDbDictionary
281
     1
  3
A0
350
3C
  3
A1
350
3D
  3
A2
350
3E
  3
A3
350
3F
  3
A4
350
40
  3
A5
350
41
  3
A6
350
42
  3
A7
350
43
  3
A8
350
44
  3
A9
350
45
  3
B0
350
46
  3
B1
350
47
  3
B2
350
48
  3
B3
350
49
  3
B4
350
4A
  3
B5
350
4B
  3
B6
350
4C
  3
B7
350
4D
  3
B8
350
4E
  3
B9
350
4F
  3
C0
350
50
  3
C1
350
51
  3
C2
350
52
  3
C3
350
53
  3
C4
350
54
  3
C5
350
55
  3
C6
350
56
  3
C7
350
57
  3
C8
350
58
  3
C9
350
59
  3
D0
350
5A
  3
D1
350
5B
  3
D2
350
5C
  0
DICTIONARY
  5
1EB
102
{ACAD_REACTORS
330
C
102
}
330
C
100
AcDbDictionary
281
     1
  0
DICTIONARY
  5
2A
102
{ACAD_REACTORS
330
C
102
}
330
C
100
AcDbDictionary
281
     1
  3
2dWireframe
350
2F
  3
3D Hidden
350
31
  3
3dWireframe
350
30
  3
Basic
350
32
  3
Brighten
350
36
  3
ColorChange
350
3A
  3
Conceptual
350
34
  3
Dim
350
35
  3
Facepattern
350
39
  3
Flat
350
2B
  3
FlatWithEdges
350
2C
  3
Gouraud
350
2D
  3
GouraudWithEdges
350
2E
  3
Linepattern
350
38
  3
Realistic
350
33
  3
Thicken
350
37
  0
DICTIONARY
  5
1E9
102
{ACAD_REACTORS
330
C
102
}
330
C
100
AcDbDictionary
281
     1
  3
CANNOSCALE
350
1EA
  3
PSOLHEIGHT
350
1EE
  3
PSOLWIDTH
350
1ED
  0
LAYOUT
  5
1E
102
{ACAD_REACTORS
330
1A
102
}
330
1A
100
AcDbPlotSettings
  1

  2
none_device
  4

  6

 40
0.0
 41
0.0
 42
0.0
 43
0.0
 44
0.0
 45
0.0
 46
0.0
 47
0.0
 48
0.0
 49
0.0
140
0.0
141
0.0
142
1.0
143
1.0
 70
   688
 72
     0
 73
     0
 74
     5
  7

 75
    16
147
1.0
148
0.0
149
0.0
100
AcDbLayout
  1
Layout1
 70
     1
 71
     1
 10
0.0
 20
0.0
 11
3000.0
 21
4500.0
 12
0.0
 22
0.0
 32
0.0
 14
0.0
 24
0.0
 34
0.0
 15
3000.0
 25
4500.0
 35
0.0
146
0.0
 13
0.0
 23
0.0
 33
0.0
 16
1.0
 26
0.0
 36
0.0
 17
0.0
 27
1.0
 37
0.0
 76
     0
330
1B
  0
LAYOUT
  5
22
102
{ACAD_REACTORS
330
1A
102
}
330
1A
100
AcDbPlotSettings
  1

  2
none_device
  4

  6

 40
0.0
 41
0.0
 42
0.0
 43
0.0
 44
0.0
 45
0.0
 46
0.0
 47
0.0
 48
0.0
 49
0.0
140
0.0
141
0.0
142
1.0
143
1.0
 70
  1712
 72
     0
 73
     0
 74
     0
  7

 75
     0
147
1.0
148
0.0
149
0.0
100
AcDbLayout
  1
Model
 70
     1
 71
     0
 10
0.0
 20
0.0
 11
3000.0
 21
4500.0
 12
0.0
 22
0.0
 32
0.0
 14
0.0
 24
0.0
 34
0.0
 15
3000.0
 25
4500.0
 35
0.0
146
0.0
 13
0.0
 23
0.0
 33
0.0
 16
1.0
 26
0.0
 36
0.0
 17
0.0
 27
1.0
 37
0.0
 76
     0
330
1F
331
29
  0
MLINESTYLE
  5
18
102
{ACAD_REACTORS
330
17
102
}
330
17
100
AcDbMlineStyle
  2
Standard
 70
     0
  3

 62
   256
 51
90.0
 52
90.0
 71
     2
 49
0.5
 62
   256
  6
BYLAYER
 49
-0.5
 62
   256
  6
BYLAYER
  0
ACDBPLACEHOLDER
  5
F
102
{ACAD_REACTORS
330
E
102
}
330
E
  0
SCALE
  5
3C
102
{ACAD_REACTORS
330
3B
102
}
330
3B
100
AcDbScale
 70
     0
300
1:1
140
1.0
141
1.0
290
     1
  0
SCALE
  5
3D
102
{ACAD_REACTORS
330
3B
102
}
330
3B
100
AcDbScale
 70
     0
300
1:2
140
1.0
141
2.0
290
     0
  0
SCALE
  5
3E
102
{ACAD_REACTORS
330
3B
102
}
330
3B
100
AcDbScale
 70
     0
300
1:4
140
1.0
141
4.0
290
     0
  0
SCALE
  5
3F
102
{ACAD_REACTORS
330
3B
102
}
330
3B
100
AcDbScale
 70
     0
300
1:5
140
1.0
141
5.0
290
     0
  0
SCALE
  5
40
102
{ACAD_REACTORS
330
3B
102
}
330
3B
100
AcDbScale
 70
     0
300
1:8
140
1.0
141
8.0
290
     0
  0
SCALE
  5
41
102
{ACAD_REACTORS
330
3B
102
}
330
3B
100
AcDbScale
 70
     0
300
1:10
140
1.0
141
10.0
290
     0
  0
SCALE
  5
42
102
{ACAD_REACTORS
330
3B
102
}
330
3B
100
AcDbScale
 70
     0
300
1:16
140
1.0
141
16.0
290
     0
  0
SCALE
  5
43
102
{ACAD_REACTORS
330
3B
102
}
330
3B
100
AcDbScale
 70
     0
300
1:20
140
1.0
141
20.0
290
     0
  0
SCALE
  5
44
102
{ACAD_REACTORS
330
3B
102
}
330
3B
100
AcDbScale
 70
     0
300
1:30
140
1.0
141
30.0
290
     0
  0
SCALE
  5
45
102
{ACAD_REACTORS
330
3B
102
}
330
3B
100
AcDbScale
 70
     0
300
1:40
140
1.0
141
40.0
290
     0
  0
SCALE
  5
46
102
{ACAD_REACTORS
330
3B
102
}
330
3B
100
AcDbScale
 70
     0
300
1:50
140
1.0
141
50.0
290
     0
  0
SCALE
  5
47
102
{ACAD_REACTORS
330
3B
102
}
330
3B
100
AcDbScale
 70
     0
300
1:100
140
1.0
141
100.0
290
     0
  0
SCALE
  5
48
102
{ACAD_REACTORS
330
3B
102
}
330
3B
100
AcDbScale
 70
     0
300
2:1
140
2.0
141
1.0
290
     0
  0
SCALE
  5
49
102
{ACAD_REACTORS
330
3B
102
}
330
3B
100
AcDbScale
 70
     0
300
4:1
140
4.0
141
1.0
290
     0
  0
SCALE
  5
4A
102
{ACAD_REACTORS
330
3B
102
}
330
3B
100
AcDbScale
 70
     0
300
8:1
140
8.0
141
1.0
290
     0
  0
SCALE
  5
4B
102
{ACAD_REACTORS
330
3B
102
}
330
3B
100
AcDbScale
 70
     0
300
10:1
140
10.0
141
1.0
290
     0
  0
SCALE
  5
4C
102
{ACAD_REACTORS
330
3B
102
}
330
3B
100
AcDbScale
 70
     0
300
100:1
140
100.0
141
1.0
290
     0
  0
SCALE
  5
4D
102
{ACAD_REACTORS
330
3B
102
}
330
3B
100
AcDbScale
 70
     0
300
1/128" = 1'-0"
140
0.0078125
141
12.0
290
     0
  0
SCALE
  5
4E
102
{ACAD_REACTORS
330
3B
102
}
330
3B
100
AcDbScale
 70
     0
300
1/64" = 1'-0"
140
0.015625
141
12.0
290
     0
  0
SCALE
  5
4F
102
{ACAD_REACTORS
330
3B
102
}
330
3B
100
AcDbScale
 70
     0
300
1/32" = 1'-0"
140
0.03125
141
12.0
290
     0
  0
SCALE
  5
50
102
{ACAD_REACTORS
330
3B
102
}
330
3B
100
AcDbScale
 70
     0
300
1/16" = 1'-0"
140
0.0625
141
12.0
290
     0
  0
SCALE
  5
51
102
{ACAD_REACTORS
330
3B
102
}
330
3B
100
AcDbScale
 70
     0
300
3/32" = 1'-0"
140
0.09375
141
12.0
290
     0
  0
SCALE
  5
52
102
{ACAD_REACTORS
330
3B
102
}
330
3B
100
AcDbScale
 70
     0
300
1/8" = 1'-0"
140
0.125
141
12.0
290
     0
  0
SCALE
  5
53
102
{ACAD_REACTORS
330
3B
102
}
330
3B
100
AcDbScale
 70
     0
300
3/16" = 1'-0"
140
0.1875
141
12.0
290
     0
  0
SCALE
  5
54
102
{ACAD_REACTORS
330
3B
102
}
330
3B
100
AcDbScale
 70
     0
300
1/4" = 1'-0"
140
0.25
141
12.0
290
     0
  0
SCALE
  5
55
102
{ACAD_REACTORS
330
3B
102
}
330
3B
100
AcDbScale
 70
     0
300
3/8" = 1'-0"
140
0.375
141
12.0
290
     0
  0
SCALE
  5
56
102
{ACAD_REACTORS
330
3B
102
}
330
3B
100
AcDbScale
 70
     0
300
1/2" = 1'-0"
140
0.5
141
12.0
290
     0
  0
SCALE
  5
57
102
{ACAD_REACTORS
330
3B
102
}
330
3B
100
AcDbScale
 70
     0
300
3/4" = 1'-0"
140
0.75
141
12.0
290
     0
  0
SCALE
  5
58
102
{ACAD_REACTORS
330
3B
102
}
330
3B
100
AcDbScale
 70
     0
300
1" = 1'-0"
140
1.0
141
12.0
290
     0
  0
SCALE
  5
59
102
{ACAD_REACTORS
330
3B
102
}
330
3B
100
AcDbScale
 70
     0
300
1-1/2" = 1'-0"
140
1.5
141
12.0
290
     0
  0
SCALE
  5
5A
102
{ACAD_REACTORS
330
3B
102
}
330
3B
100
AcDbScale
 70
     0
300
3" = 1'-0"
140
3.0
141
12.0
290
     0
  0
SCALE
  5
5B
102
{ACAD_REACTORS
330
3B
102
}
330
3B
100
AcDbScale
 70
     0
300
6" = 1'-0"
140
6.0
141
12.0
290
     0
  0
SCALE
  5
5C
102
{ACAD_REACTORS
330
3B
102
}
330
3B
100
AcDbScale
 70
     0
300
1'-0" = 1'-0"
140
12.0
141
12.0
290
     0
  0
VISUALSTYLE
  5
2F
102
{ACAD_REACTORS
330
2A
102
}
330
2A
100
AcDbVisualStyle
  2
2dWireframe
 70
     4
 71
     0
 72
     2
 73
     0
 90
        0
 40
-0.6
 41
-30.0
 62
     5
 63
     7
 74
     1
 91
        4
 64
     7
 65
   257
 75
     1
175
     1
 42
1.0
 92
        0
 66
   257
 43
1.0
 76
     1
 77
     6
 78
     2
 67
     7
 79
     5
170
     0
171
     0
290
     0
174
     0
 93
        1
 44
0.0
173
     0
291
     0
 45
0.0
1001
ACAD
1000
AcDbSavedByObjectVersion
1070
     0
  0
VISUALSTYLE
  5
31
102
{ACAD_REACTORS
330
2A
102
}
330
2A
100
AcDbVisualStyle
  2
3D Hidden
 70
     6
 71
     1
 72
     2
 73
     2
 90
        0
 40
-0.6
 41
-30.0
 62
     5
 63
     7
 74
     2
 91
        2
 64
     7
 65
   257
 75
     2
175
     1
 42
40.0
 92
        0
 66
   257
 43
1.0
 76
     1
 77
     6
 78
     2
 67
     7
 79
     3
170
     0
171
     0
290
     0
174
     0
 93
        1
 44
0.0
173
     0
291
     0
 45
0.0
1001
ACAD
1000
AcDbSavedByObjectVersion
1070
     0
  0
VISUALSTYLE
  5
30
102
{ACAD_REACTORS
330
2A
102
}
330
2A
100
AcDbVisualStyle
  2
3dWireframe
 70
     5
 71
     0
 72
     2
 73
     0
 90
        0
 40
-0.6
 41
-30.0
 62
     5
 63
     7
 74
     1
 91
        4
 64
     7
 65
   257
 75
     1
175
     1
 42
1.0
 92
        0
 66
   257
 43
1.0
 76
     1
 77
     6
 78
     2
 67
     7
 79
     5
170
     0
171
     0
290
     0
174
     0
 93
        1
 44
0.0
173
     0
291
     0
 45
0.0
1001
ACAD
1000
AcDbSavedByObjectVersion
1070
     0
  0
VISUALSTYLE
  5
32
102
{ACAD_REACTORS
330
2A
102
}
330
2A
100
AcDbVisualStyle
  2
Basic
 70
     7
 71
     1
 72
     0
 73
     1
 90
        0
 40
-0.6
 41
-30.0
 62
     5
 63
     7
 74
     0
 91
        4
 64
     7
 65
   257
 75
     1
175
     1
 42
1.0
 92
        8
 66
     7
 43
1.0
 76
     1
 77
     6
 78
     2
 67
     7
 79
     5
170
     0
171
     0
290
     0
174
     0
 93
        1
 44
0.0
173
     0
291
     1
 45
0.0
1001
ACAD
1000
AcDbSavedByObjectVersion
1070
     0
  0
VISUALSTYLE
  5
36
102
{ACAD_REACTORS
330
2A
102
}
330
2A
100
AcDbVisualStyle
  2
Brighten
 70
    12
 71
     2
 72
     2
 73
     0
 90
        0
 40
-0.6
 41
-30.0
 62
     5
 63
     7
 74
     1
 91
        4
 64
     7
 65
   257
 75
     1
175
     1
 42
1.0
 92
        8
 66
     7
 43
1.0
 76
     1
 77
     6
 78
     2
 67
     7
 79
     5
170
     0
171
     0
290
     0
174
     0
 93
        1
 44
50.0
173
     0
291
     1
 45
0.0
1001
ACAD
1000
AcDbSavedByObjectVersion
1070
     0
  0
VISUALSTYLE
  5
3A
102
{ACAD_REACTORS
330
2A
102
}
330
2A
100
AcDbVisualStyle
  2
ColorChange
 70
    16
 71
     2
 72
     2
 73
     3
 90
        0
 40
-0.6
 41
-30.0
 62
     5
 63
     8
 74
     1
 91
        4
 64
     7
 65
   257
 75
     1
175
     1
 42
1.0
 92
        8
 66
     8
 43
1.0
 76
     1
 77
     6
 78
     2
 67
     7
 79
     5
170
     0
171
     0
290
     0
174
     0
 93
        1
 44
0.0
173
     0
291
     1
 45
0.0
1001
ACAD
1000
AcDbSavedByObjectVersion
1070
     0
  0
VISUALSTYLE
  5
34
102
{ACAD_REACTORS
330
2A
102
}
330
2A
100
AcDbVisualStyle
  2
Conceptual
 70
     9
 71
     3
 72
     2
 73
     0
 90
        0
 40
-0.6
 41
-30.0
 62
     5
 63
     7
 74
     2
 91
        2
 64
     7
 65
   257
 75
     1
175
     1
 42
40.0
 92
        8
 66
     7
 43
1.0
 76
     1
 77
     6
 78
     2
 67
     7
 79
     3
170
     0
171
     0
290
     0
174
     0
 93
        1
 44
0.0
173
     0
291
     0
 45
0.0
1001
ACAD
1000
AcDbSavedByObjectVersion
1070
     0
  0
VISUALSTYLE
  5
35
102
{ACAD_REACTORS
330
2A
102
}
330
2A
100
AcDbVisualStyle
  2
Dim
 70
    11
 71
     2
 72
     2
 73
     0
 90
        0
 40
-0.6
 41
-30.0
 62
     5
 63
     7
 74
     1
 91
        4
 64
     7
 65
   257
 75
     1
175
     1
 42
1.0
 92
        8
 66
     7
 43
1.0
 76
     1
 77
     6
 78
     2
 67
     7
 79
     5
170
     0
171
     0
290
     0
174
     0
 93
        1
 44
-50.0
173
     0
291
     1
 45
0.0
1001
ACAD
1000
AcDbSavedByObjectVersion
1070
     0
  0
VISUALSTYLE
  5
39
102
{ACAD_REACTORS
330
2A
102
}
330
2A
100
AcDbVisualStyle
  2
Facepattern
 70
    15
 71
     2
 72
     2
 73
     0
 90
        0
 40
-0.6
 41
-30.0
 62
     5
 63
     7
 74
     1
 91
        4
 64
     7
 65
   257
 75
     1
175
     1
 42
1.0
 92
        8
 66
     7
 43
1.0
 76
     1
 77
     6
 78
     2
 67
     7
 79
     5
170
     0
171
     0
290
     0
174
     0
 93
        1
 44
0.0
173
     0
291
     1
 45
0.0
1001
ACAD
1000
AcDbSavedByObjectVersion
1070
     0
  0
VISUALSTYLE
  5
2B
102
{ACAD_REACTORS
330
2A
102
}
330
2A
100
AcDbVisualStyle
  2
Flat
 70
     0
 71
     2
 72
     1
 73
     1
 90
        2
 40
-0.6
 41
30.0
 62
     5
 63
     7
 74
     0
 91
        4
 64
     7
 65
   257
 75
     1
175
     1
 42
1.0
 92
        8
 66
     7
 43
1.0
 76
     1
 77
     6
 78
     2
 67
     7
 79
     5
170
     0
171
     0
290
     0
174
     0
 93
       13
 44
0.0
173
     0
291
     1
 45
0.0
1001
ACAD
1000
AcDbSavedByObjectVersion
1070
     0
  0
VISUALSTYLE
  5
2C
102
{ACAD_REACTORS
330
2A
102
}
330
2A
100
AcDbVisualStyle
  2
FlatWithEdges
 70
     1
 71
     2
 72
     1
 73
     1
 90
        2
 40
-0.6
 41
30.0
 62
     5
 63
     7
 74
     1
 91
        4
 64
     7
 65
   257
 75
     1
175
     1
 42
1.0
 92
        0
 66
   257
 43
1.0
 76
     1
 77
     6
 78
     2
 67
     7
 79
     5
170
     0
171
     0
290
     0
174
     0
 93
       13
 44
0.0
173
     0
291
     1
 45
0.0
1001
ACAD
1000
AcDbSavedByObjectVersion
1070
     0
  0
VISUALSTYLE
  5
2D
102
{ACAD_REACTORS
330
2A
102
}
330
2A
100
AcDbVisualStyle
  2
Gouraud
 70
     2
 71
     2
 72
     2
 73
     1
 90
        2
 40
-0.6
 41
30.0
 62
     5
 63
     7
 74
     0
 91
        4
 64
     7
 65
   257
 75
     1
175
     1
 42
1.0
 92
        0
 66
     7
 43
1.0
 76
     1
 77
     6
 78
     2
 67
     7
 79
     5
170
     0
171
     0
290
     0
174
     0
 93
       13
 44
0.0
173
     0
291
     1
 45
0.0
1001
ACAD
1000
AcDbSavedByObjectVersion
1070
     0
  0
VISUALSTYLE
  5
2E
102
{ACAD_REACTORS
330
2A
102
}
330
2A
100
AcDbVisualStyle
  2
GouraudWithEdges
 70
     3
 71
     2
 72
     2
 73
     1
 90
        2
 40
-0.6
 41
30.0
 62
     5
 63
     7
 74
     1
 91
        4
 64
     7
 65
   257
 75
     1
175
     1
 42
1.0
 92
        0
 66
   257
 43
1.0
 76
     1
 77
     6
 78
     2
 67
     7
 79
     5
170
     0
171
     0
290
     0
174
     0
 93
       13
 44
0.0
173
     0
291
     1
 45
0.0
1001
ACAD
1000
AcDbSavedByObjectVersion
1070
     0
  0
VISUALSTYLE
  5
38
102
{ACAD_REACTORS
330
2A
102
}
330
2A
100
AcDbVisualStyle
  2
Linepattern
 70
    14
 71
     2
 72
     2
 73
     0
 90
        0
 40
-0.6
 41
-30.0
 62
     5
 63
     7
 74
     1
 91
        4
 64
     7
 65
   257
 75
     7
175
     7
 42
1.0
 92
        8
 66
     7
 43
1.0
 76
     1
 77
     6
 78
     2
 67
     7
 79
     5
170
     0
171
     0
290
     0
174
     0
 93
        1
 44
0.0
173
     0
291
     1
 45
0.0
1001
ACAD
1000
AcDbSavedByObjectVersion
1070
     0
  0
VISUALSTYLE
  5
33
102
{ACAD_REACTORS
330
2A
102
}
330
2A
100
AcDbVisualStyle
  2
Realistic
 70
     8
 71
     2
 72
     2
 73
     0
 90
        0
 40
-0.6
 41
-30.0
 62
     5
 63
     7
 74
     1
 91
        0
 64
     7
 65
   257
 75
     1
175
     1
 42
1.0
 92
        8
 66
     8
 43
1.0
 76
     1
 77
     6
 78
     2
 67
     7
 79
     5
170
     0
171
     0
290
     0
174
     0
 93
       13
 44
0.0
173
     0
291
     0
 45
0.0
1001
ACAD
1000
AcDbSavedByObjectVersion
1070
     0
  0
VISUALSTYLE
  5
37
102
{ACAD_REACTORS
330
2A
102
}
330
2A
100
AcDbVisualStyle
  2
Thicken
 70
    13
 71
     2
 72
     2
 73
     0
 90
        0
 40
-0.6
 41
-30.0
 62
     5
 63
     7
 74
     1
 91
        4
 64
     7
 65
   257
 75
     1
175
     1
 42
1.0
 92
       12
 66
     7
 43
1.0
 76
     1
 77
     6
 78
     2
 67
     7
 79
     5
170
     0
171
     0
290
     0
174
     0
 93
        1
 44
0.0
173
     0
291
     1
 45
0.0
1001
ACAD
1000
AcDbSavedByObjectVersion
1070
     0
  0
DICTIONARYVAR
  5
1EA
102
{ACAD_REACTORS
330
1E9
102
}
330
1E9
100
DictionaryVariables
280
     0
  1
1:1
  0
DICTIONARYVAR
  5
1EE
102
{ACAD_REACTORS
330
1E9
102
}
330
1E9
100
DictionaryVariables
280
     0
  1
80.000000
  0
DICTIONARYVAR
  5
1ED
102
{ACAD_REACTORS
330
1E9
102
}
330
1E9
100
DictionaryVariables
280
     0
  1
5.000000
  0
ENDSEC
  0
EOF
